  0
SECTION
  2
HEADER
  9
$ACADVER
  1
AC1015
  9
$ACADMAINTVER
 70
     6
  9
$DWGCODEPAGE
  3
ANSI_1252
  9
$INSBASE
 10
0.0
 20
0.0
 30
0.0
  9
$EXTMIN
 10
0.0
 20
0.0
 30
0.0
  9
$EXTMAX
 10
3000.0
 20
4500.0
 30
0.0
  9
$LIMMIN
 10
0.0
 20
0.0
  9
$LIMMAX
 10
3000.0
 20
4500.0
  9
$ORTHOMODE
 70
     0
  9
$REGENMODE
 70
     1
  9
$FILLMODE
 70
     1
  9
$QTEXTMODE
 70
     0
  9
$MIRRTEXT
 70
     1
  9
$LTSCALE
 40
1.0
  9
$ATTMODE
 70
     1
  9
$TEXTSIZE
 40
2.5
  9
$TRACEWID
 40
1.0
  9
$TEXTSTYLE
  7
Standard
  9
$CLAYER
  8
0
  9
$CELTYPE
  6
ByLayer
  9
$CECOLOR
 62
   256
  9
$CELTSCALE
 40
1.0
  9
$DISPSILH
 70
     0
  9
$DIMSCALE
 40
1.0
  9
$DIMASZ
 40
2.5
  9
$DIMEXO
 40
0.625
  9
$DIMDLI
 40
3.75
  9
$DIMRND
 40
0.0
  9
$DIMDLE
 40
0.0
  9
$DIMEXE
 40
1.25
  9
$DIMTP
 40
0.0
  9
$DIMTM
 40
0.0
  9
$DIMTXT
 40
2.5
  9
$DIMCEN
 40
2.5
  9
$DIMTSZ
 40
0.0
  9
$DIMTOL
 70
     0
  9
$DIMLIM
 70
     0
  9
$DIMTIH
 70
     0
  9
$DIMTOH
 70
     0
  9
$DIMSE1
 70
     0
  9
$DIMSE2
 70
     0
  9
$DIMTAD
 70
     1
  9
$DIMZIN
 70
     8
  9
$DIMBLK
  1

  9
$DIMASO
 70
     1
  9
$DIMSHO
 70
     1
  9
$DIMPOST
  1

  9
$DIMAPOST
  1

  9
$DIMALT
 70
     0
  9
$DIMALTD
 70
     3
  9
$DIMALTF
 40
0.0393700787
  9
$DIMLFAC
 40
1.0
  9
$DIMTOFL
 70
     1
  9
$DIMTVP
 40
0.0
  9
$DIMTIX
 70
     0
  9
$DIMSOXD
 70
     0
  9
$DIMSAH
 70
     0
  9
$DIMBLK1
  1

  9
$DIMBLK2
  1

  9
$DIMSTYLE
  2
ISO-25
  9
$DIMCLRD
 70
     0
  9
$DIMCLRE
 70
     0
  9
$DIMCLRT
 70
     0
  9
$DIMTFAC
 40
1.0
  9
$DIMGAP
 40
0.625
  9
$DIMJUST
 70
     0
  9
$DIMSD1
 70
     0
  9
$DIMSD2
 70
     0
  9
$DIMTOLJ
 70
     0
  9
$DIMTZIN
 70
     8
  9
$DIMALTZ
 70
     0
  9
$DIMALTTZ
 70
     0
  9
$DIMUPT
 70
     0
  9
$DIMDEC
 70
     2
  9
$DIMTDEC
 70
     2
  9
$DIMALTU
 70
     2
  9
$DIMALTTD
 70
     3
  9
$DIMTXSTY
  7
Standard
  9
$DIMAUNIT
 70
     0
  9
$DIMADEC
 70
     0
  9
$DIMALTRND
 40
0.0
  9
$DIMAZIN
 70
     0
  9
$DIMDSEP
 70
    44
  9
$DIMATFIT
 70
     3
  9
$DIMFRAC
 70
     0
  9
$DIMLDRBLK
  1

  9
$DIMLUNIT
 70
     2
  9
$DIMLWD
 70
    -2
  9
$DIMLWE
 70
    -2
  9
$DIMTMOVE
 70
     0
  9
$LUNITS
 70
     2
  9
$LUPREC
 70
     4
  9
$SKETCHINC
 40
1.0
  9
$FILLETRAD
 40
10.0
  9
$AUNITS
 70
     0
  9
$AUPREC
 70
     0
  9
$MENU
  1
.
  9
$ELEVATION
 40
0.0
  9
$PELEVATION
 40
0.0
  9
$THICKNESS
 40
0.0
  9
$LIMCHECK
 70
     0
  9
$CHAMFERA
 40
10.0
  9
$CHAMFERB
 40
10.0
  9
$CHAMFERC
 40
20.0
  9
$CHAMFERD
 40
0.0
  9
$SKPOLY
 70
     0
  9
$TDCREATE
 40
2456258.460608345
  9
$TDUCREATE
 40
2456258.418941678
  9
$TDUPDATE
 40
2456258.460608357
  9
$TDUUPDATE
 40
2456258.41894169
  9
$TDINDWG
 40
0.0000000116
  9
$TDUSRTIMER
 40
0.0000000116
  9
$USRTIMER
 70
     1
  9
$ANGBASE
 50
0.0
  9
$ANGDIR
 70
     0
  9
$PDMODE
 70
     0
  9
$PDSIZE
 40
0.0
  9
$PLINEWID
 40
0.0
  9
$SPLFRAME
 70
     0
  9
$SPLINETYPE
 70
     6
  9
$SPLINESEGS
 70
     8
  9
$HANDSEED
  5
3C4
  9
$SURFTAB1
 70
     6
  9
$SURFTAB2
 70
     6
  9
$SURFTYPE
 70
     6
  9
$SURFU
 70
     6
  9
$SURFV
 70
     6
  9
$UCSBASE
  2

  9
$UCSNAME
  2

  9
$UCSORG
 10
0.0
 20
0.0
 30
0.0
  9
$UCSXDIR
 10
1.0
 20
0.0
 30
0.0
  9
$UCSYDIR
 10
0.0
 20
1.0
 30
0.0
  9
$UCSORTHOREF
  2

  9
$UCSORTHOVIEW
 70
     0
  9
$UCSORGTOP
 10
0.0
 20
0.0
 30
0.0
  9
$UCSORGBOTTOM
 10
0.0
 20
0.0
 30
0.0
  9
$UCSORGLEFT
 10
0.0
 20
0.0
 30
0.0
  9
$UCSORGRIGHT
 10
0.0
 20
0.0
 30
0.0
  9
$UCSORGFRONT
 10
0.0
 20
0.0
 30
0.0
  9
$UCSORGBACK
 10
0.0
 20
0.0
 30
0.0
  9
$PUCSBASE
  2

  9
$PUCSNAME
  2

  9
$PUCSORG
 10
0.0
 20
0.0
 30
0.0
  9
$PUCSXDIR
 10
1.0
 20
0.0
 30
0.0
  9
$PUCSYDIR
 10
0.0
 20
1.0
 30
0.0
  9
$PUCSORTHOREF
  2

  9
$PUCSORTHOVIEW
 70
     0
  9
$PUCSORGTOP
 10
0.0
 20
0.0
 30
0.0
  9
$PUCSORGBOTTOM
 10
0.0
 20
0.0
 30
0.0
  9
$PUCSORGLEFT
 10
0.0
 20
0.0
 30
0.0
  9
$PUCSORGRIGHT
 10
0.0
 20
0.0
 30
0.0
  9
$PUCSORGFRONT
 10
0.0
 20
0.0
 30
0.0
  9
$PUCSORGBACK
 10
0.0
 20
0.0
 30
0.0
  9
$USERI1
 70
     0
  9
$USERI2
 70
     0
  9
$USERI3
 70
     0
  9
$USERI4
 70
     0
  9
$USERI5
 70
     0
  9
$USERR1
 40
0.0
  9
$USERR2
 40
0.0
  9
$USERR3
 40
0.0
  9
$USERR4
 40
0.0
  9
$USERR5
 40
0.0
  9
$WORLDVIEW
 70
     1
  9
$SHADEDGE
 70
     3
  9
$SHADEDIF
 70
    70
  9
$TILEMODE
 70
     1
  9
$MAXACTVP
 70
    64
  9
$PINSBASE
 10
0.0
 20
0.0
 30
0.0
  9
$PLIMCHECK
 70
     0
  9
$PEXTMIN
 10
0.0
 20
0.0
 30
0.0
  9
$PEXTMAX
 10
3000.0
 20
4500.0
 30
0.0
  9
$PLIMMIN
 10
0.0
 20
0.0
  9
$PLIMMAX
 10
3000.0
 20
4500.0
  9
$UNITMODE
 70
     0
  9
$VISRETAIN
 70
     1
  9
$PLINEGEN
 70
     0
  9
$PSLTSCALE
 70
     1
  9
$TREEDEPTH
 70
  3020
  9
$CMLSTYLE
  2
Standard
  9
$CMLJUST
 70
     0
  9
$CMLSCALE
 40
20.0
  9
$PROXYGRAPHICS
 70
     1
  9
$MEASUREMENT
 70
     1
  9
$CELWEIGHT
370
    -1
  9
$ENDCAPS
280
     0
  9
$JOINSTYLE
280
     0
  9
$LWDISPLAY
290
     0
  9
$INSUNITS
 70
     4
  9
$HYPERLINKBASE
  1

  9
$STYLESHEET
  1

  9
$XEDIT
290
     1
  9
$CEPSNTYPE
380
     0
  9
$PSTYLEMODE
290
     1
  9
$FINGERPRINTGUID
  2
{8EDE0B2A-7CC4-4A87-904C-29BB0C8C06B9}
  9
$VERSIONGUID
  2
{FAEB1C32-E019-11D5-929B-00C0DF256EC4}
  9
$EXTNAMES
290
     1
  9
$PSVPSCALE
 40
0.0
  9
$OLESTARTUP
290
     0
  0
ENDSEC
  0
SECTION
  2
CLASSES
  0
CLASS
  1
ACDBDICTIONARYWDFLT
  2
AcDbDictionaryWithDefault
  3
ObjectDBX Classes
 90
        0
280
     0
281
     0
  0
CLASS
  1
VISUALSTYLE
  2
AcDbVisualStyle
  3
ObjectDBX Classes
 90
     4095
280
     0
281
     0
  0
CLASS
  1
SCALE
  2
AcDbScale
  3
ObjectDBX Classes
 90
     1153
280
     0
281
     0
  0
CLASS
  1
DICTIONARYVAR
  2
AcDbDictionaryVar
  3
ObjectDBX Classes
 90
        0
280
     0
281
     0
  0
CLASS
  1
ACDBPLACEHOLDER
  2
AcDbPlaceHolder
  3
ObjectDBX Classes
 90
        0
280
     0
281
     0
  0
CLASS
  1
LAYOUT
  2
AcDbLayout
  3
ObjectDBX Classes
 90
        0
280
     0
281
     0
  0
ENDSEC
  0
SECTION
  2
TABLES
  0
TABLE
  2
VPORT
  5
8
330
0
100
AcDbSymbolTable
 70
     1
  0
VPORT
  5
29
330
8
100
AcDbSymbolTableRecord
100
AcDbViewportTableRecord
  2
*Active
 70
     0
 10
0.0
 20
0.0
 11
1.0
 21
1.0
 12
344.1869158879
 22
148.5
 13
0.0
 23
0.0
 14
10.0
 24
10.0
 15
10.0
 25
10.0
 16
0.0
 26
0.0
 36
1.0
 17
0.0
 27
0.0
 37
0.0
 40
297.0
 41
1.9729729729
 42
50.0
 43
0.0
 44
0.0
 50
0.0
 51
0.0
 71
     0
 72
   100
 73
     1
 74
     3
 75
     0
 76
     0
 77
     0
 78
     0
281
     0
 65
     1
110
0.0
120
0.0
130
0.0
111
1.0
121
0.0
131
0.0
112
0.0
122
1.0
132
0.0
 79
     0
146
0.0
  0
ENDTAB
  0
TABLE
  2
LTYPE
  5
5
330
0
100
AcDbSymbolTable
 70
     2
  0
LTYPE
  5
14
330
5
100
AcDbSymbolTableRecord
100
AcDbLinetypeTableRecord
  2
ByBlock
 70
     0
  3

 72
    65
 73
     0
 40
0.0
  0
LTYPE
  5
15
330
5
100
AcDbSymbolTableRecord
100
AcDbLinetypeTableRecord
  2
ByLayer
 70
     0
  3

 72
    65
 73
     0
 40
0.0
  0
LTYPE
  5
16
330
5
100
AcDbSymbolTableRecord
100
AcDbLinetypeTableRecord
  2
Continuous
 70
     0
  3
Solid line
 72
    65
 73
     0
 40
0.0
  0
LTYPE
  5
65
330
5
100
AcDbSymbolTableRecord
100
AcDbLinetypeTableRecord
  2
CENTER2
 70
     0
  3
Center (.5x) ___ _ ___ _ ___ _ ___ _ ___ _ ___
 72
    65
 73
     4
 40
28.575
 49
19.05
 74
     4
 75
     0
340
0
 46
0.0
 50
0.0
 44
0.0
 45
0.0
 49
-3.175
 74
     4
 75
     0
340
0
 46
0.0
 50
0.0
 44
0.0
 45
0.0
 49
3.175
 74
     4
 75
     0
340
0
 46
0.0
 50
0.0
 44
0.0
 45
0.0
 49
-3.175
 74
     4
 75
     0
340
0
 46
0.0
 50
0.0
 44
0.0
 45
0.0
  0
ENDTAB
  0
TABLE
  2
LAYER
  5
2
330
0
100
AcDbSymbolTable
 70
     5
  0
LAYER
  5
10
330
2
100
AcDbSymbolTableRecord
100
AcDbLayerTableRecord
  2
0
 70
     0
 62
     7
  6
Continuous
370
    -3
390
F
  0
LAYER
  5
5D
330
2
100
AcDbSymbolTableRecord
100
AcDbLayerTableRecord
  2
Default
 70
     0
 62
     7
  6
Continuous
370
    -3
390
F
  0
LAYER
  5
78
330
2
100
AcDbSymbolTableRecord
100
AcDbLayerTableRecord
  2
DV1_Default
 70
     0
 62
     7
  6
Continuous
370
    -3
390
F
  0
LAYER
  5
150
330
2
100
AcDbSymbolTableRecord
100
AcDbLayerTableRecord
  2
DV2_Default
 70
     0
 62
     7
  6
Continuous
370
    -3
390
F
  0
LAYER
  5
242
330
2
100
AcDbSymbolTableRecord
100
AcDbLayerTableRecord
  2
DV3_Default
 70
     0
 62
     7
  6
Continuous
370
    -3
390
F
  0
ENDTAB
  0
TABLE
  2
STYLE
  5
3
330
0
100
AcDbSymbolTable
 70
     2
  0
STYLE
  5
11
330
3
100
AcDbSymbolTableRecord
100
AcDbTextStyleTableRecord
  2
Standard
 70
     0
 40
0.0
 41
1.0
 50
0.0
 71
     0
 42
2.5
  3
txt
  4

  0
STYLE
  5
3B3
330
3
100
AcDbSymbolTableRecord
100
AcDbTextStyleTableRecord
  2
SEACAD_seiso_ttf
 70
     0
 40
0.0
 41
1.0
 50
0.0
 71
     0
 42
0.2
  3
seiso.ttf
  4

  0
ENDTAB
  0
TABLE
  2
VIEW
  5
6
330
0
100
AcDbSymbolTable
 70
     0
  0
ENDTAB
  0
TABLE
  2
UCS
  5
7
330
0
100
AcDbSymbolTable
 70
     0
  0
ENDTAB
  0
TABLE
  2
APPID
  5
9
330
0
100
AcDbSymbolTable
 70
     1
  0
APPID
  5
12
330
9
100
AcDbSymbolTableRecord
100
AcDbRegAppTableRecord
  2
ACAD
 70
     0
  0
ENDTAB
  0
TABLE
  2
DIMSTYLE
  5
A
330
0
100
AcDbSymbolTable
 70
     1
100
AcDbDimStyleTable
  0
DIMSTYLE
105
27
330
A
100
AcDbSymbolTableRecord
100
AcDbDimStyleTableRecord
  2
ISO-25
 70
     0
 41
2.5
 42
0.625
 43
3.75
 44
1.25
 73
     0
 74
     0
 77
     1
 78
     8
140
2.5
141
2.5
143
0.0393700787
147
0.625
171
     3
172
     1
271
     2
272
     2
274
     3
278
    44
283
     0
284
     8
340
11
  0
ENDTAB
  0
TABLE
  2
BLOCK_RECORD
  5
1
330
0
100
AcDbSymbolTable
 70
     7
  0
BLOCK_RECORD
  5
1F
330
1
100
AcDbSymbolTableRecord
100
AcDbBlockTableRecord
  2
*Model_Space
340
22
  0
BLOCK_RECORD
  5
1B
330
1
100
AcDbSymbolTableRecord
100
AcDbBlockTableRecord
  2
*Paper_Space
340
1E
  0
BLOCK_RECORD
  5
63
330
1
100
AcDbSymbolTableRecord
100
AcDbBlockTableRecord
  2
SEANNOT_GROUP
340
0
102
{BLKREFS
331
64
102
}
  0
BLOCK_RECORD
  5
6A
330
1
100
AcDbSymbolTableRecord
100
AcDbBlockTableRecord
  2
SEANNOT_GROUP1
340
0
102
{BLKREFS
331
6B
102
}
  0
BLOCK_RECORD
  5
70
330
1
100
AcDbSymbolTableRecord
100
AcDbBlockTableRecord
  2
SEANNOT_GROUP2
340
0
102
{BLKREFS
331
71
102
}
  0
BLOCK_RECORD
  5
76
330
1
100
AcDbSymbolTableRecord
100
AcDbBlockTableRecord
  2
SE
340
0
102
{BLKREFS
331
77
102
}
  0
BLOCK_RECORD
  5
14E
330
1
100
AcDbSymbolTableRecord
100
AcDbBlockTableRecord
  2
SE1
340
0
102
{BLKREFS
331
14F
102
}
  0
BLOCK_RECORD
  5
240
330
1
100
AcDbSymbolTableRecord
100
AcDbBlockTableRecord
  2
SE2
340
0
102
{BLKREFS
331
241
102
}
  0
ENDTAB
  0
ENDSEC
  0
SECTION
  2
BLOCKS
  0
BLOCK
  5
20
330
1F
100
AcDbEntity
  8
0
100
AcDbBlockBegin
  2
*Model_Space
 70
     0
 10
0.0
 20
0.0
 30
0.0
  3
*Model_Space
  1

  0
ENDBLK
  5
21
330
1F
100
AcDbEntity
  8
0
100
AcDbBlockEnd
  0
BLOCK
  5
1C
330
1B
100
AcDbEntity
 67
     1
  8
0
100
AcDbBlockBegin
  2
*Paper_Space
 70
     0
 10
0.0
 20
0.0
 30
0.0
  3
*Paper_Space
  1

  0
ENDBLK
  5
1D
330
1B
100
AcDbEntity
 67
     1
  8
0
100
AcDbBlockEnd
  0
BLOCK
  5
68
330
63
100
AcDbEntity
  8
0
100
AcDbBlockBegin
  2
SEANNOT_GROUP
 70
     0
 10
0.0
 20
0.0
 30
0.0
  3
SEANNOT_GROUP
  1

  0
LINE
  5
66
330
63
100
AcDbEntity
  8
Default
  6
CENTER2
 62
     7
100
AcDbLine
 10
475.9965557658
 20
279.0415220128
 30
0.0
 11
435.9965566599
 21
279.0415220128
 31
0.0
  0
LINE
  5
67
330
63
100
AcDbEntity
  8
Default
  6
CENTER2
 62
     7
100
AcDbLine
 10
455.9965562128
 20
299.0415215658
 30
0.0
 11
455.9965562128
 21
259.0415224599
 31
0.0
  0
ENDBLK
  5
69
330
63
100
AcDbEntity
  8
0
100
AcDbBlockEnd
  0
BLOCK
  5
6E
330
6A
100
AcDbEntity
  8
0
100
AcDbBlockBegin
  2
SEANNOT_GROUP1
 70
     0
 10
0.0
 20
0.0
 30
0.0
  3
SEANNOT_GROUP1
  1

  0
LINE
  5
6C
330
6A
100
AcDbEntity
  8
Default
  6
CENTER2
 62
     7
100
AcDbLine
 10
389.9341939435
 20
192.7823424288
 30
0.0
 11
349.9341948376
 21
192.7823424288
 31
0.0
  0
LINE
  5
6D
330
6A
100
AcDbEntity
  8
Default
  6
CENTER2
 62
     7
100
AcDbLine
 10
369.9341943906
 20
212.7823419818
 30
0.0
 11
369.9341943906
 21
172.7823428758
 31
0.0
  0
ENDBLK
  5
6F
330
6A
100
AcDbEntity
  8
0
100
AcDbBlockEnd
  0
BLOCK
  5
74
330
70
100
AcDbEntity
  8
0
100
AcDbBlockBegin
  2
SEANNOT_GROUP2
 70
     0
 10
0.0
 20
0.0
 30
0.0
  3
SEANNOT_GROUP2
  1

  0
LINE
  5
72
330
70
100
AcDbEntity
  8
Default
  6
CENTER2
 62
     7
100
AcDbLine
 10
49.9096645541
 20
192.7823424288
 30
0.0
 11
9.9096654482
 21
192.7823424288
 31
0.0
  0
LINE
  5
73
330
70
100
AcDbEntity
  8
Default
  6
CENTER2
 62
     7
100
AcDbLine
 10
29.9096650012
 20
212.7823419818
 30
0.0
 11
29.9096650012
 21
172.7823428758
 31
0.0
  0
ENDBLK
  5
75
330
70
100
AcDbEntity
  8
0
100
AcDbBlockEnd
  0
BLOCK
  5
14C
330
76
100
AcDbEntity
  8
0
100
AcDbBlockBegin
  2
SE
 70
     0
 10
0.0
 20
0.0
 30
0.0
  3
SE
  1

  0
SPLINE
  5
79
330
76
100
AcDbEntity
  8
DV1_Default
  6
Continuous
 62
     7
100
AcDbSpline
210
0.0
220
0.0
230
1.0
 70
     8
 71
     3
 72
    26
 73
    22
 74
     0
 42
0.0000000002815286
 43
0.0000000001
 40
0.0
 40
0.0
 40
0.0
 40
0.0
 40
0.0191768080777828
 40
0.0416945179488065
 40
0.0670500586268846
 40
0.0947429120779458
 40
0.1242758237570273
 40
0.1649535235153698
 40
0.2072970023482325
 40
0.2508066386189837
 40
0.310045568934783
 40
0.3694916339896439
 40
0.4287414583523361
 40
0.4875190293755444
 40
0.5628420005534902
 40
0.6371903343960441
 40
0.7107913276133844
 40
0.7838552916487073
 40
0.8565701236054256
 40
0.9288094995133043
 40
1.0
 40
1.0
 40
1.0
 40
1.0
 10
495.505803394779
 20
289.0451413381115
 30
0.0
 10
495.256078051613
 20
289.0461057572355
 30
0.0
 10
494.7975756759811
 20
289.0482313477152
 30
0.0
 10
493.9874883924801
 20
289.0632492253051
 30
0.0
 10
493.0985721365946
 20
289.0906041048278
 30
0.0
 10
492.1202654561409
 20
289.1344886995652
 30
0.0
 10
490.963821547568
 20
289.204687043237
 30
0.0
 10
489.6354991804487
 20
289.3138837468289
 30
0.0
 10
488.1460004508986
 20
289.4735733560728
 30
0.0
 10
486.4430674171974
 20
289.6995454038501
 30
0.0
 10
484.5479073088921
 20
290.011221116249
 30
0.0
 10
482.4839874078867
 20
290.4352607351993
 30
0.0
 10
480.4432099359864
 20
290.936860931834
 30
0.0
 10
478.2419781069771
 20
291.5665527409234
 30
0.0
 10
475.9000883898051
 20
292.3471466017461
 30
0.0
 10
473.4285067306535
 20
293.2865157504232
 30
0.0
 10
471.0154659995914
 20
294.2963772910098
 30
0.0
 10
468.6418141529296
 20
295.3598446739865
 30
0.0
 10
466.3151918368503
 20
296.4452725892614
 30
0.0
 10
463.9603306283926
 20
297.5693244695706
 30
0.0
 10
462.5501929127403
 20
298.2687235102011
 30
0.0
 10
461.7199303548524
 20
298.6811785084431
 30
0.0
  0
LINE
  5
7A
330
76
100
AcDbEntity
  8
DV1_Default
  6
Continuous
 62
     7
100
AcDbLine
 10
495.9965562019
 20
270.182299584
 30
0.0
 11
495.9965562019
 21
270.2524981588
 31
0.0
  0
LINE
  5
7B
330
76
100
AcDbEntity
  8
DV1_Default
  6
Continuous
 62
     7
100
AcDbLine
 10
495.9965562018
 20
272.8911921726
 30
0.0
 11
495.9965562018
 21
272.2581199693
 31
0.0
  0
LINE
  5
7C
330
76
100
AcDbEntity
  8
DV1_Default
  6
Continuous
 62
     7
100
AcDbLine
 10
495.9965562018
 20
271.1652518817
 30
0.0
 11
495.9965562018
 21
270.9239219945
 31
0.0
  0
LINE
  5
7D
330
76
100
AcDbEntity
  8
DV1_Default
  6
Continuous
 62
     7
100
AcDbLine
 10
495.9965562018
 20
270.8186938147
 30
0.0
 11
495.9965562018
 21
270.7557215831
 31
0.0
  0
LINE
  5
7E
330
76
100
AcDbEntity
  8
DV1_Default
  6
Continuous
 62
     7
100
AcDbLine
 10
495.9965562018
 20
270.6257564945
 30
0.0
 11
495.9965562018
 21
270.5324808748
 31
0.0
  0
LINE
  5
7F
330
76
100
AcDbEntity
  8
DV1_Default
  6
Continuous
 62
     7
100
AcDbLine
 10
495.9965562019
 20
270.2524981588
 30
0.0
 11
495.9965562019
 21
270.3340837644
 31
0.0
  0
LINE
  5
80
330
76
100
AcDbEntity
  8
DV1_Default
  6
Continuous
 62
     7
100
AcDbLine
 10
495.9965562019
 20
286.4918363883
 30
0.0
 11
495.9965562018
 21
286.6607223874
 31
0.0
  0
LINE
  5
81
330
76
100
AcDbEntity
  8
DV1_Default
  6
Continuous
 62
     7
100
AcDbLine
 10
495.9965562018
 20
286.2121708096
 30
0.0
 11
495.9965562019
 21
286.4918363883
 31
0.0
  0
LINE
  5
82
330
76
100
AcDbEntity
  8
DV1_Default
  6
Continuous
 62
     7
100
AcDbLine
 10
460.9965562156
 20
262.4298367668
 30
0.0
 11
460.9965562156
 21
262.9502474451
 31
0.0
  0
LINE
  5
83
330
76
100
AcDbEntity
  8
DV1_Default
  6
Continuous
 62
     7
100
AcDbLine
 10
497.9965562283
 20
288.1438555361
 30
0.0
 11
497.9965562283
 21
288.2405414434
 31
0.0
  0
LINE
  5
84
330
76
100
AcDbEntity
  8
DV1_Default
  6
Continuous
 62
     7
100
AcDbLine
 10
497.9965562283
 20
269.9635180999
 30
0.0
 11
497.9965562283
 21
269.8629145074
 31
0.0
  0
LINE
  5
85
330
76
100
AcDbEntity
  8
DV1_Default
  6
Continuous
 62
     7
100
AcDbLine
 10
497.9965562283
 20
269.561303096
 30
0.0
 11
497.9965562283
 21
269.3125235127
 31
0.0
  0
LINE
  5
86
330
76
100
AcDbEntity
  8
DV1_Default
  6
Continuous
 62
     7
100
AcDbLine
 10
497.9965562317
 20
269.2068861011
 30
0.0
 11
497.9965562304
 21
269.1812379475
 31
0.0
  0
LINE
  5
87
330
76
100
AcDbEntity
  8
DV1_Default
  6
Continuous
 62
     7
100
AcDbLine
 10
495.9965562031
 20
269.1846044942
 30
0.0
 11
495.9965562053
 21
269.1407849063
 31
0.0
  0
LINE
  5
88
330
76
100
AcDbEntity
  8
DV1_Default
  6
Continuous
 62
     7
100
AcDbLine
 10
495.9965562053
 20
269.3125218079
 30
0.0
 11
495.9965562027
 21
269.232075659
 31
0.0
  0
LINE
  5
89
330
76
100
AcDbEntity
  8
DV1_Default
  6
Continuous
 62
     7
100
AcDbLine
 10
495.9965562053
 20
269.8928873387
 30
0.0
 11
495.9965562053
 21
269.9688764436
 31
0.0
  0
LINE
  5
8A
330
76
100
AcDbEntity
  8
DV1_Default
  6
Continuous
 62
     7
100
AcDbLine
 10
495.9965562027
 20
287.5533791327
 30
0.0
 11
495.9965562053
 21
287.4731018321
 31
0.0
  0
ARC
  5
8B
330
76
100
AcDbEntity
  8
DV1_Default
  6
Continuous
 62
     7
100
AcDbCircle
 10
479.9305300835
 20
288.5791056822
 30
0.0
 40
18.06502272577111
100
AcDbArc
 50
0.9692435478
 51
1.873799755
  0
LINE
  5
8C
330
76
100
AcDbEntity
  8
DV1_Default
  6
Continuous
 62
     7
100
AcDbLine
 10
497.9965562317
 20
270.652773406
 30
0.0
 11
497.9965562317
 21
270.7058693912
 31
0.0
  0
LINE
  5
8D
330
76
100
AcDbEntity
  8
DV1_Default
  6
Continuous
 62
     7
100
AcDbLine
 10
497.9965562317
 20
270.7825917981
 30
0.0
 11
497.9965562317
 21
271.0718363351
 31
0.0
  0
ARC
  5
8E
330
76
100
AcDbEntity
  8
DV1_Default
  6
Continuous
 62
     7
100
AcDbCircle
 10
535.520195392
 20
346.290682416
 30
0.0
 40
76.61021210756762
100
AcDbArc
 50
273.2479393957
 51
273.3534184008
  0
ARC
  5
8F
330
76
100
AcDbEntity
  8
DV1_Default
  6
Continuous
 62
     7
100
AcDbCircle
 10
535.520195392
 20
346.290682416
 30
0.0
 40
76.61021210756762
100
AcDbArc
 50
273.3550935262
 51
273.3674803239
  0
ARC
  5
90
330
76
100
AcDbEntity
  8
DV1_Default
  6
Continuous
 62
     7
100
AcDbCircle
 10
536.164520689
 20
351.1826649445
 30
0.0
 40
80.81847362092337
100
AcDbArc
 50
273.2643335023
 51
273.2676174277
  0
ARC
  5
91
330
76
100
AcDbEntity
  8
DV1_Default
  6
Continuous
 62
     7
100
AcDbCircle
 10
539.8102939606
 20
270.7989818076
 30
0.0
 40
1.008334349447805
100
AcDbArc
 50
282.0188527924
 51
342.49167532
  0
ARC
  5
92
330
76
100
AcDbEntity
  8
DV1_Default
  6
Continuous
 62
     7
100
AcDbCircle
 10
536.1646561313
 20
205.8437450373
 30
0.0
 40
80.81459324086352
100
AcDbArc
 50
86.7323190915
 51
86.73552906
  0
ARC
  5
93
330
76
100
AcDbEntity
  8
DV1_Default
  6
Continuous
 62
     7
100
AcDbCircle
 10
535.440354013
 20
207.3413365276
 30
0.0
 40
79.99978576013888
100
AcDbArc
 50
86.7319775056
 51
86.8325236694
  0
ARC
  5
94
330
76
100
AcDbEntity
  8
DV1_Default
  6
Continuous
 62
     7
100
AcDbCircle
 10
515.4434531811
 20
278.5112710644
 30
0.0
 40
26.56654853982194
100
AcDbArc
 50
342.4391012215
 51
1.157651867
  0
ARC
  5
95
330
76
100
AcDbEntity
  8
DV1_Default
  6
Continuous
 62
     7
100
AcDbCircle
 10
515.4434531811
 20
278.5112710644
 30
0.0
 40
26.56654853982194
100
AcDbArc
 50
16.5947578467
 51
17.5608731742
  0
ARC
  5
96
330
76
100
AcDbEntity
  8
DV1_Default
  6
Continuous
 62
     7
100
AcDbCircle
 10
539.7931787981
 20
270.8093074108
 30
0.0
 40
1.025688409296662
100
AcDbArc
 50
281.4416021469
 51
342.377815657
  0
ARC
  5
97
330
76
100
AcDbEntity
  8
DV1_Default
  6
Continuous
 62
     7
100
AcDbCircle
 10
539.7985594787
 20
286.2191232266
 30
0.0
 40
1.018874630716569
100
AcDbArc
 50
17.392486382
 51
78.921562548
  0
ARC
  5
98
330
76
100
AcDbEntity
  8
DV1_Default
  6
Continuous
 62
     7
100
AcDbCircle
 10
525.1205223422
 20
212.2943860027
 30
0.0
 40
76.37299695521277
100
AcDbArc
 50
78.8789179
 51
85.6752150247
  0
ARC
  5
99
330
76
100
AcDbEntity
  8
DV1_Default
  6
Continuous
 62
     7
100
AcDbCircle
 10
515.2454273634
 20
278.5582993651
 30
0.0
 40
26.76686841805442
100
AcDbArc
 50
358.9188232387
 51
0.0610552851
  0
ARC
  5
9A
330
76
100
AcDbEntity
  8
DV1_Default
  6
Continuous
 62
     7
100
AcDbCircle
 10
515.296006668
 20
278.4715114986
 30
0.0
 40
26.71644984817263
100
AcDbArc
 50
0.2530197825
 51
17.5481001719
  0
ARC
  5
9B
330
76
100
AcDbEntity
  8
DV1_Default
  6
Continuous
 62
     7
100
AcDbCircle
 10
525.8133337887
 20
-800.9581280479
 30
0.0
 40
1071.341887725489
100
AcDbArc
 50
89.5199979891
 51
90.5618855606
  0
ARC
  5
9C
330
76
100
AcDbEntity
  8
DV1_Default
  6
Continuous
 62
     7
100
AcDbCircle
 10
502.5038527154
 20
3326.8968212878
 30
0.0
 40
3056.59139284521
100
AcDbArc
 50
269.9248834894
 51
270.2399977788
  0
LINE
  5
9D
330
76
100
AcDbEntity
  8
DV1_Default
  6
Continuous
 62
     7
100
AcDbLine
 10
498.4965695286
 20
270.308055278
 30
0.0
 11
498.496614174
 21
269.0449653916
 31
0.0
  0
ARC
  5
9E
330
76
100
AcDbEntity
  8
DV1_Default
  6
Continuous
 62
     7
100
AcDbCircle
 10
522.402502418
 20
329.3916164266
 30
0.0
 40
60.33057971509083
100
AcDbArc
 50
270.0220073536
 51
281.8472056924
  0
SPLINE
  5
9F
330
76
100
AcDbEntity
  8
DV1_Default
  6
Continuous
 62
     7
100
AcDbSpline
210
0.0
220
0.0
230
1.0
 70
     8
 71
     3
 72
     8
 73
     4
 74
     0
 42
0.0000015578679397
 43
0.0000000001
 40
0.0
 40
0.0
 40
0.0
 40
0.0
 40
0.9999999999999999
 40
0.9999999999999999
 40
0.9999999999999999
 40
0.9999999999999999
 10
534.7885192119838
 20
270.3461641314401
 30
0.0
 10
534.7892973614099
 20
270.3479159466204
 30
0.0
 10
534.7900768394184
 20
270.3496617015269
 30
0.0
 10
534.790658825695
 20
270.3521857688071
 30
0.0
  0
ARC
  5
A0
330
76
100
AcDbEntity
  8
DV1_Default
  6
Continuous
 62
     7
100
AcDbCircle
 10
518.5315500857
 20
-597.0606241201
 30
0.0
 40
868.2559518196492
100
AcDbArc
 50
88.8777174256
 51
91.322216706
  0
ARC
  5
A1
330
76
100
AcDbEntity
  8
DV1_Default
  6
Continuous
 62
     7
100
AcDbCircle
 10
498.4851225253
 20
270.7966194136
 30
0.0
 40
0.4886982181771746
100
AcDbArc
 50
181.3313428533
 51
192.486162392
  0
LINE
  5
A2
330
76
100
AcDbEntity
  8
DV1_Default
  6
Continuous
 62
     7
100
AcDbLine
 10
497.9965562317
 20
271.1133230591
 30
0.0
 11
497.9965562317
 21
286.976825057
 31
0.0
  0
LINE
  5
A3
330
76
100
AcDbEntity
  8
DV1_Default
  6
Continuous
 62
     7
100
AcDbLine
 10
498.4966131565
 20
289.0451323638
 30
0.0
 11
498.4965692803
 21
287.7821033304
 31
0.0
  0
ARC
  5
A4
330
76
100
AcDbEntity
  8
DV1_Default
  6
Continuous
 62
     7
100
AcDbCircle
 10
518.2283353779
 20
1798.7145753265
 30
0.0
 40
1511.061308327869
100
AcDbArc
 50
269.2517980273
 51
270.6280171056
  0
ARC
  5
A5
330
76
100
AcDbEntity
  8
DV1_Default
  6
Continuous
 62
     7
100
AcDbCircle
 10
522.4057536143
 20
228.745786783
 30
0.0
 40
60.2841637248791
100
AcDbArc
 50
78.1445837555
 51
89.9794298705
  0
ARC
  5
A6
330
76
100
AcDbEntity
  8
DV1_Default
  6
Continuous
 62
     7
100
AcDbCircle
 10
534.7417881108
 20
289.0707068805
 30
0.0
 40
2.162355193239541
100
AcDbArc
 50
291.593580604
 51
291.6554728043
  0
ARC
  5
A7
330
76
100
AcDbEntity
  8
DV1_Default
  6
Continuous
 62
     7
100
AcDbCircle
 10
534.5857413464
 20
286.7670843982
 30
0.0
 40
0.9982203896026576
100
AcDbArc
 50
17.1430700415
 51
78.1517807444
  0
ARC
  5
A8
330
76
100
AcDbEntity
  8
DV1_Default
  6
Continuous
 62
     7
100
AcDbCircle
 10
518.4340804795
 20
1098.1084144599
 30
0.0
 40
811.2274594596972
100
AcDbArc
 50
268.5917007442
 51
271.2082276327
  0
LINE
  5
A9
330
76
100
AcDbEntity
  8
DV1_Default
  6
Continuous
 62
     7
100
AcDbLine
 10
498.4965561909
 20
287.1259941161
 30
0.0
 11
498.4965555265
 21
270.964143305
 31
0.0
  0
LINE
  5
AA
330
76
100
AcDbEntity
  8
DV1_Default
  6
Continuous
 62
     7
100
AcDbLine
 10
498.4965607505
 20
269.0449704588
 30
0.0
 11
522.4256808298
 21
269.0449705331
 31
0.0
  0
ARC
  5
AB
330
76
100
AcDbEntity
  8
DV1_Default
  6
Continuous
 62
     7
100
AcDbCircle
 10
534.5793380937
 20
271.3302327605
 30
0.0
 40
1.002456803979976
100
AcDbArc
 50
281.8178453822
 51
342.9539522753
  0
ARC
  5
AC
330
76
100
AcDbEntity
  8
DV1_Default
  6
Continuous
 62
     7
100
AcDbCircle
 10
517.1979505874
 20
270.4462482695
 30
0.0
 40
19.19311845770514
100
AcDbArc
 50
179.2704652222
 51
183.275667578
  0
ARC
  5
AD
330
76
100
AcDbEntity
  8
DV1_Default
  6
Continuous
 62
     7
100
AcDbCircle
 10
498.4964834175
 20
269.544963297
 30
0.0
 40
0.5000719538827895
100
AcDbArc
 50
202.6391643572
 51
270.5792939446
  0
ARC
  5
AE
330
76
100
AcDbEntity
  8
DV1_Default
  6
Continuous
 62
     7
100
AcDbCircle
 10
498.4964834256
 20
288.5451845998
 30
0.0
 40
0.50007196441176
100
AcDbArc
 50
89.4207030303
 51
157.3608339851
  0
ARC
  5
AF
330
76
100
AcDbEntity
  8
DV1_Default
  6
Continuous
 62
     7
100
AcDbCircle
 10
517.1977465102
 20
287.6439040694
 30
0.0
 40
19.19291445817461
100
AcDbArc
 50
176.7243108045
 51
180.7295552876
  0
LINE
  5
B0
330
76
100
AcDbEntity
  8
DV1_Default
  6
Continuous
 62
     7
100
AcDbLine
 10
522.4274028631
 20
289.0451775585
 30
0.0
 11
498.4965593021
 21
289.045177454
 31
0.0
  0
ARC
  5
B1
330
76
100
AcDbEntity
  8
DV1_Default
  6
Continuous
 62
     7
100
AcDbCircle
 10
510.2784660462
 20
279.0483072061
 30
0.0
 40
26.49810594350927
100
AcDbArc
 50
342.3879306662
 51
17.5969053087
  0
LINE
  5
B2
330
76
100
AcDbEntity
  8
DV1_Default
  6
Continuous
 62
     7
100
AcDbLine
 10
495.9965562053
 20
269.7974674985
 30
0.0
 11
495.9965562019
 21
269.8633665399
 31
0.0
  0
ARC
  5
B3
330
76
100
AcDbEntity
  8
DV1_Default
  6
Continuous
 62
     7
100
AcDbCircle
 10
496.1804275257
 20
269.7982621426
 30
0.0
 40
0.183873037532115
100
AcDbArc
 50
180.2476159268
 51
191.9680851742
  0
SPLINE
  5
B4
330
76
100
AcDbEntity
  8
DV1_Default
  6
Continuous
 62
     7
100
AcDbSpline
210
0.0
220
0.0
230
1.0
 70
    12
 71
     3
 72
    13
 73
     9
 74
     0
 42
0.0000003325653309
 43
0.0000000001
 40
0.0
 40
0.0
 40
0.0
 40
0.0
 40
0.1250000013459
 40
0.2500000009423
 40
0.3750000005387
 40
0.500000000135
 40
0.7499999993278
 40
1.0
 40
1.0
 40
1.0
 40
1.0
 10
496.2145787942849
 20
269.630347737243
 30
0.0
 41
1.0
 10
496.2130235895949
 20
269.6294616512059
 30
0.0
 41
1.0
 10
496.2101349340549
 20
269.6276944854776
 30
0.0
 41
1.0
 10
496.2064161141249
 20
269.6250486148342
 30
0.0
 41
1.0
 10
496.2033143074449
 20
269.6223875069881
 30
0.0
 41
1.0
 10
496.1999744195849
 20
269.6187979332368
 30
0.0
 41
1.0
 10
496.1972610075549
 20
269.6141906321673
 30
0.0
 41
1.0
 10
496.1965562019249
 20
269.6102889516756
 30
0.0
 41
1.0
 10
496.1965562019249
 20
269.6082616508269
 30
0.0
 41
1.0
  0
ARC
  5
B5
330
76
100
AcDbEntity
  8
DV1_Default
  6
Continuous
 62
     7
100
AcDbCircle
 10
496.3184441644
 20
269.4008812154
 30
0.0
 40
0.251878740215607
100
AcDbArc
 50
87.2775338501
 51
114.3533357798
  0
ARC
  5
B6
330
76
100
AcDbEntity
  8
DV1_Default
  6
Continuous
 62
     7
100
AcDbCircle
 10
496.3285996678
 20
269.9094065659
 30
0.0
 40
0.1335792264513486
100
AcDbArc
 50
211.3960537117
 51
270.7756372008
  0
ARC
  5
B7
330
76
100
AcDbEntity
  8
DV1_Default
  6
Continuous
 62
     7
100
AcDbCircle
 10
496.315432166
 20
269.902761556
 30
0.0
 40
0.1188838301134756
100
AcDbArc
 50
179.3408937707
 51
211.9683901203
  0
LINE
  5
B8
330
76
100
AcDbEntity
  8
DV1_Default
  6
Continuous
 62
     7
100
AcDbLine
 10
495.9965562019
 20
269.8633665399
 30
0.0
 11
495.9965562053
 21
269.9688764436
 31
0.0
  0
LINE
  5
B9
330
76
100
AcDbEntity
  8
DV1_Default
  6
Continuous
 62
     7
100
AcDbLine
 10
495.9965562053
 20
288.1294867442
 30
0.0
 11
495.9965562019
 21
288.2349974301
 31
0.0
  0
LINE
  5
BA
330
76
100
AcDbEntity
  8
DV1_Default
  6
Continuous
 62
     7
100
AcDbLine
 10
495.9965562019
 20
288.2349974301
 30
0.0
 11
495.9965562053
 21
288.3008961214
 31
0.0
  0
LINE
  5
BB
330
76
100
AcDbEntity
  8
DV1_Default
  6
Continuous
 62
     7
100
AcDbLine
 10
495.9965562053
 20
288.3449652485
 30
0.0
 11
495.9965562053
 21
289.8489183318
 31
0.0
  0
LINE
  5
BC
330
76
100
AcDbEntity
  8
DV1_Default
  6
Continuous
 62
     7
100
AcDbLine
 10
495.9965562053
 20
269.7519368741
 30
0.0
 11
495.9965562053
 21
268.2494456382
 31
0.0
  0
LINE
  5
BD
330
76
100
AcDbEntity
  8
DV1_Default
  6
Continuous
 62
     7
100
AcDbLine
 10
495.9965562053
 20
269.9688764436
 30
0.0
 11
495.9965562053
 21
288.1294867442
 31
0.0
  0
LINE
  5
BE
330
76
100
AcDbEntity
  8
DV1_Default
  6
Continuous
 62
     7
100
AcDbLine
 10
496.1965562019
 20
288.1942340662
 30
0.0
 11
496.1965562019
 21
269.9041291148
 31
0.0
  0
LINE
  5
BF
330
76
100
AcDbEntity
  8
DV1_Default
  6
Continuous
 62
     7
100
AcDbLine
 10
496.1965562019
 20
290.0487158719
 30
0.0
 11
496.1965562019
 21
288.4901019668
 31
0.0
  0
LINE
  5
C0
330
76
100
AcDbEntity
  8
DV1_Default
  6
Continuous
 62
     7
100
AcDbLine
 10
496.1965562019
 20
268.049648098
 30
0.0
 11
496.1965562019
 21
269.6082620032
 31
0.0
  0
SPLINE
  5
C1
330
76
100
AcDbEntity
  8
DV1_Default
  6
Continuous
 62
     7
100
AcDbSpline
210
0.0
220
0.0
230
1.0
 70
    12
 71
     3
 72
    13
 73
     9
 74
     0
 42
0.000000332575177
 43
0.0000000001
 40
0.0
 40
0.0
 40
0.0
 40
0.0
 40
0.2500000022565
 40
0.5000000015042
 40
0.6250000011281
 40
0.7500000007519
 40
0.8750000003758
 40
1.0
 40
1.0
 40
1.0
 40
1.0
 10
497.7965562317249
 20
269.6082622376348
 30
0.0
 41
1.0
 10
497.7965562317349
 20
269.6102894752306
 30
0.0
 41
1.0
 10
497.7958514220049
 20
269.6141910351923
 30
0.0
 41
1.0
 10
497.7931380913749
 20
269.6187981946318
 30
0.0
 41
1.0
 10
497.7897982907049
 20
269.622387656923
 30
0.0
 41
1.0
 10
497.7866965694449
 20
269.6250486818641
 30
0.0
 41
1.0
 10
497.7829778389249
 20
269.6276944666037
 30
0.0
 41
1.0
 10
497.7800892836549
 20
269.6294615796039
 30
0.0
 41
1.0
 10
497.7785341202449
 20
269.630347636627
 30
0.0
 41
1.0
  0
ARC
  5
C2
330
76
100
AcDbEntity
  8
DV1_Default
  6
Continuous
 62
     7
100
AcDbCircle
 10
497.6747564025
 20
269.4013424161
 30
0.0
 40
0.2514223652125911
100
AcDbArc
 50
65.6215122954
 51
92.7479710138
  0
LINE
  5
C3
330
76
100
AcDbEntity
  8
DV1_Default
  6
Continuous
 62
     7
100
AcDbLine
 10
497.6627025212
 20
269.6524756669
 30
0.0
 11
496.3304079311
 21
269.6524756669
 31
0.0
  0
LINE
  5
C4
330
76
100
AcDbEntity
  8
DV1_Default
  6
Continuous
 62
     7
100
AcDbLine
 10
497.7965562317
 20
269.60826259
 30
0.0
 11
497.7965562317
 21
268.049648098
 31
0.0
  0
ARC
  5
C5
330
76
100
AcDbEntity
  8
DV1_Default
  6
Continuous
 62
     7
100
AcDbCircle
 10
497.6746670556
 20
288.6974896427
 30
0.0
 40
0.2518857860056437
100
AcDbArc
 50
267.2774352198
 51
294.353176987
  0
SPLINE
  5
C6
330
76
100
AcDbEntity
  8
DV1_Default
  6
Continuous
 62
     7
100
AcDbSpline
210
0.0
220
0.0
230
1.0
 70
    12
 71
     3
 72
    13
 73
     9
 74
     0
 42
0.0000003325832787
 43
0.0000000001
 40
0.0
 40
0.0
 40
0.0
 40
0.0
 40
0.1249999996292
 40
0.249999999258
 40
0.3749999988868
 40
0.4999999985156
 40
0.7499999977731999
 40
1.0
 40
1.0
 40
1.0
 40
1.0
 10
497.7785346951849
 20
288.468016414085
 30
0.0
 41
1.0
 10
497.7800898104449
 20
288.468902455971
 30
0.0
 41
1.0
 10
497.7829783068649
 20
288.4706695321686
 30
0.0
 41
1.0
 10
497.7866969076049
 20
288.4733152708212
 30
0.0
 41
1.0
 10
497.7897985335549
 20
288.475976244652
 30
0.0
 41
1.0
 10
497.7931382238449
 20
288.4795656370878
 30
0.0
 41
1.0
 10
497.7958514763549
 20
288.4841727036423
 30
0.0
 41
1.0
 10
497.7965562317349
 20
288.4880741837426
 30
0.0
 41
1.0
 10
497.7965562317349
 20
288.4901013799538
 30
0.0
 41
1.0
  0
LINE
  5
C7
330
76
100
AcDbEntity
  8
DV1_Default
  6
Continuous
 62
     7
100
AcDbLine
 10
497.7965562317
 20
288.49010138
 30
0.0
 11
497.7965562317
 21
290.0487158719
 31
0.0
  0
SPLINE
  5
C8
330
76
100
AcDbEntity
  8
DV1_Default
  6
Continuous
 62
     7
100
AcDbSpline
210
0.0
220
0.0
230
1.0
 70
    12
 71
     3
 72
    13
 73
     9
 74
     0
 42
0.0000003325734325
 43
0.0000000001
 40
0.0
 40
0.0
 40
0.0
 40
0.0
 40
0.2500000006428
 40
0.4999999998486
 40
0.6249999994515
 40
0.7499999990544001
 40
0.8749999986572999
 40
1.0
 40
1.0
 40
1.0
 40
1.0
 10
496.1965562019249
 20
288.4901019667629
 30
0.0
 41
1.0
 10
496.1965562019249
 20
288.4880747072176
 30
0.0
 41
1.0
 10
496.1972609533449
 20
288.4841731065453
 30
0.0
 41
1.0
 10
496.1999742870549
 20
288.4795658984658
 30
0.0
 41
1.0
 10
496.2033140645149
 20
288.475976394659
 30
0.0
 41
1.0
 10
496.206415775855
 20
288.4733153379652
 30
0.0
 41
1.0
 10
496.2101344661549
 20
288.4706695134277
 30
0.0
 41
1.0
 10
496.2130230627449
 20
288.4689023844219
 30
0.0
 41
1.0
 10
496.214578219345
 20
288.468016313486
 30
0.0
 41
1.0
  0
ARC
  5
C9
330
76
100
AcDbEntity
  8
DV1_Default
  6
Continuous
 62
     7
100
AcDbCircle
 10
496.3183542654
 20
288.6970125707
 30
0.0
 40
0.2514135110625551
100
AcDbArc
 50
245.621016164
 51
272.7480186784
  0
LINE
  5
CA
330
76
100
AcDbEntity
  8
DV1_Default
  6
Continuous
 62
     7
100
AcDbLine
 10
496.3304079311
 20
288.4458881739
 30
0.0
 11
497.6627025212
 21
288.4458881739
 31
0.0
  0
LINE
  5
CB
330
76
100
AcDbEntity
  8
DV1_Default
  6
Continuous
 62
     7
100
AcDbLine
 10
497.6627025212
 20
288.3225242599
 30
0.0
 11
496.3304079311
 21
288.3225242599
 31
0.0
  0
LINE
  5
CC
330
76
100
AcDbEntity
  8
DV1_Default
  6
Continuous
 62
     7
100
AcDbLine
 10
497.6627025212
 20
288.3225242599
 30
0.0
 11
497.6627025212
 21
288.3983666748
 31
0.0
  0
LINE
  5
CD
330
76
100
AcDbEntity
  8
DV1_Default
  6
Continuous
 62
     7
100
AcDbLine
 10
497.6627025212
 20
288.3983666747
 30
0.0
 11
497.6627025212
 21
288.4458881738
 31
0.0
  0
LINE
  5
CE
330
76
100
AcDbEntity
  8
DV1_Default
  6
Continuous
 62
     7
100
AcDbLine
 10
497.9965562283
 20
289.8489183318
 30
0.0
 11
497.9965562283
 21
288.3464273254
 31
0.0
  0
ARC
  5
CF
330
76
100
AcDbEntity
  8
DV1_Default
  6
Continuous
 62
     7
100
AcDbCircle
 10
497.812892579
 20
288.3001918219
 30
0.0
 40
0.1836649974650463
100
AcDbArc
 50
0.2195305818
 51
11.8961323226
  0
LINE
  5
D0
330
76
100
AcDbEntity
  8
DV1_Default
  6
Continuous
 62
     7
100
AcDbLine
 10
497.9965562317
 20
288.2349977235
 30
0.0
 11
497.9965562283
 21
288.3008955384
 31
0.0
  0
LINE
  5
D1
330
76
100
AcDbEntity
  8
DV1_Default
  6
Continuous
 62
     7
100
AcDbLine
 10
497.9965562283
 20
288.129488448
 30
0.0
 11
497.9965562317
 21
288.2349977235
 31
0.0
  0
LINE
  5
D2
330
76
100
AcDbEntity
  8
DV1_Default
  6
Continuous
 62
     7
100
AcDbLine
 10
497.9965562283
 20
288.129488448
 30
0.0
 11
497.9965562283
 21
269.9688747399
 31
0.0
  0
LINE
  5
D3
330
76
100
AcDbEntity
  8
DV1_Default
  6
Continuous
 62
     7
100
AcDbLine
 10
497.9965562317
 20
269.8633662464
 30
0.0
 11
497.9965562283
 21
269.9688747399
 31
0.0
  0
LINE
  5
D4
330
76
100
AcDbEntity
  8
DV1_Default
  6
Continuous
 62
     7
100
AcDbLine
 10
497.9965562283
 20
269.7974680816
 30
0.0
 11
497.9965562317
 21
269.8633662464
 31
0.0
  0
LINE
  5
D5
330
76
100
AcDbEntity
  8
DV1_Default
  6
Continuous
 62
     7
100
AcDbLine
 10
496.3304079311
 20
269.7758395792
 30
0.0
 11
497.6627025212
 21
269.7758395792
 31
0.0
  0
ARC
  5
D6
330
76
100
AcDbEntity
  8
DV1_Default
  6
Continuous
 62
     7
100
AcDbCircle
 10
497.6645028114
 20
269.9094250715
 30
0.0
 40
0.1335976227363768
100
AcDbArc
 50
269.2278892866
 51
328.5996101177
  0
ARC
  5
D7
330
76
100
AcDbEntity
  8
DV1_Default
  6
Continuous
 62
     7
100
AcDbCircle
 10
497.6776840525
 20
269.9027599905
 30
0.0
 40
0.1188800437755696
100
AcDbArc
 50
328.0315262516
 51
0.6590552757
  0
LINE
  5
D8
330
76
100
AcDbEntity
  8
DV1_Default
  6
Continuous
 62
     7
100
AcDbLine
 10
497.7965562317
 20
269.9041273999
 30
0.0
 11
497.7965562317
 21
288.1942357813
 31
0.0
  0
ARC
  5
D9
330
76
100
AcDbEntity
  8
DV1_Default
  6
Continuous
 62
     7
100
AcDbCircle
 10
497.6776823366
 20
288.1956030455
 30
0.0
 40
0.1188817578639273
100
AcDbArc
 50
359.341024258
 51
31.9687588286
  0
ARC
  5
DA
330
76
100
AcDbEntity
  8
DV1_Default
  6
Continuous
 62
     7
100
AcDbCircle
 10
497.6645112189
 20
288.1889543543
 30
0.0
 40
0.1335821509387082
100
AcDbArc
 50
31.3969127745
 51
90.7758065927
  0
ARC
  5
DB
330
76
100
AcDbEntity
  8
DV1_Default
  6
Continuous
 62
     7
100
AcDbCircle
 10
496.328608372
 20
288.18894188
 30
0.0
 40
0.1335945007102088
100
AcDbArc
 50
89.2281848655
 51
148.5999054318
  0
ARC
  5
DC
330
76
100
AcDbEntity
  8
DV1_Default
  6
Continuous
 62
     7
100
AcDbCircle
 10
496.3154338819
 20
288.1956014799
 30
0.0
 40
0.1188855441591446
100
AcDbArc
 50
148.0313247803
 51
180.6590268126
  0
SPLINE
  5
DD
330
76
100
AcDbEntity
  8
DV1_Default
  6
Continuous
 62
     7
100
AcDbSpline
210
0.0
220
0.0
230
1.0
 70
     8
 71
     3
 72
    11
 73
     7
 74
     0
 42
0.0000000421150362
 43
0.0000000001
 40
0.0
 40
0.0
 40
0.0
 40
0.0
 40
0.2580033471946958
 40
0.5069622333323467
 40
0.7529151212729907
 40
1.0
 40
1.0
 40
1.0
 40
1.0
 10
496.196556201925
 20
290.0480884940404
 30
0.0
 10
496.1744374648204
 20
290.0464423758492
 30
0.0
 10
496.1372883364168
 20
290.0428113558343
 30
0.0
 10
496.0828168782971
 20
290.0161033403914
 30
0.0
 10
496.0384192576014
 20
289.9760940447762
 30
0.0
 10
496.0213270949393
 20
289.9441090219128
 30
0.0
 10
496.0117366340165
 20
289.9251560612198
 30
0.0
  0
ARC
  5
DE
330
76
100
AcDbEntity
  8
DV1_Default
  6
Continuous
 62
     7
100
AcDbCircle
 10
511.5422789837
 20
289.0211138118
 30
0.0
 40
15.55683253623609
100
AcDbArc
 50
176.6685377042
 51
182.5160223867
  0
LINE
  5
DF
330
76
100
AcDbEntity
  8
DV1_Default
  6
Continuous
 62
     7
100
AcDbLine
 10
496.0004434879
 20
269.1918385822
 30
0.0
 11
496.0004434889
 21
269.1541662676
 31
0.0
  0
ARC
  5
E0
330
76
100
AcDbEntity
  8
DV1_Default
  6
Continuous
 62
     7
100
AcDbCircle
 10
509.926584932
 20
268.8089762741
 30
0.0
 40
13.9293648135951
100
AcDbArc
 50
178.7673619837
 51
182.6160206526
  0
LINE
  5
E1
330
76
100
AcDbEntity
  8
DV1_Default
  6
Continuous
 62
     7
100
AcDbLine
 10
496.0004434729
 20
269.7601755107
 30
0.0
 11
496.0004434737
 21
269.7275157082
 31
0.0
  0
SPLINE
  5
E2
330
76
100
AcDbEntity
  8
DV1_Default
  6
Continuous
 62
     7
100
AcDbSpline
210
0.0
220
0.0
230
1.0
 70
     8
 71
     3
 72
    11
 73
     7
 74
     0
 42
0.0000000421150362
 43
0.0000000001
 40
0.0
 40
0.0
 40
0.0
 40
0.0
 40
0.2470848787262195
 40
0.493037766666849
 40
0.7419966528049985
 40
1.0
 40
1.0
 40
1.0
 40
1.0
 10
496.0117366340164
 20
268.1732079087404
 30
0.0
 10
496.0213270949394
 20
268.1542549480473
 30
0.0
 10
496.0384192576018
 20
268.1222699251834
 30
0.0
 10
496.0828168782984
 20
268.0822606295678
 30
0.0
 10
496.137288336419
 20
268.0555526141246
 30
0.0
 10
496.1744374648233
 20
268.0519215941094
 30
0.0
 10
496.1965562019282
 20
268.0502754759182
 30
0.0
  0
LINE
  5
E3
330
76
100
AcDbEntity
  8
DV1_Default
  6
Continuous
 62
     7
100
AcDbLine
 10
496.1965562019
 20
268.049647995
 30
0.0
 11
497.7965562317
 21
268.049647995
 31
0.0
  0
SPLINE
  5
E4
330
76
100
AcDbEntity
  8
DV1_Default
  6
Continuous
 62
     7
100
AcDbSpline
210
0.0
220
0.0
230
1.0
 70
     8
 71
     3
 72
    11
 73
     7
 74
     0
 42
0.0000000421150362
 43
0.0000000001
 40
0.0
 40
0.0
 40
0.0
 40
0.0
 40
0.2580033472003698
 40
0.5069622333377041
 40
0.7529151212754102
 40
1.0
 40
1.0
 40
1.0
 40
1.0
 10
497.7965562317259
 20
268.0502754759203
 30
0.0
 10
497.8186749688321
 20
268.05192159411
 30
0.0
 10
497.8558240972382
 20
268.0555526141227
 30
0.0
 10
497.910295555362
 20
268.0822606295644
 30
0.0
 10
497.9546931760602
 20
268.1222699251805
 30
0.0
 10
497.9717853387226
 20
268.1542549480454
 30
0.0
 10
497.9813757996453
 20
268.1732079087393
 30
0.0
  0
ARC
  5
E5
330
76
100
AcDbEntity
  8
DV1_Default
  6
Continuous
 62
     7
100
AcDbCircle
 10
482.4508830892
 20
269.0772502174
 30
0.0
 40
15.55678295241407
100
AcDbArc
 50
356.668526527
 51
2.5160310529
  0
LINE
  5
E6
330
76
100
AcDbEntity
  8
DV1_Default
  6
Continuous
 62
     7
100
AcDbLine
 10
497.7965562317
 20
290.0487159749
 30
0.0
 11
496.1965562019
 21
290.0487159749
 31
0.0
  0
ARC
  5
E7
330
76
100
AcDbEntity
  8
DV1_Default
  6
Continuous
 62
     7
100
AcDbCircle
 10
484.0664710198
 20
289.2893875696
 30
0.0
 40
13.9294212753861
100
AcDbArc
 50
358.7673683312
 51
2.6160101949
  0
LINE
  5
E8
330
76
100
AcDbEntity
  8
DV1_Default
  6
Continuous
 62
     7
100
AcDbLine
 10
497.9926689607
 20
288.338187525
 30
0.0
 11
497.9926689599
 21
288.3708484538
 31
0.0
  0
SPLINE
  5
E9
330
76
100
AcDbEntity
  8
DV1_Default
  6
Continuous
 62
     7
100
AcDbSpline
210
0.0
220
0.0
230
1.0
 70
     8
 71
     3
 72
    11
 73
     7
 74
     0
 42
0.0000000421150362
 43
0.0000000001
 40
0.0
 40
0.0
 40
0.0
 40
0.0
 40
0.2470848787244558
 40
0.4930377666637172
 40
0.7419966528014025
 40
1.0
 40
1.0
 40
1.0
 40
1.0
 10
497.9813757996401
 20
289.9251560612171
 30
0.0
 10
497.9717853387173
 20
289.94410902191
 30
0.0
 10
497.9546931760552
 20
289.9760940447733
 30
0.0
 10
497.9102955553604
 20
290.0161033403895
 30
0.0
 10
497.8558240972409
 20
290.0428113558341
 30
0.0
 10
497.8186749688368
 20
290.0464423758501
 30
0.0
 10
497.7965562317318
 20
290.0480884940418
 30
0.0
  0
SPLINE
  5
EA
330
76
100
AcDbEntity
  8
DV1_Default
  6
Continuous
 62
     7
100
AcDbSpline
210
0.0
220
0.0
230
1.0
 70
     8
 71
     3
 72
    14
 73
    10
 74
     0
 42
0.0000000038425668
 43
0.0000000001
 40
0.0
 40
0.0
 40
0.0
 40
0.0
 40
0.1407459220556951
 40
0.2818714698109711
 40
0.4235441608200182
 40
0.5659584234416362
 40
0.7093358041626628
 40
0.8539247598540513
 40
1.0
 40
1.0
 40
1.0
 40
1.0
 10
461.7384043811481
 20
262.014023429753
 30
0.0
 10
461.7367369141827
 20
261.7858684478966
 30
0.0
 10
461.73355547645
 20
261.3286712799342
 30
0.0
 10
461.7295032802505
 20
260.7583050336222
 30
0.0
 10
461.7260844538622
 20
260.276783392774
 30
0.0
 10
461.7234064334637
 20
259.8963707433753
 30
0.0
 10
461.7214959663632
 20
259.6190895710563
 30
0.0
 10
461.7203694546669
 20
259.4496906345195
 30
0.0
 10
461.7201320990941
 20
259.4117075608031
 30
0.0
 10
461.7201321029202
 20
259.4116604897903
 30
0.0
  0
ARC
  5
EB
330
76
100
AcDbEntity
  8
DV1_Default
  6
Continuous
 62
     7
100
AcDbCircle
 10
461.4651888849
 20
262.4329269592
 30
0.0
 40
0.4686385488017084
100
AcDbArc
 50
180.2870053036
 51
187.9932805818
  0
ARC
  5
EC
330
76
100
AcDbEntity
  8
DV1_Default
  6
Continuous
 62
     7
100
AcDbCircle
 10
495.1998872907
 20
269.7524350309
 30
0.0
 40
0.6357149729031004
100
AcDbArc
 50
67.5791026844
 51
92.7756499262
  0
ARC
  5
ED
330
76
100
AcDbEntity
  8
DV1_Default
  6
Continuous
 62
     7
100
AcDbCircle
 10
496.0475470015
 20
195.0806677555
 30
0.0
 40
75.31185973439646
100
AcDbArc
 50
90.6683183436
 51
116.7442472702
  0
ARC
  5
EE
330
76
100
AcDbEntity
  8
DV1_Default
  6
Continuous
 62
     7
100
AcDbCircle
 10
462.6394843937
 20
261.1929850116
 30
0.0
 40
1.240828231767657
100
AcDbArc
 50
112.9049892013
 51
134.078656488
  0
SPLINE
  5
EF
330
76
100
AcDbEntity
  8
DV1_Default
  6
Continuous
 62
     7
100
AcDbSpline
210
0.0
220
0.0
230
1.0
 70
     8
 71
     3
 72
    10
 73
     6
 74
     0
 42
0.0000001220210362
 43
0.0000000001
 40
0.0
 40
0.0
 40
0.0
 40
0.0
 40
0.3317821780503261
 40
0.6616583684523162
 40
1.0
 40
1.0
 40
1.0
 40
1.0
 10
461.776308145813
 20
262.084378003353
 30
0.0
 10
461.7686309571178
 20
262.0753134541753
 30
0.0
 10
461.75349554557
 20
262.0569362690084
 30
0.0
 10
461.7406773220757
 20
262.0330149444448
 30
0.0
 10
461.7391160276491
 20
262.0204972784899
 30
0.0
 10
461.7384043811481
 20
262.014023429753
 30
0.0
  0
LINE
  5
F0
330
76
100
AcDbEntity
  8
DV1_Default
  6
Continuous
 62
     7
100
AcDbLine
 10
495.4982345552
 20
270.2796785288
 30
0.0
 11
495.496893371
 21
269.0475888156
 31
0.0
  0
SPLINE
  5
F1
330
76
100
AcDbEntity
  8
DV1_Default
  6
Continuous
 62
     7
100
AcDbSpline
210
0.0
220
0.0
230
1.0
 70
     8
 71
     3
 72
    11
 73
     7
 74
     0
 42
0.0000001145634968
 43
0.0000000001
 40
0.0
 40
0.0
 40
0.0
 40
0.0
 40
0.2637846343165111
 40
0.5186658622931846
 40
0.7642403651759275
 40
1.0
 40
1.0
 40
1.0
 40
1.0
 10
495.442353785995
 20
270.340094392653
 30
0.0
 10
495.4514304413549
 20
270.3352710211853
 30
0.0
 10
495.4692782439286
 20
270.325593195592
 30
0.0
 10
495.4862449141275
 20
270.3101332046307
 30
0.0
 10
495.4966694960073
 20
270.2948401055964
 30
0.0
 10
495.4977198106798
 20
270.2847176998137
 30
0.0
 10
495.4982345525349
 20
270.2796762633531
 30
0.0
  0
SPLINE
  5
F2
330
76
100
AcDbEntity
  8
DV1_Default
  6
Continuous
 62
     7
100
AcDbSpline
210
0.0
220
0.0
230
1.0
 70
    12
 71
     3
 72
     9
 73
     5
 74
     0
 42
0.0000000766558695
 43
0.0000000001
 40
0.0
 40
0.0
 40
0.0
 40
0.0
 40
0.5
 40
1.0
 40
1.0
 40
1.0
 40
1.0
 10
468.9289734575649
 20
262.8668158040531
 30
0.0
 41
1.0
 10
468.9701920488989
 20
262.8821362001531
 30
0.0
 41
1.0
 10
469.031295307979
 20
262.904691314553
 30
0.0
 41
1.0
 10
469.0513309737349
 20
262.9120410322531
 30
0.0
 41
1.0
 10
469.0513345112609
 20
262.912037494653
 30
0.0
 41
1.0
  0
LINE
  5
F3
330
76
100
AcDbEntity
  8
DV1_Default
  6
Continuous
 62
     7
100
AcDbLine
 10
469.0513345113
 20
262.9120374947
 30
0.0
 11
468.9291291227
 21
262.8668158041
 31
0.0
  0
ARC
  5
F4
330
76
100
AcDbEntity
  8
DV1_Default
  6
Continuous
 62
     7
100
AcDbCircle
 10
486.6774504194
 20
218.8799049653
 30
0.0
 40
47.43259674512296
100
AcDbArc
 50
111.9738051754
 51
118.7036629397
  0
LINE
  5
F5
330
76
100
AcDbEntity
  8
DV1_Default
  6
Continuous
 62
     7
100
AcDbLine
 10
495.9965562018
 20
270.7575375552
 30
0.0
 11
495.9965562019
 21
270.9266967663
 31
0.0
  0
LINE
  5
F6
330
76
100
AcDbEntity
  8
DV1_Default
  6
Continuous
 62
     7
100
AcDbLine
 10
495.9965562018
 20
286.8862139183
 30
0.0
 11
495.9965562018
 21
279.8615691068
 31
0.0
  0
LINE
  5
F7
330
76
100
AcDbEntity
  8
DV1_Default
  6
Continuous
 62
     7
100
AcDbLine
 10
495.9965562018
 20
278.105744976
 30
0.0
 11
495.9965562018
 21
271.2065167153
 31
0.0
  0
LINE
  5
F8
330
76
100
AcDbEntity
  8
DV1_Default
  6
Continuous
 62
     7
100
AcDbLine
 10
495.9965562019
 20
270.9266967663
 30
0.0
 11
495.9965562018
 21
271.2065167153
 31
0.0
  0
LINE
  5
F9
330
76
100
AcDbEntity
  8
DV1_Default
  6
Continuous
 62
     7
100
AcDbLine
 10
495.9965562019
 20
287.1660425271
 30
0.0
 11
495.9965562018
 21
287.3351980713
 31
0.0
  0
LINE
  5
FA
330
76
100
AcDbEntity
  8
DV1_Default
  6
Continuous
 62
     7
100
AcDbLine
 10
495.9965562018
 20
286.8862139183
 30
0.0
 11
495.9965562019
 21
287.1660425271
 31
0.0
  0
ARC
  5
FB
330
76
100
AcDbEntity
  8
DV1_Default
  6
Continuous
 62
     7
100
AcDbCircle
 10
495.1319872882
 20
287.0334471524
 30
0.0
 40
0.3662473038729896
100
AcDbArc
 50
0.0266069794
 51
32.0674905974
  0
ARC
  5
FC
330
76
100
AcDbEntity
  8
DV1_Default
  6
Continuous
 62
     7
100
AcDbCircle
 10
495.132001985
 20
271.0592833386
 30
0.0
 40
0.3662326096364623
100
AcDbArc
 50
327.933077018
 51
359.9733948699
  0
ARC
  5
FD
330
76
100
AcDbEntity
  8
DV1_Default
  6
Continuous
 62
     7
100
AcDbCircle
 10
495.1687281375
 20
287.0632117104
 30
0.0
 40
0.3193608890191849
100
AcDbArc
 50
31.0417969364
 51
89.9328662742
  0
ARC
  5
FE
330
76
100
AcDbEntity
  8
DV1_Default
  6
Continuous
 62
     7
100
AcDbCircle
 10
496.1209841664
 20
362.6205063062
 30
0.0
 40
75.2439551092989
100
AcDbArc
 50
243.1670451274
 51
269.2751541791
  0
SPLINE
  5
FF
330
76
100
AcDbEntity
  8
DV1_Default
  6
Continuous
 62
     7
100
AcDbSpline
210
0.0
220
0.0
230
1.0
 70
     8
 71
     3
 72
    13
 73
     9
 74
     0
 42
0.0000000231237718
 43
0.0000000001
 40
0.0
 40
0.0
 40
0.0
 40
0.0
 40
0.1234643228640227
 40
0.2489226475094765
 40
0.4987917079871005
 40
0.7472115317939457
 40
0.87441047400174
 40
1.0
 40
1.0
 40
1.0
 40
1.0
 10
462.1565508918699
 20
295.478343302453
 30
0.0
 10
462.1388041029441
 20
295.4850693151735
 30
0.0
 10
462.1033414042125
 20
295.4988103198539
 30
0.0
 10
462.0307511114867
 20
295.5120282946923
 30
0.0
 10
461.9407881981007
 20
295.5088228098617
 30
0.0
 10
461.8598959473553
 20
295.4747510166952
 30
0.0
 10
461.8063643737326
 20
295.4297422398109
 30
0.0
 10
461.7862256902838
 20
295.3997962685805
 30
0.0
 10
461.7763081397734
 20
295.3849674021531
 30
0.0
  0
ARC
  5
100
330
76
100
AcDbEntity
  8
DV1_Default
  6
Continuous
 62
     7
100
AcDbCircle
 10
462.0273033744
 20
295.241846191
 30
0.0
 40
0.2889330180343948
100
AcDbArc
 50
150.307569221
 51
181.3338855363
  0
ARC
  5
101
330
76
100
AcDbEntity
  8
DV1_Default
  6
Continuous
 62
     7
100
AcDbCircle
 10
7646.7864908441
 20
279.0463690815
 30
0.0
 40
7185.066279740695
100
AcDbArc
 50
179.8709061454
 51
180.1290935711
  0
ARC
  5
102
330
76
100
AcDbEntity
  8
DV1_Default
  6
Continuous
 62
     7
100
AcDbCircle
 10
462.0273494965
 20
262.8509289703
 30
0.0
 40
0.2889791740592189
100
AcDbArc
 50
178.6666139017
 51
209.6892066392
  0
SPLINE
  5
103
330
76
100
AcDbEntity
  8
DV1_Default
  6
Continuous
 62
     7
100
AcDbSpline
210
0.0
220
0.0
230
1.0
 70
     8
 71
     3
 72
    13
 73
     9
 74
     0
 42
0.0000000230433013
 43
0.0000000001
 40
0.0
 40
0.0
 40
0.0
 40
0.0
 40
0.0586593583405636
 40
0.1605063229500604
 40
0.3060987355277062
 40
0.4948355831370923
 40
0.7248710086221144
 40
1.0
 40
1.0
 40
1.0
 40
1.0
 10
462.1565508848669
 20
262.614394550953
 30
0.0
 10
462.1483207844848
 20
262.6108817740918
 30
0.0
 10
462.1256213065074
 20
262.6013722534677
 30
0.0
 10
462.081355609221
 20
262.5888152241239
 30
0.0
 10
462.0178596534719
 20
262.5801112080398
 30
0.0
 10
461.9379359369081
 20
262.5865584953766
 30
0.0
 10
461.8453030766154
 20
262.6200657369473
 30
0.0
 10
461.8006625834352
 20
262.6768487454992
 30
0.0
 10
461.7763061116264
 20
262.7077990224531
 30
0.0
  0
ARC
  5
104
330
76
100
AcDbEntity
  8
DV1_Default
  6
Continuous
 62
     7
100
AcDbCircle
 10
495.9358295403
 20
196.2272462689
 30
0.0
 40
74.4868654428985
100
AcDbArc
 50
90.5897811925
 51
116.968018731
  0
ARC
  5
105
330
76
100
AcDbEntity
  8
DV1_Default
  6
Continuous
 62
     7
100
AcDbCircle
 10
495.1687684356
 20
271.0294586057
 30
0.0
 40
0.3192932999714535
100
AcDbArc
 50
270.0600933814
 51
328.9657839867
  0
LINE
  5
106
330
76
100
AcDbEntity
  8
DV1_Default
  6
Continuous
 62
     7
100
AcDbLine
 10
460.9965562019
 20
262.6433516044
 30
0.0
 11
460.9965562156
 21
262.4305794707
 31
0.0
  0
LINE
  5
107
330
76
100
AcDbEntity
  8
DV1_Default
  6
Continuous
 62
     7
100
AcDbLine
 10
460.9965562156
 20
262.9912682137
 30
0.0
 11
460.9965562019
 21
262.6433516044
 31
0.0
  0
LINE
  5
108
330
76
100
AcDbEntity
  8
DV1_Default
  6
Continuous
 62
     7
100
AcDbLine
 10
460.9965562156
 20
262.9912682137
 30
0.0
 11
460.9965562156
 21
295.101505249
 31
0.0
  0
LINE
  5
109
330
76
100
AcDbEntity
  8
DV1_Default
  6
Continuous
 62
     7
100
AcDbLine
 10
460.9965562019
 20
295.4493780177
 30
0.0
 11
460.9965562156
 21
295.101505249
 31
0.0
  0
LINE
  5
10A
330
76
100
AcDbEntity
  8
DV1_Default
  6
Continuous
 62
     7
100
AcDbLine
 10
460.9965562156
 20
295.6621698042
 30
0.0
 11
460.9965562019
 21
295.4493780177
 31
0.0
  0
LINE
  5
10B
330
76
100
AcDbEntity
  8
DV1_Default
  6
Continuous
 62
     7
100
AcDbLine
 10
495.4982345552
 20
287.813059325
 30
0.0
 11
495.4968933778
 21
289.0451490381
 31
0.0
  0
SPLINE
  5
10C
330
76
100
AcDbEntity
  8
DV1_Default
  6
Continuous
 62
     7
100
AcDbSpline
210
0.0
220
0.0
230
1.0
 70
     8
 71
     3
 72
    11
 73
     7
 74
     0
 42
0.0000000038423416
 43
0.0000000001
 40
0.0
 40
0.0
 40
0.0
 40
0.0
 40
0.2546339080772832
 40
0.5053449529688095
 40
0.7534467181540372
 40
1.0
 40
1.0
 40
1.0
 40
1.0
 10
461.7201321029244
 20
298.6810773639245
 30
0.0
 10
461.7201321095924
 20
298.6811594026517
 30
0.0
 10
461.7208512421149
 20
298.566531886371
 30
0.0
 10
461.7243913413637
 20
298.0527710266499
 30
0.0
 10
461.7301493984344
 20
297.2470967497343
 30
0.0
 10
461.7356057669587
 20
296.4672786945611
 30
0.0
 10
461.7384043010421
 20
296.0787259743531
 30
0.0
  0
SPLINE
  5
10D
330
76
100
AcDbEntity
  8
DV1_Default
  6
Continuous
 62
     7
100
AcDbSpline
210
0.0
220
0.0
230
1.0
 70
     8
 71
     3
 72
    10
 73
     6
 74
     0
 42
0.0000001220212382
 43
0.0000000001
 40
0.0
 40
0.0
 40
0.0
 40
0.0
 40
0.3383391505372143
 40
0.6682161209083805
 40
1.0
 40
1.0
 40
1.0
 40
1.0
 10
461.7384043010421
 20
296.0787259743531
 30
0.0
 10
461.7391159450522
 20
296.0722519728578
 30
0.0
 10
461.7406772414942
 20
296.0597339445258
 30
0.0
 10
461.7534947967349
 20
296.0358123316583
 30
0.0
 10
461.7686293477923
 20
296.0174349527442
 30
0.0
 10
461.7763061150807
 20
296.0083702931531
 30
0.0
  0
ARC
  5
10E
330
76
100
AcDbEntity
  8
DV1_Default
  6
Continuous
 62
     7
100
AcDbCircle
 10
462.6288636604
 20
296.883677536
 30
0.0
 40
1.221890804214398
100
AcDbArc
 50
225.7543335287
 51
247.2603233619
  0
ARC
  5
10F
330
76
100
AcDbEntity
  8
DV1_Default
  6
Continuous
 62
     7
100
AcDbCircle
 10
495.8792207446
 20
362.3218998519
 30
0.0
 40
74.61994386124515
100
AcDbArc
 50
243.1326959152
 51
269.4547390158
  0
ARC
  5
110
330
76
100
AcDbEntity
  8
DV1_Default
  6
Continuous
 62
     7
100
AcDbCircle
 10
495.1998889791
 20
288.3403188579
 30
0.0
 40
0.6357297351666396
100
AcDbArc
 50
267.2243284126
 51
292.4205907244
  0
SPLINE
  5
111
330
76
100
AcDbEntity
  8
DV1_Default
  6
Continuous
 62
     7
100
AcDbSpline
210
0.0
220
0.0
230
1.0
 70
     8
 71
     3
 72
    11
 73
     7
 74
     0
 42
0.0000001145709671
 43
0.0000000001
 40
0.0
 40
0.0
 40
0.0
 40
0.0
 40
0.2357619024680515
 40
0.481336868910109
 40
0.7362171878933357
 40
1.0
 40
1.0
 40
1.0
 40
1.0
 10
495.4982345551849
 20
287.813059324953
 30
0.0
 10
495.4977198338967
 20
287.8080181231677
 30
0.0
 10
495.4966695653584
 20
287.7978962366233
 30
0.0
 10
495.4862456686492
 20
287.7826039700738
 30
0.0
 10
495.4692802225923
 20
287.7671448996481
 30
0.0
 10
495.4514338654956
 20
287.757467632636
 30
0.0
 10
495.4423579601749
 20
287.752644552353
 30
0.0
  0
ARC
  5
112
330
76
100
AcDbEntity
  8
DV1_Default
  6
Continuous
 62
     7
100
AcDbCircle
 10
461.49633363
 20
259.8586316184
 30
0.0
 40
0.5002857513765183
100
AcDbArc
 50
194.7790157459
 51
296.6084633317
  0
ARC
  5
113
330
76
100
AcDbEntity
  8
DV1_Default
  6
Continuous
 62
     7
100
AcDbCircle
 10
495.3153250021
 20
209.8049341722
 30
0.0
 40
59.2424356950423
100
AcDbArc
 50
89.8245733898
 51
116.3146631392
  0
ARC
  5
114
330
76
100
AcDbEntity
  8
DV1_Default
  6
Continuous
 62
     7
100
AcDbCircle
 10
622.386167981
 20
-63.6376087507
 30
0.0
 40
360.7954563540815
100
AcDbArc
 50
116.0578022456
 51
116.4430820063
  0
ARC
  5
115
330
76
100
AcDbEntity
  8
DV1_Default
  6
Continuous
 62
     7
100
AcDbCircle
 10
495.496629408
 20
269.5478225374
 30
0.0
 40
0.500075420562894
100
AcDbArc
 50
270.0091097258
 51
337.4981050869
  0
ARC
  5
116
330
76
100
AcDbEntity
  8
DV1_Default
  6
Continuous
 62
     7
100
AcDbCircle
 10
476.3750378653
 20
270.4335944916
 30
0.0
 40
19.61319569818946
100
AcDbArc
 50
356.8517278941
 51
0.6718190981
  0
ARC
  5
117
330
76
100
AcDbEntity
  8
DV1_Default
  6
Continuous
 62
     7
100
AcDbCircle
 10
495.496629408
 20
288.5449153163
 30
0.0
 40
0.5000754205549853
100
AcDbArc
 50
22.5018949168
 51
89.9908902753
  0
ARC
  5
118
330
76
100
AcDbEntity
  8
DV1_Default
  6
Continuous
 62
     7
100
AcDbCircle
 10
461.49633363
 20
298.2341062353
 30
0.0
 40
0.5002857513905455
100
AcDbArc
 50
63.3915366752
 51
165.2209842548
  0
ARC
  5
119
330
76
100
AcDbEntity
  8
DV1_Default
  6
Continuous
 62
     7
100
AcDbCircle
 10
529.4714272206
 20
296.7358541262
 30
0.0
 40
68.47813233055348
100
AcDbArc
 50
179.0430525321
 51
179.1633661033
  0
ARC
  5
11A
330
76
100
AcDbEntity
  8
DV1_Default
  6
Continuous
 62
     7
100
AcDbCircle
 10
529.4714272206
 20
296.7358541262
 30
0.0
 40
68.47813233055348
100
AcDbArc
 50
179.1909867402
 51
180.8457603431
  0
LINE
  5
11B
330
76
100
AcDbEntity
  8
DV1_Default
  6
Continuous
 62
     7
100
AcDbLine
 10
460.1392957646
 20
259.8404477713
 30
0.0
 11
456.8538176128
 21
259.8404477713
 31
0.0
  0
LINE
  5
11C
330
76
100
AcDbEntity
  8
DV1_Default
  6
Continuous
 62
     7
100
AcDbLine
 10
456.8538176128
 20
260.1467336101
 30
0.0
 11
460.1392957646
 21
260.1467336101
 31
0.0
  0
ARC
  5
11D
330
76
100
AcDbEntity
  8
DV1_Default
  6
Continuous
 62
     7
100
AcDbCircle
 10
456.8487152197
 20
297.5719448394
 30
0.0
 40
0.3643989634705844
100
AcDbArc
 50
89.1977058859
 51
147.1272504547
  0
ARC
  5
11E
330
76
100
AcDbEntity
  8
DV1_Default
  6
Continuous
 62
     7
100
AcDbCircle
 10
456.8000642689
 20
297.6089091847
 30
0.0
 40
0.3035102250808542
100
AcDbArc
 50
148.0030256363
 51
180.2160645392
  0
LINE
  5
11F
330
76
100
AcDbEntity
  8
DV1_Default
  6
Continuous
 62
     7
100
AcDbLine
 10
456.4965562019
 20
297.607764639
 30
0.0
 11
456.4965562019
 21
260.4752794185
 31
0.0
  0
ARC
  5
120
330
76
100
AcDbEntity
  8
DV1_Default
  6
Continuous
 62
     7
100
AcDbCircle
 10
456.8000679944
 20
260.474134948
 30
0.0
 40
0.3035139501893748
100
AcDbArc
 50
179.7839523193
 51
211.9954053131
  0
ARC
  5
121
330
76
100
AcDbEntity
  8
DV1_Default
  6
Continuous
 62
     7
100
AcDbCircle
 10
456.8487158801
 20
260.5110962065
 30
0.0
 40
0.3643983113912163
100
AcDbArc
 50
212.8712878044
 51
270.8021917109
  0
ARC
  5
122
330
76
100
AcDbEntity
  8
DV1_Default
  6
Continuous
 62
     7
100
AcDbCircle
 10
460.1443980588
 20
260.5110935687
 30
0.0
 40
0.3643956817763662
100
AcDbArc
 50
269.1977142087
 51
327.1288999117
  0
ARC
  5
123
330
76
100
AcDbEntity
  8
DV1_Default
  6
Continuous
 62
     7
100
AcDbCircle
 10
460.1930437448
 20
260.4741349715
 30
0.0
 40
0.3035146147518659
100
AcDbArc
 50
328.0046215738
 51
0.2160423284
  0
LINE
  5
124
330
76
100
AcDbEntity
  8
DV1_Default
  6
Continuous
 62
     7
100
AcDbLine
 10
460.4965562019
 20
260.4752794162
 30
0.0
 11
460.4965562019
 21
297.6077646405
 31
0.0
  0
ARC
  5
125
330
76
100
AcDbEntity
  8
DV1_Default
  6
Continuous
 62
     7
100
AcDbCircle
 10
460.193047481
 20
297.6089091643
 30
0.0
 40
0.3035108788613249
100
AcDbArc
 50
359.7839400872
 51
31.9969480642
  0
ARC
  5
126
330
76
100
AcDbEntity
  8
DV1_Default
  6
Continuous
 62
     7
100
AcDbCircle
 10
460.1443973374
 20
297.5719448962
 30
0.0
 40
0.3643988951791097
100
AcDbArc
 50
32.8727847547
 51
90.8021652798
  0
LINE
  5
127
330
76
100
AcDbEntity
  8
DV1_Default
  6
Continuous
 62
     7
100
AcDbLine
 10
460.1392957646
 20
297.9363080787
 30
0.0
 11
456.8538176128
 21
297.9363080788
 31
0.0
  0
LINE
  5
128
330
76
100
AcDbEntity
  8
DV1_Default
  6
Continuous
 62
     7
100
AcDbLine
 10
456.8538176128
 20
298.2425939101
 30
0.0
 11
460.1392957646
 21
298.2425939101
 31
0.0
  0
SPLINE
  5
129
330
76
100
AcDbEntity
  8
DV1_Default
  6
Continuous
 62
     7
100
AcDbSpline
210
0.0
220
0.0
230
1.0
 70
    12
 71
     3
 72
    10
 73
     6
 74
     0
 42
0.0000001299323424
 43
0.0000000001
 40
0.0
 40
0.0
 40
0.0
 40
0.0
 40
0.3333333333333
 40
0.6666666666667
 40
1.0
 40
1.0
 40
1.0
 40
1.0
 10
456.4965562019249
 20
298.3568289879428
 30
0.0
 41
1.0
 10
456.4964596420842
 20
298.3503196582535
 30
0.0
 41
1.0
 10
456.4997516983053
 20
298.3374847170376
 30
0.0
 41
1.0
 10
456.515603519483
 20
298.3181090561008
 30
0.0
 41
1.0
 10
456.5325308065528
 20
298.3064181178418
 30
0.0
 41
1.0
 10
456.5426606696653
 20
298.30077287631
 30
0.0
 41
1.0
  0
ARC
  5
12A
330
76
100
AcDbEntity
  8
DV1_Default
  6
Continuous
 62
     7
100
AcDbCircle
 10
456.8238922041
 20
298.943710166
 30
0.0
 40
0.7017546112231644
100
AcDbArc
 50
246.3746263507
 51
272.4440448008
  0
ARC
  5
12B
330
76
100
AcDbEntity
  8
DV1_Default
  6
Continuous
 62
     7
100
AcDbCircle
 10
460.1692230942
 20
298.9436958609
 30
0.0
 40
0.7017404010695089
100
AcDbArc
 50
267.5557487007
 51
293.6256209444
  0
SPLINE
  5
12C
330
76
100
AcDbEntity
  8
DV1_Default
  6
Continuous
 62
     7
100
AcDbSpline
210
0.0
220
0.0
230
1.0
 70
    12
 71
     3
 72
    10
 73
     6
 74
     0
 42
0.0000001299322317
 43
0.0000000001
 40
0.0
 40
0.0
 40
0.0
 40
0.0
 40
0.3333333333333
 40
0.6666666666667
 40
1.0
 40
1.0
 40
1.0
 40
1.0
 10
460.4504517087469
 20
298.3007728041699
 30
0.0
 41
1.0
 10
460.4605812094059
 20
298.3064177697017
 30
0.0
 41
1.0
 10
460.4775080220299
 20
298.3181083468707
 30
0.0
 41
1.0
 10
460.493360425868
 20
298.3374839870577
 30
0.0
 41
1.0
 10
460.4966526455949
 20
298.3503193527035
 30
0.0
 41
1.0
 10
460.4965562019249
 20
298.3568289916428
 30
0.0
 41
1.0
  0
LINE
  5
12D
330
76
100
AcDbEntity
  8
DV1_Default
  6
Continuous
 62
     7
100
AcDbLine
 10
460.4965562019
 20
301.5400950865
 30
0.0
 11
460.4965562019
 21
298.3568277232
 31
0.0
  0
LINE
  5
12E
330
76
100
AcDbEntity
  8
DV1_Default
  6
Continuous
 62
     7
100
AcDbLine
 10
456.4965562019
 20
298.3568277198
 30
0.0
 11
456.4965562019
 21
301.5400950855
 31
0.0
  0
LINE
  5
12F
330
76
100
AcDbEntity
  8
DV1_Default
  6
Continuous
 62
     7
100
AcDbLine
 10
455.9965562128
 20
297.4448819345
 30
0.0
 11
455.9965562019
 21
297.7149974326
 31
0.0
  0
LINE
  5
130
330
76
100
AcDbEntity
  8
DV1_Default
  6
Continuous
 62
     7
100
AcDbLine
 10
455.9965562019
 20
297.7149974326
 30
0.0
 11
455.9965562128
 21
297.8841591591
 31
0.0
  0
LINE
  5
131
330
76
100
AcDbEntity
  8
DV1_Default
  6
Continuous
 62
     7
100
AcDbLine
 10
455.9965562128
 20
260.1988833185
 30
0.0
 11
455.9965562019
 21
260.3680437905
 31
0.0
  0
LINE
  5
132
330
76
100
AcDbEntity
  8
DV1_Default
  6
Continuous
 62
     7
100
AcDbLine
 10
455.9965562019
 20
260.3680437905
 30
0.0
 11
455.9965562128
 21
260.6381620912
 31
0.0
  0
LINE
  5
133
330
76
100
AcDbEntity
  8
DV1_Default
  6
Continuous
 62
     7
100
AcDbLine
 10
455.9965562128
 20
260.6381620912
 30
0.0
 11
455.9965562128
 21
297.4448819345
 31
0.0
  0
ARC
  5
134
330
76
100
AcDbEntity
  8
DV1_Default
  6
Continuous
 62
     7
100
AcDbCircle
 10
456.4555466488
 20
260.2008171522
 30
0.0
 40
0.4589945097851148
100
AcDbArc
 50
180.2413990453
 51
191.949803814
  0
SPLINE
  5
135
330
76
100
AcDbEntity
  8
DV1_Default
  6
Continuous
 62
     7
100
AcDbSpline
210
0.0
220
0.0
230
1.0
 70
    12
 71
     3
 72
    10
 73
     6
 74
     0
 42
0.0000001299251914
 43
0.0000000001
 40
0.0
 40
0.0
 40
0.0
 40
0.0
 40
0.3333333333333
 40
0.6666666666667
 40
1.0
 40
1.0
 40
1.0
 40
1.0
 10
456.542664507506
 20
259.78227141466
 30
0.0
 41
1.0
 10
456.5325341924111
 20
259.7766263373119
 30
0.0
 41
1.0
 10
456.5156060104811
 20
259.7649354816708
 30
0.0
 41
1.0
 10
456.4997522318125
 20
259.7455592054977
 30
0.0
 41
1.0
 10
456.496459745494
 20
259.7327233815235
 30
0.0
 41
1.0
 10
456.4965562019246
 20
259.7262134961529
 30
0.0
 41
1.0
  0
ARC
  5
136
330
76
100
AcDbEntity
  8
DV1_Default
  6
Continuous
 62
     7
100
AcDbCircle
 10
456.8238918767
 20
259.1393229786
 30
0.0
 40
0.7017631542592079
100
AcDbArc
 50
87.5559582171
 51
113.6246973712
  0
SPLINE
  5
137
330
76
100
AcDbEntity
  8
DV1_Default
  6
Continuous
 62
     7
100
AcDbSpline
210
0.0
220
0.0
230
1.0
 70
    12
 71
     3
 72
    10
 73
     6
 74
     0
 42
0.0000001299250542
 43
0.0000000001
 40
0.0
 40
0.0
 40
0.0
 40
0.0
 40
0.3333333333333
 40
0.6666666666667
 40
1.0
 40
1.0
 40
1.0
 40
1.0
 10
460.4965562019279
 20
259.7262134964929
 30
0.0
 41
1.0
 10
460.4966527743949
 20
259.7327230848435
 30
0.0
 41
1.0
 10
460.4933604475229
 20
259.7455585163577
 30
0.0
 41
1.0
 10
460.4775072270869
 20
259.7649348669707
 30
0.0
 41
1.0
 10
460.4605785561509
 20
259.7766261170718
 30
0.0
 41
1.0
 10
460.4504478709119
 20
259.78227148682
 30
0.0
 41
1.0
  0
ARC
  5
138
330
76
100
AcDbEntity
  8
DV1_Default
  6
Continuous
 62
     7
100
AcDbCircle
 10
460.1692193346
 20
259.1393154248
 30
0.0
 40
0.7017706087803521
100
AcDbArc
 50
66.3754648371
 51
92.443838794
  0
LINE
  5
139
330
76
100
AcDbEntity
  8
DV1_Default
  6
Continuous
 62
     7
100
AcDbLine
 10
456.4965562019
 20
259.7262134962
 30
0.0
 11
456.4965562019
 21
256.542946134
 31
0.0
  0
LINE
  5
13A
330
76
100
AcDbEntity
  8
DV1_Default
  6
Continuous
 62
     7
100
AcDbLine
 10
460.4965562019
 20
256.5429461335
 30
0.0
 11
460.4965562019
 21
259.7262134965
 31
0.0
  0
LINE
  5
13B
330
76
100
AcDbEntity
  8
DV1_Default
  6
Continuous
 62
     7
100
AcDbLine
 10
460.996556191
 20
260.1988833185
 30
0.0
 11
460.9965562019
 21
257.0426424927
 31
0.0
  0
LINE
  5
13C
330
76
100
AcDbEntity
  8
DV1_Default
  6
Continuous
 62
     7
100
AcDbLine
 10
460.9965562019
 20
260.368043792
 30
0.0
 11
460.996556191
 21
260.1988833185
 31
0.0
  0
LINE
  5
13D
330
76
100
AcDbEntity
  8
DV1_Default
  6
Continuous
 62
     7
100
AcDbLine
 10
460.996556191
 20
260.6381620912
 30
0.0
 11
460.9965562019
 21
260.368043792
 31
0.0
  0
LINE
  5
13E
330
76
100
AcDbEntity
  8
DV1_Default
  6
Continuous
 62
     7
100
AcDbLine
 10
460.996556191
 20
297.4448819345
 30
0.0
 11
460.996556191
 21
260.6381620912
 31
0.0
  0
ARC
  5
13F
330
76
100
AcDbEntity
  8
DV1_Default
  6
Continuous
 62
     7
100
AcDbCircle
 10
460.5375657406
 20
297.8822253264
 30
0.0
 40
0.4589945242318169
100
AcDbArc
 50
0.241398918
 51
11.9498035695
  0
LINE
  5
140
330
76
100
AcDbEntity
  8
DV1_Default
  6
Continuous
 62
     7
100
AcDbLine
 10
460.996556191
 20
297.8841579015
 30
0.0
 11
460.9965562019
 21
301.0403987274
 31
0.0
  0
LINE
  5
141
330
76
100
AcDbEntity
  8
DV1_Default
  6
Continuous
 62
     7
100
AcDbLine
 10
460.996556191
 20
297.8841591591
 30
0.0
 11
460.9965562019
 21
297.7149974312
 31
0.0
  0
LINE
  5
142
330
76
100
AcDbEntity
  8
DV1_Default
  6
Continuous
 62
     7
100
AcDbLine
 10
460.9965562019
 20
297.7149974312
 30
0.0
 11
460.996556191
 21
297.4448819345
 31
0.0
  0
LINE
  5
143
330
76
100
AcDbEntity
  8
DV1_Default
  6
Continuous
 62
     7
100
AcDbLine
 10
460.4965562019
 20
301.5400961184
 30
0.0
 11
456.4965562019
 21
301.5400961184
 31
0.0
  0
ARC
  5
144
330
76
100
AcDbEntity
  8
DV1_Default
  6
Continuous
 62
     7
100
AcDbCircle
 10
456.4964699267
 20
301.0403313937
 30
0.0
 40
0.5000785256474777
100
AcDbArc
 50
89.9901151388
 51
157.4899273629
  0
ARC
  5
145
330
76
100
AcDbEntity
  8
DV1_Default
  6
Continuous
 62
     7
100
AcDbCircle
 10
481.0876927275
 20
299.3871594018
 30
0.0
 40
25.1210179241609
100
AcDbArc
 50
175.7890063788
 51
183.2173079658
  0
LINE
  5
146
330
76
100
AcDbEntity
  8
DV1_Default
  6
Continuous
 62
     7
100
AcDbLine
 10
456.4965562019
 20
256.5429451016
 30
0.0
 11
460.4965562019
 21
256.5429451016
 31
0.0
  0
ARC
  5
147
330
76
100
AcDbEntity
  8
DV1_Default
  6
Continuous
 62
     7
100
AcDbCircle
 10
460.4966424772
 20
257.0427098263
 30
0.0
 40
0.500078525651875
100
AcDbArc
 50
269.9901151391
 51
337.4899273619
  0
ARC
  5
148
330
76
100
AcDbEntity
  8
DV1_Default
  6
Continuous
 62
     7
100
AcDbCircle
 10
414.9787032043
 20
299.2056879266
 30
0.0
 40
46.02453599482248
100
AcDbArc
 50
358.4705898281
 51
2.5230958282
  0
ARC
  5
149
330
76
100
AcDbEntity
  8
DV1_Default
  6
Continuous
 62
     7
100
AcDbCircle
 10
460.4966424772
 20
301.0403313937
 30
0.0
 40
0.5000785256522828
100
AcDbArc
 50
22.5100726381
 51
90.0098848609
  0
ARC
  5
14A
330
76
100
AcDbEntity
  8
DV1_Default
  6
Continuous
 62
     7
100
AcDbCircle
 10
502.0147272596
 20
258.8773544413
 30
0.0
 40
46.02485394453091
100
AcDbArc
 50
178.4706002573
 51
182.5230793207
  0
ARC
  5
14B
330
76
100
AcDbEntity
  8
DV1_Default
  6
Continuous
 62
     7
100
AcDbCircle
 10
456.4964699267
 20
257.0427098263
 30
0.0
 40
0.5000785256471606
100
AcDbArc
 50
202.5100726371
 51
270.0098848612
  0
ENDBLK
  5
14D
330
76
100
AcDbEntity
  8
0
100
AcDbBlockEnd
  0
BLOCK
  5
23E
330
14E
100
AcDbEntity
  8
0
100
AcDbBlockBegin
  2
SE1
 70
     0
 10
0.0
 20
0.0
 30
0.0
  3
SE1
  1

  0
ARC
  5
151
330
14E
100
AcDbEntity
  8
DV2_Default
  6
Continuous
 62
     7
100
AcDbCircle
 10
104.4234379156
 20
229.8577626262
 30
0.0
 40
87.66106911987002
100
AcDbArc
 50
131.1970399094
 51
137.5660621135
  0
ARC
  5
152
330
14E
100
AcDbEntity
  8
DV2_Default
  6
Continuous
 62
     7
100
AcDbCircle
 10
29.9145510359
 20
248.0082535461
 30
0.0
 40
50.67504279708934
100
AcDbArc
 50
70.8689662253
 51
75.596826685
  0
ARC
  5
153
330
14E
100
AcDbEntity
  8
DV2_Default
  6
Continuous
 62
     7
100
AcDbCircle
 10
29.9145510359
 20
248.0082535461
 30
0.0
 40
50.67504279708934
100
AcDbArc
 50
80.6208475667
 51
102.418168435
  0
ARC
  5
154
330
14E
100
AcDbEntity
  8
DV2_Default
  6
Continuous
 62
     7
100
AcDbCircle
 10
29.9145510359
 20
248.0082535461
 30
0.0
 40
50.67504279708934
100
AcDbArc
 50
103.2259351897
 51
109.1311156936
  0
ARC
  5
155
330
14E
100
AcDbEntity
  8
DV2_Default
  6
Continuous
 62
     7
100
AcDbCircle
 10
-44.5940496421
 20
229.8581092096
 30
0.0
 40
87.66056675268293
100
AcDbArc
 50
41.9141239812
 51
48.8029897735
  0
ARC
  5
156
330
14E
100
AcDbEntity
  8
DV2_Default
  6
Continuous
 62
     7
100
AcDbCircle
 10
79.1029643473
 20
204.5376200261
 30
0.0
 40
87.66083452478289
100
AcDbArc
 50
131.8826628183
 51
138.8029435991
  0
ARC
  5
157
330
14E
100
AcDbEntity
  8
DV2_Default
  6
Continuous
 62
     7
100
AcDbCircle
 10
60.9533195894
 20
279.0463689269
 30
0.0
 40
50.67568281603005
100
AcDbArc
 50
160.8692074194
 51
165.5703615255
  0
ARC
  5
158
330
14E
100
AcDbEntity
  8
DV2_Default
  6
Continuous
 62
     7
100
AcDbCircle
 10
60.9533195894
 20
279.0463689269
 30
0.0
 40
50.67568281603005
100
AcDbArc
 50
170.6202570751
 51
192.418834786
  0
ARC
  5
159
330
14E
100
AcDbEntity
  8
DV2_Default
  6
Continuous
 62
     7
100
AcDbCircle
 10
60.9533195894
 20
279.0463689269
 30
0.0
 40
50.67568281603005
100
AcDbArc
 50
193.2281474556
 51
199.1307925777
  0
ARC
  5
15A
330
14E
100
AcDbEntity
  8
DV2_Default
  6
Continuous
 62
     7
100
AcDbCircle
 10
-1.1238512363
 20
279.0463689285
 30
0.0
 40
50.67528959803586
100
AcDbArc
 50
340.8690163661
 51
348.6164610359
  0
ARC
  5
15B
330
14E
100
AcDbEntity
  8
DV2_Default
  6
Continuous
 62
     7
100
AcDbCircle
 10
-1.1238512363
 20
279.0463689285
 30
0.0
 40
50.67528959803586
100
AcDbArc
 50
13.2258281594
 51
19.1309836304
  0
ARC
  5
15C
330
14E
100
AcDbEntity
  8
DV2_Default
  6
Continuous
 62
     7
100
AcDbCircle
 10
-19.2740939129
 20
204.537443422
 30
0.0
 40
87.66106855938347
100
AcDbArc
 50
41.1970398745
 51
47.4175418256
  0
ARC
  5
15D
330
14E
100
AcDbEntity
  8
DV2_Default
  6
Continuous
 62
     7
100
AcDbCircle
 10
29.9145510375
 20
310.0844842973
 30
0.0
 40
50.6750427867844
100
AcDbArc
 50
250.8688843009
 51
255.5967412221
  0
ARC
  5
15E
330
14E
100
AcDbEntity
  8
DV2_Default
  6
Continuous
 62
     7
100
AcDbCircle
 10
29.9145510375
 20
310.0844842973
 30
0.0
 40
50.6750427867844
100
AcDbArc
 50
260.6207604897
 51
282.4180822678
  0
ARC
  5
15F
330
14E
100
AcDbEntity
  8
DV2_Default
  6
Continuous
 62
     7
100
AcDbCircle
 10
29.9145510375
 20
310.0844842973
 30
0.0
 40
50.6750427867844
100
AcDbArc
 50
283.2258493038
 51
289.1310337737
  0
ARC
  5
160
330
14E
100
AcDbEntity
  8
DV2_Default
  6
Continuous
 62
     7
100
AcDbCircle
 10
444.3819294377
 20
229.1040117125
 30
0.0
 40
87.66106911987495
100
AcDbArc
 50
131.1418640596
 51
138.0434972854
  0
ARC
  5
161
330
14E
100
AcDbEntity
  8
DV2_Default
  6
Continuous
 62
     7
100
AcDbCircle
 10
295.364511311
 20
229.2478621507
 30
0.0
 40
87.66056675266586
100
AcDbArc
 50
42.378626425
 51
48.7478139238
  0
ARC
  5
162
330
14E
100
AcDbEntity
  8
DV2_Default
  6
Continuous
 62
     7
100
AcDbCircle
 10
419.0370843104
 20
203.8082644713
 30
0.0
 40
87.6608345248014
100
AcDbArc
 50
132.5274252594
 51
138.7477677494
  0
ARC
  5
163
330
14E
100
AcDbEntity
  8
DV2_Default
  6
Continuous
 62
     7
100
AcDbCircle
 10
320.660071496
 20
203.902824984
 30
0.0
 40
87.66106855939285
100
AcDbArc
 50
41.1418640247
 51
48.0518136819
  0
ARC
  5
164
330
14E
100
AcDbEntity
  8
DV2_Default
  6
Continuous
 62
     7
100
AcDbCircle
 10
351.2049273986
 20
260.3122554706
 30
0.0
 40
0.5000000000022723
100
AcDbArc
 50
224.9999993055
 51
240.3204409412
  0
ARC
  5
165
330
14E
100
AcDbEntity
  8
DV2_Default
  6
Continuous
 62
     7
100
AcDbCircle
 10
351.2049273986
 20
260.3122554706
 30
0.0
 40
0.5000000000024295
100
AcDbArc
 50
209.8875041297
 51
224.9999993055
  0
LINE
  5
166
330
14E
100
AcDbEntity
  8
DV2_Default
  6
Continuous
 62
     7
100
AcDbLine
 10
350.7331196915
 20
260.1467336062
 30
0.0
 11
350.6749407974
 21
260.3133174888
 31
0.0
  0
LINE
  5
167
330
14E
100
AcDbEntity
  8
DV2_Default
  6
Continuous
 62
     7
100
AcDbLine
 10
350.6749407974
 20
260.3133174888
 30
0.0
 11
350.6188846098
 21
260.4752794123
 31
0.0
  0
SPLINE
  5
168
330
14E
100
AcDbEntity
  8
DV2_Default
  6
Continuous
 62
     7
100
AcDbSpline
210
0.0
220
0.0
230
1.0
 70
    12
 71
     3
 72
     8
 73
     4
 74
     0
 42
0.0000000012187936
 43
0.0000000001
 40
0.0
 40
0.0
 40
0.0
 40
0.0
 40
1.0
 40
1.0
 40
1.0
 40
1.0
 10
350.6188846098349
 20
260.4752794123287
 30
0.0
 41
1.0
 10
349.7129668231477
 20
263.104153367346
 30
0.0
 41
1.0
 10
349.0004087049829
 20
265.7413426769942
 30
0.0
 41
1.0
 10
348.4812102552974
 20
268.3832976712391
 30
0.0
 41
1.0
  0
SPLINE
  5
169
330
14E
100
AcDbEntity
  8
DV2_Default
  6
Continuous
 62
     7
100
AcDbSpline
210
0.0
220
0.0
230
1.0
 70
    12
 71
     3
 72
     8
 73
     4
 74
     0
 42
0.000000001047778
 43
0.0000000001
 40
0.0
 40
0.0
 40
0.0
 40
0.0
 40
0.9999999999999999
 40
0.9999999999999999
 40
0.9999999999999999
 40
0.9999999999999999
 10
348.2391363841649
 20
288.3865891986724
 30
0.0
 41
1.0
 10
348.7696685838005
 20
291.4678645725411
 30
0.0
 41
1.0
 10
349.5629184138954
 20
294.5434636414562
 30
0.0
 41
1.0
 10
350.6188858743815
 20
297.6077646367187
 30
0.0
 41
1.0
  0
LINE
  5
16A
330
14E
100
AcDbEntity
  8
DV2_Default
  6
Continuous
 62
     7
100
AcDbLine
 10
350.6188858744
 20
297.6077646367
 30
0.0
 11
350.6749438645
 21
297.7697317115
 31
0.0
  0
LINE
  5
16B
330
14E
100
AcDbEntity
  8
DV2_Default
  6
Continuous
 62
     7
100
AcDbLine
 10
350.6749438645
 20
297.7697317115
 30
0.0
 11
350.733120149
 21
297.9363080749
 31
0.0
  0
ARC
  5
16C
330
14E
100
AcDbEntity
  8
DV2_Default
  6
Continuous
 62
     7
100
AcDbCircle
 10
351.2049278521
 20
297.7707861992
 30
0.0
 40
0.5000000000367414
100
AcDbArc
 50
134.9999992277
 51
150.3235360581
  0
ARC
  5
16D
330
14E
100
AcDbEntity
  8
DV2_Default
  6
Continuous
 62
     7
100
AcDbCircle
 10
351.2049278521
 20
297.7707861992
 30
0.0
 40
0.4999999999882814
100
AcDbArc
 50
119.8903616563
 51
134.9999992277
  0
LINE
  5
16E
330
14E
100
AcDbEntity
  8
DV2_Default
  6
Continuous
 62
     7
100
AcDbLine
 10
351.0394059878
 20
298.2425939063
 30
0.0
 11
351.2059898704
 21
298.3007728004
 31
0.0
  0
LINE
  5
16F
330
14E
100
AcDbEntity
  8
DV2_Default
  6
Continuous
 62
     7
100
AcDbLine
 10
351.2059898704
 20
298.3007728004
 30
0.0
 11
351.3679517938
 21
298.3568289879
 31
0.0
  0
SPLINE
  5
170
330
14E
100
AcDbEntity
  8
DV2_Default
  6
Continuous
 62
     7
100
AcDbSpline
210
0.0
220
0.0
230
1.0
 70
    12
 71
     3
 72
     8
 73
     4
 74
     0
 42
0.0000000002593759
 43
0.0000000001
 40
0.0
 40
0.0
 40
0.0
 40
0.0
 40
1.0
 40
1.0
 40
1.0
 40
1.0
 10
351.3679517937501
 20
298.3568289878901
 30
0.0
 41
1.0
 10
363.6846046427188
 20
302.6011842058747
 30
0.0
 41
1.0
 10
376.1837842958683
 20
302.6011837828241
 30
0.0
 41
1.0
 10
388.5004370187501
 20
298.3568277231535
 30
0.0
 41
1.0
  0
LINE
  5
171
330
14E
100
AcDbEntity
  8
DV2_Default
  6
Continuous
 62
     7
100
AcDbLine
 10
388.5004370188
 20
298.3568277232
 30
0.0
 11
388.6624040931
 21
298.3007697332
 31
0.0
  0
LINE
  5
172
330
14E
100
AcDbEntity
  8
DV2_Default
  6
Continuous
 62
     7
100
AcDbLine
 10
388.6624040931
 20
298.3007697332
 30
0.0
 11
388.8289804564
 21
298.2425934488
 31
0.0
  0
LINE
  5
173
330
14E
100
AcDbEntity
  8
DV2_Default
  6
Continuous
 62
     7
100
AcDbLine
 10
351.3679489616
 20
259.7262134927
 30
0.0
 11
351.2059818862
 21
259.7822714831
 31
0.0
  0
LINE
  5
174
330
14E
100
AcDbEntity
  8
DV2_Default
  6
Continuous
 62
     7
100
AcDbLine
 10
351.2059818862
 20
259.7822714831
 30
0.0
 11
351.0394055228
 21
259.8404477675
 31
0.0
  0
LINE
  5
175
330
14E
100
AcDbEntity
  8
DV2_Default
  6
Continuous
 62
     7
100
AcDbLine
 10
388.8289799914
 20
259.84044731
 30
0.0
 11
388.6623961088
 21
259.7822684159
 31
0.0
  0
LINE
  5
176
330
14E
100
AcDbEntity
  8
DV2_Default
  6
Continuous
 62
     7
100
AcDbLine
 10
388.6623961088
 20
259.7822684159
 30
0.0
 11
388.5004341854
 21
259.7262122284
 31
0.0
  0
SPLINE
  5
177
330
14E
100
AcDbEntity
  8
DV2_Default
  6
Continuous
 62
     7
100
AcDbSpline
210
0.0
220
0.0
230
1.0
 70
    12
 71
     3
 72
     8
 73
     4
 74
     0
 42
0.0000000002593759
 43
0.0000000001
 40
0.0
 40
0.0
 40
0.0
 40
0.0
 40
1.0
 40
1.0
 40
1.0
 40
1.0
 10
388.5004341853663
 20
259.7262122283835
 30
0.0
 41
1.0
 10
376.1837813368019
 20
255.4818570105255
 30
0.0
 41
1.0
 10
363.6846016840618
 20
255.4818574334601
 30
0.0
 41
1.0
 10
351.3679489615663
 20
259.7262134927401
 30
0.0
 41
1.0
  0
SPLINE
  5
178
330
14E
100
AcDbEntity
  8
DV2_Default
  6
Continuous
 62
     7
100
AcDbSpline
210
0.0
220
0.0
230
1.0
 70
     8
 71
     3
 72
     8
 73
     4
 74
     0
 42
0.0000001510829929
 43
0.0000000001
 40
0.0
 40
0.0
 40
0.0
 40
0.0
 40
1.0
 40
1.0
 40
1.0
 40
1.0
 10
350.7037791546774
 20
260.2541116802404
 30
0.0
 10
350.6909218912105
 20
260.2738600480128
 30
0.0
 10
350.6818821233329
 20
260.2933521665383
 30
0.0
 10
350.6749407973741
 20
260.3133174887801
 30
0.0
  0
SPLINE
  5
179
330
14E
100
AcDbEntity
  8
DV2_Default
  6
Continuous
 62
     7
100
AcDbSpline
210
0.0
220
0.0
230
1.0
 70
     8
 71
     3
 72
     8
 73
     4
 74
     0
 42
0.0000001510757479
 43
0.0000000001
 40
0.0
 40
0.0
 40
0.0
 40
0.0
 40
0.9999999999999999
 40
0.9999999999999999
 40
0.9999999999999999
 40
0.9999999999999999
 10
351.2059898703714
 20
298.3007728004009
 30
0.0
 10
351.1860245812169
 20
298.293831485941
 30
0.0
 10
351.1665242141435
 20
298.2848146124235
 30
0.0
 10
351.1467839218211
 20
298.2719351700684
 30
0.0
  0
ARC
  5
17A
330
14E
100
AcDbEntity
  8
DV2_Default
  6
Continuous
 62
     7
100
AcDbCircle
 10
388.6634585807
 20
297.7707857457
 30
0.0
 40
0.5000000000117107
100
AcDbArc
 50
44.9999992278
 51
60.3262921712
  0
ARC
  5
17B
330
14E
100
AcDbEntity
  8
DV2_Default
  6
Continuous
 62
     7
100
AcDbCircle
 10
388.6634585807
 20
297.7707857457
 30
0.0
 40
0.5000000000307083
100
AcDbArc
 50
29.8880132172
 51
44.9999992278
  0
LINE
  5
17C
330
14E
100
AcDbEntity
  8
DV2_Default
  6
Continuous
 62
     7
100
AcDbLine
 10
389.1352662878
 20
297.93630761
 30
0.0
 11
389.1934451818
 21
297.7697237274
 31
0.0
  0
LINE
  5
17D
330
14E
100
AcDbEntity
  8
DV2_Default
  6
Continuous
 62
     7
100
AcDbLine
 10
389.1934451818
 20
297.7697237274
 30
0.0
 11
389.2495013694
 21
297.6077618039
 31
0.0
  0
SPLINE
  5
17E
330
14E
100
AcDbEntity
  8
DV2_Default
  6
Continuous
 62
     7
100
AcDbSpline
210
0.0
220
0.0
230
1.0
 70
    12
 71
     3
 72
     8
 73
     4
 74
     0
 42
0.0000000002593759
 43
0.0000000001
 40
0.0
 40
0.0
 40
0.0
 40
0.0
 40
1.0
 40
1.0
 40
1.0
 40
1.0
 10
389.2495013693815
 20
297.6077618039449
 30
0.0
 41
1.0
 10
393.4938565873492
 20
285.2911089549536
 30
0.0
 41
1.0
 10
393.4938561642982
 20
272.7919293018701
 30
0.0
 41
1.0
 10
389.2495001046349
 20
260.4752765790149
 30
0.0
 41
1.0
  0
LINE
  5
17F
330
14E
100
AcDbEntity
  8
DV2_Default
  6
Continuous
 62
     7
100
AcDbLine
 10
389.2495001046
 20
260.475276579
 30
0.0
 11
389.1934421147
 21
260.3133095047
 31
0.0
  0
LINE
  5
180
330
14E
100
AcDbEntity
  8
DV2_Default
  6
Continuous
 62
     7
100
AcDbLine
 10
389.1934421147
 20
260.3133095047
 30
0.0
 11
389.1352658303
 21
260.1467331414
 31
0.0
  0
ARC
  5
181
330
14E
100
AcDbEntity
  8
DV2_Default
  6
Continuous
 62
     7
100
AcDbCircle
 10
388.6634581272
 20
260.3122550171
 30
0.0
 40
0.5000000000400526
100
AcDbArc
 50
314.9999993063
 51
330.3203756597
  0
ARC
  5
182
330
14E
100
AcDbEntity
  8
DV2_Default
  6
Continuous
 62
     7
100
AcDbCircle
 10
388.6634581272
 20
260.3122550171
 30
0.0
 40
0.5000000000094875
100
AcDbArc
 50
299.8868399435
 51
314.9999993063
  0
SPLINE
  5
183
330
14E
100
AcDbEntity
  8
DV2_Default
  6
Continuous
 62
     7
100
AcDbSpline
210
0.0
220
0.0
230
1.0
 70
     8
 71
     3
 72
     8
 73
     4
 74
     0
 42
0.0000001510757575
 43
0.0000000001
 40
0.0
 40
0.0
 40
0.0
 40
0.0
 40
1.0
 40
1.0
 40
1.0
 40
1.0
 10
388.6623961088449
 20
259.7822684158727
 30
0.0
 10
388.6823613968276
 20
259.7892097299164
 30
0.0
 10
388.7018617627692
 20
259.7982266027806
 30
0.0
 10
388.7216020538985
 20
259.811106043924
 30
0.0
  0
SPLINE
  5
184
330
14E
100
AcDbEntity
  8
DV2_Default
  6
Continuous
 62
     7
100
AcDbSpline
210
0.0
220
0.0
230
1.0
 70
     8
 71
     3
 72
     8
 73
     4
 74
     0
 42
0.0000001510757543
 43
0.0000000001
 40
0.0
 40
0.0
 40
0.0
 40
0.0
 40
1.0
 40
1.0
 40
1.0
 40
1.0
 10
389.1934451818423
 20
297.7697237274035
 30
0.0
 10
389.1865038676823
 20
297.7896890157946
 30
0.0
 10
389.1774869946
 20
297.8091893821075
 30
0.0
 10
389.164607553049
 20
297.8289296736334
 30
0.0
  0
ARC
  5
185
330
14E
100
AcDbEntity
  8
DV2_Default
  6
Continuous
 62
     7
100
AcDbCircle
 10
363.6511427985
 20
264.7357219415
 30
0.0
 40
13.7010613523148
100
AcDbArc
 50
199.092806181
 51
199.9415225371
  0
ARC
  5
186
330
14E
100
AcDbEntity
  8
DV2_Default
  6
Continuous
 62
     7
100
AcDbCircle
 10
354.1279119896
 20
268.5729147542
 30
0.0
 40
9.255057919271925
100
AcDbArc
 50
249.9650690797
 51
251.2091432412
  0
ARC
  5
187
330
14E
100
AcDbEntity
  8
DV2_Default
  6
Continuous
 62
     7
100
AcDbCircle
 10
359.5870291236
 20
294.8052268465
 30
0.0
 40
9.383741177250421
100
AcDbArc
 50
159.9750419497
 51
161.2018938499
  0
ARC
  5
188
330
14E
100
AcDbEntity
  8
DV2_Default
  6
Continuous
 62
     7
100
AcDbCircle
 10
355.5356611021
 20
285.5870406104
 30
0.0
 40
13.42269714082459
100
AcDbArc
 50
109.0852155744
 51
109.9516373978
  0
ARC
  5
189
330
14E
100
AcDbEntity
  8
DV2_Default
  6
Continuous
 62
     7
100
AcDbCircle
 10
385.7295863785
 20
289.4780486927
 30
0.0
 40
9.288933041609079
100
AcDbArc
 50
69.9700709868
 51
71.2093001604
  0
ARC
  5
18A
330
14E
100
AcDbEntity
  8
DV2_Default
  6
Continuous
 62
     7
100
AcDbCircle
 10
384.3415015247
 20
272.4722899133
 30
0.0
 40
13.39742002134055
100
AcDbArc
 50
289.0829000239
 51
289.9508276779
  0
ARC
  5
18B
330
14E
100
AcDbEntity
  8
DV2_Default
  6
Continuous
 62
     7
100
AcDbCircle
 10
380.1804487461
 20
263.3136034725
 30
0.0
 40
9.49079941755125
100
AcDbArc
 50
339.9804839991
 51
341.1936591396
  0
ARC
  5
18C
330
14E
100
AcDbEntity
  8
DV2_Default
  6
Continuous
 62
     7
100
AcDbCircle
 10
376.4954417956
 20
293.4458760624
 30
0.0
 40
13.40592874689371
100
AcDbArc
 50
19.0836745988
 51
19.9510942835
  0
SPLINE
  5
18D
330
14E
100
AcDbEntity
  8
DV2_Default
  6
Continuous
 62
     7
100
AcDbSpline
210
0.0
220
0.0
230
1.0
 70
     8
 71
     3
 72
    11
 73
     7
 74
     0
 42
0.0000000371798001
 43
0.0000000001
 40
0.0
 40
0.0
 40
0.0
 40
0.0
 40
0.218966985717258
 40
0.4793113550955089
 40
0.7396557244736037
 40
1.0
 40
1.0
 40
1.0
 40
1.0
 10
386.8251571899049
 20
261.760784428983
 30
0.0
 10
386.8401238461689
 20
261.7815248672713
 30
0.0
 10
386.867225212229
 20
261.8256144525675
 30
0.0
 10
386.8887230381914
 20
261.8896093211164
 30
0.0
 10
386.8888841353908
 20
261.9524377934735
 30
0.0
 10
386.8759081470782
 20
261.9908831772066
 30
0.0
 10
386.8666556971739
 20
262.0094220114073
 30
0.0
  0
SPLINE
  5
18E
330
14E
100
AcDbEntity
  8
DV2_Default
  6
Continuous
 62
     7
100
AcDbSpline
210
0.0
220
0.0
230
1.0
 70
     8
 71
     3
 72
    16
 73
    12
 74
     0
 42
0.0000000322277248
 43
0.0000000001
 40
0.0
 40
0.0
 40
0.0
 40
0.0
 40
0.0964397998734317
 40
0.1911648618341118
 40
0.2851861972425824
 40
0.3791241817130327
 40
0.4732548652720198
 40
0.5957339258138448
 40
0.7184074772508843
 40
0.8154549601826756
 40
1.0
 40
1.0
 40
1.0
 40
1.0
 10
386.8666556971739
 20
262.0094220114073
 30
0.0
 10
386.8585957533692
 20
261.9977833299953
 30
0.0
 10
386.8424700096671
 20
261.9747614205069
 30
0.0
 10
386.8167294956707
 20
261.9465499697942
 30
0.0
 10
386.7907314159642
 20
261.9235590507978
 30
0.0
 10
386.7646569448169
 20
261.9060155375319
 30
0.0
 10
386.7363341676547
 20
261.8925453376984
 30
0.0
 10
386.7062638351647
 20
261.8845758983659
 30
0.0
 10
386.6773776983005
 20
261.8835438590829
 30
0.0
 10
386.6455932853877
 20
261.8910999865284
 30
0.0
 10
386.6271610727487
 20
261.9062988465619
 30
0.0
 10
386.6149680809852
 20
261.9162970935255
 30
0.0
  0
ARC
  5
18F
330
14E
100
AcDbEntity
  8
DV2_Default
  6
Continuous
 62
     7
100
AcDbCircle
 10
369.8887235649
 20
253.0024170783
 30
0.0
 40
9.227619426907971
100
AcDbArc
 50
89.9082645856
 51
95.6196526219
  0
ARC
  5
190
330
14E
100
AcDbEntity
  8
DV2_Default
  6
Continuous
 62
     7
100
AcDbCircle
 10
369.900053661
 20
253.001688655
 30
0.0
 40
9.228336665525081
100
AcDbArc
 50
84.2702335623
 51
89.9786166835
  0
SPLINE
  5
191
330
14E
100
AcDbEntity
  8
DV2_Default
  6
Continuous
 62
     7
100
AcDbSpline
210
0.0
220
0.0
230
1.0
 70
     8
 71
     3
 72
    29
 73
    25
 74
     0
 42
0.0000000009357485
 43
0.0000000001
 40
0.0
 40
0.0
 40
0.0
 40
0.0
 40
0.0294160432651025
 40
0.0590877180095018
 40
0.1174070807247335
 40
0.1785628308611905
 40
0.211554305645414
 40
0.2462571896355695
 40
0.3167242061763288
 40
0.3506629976671626
 40
0.3831310529690995
 40
0.4434593062673335
 40
0.4999797054982278
 40
0.5564936667720851
 40
0.61681308526571
 40
0.6492742025697725
 40
0.6832107456270811
 40
0.7537280120124769
 40
0.7884411500868742
 40
0.8214293985131967
 40
0.8825925085024681
 40
0.9409170335522418
 40
0.9705848980195594
 40
1.0
 40
1.0
 40
1.0
 40
1.0
 10
370.8213802471868
 20
262.1839190449311
 30
0.0
 10
370.957456274841
 20
262.1603217616077
 30
0.0
 10
371.2307908588775
 20
262.1129221297289
 30
0.0
 10
371.7048897720586
 20
261.9728475433388
 30
0.0
 10
372.1816162405298
 20
261.7370315645654
 30
0.0
 10
372.4445972378601
 20
261.4335488474667
 30
0.0
 10
372.5154264330642
 20
261.1571878738744
 30
0.0
 10
372.4767110531448
 20
260.8526899443398
 30
0.0
 10
372.2594060264194
 20
260.5439256285262
 30
0.0
 10
371.8834906819464
 20
260.2740784043025
 30
0.0
 10
371.4460456077716
 20
260.0527889775021
 30
0.0
 10
370.7891863134246
 20
259.8561357700252
 30
0.0
 10
369.9017103762198
 20
259.7750779025334
 30
0.0
 10
369.0143607668945
 20
259.8576866061636
 30
0.0
 10
368.3577847103311
 20
260.0554654598961
 30
0.0
 10
367.9205986920538
 20
260.277496000688
 30
0.0
 10
367.5448019140896
 20
260.5480963147989
 30
0.0
 10
367.3278098158985
 20
260.8574135482639
 30
0.0
 10
367.2894565485093
 20
261.1621240837862
 30
0.0
 10
367.3607704154125
 20
261.4383850744679
 30
0.0
 10
367.6241784714146
 20
261.7414020204312
 30
0.0
 10
368.1013119903844
 20
261.9763188198923
 30
0.0
 10
368.5756222802527
 20
262.1154847588069
 30
0.0
 10
368.8490077906311
 20
262.1623533347391
 30
0.0
 10
368.9851157613587
 20
262.1856873686288
 30
0.0
  0
SPLINE
  5
192
330
14E
100
AcDbEntity
  8
DV2_Default
  6
Continuous
 62
     7
100
AcDbSpline
210
0.0
220
0.0
230
1.0
 70
     8
 71
     3
 72
    10
 73
     6
 74
     0
 42
0.0000000515212968
 43
0.0000000001
 40
0.0
 40
0.0
 40
0.0
 40
0.0
 40
0.3013776204055947
 40
0.6809507810955752
 40
1.0
 40
1.0
 40
1.0
 40
1.0
 10
352.9220167970113
 20
261.971790380612
 30
0.0
 10
352.9205173735571
 20
261.9555675699262
 30
0.0
 10
352.9219290404678
 20
261.9176983772699
 30
0.0
 10
352.9417509197962
 20
261.858312462723
 30
0.0
 10
352.9687577613139
 20
261.8141802370554
 30
0.0
 10
352.9836730369526
 20
261.793422827506
 30
0.0
  0
SPLINE
  5
193
330
14E
100
AcDbEntity
  8
DV2_Default
  6
Continuous
 62
     7
100
AcDbSpline
210
0.0
220
0.0
230
1.0
 70
     8
 71
     3
 72
    11
 73
     7
 74
     0
 42
0.0000000371727008
 43
0.0000000001
 40
0.0
 40
0.0
 40
0.0
 40
0.0
 40
0.219080531923203
 40
0.479387051555539
 40
0.7396935711877188
 40
0.9999999999999999
 40
0.9999999999999999
 40
0.9999999999999999
 40
0.9999999999999999
 10
353.316802502323
 20
261.4596266733217
 30
0.0
 10
353.3375575083876
 20
261.4446466442552
 30
0.0
 10
353.381661260532
 20
261.417533080297
 30
0.0
 10
353.4456687192884
 20
261.3960309921046
 30
0.0
 10
353.5084971751406
 20
261.3958699411681
 30
0.0
 10
353.5469425865656
 20
261.4088458628638
 30
0.0
 10
353.5654814071781
 20
261.4180983213859
 30
0.0
  0
SPLINE
  5
194
330
14E
100
AcDbEntity
  8
DV2_Default
  6
Continuous
 62
     7
100
AcDbSpline
210
0.0
220
0.0
230
1.0
 70
     8
 71
     3
 72
    11
 73
     7
 74
     0
 42
0.0000000371928729
 43
0.0000000001
 40
0.0
 40
0.0
 40
0.0
 40
0.0
 40
0.2604139181638117
 40
0.5208279358861497
 40
0.7812419536086441
 40
1.0
 40
1.0
 40
1.0
 40
1.0
 10
386.2753320146145
 20
295.3105962931159
 30
0.0
 10
386.2938708261109
 20
295.3198487563549
 30
0.0
 10
386.3323162338224
 20
295.3328246787156
 30
0.0
 10
386.3951446871663
 20
295.3326636260068
 30
0.0
 10
386.45911641054
 20
295.3111735500812
 30
0.0
 10
386.50317993366
 20
295.2840946690903
 30
0.0
 10
386.5238935770762
 20
295.2691526065242
 30
0.0
  0
SPLINE
  5
195
330
14E
100
AcDbEntity
  8
DV2_Default
  6
Continuous
 62
     7
100
AcDbSpline
210
0.0
220
0.0
230
1.0
 70
     8
 71
     3
 72
    11
 73
     7
 74
     0
 42
0.0000000371803503
 43
0.0000000001
 40
0.0
 40
0.0
 40
0.0
 40
0.0
 40
0.2189157103777281
 40
0.4792771716173777
 40
0.7396386328568708
 40
1.0
 40
1.0
 40
1.0
 40
1.0
 10
386.8571261459049
 20
294.9352915956927
 30
0.0
 10
386.87204780353
 20
294.9145272047008
 30
0.0
 10
386.899060473595
 20
294.8703881900254
 30
0.0
 10
386.9204343434351
 20
294.8063525420766
 30
0.0
 10
386.9204741261334
 20
294.7435192771439
 30
0.0
 10
386.9074230579
 20
294.7050968389121
 30
0.0
 10
386.8981342583502
 20
294.6865752258458
 30
0.0
  0
SPLINE
  5
196
330
14E
100
AcDbEntity
  8
DV2_Default
  6
Continuous
 62
     7
100
AcDbSpline
210
0.0
220
0.0
230
1.0
 70
     8
 71
     3
 72
    11
 73
     7
 74
     0
 42
0.0000000371907592
 43
0.0000000001
 40
0.0
 40
0.0
 40
0.0
 40
0.0
 40
0.2604026419603225
 40
0.5208053838257362
 40
0.781208125691306
 40
1.0
 40
1.0
 40
1.0
 40
1.0
 10
352.9741577169517
 20
294.7192726062019
 30
0.0
 10
352.9649052536905
 20
294.7378114177161
 30
0.0
 10
352.9519292642544
 20
294.7762567980199
 30
0.0
 10
352.9520903554517
 20
294.8390852593574
 30
0.0
 10
352.973581657445
 20
294.9030607218897
 30
0.0
 10
353.0006641860249
 20
294.9471284563996
 30
0.0
 10
353.0156102291706
 20
294.9678464353154
 30
0.0
  0
ARC
  5
197
330
14E
100
AcDbEntity
  8
DV2_Default
  6
Continuous
 62
     7
100
AcDbCircle
 10
369.9512765946
 20
310.4207980043
 30
0.0
 40
51.75251512825397
100
AcDbArc
 50
251.6936082578
 51
288.1959993193
  0
ARC
  5
198
330
14E
100
AcDbEntity
  8
DV2_Default
  6
Continuous
 62
     7
100
AcDbCircle
 10
385.6165136039
 20
262.6361912105
 30
0.0
 40
1.492270466645536
100
AcDbArc
 50
314.8496574376
 51
324.509274502
  0
ARC
  5
199
330
14E
100
AcDbEntity
  8
DV2_Default
  6
Continuous
 62
     7
100
AcDbCircle
 10
385.6171550444
 20
262.63948777
 30
0.0
 40
1.49416686340795
100
AcDbArc
 50
305.3793693592
 51
315.0302647498
  0
ARC
  5
19A
330
14E
100
AcDbEntity
  8
DV2_Default
  6
Continuous
 62
     7
100
AcDbCircle
 10
354.1955976614
 20
262.6676396746
 30
0.0
 40
1.494231424362245
100
AcDbArc
 50
215.3789449221
 51
225.0299520799
  0
ARC
  5
19B
330
14E
100
AcDbEntity
  8
DV2_Default
  6
Continuous
 62
     7
100
AcDbCircle
 10
354.1934718285
 20
262.6698313746
 30
0.0
 40
1.494275017597352
100
AcDbArc
 50
224.8597209835
 51
234.5060023112
  0
ARC
  5
19C
330
14E
100
AcDbEntity
  8
DV2_Default
  6
Continuous
 62
     7
100
AcDbCircle
 10
385.6485944979
 20
294.0604836231
 30
0.0
 40
1.49222724838969
100
AcDbArc
 50
44.849711147
 51
54.513352659
  0
ARC
  5
19D
330
14E
100
AcDbEntity
  8
DV2_Default
  6
Continuous
 62
     7
100
AcDbCircle
 10
385.6452080896
 20
294.0610457153
 30
0.0
 40
1.4942432810763
100
AcDbArc
 50
35.3800349932
 51
45.030003276
  0
ARC
  5
19E
330
14E
100
AcDbEntity
  8
DV2_Default
  6
Continuous
 62
     7
100
AcDbCircle
 10
337.8639560097
 20
278.3952171947
 30
0.0
 40
51.75251512992
100
AcDbArc
 50
341.6936082584
 51
18.1959993189
  0
ARC
  5
19F
330
14E
100
AcDbEntity
  8
DV2_Default
  6
Continuous
 62
     7
100
AcDbCircle
 10
354.2236968303
 20
294.0891596904
 30
0.0
 40
1.494227491697709
100
AcDbArc
 50
125.379317025
 51
135.0300836361
  0
ARC
  5
1A0
330
14E
100
AcDbEntity
  8
DV2_Default
  6
Continuous
 62
     7
100
AcDbCircle
 10
354.224270986
 20
294.0925324215
 30
0.0
 40
1.492229464573825
100
AcDbArc
 50
134.8497476287
 51
144.5126744179
  0
ARC
  5
1A1
330
14E
100
AcDbEntity
  8
DV2_Default
  6
Continuous
 62
     7
100
AcDbCircle
 10
401.9768573973
 20
278.3334774212
 30
0.0
 40
51.75251512201966
100
AcDbArc
 50
161.6936082307
 51
168.8008204369
  0
ARC
  5
1A2
330
14E
100
AcDbEntity
  8
DV2_Default
  6
Continuous
 62
     7
100
AcDbCircle
 10
401.9768573973
 20
278.3334774212
 30
0.0
 40
51.75251512201966
100
AcDbArc
 50
191.0928188884
 51
198.1959993483
  0
ARC
  5
1A3
330
14E
100
AcDbEntity
  8
DV2_Default
  6
Continuous
 62
     7
100
AcDbCircle
 10
369.889536821
 20
246.3078966113
 30
0.0
 40
51.75251512857213
100
AcDbArc
 50
71.6936082579
 51
108.1959993193
  0
LINE
  5
1A4
330
14E
100
AcDbEntity
  8
DV2_Default
  6
Continuous
 62
     7
100
AcDbLine
 10
379.1055903405
 20
268.938438629
 30
0.0
 11
379.0412358983
 21
268.9164764485
 31
0.0
  0
SPLINE
  5
1A5
330
14E
100
AcDbEntity
  8
DV2_Default
  6
Continuous
 62
     7
100
AcDbSpline
210
0.0
220
0.0
230
1.0
 70
     8
 71
     3
 72
     8
 73
     4
 74
     0
 42
0.0000003959289467
 43
0.0000000001
 40
0.0
 40
0.0
 40
0.0
 40
0.0
 40
1.0
 40
1.0
 40
1.0
 40
1.0
 10
379.12820346354
 20
268.9493925525938
 30
0.0
 10
379.1206186029421
 20
268.9444675430922
 30
0.0
 10
379.1131683421113
 20
268.9410340724336
 30
0.0
 10
379.1055903404661
 20
268.9384386290468
 30
0.0
  0
LINE
  5
1A6
330
14E
100
AcDbEntity
  8
DV2_Default
  6
Continuous
 62
     7
100
AcDbLine
 10
379.1696110101
 20
268.9604432958
 30
0.0
 11
379.1055903405
 21
268.938438629
 31
0.0
  0
ARC
  5
1A7
330
14E
100
AcDbEntity
  8
DV2_Default
  6
Continuous
 62
     7
100
AcDbCircle
 10
379.1043960952
 20
269.1495121057
 30
0.0
 40
0.199999999973361
100
AcDbArc
 50
289.0306904875
 51
314.8896478983
  0
ARC
  5
1A8
330
14E
100
AcDbEntity
  8
DV2_Default
  6
Continuous
 62
     7
100
AcDbCircle
 10
379.1043960952
 20
269.1495121057
 30
0.0
 40
0.2000000000355217
100
AcDbArc
 50
314.8896478983
 51
328.038986456
  0
LINE
  5
1A9
330
14E
100
AcDbEntity
  8
DV2_Default
  6
Continuous
 62
     7
100
AcDbLine
 10
379.3154636158
 20
269.1475054192
 30
0.0
 11
379.2932122942
 21
269.0835693805
 31
0.0
  0
LINE
  5
1AA
330
14E
100
AcDbEntity
  8
DV2_Default
  6
Continuous
 62
     7
100
AcDbLine
 10
379.3376730906
 20
269.2117735224
 30
0.0
 11
379.3154636158
 21
269.1475054192
 31
0.0
  0
SPLINE
  5
1AB
330
14E
100
AcDbEntity
  8
DV2_Default
  6
Continuous
 62
     7
100
AcDbSpline
210
0.0
220
0.0
230
1.0
 70
    12
 71
     3
 72
     8
 73
     4
 74
     0
 42
0.0000000005268266
 43
0.0000000001
 40
0.0
 40
0.0
 40
0.0
 40
0.0
 40
1.0
 40
1.0
 40
1.0
 40
1.0
 10
379.3729001709655
 20
287.5018445497383
 30
0.0
 41
1.0
 10
381.4393515990387
 20
281.4250373377299
 30
0.0
 41
1.0
 10
381.4275172308525
 20
275.2805756633371
 30
0.0
 41
1.0
 10
379.3376730906184
 20
269.2117735223529
 30
0.0
 41
1.0
  0
SPLINE
  5
1AC
330
14E
100
AcDbEntity
  8
DV2_Default
  6
Continuous
 62
     7
100
AcDbSpline
210
0.0
220
0.0
230
1.0
 70
    12
 71
     3
 72
     8
 73
     4
 74
     0
 42
0.0000000005862962
 43
0.0000000001
 40
0.0
 40
0.0
 40
0.0
 40
0.0
 40
0.9999999999999999
 40
0.9999999999999999
 40
0.9999999999999999
 40
0.9999999999999999
 10
362.5431991425681
 20
288.3722278374669
 30
0.0
 41
1.0
 10
368.0459341785501
 20
289.8784490284045
 30
0.0
 41
1.0
 10
373.5926694899346
 20
289.6870657380485
 30
0.0
 41
1.0
 10
379.07760309713
 20
287.7982817420477
 30
0.0
 41
1.0
  0
SPLINE
  5
1AD
330
14E
100
AcDbEntity
  8
DV2_Default
  6
Continuous
 62
     7
100
AcDbSpline
210
0.0
220
0.0
230
1.0
 70
    12
 71
     3
 72
     8
 73
     4
 74
     0
 42
0.0000000005915675
 43
0.0000000001
 40
0.0
 40
0.0
 40
0.0
 40
0.0
 40
1.0
 40
1.0
 40
1.0
 40
1.0
 10
379.0412358983089
 20
268.9164764485024
 30
0.0
 41
1.0
 10
373.5958186754107
 20
267.0647326290532
 30
0.0
 41
1.0
 10
368.0960754372988
 20
266.8818363913841
 30
0.0
 41
1.0
 10
362.6451292247933
 20
268.3675891194991
 30
0.0
 41
1.0
  0
LINE
  5
1AE
330
14E
100
AcDbEntity
  8
DV2_Default
  6
Continuous
 62
     7
100
AcDbLine
 10
379.0776030971
 20
287.798281742
 30
0.0
 11
379.1418712002
 21
287.7760722673
 31
0.0
  0
LINE
  5
1AF
330
14E
100
AcDbEntity
  8
DV2_Default
  6
Continuous
 62
     7
100
AcDbLine
 10
379.1418712002
 20
287.7760722673
 30
0.0
 11
379.2058072389
 21
287.7538209456
 31
0.0
  0
ARC
  5
1B0
330
14E
100
AcDbEntity
  8
DV2_Default
  6
Continuous
 62
     7
100
AcDbCircle
 10
379.1398645138
 20
287.5650047466
 30
0.0
 40
0.1999999999928557
100
AcDbArc
 50
44.8896479131
 51
58.0447328511
  0
ARC
  5
1B1
330
14E
100
AcDbEntity
  8
DV2_Default
  6
Continuous
 62
     7
100
AcDbCircle
 10
379.1398645138
 20
287.5650047466
 30
0.0
 40
0.1999999999727243
100
AcDbArc
 50
19.0306904877
 51
44.8896479131
  0
LINE
  5
1B2
330
14E
100
AcDbEntity
  8
DV2_Default
  6
Continuous
 62
     7
100
AcDbLine
 10
379.3289333237
 20
287.6302196616
 30
0.0
 11
379.3509379904
 21
287.5661989919
 31
0.0
  0
LINE
  5
1B3
330
14E
100
AcDbEntity
  8
DV2_Default
  6
Continuous
 62
     7
100
AcDbLine
 10
379.3509379904
 20
287.5661989919
 30
0.0
 11
379.372900171
 21
287.5018445497
 31
0.0
  0
SPLINE
  5
1B4
330
14E
100
AcDbEntity
  8
DV2_Default
  6
Continuous
 62
     7
100
AcDbSpline
210
0.0
220
0.0
230
1.0
 70
     8
 71
     3
 72
     8
 73
     4
 74
     0
 42
0.0000003959136951
 43
0.0000000001
 40
0.0
 40
0.0
 40
0.0
 40
0.0
 40
1.0
 40
1.0
 40
1.0
 40
1.0
 10
379.350937990385
 20
287.5661989918876
 30
0.0
 10
379.3483425622289
 20
287.5737769491432
 30
0.0
 10
379.3449170211779
 20
287.5812306040747
 30
0.0
 10
379.3399847617448
 20
287.5888122455724
 30
0.0
  0
SPLINE
  5
1B5
330
14E
100
AcDbEntity
  8
DV2_Default
  6
Continuous
 62
     7
100
AcDbSpline
210
0.0
220
0.0
230
1.0
 70
     8
 71
     3
 72
    12
 73
     8
 74
     0
 42
0.0000001156392608
 43
0.0000000001
 40
0.0
 40
0.0
 40
0.0
 40
0.0
 40
0.1060028791281871
 40
0.2161357884348433
 40
0.4558091274407062
 40
0.7201615496
 40
1.0
 40
1.0
 40
1.0
 40
1.0
 10
379.1281979438852
 20
268.9493889688137
 30
0.0
 10
379.1344287337886
 20
268.9516525964883
 30
0.0
 10
379.1451839127712
 20
268.9555573659894
 30
0.0
 10
379.1656941906732
 20
268.9631055448434
 30
0.0
 10
379.1854416142253
 20
268.9702342315313
 30
0.0
 10
379.2023236450608
 20
268.9759352263097
 30
0.0
 10
379.2068635272735
 20
268.9780682567289
 30
0.0
 10
379.2093176689658
 20
268.9792410879903
 30
0.0
  0
SPLINE
  5
1B6
330
14E
100
AcDbEntity
  8
DV2_Default
  6
Continuous
 62
     7
100
AcDbSpline
210
0.0
220
0.0
230
1.0
 70
     8
 71
     3
 72
    12
 73
     8
 74
     0
 42
0.0000001150998524
 43
0.0000000001
 40
0.0
 40
0.0
 40
0.0
 40
0.0
 40
0.2802531156200202
 40
0.5445700325178546
 40
0.7840235107196255
 40
0.8940421001047673
 40
1.0
 40
1.0
 40
1.0
 40
1.0
 10
379.2740847086658
 20
269.0436512183835
 30
0.0
 10
379.2752859704571
 20
269.0461255634287
 30
0.0
 10
379.2774677887963
 20
269.0506981353794
 30
0.0
 10
379.2832793008454
 20
269.0676407085872
 30
0.0
 10
379.2905281193346
 20
269.0874386470683
 30
0.0
 10
379.2982018805414
 20
269.1079950515628
 30
0.0
 10
379.3021685848299
 20
269.1187645672626
 30
0.0
 10
379.3044684950189
 20
269.1250046777021
 30
0.0
  0
SPLINE
  5
1B7
330
14E
100
AcDbEntity
  8
DV2_Default
  6
Continuous
 62
     7
100
AcDbSpline
210
0.0
220
0.0
230
1.0
 70
     8
 71
     3
 72
    12
 73
     8
 74
     0
 42
0.0000001156322796
 43
0.0000000001
 40
0.0
 40
0.0
 40
0.0
 40
0.0
 40
0.1060014409847131
 40
0.2161325464831328
 40
0.4558047475726001
 40
0.7201545054474382
 40
1.0
 40
1.0
 40
1.0
 40
1.0
 10
379.3399876336112
 20
287.5888066146155
 30
0.0
 10
379.3377238167732
 20
287.5950376151101
 30
0.0
 10
379.3338187352383
 20
287.6057931771145
 30
0.0
 10
379.3262698065877
 20
287.6263043988104
 30
0.0
 10
379.3191415906138
 20
287.6460532179288
 30
0.0
 10
379.313438691983
 20
287.6629356646839
 30
0.0
 10
379.3113056303881
 20
287.6674763364924
 30
0.0
 10
379.3101326861718
 20
287.6699309375259
 30
0.0
  0
SPLINE
  5
1B8
330
14E
100
AcDbEntity
  8
DV2_Default
  6
Continuous
 62
     7
100
AcDbSpline
210
0.0
220
0.0
230
1.0
 70
     8
 71
     3
 72
    12
 73
     8
 74
     0
 42
0.0000001151256831
 43
0.0000000001
 40
0.0
 40
0.0
 40
0.0
 40
0.0
 40
0.2802300269152244
 40
0.5445509636890384
 40
0.7840136059694814
 40
0.8940383098814733
 40
1.0
 40
1.0
 40
1.0
 40
1.0
 10
379.2457084914836
 20
287.7347039086077
 30
0.0
 10
379.2432354774016
 20
287.7359043423985
 30
0.0
 10
379.2386651210997
 20
287.7380849555446
 30
0.0
 10
379.2217259747046
 20
287.7438930056722
 30
0.0
 10
379.2019321483644
 20
287.7511407737017
 30
0.0
 10
379.1813792613005
 20
287.7588121967812
 30
0.0
 10
379.1706111871314
 20
287.7627778688206
 30
0.0
 10
379.1643719222873
 20
287.7650771637074
 30
0.0
  0
SPLINE
  5
1B9
330
14E
100
AcDbEntity
  8
DV2_Default
  6
Continuous
 62
     7
100
AcDbSpline
210
0.0
220
0.0
230
1.0
 70
     8
 71
     3
 72
    20
 73
    16
 74
     0
 42
0.0000000003413267
 43
0.0000000001
 40
0.0
 40
0.0
 40
0.0
 40
0.0
 40
0.1234621153936286
 40
0.2777827152058315
 40
0.3540353311736235
 40
0.4038086045096266
 40
0.5166127839241395
 40
0.5683617675123352
 40
0.6182555124880078
 40
0.6678803313844254
 40
0.7203457059272432
 40
0.7779184345456728
 40
0.844715943927824
 40
0.9188462026170098
 40
1.0
 40
1.0
 40
1.0
 40
1.0
 10
348.6629261469181
 20
287.0822841047544
 30
0.0
 10
350.4113531979896
 20
287.0806206022851
 30
0.0
 10
354.3452133268104
 20
287.0768153383333
 30
0.0
 10
359.3564032871132
 20
287.072229441828
 30
0.0
 10
363.3269220993334
 20
287.0680730746807
 30
0.0
 10
366.7013493856304
 20
287.0631795258544
 30
0.0
 10
369.7434613509418
 20
287.0499322140373
 30
0.0
 10
372.5943122573897
 20
287.0344327881195
 30
0.0
 10
374.3979095440073
 20
287.0282104116113
 30
0.0
 10
375.8691021864656
 20
287.0260274283004
 30
0.0
 10
376.9555873332173
 20
287.029271853094
 30
0.0
 10
377.6201048259921
 20
287.0366811714118
 30
0.0
 10
377.8939253081595
 20
287.0484656986004
 30
0.0
 10
377.9416495958563
 20
287.0590586282839
 30
0.0
 10
377.9512880012462
 20
287.0649883381893
 30
0.0
 10
377.956303029063
 20
287.0679953774884
 30
0.0
  0
ARC
  5
1BA
330
14E
100
AcDbEntity
  8
DV2_Default
  6
Continuous
 62
     7
100
AcDbCircle
 10
378.1811078909
 20
286.6439899361
 30
0.0
 40
0.4799144092925396
100
AcDbArc
 50
111.0118412105
 51
117.9322373636
  0
ARC
  5
1BB
330
14E
100
AcDbEntity
  8
DV2_Default
  6
Continuous
 62
     7
100
AcDbCircle
 10
369.9033493589
 20
261.8879675492
 30
0.0
 40
26.47535131590355
100
AcDbArc
 50
72.1731563934
 51
89.9761958214
  0
SPLINE
  5
1BC
330
14E
100
AcDbEntity
  8
DV2_Default
  6
Continuous
 62
     7
100
AcDbSpline
210
0.0
220
0.0
230
1.0
 70
     8
 71
     3
 72
     8
 73
     4
 74
     0
 42
0.0000043572222574
 43
0.0000000001
 40
0.0
 40
0.0
 40
0.0
 40
0.0
 40
1.0
 40
1.0
 40
1.0
 40
1.0
 10
347.7987382450552
 20
288.384138467558
 30
0.0
 10
347.7995032650712
 20
288.3841419065496
 30
0.0
 10
347.8002682742645
 20
288.3841422976906
 30
0.0
 10
347.8010332727519
 20
288.3841396394419
 30
0.0
  0
ARC
  5
1BD
330
14E
100
AcDbEntity
  8
DV2_Default
  6
Continuous
 62
     7
100
AcDbCircle
 10
348.6611559943
 20
286.8306120962
 30
0.0
 40
0.2516782337162754
100
AcDbArc
 50
89.5970127839
 51
154.1479529648
  0
ELLIPSE
  5
1BE
330
14E
100
AcDbEntity
  8
DV2_Default
  6
Continuous
 62
     7
100
AcDbEllipse
 10
348.3963784667
 20
286.0966287417
 30
0.0
 11
0.0
 21
0.2353368298889084
 31
0.0
210
0.0
220
0.0
230
1.0
 40
1.0
 41
-0.2196348704890319
 42
-0.1471710284382599
  0
ARC
  5
1BF
330
14E
100
AcDbEntity
  8
DV2_Default
  6
Continuous
 62
     7
100
AcDbCircle
 10
377.709421714
 20
286.1380793173
 30
0.0
 40
0.9998479573985238
100
AcDbArc
 50
17.3002750069
 51
72.5920615146
  0
ARC
  5
1C0
330
14E
100
AcDbEntity
  8
DV2_Default
  6
Continuous
 62
     7
100
AcDbCircle
 10
369.9350980851
 20
294.8524443045
 30
0.0
 40
26.4892755473255
100
AcDbArc
 50
269.913574862
 51
287.7068380275
  0
SPLINE
  5
1C1
330
14E
100
AcDbEntity
  8
DV2_Default
  6
Continuous
 62
     7
100
AcDbSpline
210
0.0
220
0.0
230
1.0
 70
     8
 71
     3
 72
    24
 73
    20
 74
     0
 42
0.0000000003401709
 43
0.0000000001
 40
0.0
 40
0.0
 40
0.0
 40
0.0
 40
0.1147953014227456
 40
0.1941815661953433
 40
0.2738569415273511
 40
0.3418224200454528
 40
0.3982418060942585
 40
0.4204041755160157
 40
0.4430423841350195
 40
0.4703100630873367
 40
0.4990170906202017
 40
0.5498166644875647
 40
0.5957960149715088
 40
0.6430839881859218
 40
0.7007893876526721
 40
0.7478264744228447
 40
0.8121188226147452
 40
0.8728805348942013
 40
1.0
 40
1.0
 40
1.0
 40
1.0
 10
377.9917252900734
 20
269.618093171476
 30
0.0
 10
377.9912908913577
 20
269.617170167216
 30
0.0
 10
377.9905520015885
 20
269.6156219727112
 30
0.0
 10
377.9858863267852
 20
269.6226610846887
 30
0.0
 10
377.9376916167705
 20
269.6397582704185
 30
0.0
 10
377.9314367337869
 20
269.6541412400815
 30
0.0
 10
377.8682854803566
 20
269.6574175355832
 30
0.0
 10
377.738902850393
 20
269.6742377110162
 30
0.0
 10
377.4985192235719
 20
269.675523123118
 30
0.0
 10
377.0912469139205
 20
269.6767510381966
 30
0.0
 10
376.3343629921345
 20
269.6890278449718
 30
0.0
 10
374.7956202807036
 20
269.6894114425268
 30
0.0
 10
372.3994099139285
 20
269.685505631093
 30
0.0
 10
369.5424850288555
 20
269.6759766989796
 30
0.0
 10
366.5554321527149
 20
269.6689566044657
 30
0.0
 10
363.2192071219931
 20
269.6700113647724
 30
0.0
 10
359.8193094163655
 20
269.6737799757379
 30
0.0
 10
354.8380428822777
 20
269.6783758931322
 30
0.0
 10
351.1255881767049
 20
269.6819993432988
 30
0.0
 10
348.6137599020697
 20
269.6844498722854
 30
0.0
  0
SPLINE
  5
1C2
330
14E
100
AcDbEntity
  8
DV2_Default
  6
Continuous
 62
     7
100
AcDbSpline
210
0.0
220
0.0
230
1.0
 70
     8
 71
     3
 72
     8
 73
     4
 74
     0
 42
0.000003730536566
 43
0.0000000001
 40
0.0
 40
0.0
 40
0.0
 40
0.0
 40
1.0
 40
1.0
 40
1.0
 40
1.0
 10
347.7444198967831
 20
268.3841610835334
 30
0.0
 10
347.743526369109
 20
268.3841566661542
 30
0.0
 10
347.7426328491362
 20
268.3841564283339
 30
0.0
 10
347.741739336889
 20
268.3841603707104
 30
0.0
  0
ARC
  5
1C3
330
14E
100
AcDbEntity
  8
DV2_Default
  6
Continuous
 62
     7
100
AcDbCircle
 10
377.6942825547
 20
270.5728641086
 30
0.0
 40
1.000029861180311
100
AcDbArc
 50
287.3035394338
 51
342.585340457
  0
LINE
  5
1C4
330
14E
100
AcDbEntity
  8
DV2_Default
  6
Continuous
 62
     7
100
AcDbLine
 10
369.921186936
 20
288.3630055679
 30
0.0
 11
347.8010044116
 21
288.3843035397
 31
0.0
  0
SPLINE
  5
1C5
330
14E
100
AcDbEntity
  8
DV2_Default
  6
Continuous
 62
     7
100
AcDbSpline
210
0.0
220
0.0
230
1.0
 70
     8
 71
     3
 72
     9
 73
     5
 74
     0
 42
0.0000000687507938
 43
0.0000000001
 40
0.0
 40
0.0
 40
0.0
 40
0.0
 40
0.6637972835133815
 40
1.0
 40
1.0
 40
1.0
 40
1.0
 10
347.7986622973363
 20
288.3838299279332
 30
0.0
 10
347.7636941414034
 20
288.38247383534
 30
0.0
 10
347.7194443061354
 20
288.3802108168757
 30
0.0
 10
347.6713663646968
 20
288.3692791516997
 30
0.0
 10
347.6551281400126
 20
288.3647961410044
 30
0.0
  0
LINE
  5
1C6
330
14E
100
AcDbEntity
  8
DV2_Default
  6
Continuous
 62
     7
100
AcDbLine
 10
347.7443923619
 20
268.3841514388
 30
0.0
 11
369.902176784
 21
268.3628096963
 31
0.0
  0
SPLINE
  5
1C7
330
14E
100
AcDbEntity
  8
DV2_Default
  6
Continuous
 62
     7
100
AcDbSpline
210
0.0
220
0.0
230
1.0
 70
     8
 71
     3
 72
     9
 73
     5
 74
     0
 42
0.000000083308507
 43
0.0000000001
 40
0.0
 40
0.0
 40
0.0
 40
0.0
 40
0.2703904269985803
 40
1.0
 40
1.0
 40
1.0
 40
1.0
 10
347.6224883599553
 20
268.397896279155
 30
0.0
 10
347.6332743656268
 20
268.3954035054496
 30
0.0
 10
347.6728354715587
 20
268.3876053325664
 30
0.0
 10
347.7095475101367
 20
268.3858209859574
 30
0.0
 10
347.7414132293195
 20
268.3846368630579
 30
0.0
  0
ARC
  5
1C8
330
14E
100
AcDbEntity
  8
DV2_Default
  6
Continuous
 62
     7
100
AcDbCircle
 10
353.5158662585
 20
278.3781611398
 30
0.0
 40
26.4063186481854
100
AcDbArc
 50
342.1269258849
 51
17.7649870757
  0
SPLINE
  5
1C9
330
14E
100
AcDbEntity
  8
DV2_Default
  6
Continuous
 62
     7
100
AcDbSpline
210
0.0
220
0.0
230
1.0
 70
     8
 71
     3
 72
    16
 73
    12
 74
     0
 42
0.0000000000673462
 43
0.0000000001
 40
0.0
 40
0.0
 40
0.0
 40
0.0
 40
0.0458305857639419
 40
0.1250043550379346
 40
0.250003400201472
 40
0.4999983000740986
 40
0.7499977960273119
 40
0.8750008104679687
 40
0.9375022284584484
 40
0.968754258547789
 40
1.0
 40
1.0
 40
1.0
 40
1.0
 10
199.9141293020658
 20
269.8127510185066
 30
0.0
 10
197.6438764781423
 20
269.8146738461397
 30
0.0
 10
191.451691012564
 20
269.819993589911
 30
0.0
 10
179.0677462059334
 20
269.8304932721589
 30
0.0
 10
156.5719082722734
 20
269.84989814931
 30
0.0
 10
125.6214234842024
 20
269.8767328625261
 30
0.0
 10
94.68987151689771
 20
269.9034398736096
 30
0.0
 10
73.0527103350678
 20
269.9222647671472
 30
0.0
 10
62.23837321777187
 20
269.9315001991224
 30
0.0
 10
56.0601722179081
 20
269.9370080213347
 30
0.0
 10
52.97182327188663
 20
269.9395185808234
 30
0.0
 10
51.42780447493203
 20
269.9407930046232
 30
0.0
  0
SPLINE
  5
1CA
330
14E
100
AcDbEntity
  8
DV2_Default
  6
Continuous
 62
     7
100
AcDbSpline
210
0.0
220
0.0
230
1.0
 70
     8
 71
     3
 72
    13
 73
     9
 74
     0
 42
0.0000000060821277
 43
0.0000000001
 40
0.0
 40
0.0
 40
0.0
 40
0.0
 40
0.1831472566262944
 40
0.3611240172404634
 40
0.5343085048181525
 40
0.7030426868643469
 40
0.9703126540492324
 40
1.0
 40
1.0
 40
1.0
 40
1.0
 10
51.42780447493203
 20
269.9407930046232
 30
0.0
 10
51.47996602304894
 20
269.792655851463
 30
0.0
 10
51.58281711638723
 20
269.5006016550431
 30
0.0
 10
51.73630212460164
 20
269.1677376857762
 30
0.0
 10
51.88653532209459
 20
268.9152859909875
 30
0.0
 10
52.06328241919303
 20
268.7108109355999
 30
0.0
 10
52.19883098233696
 20
268.642702428715
 30
0.0
 10
52.28528903816517
 20
268.6389873566893
 30
0.0
 10
52.29393253020939
 20
268.6390093612023
 30
0.0
  0
SPLINE
  5
1CB
330
14E
100
AcDbEntity
  8
DV2_Default
  6
Continuous
 62
     7
100
AcDbSpline
210
0.0
220
0.0
230
1.0
 70
     8
 71
     3
 72
    13
 73
     9
 74
     0
 42
0.0000000060795727
 43
0.0000000001
 40
0.0
 40
0.0
 40
0.0
 40
0.0
 40
0.1831388188110434
 40
0.3611304365323507
 40
0.5343555850555001
 40
0.7031424584212033
 40
0.9847286999713751
 40
1.0
 40
1.0
 40
1.0
 40
1.0
 10
348.4122972738413
 20
287.0818709527979
 30
0.0
 10
348.360143265909
 20
287.2299757286883
 30
0.0
 10
348.2573011233742
 20
287.5220266565037
 30
0.0
 10
348.1038314770572
 20
287.854901297319
 30
0.0
 10
347.9535448588016
 20
288.1073499171317
 30
0.0
 10
347.772585072476
 20
288.3166490816929
 30
0.0
 10
347.637092545012
 20
288.3816418055287
 30
0.0
 10
347.5506585094652
 20
288.3835943322067
 30
0.0
 10
347.5462119477386
 20
288.3835906357104
 30
0.0
  0
ARC
  5
1CC
330
14E
100
AcDbEntity
  8
DV2_Default
  6
Continuous
 62
     7
100
AcDbCircle
 10
344.7299676154
 20
286.4581576035
 30
0.0
 40
3.734778447976574
100
AcDbArc
 50
359.0942499852
 51
9.6135215096
  0
ARC
  5
1CD
330
14E
100
AcDbEntity
  8
DV2_Default
  6
Continuous
 62
     7
100
AcDbCircle
 10
-20.3852400676
 20
278.701469191
 30
0.0
 40
368.9298332159758
100
AcDbArc
 50
358.7054454751
 51
1.1955522202
  0
ARC
  5
1CE
330
14E
100
AcDbEntity
  8
DV2_Default
  6
Continuous
 62
     7
100
AcDbCircle
 10
344.6514897821
 20
270.3188350079
 30
0.0
 40
3.799236984065524
100
AcDbArc
 50
350.3779619962
 51
0.7186920082
  0
SPLINE
  5
1CF
330
14E
100
AcDbEntity
  8
DV2_Default
  6
Continuous
 62
     7
100
AcDbSpline
210
0.0
220
0.0
230
1.0
 70
     8
 71
     3
 72
    11
 73
     7
 74
     0
 42
0.0000000060524034
 43
0.0000000001
 40
0.0
 40
0.0
 40
0.0
 40
0.0
 40
0.0409366879364513
 40
0.3090418152797637
 40
0.6452250005067544
 40
1.0
 40
1.0
 40
1.0
 40
1.0
 10
347.5288990359576
 20
268.3833521493175
 30
0.0
 10
347.5408176075063
 20
268.3833465048206
 30
0.0
 10
347.6307967825069
 20
268.3890061943301
 30
0.0
 10
347.8186405782814
 20
268.4916566580075
 30
0.0
 10
348.0974589541441
 20
268.878935889113
 30
0.0
 10
348.2955619681269
 20
269.4107292723587
 30
0.0
 10
348.3972784122541
 20
269.6838002064707
 30
0.0
  0
SPLINE
  5
1D0
330
14E
100
AcDbEntity
  8
DV2_Default
  6
Continuous
 62
     7
100
AcDbSpline
210
0.0
220
0.0
230
1.0
 70
     8
 71
     3
 72
    17
 73
    13
 74
     0
 42
0.0000000000673477
 43
0.0000000001
 40
0.0
 40
0.0
 40
0.0
 40
0.0
 40
0.0156234384027387
 40
0.0312468334422551
 40
0.0624994052894057
 40
0.1250021365252356
 40
0.2500077034861926
 40
0.5000123264620924
 40
0.7500122556888928
 40
0.8750070886567779
 40
0.9535258994521483
 40
1.0
 40
1.0
 40
1.0
 40
1.0
 10
348.3972784122541
 20
269.6838002064707
 30
0.0
 10
347.6252704663482
 20
269.6844753540884
 30
0.0
 10
346.0812561757105
 20
269.6858650120421
 30
0.0
 10
342.9926609757529
 20
269.6886836268008
 30
0.0
 10
337.5866756268027
 20
269.6932002979427
 30
0.0
 10
326.7723210673856
 20
269.7026974323884
 30
0.0
 10
305.1352000114798
 20
269.7213165734336
 30
0.0
 10
274.2036680313453
 20
269.7481555980715
 30
0.0
 10
243.2535547035952
 20
269.7748936522194
 30
0.0
 10
220.7905973389531
 20
269.7943984642731
 30
0.0
 10
208.4076960773556
 20
269.8053239545679
 30
0.0
 10
202.2162098538317
 20
269.8107179105675
 30
0.0
 10
199.9141293020658
 20
269.8127510185066
 30
0.0
  0
ARC
  5
1D1
330
14E
100
AcDbEntity
  8
DV2_Default
  6
Continuous
 62
     7
100
AcDbCircle
 10
55.1734354238
 20
270.569293204
 30
0.0
 40
3.797994695284233
100
AcDbArc
 50
179.1812069031
 51
189.5252427133
  0
ARC
  5
1D2
330
14E
100
AcDbEntity
  8
DV2_Default
  6
Continuous
 62
     7
100
AcDbCircle
 10
420.2592357505
 20
278.3205799256
 30
0.0
 40
368.9637002766729
100
AcDbArc
 50
178.7054898629
 51
181.1953434489
  0
ARC
  5
1D3
330
14E
100
AcDbEntity
  8
DV2_Default
  6
Continuous
 62
     7
100
AcDbCircle
 10
55.2273602479
 20
286.7043145067
 30
0.0
 40
3.837960951515051
100
AcDbArc
 50
173.8845013433
 51
180.7207121328
  0
SPLINE
  5
1D4
330
14E
100
AcDbEntity
  8
DV2_Default
  6
Continuous
 62
     7
100
AcDbSpline
210
0.0
220
0.0
230
1.0
 70
     8
 71
     3
 72
    20
 73
    16
 74
     0
 42
0.0000000000673568
 43
0.0000000001
 40
0.0
 40
0.0
 40
0.0
 40
0.0
 40
0.0012850557189126
 40
0.0315793872041911
 40
0.0679325849866099
 40
0.0982207545750089
 40
0.1345665580811441
 40
0.2011879408308267
 40
0.2677976996112186
 40
0.3343968013045048
 40
0.4675666612439961
 40
0.6007055060565903
 40
0.7338210847816873
 40
0.8669211505226423
 40
1.0
 40
1.0
 40
1.0
 40
1.0
 10
51.46297735362529
 20
287.3385939353516
 30
0.0
 10
51.52646990962137
 20
287.3385389838276
 30
0.0
 10
53.08676164322338
 20
287.3371885872292
 30
0.0
 10
56.44344593633091
 20
287.3342834509951
 30
0.0
 10
61.23399610408389
 20
287.3301373406487
 30
0.0
 10
66.32436906252262
 20
287.3257317275405
 30
0.0
 10
72.91177293215296
 20
287.3200304744772
 30
0.0
 10
81.29651869550378
 20
287.3127736627232
 30
0.0
 10
91.17968134277328
 20
287.3042200025099
 30
0.0
 10
104.3572741815474
 20
287.2928150866929
 30
0.0
 10
120.8313483548362
 20
287.2785571382242
 30
0.0
 10
140.6036787251485
 20
287.2614446216576
 30
0.0
 10
160.3776491586609
 20
287.2443306898725
 30
0.0
 10
180.1514669487233
 20
287.2272168772824
 30
0.0
 10
193.3343491043965
 20
287.2158074126793
 30
0.0
 10
199.9260047957651
 20
287.2099545851607
 30
0.0
  0
SPLINE
  5
1D5
330
14E
100
AcDbEntity
  8
DV2_Default
  6
Continuous
 62
     7
100
AcDbSpline
210
0.0
220
0.0
230
1.0
 70
     8
 71
     3
 72
    20
 73
    16
 74
     0
 42
0.0000000000673464
 43
0.0000000001
 40
0.0
 40
0.0
 40
0.0
 40
0.0
 40
0.1330726748587401
 40
0.2661528575321177
 40
0.3992485508722399
 40
0.5323675068242699
 40
0.6655174732700223
 40
0.7321066260994052
 40
0.7987064344238919
 40
0.8653178649812299
 40
0.9016582389929223
 40
0.9319418840026189
 40
0.9682896511860059
 40
0.998579457172091
 40
1.0
 40
1.0
 40
1.0
 40
1.0
 10
199.9264122042739
 20
287.2099542234165
 30
0.0
 10
206.5195611674779
 20
287.2043990431153
 30
0.0
 10
219.7031208142978
 20
287.1929889325054
 30
0.0
 10
239.477615246689
 20
287.1758745510931
 30
0.0
 10
259.2515835265939
 20
287.1587606121395
 30
0.0
 10
279.0239117465782
 20
287.1416480968416
 30
0.0
 10
295.4979841337992
 20
287.1273901494573
 30
0.0
 10
308.6755755469309
 20
287.1159852332259
 30
0.0
 10
318.5587371265352
 20
287.1074315747626
 30
0.0
 10
326.943481985487
 20
287.1001747613798
 30
0.0
 10
333.5308851454212
 20
287.0944735088601
 30
0.0
 10
338.6212575560007
 20
287.0900679108688
 30
0.0
 10
343.4118072084301
 20
287.0859217901455
 30
0.0
 10
346.775196315044
 20
287.0830108507212
 30
0.0
 10
348.3421921193375
 20
287.0816546487555
 30
0.0
 10
348.4122972738413
 20
287.0818709527979
 30
0.0
  0
LINE
  5
1D6
330
14E
100
AcDbEntity
  8
DV2_Default
  6
Continuous
 62
     7
100
AcDbLine
 10
52.2938982974
 20
268.6389312102
 30
0.0
 11
199.9121497659
 21
268.5111707381
 31
0.0
  0
LINE
  5
1D7
330
14E
100
AcDbEntity
  8
DV2_Default
  6
Continuous
 62
     7
100
AcDbLine
 10
199.912149778
 20
268.5111707381
 30
0.0
 11
347.528903335
 21
268.3834118094
 31
0.0
  0
LINE
  5
1D8
330
14E
100
AcDbEntity
  8
DV2_Default
  6
Continuous
 62
     7
100
AcDbLine
 10
199.9280264899
 20
288.5113715837
 30
0.0
 11
52.3112428489
 21
288.6391306867
 31
0.0
  0
LINE
  5
1D9
330
14E
100
AcDbEntity
  8
DV2_Default
  6
Continuous
 62
     7
100
AcDbLine
 10
347.5462104332
 20
288.3836113204
 30
0.0
 11
199.9280265026
 21
288.5113715834
 31
0.0
  0
SPLINE
  5
1DA
330
14E
100
AcDbEntity
  8
DV2_Default
  6
Continuous
 62
     7
100
AcDbSpline
210
0.0
220
0.0
230
1.0
 70
     8
 71
     3
 72
    20
 73
    16
 74
     0
 42
0.0000000003413267
 43
0.0000000001
 40
0.0
 40
0.0
 40
0.0
 40
0.0
 40
0.1234621153936286
 40
0.2777827152058315
 40
0.3540353311736235
 40
0.4038086045096266
 40
0.5166127839241395
 40
0.5683617675123352
 40
0.6182555124880078
 40
0.6678803313844254
 40
0.7203457059272432
 40
0.7779184345456728
 40
0.844715943927824
 40
0.9188462026170098
 40
1.0
 40
1.0
 40
1.0
 40
1.0
 10
51.17763491470823
 20
270.3461641314401
 30
0.0
 10
49.42920707240253
 20
270.3461438977185
 30
0.0
 10
45.49534510318287
 20
270.3461608522207
 30
0.0
 10
40.48415305027345
 20
270.3459209701826
 30
0.0
 10
36.5136320765401
 20
270.346253725402
 30
0.0
 10
33.1392016424254
 20
270.3478976981557
 30
0.0
 10
30.09707833053213
 20
270.3582154497131
 30
0.0
 10
27.24621382003156
 20
270.3709694987451
 30
0.0
 10
25.44261137756532
 20
270.3754550080063
 30
0.0
 10
23.97141731506336
 20
270.3762212316479
 30
0.0
 10
22.88493579647963
 20
270.371930523057
 30
0.0
 10
22.2204257470057
 20
270.3638812777649
 30
0.0
 10
21.94661674030549
 20
270.3518330668898
 30
0.0
 10
21.89890267572997
 20
270.3411941836244
 30
0.0
 10
21.88926998512047
 20
270.3352551946832
 30
0.0
 10
21.88425785540821
 20
270.3322433273061
 30
0.0
  0
ARC
  5
1DB
330
14E
100
AcDbEntity
  8
DV2_Default
  6
Continuous
 62
     7
100
AcDbCircle
 10
21.6590448036
 20
270.7560320973
 30
0.0
 40
0.479914409295881
100
AcDbArc
 50
291.0670139784
 51
297.9874100948
  0
ARC
  5
1DC
330
14E
100
AcDbEntity
  8
DV2_Default
  6
Continuous
 62
     7
100
AcDbCircle
 10
29.9129594223
 20
295.5200144752
 30
0.0
 40
26.47535131590344
100
AcDbArc
 50
252.2283322432
 51
270.0313716711
  0
ARC
  5
1DD
330
14E
100
AcDbEntity
  8
DV2_Default
  6
Continuous
 62
     7
100
AcDbCircle
 10
51.1791627063
 20
270.5978377279
 30
0.0
 40
0.2516782337162972
100
AcDbArc
 50
269.6521886336
 51
323.6441468973
  0
ARC
  5
1DE
330
14E
100
AcDbEntity
  8
DV2_Default
  6
Continuous
 62
     7
100
AcDbCircle
 10
22.1302435467
 20
271.262396703
 30
0.0
 40
0.9998479573983905
100
AcDbArc
 50
197.3554508567
 51
252.6472373643
  0
ARC
  5
1DF
330
14E
100
AcDbEntity
  8
DV2_Default
  6
Continuous
 62
     7
100
AcDbCircle
 10
29.9129555051
 20
262.555522431
 30
0.0
 40
26.48927554732551
100
AcDbArc
 50
89.9687507118
 51
107.7620138772
  0
SPLINE
  5
1E0
330
14E
100
AcDbEntity
  8
DV2_Default
  6
Continuous
 62
     7
100
AcDbSpline
210
0.0
220
0.0
230
1.0
 70
     8
 71
     3
 72
    24
 73
    20
 74
     0
 42
0.0000000003401709
 43
0.0000000001
 40
0.0
 40
0.0
 40
0.0
 40
0.0
 40
0.1147953014227456
 40
0.1941815661953433
 40
0.2738569415273511
 40
0.3418224200454528
 40
0.3982418060942585
 40
0.4204041755160157
 40
0.4430423841350195
 40
0.4703100630873367
 40
0.4990170906202017
 40
0.5498166644875647
 40
0.5957960149715088
 40
0.6430839881859218
 40
0.7007893876526721
 40
0.7478264744228447
 40
0.8121188226147452
 40
0.8728805348942013
 40
1.0
 40
1.0
 40
1.0
 40
1.0
 10
21.83203135330822
 20
287.7821033304251
 30
0.0
 10
21.8324648629693
 20
287.7830267525831
 30
0.0
 10
21.83320226148441
 20
287.7845756579209
 30
0.0
 10
21.83787471278983
 20
287.7775410422526
 30
0.0
 10
21.88608586504898
 20
287.7604902759609
 30
0.0
 10
21.89235459593333
 20
287.7461133364201
 30
0.0
 10
21.9555089751543
 20
287.7428978571007
 30
0.0
 10
22.08490774295574
 20
287.7262022849521
 30
0.0
 10
22.32529249616666
 20
287.7251483629023
 30
0.0
 10
22.73256579945446
 20
287.7243126516666
 30
0.0
 10
23.48946119285103
 20
287.712764729874
 30
0.0
 10
25.02820356019497
 20
287.713862941877
 30
0.0
 10
27.42440905458721
 20
287.7200763023151
 30
0.0
 10
30.28132343858517
 20
287.732356448951
 30
0.0
 10
33.26836816932344
 20
287.7422530724189
 30
0.0
 10
36.60459266882307
 20
287.7444110976288
 30
0.0
 10
40.00449242714274
 20
287.7439165902306
 30
0.0
 10
44.98576107736238
 20
287.7441176351221
 30
0.0
 10
48.69821755090958
 20
287.7440692808766
 30
0.0
 10
51.21004702070822
 20
287.7440376438981
 30
0.0
  0
SPLINE
  5
1E1
330
14E
100
AcDbEntity
  8
DV2_Default
  6
Continuous
 62
     7
100
AcDbSpline
210
0.0
220
0.0
230
1.0
 70
     8
 71
     3
 72
     8
 73
     4
 74
     0
 42
0.000003730536566
 43
0.0000000001
 40
0.0
 40
0.0
 40
0.0
 40
0.0
 40
1.0
 40
1.0
 40
1.0
 40
1.0
 10
52.07813444466566
 20
289.0451630042353
 30
0.0
 10
52.07902796767153
 20
289.0451682820796
 30
0.0
 10
52.07992148700099
 20
289.0451693803597
 30
0.0
 10
52.08081500263035
 20
289.0451662984374
 30
0.0
  0
SPLINE
  5
1E2
330
14E
100
AcDbEntity
  8
DV2_Default
  6
Continuous
 62
     7
100
AcDbSpline
210
0.0
220
0.0
230
1.0
 70
    12
 71
     3
 72
    16
 73
    12
 74
     0
 42
0.0000000050385508
 43
0.0000000001
 40
0.0
 40
0.0
 40
0.0
 40
0.0
 40
0.1162300758627215
 40
0.2324601517253546
 40
0.3486902275881423
 40
0.4649203034509301
 40
0.581150379313497
 40
0.6973804551762847
 40
0.8136105310390725
 40
0.9298406069016394
 40
0.9999999999999999
 40
0.9999999999999999
 40
0.9999999999999999
 40
0.9999999999999999
 10
51.46301694050823
 20
287.4988304104511
 30
0.0
 41
1.0
 10
51.53010081330822
 20
287.6977279467021
 30
0.0
 41
1.0
 10
51.65851612290822
 20
288.0334754990361
 30
0.0
 41
1.0
 10
51.83190584850822
 20
288.3800964677481
 30
0.0
 41
1.0
 10
51.99041688170822
 20
288.6075796845161
 30
0.0
 41
1.0
 10
52.13342764090822
 20
288.7383313106931
 30
0.0
 41
1.0
 10
52.26220551100824
 20
288.7955520692211
 30
0.0
 41
1.0
 10
52.3786721155082
 20
288.7975477995731
 30
0.0
 41
1.0
 10
52.48342871040823
 20
288.7586325716351
 30
0.0
 41
1.0
 10
52.56516332570557
 20
288.7007956423032
 30
0.0
 41
1.0
 10
52.61148969101959
 20
288.6575617222221
 30
0.0
 41
1.0
 10
52.62841550904826
 20
288.6404458768484
 30
0.0
 41
1.0
  0
ELLIPSE
  5
1E3
330
14E
100
AcDbEntity
  8
DV2_Default
  6
Continuous
 62
     7
100
AcDbEllipse
 10
51.4723332597
 20
286.764656617
 30
0.0
 11
0.0
 21
0.7342329009627452
 31
0.0
210
0.0
220
0.0
230
1.0
 40
1.0
 41
0.0126888473698092
 42
0.2201573413310467
  0
ARC
  5
1E4
330
14E
100
AcDbEntity
  8
DV2_Default
  6
Continuous
 62
     7
100
AcDbCircle
 10
22.1303933953
 20
286.8276192734
 30
0.0
 40
1.000029861180407
100
AcDbArc
 50
107.3587152835
 51
162.6405163068
  0
LINE
  5
1E5
330
14E
100
AcDbEntity
  8
DV2_Default
  6
Continuous
 62
     7
100
AcDbLine
 10
29.9206173176
 20
269.044971555
 30
0.0
 11
51.8131199343
 21
269.0449752921
 31
0.0
  0
LINE
  5
1E6
330
14E
100
AcDbEntity
  8
DV2_Default
  6
Continuous
 62
     7
100
AcDbLine
 10
52.0781619702
 20
289.0451726755
 30
0.0
 11
29.9203672702
 21
289.0451764595
 31
0.0
  0
SPLINE
  5
1E7
330
14E
100
AcDbEntity
  8
DV2_Default
  6
Continuous
 62
     7
100
AcDbSpline
210
0.0
220
0.0
230
1.0
 70
     8
 71
     3
 72
    18
 73
    14
 74
     0
 42
0.0000000129142491
 43
0.0000000001
 40
0.0
 40
0.0
 40
0.0
 40
0.0
 40
0.0875299488975722
 40
0.2025183818536741
 40
0.3074378959347321
 40
0.3991859426056452
 40
0.4777579190520113
 40
0.5272536625546769
 40
0.5916317202260654
 40
0.6719068211028852
 40
0.7680836733955926
 40
0.8801595510006684
 40
1.0
 40
1.0
 40
1.0
 40
1.0
 10
52.70502387970516
 20
288.6391879343818
 30
0.0
 10
52.69048461328318
 20
288.6593255251904
 30
0.0
 10
52.65659248470056
 20
288.7043746833039
 30
0.0
 10
52.60444485421378
 20
288.7669788248352
 30
0.0
 10
52.54943526092615
 20
288.8251792690761
 30
0.0
 10
52.49844107431076
 20
288.8724213851825
 30
0.0
 10
52.4553836613407
 20
288.9073133469233
 30
0.0
 10
52.41472285567062
 20
288.9364905710235
 30
0.0
 10
52.37113954868144
 20
288.9640677637286
 30
0.0
 10
52.31499356937028
 20
288.9935055532591
 30
0.0
 10
52.24623323787342
 20
289.020620271068
 30
0.0
 10
52.16484627144821
 20
289.0410672004255
 30
0.0
 10
52.11300841362843
 20
289.0435366846927
 30
0.0
 10
52.08114156891075
 20
289.0446901203524
 30
0.0
  0
ARC
  5
1E8
330
14E
100
AcDbEntity
  8
DV2_Default
  6
Continuous
 62
     7
100
AcDbCircle
 10
46.3163149821
 20
279.0456096786
 30
0.0
 40
26.40631864818671
100
AcDbArc
 50
162.1821017346
 51
197.8201629255
  0
LINE
  5
1E9
330
14E
100
AcDbEntity
  8
DV2_Default
  6
Continuous
 62
     7
100
AcDbLine
 10
20.7639020707
 20
269.6082622376
 30
0.0
 11
20.6995920538
 21
269.6303476366
 31
0.0
  0
LINE
  5
1EA
330
14E
100
AcDbEntity
  8
DV2_Default
  6
Continuous
 62
     7
100
AcDbLine
 10
20.6995920538
 20
269.6303476366
 30
0.0
 11
20.6356135918
 21
269.6524756669
 31
0.0
  0
SPLINE
  5
1EB
330
14E
100
AcDbEntity
  8
DV2_Default
  6
Continuous
 62
     7
100
AcDbSpline
210
0.0
220
0.0
230
1.0
 70
    12
 71
     3
 72
     8
 73
     4
 74
     0
 42
0.0000000005892249
 43
0.0000000001
 40
0.0
 40
0.0
 40
0.0
 40
0.0
 40
1.0
 40
1.0
 40
1.0
 40
1.0
 10
37.22106566762101
 20
269.0446788213235
 30
0.0
 41
1.0
 10
31.7469015969985
 20
267.5510990782182
 30
0.0
 41
1.0
 10
26.22641279837659
 20
267.7389602167476
 30
0.0
 41
1.0
 10
20.76390207065126
 20
269.6082622376348
 30
0.0
 41
1.0
  0
LINE
  5
1EC
330
14E
100
AcDbEntity
  8
DV2_Default
  6
Continuous
 62
     7
100
AcDbLine
 10
20.635613461
 20
288.4458881739
 30
0.0
 11
20.699592529
 21
288.4680164141
 31
0.0
  0
LINE
  5
1ED
330
14E
100
AcDbEntity
  8
DV2_Default
  6
Continuous
 62
     7
100
AcDbLine
 10
20.699592529
 20
288.4680164141
 30
0.0
 11
20.7639012817
 21
288.49010138
 31
0.0
  0
SPLINE
  5
1EE
330
14E
100
AcDbEntity
  8
DV2_Default
  6
Continuous
 62
     7
100
AcDbSpline
210
0.0
220
0.0
230
1.0
 70
    12
 71
     3
 72
     8
 73
     4
 74
     0
 42
0.000000000588143
 43
0.0000000001
 40
0.0
 40
0.0
 40
0.0
 40
0.0
 40
1.0
 40
1.0
 40
1.0
 40
1.0
 10
20.76390128166522
 20
288.4901013799538
 30
0.0
 41
1.0
 10
26.23600816488223
 20
290.3626874813442
 30
0.0
 41
1.0
 10
31.766297029901
 20
290.5479198184524
 30
0.0
 41
1.0
 10
37.24991441431361
 20
289.0457983905318
 30
0.0
 41
1.0
  0
ARC
  5
1EF
330
14E
100
AcDbEntity
  8
DV2_Default
  6
Continuous
 62
     7
100
AcDbCircle
 10
20.701192404
 20
288.2569453195
 30
0.0
 40
0.200000000033237
100
AcDbArc
 50
135.0000003917
 51
148.1523102484
  0
ARC
  5
1F0
330
14E
100
AcDbEntity
  8
DV2_Default
  6
Continuous
 62
     7
100
AcDbCircle
 10
20.701192404
 20
288.2569453195
 30
0.0
 40
0.199999999972677
100
AcDbArc
 50
109.1410429808
 51
135.0000003917
  0
SPLINE
  5
1F1
330
14E
100
AcDbEntity
  8
DV2_Default
  6
Continuous
 62
     7
100
AcDbSpline
210
0.0
220
0.0
230
1.0
 70
     8
 71
     3
 72
     8
 73
     4
 74
     0
 42
0.000000395932407
 43
0.0000000001
 40
0.0
 40
0.0
 40
0.0
 40
0.0
 40
0.9999999999999999
 40
0.9999999999999999
 40
0.9999999999999999
 40
0.9999999999999999
 10
20.67700071911918
 20
288.4570190936369
 30
0.0
 10
20.68457606288215
 20
288.4619586511234
 30
0.0
 10
20.69201965114448
 20
288.4654064186514
 30
0.0
 10
20.69959252901899
 20
288.468016414085
 30
0.0
  0
ARC
  5
1F2
330
14E
100
AcDbEntity
  8
DV2_Default
  6
Continuous
 62
     7
100
AcDbCircle
 10
20.7011925322
 20
269.8414185223
 30
0.0
 40
0.1999999999975752
100
AcDbArc
 50
225.0000004065
 51
238.1502738945
  0
ARC
  5
1F3
330
14E
100
AcDbEntity
  8
DV2_Default
  6
Continuous
 62
     7
100
AcDbCircle
 10
20.7011925322
 20
269.8414185223
 30
0.0
 40
0.1999999999733995
100
AcDbArc
 50
199.1410429815
 51
225.0000004065
  0
LINE
  5
1F4
330
14E
100
AcDbEntity
  8
DV2_Default
  6
Continuous
 62
     7
100
AcDbLine
 10
20.5122496778
 20
269.7758395792
 30
0.0
 11
20.4901214376
 21
269.8398186473
 31
0.0
  0
LINE
  5
1F5
330
14E
100
AcDbEntity
  8
DV2_Default
  6
Continuous
 62
     7
100
AcDbLine
 10
20.4901214376
 20
269.8398186473
 30
0.0
 11
20.4680364717
 21
269.9041273999
 31
0.0
  0
SPLINE
  5
1F6
330
14E
100
AcDbEntity
  8
DV2_Default
  6
Continuous
 62
     7
100
AcDbSpline
210
0.0
220
0.0
230
1.0
 70
    12
 71
     3
 72
     8
 73
     4
 74
     0
 42
0.0000000005268265
 43
0.0000000001
 40
0.0
 40
0.0
 40
0.0
 40
0.0
 40
1.0
 40
1.0
 40
1.0
 40
1.0
 10
20.46803647169096
 20
269.9041273999446
 30
0.0
 41
1.0
 10
18.38988393336277
 20
275.976944452903
 30
0.0
 41
1.0
 10
18.38988381558299
 20
282.1214186941908
 30
0.0
 41
1.0
 10
20.46803611942549
 20
288.1942357812696
 30
0.0
 41
1.0
  0
LINE
  5
1F7
330
14E
100
AcDbEntity
  8
DV2_Default
  6
Continuous
 62
     7
100
AcDbLine
 10
20.4680361194
 20
288.1942357813
 30
0.0
 11
20.4901215184
 21
288.2585457979
 31
0.0
  0
LINE
  5
1F8
330
14E
100
AcDbEntity
  8
DV2_Default
  6
Continuous
 62
     7
100
AcDbLine
 10
20.4901215184
 20
288.2585457979
 30
0.0
 11
20.5122495486
 21
288.3225242599
 31
0.0
  0
SPLINE
  5
1F9
330
14E
100
AcDbEntity
  8
DV2_Default
  6
Continuous
 62
     7
100
AcDbSpline
210
0.0
220
0.0
230
1.0
 70
     8
 71
     3
 72
     8
 73
     4
 74
     0
 42
0.0000003959330041
 43
0.0000000001
 40
0.0
 40
0.0
 40
0.0
 40
0.0
 40
1.0
 40
1.0
 40
1.0
 40
1.0
 10
20.5011187339787
 20
269.8172268673872
 30
0.0
 10
20.49617918818089
 20
269.8248022006271
 30
0.0
 10
20.49273142967584
 20
269.8322457792145
 30
0.0
 10
20.49012143763881
 20
269.8398186473444
 30
0.0
  0
SPLINE
  5
1FA
330
14E
100
AcDbEntity
  8
DV2_Default
  6
Continuous
 62
     7
100
AcDbSpline
210
0.0
220
0.0
230
1.0
 70
     8
 71
     3
 72
    12
 73
     8
 74
     0
 42
0.0000001156160418
 43
0.0000000001
 40
0.0
 40
0.0
 40
0.0
 40
0.0
 40
0.1059996886877494
 40
0.2161275706451868
 40
0.4557940800610529
 40
0.7201431319062869
 40
1.0
 40
1.0
 40
1.0
 40
1.0
 10
20.67700623798999
 20
288.4570226920076
 30
0.0
 10
20.67077901474637
 20
288.4547465092831
 30
0.0
 10
20.6600299933393
 20
288.4508200929095
 30
0.0
 10
20.63953105623592
 20
288.4432303525355
 30
0.0
 10
20.61979369229158
 20
288.4360628790103
 30
0.0
 10
20.60291977288647
 20
288.4303262036742
 30
0.0
 10
20.5983820487875
 20
288.42818346496
 30
0.0
 10
20.59592900423873
 20
288.427005228399
 30
0.0
  0
SPLINE
  5
1FB
330
14E
100
AcDbEntity
  8
DV2_Default
  6
Continuous
 62
     7
100
AcDbSpline
210
0.0
220
0.0
230
1.0
 70
     8
 71
     3
 72
    12
 73
     8
 74
     0
 42
0.0000001151049725
 43
0.0000000001
 40
0.0
 40
0.0
 40
0.0
 40
0.0
 40
0.2802491437845691
 40
0.5445663110588163
 40
0.7840217998069845
 40
0.8940414696987229
 40
1.0
 40
1.0
 40
1.0
 40
1.0
 10
20.59566141789751
 20
269.6715246231947
 30
0.0
 10
20.59813785805514
 20
269.6703283048366
 30
0.0
 10
20.60271426694257
 20
269.6681555863631
 30
0.0
 10
20.61966708344215
 20
269.6623772080961
 30
0.0
 10
20.63947810587499
 20
269.6551669729462
 30
0.0
 10
20.66004857696477
 20
269.6475332047392
 30
0.0
 10
20.67082549299884
 20
269.6435874030034
 30
0.0
 10
20.67706988933318
 20
269.6412996060844
 30
0.0
  0
SPLINE
  5
1FC
330
14E
100
AcDbEntity
  8
DV2_Default
  6
Continuous
 62
     7
100
AcDbSpline
210
0.0
220
0.0
230
1.0
 70
     8
 71
     3
 72
    12
 73
     8
 74
     0
 42
0.0000001151140313
 43
0.0000000001
 40
0.0
 40
0.0
 40
0.0
 40
0.0
 40
0.2802403126485039
 40
0.544560328070042
 40
0.7840178445568948
 40
0.8940397911533349
 40
1.0
 40
1.0
 40
1.0
 40
1.0
 10
20.53129477682311
 20
288.3624704320155
 30
0.0
 10
20.53009865196723
 20
288.359994549689
 30
0.0
 10
20.52792609557805
 20
288.3554190910042
 30
0.0
 10
20.52214980844244
 20
288.3384670287742
 30
0.0
 10
20.51493927480991
 20
288.3186577103344
 30
0.0
 10
20.50730644035664
 20
288.2980884740644
 30
0.0
 10
20.50336103162984
 20
288.2873120593799
 30
0.0
 10
20.50107347194105
 20
288.2810679449353
 30
0.0
  0
SPLINE
  5
1FD
330
14E
100
AcDbEntity
  8
DV2_Default
  6
Continuous
 62
     7
100
AcDbSpline
210
0.0
220
0.0
230
1.0
 70
     8
 71
     3
 72
    12
 73
     8
 74
     0
 42
0.0000001156650064
 43
0.0000000001
 40
0.0
 40
0.0
 40
0.0
 40
0.0
 40
0.1060065475731136
 40
0.2161458651933487
 40
0.4558312591065818
 40
0.7201857297096226
 40
1.0
 40
1.0
 40
1.0
 40
1.0
 10
20.50111514261224
 20
269.8172323755201
 30
0.0
 10
20.50339020093164
 20
269.8110067645254
 30
0.0
 10
20.5073147221034
 20
269.8002604683427
 30
0.0
 10
20.5149002533141
 20
269.7797681431569
 30
0.0
 10
20.52206487837366
 20
269.7600381468243
 30
0.0
 10
20.52779628278126
 20
269.7431712813162
 30
0.0
 10
20.52993641914475
 20
269.7386375135565
 30
0.0
 10
20.53111298053625
 20
269.7361868616964
 30
0.0
  0
SPLINE
  5
1FE
330
14E
100
AcDbEntity
  8
DV2_Default
  6
Continuous
 62
     7
100
AcDbSpline
210
0.0
220
0.0
230
1.0
 70
     8
 71
     3
 72
    11
 73
     7
 74
     0
 42
0.0000000371798001
 43
0.0000000001
 40
0.0
 40
0.0
 40
0.0
 40
0.0
 40
0.2189669857172734
 40
0.4793113550955192
 40
0.7396557244736089
 40
0.9999999999999999
 40
0.9999999999999999
 40
0.9999999999999999
 40
0.9999999999999999
 10
46.83524388068011
 20
262.4590930230517
 30
0.0
 10
46.85019055696038
 20
262.4798478646144
 30
0.0
 10
46.877249452179
 20
262.5239635280851
 30
0.0
 10
46.89868564110869
 20
262.5879790693691
 30
0.0
 10
46.8987862344083
 20
262.6508076677301
 30
0.0
 10
46.88577322920418
 20
262.6892405377587
 30
0.0
 10
46.87650293069101
 20
262.707770453253
 30
0.0
  0
SPLINE
  5
1FF
330
14E
100
AcDbEntity
  8
DV2_Default
  6
Continuous
 62
     7
100
AcDbSpline
210
0.0
220
0.0
230
1.0
 70
     8
 71
     3
 72
    16
 73
    12
 74
     0
 42
0.0000000322277248
 43
0.0000000001
 40
0.0
 40
0.0
 40
0.0
 40
0.0
 40
0.0964397998734317
 40
0.1911648618341118
 40
0.2851861972425824
 40
0.3791241817130327
 40
0.4732548652720198
 40
0.5957339258138448
 40
0.7184074772508843
 40
0.8154549601826756
 40
1.0
 40
1.0
 40
1.0
 40
1.0
 10
46.87650293069101
 20
262.707770453253
 30
0.0
 10
46.86845419867491
 20
262.6961240155111
 30
0.0
 10
46.85235063255108
 20
262.6730865876048
 30
0.0
 10
46.82663729812006
 20
262.6448503618559
 30
0.0
 10
46.80066137072561
 20
262.6218344173667
 30
0.0
 10
46.77460380607359
 20
262.6042658025173
 30
0.0
 10
46.74629401384806
 20
262.5907683340925
 30
0.0
 10
46.71623136987208
 20
262.5827699407222
 30
0.0
 10
46.68734624025575
 20
262.5817100845651
 30
0.0
 10
46.65555456552953
 20
262.5892356001143
 30
0.0
 10
46.63710772493343
 20
262.6044167028778
 30
0.0
 10
46.62490511051101
 20
262.614403203353
 30
0.0
  0
ARC
  5
200
330
14E
100
AcDbEntity
  8
DV2_Default
  6
Continuous
 62
     7
100
AcDbCircle
 10
29.9072524174
 20
253.6844199463
 30
0.0
 40
9.22761942691185
100
AcDbArc
 50
89.9634404354
 51
95.6748284717
  0
ARC
  5
201
330
14E
100
AcDbEntity
  8
DV2_Default
  6
Continuous
 62
     7
100
AcDbCircle
 10
29.9185832098
 20
253.6837024342
 30
0.0
 40
9.228336665532703
100
AcDbArc
 50
84.325409412
 51
90.0337925332
  0
SPLINE
  5
202
330
14E
100
AcDbEntity
  8
DV2_Default
  6
Continuous
 62
     7
100
AcDbSpline
210
0.0
220
0.0
230
1.0
 70
     8
 71
     3
 72
    29
 73
    25
 74
     0
 42
0.0000000009357485
 43
0.0000000001
 40
0.0
 40
0.0
 40
0.0
 40
0.0
 40
0.0294160432651025
 40
0.0590877180095018
 40
0.1174070807247335
 40
0.1785628308611905
 40
0.211554305645414
 40
0.2462571896355695
 40
0.3167242061763288
 40
0.3506629976671626
 40
0.3831310529690995
 40
0.4434593062673335
 40
0.4999797054982278
 40
0.5564936667720851
 40
0.61681308526571
 40
0.6492742025697725
 40
0.6832107456270811
 40
0.7537280120124769
 40
0.7884411500868742
 40
0.8214293985131967
 40
0.8825925085024681
 40
0.9409170335522418
 40
0.9705848980195594
 40
1.0
 40
1.0
 40
1.0
 40
1.0
 10
30.83106687999251
 20
262.8668158040531
 30
0.0
 10
30.96716556873641
 20
262.8433495728991
 30
0.0
 10
31.24054567188195
 20
262.7962131842297
 30
0.0
 10
31.71477925707097
 20
262.6565952200893
 30
0.0
 10
32.19173259530178
 20
262.4212384382954
 30
0.0
 10
32.45500572457782
 20
262.1180091126429
 30
0.0
 10
32.52610102258382
 20
261.8417164757169
 30
0.0
 10
32.48767889215168
 20
261.5371814044587
 30
0.0
 10
32.27067130625338
 20
261.2282079670525
 30
0.0
 10
31.89501599898956
 20
260.9579988614398
 30
0.0
 10
31.45778422939091
 20
260.7362882775991
 30
0.0
 10
30.80111461667731
 20
260.5390026057432
 30
0.0
 10
29.91371714971575
 20
260.4570901364233
 30
0.0
 10
29.02628839965127
 20
260.5388442839893
 30
0.0
 10
28.36952218647681
 20
260.7359907632087
 30
0.0
 10
27.93212255548383
 20
260.9576001908706
 30
0.0
 10
27.55606536364216
 20
261.2278384871746
 30
0.0
 10
27.33877549354116
 20
261.5369466138025
 30
0.0
 10
27.30012880766047
 20
261.8416200738349
 30
0.0
 10
27.3711766021357
 20
262.1179496116793
 30
0.0
 10
27.63429273065124
 20
262.4212200791218
 30
0.0
 10
28.11119980348095
 20
262.6565962492805
 30
0.0
 10
28.58537585660612
 20
262.7962188845211
 30
0.0
 10
28.85871610577675
 20
262.843350708994
 30
0.0
 10
28.9948015427163
 20
262.8668158040531
 30
0.0
  0
SPLINE
  5
203
330
14E
100
AcDbEntity
  8
DV2_Default
  6
Continuous
 62
     7
100
AcDbSpline
210
0.0
220
0.0
230
1.0
 70
     8
 71
     3
 72
    10
 73
     6
 74
     0
 42
0.0000000515212968
 43
0.0000000001
 40
0.0
 40
0.0
 40
0.0
 40
0.0
 40
0.3013776204055862
 40
0.6809507810955996
 40
1.0
 40
1.0
 40
1.0
 40
1.0
 10
12.9319160094023
 20
262.6374501493587
 30
0.0
 10
12.93043220921156
 20
262.6212259022502
 30
0.0
 10
12.9318803435039
 20
262.5833580865886
 30
0.0
 10
12.95175940228266
 20
262.5239912880499
 30
0.0
 10
12.97880873061527
 20
262.4798850904367
 30
0.0
 10
12.99374398872544
 20
262.4591420539241
 30
0.0
  0
SPLINE
  5
204
330
14E
100
AcDbEntity
  8
DV2_Default
  6
Continuous
 62
     7
100
AcDbSpline
210
0.0
220
0.0
230
1.0
 70
     8
 71
     3
 72
    11
 73
     7
 74
     0
 42
0.0000000371727008
 43
0.0000000001
 40
0.0
 40
0.0
 40
0.0
 40
0.0
 40
0.2190805319232053
 40
0.4793870515555405
 40
0.7396935711877195
 40
1.0
 40
1.0
 40
1.0
 40
1.0
 10
13.32719474535757
 20
262.1256668582234
 30
0.0
 10
13.34796416756784
 20
262.1107068231757
 30
0.0
 10
13.39209400962679
 20
262.0836357437072
 30
0.0
 10
13.45612214521683
 20
262.062195304674
 30
0.0
 10
13.51895072702855
 20
262.0620947576213
 30
0.0
 10
13.55738362481315
 20
262.0751076962351
 30
0.0
 10
13.575913526711
 20
262.084378003353
 30
0.0
  0
SPLINE
  5
205
330
14E
100
AcDbEntity
  8
DV2_Default
  6
Continuous
 62
     7
100
AcDbSpline
210
0.0
220
0.0
230
1.0
 70
     8
 71
     3
 72
    11
 73
     7
 74
     0
 42
0.0000000371928729
 43
0.0000000001
 40
0.0
 40
0.0
 40
0.0
 40
0.0
 40
0.2604139181638284
 40
0.5208279358861833
 40
0.7812419536086943
 40
1.0
 40
1.0
 40
1.0
 40
1.0
 10
46.253110488261
 20
296.0083598489531
 30
0.0
 10
46.27164038103829
 20
296.017630160779
 30
0.0
 10
46.31007327510872
 20
296.0306431000544
 30
0.0
 10
46.37290185441381
 20
296.0305425512269
 30
0.0
 10
46.43689424307001
 20
296.0091140900417
 30
0.0
 10
46.4809838227234
 20
295.982077654784
 30
0.0
 10
46.50171184574267
 20
295.9671555463869
 30
0.0
  0
SPLINE
  5
206
330
14E
100
AcDbEntity
  8
DV2_Default
  6
Continuous
 62
     7
100
AcDbSpline
210
0.0
220
0.0
230
1.0
 70
     8
 71
     3
 72
    11
 73
     7
 74
     0
 42
0.0000000371803503
 43
0.0000000001
 40
0.0
 40
0.0
 40
0.0
 40
0.0
 40
0.218915710377716
 40
0.4792771716173695
 40
0.7396386328568666
 40
1.0
 40
1.0
 40
1.0
 40
1.0
 10
46.83526576824232
 20
295.6336155933576
 30
0.0
 10
46.85020741505902
 20
295.6128655815516
 30
0.0
 10
46.87726257847407
 20
295.5687526005467
 30
0.0
 10
46.89869810473865
 20
295.504737565329
 30
0.0
 10
46.89879839585864
 20
295.4419043678419
 30
0.0
 10
46.88578433448853
 20
295.403469379246
 30
0.0
 10
46.87651337556101
 20
295.384938829653
 30
0.0
  0
SPLINE
  5
207
330
14E
100
AcDbEntity
  8
DV2_Default
  6
Continuous
 62
     7
100
AcDbSpline
210
0.0
220
0.0
230
1.0
 70
     8
 71
     3
 72
    11
 73
     7
 74
     0
 42
0.0000000371907592
 43
0.0000000001
 40
0.0
 40
0.0
 40
0.0
 40
0.0
 40
0.2604026419603243
 40
0.5208053838257398
 40
0.7812081256913115
 40
1.0
 40
1.0
 40
1.0
 40
1.0
 10
12.95252107661102
 20
295.3849674021531
 30
0.0
 10
12.94325076476271
 20
295.4034972949481
 30
0.0
 10
12.93023775843849
 20
295.4419301615462
 30
0.0
 10
12.93033834574675
 20
295.5047587488821
 30
0.0
 10
12.95176802939824
 20
295.5687548778758
 30
0.0
 10
12.97880810818786
 20
295.6128486724298
 30
0.0
 10
12.9937341929876
 20
295.6335810347799
 30
0.0
  0
ARC
  5
208
330
14E
100
AcDbEntity
  8
DV2_Default
  6
Continuous
 62
     7
100
AcDbCircle
 10
29.9145115117
 20
311.1028344868
 30
0.0
 40
51.75251512825431
100
AcDbArc
 50
251.7487841075
 51
288.2511751691
  0
ARC
  5
209
330
14E
100
AcDbEntity
  8
DV2_Default
  6
Continuous
 62
     7
100
AcDbCircle
 10
45.6257578383
 20
263.3333354748
 30
0.0
 40
1.492270466634288
100
AcDbArc
 50
314.9048332873
 51
324.5644503518
  0
ARC
  5
20A
330
14E
100
AcDbEntity
  8
DV2_Default
  6
Continuous
 62
     7
100
AcDbCircle
 10
45.6263961039
 20
263.3366326504
 30
0.0
 40
1.494166863410016
100
AcDbArc
 50
305.4345452089
 51
315.0854405995
  0
ARC
  5
20B
330
14E
100
AcDbEntity
  8
DV2_Default
  6
Continuous
 62
     7
100
AcDbCircle
 10
14.2048261804
 20
263.3345255792
 30
0.0
 40
1.494231424365472
100
AcDbArc
 50
215.4341207719
 51
225.0851279296
  0
ARC
  5
20C
330
14E
100
AcDbEntity
  8
DV2_Default
  6
Continuous
 62
     7
100
AcDbCircle
 10
14.2026982378
 20
263.336715231
 30
0.0
 40
1.494275017617515
100
AcDbArc
 50
224.9148968333
 51
234.5611781609
  0
ARC
  5
20D
330
14E
100
AcDbEntity
  8
DV2_Default
  6
Continuous
 62
     7
100
AcDbCircle
 10
45.6275771208
 20
294.7576442104
 30
0.0
 40
1.492227248386659
100
AcDbArc
 50
44.9048869967
 51
54.5685285087
  0
ARC
  5
20E
330
14E
100
AcDbEntity
  8
DV2_Default
  6
Continuous
 62
     7
100
AcDbCircle
 10
45.6241901727
 20
294.7582030412
 30
0.0
 40
1.494243281062197
100
AcDbArc
 50
35.4352108429
 51
45.0851791257
  0
ARC
  5
20F
330
14E
100
AcDbEntity
  8
DV2_Default
  6
Continuous
 62
     7
100
AcDbCircle
 10
-2.1419535573
 20
279.0463684342
 30
0.0
 40
51.75251512992271
100
AcDbArc
 50
341.7487841082
 51
348.8529013108
  0
ARC
  5
210
330
14E
100
AcDbEntity
  8
DV2_Default
  6
Continuous
 62
     7
100
AcDbCircle
 10
-2.1419535573
 20
279.0463684342
 30
0.0
 40
51.75251512992271
100
AcDbArc
 50
11.1448930546
 51
18.2511751686
  0
ARC
  5
211
330
14E
100
AcDbEntity
  8
DV2_Default
  6
Continuous
 62
     7
100
AcDbCircle
 10
14.2026664094
 20
294.7560580848
 30
0.0
 40
1.494227491692488
100
AcDbArc
 50
125.4344928747
 51
135.0852594859
  0
ARC
  5
212
330
14E
100
AcDbEntity
  8
DV2_Default
  6
Continuous
 62
     7
100
AcDbCircle
 10
14.2032373168
 20
294.7594313673
 30
0.0
 40
1.492229464563122
100
AcDbArc
 50
134.9049234784
 51
144.5678502677
  0
ARC
  5
213
330
14E
100
AcDbEntity
  8
DV2_Default
  6
Continuous
 62
     7
100
AcDbCircle
 10
61.9709775575
 20
279.0463694195
 30
0.0
 40
51.75251512201941
100
AcDbArc
 50
161.7487840804
 51
198.2511751981
  0
ARC
  5
214
330
14E
100
AcDbEntity
  8
DV2_Default
  6
Continuous
 62
     7
100
AcDbCircle
 10
29.914512497
 20
246.9899033666
 30
0.0
 40
51.75251512857192
100
AcDbArc
 50
71.7487841076
 51
108.251175169
  0
ARC
  5
215
330
14E
100
AcDbEntity
  8
DV2_Default
  6
Continuous
 62
     7
100
AcDbCircle
 10
11.1803980054
 20
260.3122554743
 30
0.0
 40
0.5000000000022805
100
AcDbArc
 50
224.9999992998
 51
240.3204409354
  0
ARC
  5
216
330
14E
100
AcDbEntity
  8
DV2_Default
  6
Continuous
 62
     7
100
AcDbCircle
 10
11.1803980054
 20
260.3122554743
 30
0.0
 40
0.5000000000024368
100
AcDbArc
 50
209.8875041239
 51
224.9999992998
  0
LINE
  5
217
330
14E
100
AcDbEntity
  8
DV2_Default
  6
Continuous
 62
     7
100
AcDbLine
 10
10.7085902983
 20
260.1467336101
 30
0.0
 11
10.6504114042
 21
260.3133174926
 31
0.0
  0
LINE
  5
218
330
14E
100
AcDbEntity
  8
DV2_Default
  6
Continuous
 62
     7
100
AcDbLine
 10
10.6504114042
 20
260.3133174926
 30
0.0
 11
10.5943552167
 21
260.4752794162
 31
0.0
  0
SPLINE
  5
219
330
14E
100
AcDbEntity
  8
DV2_Default
  6
Continuous
 62
     7
100
AcDbSpline
210
0.0
220
0.0
230
1.0
 70
    12
 71
     3
 72
     8
 73
     4
 74
     0
 42
0.0000000002593759
 43
0.0000000001
 40
0.0
 40
0.0
 40
0.0
 40
0.0
 40
1.0
 40
1.0
 40
1.0
 40
1.0
 10
10.59435521666396
 20
260.4752794161569
 30
0.0
 41
1.0
 10
6.349999999999994
 20
272.7919322653991
 30
0.0
 41
1.0
 10
6.350000424248964
 20
285.2911119182941
 30
0.0
 41
1.0
 10
10.59435648495252
 20
297.6077646405469
 30
0.0
 41
1.0
  0
LINE
  5
21A
330
14E
100
AcDbEntity
  8
DV2_Default
  6
Continuous
 62
     7
100
AcDbLine
 10
10.594356485
 20
297.6077646405
 30
0.0
 11
10.6504144751
 21
297.7697317153
 31
0.0
  0
LINE
  5
21B
330
14E
100
AcDbEntity
  8
DV2_Default
  6
Continuous
 62
     7
100
AcDbLine
 10
10.6504144751
 20
297.7697317153
 30
0.0
 11
10.7085907596
 21
297.9363080787
 31
0.0
  0
ARC
  5
21C
330
14E
100
AcDbEntity
  8
DV2_Default
  6
Continuous
 62
     7
100
AcDbCircle
 10
11.1803984626
 20
297.770786203
 30
0.0
 40
0.5000000000367404
100
AcDbArc
 50
134.999999222
 51
150.3235360523
  0
ARC
  5
21D
330
14E
100
AcDbEntity
  8
DV2_Default
  6
Continuous
 62
     7
100
AcDbCircle
 10
11.1803984626
 20
297.770786203
 30
0.0
 40
0.4999999999883134
100
AcDbArc
 50
119.8903616505
 51
134.999999222
  0
LINE
  5
21E
330
14E
100
AcDbEntity
  8
DV2_Default
  6
Continuous
 62
     7
100
AcDbLine
 10
11.0148765984
 20
298.2425939101
 30
0.0
 11
11.181460481
 21
298.3007728042
 31
0.0
  0
LINE
  5
21F
330
14E
100
AcDbEntity
  8
DV2_Default
  6
Continuous
 62
     7
100
AcDbLine
 10
11.181460481
 20
298.3007728042
 30
0.0
 11
11.3434224044
 21
298.3568289916
 31
0.0
  0
SPLINE
  5
220
330
14E
100
AcDbEntity
  8
DV2_Default
  6
Continuous
 62
     7
100
AcDbSpline
210
0.0
220
0.0
230
1.0
 70
    12
 71
     3
 72
     8
 73
     4
 74
     0
 42
0.0000000002593759
 43
0.0000000001
 40
0.0
 40
0.0
 40
0.0
 40
0.0
 40
1.0
 40
1.0
 40
1.0
 40
1.0
 10
11.34342240439656
 20
298.3568289916428
 30
0.0
 41
1.0
 10
23.66007525379293
 20
302.6011842083862
 30
0.0
 41
1.0
 10
36.15925490694244
 20
302.6011837840761
 30
0.0
 41
1.0
 10
48.47590762939657
 20
298.3568277231643
 30
0.0
 41
1.0
  0
LINE
  5
221
330
14E
100
AcDbEntity
  8
DV2_Default
  6
Continuous
 62
     7
100
AcDbLine
 10
48.4759076294
 20
298.3568277232
 30
0.0
 11
48.6378747037
 21
298.3007697332
 31
0.0
  0
LINE
  5
222
330
14E
100
AcDbEntity
  8
DV2_Default
  6
Continuous
 62
     7
100
AcDbLine
 10
48.6378747037
 20
298.3007697332
 30
0.0
 11
48.804451067
 21
298.2425934488
 31
0.0
  0
LINE
  5
223
330
14E
100
AcDbEntity
  8
DV2_Default
  6
Continuous
 62
     7
100
AcDbLine
 10
11.3434195683
 20
259.7262134965
 30
0.0
 11
11.181452493
 21
259.7822714868
 31
0.0
  0
LINE
  5
224
330
14E
100
AcDbEntity
  8
DV2_Default
  6
Continuous
 62
     7
100
AcDbLine
 10
11.181452493
 20
259.7822714868
 30
0.0
 11
11.0148761296
 21
259.8404477713
 31
0.0
  0
LINE
  5
225
330
14E
100
AcDbEntity
  8
DV2_Default
  6
Continuous
 62
     7
100
AcDbLine
 10
48.8044505982
 20
259.84044731
 30
0.0
 11
48.6378667156
 21
259.7822684159
 31
0.0
  0
LINE
  5
226
330
14E
100
AcDbEntity
  8
DV2_Default
  6
Continuous
 62
     7
100
AcDbLine
 10
48.6378667156
 20
259.7822684159
 30
0.0
 11
48.4759047921
 21
259.7262122284
 31
0.0
  0
SPLINE
  5
227
330
14E
100
AcDbEntity
  8
DV2_Default
  6
Continuous
 62
     7
100
AcDbSpline
210
0.0
220
0.0
230
1.0
 70
    12
 71
     3
 72
     8
 73
     4
 74
     0
 42
0.0000000002593759
 43
0.0000000001
 40
0.0
 40
0.0
 40
0.0
 40
0.0
 40
1.0
 40
1.0
 40
1.0
 40
1.0
 10
48.47590479211986
 20
259.7262122283943
 30
0.0
 41
1.0
 10
36.15925194312777
 20
255.4818570117775
 30
0.0
 41
1.0
 10
23.66007229038766
 20
255.4818574359716
 30
0.0
 41
1.0
 10
11.34341956831986
 20
259.7262134964929
 30
0.0
 41
1.0
  0
SPLINE
  5
228
330
14E
100
AcDbEntity
  8
DV2_Default
  6
Continuous
 62
     7
100
AcDbSpline
210
0.0
220
0.0
230
1.0
 70
     8
 71
     3
 72
     8
 73
     4
 74
     0
 42
0.0000001510829929
 43
0.0000000001
 40
0.0
 40
0.0
 40
0.0
 40
0.0
 40
0.9999999999999999
 40
0.9999999999999999
 40
0.9999999999999999
 40
0.9999999999999999
 10
10.67924976148415
 20
260.2541116840601
 30
0.0
 10
10.66639249801918
 20
260.2738600518338
 30
0.0
 10
10.65735273014354
 20
260.2933521703602
 30
0.0
 10
10.65041140418682
 20
260.3133174926026
 30
0.0
  0
SPLINE
  5
229
330
14E
100
AcDbEntity
  8
DV2_Default
  6
Continuous
 62
     7
100
AcDbSpline
210
0.0
220
0.0
230
1.0
 70
     8
 71
     3
 72
     8
 73
     4
 74
     0
 42
0.0000001510757479
 43
0.0000000001
 40
0.0
 40
0.0
 40
0.0
 40
0.0
 40
1.0
 40
1.0
 40
1.0
 40
1.0
 10
11.18146048101232
 20
298.3007728041699
 30
0.0
 10
11.16149519185708
 20
298.293831489712
 30
0.0
 10
11.14199482478276
 20
298.2848146161965
 30
0.0
 10
11.12225453245907
 20
298.2719351738434
 30
0.0
  0
ARC
  5
22A
330
14E
100
AcDbEntity
  8
DV2_Default
  6
Continuous
 62
     7
100
AcDbCircle
 10
48.6389291912
 20
297.7707857457
 30
0.0
 40
0.5000000000117099
100
AcDbArc
 50
44.999999222
 51
60.3262921654
  0
ARC
  5
22B
330
14E
100
AcDbEntity
  8
DV2_Default
  6
Continuous
 62
     7
100
AcDbCircle
 10
48.6389291912
 20
297.7707857457
 30
0.0
 40
0.500000000030696
100
AcDbArc
 50
29.8880132114
 51
44.999999222
  0
LINE
  5
22C
330
14E
100
AcDbEntity
  8
DV2_Default
  6
Continuous
 62
     7
100
AcDbLine
 10
49.1107368984
 20
297.93630761
 30
0.0
 11
49.1689157924
 21
297.7697237273
 31
0.0
  0
LINE
  5
22D
330
14E
100
AcDbEntity
  8
DV2_Default
  6
Continuous
 62
     7
100
AcDbLine
 10
49.1689157924
 20
297.7697237273
 30
0.0
 11
49.22497198
 21
297.6077618039
 31
0.0
  0
SPLINE
  5
22E
330
14E
100
AcDbEntity
  8
DV2_Default
  6
Continuous
 62
     7
100
AcDbSpline
210
0.0
220
0.0
230
1.0
 70
    12
 71
     3
 72
     8
 73
     4
 74
     0
 42
0.0000000011272921
 43
0.0000000001
 40
0.0
 40
0.0
 40
0.0
 40
0.0
 40
1.0
 40
1.0
 40
1.0
 40
1.0
 10
49.22497197995249
 20
297.6077618038802
 30
0.0
 41
1.0
 10
50.20545677852578
 20
294.7625025662535
 30
0.0
 41
1.0
 10
50.95944061588089
 20
291.9075027460804
 30
0.0
 41
1.0
 10
51.48692349207257
 20
289.0472626718916
 30
0.0
 41
1.0
  0
SPLINE
  5
22F
330
14E
100
AcDbEntity
  8
DV2_Default
  6
Continuous
 62
     7
100
AcDbSpline
210
0.0
220
0.0
230
1.0
 70
    12
 71
     3
 72
     8
 73
     4
 74
     0
 42
0.0000000011263734
 43
0.0000000001
 40
0.0
 40
0.0
 40
0.0
 40
0.0
 40
1.0
 40
1.0
 40
1.0
 40
1.0
 10
51.48823074427602
 20
269.0428703592087
 30
0.0
 41
1.0
 10
50.96068639993945
 20
266.1802567294845
 30
0.0
 41
1.0
 10
50.20626638898379
 20
263.3228883025188
 30
0.0
 41
1.0
 10
49.22497071146395
 20
260.4752765789502
 30
0.0
 41
1.0
  0
LINE
  5
230
330
14E
100
AcDbEntity
  8
DV2_Default
  6
Continuous
 62
     7
100
AcDbLine
 10
49.2249707115
 20
260.475276579
 30
0.0
 11
49.1689127215
 21
260.3133095046
 31
0.0
  0
LINE
  5
231
330
14E
100
AcDbEntity
  8
DV2_Default
  6
Continuous
 62
     7
100
AcDbLine
 10
49.1689127215
 20
260.3133095046
 30
0.0
 11
49.1107364371
 21
260.1467331413
 31
0.0
  0
ARC
  5
232
330
14E
100
AcDbEntity
  8
DV2_Default
  6
Continuous
 62
     7
100
AcDbCircle
 10
48.638928734
 20
260.3122550171
 30
0.0
 40
0.5000000000400254
100
AcDbArc
 50
314.9999993006
 51
330.3203756539
  0
ARC
  5
233
330
14E
100
AcDbEntity
  8
DV2_Default
  6
Continuous
 62
     7
100
AcDbCircle
 10
48.638928734
 20
260.3122550171
 30
0.0
 40
0.5000000000094997
100
AcDbArc
 50
299.8868399377
 51
314.9999993006
  0
SPLINE
  5
234
330
14E
100
AcDbEntity
  8
DV2_Default
  6
Continuous
 62
     7
100
AcDbSpline
210
0.0
220
0.0
230
1.0
 70
     8
 71
     3
 72
     8
 73
     4
 74
     0
 42
0.0000001510757575
 43
0.0000000001
 40
0.0
 40
0.0
 40
0.0
 40
0.0
 40
0.9999999999999999
 40
0.9999999999999999
 40
0.9999999999999999
 40
0.9999999999999999
 10
48.63786671560416
 20
259.7822684158672
 30
0.0
 10
48.6578320035875
 20
259.7892097299089
 30
0.0
 10
48.67733236953001
 20
259.7982266027711
 30
0.0
 10
48.69707266066059
 20
259.8111060439126
 30
0.0
  0
SPLINE
  5
235
330
14E
100
AcDbEntity
  8
DV2_Default
  6
Continuous
 62
     7
100
AcDbSpline
210
0.0
220
0.0
230
1.0
 70
     8
 71
     3
 72
     8
 73
     4
 74
     0
 42
0.0000001510757543
 43
0.0000000001
 40
0.0
 40
0.0
 40
0.0
 40
0.0
 40
1.0
 40
1.0
 40
1.0
 40
1.0
 10
49.16891579242963
 20
297.7697237273445
 30
0.0
 10
49.16197447827165
 20
297.7896890157363
 30
0.0
 10
49.15295760519128
 20
297.80918938205
 30
0.0
 10
49.14007816364224
 20
297.8289296735772
 30
0.0
  0
ARC
  5
236
330
14E
100
AcDbEntity
  8
DV2_Default
  6
Continuous
 62
     7
100
AcDbCircle
 10
23.6266134031
 20
264.7357219431
 30
0.0
 40
13.70106134952986
100
AcDbArc
 50
199.0928061751
 51
199.9415225315
  0
ARC
  5
237
330
14E
100
AcDbEntity
  8
DV2_Default
  6
Continuous
 62
     7
100
AcDbCircle
 10
14.1033825977
 20
268.5729147588
 30
0.0
 40
9.255057920446124
100
AcDbArc
 50
249.965069074
 51
251.2091432353
  0
ARC
  5
238
330
14E
100
AcDbEntity
  8
DV2_Default
  6
Continuous
 62
     7
100
AcDbCircle
 10
19.5624997932
 20
294.8052268286
 30
0.0
 40
9.383741240134887
100
AcDbArc
 50
159.975041948
 51
161.20189384
  0
ARC
  5
239
330
14E
100
AcDbEntity
  8
DV2_Default
  6
Continuous
 62
     7
100
AcDbCircle
 10
15.5111317143
 20
285.5870406058
 30
0.0
 40
13.4226971492563
100
AcDbArc
 50
109.0852155689
 51
109.9516373918
  0
ARC
  5
23A
330
14E
100
AcDbEntity
  8
DV2_Default
  6
Continuous
 62
     7
100
AcDbCircle
 10
45.7050569898
 20
289.4780486972
 30
0.0
 40
9.288933037167055
100
AcDbArc
 50
69.9700709807
 51
71.2093001549
  0
ARC
  5
23B
330
14E
100
AcDbEntity
  8
DV2_Default
  6
Continuous
 62
     7
100
AcDbCircle
 10
44.3169721327
 20
272.4722899138
 30
0.0
 40
13.39742002140692
100
AcDbArc
 50
289.0829000181
 51
289.9508276722
  0
ARC
  5
23C
330
14E
100
AcDbEntity
  8
DV2_Default
  6
Continuous
 62
     7
100
AcDbCircle
 10
40.1559193452
 20
263.3136034762
 30
0.0
 40
9.490799426105259
100
AcDbArc
 50
339.9804839939
 51
341.1936591333
  0
ARC
  5
23D
330
14E
100
AcDbEntity
  8
DV2_Default
  6
Continuous
 62
     7
100
AcDbCircle
 10
36.4709123808
 20
293.4458760547
 30
0.0
 40
13.40592877341688
100
AcDbArc
 50
19.0836745939
 51
19.9510942768
  0
ENDBLK
  5
23F
330
14E
100
AcDbEntity
  8
0
100
AcDbBlockEnd
  0
BLOCK
  5
3B1
330
240
100
AcDbEntity
  8
0
100
AcDbBlockBegin
  2
SE2
 70
     0
 10
0.0
 20
0.0
 30
0.0
  3
SE2
  1

  0
ARC
  5
243
330
240
100
AcDbEntity
  8
DV3_Default
  6
Continuous
 62
     7
100
AcDbCircle
 10
29.9145120038
 20
4443.3802305338
 30
0.0
 40
4290.107125119474
100
AcDbArc
 50
269.885922638
 51
270.114077362
  0
SPLINE
  5
244
330
240
100
AcDbEntity
  8
DV3_Default
  6
Continuous
 62
     7
100
AcDbSpline
210
0.0
220
0.0
230
1.0
 70
     8
 71
     3
 72
    10
 73
     6
 74
     0
 42
0.0000000078195802
 43
0.0000000001
 40
0.0
 40
0.0
 40
0.0
 40
0.0
 40
0.3527411726402352
 40
0.7054823452804703
 40
1.0
 40
1.0
 40
1.0
 40
1.0
 10
19.91573959313214
 20
153.2730952468598
 30
0.0
 10
19.91573959315595
 20
153.2730952468598
 30
0.0
 10
20.01835249120546
 20
153.2737258801272
 30
0.0
 10
20.45470457869772
 20
153.276407591184
 30
0.0
 10
20.90988634739749
 20
153.2792050247633
 30
0.0
 10
21.19455793235295
 20
153.2806977363429
 30
0.0
  0
SPLINE
  5
245
330
240
100
AcDbEntity
  8
DV3_Default
  6
Continuous
 62
     7
100
AcDbSpline
210
0.0
220
0.0
230
1.0
 70
     8
 71
     3
 72
     8
 73
     4
 74
     0
 42
0.0000001141910828
 43
0.0000000001
 40
0.0
 40
0.0
 40
0.0
 40
0.0
 40
1.0
 40
1.0
 40
1.0
 40
1.0
 10
21.25307287045955
 20
153.2810019635843
 30
0.0
 10
21.28150582671698
 20
153.2811485394521
 30
0.0
 10
21.31068385173798
 20
153.2812971532534
 30
0.0
 10
21.34064424772048
 20
153.2814478049884
 30
0.0
  0
SPLINE
  5
246
330
240
100
AcDbEntity
  8
DV3_Default
  6
Continuous
 62
     7
100
AcDbSpline
210
0.0
220
0.0
230
1.0
 70
     8
 71
     3
 72
     8
 73
     4
 74
     0
 42
0.000000114305362
 43
0.0000000001
 40
0.0
 40
0.0
 40
0.0
 40
0.0
 40
0.9999999999999999
 40
0.9999999999999999
 40
0.9999999999999999
 40
0.9999999999999999
 10
38.4883797598338
 20
153.2814478049886
 30
0.0
 10
38.51830940509188
 20
153.2812973078795
 30
0.0
 10
38.54745828458184
 20
153.2811488445228
 30
0.0
 10
38.5758635857609
 20
153.2810024149184
 30
0.0
  0
SPLINE
  5
247
330
240
100
AcDbEntity
  8
DV3_Default
  6
Continuous
 62
     7
100
AcDbSpline
210
0.0
220
0.0
230
1.0
 70
     8
 71
     3
 72
    10
 73
     6
 74
     0
 42
0.0000000078197047
 43
0.0000000001
 40
0.0
 40
0.0
 40
0.0
 40
0.0
 40
0.2945127010317614
 40
0.6472563505158806
 40
1.0
 40
1.0
 40
1.0
 40
1.0
 10
38.63448643614473
 20
153.2806976295779
 30
0.0
 10
38.91914753682249
 20
153.2792049640655
 30
0.0
 10
39.37432249377517
 20
153.2764075723493
 30
0.0
 10
39.81067151753084
 20
153.2737258801278
 30
0.0
 10
39.91328441558959
 20
153.2730952468567
 30
0.0
 10
39.91328441558956
 20
153.2730952468567
 30
0.0
  0
SPLINE
  5
248
330
240
100
AcDbEntity
  8
DV3_Default
  6
Continuous
 62
     7
100
AcDbSpline
210
0.0
220
0.0
230
1.0
 70
     8
 71
     3
 72
    21
 73
    17
 74
     0
 42
0.0000000002815063
 43
0.0000000001
 40
0.0
 40
0.0
 40
0.0
 40
0.0
 40
0.0999968504216908
 40
0.2015835366225608
 40
0.3038850857105209
 40
0.407320518901737
 40
0.5124807063560626
 40
0.5873816273124539
 40
0.662924939588576
 40
0.738475716814552
 40
0.8123959447637743
 40
0.8569428750545223
 40
0.8992128932447014
 40
0.9380626246209192
 40
0.9721200967602068
 40
1.0
 40
1.0
 40
1.0
 40
1.0
 10
10.27975143479146
 20
187.0588705249975
 30
0.0
 10
10.85734397402807
 20
185.8918271184078
 30
0.0
 10
11.8361118776687
 20
183.9078716468544
 30
0.0
 10
13.39805954625081
 20
180.5884184323274
 30
0.0
 10
14.88229003444566
 20
177.2875022618412
 30
0.0
 10
16.26698247273489
 20
173.8704861823448
 30
0.0
 10
17.3593016466978
 20
170.6961382861714
 30
0.0
 10
18.1767003520904
 20
167.7813240645434
 30
0.0
 10
18.77557298331586
 20
165.1727620403026
 30
0.0
 10
19.24020492499173
 20
162.5488571657111
 30
0.0
 10
19.5356494262264
 20
160.2699938486725
 30
0.0
 10
19.71554417954358
 20
158.3763245096502
 30
0.0
 10
19.81657860691974
 20
156.8894177395753
 30
0.0
 10
19.87745344095448
 20
155.5354429160042
 30
0.0
 10
19.90953019833311
 20
154.3175928144011
 30
0.0
 10
19.91385177596369
 20
153.6361408786852
 30
0.0
 10
19.91573959313214
 20
153.2730952468595
 30
0.0
  0
SPLINE
  5
249
330
240
100
AcDbEntity
  8
DV3_Default
  6
Continuous
 62
     7
100
AcDbSpline
210
0.0
220
0.0
230
1.0
 70
     8
 71
     3
 72
    22
 73
    18
 74
     0
 42
0.0000000002815071
 43
0.0000000001
 40
0.0
 40
0.0
 40
0.0
 40
0.0
 40
0.0250692110572954
 40
0.0553482480212726
 40
0.0897952427454612
 40
0.1273761006638634
 40
0.1671203873567535
 40
0.208419541062146
 40
0.2508128546808022
 40
0.3298705261197734
 40
0.4090330862679272
 40
0.4875203812314463
 40
0.5926803473163507
 40
0.6961155682393066
 40
0.7984169162915551
 40
0.9000033977175249
 40
1.0
 40
1.0
 40
1.0
 40
1.0
 10
39.91328441558956
 20
153.2730952468527
 30
0.0
 10
39.91484281989438
 20
153.5995429889632
 30
0.0
 10
39.91837197659414
 20
154.2084090806236
 30
0.0
 10
39.94421328699629
 20
155.2934041503283
 30
0.0
 10
39.99275232182622
 20
156.4963474200483
 30
0.0
 10
40.07218457683553
 20
157.8194823397884
 30
0.0
 10
40.1894978418936
 20
159.218352432711
 30
0.0
 10
40.34668535151742
 20
160.6714786922111
 30
0.0
 10
40.6006785425185
 20
162.5814250446227
 30
0.0
 10
41.00109564217511
 20
164.9235075365882
 30
0.0
 10
41.61886687462007
 20
167.6579457099058
 30
0.0
 10
42.45593423419974
 20
170.6560416918667
 30
0.0
 10
43.56206195723097
 20
173.8705495881133
 30
0.0
 10
44.94676644729265
 20
177.2875760629163
 30
0.0
 10
46.43100212001789
 20
180.588500234429
 30
0.0
 10
47.99295552328714
 20
183.9079621924021
 30
0.0
 10
48.9717270413832
 20
185.8919223652493
 30
0.0
 10
49.54932158590181
 20
187.0589682867316
 30
0.0
  0
SPLINE
  5
24A
330
240
100
AcDbEntity
  8
DV3_Default
  6
Continuous
 62
     7
100
AcDbSpline
210
0.0
220
0.0
230
1.0
 70
     8
 71
     3
 72
    11
 73
     7
 74
     0
 42
0.0000000069779662
 43
0.0000000001
 40
0.0
 40
0.0
 40
0.0
 40
0.0
 40
0.0022787846635684
 40
0.3380423145787701
 40
0.6738058444939717
 40
1.0
 40
1.0
 40
1.0
 40
1.0
 10
359.9216275701507
 20
153.2730952904318
 30
0.0
 10
359.9216289944488
 20
153.2730952613838
 30
0.0
 10
359.9221908529474
 20
153.2730931068456
 30
0.0
 10
360.0269706267486
 20
153.2737258801272
 30
0.0
 10
360.4870347163037
 20
153.2765367699429
 30
0.0
 10
360.991691622502
 20
153.2796272859908
 30
0.0
 10
361.3546853595179
 20
153.2814478049883
 30
0.0
  0
ARC
  5
24B
330
240
100
AcDbEntity
  8
DV3_Default
  6
Continuous
 62
     7
100
AcDbCircle
 10
292.3159631061
 20
152.258398404
 30
0.0
 40
67.61327881999216
100
AcDbArc
 50
0.8598907295
 51
30.9773233508
  0
ARC
  5
24C
330
240
100
AcDbEntity
  8
DV3_Default
  6
Continuous
 62
     7
100
AcDbCircle
 10
447.4791304122
 20
152.271454745
 30
0.0
 40
67.56736926238918
100
AcDbArc
 50
149.0423536951
 51
179.1505977114
  0
ARC
  5
24D
330
240
100
AcDbEntity
  8
DV3_Default
  6
Continuous
 62
     7
100
AcDbCircle
 10
350.0319953526
 20
191.9550067641
 30
0.0
 40
0.7017631578290359
100
AcDbArc
 50
357.5559582924
 51
23.6246973178
  0
SPLINE
  5
24E
330
240
100
AcDbEntity
  8
DV3_Default
  6
Continuous
 62
     7
100
AcDbSpline
210
0.0
220
0.0
230
1.0
 70
    12
 71
     3
 72
    10
 73
     6
 74
     0
 42
0.0000001299251918
 43
0.0000000001
 40
0.0
 40
0.0
 40
0.0
 40
0.0
 40
0.3333333333333
 40
0.6666666666667
 40
1.0
 40
1.0
 40
1.0
 40
1.0
 10
350.6749437922424
 20
192.2362341341915
 30
0.0
 41
1.0
 10
350.6692987154458
 20
192.2463644483762
 30
0.0
 41
1.0
 10
350.6576078603381
 20
192.2632926293289
 30
0.0
 41
1.0
 10
350.6382315848608
 20
192.2791464092867
 30
0.0
 41
1.0
 10
350.6253957599102
 20
192.28243889592
 30
0.0
 41
1.0
 10
350.6188858738815
 20
192.2823424397093
 30
0.0
 41
1.0
  0
LINE
  5
24F
330
240
100
AcDbEntity
  8
DV3_Default
  6
Continuous
 62
     7
100
AcDbLine
 10
350.6188858739
 20
192.2823424397
 30
0.0
 11
347.4356185136
 21
192.2823424397
 31
0.0
  0
LINE
  5
250
330
240
100
AcDbEntity
  8
DV3_Default
  6
Continuous
 62
     7
100
AcDbLine
 10
347.4356185131
 20
188.2823424397
 30
0.0
 11
350.6188858744
 21
188.2823424397
 31
0.0
  0
SPLINE
  5
251
330
240
100
AcDbEntity
  8
DV3_Default
  6
Continuous
 62
     7
100
AcDbSpline
210
0.0
220
0.0
230
1.0
 70
    12
 71
     3
 72
    10
 73
     6
 74
     0
 42
0.0000001299250544
 43
0.0000000001
 40
0.0
 40
0.0
 40
0.0
 40
0.0
 40
0.3333333333333
 40
0.6666666666667
 40
1.0
 40
1.0
 40
1.0
 40
1.0
 10
350.6188858743815
 20
188.282342439709
 30
0.0
 41
1.0
 10
350.6253954616102
 20
188.282245867042
 30
0.0
 41
1.0
 10
350.6382308921607
 20
188.28553819362
 30
0.0
 41
1.0
 10
350.6576072433382
 20
188.301391412266
 30
0.0
 41
1.0
 10
350.6692984941457
 20
188.318320084459
 30
0.0
 41
1.0
 10
350.6749438645423
 20
188.32845077082
 30
0.0
 41
1.0
  0
ARC
  5
252
330
240
100
AcDbEntity
  8
DV3_Default
  6
Continuous
 62
     7
100
AcDbCircle
 10
350.031987807
 20
188.6096793062
 30
0.0
 40
0.7017706042869573
100
AcDbArc
 50
336.3754647616
 51
2.4438388797
  0
LINE
  5
253
330
240
100
AcDbEntity
  8
DV3_Default
  6
Continuous
 62
     7
100
AcDbLine
 10
350.733120149
 20
188.6396028771
 30
0.0
 11
350.733120149
 21
191.9250810288
 31
0.0
  0
LINE
  5
254
330
240
100
AcDbEntity
  8
DV3_Default
  6
Continuous
 62
     7
100
AcDbLine
 10
351.0394059878
 20
191.9250810288
 30
0.0
 11
351.0394059878
 21
188.6396028771
 31
0.0
  0
ARC
  5
255
330
240
100
AcDbEntity
  8
DV3_Default
  6
Continuous
 62
     7
100
AcDbCircle
 10
351.3668073254
 20
191.9788306477
 30
0.0
 40
0.3035139497704517
100
AcDbArc
 50
89.7839522797
 51
121.9954053617
  0
ARC
  5
256
330
240
100
AcDbEntity
  8
DV3_Default
  6
Continuous
 62
     7
100
AcDbCircle
 10
351.4037685807
 20
191.9301827635
 30
0.0
 40
0.3643983079069571
100
AcDbArc
 50
122.8712875432
 51
180.8021920257
  0
ARC
  5
257
330
240
100
AcDbEntity
  8
DV3_Default
  6
Continuous
 62
     7
100
AcDbCircle
 10
351.4037659495
 20
188.6345005844
 30
0.0
 40
0.3643956847819834
100
AcDbArc
 50
179.197714464
 51
237.1288996623
  0
ARC
  5
258
330
240
100
AcDbEntity
  8
DV3_Default
  6
Continuous
 62
     7
100
AcDbCircle
 10
351.3668073494
 20
188.5858548977
 30
0.0
 40
0.3035146156649363
100
AcDbArc
 50
238.0046216521
 51
270.2160422697
  0
LINE
  5
259
330
240
100
AcDbEntity
  8
DV3_Default
  6
Continuous
 62
     7
100
AcDbLine
 10
351.3679517938
 20
188.2823424397
 30
0.0
 11
388.5004370188
 21
188.2823424397
 31
0.0
  0
ARC
  5
25A
330
240
100
AcDbEntity
  8
DV3_Default
  6
Continuous
 62
     7
100
AcDbCircle
 10
388.5015815421
 20
188.5858511604
 30
0.0
 40
0.3035108786205368
100
AcDbArc
 50
269.7839401591
 51
301.9969480743
  0
ARC
  5
25B
330
240
100
AcDbEntity
  8
DV3_Default
  6
Continuous
 62
     7
100
AcDbCircle
 10
388.4646172739
 20
188.6345013041
 30
0.0
 40
0.3643988951610403
100
AcDbArc
 50
302.8727847724
 51
0.8021652934
  0
LINE
  5
25C
330
240
100
AcDbEntity
  8
DV3_Default
  6
Continuous
 62
     7
100
AcDbLine
 10
388.8289804564
 20
188.6396028771
 30
0.0
 11
388.8289804564
 21
191.9250810288
 31
0.0
  0
ARC
  5
25D
330
240
100
AcDbEntity
  8
DV3_Default
  6
Continuous
 62
     7
100
AcDbCircle
 10
388.4646172173
 20
191.9301834221
 30
0.0
 40
0.3643989631954598
100
AcDbArc
 50
359.1977058481
 51
57.1272504557
  0
ARC
  5
25E
330
240
100
AcDbEntity
  8
DV3_Default
  6
Continuous
 62
     7
100
AcDbCircle
 10
388.5015815633
 20
191.9788343755
 30
0.0
 40
0.3035102223049758
100
AcDbArc
 50
58.003025486
 51
90.216064968
  0
LINE
  5
25F
330
240
100
AcDbEntity
  8
DV3_Default
  6
Continuous
 62
     7
100
AcDbLine
 10
388.5004370153
 20
192.2823424397
 30
0.0
 11
351.3679517962
 21
192.2823424397
 31
0.0
  0
LINE
  5
260
330
240
100
AcDbEntity
  8
DV3_Default
  6
Continuous
 62
     7
100
AcDbLine
 10
351.5308344689
 20
192.7823424288
 30
0.0
 11
388.3375543122
 21
192.7823424288
 31
0.0
  0
LINE
  5
261
330
240
100
AcDbEntity
  8
DV3_Default
  6
Continuous
 62
     7
100
AcDbLine
 10
351.0915556963
 20
192.7823424288
 30
0.0
 11
351.2607161697
 21
192.7823424397
 31
0.0
  0
LINE
  5
262
330
240
100
AcDbEntity
  8
DV3_Default
  6
Continuous
 62
     7
100
AcDbLine
 10
351.2607161697
 20
192.7823424397
 30
0.0
 11
351.5308344689
 21
192.7823424288
 31
0.0
  0
LINE
  5
263
330
240
100
AcDbEntity
  8
DV3_Default
  6
Continuous
 62
     7
100
AcDbLine
 10
388.3375543122
 20
192.7823424288
 30
0.0
 11
388.6076698103
 21
192.7823424397
 31
0.0
  0
LINE
  5
264
330
240
100
AcDbEntity
  8
DV3_Default
  6
Continuous
 62
     7
100
AcDbLine
 10
388.6076698103
 20
192.7823424397
 30
0.0
 11
388.7768315368
 21
192.7823424288
 31
0.0
  0
LINE
  5
265
330
240
100
AcDbEntity
  8
DV3_Default
  6
Continuous
 62
     7
100
AcDbLine
 10
391.932838477
 20
192.7823424402
 30
0.0
 11
388.7768302829
 21
192.7823424288
 31
0.0
  0
LINE
  5
266
330
240
100
AcDbEntity
  8
DV3_Default
  6
Continuous
 62
     7
100
AcDbLine
 10
347.9355475022
 20
192.7823424402
 30
0.0
 11
351.0915556963
 21
192.7823424288
 31
0.0
  0
ARC
  5
267
330
240
100
AcDbEntity
  8
DV3_Default
  6
Continuous
 62
     7
100
AcDbCircle
 10
351.0934895299
 20
192.3233519929
 30
0.0
 40
0.4589945097291973
100
AcDbArc
 50
90.2413990345
 51
101.9248282696
  0
LINE
  5
268
330
240
100
AcDbEntity
  8
DV3_Default
  6
Continuous
 62
     7
100
AcDbLine
 10
351.0915556962
 20
187.7823424506
 30
0.0
 11
347.9355475022
 21
187.7823424392
 31
0.0
  0
LINE
  5
269
330
240
100
AcDbEntity
  8
DV3_Default
  6
Continuous
 62
     7
100
AcDbLine
 10
388.3375543121
 20
187.7823424506
 30
0.0
 11
351.5308344689
 21
187.7823424506
 31
0.0
  0
LINE
  5
26A
330
240
100
AcDbEntity
  8
DV3_Default
  6
Continuous
 62
     7
100
AcDbLine
 10
389.1352662878
 20
191.9250810288
 30
0.0
 11
389.1352662878
 21
188.6396028771
 31
0.0
  0
ARC
  5
26B
330
240
100
AcDbEntity
  8
DV3_Default
  6
Continuous
 62
     7
100
AcDbCircle
 10
389.8363682394
 20
188.6096755475
 30
0.0
 40
0.7017404018662673
100
AcDbArc
 50
177.5557487094
 51
203.6256209232
  0
SPLINE
  5
26C
330
240
100
AcDbEntity
  8
DV3_Default
  6
Continuous
 62
     7
100
AcDbSpline
210
0.0
220
0.0
230
1.0
 70
    12
 71
     3
 72
    10
 73
     6
 74
     0
 42
0.0000001299322316
 43
0.0000000001
 40
0.0
 40
0.0
 40
0.0
 40
0.0
 40
0.3333333333333
 40
0.6666666666667
 40
1.0
 40
1.0
 40
1.0
 40
1.0
 10
389.1934451818423
 20
188.328446932879
 30
0.0
 41
1.0
 10
389.1990901472457
 20
188.318317432365
 30
0.0
 41
1.0
 10
389.2107807243381
 20
188.301390619931
 30
0.0
 41
1.0
 10
389.2301563645606
 20
188.28553821576
 30
0.0
 41
1.0
 10
389.2429917303102
 20
188.282245996035
 30
0.0
 41
1.0
 10
389.2495013693815
 20
188.282342439709
 30
0.0
 41
1.0
  0
LINE
  5
26D
330
240
100
AcDbEntity
  8
DV3_Default
  6
Continuous
 62
     7
100
AcDbLine
 10
392.4327674661
 20
188.2823424397
 30
0.0
 11
389.2495001046
 21
188.2823424397
 31
0.0
  0
LINE
  5
26E
330
240
100
AcDbEntity
  8
DV3_Default
  6
Continuous
 62
     7
100
AcDbLine
 10
389.2495001053
 20
192.2823424397
 30
0.0
 11
392.4327674656
 21
192.2823424397
 31
0.0
  0
SPLINE
  5
26F
330
240
100
AcDbEntity
  8
DV3_Default
  6
Continuous
 62
     7
100
AcDbSpline
210
0.0
220
0.0
230
1.0
 70
    12
 71
     3
 72
    10
 73
     6
 74
     0
 42
0.0000001299323425
 43
0.0000000001
 40
0.0
 40
0.0
 40
0.0
 40
0.0
 40
0.3333333333333
 40
0.6666666666667
 40
1.0
 40
1.0
 40
1.0
 40
1.0
 10
389.2495013656815
 20
192.282342439709
 30
0.0
 41
1.0
 10
389.2429920361103
 20
192.2824389995434
 30
0.0
 41
1.0
 10
389.2301570950606
 20
192.2791469433203
 30
0.0
 41
1.0
 10
389.2107814342381
 20
192.2632951227162
 30
0.0
 41
1.0
 10
389.1990904957457
 20
192.2463678353212
 30
0.0
 41
1.0
 10
389.1934452540423
 20
192.2362379719602
 30
0.0
 41
1.0
  0
ARC
  5
270
330
240
100
AcDbEntity
  8
DV3_Default
  6
Continuous
 62
     7
100
AcDbCircle
 10
389.8363825429
 20
191.9550064376
 30
0.0
 40
0.7017546104393776
100
AcDbArc
 50
156.374626331
 51
182.4440448105
  0
LINE
  5
271
330
240
100
AcDbEntity
  8
DV3_Default
  6
Continuous
 62
     7
100
AcDbLine
 10
351.5308344689
 20
187.7823424506
 30
0.0
 11
351.2607161682
 21
187.7823424397
 31
0.0
  0
LINE
  5
272
330
240
100
AcDbEntity
  8
DV3_Default
  6
Continuous
 62
     7
100
AcDbLine
 10
351.2607161682
 20
187.7823424397
 30
0.0
 11
351.0915556962
 21
187.7823424506
 31
0.0
  0
LINE
  5
273
330
240
100
AcDbEntity
  8
DV3_Default
  6
Continuous
 62
     7
100
AcDbLine
 10
388.7768315368
 20
187.7823424506
 30
0.0
 11
388.6076698089
 21
187.7823424397
 31
0.0
  0
LINE
  5
274
330
240
100
AcDbEntity
  8
DV3_Default
  6
Continuous
 62
     7
100
AcDbLine
 10
388.6076698089
 20
187.7823424397
 30
0.0
 11
388.3375543121
 21
187.7823424506
 31
0.0
  0
ARC
  5
275
330
240
100
AcDbEntity
  8
DV3_Default
  6
Continuous
 62
     7
100
AcDbCircle
 10
388.7748977041
 20
188.2413329009
 30
0.0
 40
0.4589945241230007
100
AcDbArc
 50
270.2413989123
 51
281.9248280235
  0
LINE
  5
276
330
240
100
AcDbEntity
  8
DV3_Default
  6
Continuous
 62
     7
100
AcDbLine
 10
347.4356174812
 20
192.2823424397
 30
0.0
 11
347.4356174812
 21
188.2823424397
 31
0.0
  0
ARC
  5
277
330
240
100
AcDbEntity
  8
DV3_Default
  6
Continuous
 62
     7
100
AcDbCircle
 10
349.7668367481
 20
147.0232479536
 30
0.0
 40
45.76600296597273
100
AcDbArc
 50
88.4577052959
 51
92.5329745022
  0
ARC
  5
278
330
240
100
AcDbEntity
  8
DV3_Default
  6
Continuous
 62
     7
100
AcDbCircle
 10
347.9353828309
 20
192.2824283651
 30
0.0
 40
0.5000791505992159
100
AcDbArc
 50
112.4718325346
 51
180.0098447626
  0
ARC
  5
279
330
240
100
AcDbEntity
  8
DV3_Default
  6
Continuous
 62
     7
100
AcDbCircle
 10
347.9353828309
 20
188.2822565144
 30
0.0
 40
0.5000791506178545
100
AcDbArc
 50
179.9901552388
 51
247.5281674713
  0
SPLINE
  5
27A
330
240
100
AcDbEntity
  8
DV3_Default
  6
Continuous
 62
     7
100
AcDbSpline
210
0.0
220
0.0
230
1.0
 70
     8
 71
     3
 72
    22
 73
    18
 74
     0
 42
0.0000000030712804
 43
0.0000000001
 40
0.0
 40
0.0
 40
0.0
 40
0.0
 40
0.0830305712669047
 40
0.1583104548481733
 40
0.2258499222740846
 40
0.285657130767642
 40
0.3377387089918898
 40
0.3821000653380547
 40
0.4187455593367531
 40
0.4526167499550405
 40
0.5004569583770383
 40
0.5584149019088104
 40
0.6264914211223094
 40
0.7046890221137744
 40
0.7930093963119432
 40
0.8914502035327443
 40
1.0
 40
1.0
 40
1.0
 40
1.0
 10
347.7442381790456
 20
187.8201495148645
 30
0.0
 10
347.7570192351666
 20
187.8167259433218
 30
0.0
 10
347.7792630835435
 20
187.8112975840366
 30
0.0
 10
347.8616277032561
 20
187.8045020834386
 30
0.0
 10
347.9627474393432
 20
187.7996263692761
 30
0.0
 10
348.0759862313326
 20
187.7961716777377
 30
0.0
 10
348.1913062702214
 20
187.7938806870131
 30
0.0
 10
348.3011515668904
 20
187.7925065703298
 30
0.0
 10
348.4030329163239
 20
187.7919274361896
 30
0.0
 10
348.51322313292
 20
187.7920462742983
 30
0.0
 10
348.6561194450219
 20
187.7920013853075
 30
0.0
 10
348.8528610206297
 20
187.7920178547376
 30
0.0
 10
349.110413945829
 20
187.7920122401385
 30
0.0
 10
349.4412984600119
 20
187.7920140927278
 30
0.0
 10
349.8560025704499
 20
187.7920134972432
 30
0.0
 10
350.381624550284
 20
187.7920136898803
 30
0.0
 10
350.7606969187216
 20
187.7920136428404
 30
0.0
 10
350.9986227687445
 20
187.792013643274
 30
0.0
  0
LINE
  5
27B
330
240
100
AcDbEntity
  8
DV3_Default
  6
Continuous
 62
     7
100
AcDbLine
 10
392.432768498
 20
188.2823424397
 30
0.0
 11
392.432768498
 21
192.2823424397
 31
0.0
  0
ARC
  5
27C
330
240
100
AcDbEntity
  8
DV3_Default
  6
Continuous
 62
     7
100
AcDbCircle
 10
391.9330031483
 20
192.2824283651
 30
0.0
 40
0.5000791505995335
100
AcDbArc
 50
359.9901552374
 51
67.5281674653
  0
SPLINE
  5
27D
330
240
100
AcDbEntity
  8
DV3_Default
  6
Continuous
 62
     7
100
AcDbSpline
210
0.0
220
0.0
230
1.0
 70
     8
 71
     3
 72
    22
 73
    18
 74
     0
 42
0.0000000030712812
 43
0.0000000001
 40
0.0
 40
0.0
 40
0.0
 40
0.0
 40
0.0830305717633822
 40
0.1583104556546436
 40
0.225849923247331
 40
0.2856571318049502
 40
0.33773871002644
 40
0.3821000663334364
 40
0.4187455602815964
 40
0.4526167508470581
 40
0.5004569591977933
 40
0.5584149026498789
 40
0.6264914217742924
 40
0.7046890226621558
 40
0.7930093967313089
 40
0.8914502037789099
 40
1.0
 40
1.0
 40
1.0
 40
1.0
 10
392.1241481968281
 20
192.7445352004041
 30
0.0
 10
392.1113671458278
 20
192.7479587939212
 30
0.0
 10
392.0891233058734
 20
192.7533871879714
 30
0.0
 10
392.0067586993704
 20
192.7601827296581
 30
0.0
 10
391.9056389781155
 20
192.7650584716825
 30
0.0
 10
391.7924002044326
 20
192.7685131816673
 30
0.0
 10
391.6770801886095
 20
192.770804183789
 30
0.0
 10
391.5672349201228
 20
192.7721783068777
 30
0.0
 10
391.4653536070428
 20
192.7727574436049
 30
0.0
 10
391.3551634436138
 20
192.7726386049656
 30
0.0
 10
391.2122671898177
 20
192.7726834941568
 30
0.0
 10
391.015525687823
 20
192.7726670246532
 30
0.0
 10
390.7579728474968
 20
192.7726726392772
 30
0.0
 10
390.4270884298144
 20
192.7726707866797
 30
0.0
 10
390.0123844259114
 20
192.7726713821669
 30
0.0
 10
389.4867625655256
 20
192.7726711895289
 30
0.0
 10
389.1076902709453
 20
192.7726712365691
 30
0.0
 10
388.8697644669341
 20
192.7726712361356
 30
0.0
  0
ARC
  5
27E
330
240
100
AcDbEntity
  8
DV3_Default
  6
Continuous
 62
     7
100
AcDbCircle
 10
390.1015503664
 20
233.5411223776
 30
0.0
 40
45.76568852849117
100
AcDbArc
 50
268.4576948475
 51
272.5329909907
  0
ARC
  5
27F
330
240
100
AcDbEntity
  8
DV3_Default
  6
Continuous
 62
     7
100
AcDbCircle
 10
391.9330031483
 20
188.2822565144
 30
0.0
 40
0.5000791506187602
100
AcDbArc
 50
292.4718325314
 51
0.0098447612
  0
LINE
  5
280
330
240
100
AcDbEntity
  8
DV3_Default
  6
Continuous
 62
     7
100
AcDbLine
 10
379.105150596
 20
152.7823424397
 30
0.0
 11
379.1366139394
 21
152.7823424397
 31
0.0
  0
LINE
  5
281
330
240
100
AcDbEntity
  8
DV3_Default
  6
Continuous
 62
     7
100
AcDbLine
 10
379.1498962137
 20
152.7823424397
 30
0.0
 11
379.4189652019
 21
152.7823424397
 31
0.0
  0
LINE
  5
282
330
240
100
AcDbEntity
  8
DV3_Default
  6
Continuous
 62
     7
100
AcDbLine
 10
377.7682302094
 20
152.7823424398
 30
0.0
 11
378.0478957881
 21
152.7823424397
 31
0.0
  0
LINE
  5
283
330
240
100
AcDbEntity
  8
DV3_Default
  6
Continuous
 62
     7
100
AcDbLine
 10
377.7682302094
 20
152.7823424398
 30
0.0
 11
371.1836827156
 21
152.7823424398
 31
0.0
  0
LINE
  5
284
330
240
100
AcDbEntity
  8
DV3_Default
  6
Continuous
 62
     7
100
AcDbLine
 10
368.9889135357
 20
152.7823424398
 30
0.0
 11
362.0885402746
 21
152.7823424398
 31
0.0
  0
LINE
  5
285
330
240
100
AcDbEntity
  8
DV3_Default
  6
Continuous
 62
     7
100
AcDbLine
 10
361.8085575587
 20
152.7823424397
 30
0.0
 11
362.0885402746
 21
152.7823424398
 31
0.0
  0
LINE
  5
286
330
240
100
AcDbEntity
  8
DV3_Default
  6
Continuous
 62
     7
100
AcDbLine
 10
361.6391289509
 20
152.7823424398
 30
0.0
 11
361.8085575587
 21
152.7823424397
 31
0.0
  0
SPLINE
  5
287
330
240
100
AcDbEntity
  8
DV3_Default
  6
Continuous
 62
     7
100
AcDbSpline
210
0.0
220
0.0
230
1.0
 70
     8
 71
     3
 72
    11
 73
     7
 74
     0
 42
0.0000001148676286
 43
0.0000000001
 40
0.0
 40
0.0
 40
0.0
 40
0.0
 40
0.2490761609192374
 40
0.4999043484501414
 40
0.7503953243707787
 40
1.0
 40
1.0
 40
1.0
 40
1.0
 10
361.1614098301007
 20
153.280664089099
 30
0.0
 10
361.1664865695351
 20
153.2813361035767
 30
0.0
 10
361.1770238047536
 20
153.2826863408608
 30
0.0
 10
361.1926105408574
 20
153.2939110848899
 30
0.0
 10
361.2077865095171
 20
153.3109332343245
 30
0.0
 10
361.2171462781453
 20
153.328017065555
 30
0.0
 10
361.2220150203009
 20
153.336544855169
 30
0.0
  0
ARC
  5
288
330
240
100
AcDbEntity
  8
DV3_Default
  6
Continuous
 62
     7
100
AcDbCircle
 10
360.6290471919
 20
153.5802877275
 30
0.0
 40
0.6411095330272616
100
AcDbArc
 50
337.6546020214
 51
2.638105584
  0
ARC
  5
289
330
240
100
AcDbEntity
  8
DV3_Default
  6
Continuous
 62
     7
100
AcDbCircle
 10
285.9045577642
 20
152.7330655971
 30
0.0
 40
75.37001889299621
100
AcDbArc
 50
0.6664997984
 51
26.7205097995
  0
ARC
  5
28A
330
240
100
AcDbEntity
  8
DV3_Default
  6
Continuous
 62
     7
100
AcDbCircle
 10
352.1150268429
 20
186.1604898058
 30
0.0
 40
1.203012652097453
100
AcDbArc
 50
22.5765710004
 51
44.4264597767
  0
SPLINE
  5
28B
330
240
100
AcDbEntity
  8
DV3_Default
  6
Continuous
 62
     7
100
AcDbSpline
210
0.0
220
0.0
230
1.0
 70
     8
 71
     3
 72
    10
 73
     6
 74
     0
 42
0.0000001218902007
 43
0.0000000001
 40
0.0
 40
0.0
 40
0.0
 40
0.0
 40
0.331534805134652
 40
0.6614110861226882
 40
1.0
 40
1.0
 40
1.0
 40
1.0
 10
352.9741577169517
 20
187.0025905018605
 30
0.0
 10
352.9650870043944
 20
187.0102596744911
 30
0.0
 10
352.9466907783993
 20
187.0253847264264
 30
0.0
 10
352.9227307678719
 20
187.0381820403782
 30
0.0
 10
352.910176726196
 20
187.0397398416093
 30
0.0
 10
352.9036821844089
 20
187.0404499892731
 30
0.0
  0
LINE
  5
28C
330
240
100
AcDbEntity
  8
DV3_Default
  6
Continuous
 62
     7
100
AcDbLine
 10
387.6022491399
 20
187.7823424397
 30
0.0
 11
386.5515946613
 21
187.7823424397
 31
0.0
  0
LINE
  5
28D
330
240
100
AcDbEntity
  8
DV3_Default
  6
Continuous
 62
     7
100
AcDbLine
 10
352.3287038945
 20
187.7823424313
 30
0.0
 11
353.3200860539
 21
187.7823424261
 31
0.0
  0
LINE
  5
28E
330
240
100
AcDbEntity
  8
DV3_Default
  6
Continuous
 62
     7
100
AcDbLine
 10
353.5331930904
 20
187.7823424397
 30
0.0
 11
353.3200860539
 21
187.7823424261
 31
0.0
  0
LINE
  5
28F
330
240
100
AcDbEntity
  8
DV3_Default
  6
Continuous
 62
     7
100
AcDbLine
 10
353.881314457
 20
187.7823424261
 30
0.0
 11
353.5331930904
 21
187.7823424397
 31
0.0
  0
LINE
  5
290
330
240
100
AcDbEntity
  8
DV3_Default
  6
Continuous
 62
     7
100
AcDbLine
 10
353.881314457
 20
187.7823424261
 30
0.0
 11
385.9915365922
 21
187.7823424261
 31
0.0
  0
LINE
  5
291
330
240
100
AcDbEntity
  8
DV3_Default
  6
Continuous
 62
     7
100
AcDbLine
 10
386.3392043003
 20
187.7823424397
 30
0.0
 11
385.9915365922
 21
187.7823424261
 31
0.0
  0
LINE
  5
292
330
240
100
AcDbEntity
  8
DV3_Default
  6
Continuous
 62
     7
100
AcDbLine
 10
386.3392043003
 20
187.7823424397
 30
0.0
 11
386.5515946613
 21
187.7823424397
 31
0.0
  0
ARC
  5
293
330
240
100
AcDbEntity
  8
DV3_Default
  6
Continuous
 62
     7
100
AcDbCircle
 10
386.1322137545
 20
186.7519310859
 30
0.0
 40
0.2886398737050487
100
AcDbArc
 50
60.2750575495
 51
91.3208826624
  0
SPLINE
  5
294
330
240
100
AcDbEntity
  8
DV3_Default
  6
Continuous
 62
     7
100
AcDbSpline
210
0.0
220
0.0
230
1.0
 70
     8
 71
     3
 72
    13
 73
     9
 74
     0
 42
0.0000000231271465
 43
0.0000000001
 40
0.0
 40
0.0
 40
0.0
 40
0.0
 40
0.1234643301048686
 40
0.2489226529077471
 40
0.4987917178248596
 40
0.7472115531809077
 40
0.8744104961472102
 40
1.0
 40
1.0
 40
1.0
 40
1.0
 10
386.3684655704009
 20
186.622347749829
 30
0.0
 10
386.3751989991306
 20
186.6400945393551
 30
0.0
 10
386.3889554811346
 20
186.6755572380088
 30
0.0
 10
386.4022099297867
 20
186.748147530315
 30
0.0
 10
386.3990559379706
 20
186.8381104441679
 30
0.0
 10
386.3650403245856
 20
186.9190026934213
 30
0.0
 10
386.3200757568392
 20
186.9725342660311
 30
0.0
 10
386.2901504622516
 20
186.9926729480312
 30
0.0
 10
386.2753320146145
 20
187.0025904968954
 30
0.0
  0
ARC
  5
295
330
240
100
AcDbEntity
  8
DV3_Default
  6
Continuous
 62
     7
100
AcDbCircle
 10
387.7762398494
 20
186.1484508471
 30
0.0
 40
1.225000997973049
100
AcDbArc
 50
135.7925792038
 51
157.2409540657
  0
SPLINE
  5
296
330
240
100
AcDbEntity
  8
DV3_Default
  6
Continuous
 62
     7
100
AcDbSpline
210
0.0
220
0.0
230
1.0
 70
     8
 71
     3
 72
    10
 73
     6
 74
     0
 42
0.0000001222124785
 43
0.0000000001
 40
0.0
 40
0.0
 40
0.0
 40
0.0
 40
0.3383391560435369
 40
0.6682161266525515
 40
1.0
 40
1.0
 40
1.0
 40
1.0
 10
386.9683455993359
 20
187.0404943405916
 30
0.0
 10
386.9618891891313
 20
187.0397826966904
 30
0.0
 10
386.9494059862088
 20
187.0382214004605
 30
0.0
 10
386.9255335431371
 20
187.0254038468369
 30
0.0
 10
386.9071846080665
 20
187.010269297331
 30
0.0
 10
386.8981342583502
 20
187.0025925309082
 30
0.0
  0
SPLINE
  5
297
330
240
100
AcDbEntity
  8
DV3_Default
  6
Continuous
 62
     7
100
AcDbSpline
210
0.0
220
0.0
230
1.0
 70
     8
 71
     3
 72
    11
 73
     7
 74
     0
 42
0.0000000038646096
 43
0.0000000001
 40
0.0
 40
0.0
 40
0.0
 40
0.0
 40
0.2528951846675019
 40
0.5041910756865657
 40
0.7528715906635334
 40
1.0
 40
1.0
 40
1.0
 40
1.0
 10
389.5551306719423
 20
187.0587664476897
 30
0.0
 10
389.5554975921153
 20
187.0587598732856
 30
0.0
 10
389.4430027118711
 20
187.0580364649723
 30
0.0
 10
388.9347701510046
 20
187.0545073012533
 30
0.0
 10
388.1329629447023
 20
187.0487492445258
 30
0.0
 10
387.3556497567449
 20
187.0432928750839
 30
0.0
 10
386.9683455993359
 20
187.0404943405916
 30
0.0
  0
ARC
  5
298
330
240
100
AcDbEntity
  8
DV3_Default
  6
Continuous
 62
     7
100
AcDbCircle
 10
453.1446772508
 20
152.8984391407
 30
0.0
 40
74.56067423881923
100
AcDbArc
 50
153.10855238
 51
179.4533536055
  0
ARC
  5
299
330
240
100
AcDbEntity
  8
DV3_Default
  6
Continuous
 62
     7
100
AcDbCircle
 10
379.2240459101
 20
153.5789767015
 30
0.0
 40
0.6373949151139129
100
AcDbArc
 50
177.228619089
 51
202.3556425114
  0
SPLINE
  5
29A
330
240
100
AcDbEntity
  8
DV3_Default
  6
Continuous
 62
     7
100
AcDbSpline
210
0.0
220
0.0
230
1.0
 70
     8
 71
     3
 72
    11
 73
     7
 74
     0
 42
0.0000001147541416
 43
0.0000000001
 40
0.0
 40
0.0
 40
0.0
 40
0.0
 40
0.2357619080919501
 40
0.4813368755910802
 40
0.7362171923354646
 40
1.0
 40
1.0
 40
1.0
 40
1.0
 10
378.6947847688307
 20
153.280664086449
 30
0.0
 10
378.6897589997773
 20
153.2811788077741
 30
0.0
 10
378.6796686716779
 20
153.282229076377
 30
0.0
 10
378.6644238151615
 20
153.292652973301
 30
0.0
 10
378.6490124955903
 20
153.3096184194369
 30
0.0
 10
378.6393650078127
 20
153.3274647763286
 30
0.0
 10
378.6345571027186
 20
153.336540681509
 30
0.0
  0
ARC
  5
29B
330
240
100
AcDbEntity
  8
DV3_Default
  6
Continuous
 62
     7
100
AcDbCircle
 10
377.9182855254
 20
153.6384993654
 30
0.0
 40
0.3578419894180655
100
AcDbArc
 50
269.6490435643
 51
302.454189211
  0
ARC
  5
29C
330
240
100
AcDbEntity
  8
DV3_Default
  6
Continuous
 62
     7
100
AcDbCircle
 10
377.9455638482
 20
153.6101545184
 30
0.0
 40
0.3193812290359214
100
AcDbArc
 50
301.0534211753
 51
359.9357446731
  0
ARC
  5
29D
330
240
100
AcDbEntity
  8
DV3_Default
  6
Continuous
 62
     7
100
AcDbCircle
 10
453.4438941108
 20
152.6566324548
 30
0.0
 40
75.18499138379728
100
AcDbArc
 50
153.1432174358
 51
179.2736086023
  0
ARC
  5
29E
330
240
100
AcDbEntity
  8
DV3_Default
  6
Continuous
 62
     7
100
AcDbCircle
 10
369.9368091032
 20
-6963.8903492859
 30
0.0
 40
7150.949168106492
100
AcDbArc
 50
89.87029024
 51
90.1297094765
  0
ARC
  5
29F
330
240
100
AcDbEntity
  8
DV3_Default
  6
Continuous
 62
     7
100
AcDbCircle
 10
353.7414495227
 20
186.7513404973
 30
0.0
 40
0.2892301630525794
100
AcDbArc
 50
88.6837329176
 51
119.6929644332
  0
SPLINE
  5
2A0
330
240
100
AcDbEntity
  8
DV3_Default
  6
Continuous
 62
     7
100
AcDbSpline
210
0.0
220
0.0
230
1.0
 70
     8
 71
     3
 72
    13
 73
     9
 74
     0
 42
0.0000000230410345
 43
0.0000000001
 40
0.0
 40
0.0
 40
0.0
 40
0.0
 40
0.0592794184110062
 40
0.1615025688936309
 40
0.3072207929850365
 40
0.4958258573549316
 40
0.7254838796576187
 40
1.0
 40
1.0
 40
1.0
 40
1.0
 10
353.5045439311932
 20
186.622350513239
 30
0.0
 10
353.5009993694075
 20
186.6306687226131
 30
0.0
 10
353.4914440089353
 20
186.6535102291609
 30
0.0
 10
353.4789057694939
 20
186.6979438822015
 30
0.0
 10
353.4703081106063
 20
186.7614915823186
 30
0.0
 10
353.4769069593686
 20
186.8413395486781
 30
0.0
 10
353.5105383025004
 20
186.9337666431799
 30
0.0
 10
353.5672666319698
 20
186.9783005827445
 30
0.0
 10
353.5981787823953
 20
187.0025925265532
 30
0.0
  0
ARC
  5
2A1
330
240
100
AcDbEntity
  8
DV3_Default
  6
Continuous
 62
     7
100
AcDbCircle
 10
287.0537043318
 20
152.8449616648
 30
0.0
 40
74.54278020627618
100
AcDbArc
 50
0.5878840025
 51
26.9445233552
  0
ARC
  5
2A2
330
240
100
AcDbEntity
  8
DV3_Default
  6
Continuous
 62
     7
100
AcDbCircle
 10
361.913252874
 20
153.6109406805
 30
0.0
 40
0.3206942078591202
100
AcDbArc
 50
180.2046368912
 51
238.8309279499
  0
ARC
  5
2A3
330
240
100
AcDbEntity
  8
DV3_Default
  6
Continuous
 62
     7
100
AcDbCircle
 10
361.9393973861
 20
153.6388574152
 30
0.0
 40
0.3582000830144516
100
AcDbArc
 50
237.5637183717
 51
270.3518547743
  0
ARC
  5
2A4
330
240
100
AcDbEntity
  8
DV3_Default
  6
Continuous
 62
     7
100
AcDbCircle
 10
360.4218527689
 20
153.2822695375
 30
0.0
 40
0.5000752210673173
100
AcDbArc
 50
180.0091464703
 51
247.4982514621
  0
ARC
  5
2A5
330
240
100
AcDbEntity
  8
DV3_Default
  6
Continuous
 62
     7
100
AcDbCircle
 10
361.320395998
 20
173.3426370691
 30
0.0
 40
20.55185307179577
100
AcDbArc
 50
266.9643918347
 51
267.9934764653
  0
ARC
  5
2A6
330
240
100
AcDbEntity
  8
DV3_Default
  6
Continuous
 62
     7
100
AcDbCircle
 10
361.320395998
 20
173.3426370691
 30
0.0
 40
20.55185307179577
100
AcDbArc
 50
268.2356325399
 51
270.6266860147
  0
ARC
  5
2A7
330
240
100
AcDbEntity
  8
DV3_Default
  6
Continuous
 62
     7
100
AcDbCircle
 10
292.0660620074
 20
152.1845931866
 30
0.0
 40
67.86382374734235
100
AcDbArc
 50
0.9267061071
 51
30.9215779418
  0
ARC
  5
2A8
330
240
100
AcDbEntity
  8
DV3_Default
  6
Continuous
 62
     7
100
AcDbCircle
 10
389.108158805
 20
187.2825648081
 30
0.0
 40
0.5002850865948776
100
AcDbArc
 50
333.3915035088
 51
75.2234514322
  0
ARC
  5
2A9
330
240
100
AcDbEntity
  8
DV3_Default
  6
Continuous
 62
     7
100
AcDbCircle
 10
387.0904433551
 20
-3.5088023381
 30
0.0
 40
191.2876186905499
100
AcDbArc
 50
89.494198832
 51
90.1518160071
  0
ARC
  5
2AA
330
240
100
AcDbEntity
  8
DV3_Default
  6
Continuous
 62
     7
100
AcDbCircle
 10
388.0894002477
 20
138.1619114734
 30
0.0
 40
49.61717538740794
100
AcDbArc
 50
89.1176264378
 51
89.2734115899
  0
ARC
  5
2AB
330
240
100
AcDbEntity
  8
DV3_Default
  6
Continuous
 62
     7
100
AcDbCircle
 10
388.0894002477
 20
138.1619114734
 30
0.0
 40
49.61717538740794
100
AcDbArc
 50
89.4199241185
 51
90.4664099489
  0
ARC
  5
2AC
330
240
100
AcDbEntity
  8
DV3_Default
  6
Continuous
 62
     7
100
AcDbCircle
 10
447.5622543106
 20
152.2453784829
 30
0.0
 40
67.65032022138803
100
AcDbArc
 50
149.0300628499
 51
179.1218581202
  0
ARC
  5
2AD
330
240
100
AcDbEntity
  8
DV3_Default
  6
Continuous
 62
     7
100
AcDbCircle
 10
379.4191751881
 20
153.2822030639
 30
0.0
 40
0.499860673415393
100
AcDbArc
 50
269.9745814801
 51
359.9984690386
  0
ARC
  5
2AE
330
240
100
AcDbEntity
  8
DV3_Default
  6
Continuous
 62
     7
100
AcDbCircle
 10
351.9668820489
 20
93.5844709125
 30
0.0
 40
94.1921310385012
100
AcDbArc
 50
89.8306687205
 51
90.4890446847
  0
ARC
  5
2AF
330
240
100
AcDbEntity
  8
DV3_Default
  6
Continuous
 62
     7
100
AcDbCircle
 10
351.9668820489
 20
93.5844709125
 30
0.0
 40
94.1921310385012
100
AcDbArc
 50
90.5004456636
 51
90.5438157531
  0
ARC
  5
2B0
330
240
100
AcDbEntity
  8
DV3_Default
  6
Continuous
 62
     7
100
AcDbCircle
 10
350.7326549275
 20
187.2825649712
 30
0.0
 40
0.5002854532935244
100
AcDbArc
 50
104.787971344
 51
206.6141676303
  0
LINE
  5
2B1
330
240
100
AcDbEntity
  8
DV3_Default
  6
Continuous
 62
     7
100
AcDbLine
 10
379.1835699708
 20
150.7823424133
 30
0.0
 11
379.1178742647
 21
150.7823424099
 31
0.0
  0
LINE
  5
2B2
330
240
100
AcDbEntity
  8
DV3_Default
  6
Continuous
 62
     7
100
AcDbLine
 10
379.1178742647
 20
150.7823424099
 30
0.0
 11
379.0124914781
 21
150.7823424133
 31
0.0
  0
LINE
  5
2B3
330
240
100
AcDbEntity
  8
DV3_Default
  6
Continuous
 62
     7
100
AcDbLine
 10
379.0124914781
 20
150.7823424133
 30
0.0
 11
360.8519148612
 21
150.7823424133
 31
0.0
  0
LINE
  5
2B4
330
240
100
AcDbEntity
  8
DV3_Default
  6
Continuous
 62
     7
100
AcDbLine
 10
360.8519148612
 20
150.7823424133
 30
0.0
 11
360.7462774496
 21
150.7823424099
 31
0.0
  0
LINE
  5
2B5
330
240
100
AcDbEntity
  8
DV3_Default
  6
Continuous
 62
     7
100
AcDbLine
 10
360.7462774496
 20
150.7823424099
 30
0.0
 11
360.6801756685
 21
150.7823424133
 31
0.0
  0
LINE
  5
2B6
330
240
100
AcDbEntity
  8
DV3_Default
  6
Continuous
 62
     7
100
AcDbLine
 10
360.6801756685
 20
150.7823424133
 30
0.0
 11
359.1146685308
 21
150.7823424133
 31
0.0
  0
LINE
  5
2B7
330
240
100
AcDbEntity
  8
DV3_Default
  6
Continuous
 62
     7
100
AcDbLine
 10
379.1835699708
 20
150.7823424133
 30
0.0
 11
380.7141498746
 21
150.7823424133
 31
0.0
  0
LINE
  5
2B8
330
240
100
AcDbEntity
  8
DV3_Default
  6
Continuous
 62
     7
100
AcDbLine
 10
380.9139474258
 20
150.9823424099
 30
0.0
 11
379.372900171
 21
150.9823424099
 31
0.0
  0
LINE
  5
2B9
330
240
100
AcDbEntity
  8
DV3_Default
  6
Continuous
 62
     7
100
AcDbLine
 10
360.7875320697
 20
150.9823424099
 30
0.0
 11
379.0776030971
 21
150.9823424099
 31
0.0
  0
LINE
  5
2BA
330
240
100
AcDbEntity
  8
DV3_Default
  6
Continuous
 62
     7
100
AcDbLine
 10
358.9148205422
 20
150.9823424099
 30
0.0
 11
360.4910948774
 21
150.9823424099
 31
0.0
  0
SPLINE
  5
2BB
330
240
100
AcDbEntity
  8
DV3_Default
  6
Continuous
 62
     7
100
AcDbSpline
210
0.0
220
0.0
230
1.0
 70
    12
 71
     3
 72
    13
 73
     9
 74
     0
 42
0.0000003315155024
 43
0.0000000001
 40
0.0
 40
0.0
 40
0.0
 40
0.0
 40
0.2500000006352
 40
0.4999999998409
 40
0.6249999994438
 40
0.7499999990466
 40
0.8749999986495
 40
1.0
 40
1.0
 40
1.0
 40
1.0
 10
360.4910948773561
 20
150.982342409904
 30
0.0
 41
1.0
 10
360.4931335429474
 20
150.982342409904
 30
0.0
 41
1.0
 10
360.4970570768101
 20
150.983047161324
 30
0.0
 41
1.0
 10
360.5016901316534
 20
150.985760495044
 30
0.0
 41
1.0
 10
360.5052997480055
 20
150.989100272494
 30
0.0
 41
1.0
 10
360.5079757020997
 20
150.992201983834
 30
0.0
 41
1.0
 10
360.5106363261791
 20
150.995920674134
 30
0.0
 41
1.0
 10
360.5124133312348
 20
150.998809270734
 30
0.0
 41
1.0
 10
360.5133043522137
 20
151.000364427324
 30
0.0
 41
1.0
  0
ARC
  5
2BC
330
240
100
AcDbEntity
  8
DV3_Default
  6
Continuous
 62
     7
100
AcDbCircle
 10
360.2856199807
 20
151.1041555851
 30
0.0
 40
0.2502254532313244
100
AcDbArc
 50
335.4938717818
 51
2.7576119605
  0
LINE
  5
2BD
330
240
100
AcDbEntity
  8
DV3_Default
  6
Continuous
 62
     7
100
AcDbLine
 10
360.5355556738
 20
151.116194139
 30
0.0
 11
360.5355556738
 21
152.4484887292
 31
0.0
  0
ARC
  5
2BE
330
240
100
AcDbEntity
  8
DV3_Default
  6
Continuous
 62
     7
100
AcDbCircle
 10
360.2851461994
 20
152.460438277
 30
0.0
 40
0.2506944286110242
100
AcDbArc
 50
357.2679162143
 51
24.4802452655
  0
SPLINE
  5
2BF
330
240
100
AcDbEntity
  8
DV3_Default
  6
Continuous
 62
     7
100
AcDbSpline
210
0.0
220
0.0
230
1.0
 70
    12
 71
     3
 72
    13
 73
     9
 74
     0
 42
0.0000003315253201
 43
0.0000000001
 40
0.0
 40
0.0
 40
0.0
 40
0.0
 40
0.1250000011577
 40
0.2500000005671
 40
0.3749999999765
 40
0.4999999993858
 40
0.7499999982046
 40
1.0
 40
1.0
 40
1.0
 40
1.0
 10
360.5133042510515
 20
152.564320903174
 30
0.0
 41
1.0
 10
360.5124132593349
 20
152.565876018454
 30
0.0
 41
1.0
 10
360.5106363073745
 20
152.568764514784
 30
0.0
 41
1.0
 10
360.5079757695753
 20
152.572483115584
 30
0.0
 41
1.0
 10
360.5052998989454
 20
152.575584741544
 30
0.0
 41
1.0
 10
360.5016903945188
 20
152.578924431804
 30
0.0
 41
1.0
 10
360.497057481972
 20
152.581637684344
 30
0.0
 41
1.0
 10
360.4931340693906
 20
152.582342439714
 30
0.0
 41
1.0
 10
360.4910954674579
 20
152.582342439714
 30
0.0
 41
1.0
  0
LINE
  5
2C0
330
240
100
AcDbEntity
  8
DV3_Default
  6
Continuous
 62
     7
100
AcDbLine
 10
360.4910954675
 20
152.5823424397
 30
0.0
 11
358.9148205422
 21
152.5823424397
 31
0.0
  0
LINE
  5
2C1
330
240
100
AcDbEntity
  8
DV3_Default
  6
Continuous
 62
     7
100
AcDbLine
 10
359.1146180933
 20
152.7823424363
 30
0.0
 11
360.6801762549
 21
152.7823424363
 31
0.0
  0
LINE
  5
2C2
330
240
100
AcDbEntity
  8
DV3_Default
  6
Continuous
 62
     7
100
AcDbLine
 10
360.7462771562
 20
152.7823424397
 30
0.0
 11
360.6801762549
 21
152.7823424363
 31
0.0
  0
LINE
  5
2C3
330
240
100
AcDbEntity
  8
DV3_Default
  6
Continuous
 62
     7
100
AcDbLine
 10
360.8519131564
 20
152.7823424363
 30
0.0
 11
360.7462771562
 21
152.7823424397
 31
0.0
  0
ARC
  5
2C4
330
240
100
AcDbEntity
  8
DV3_Default
  6
Continuous
 62
     7
100
AcDbCircle
 10
360.7861598443
 20
152.4633319386
 30
0.0
 40
0.1190183921100598
100
AcDbArc
 50
89.3402185239
 51
121.9499380266
  0
ARC
  5
2C5
330
240
100
AcDbEntity
  8
DV3_Default
  6
Continuous
 62
     7
100
AcDbCircle
 10
360.7927091605
 20
152.4502816853
 30
0.0
 40
0.1335642374980104
100
AcDbArc
 50
121.3713507355
 51
180.7691572697
  0
ARC
  5
2C6
330
240
100
AcDbEntity
  8
DV3_Default
  6
Continuous
 62
     7
100
AcDbCircle
 10
379.0722036346
 20
152.4503047121
 30
0.0
 40
0.133615945493228
100
AcDbArc
 50
359.2212654004
 51
58.5738325565
  0
ARC
  5
2C7
330
240
100
AcDbEntity
  8
DV3_Default
  6
Continuous
 62
     7
100
AcDbCircle
 10
379.0789689553
 20
152.4636075416
 30
0.0
 40
0.1187427341439757
100
AcDbArc
 50
58.0125787006
 51
90.6582418917
  0
LINE
  5
2C8
330
240
100
AcDbEntity
  8
DV3_Default
  6
Continuous
 62
     7
100
AcDbLine
 10
379.0776048108
 20
152.5823424397
 30
0.0
 11
360.7875303535
 21
152.5823424397
 31
0.0
  0
LINE
  5
2C9
330
240
100
AcDbEntity
  8
DV3_Default
  6
Continuous
 62
     7
100
AcDbLine
 10
360.6591569578
 20
152.4484887292
 30
0.0
 11
360.6591569578
 21
151.116194139
 31
0.0
  0
ARC
  5
2CA
330
240
100
AcDbEntity
  8
DV3_Default
  6
Continuous
 62
     7
100
AcDbCircle
 10
360.7927214024
 20
151.114410198
 30
0.0
 40
0.1335763575819375
100
AcDbArc
 50
179.2347797824
 51
238.6255221182
  0
ARC
  5
2CB
330
240
100
AcDbEntity
  8
DV3_Default
  6
Continuous
 62
     7
100
AcDbCircle
 10
360.7861614111
 20
151.1013567015
 30
0.0
 40
0.1190221840864627
100
AcDbArc
 50
238.0501457244
 51
270.6598323368
  0
ARC
  5
2CC
330
240
100
AcDbEntity
  8
DV3_Default
  6
Continuous
 62
     7
100
AcDbCircle
 10
379.0789673907
 20
151.1010810886
 30
0.0
 40
0.1187465162044438
100
AcDbArc
 50
269.3417071462
 51
301.9873375759
  0
ARC
  5
2CD
330
240
100
AcDbEntity
  8
DV3_Default
  6
Continuous
 62
     7
100
AcDbCircle
 10
379.0722223844
 20
151.1143700548
 30
0.0
 40
0.1335973077964261
100
AcDbArc
 50
301.421774677
 51
0.7823179776
  0
LINE
  5
2CE
330
240
100
AcDbEntity
  8
DV3_Default
  6
Continuous
 62
     7
100
AcDbLine
 10
379.2058072389
 20
151.1161941391
 30
0.0
 11
379.2058072389
 21
152.4484887292
 31
0.0
  0
LINE
  5
2CF
330
240
100
AcDbEntity
  8
DV3_Default
  6
Continuous
 62
     7
100
AcDbLine
 10
379.3289333237
 20
152.4484887292
 30
0.0
 11
379.3289333237
 21
151.1161941391
 31
0.0
  0
LINE
  5
2D0
330
240
100
AcDbEntity
  8
DV3_Default
  6
Continuous
 62
     7
100
AcDbLine
 10
360.8519131564
 20
152.7823424363
 30
0.0
 11
379.0124931807
 21
152.7823424363
 31
0.0
  0
LINE
  5
2D1
330
240
100
AcDbEntity
  8
DV3_Default
  6
Continuous
 62
     7
100
AcDbLine
 10
379.1178745598
 20
152.7823424397
 30
0.0
 11
379.0124931807
 21
152.7823424363
 31
0.0
  0
LINE
  5
2D2
330
240
100
AcDbEntity
  8
DV3_Default
  6
Continuous
 62
     7
100
AcDbLine
 10
379.1835693911
 20
152.7823424363
 30
0.0
 11
379.1178745598
 21
152.7823424397
 31
0.0
  0
LINE
  5
2D3
330
240
100
AcDbEntity
  8
DV3_Default
  6
Continuous
 62
     7
100
AcDbLine
 10
380.7141498746
 20
152.7823424363
 30
0.0
 11
379.1835693911
 21
152.7823424363
 31
0.0
  0
LINE
  5
2D4
330
240
100
AcDbEntity
  8
DV3_Default
  6
Continuous
 62
     7
100
AcDbLine
 10
379.3728995874
 20
152.5823424397
 30
0.0
 11
380.9139474258
 21
152.5823424397
 31
0.0
  0
SPLINE
  5
2D5
330
240
100
AcDbEntity
  8
DV3_Default
  6
Continuous
 62
     7
100
AcDbSpline
210
0.0
220
0.0
230
1.0
 70
    12
 71
     3
 72
    13
 73
     9
 74
     0
 42
0.0000003336387005
 43
0.0000000001
 40
0.0
 40
0.0
 40
0.0
 40
0.0
 40
0.2500000018017
 40
0.5000000006183
 40
0.6250000000267
 40
0.7499999994350001
 40
0.8749999988432999
 40
1.0
 40
1.0
 40
1.0
 40
1.0
 10
379.3728995873699
 20
152.582342439704
 30
0.0
 41
1.0
 10
379.3708837632564
 20
152.582342439714
 30
0.0
 41
1.0
 10
379.3670041508607
 20
152.581637630154
 30
0.0
 41
1.0
 10
379.362422854921
 20
152.578924299294
 30
0.0
 41
1.0
 10
379.3588535181552
 20
152.575584498624
 30
0.0
 41
1.0
 10
379.3562074002427
 20
152.572482777334
 30
0.0
 41
1.0
 10
379.3535764245142
 20
152.568764046914
 30
0.0
 41
1.0
 10
379.3518191942349
 20
152.565875491614
 30
0.0
 41
1.0
 10
379.3509380904225
 20
152.564320328244
 30
0.0
 41
1.0
  0
ARC
  5
2D6
330
240
100
AcDbEntity
  8
DV3_Default
  6
Continuous
 62
     7
100
AcDbCircle
 10
379.5812706304
 20
152.4605576377
 30
0.0
 40
0.2526257606458661
100
AcDbArc
 50
155.7488736587
 51
182.7382830268
  0
ARC
  5
2D7
330
240
100
AcDbEntity
  8
DV3_Default
  6
Continuous
 62
     7
100
AcDbCircle
 10
379.581735069
 20
151.1042154692
 30
0.0
 40
0.2530853828026682
100
AcDbArc
 50
177.2871458295
 51
204.2260486162
  0
SPLINE
  5
2D8
330
240
100
AcDbEntity
  8
DV3_Default
  6
Continuous
 62
     7
100
AcDbSpline
210
0.0
220
0.0
230
1.0
 70
    12
 71
     3
 72
    13
 73
     9
 74
     0
 42
0.0000003336288256
 43
0.0000000001
 40
0.0
 40
0.0
 40
0.0
 40
0.0
 40
0.1249999998158
 40
0.249999999631
 40
0.3749999994462
 40
0.4999999992614
 40
0.7499999988917999
 40
1.0
 40
1.0
 40
1.0
 40
1.0
 10
379.350937990385
 20
151.000365002284
 30
0.0
 41
1.0
 10
379.351819123135
 20
150.998809797554
 30
0.0
 41
1.0
 10
379.3535764061181
 20
150.995921142044
 30
0.0
 41
1.0
 10
379.3562074670663
 20
150.992202322014
 30
0.0
 41
1.0
 10
379.3588536674144
 20
150.989100515364
 30
0.0
 41
1.0
 10
379.3624231147548
 20
150.985760627504
 30
0.0
 41
1.0
 10
379.3670045513982
 20
150.983047215704
 30
0.0
 41
1.0
 10
379.3708842838113
 20
150.982342409904
 30
0.0
 41
1.0
 10
379.3729001709655
 20
150.982342409904
 30
0.0
 41
1.0
  0
ARC
  5
2D9
330
240
100
AcDbEntity
  8
DV3_Default
  6
Continuous
 62
     7
100
AcDbCircle
 10
380.7135060073
 20
150.982027485
 30
0.0
 40
0.1998143281868313
100
AcDbArc
 50
314.8132969138
 51
0.0903032155
  0
ARC
  5
2DA
330
240
100
AcDbEntity
  8
DV3_Default
  6
Continuous
 62
     7
100
AcDbCircle
 10
359.1152619607
 20
150.982027485
 30
0.0
 40
0.1998143282750303
100
AcDbArc
 50
179.9096967982
 51
225.1867030799
  0
LINE
  5
2DB
330
240
100
AcDbEntity
  8
DV3_Default
  6
Continuous
 62
     7
100
AcDbLine
 10
358.9148204392
 20
152.5823424397
 30
0.0
 11
358.9148204392
 21
150.9823424099
 31
0.0
  0
ARC
  5
2DC
330
240
100
AcDbEntity
  8
DV3_Default
  6
Continuous
 62
     7
100
AcDbCircle
 10
359.1152619606
 20
152.5826573647
 30
0.0
 40
0.19981432814669
100
AcDbArc
 50
134.8132969188
 51
180.0903032284
  0
LINE
  5
2DD
330
240
100
AcDbEntity
  8
DV3_Default
  6
Continuous
 62
     7
100
AcDbLine
 10
380.9139475288
 20
150.9823424099
 30
0.0
 11
380.9139475288
 21
152.5823424397
 31
0.0
  0
ARC
  5
2DE
330
240
100
AcDbEntity
  8
DV3_Default
  6
Continuous
 62
     7
100
AcDbCircle
 10
380.7135060073
 20
152.5826573647
 30
0.0
 40
0.1998143281465144
100
AcDbArc
 50
359.9096967711
 51
45.1867030807
  0
SPLINE
  5
2DF
330
240
100
AcDbEntity
  8
DV3_Default
  6
Continuous
 62
     7
100
AcDbSpline
210
0.0
220
0.0
230
1.0
 70
     8
 71
     3
 72
    20
 73
    16
 74
     0
 42
0.0000000002340779
 43
0.0000000001
 40
0.0
 40
0.0
 40
0.0
 40
0.0
 40
0.1234621153936286
 40
0.2777827152058315
 40
0.3540353311736235
 40
0.4038086045096266
 40
0.5166127839241395
 40
0.5683617675123352
 40
0.6182555124880078
 40
0.6678803313844254
 40
0.7203457059272432
 40
0.7779184345456728
 40
0.844715943927824
 40
0.9188462026170098
 40
1.0
 40
1.0
 40
1.0
 40
1.0
 10
348.6629261469181
 20
113.99037942965
 30
0.0
 10
350.4113531979896
 20
114.1143801334392
 30
0.0
 10
354.3452133268104
 20
114.3933876490093
 30
0.0
 10
359.3564032871132
 20
114.7721931486372
 30
0.0
 10
363.3269220993334
 20
115.0670287313804
 30
0.0
 10
366.7013493856304
 20
115.3582914785251
 30
0.0
 10
369.7434613509418
 20
115.7685501759477
 30
0.0
 10
372.5943122573897
 20
116.888450152316
 30
0.0
 10
374.3979095440073
 20
118.0890296956949
 30
0.0
 10
375.8691021864656
 20
119.697045706228
 30
0.0
 10
376.9555873332173
 20
121.7116439317036
 30
0.0
 10
377.6201048259921
 20
124.1503655512164
 30
0.0
 10
377.8939253081595
 20
126.9623816712934
 30
0.0
 10
377.9416495958563
 20
130.1151902156976
 30
0.0
 10
377.9512880012462
 20
132.319681056583
 30
0.0
 10
377.956303029063
 20
133.47178177591
 30
0.0
  0
ARC
  5
2E0
330
240
100
AcDbEntity
  8
DV3_Default
  6
Continuous
 62
     7
100
AcDbCircle
 10
-1097.3501368208
 20
146.4623029338
 30
0.0
 40
1475.363631482935
100
AcDbArc
 50
359.4955063025
 51
0.1483509676
  0
LINE
  5
2E1
330
240
100
AcDbEntity
  8
DV3_Default
  6
Continuous
 62
     7
100
AcDbLine
 10
378.0085492289
 20
150.282329113
 30
0.0
 11
361.8467384624
 21
150.2823295807
 31
0.0
  0
SPLINE
  5
2E2
330
240
100
AcDbEntity
  8
DV3_Default
  6
Continuous
 62
     7
100
AcDbSpline
210
0.0
220
0.0
230
1.0
 70
     8
 71
     3
 72
    23
 73
    19
 74
     0
 42
0.0000000004229578
 43
0.0000000001
 40
0.0
 40
0.0
 40
0.0
 40
0.0
 40
0.1083094654572637
 40
0.1840523096571203
 40
0.2196901477997557
 40
0.253528224089229
 40
0.3062037273612427
 40
0.3553733331559655
 40
0.4079691501827844
 40
0.4522484940033833
 40
0.4780774888039643
 40
0.5049395879301539
 40
0.5618984706751562
 40
0.6236862365663126
 40
0.6900203834461734
 40
0.7606825637178247
 40
0.8357124307157292
 40
1.0
 40
1.0
 40
1.0
 40
1.0
 10
361.8467384624134
 20
150.28232958072
 30
0.0
 10
361.8457618254686
 20
149.4307871634287
 30
0.0
 10
361.8441208504799
 20
147.9837451301258
 30
0.0
 10
361.8506018855501
 20
146.2565919736263
 30
0.0
 10
361.8426086459851
 20
145.1147651144024
 30
0.0
 10
361.8041913552063
 20
144.1551428391971
 30
0.0
 10
361.6737195897422
 20
143.0925025654994
 30
0.0
 10
361.2868444254393
 20
141.9290512220001
 30
0.0
 10
360.6053738025224
 20
140.9769800374022
 30
0.0
 10
359.8195479526619
 20
140.3969107388945
 30
0.0
 10
359.1297532393246
 20
140.0687816973818
 30
0.0
 10
358.3117218162076
 20
139.7911409196027
 30
0.0
 10
357.1813057429325
 20
139.5880652867241
 30
0.0
 10
355.7379154972886
 20
139.4095348841349
 30
0.0
 10
354.1833963375099
 20
139.2455477815223
 30
0.0
 10
352.5232237331575
 20
139.0966408668889
 30
0.0
 10
350.0950442493005
 20
138.8892506143346
 30
0.0
 10
348.2195268908643
 20
138.7392603972713
 30
0.0
 10
346.9320149692799
 20
138.63628857463
 30
0.0
  0
SPLINE
  5
2E3
330
240
100
AcDbEntity
  8
DV3_Default
  6
Continuous
 62
     7
100
AcDbSpline
210
0.0
220
0.0
230
1.0
 70
     8
 71
     3
 72
    11
 73
     7
 74
     0
 42
0.0000000371651417
 43
0.0000000001
 40
0.0
 40
0.0
 40
0.0
 40
0.0
 40
0.2500020604395181
 40
0.5000064320614459
 40
0.7598716145151578
 40
1.0
 40
1.0
 40
1.0
 40
1.0
 10
346.9320149692799
 20
138.63628857463
 30
0.0
 10
346.8996299809652
 20
138.6328195338855
 30
0.0
 10
346.8348608541272
 20
138.6258693695422
 30
0.0
 10
346.753023174572
 20
138.6054595746206
 30
0.0
 10
346.6977132687953
 20
138.5808180909938
 30
0.0
 10
346.6915526903412
 20
138.5640358209014
 30
0.0
 10
346.6885939925962
 20
138.55597591836
 30
0.0
  0
SPLINE
  5
2E4
330
240
100
AcDbEntity
  8
DV3_Default
  6
Continuous
 62
     7
100
AcDbSpline
210
0.0
220
0.0
230
1.0
 70
     8
 71
     3
 72
    11
 73
     7
 74
     0
 42
0.0000000375521015
 43
0.0000000001
 40
0.0
 40
0.0
 40
0.0
 40
0.0
 40
0.2500000800393956
 40
0.5000053355766427
 40
0.7598857718158738
 40
1.0
 40
1.0
 40
1.0
 40
1.0
 10
348.6629261469181
 20
113.99037942965
 30
0.0
 10
348.6302413387614
 20
113.9887233104097
 30
0.0
 10
348.5648719446777
 20
113.9853990016979
 30
0.0
 10
348.480484176112
 20
113.9919619799745
 30
0.0
 10
348.4219797959373
 20
114.0056579368649
 30
0.0
 10
348.4136202672378
 20
114.0190650741407
 30
0.0
 10
348.4096057398973
 20
114.02550363162
 30
0.0
  0
SPLINE
  5
2E5
330
240
100
AcDbEntity
  8
DV3_Default
  6
Continuous
 62
     7
100
AcDbSpline
210
0.0
220
0.0
230
1.0
 70
     8
 71
     3
 72
    22
 73
    18
 74
     0
 42
0.0000000001645567
 43
0.0000000001
 40
0.0
 40
0.0
 40
0.0
 40
0.0
 40
0.0650418616551906
 40
0.161923189119792
 40
0.2402396475429365
 40
0.2711797926893391
 40
0.3148337200345404
 40
0.3992651368440285
 40
0.4447752168464348
 40
0.5002535998211973
 40
0.5481630212309788
 40
0.5898938768188252
 40
0.646775371483447
 40
0.7009148134408264
 40
0.754169626877718
 40
0.8184878592943992
 40
1.0
 40
1.0
 40
1.0
 40
1.0
 10
378.6640359220761
 20
150.28234311511
 30
0.0
 10
378.6640742659964
 20
148.9689024023169
 30
0.0
 10
378.6641647119387
 20
145.6990619715043
 30
0.0
 10
378.6633509198915
 20
140.8476485519441
 30
0.0
 10
378.6714650827826
 20
136.6851072975537
 30
0.0
 10
378.677755977337
 20
133.5971642358971
 30
0.0
 10
378.679398804876
 20
130.3867366331108
 30
0.0
 10
378.7049190582724
 20
126.8758124824961
 30
0.0
 10
378.2548355412658
 20
123.1496554264578
 30
0.0
 10
377.2591853095008
 20
120.2641471465635
 30
0.0
 10
375.4528135481677
 20
117.8945393329668
 30
0.0
 10
373.0301500360992
 20
116.1381259349303
 30
0.0
 10
370.0865082639617
 20
115.0887979803523
 30
0.0
 10
366.7999577220512
 20
114.5988335763059
 30
0.0
 10
363.3436042028859
 20
114.3179459232053
 30
0.0
 10
357.3212494230849
 20
113.8619563888952
 30
0.0
 10
352.369821153374
 20
113.5050028855638
 30
0.0
 10
348.713867332565
 20
113.24144996652
 30
0.0
  0
LINE
  5
2E6
330
240
100
AcDbEntity
  8
DV3_Default
  6
Continuous
 62
     7
100
AcDbLine
 10
361.9954550346
 20
150.7823424099
 30
0.0
 11
377.8589225634
 21
150.7823424099
 31
0.0
  0
ARC
  5
2E7
330
240
100
AcDbEntity
  8
DV3_Default
  6
Continuous
 62
     7
100
AcDbCircle
 10
361.6785027504
 20
150.2938140827
 30
0.0
 40
0.4886623179749119
100
AcDbArc
 50
91.3417776392
 51
102.4950694029
  0
LINE
  5
2E8
330
240
100
AcDbEntity
  8
DV3_Default
  6
Continuous
 62
     7
100
AcDbLine
 10
359.919034007
 20
150.2821834717
 30
0.0
 11
361.1899774938
 21
150.2822410665
 31
0.0
  0
SPLINE
  5
2E9
330
240
100
AcDbEntity
  8
DV3_Default
  6
Continuous
 62
     7
100
AcDbSpline
210
0.0
220
0.0
230
1.0
 70
     8
 71
     3
 72
    17
 73
    13
 74
     0
 42
0.000000000438746
 43
0.0000000001
 40
0.0
 40
0.0
 40
0.0
 40
0.0
 40
0.3107928857610019
 40
0.3650532761943632
 40
0.4439477867676428
 40
0.5481411763338644
 40
0.5963625261440437
 40
0.6390000177066083
 40
0.684317759085807
 40
0.7344217322558096
 40
0.806019425358225
 40
1.0
 40
1.0
 40
1.0
 40
1.0
 10
346.8828438742575
 20
139.34146339073
 30
0.0
 10
349.2272383645576
 20
139.4985684617544
 30
0.0
 10
351.9809334986688
 20
139.6831035240641
 30
0.0
 10
355.3331728902605
 20
139.9029394303527
 30
0.0
 10
357.1152061041963
 20
140.0042326068772
 30
0.0
 10
358.8837314469582
 20
140.3858516431696
 30
0.0
 10
360.0631982660231
 20
141.3125993901479
 30
0.0
 10
360.6587489809622
 20
142.1677583893849
 30
0.0
 10
361.0129615943272
 20
143.1611562190228
 30
0.0
 10
361.1812268883995
 20
144.4184204668084
 30
0.0
 10
361.1983160754293
 20
146.8073760365438
 30
0.0
 10
361.1934728534758
 20
148.8154945874575
 30
0.0
 10
361.1899774938418
 20
150.28224106652
 30
0.0
  0
SPLINE
  5
2EA
330
240
100
AcDbEntity
  8
DV3_Default
  6
Continuous
 62
     7
100
AcDbSpline
210
0.0
220
0.0
230
1.0
 70
    12
 71
     3
 72
    10
 73
     6
 74
     0
 42
0.000000012497456
 43
0.0000000001
 40
0.0
 40
0.0
 40
0.0
 40
0.0
 40
0.3358851532796487
 40
0.9396259230254224
 40
1.0
 40
1.0
 40
1.0
 40
1.0
 10
346.5793822228977
 20
139.4946507030062
 30
0.0
 41
1.0
 10
346.5703433914207
 20
139.6483930305828
 30
0.0
 41
1.0
 10
346.5494419005066
 20
140.0154033579504
 30
0.0
 41
1.0
 10
346.5396817119951
 20
140.225684486207
 30
0.0
 41
1.0
 10
346.5385894134756
 20
140.2886289375041
 30
0.0
 41
1.0
 10
346.5385346430475
 20
140.2937172209325
 30
0.0
 41
1.0
  0
SPLINE
  5
2EB
330
240
100
AcDbEntity
  8
DV3_Default
  6
Continuous
 62
     7
100
AcDbSpline
210
0.0
220
0.0
230
1.0
 70
     8
 71
     3
 72
    11
 73
     7
 74
     0
 42
0.0000000113740932
 43
0.0000000001
 40
0.0
 40
0.0
 40
0.0
 40
0.0
 40
0.1764080684836419
 40
0.5532737773361017
 40
0.9301394861885613
 40
1.0
 40
1.0
 40
1.0
 40
1.0
 10
348.4761806851599
 20
112.9840893251354
 30
0.0
 10
348.4832936028035
 20
112.861910332969
 30
0.0
 10
348.5021831816088
 20
112.5279274819013
 30
0.0
 10
348.5165672884285
 20
112.21730449168
 30
0.0
 10
348.510003303401
 20
112.2169903234422
 30
0.0
 10
348.5002542982277
 20
112.3051403348679
 30
0.0
 10
348.4985750840711
 20
112.3211260507907
 30
0.0
  0
ELLIPSE
  5
2EC
330
240
100
AcDbEntity
  8
DV3_Default
  6
Continuous
 62
     7
100
AcDbEllipse
 10
346.868738838
 20
135.8474911121
 30
0.0
 11
-0.2099689389307713
 21
2.992643153582504
 31
0.0
210
0.0
220
0.0
230
1.0
 40
0.0028819121
 41
-1.401883145458935
 42
-0.2278939809500562
  0
ELLIPSE
  5
2ED
330
240
100
AcDbEntity
  8
DV3_Default
  6
Continuous
 62
     7
100
AcDbEllipse
 10
348.2122293269
 20
116.6963330801
 30
0.0
 11
0.2099689389308268
 21
-2.992643153582511
 31
0.0
210
0.0
220
0.0
230
0.9999999999999999
 40
0.0028819121
 41
0.2252759536254739
 42
1.397098714229073
  0
LINE
  5
2EE
330
240
100
AcDbEntity
  8
DV3_Default
  6
Continuous
 62
     7
100
AcDbLine
 10
378.6640359221
 20
150.2823425859
 30
0.0
 11
379.9193297245
 21
150.282353491
 31
0.0
  0
ARC
  5
2EF
330
240
100
AcDbEntity
  8
DV3_Default
  6
Continuous
 62
     7
100
AcDbCircle
 10
361.3411387994
 20
129.5355928965
 30
0.0
 40
21.23817525952103
100
AcDbArc
 50
89.3759955181
 51
91.7309483204
  0
ARC
  5
2F0
330
240
100
AcDbEntity
  8
DV3_Default
  6
Continuous
 62
     7
100
AcDbCircle
 10
361.3411387994
 20
129.5355928965
 30
0.0
 40
21.23817525952103
100
AcDbArc
 50
91.7602375774
 51
93.0040073725
  0
ARC
  5
2F1
330
240
100
AcDbEntity
  8
DV3_Default
  6
Continuous
 62
     7
100
AcDbCircle
 10
360.4191054468
 20
150.2824159711
 30
0.0
 40
0.5000727852442874
100
AcDbArc
 50
112.6438931331
 51
180.5969759725
  0
SPLINE
  5
2F2
330
240
100
AcDbEntity
  8
DV3_Default
  6
Continuous
 62
     7
100
AcDbSpline
210
0.0
220
0.0
230
1.0
 70
     8
 71
     3
 72
    29
 73
    25
 74
     0
 42
0.0000000004802749
 43
0.0000000001
 40
0.0
 40
0.0
 40
0.0
 40
0.0
 40
0.076130600729007
 40
0.1518167502488484
 40
0.2196338051428748
 40
0.263730327578574
 40
0.3006761588011571
 40
0.3304179651004425
 40
0.3542041710393583
 40
0.3734603363322649
 40
0.3894281973710753
 40
0.4138600073289095
 40
0.4338083658476766
 40
0.4528187138988312
 40
0.4653665686855984
 40
0.4822644960780251
 40
0.505292419922105
 40
0.5352449905663418
 40
0.5726134762119918
 40
0.6169887246752844
 40
0.6950146006344256
 40
0.7860221523525753
 40
0.890118408599879
 40
1.0
 40
1.0
 40
1.0
 40
1.0
 10
359.9189893798228
 20
150.2821834826872
 30
0.0
 10
359.918801192215
 20
149.7014040620007
 30
0.0
 10
359.9187730335536
 20
148.7258072836796
 30
0.0
 10
359.9184941084565
 20
147.1722398564332
 30
0.0
 10
359.9229733884739
 20
145.8779932134613
 30
0.0
 10
359.9080297043549
 20
144.8445727077099
 30
0.0
 10
359.8589032077949
 20
144.0772585195154
 30
0.0
 10
359.752212775758
 20
143.4572362624067
 30
0.0
 10
359.5968672293151
 20
142.9748352716726
 30
0.0
 10
359.4084930264568
 20
142.6093863476954
 30
0.0
 10
359.1622115502825
 20
142.2751936457507
 30
0.0
 10
358.8499537970238
 20
141.9903124412727
 30
0.0
 10
358.4709456646049
 20
141.7639549707477
 30
0.0
 10
358.1402853243061
 20
141.6263460152329
 30
0.0
 10
357.8195494667398
 20
141.5254635104571
 30
0.0
 10
357.4655601013644
 20
141.4397648835053
 30
0.0
 10
356.9876468760543
 20
141.3575353449392
 30
0.0
 10
356.365046455969
 20
141.2851858894677
 30
0.0
 10
355.5928964488718
 20
141.2220507338885
 30
0.0
 10
354.4880836439693
 20
141.1412317285071
 30
0.0
 10
353.0100642078271
 20
141.0338555449964
 30
0.0
 10
351.1300508618274
 20
140.8979263263808
 30
0.0
 10
348.979031178996
 20
140.7457788539982
 30
0.0
 10
347.6082218641943
 20
140.6500465672951
 30
0.0
 10
346.7719948468253
 20
140.5917565781009
 30
0.0
  0
SPLINE
  5
2F3
330
240
100
AcDbEntity
  8
DV3_Default
  6
Continuous
 62
     7
100
AcDbSpline
210
0.0
220
0.0
230
1.0
 70
     8
 71
     3
 72
    12
 73
     8
 74
     0
 42
0.0000000273180346
 43
0.0000000001
 40
0.0
 40
0.0
 40
0.0
 40
0.0
 40
0.0457023643901617
 40
0.0943477503882368
 40
0.2013681410932412
 40
0.4774933742419504
 40
1.0
 40
1.0
 40
1.0
 40
1.0
 10
346.7742720850453
 20
140.591757519732
 30
0.0
 10
346.7539326087007
 20
140.5892005240542
 30
0.0
 10
346.71850251055
 20
140.5844529675481
 30
0.0
 10
346.651160101926
 20
140.5556115512738
 30
0.0
 10
346.5646029331515
 20
140.474944892821
 30
0.0
 10
346.5528701344661
 20
140.4054476969
 30
0.0
 10
346.5410351763007
 20
140.3753049204882
 30
0.0
 10
346.5484055230024
 20
140.3618155233216
 30
0.0
  0
SPLINE
  5
2F4
330
240
100
AcDbEntity
  8
DV3_Default
  6
Continuous
 62
     7
100
AcDbSpline
210
0.0
220
0.0
230
1.0
 70
     8
 71
     3
 72
    42
 73
    38
 74
     0
 42
0.0000000001599743
 43
0.0000000001
 40
0.0
 40
0.0
 40
0.0
 40
0.0
 40
0.0455259786291779
 40
0.0933504609492789
 40
0.1374319817589881
 40
0.1777687497931572
 40
0.214347358098852
 40
0.2472857561211147
 40
0.2767675456825012
 40
0.2998253715694703
 40
0.3202713350581922
 40
0.3380127630325381
 40
0.3529245324902689
 40
0.3627336532160697
 40
0.3716470864816409
 40
0.3822010812481721
 40
0.3945434787383493
 40
0.4087016659467141
 40
0.4219032908138214
 40
0.4363845791783568
 40
0.4521341911464923
 40
0.4691206657368207
 40
0.4872948602541883
 40
0.5065909062837864
 40
0.5269118636615097
 40
0.548142841192177
 40
0.5701568576076627
 40
0.5928551507214666
 40
0.6161892161511314
 40
0.6401582140710868
 40
0.6828259621978598
 40
0.7280265533320116
 40
0.7762517084083601
 40
0.827568164721605
 40
0.8819626503060461
 40
0.939439587116857
 40
1.0
 40
1.0
 40
1.0
 40
1.0
 10
348.7781444682807
 20
112.0007481781691
 30
0.0
 10
349.8186614260477
 20
112.0741862022831
 30
0.0
 10
351.6173031483128
 20
112.2012717667474
 30
0.0
 10
354.5304079789461
 20
112.4124938588615
 30
0.0
 10
357.2631689255613
 20
112.6135262615889
 30
0.0
 10
359.7796667180054
 20
112.8035752412688
 30
0.0
 10
362.0606376956279
 20
112.9750631910647
 30
0.0
 10
364.1167279310581
 20
113.1343525107673
 30
0.0
 10
365.890822222767
 20
113.2852015260322
 30
0.0
 10
367.4021570272533
 20
113.4516168333066
 30
0.0
 10
368.6647781714526
 20
113.6363138342978
 30
0.0
 10
369.7512053063003
 20
113.8458500762866
 30
0.0
 10
370.6106937823741
 20
114.0561762448545
 30
0.0
 10
371.2832408535458
 20
114.2529401403144
 30
0.0
 10
371.8619134063437
 20
114.4457365243837
 30
0.0
 10
372.4814865165469
 20
114.6812378544365
 30
0.0
 10
373.18792553278
 20
114.9932154372994
 30
0.0
 10
373.9215484196329
 20
115.3765230674818
 30
0.0
 10
374.6634509845763
 20
115.8352060359024
 30
0.0
 10
375.3951374235938
 20
116.3689625325004
 30
0.0
 10
376.1376630987016
 20
117.0159739978344
 30
0.0
 10
376.868353067568
 20
117.7869017467003
 30
0.0
 10
377.5611275995059
 20
118.6877475192827
 30
0.0
 10
378.1892884733114
 20
119.7174222794946
 30
0.0
 10
378.7283772583261
 20
120.8672325233359
 30
0.0
 10
379.1617530052191
 20
122.1207683613832
 30
0.0
 10
379.4835987591088
 20
123.4580138741536
 30
0.0
 10
379.7005389018804
 20
124.8599674727959
 30
0.0
 10
379.8304217464361
 20
126.3129946882789
 30
0.0
 10
379.9094897576815
 20
128.1857969230489
 30
0.0
 10
379.9212026184111
 20
130.5155206720745
 30
0.0
 10
379.9188669559128
 20
133.3504207954225
 30
0.0
 10
379.919455112228
 20
136.3643133650748
 30
0.0
 10
379.9192912568645
 20
139.5748956460848
 30
0.0
 10
379.9193211795879
 20
142.9569053561016
 30
0.0
 10
379.9193362005728
 20
146.6178482340003
 30
0.0
 10
379.919332460094
 20
148.8947761007671
 30
0.0
 10
379.9193296627678
 20
150.2823554742752
 30
0.0
  0
SPLINE
  5
2F5
330
240
100
AcDbEntity
  8
DV3_Default
  6
Continuous
 62
     7
100
AcDbSpline
210
0.0
220
0.0
230
1.0
 70
     8
 71
     3
 72
    13
 73
     9
 74
     0
 42
0.0000000223881725
 43
0.0000000001
 40
0.0
 40
0.0
 40
0.0
 40
0.0
 40
0.2857366768205007
 40
0.7019737574013443
 40
0.8742206766439192
 40
0.9410439985837898
 40
0.9714361283516237
 40
1.0
 40
1.0
 40
1.0
 40
1.0
 10
348.5086296320674
 20
112.2787117235965
 30
0.0
 10
348.5108526474791
 20
112.2535893156884
 30
0.0
 10
348.5169164719406
 20
112.1964107256193
 30
0.0
 10
348.5300621616375
 20
112.1659529731214
 30
0.0
 10
348.5565843378459
 20
112.0869195193683
 30
0.0
 10
348.6533800158355
 20
112.0193241836596
 30
0.0
 10
348.7240061207431
 20
112.000194917728
 30
0.0
 10
348.7597028980287
 20
112.0004312465497
 30
0.0
 10
348.7801768190752
 20
112.0007334954044
 30
0.0
  0
ARC
  5
2F6
330
240
100
AcDbEntity
  8
DV3_Default
  6
Continuous
 62
     7
100
AcDbCircle
 10
379.4193367722
 20
150.282415826
 30
0.0
 40
0.5000728998063569
100
AcDbArc
 50
359.4211767951
 51
67.360517726
  0
ARC
  5
2F7
330
240
100
AcDbEntity
  8
DV3_Default
  6
Continuous
 62
     7
100
AcDbCircle
 10
378.5168325194
 20
130.9497626882
 30
0.0
 40
19.82390540700452
100
AcDbArc
 50
86.8292266904
 51
87.9556134425
  0
ARC
  5
2F8
330
240
100
AcDbEntity
  8
DV3_Default
  6
Continuous
 62
     7
100
AcDbCircle
 10
378.5168325194
 20
130.9497626882
 30
0.0
 40
19.82390540700452
100
AcDbArc
 50
88.1699700609
 51
90.6868105754
  0
SPLINE
  5
2F9
330
240
100
AcDbEntity
  8
DV3_Default
  6
Continuous
 62
     7
100
AcDbSpline
210
0.0
220
0.0
230
1.0
 70
     8
 71
     2
 72
     6
 73
     3
 74
     0
 42
0.0000000079494551
 43
0.0000000001
 40
0.0
 40
0.0
 40
0.0
 40
1.0
 40
1.0
 40
1.0
 10
346.5383557566611
 20
140.5752419747019
 30
0.0
 10
346.5418303534195
 20
140.5753996859509
 30
0.0
 10
346.6330980650295
 20
139.32425445923
 30
0.0
  0
ARC
  5
2FA
330
240
100
AcDbEntity
  8
DV3_Default
  6
Continuous
 62
     7
100
AcDbCircle
 10
-155.3259896451
 20
103.3382810352
 30
0.0
 40
503.2473706022103
100
AcDbArc
 50
4.0198536279
 51
4.1005790036
  0
SPLINE
  5
2FB
330
240
100
AcDbEntity
  8
DV3_Default
  6
Continuous
 62
     7
100
AcDbSpline
210
0.0
220
0.0
230
1.0
 70
     8
 71
     3
 72
    20
 73
    16
 74
     0
 42
0.0000000004047928
 43
0.0000000001
 40
0.0
 40
0.0
 40
0.0
 40
0.0
 40
0.0918520906336958
 40
0.1811226358360427
 40
0.2680025892259369
 40
0.3526565544028153
 40
0.4938843134764068
 40
0.6168104686400263
 40
0.7225438409830236
 40
0.816165607023557
 40
0.8620890381415617
 40
0.9080705790875812
 40
0.931059647436586
 40
0.9540433126639214
 40
1.0
 40
1.0
 40
1.0
 40
1.0
 10
348.4122972738413
 20
113.97358192437
 30
0.0
 10
348.360143265909
 20
114.7191580297353
 30
0.0
 10
348.2573011233742
 20
116.1893546616875
 30
0.0
 10
348.1038314770572
 20
118.382539278188
 30
0.0
 10
347.9535448588016
 20
120.5260648639645
 30
0.0
 10
347.772585072476
 20
123.1059076954025
 30
0.0
 10
347.570218583946
 20
125.9921923152815
 30
0.0
 10
347.3553807126629
 20
129.0531570297801
 30
0.0
 10
347.1685412797331
 20
131.7138974164971
 30
0.0
 10
347.0267272294585
 20
133.7325115166067
 30
0.0
 10
346.9197733834122
 20
135.2544218763468
 30
0.0
 10
346.853706285005
 20
136.1943019953758
 30
0.0
 10
346.8010029552711
 20
136.9438609595966
 30
0.0
 10
346.7484253669164
 20
137.6914993534537
 30
0.0
 10
346.7093495688901
 20
138.246816828364
 30
0.0
 10
346.6833013245405
 20
138.61699697299
 30
0.0
  0
ARC
  5
2FC
330
240
100
AcDbEntity
  8
DV3_Default
  6
Continuous
 62
     7
100
AcDbCircle
 10
-16.6782912243
 20
88.2810868354
 30
0.0
 40
365.993500097757
100
AcDbArc
 50
3.9077961918
 51
4.0254356163
  0
SPLINE
  5
2FD
330
240
100
AcDbEntity
  8
DV3_Default
  6
Continuous
 62
     7
100
AcDbSpline
210
0.0
220
0.0
230
1.0
 70
     8
 71
     3
 72
     8
 73
     4
 74
     0
 42
0.0000000080336516
 43
0.0000000001
 40
0.0
 40
0.0
 40
0.0
 40
0.0
 40
0.9999999999999999
 40
0.9999999999999999
 40
0.9999999999999999
 40
0.9999999999999999
 10
348.5444581984308
 20
111.9840162565203
 30
0.0
 10
348.5467546020279
 20
111.9841510852526
 30
0.0
 10
348.5200267982912
 20
112.3974345576826
 30
0.0
 10
348.4642829505969
 20
113.2238734837417
 30
0.0
  0
SPLINE
  5
2FE
330
240
100
AcDbEntity
  8
DV3_Default
  6
Continuous
 62
     7
100
AcDbSpline
210
0.0
220
0.0
230
1.0
 70
     8
 71
     3
 72
    19
 73
    15
 74
     0
 42
0.0000000004047707
 43
0.0000000001
 40
0.0
 40
0.0
 40
0.0
 40
0.0
 40
0.0236592659595033
 40
0.0473712285258184
 40
0.0711614768321388
 40
0.0950013949916559
 40
0.1425985959225107
 40
0.1897749866642811
 40
0.2842830805289568
 40
0.3884890408315038
 40
0.5102459898227151
 40
0.6534117797246641
 40
0.8220638690192397
 40
1.0
 40
1.0
 40
1.0
 40
1.0
 10
53.17193275672302
 20
138.61701608454
 30
0.0
 10
53.15862764745607
 20
138.426815036447
 30
0.0
 10
53.13198833779995
 20
138.0459946641531
 30
0.0
 10
53.09164347293313
 20
137.4694574183889
 30
0.0
 10
53.05104609492881
 20
136.8894690743711
 30
0.0
 10
52.99667600211663
 20
136.1128966339161
 30
0.0
 10
52.92870979008229
 20
135.1423736548214
 30
0.0
 10
52.8199148800422
 20
133.5892398891106
 30
0.0
 10
52.67808371283117
 20
131.5651627951942
 30
0.0
 10
52.492586020534
 20
128.9190397663527
 30
0.0
 10
52.27829140438378
 20
125.8641184067987
 30
0.0
 10
52.02660642772694
 20
122.2775660317979
 30
0.0
 10
51.74265003823184
 20
118.2395750602036
 30
0.0
 10
51.54454870683944
 20
115.4202819216818
 30
0.0
 10
51.44217715663827
 20
113.9723022049
 30
0.0
  0
ARC
  5
2FF
330
240
100
AcDbEntity
  8
DV3_Default
  6
Continuous
 62
     7
100
AcDbCircle
 10
-248.1834694461
 20
159.8682634072
 30
0.0
 40
302.1037800981379
100
AcDbArc
 50
356.009502838
 51
356.1006991936
  0
SPLINE
  5
300
330
240
100
AcDbEntity
  8
DV3_Default
  6
Continuous
 62
     7
100
AcDbSpline
210
0.0
220
0.0
230
1.0
 70
     8
 71
     2
 72
     6
 73
     3
 74
     0
 42
0.0000000041472148
 43
0.0000000001
 40
0.0
 40
0.0
 40
0.0
 40
1.0
 40
1.0
 40
1.0
 10
53.22097326024159
 20
139.32426509933
 30
0.0
 10
53.337846932376
 20
141.0589165445462
 30
0.0
 10
53.28595997330135
 20
140.388248065594
 30
0.0
  0
SPLINE
  5
301
330
240
100
AcDbEntity
  8
DV3_Default
  6
Continuous
 62
     7
100
AcDbSpline
210
0.0
220
0.0
230
1.0
 70
     8
 71
     3
 72
     8
 73
     4
 74
     0
 42
0.0000000030128372
 43
0.0000000001
 40
0.0
 40
0.0
 40
0.0
 40
0.0
 40
1.0
 40
1.0
 40
1.0
 40
1.0
 10
51.3897029254082
 20
113.22387468206
 30
0.0
 10
51.268968090211
 20
111.5707223660071
 30
0.0
 10
51.26431339321174
 20
111.5707298649028
 30
0.0
 10
51.37582853941233
 20
113.22389352549
 30
0.0
  0
ARC
  5
302
330
240
100
AcDbEntity
  8
DV3_Default
  6
Continuous
 62
     7
100
AcDbCircle
 10
-164.3253858986
 20
128.7242828681
 30
0.0
 40
216.2712699372762
100
AcDbArc
 50
355.8900224485
 51
355.9617586658
  0
SPLINE
  5
303
330
240
100
AcDbEntity
  8
DV3_Default
  6
Continuous
 62
     7
100
AcDbSpline
210
0.0
220
0.0
230
1.0
 70
    12
 71
     3
 72
     8
 73
     4
 74
     0
 42
0.0000000156270024
 43
0.0000000001
 40
0.0
 40
0.0
 40
0.0
 40
0.0
 40
1.0
 40
1.0
 40
1.0
 40
1.0
 10
51.38476513229975
 20
113.2105363235712
 30
0.0
 41
1.0
 10
51.36081263181067
 20
112.8974081566019
 30
0.0
 41
1.0
 10
51.3591080193021
 20
112.9013199235486
 30
0.0
 41
1.0
 10
51.37964334351308
 20
113.2222716528646
 30
0.0
 41
1.0
  0
SPLINE
  5
304
330
240
100
AcDbEntity
  8
DV3_Default
  6
Continuous
 62
     7
100
AcDbSpline
210
0.0
220
0.0
230
1.0
 70
    12
 71
     3
 72
    21
 73
    17
 74
     0
 42
0.0000000004122845
 43
0.0000000001
 40
0.0
 40
0.0
 40
0.0
 40
0.0
 40
0.1051661511918
 40
0.2084540171548
 40
0.3064792098548
 40
0.3961335069996
 40
0.4751783953511
 40
0.5480589929759
 40
0.6167539723095
 40
0.6794213772404001
 40
0.7363068589642999
 40
0.7898350988242
 40
0.8423804707507
 40
0.8949176126985
 40
0.9474639671637001
 40
1.0
 40
1.0
 40
1.0
 40
1.0
 10
51.44293279840301
 20
114.17666678598
 30
0.0
 41
1.0
 10
51.50162403726097
 20
115.0153489234601
 30
0.0
 41
1.0
 10
51.61846182636259
 20
116.6844948644001
 30
0.0
 41
1.0
 10
51.79142411028326
 20
119.154130255
 30
0.0
 41
1.0
 10
51.95649471863645
 20
121.50986379846
 30
0.0
 41
1.0
 10
52.10833476714541
 20
123.6757252221001
 30
0.0
 41
1.0
 10
52.24611727987447
 20
125.64020037544
 30
0.0
 41
1.0
 10
52.37202780975797
 20
127.43468929754
 30
0.0
 41
1.0
 10
52.48860382988238
 20
129.0955248547501
 30
0.0
 41
1.0
 10
52.59606371975769
 20
130.62597900803
 30
0.0
 41
1.0
 10
52.69483869487118
 20
132.0323489498101
 30
0.0
 41
1.0
 10
52.78774270818312
 20
133.3548030653401
 30
0.0
 41
1.0
 10
52.87791156278828
 20
134.6380200502701
 30
0.0
 41
1.0
 10
52.96698998899457
 20
135.9053754854
 30
0.0
 41
1.0
 10
53.0551047872776
 20
137.15857886591
 30
0.0
 41
1.0
 10
53.11244049217009
 20
137.9735920270201
 30
0.0
 41
1.0
 10
53.14050097335276
 20
138.3722839095701
 30
0.0
 41
1.0
  0
SPLINE
  5
305
330
240
100
AcDbEntity
  8
DV3_Default
  6
Continuous
 62
     7
100
AcDbSpline
210
0.0
220
0.0
230
1.0
 70
    12
 71
     3
 72
     8
 73
     4
 74
     0
 42
0.0000000090279232
 43
0.0000000001
 40
0.0
 40
0.0
 40
0.0
 40
0.0
 40
1.0
 40
1.0
 40
1.0
 40
1.0
 10
53.22105902578386
 20
139.455568699557
 30
0.0
 41
1.0
 10
53.24291650421442
 20
139.7330400127461
 30
0.0
 41
1.0
 10
53.23243553224103
 20
139.5496560012516
 30
0.0
 41
1.0
 10
53.18962999868334
 20
138.9054161991418
 30
0.0
 41
1.0
  0
SPLINE
  5
306
330
240
100
AcDbEntity
  8
DV3_Default
  6
Continuous
 62
     7
100
AcDbSpline
210
0.0
220
0.0
230
1.0
 70
    12
 71
     3
 72
     8
 73
     4
 74
     0
 42
0.0000000370919491
 43
0.0000000001
 40
0.0
 40
0.0
 40
0.0
 40
0.0
 40
1.0
 40
1.0
 40
1.0
 40
1.0
 10
53.1719704432978
 20
138.6408462470942
 30
0.0
 41
1.0
 10
53.1663398546244
 20
138.5568155351278
 30
0.0
 41
1.0
 10
53.16031413069519
 20
138.467151019853
 30
0.0
 41
1.0
 10
53.15389329028255
 20
138.3718527006401
 30
0.0
 41
1.0
  0
SPLINE
  5
307
330
240
100
AcDbEntity
  8
DV3_Default
  6
Continuous
 62
     7
100
AcDbSpline
210
0.0
220
0.0
230
1.0
 70
    12
 71
     3
 72
    21
 73
    17
 74
     0
 42
0.0000000004122918
 43
0.0000000001
 40
0.0
 40
0.0
 40
0.0
 40
0.0
 40
0.05415294977824
 40
0.1086104257572
 40
0.1628650646175
 40
0.2165405343681
 40
0.2704792366573
 40
0.3269802300423
 40
0.3884623973859
 40
0.4558640530892
 40
0.5291472124391
 40
0.6097416067518
 40
0.6990813019466
 40
0.7953552194826999
 40
0.8964329208663999
 40
1.0
 40
1.0
 40
1.0
 40
1.0
 10
53.15389329028255
 20
138.3718527006401
 30
0.0
 41
1.0
 10
53.12514986414116
 20
137.96088799841
 30
0.0
 41
1.0
 10
53.06616530949137
 20
137.1179414725501
 30
0.0
 41
1.0
 10
52.97543503034113
 20
135.8220276703701
 30
0.0
 41
1.0
 10
52.88392114906549
 20
134.5153914717301
 30
0.0
 41
1.0
 10
52.79213717380507
 20
133.2052533062601
 30
0.0
 41
1.0
 10
52.69879704185559
 20
131.8732245491901
 30
0.0
 41
1.0
 10
52.60087621673046
 20
130.4761691162501
 30
0.0
 41
1.0
 10
52.4952040065296
 20
128.9689452837101
 30
0.0
 41
1.0
 10
52.37990171304671
 20
127.32489719864
 30
0.0
 41
1.0
 10
52.25363415175025
 20
125.5251679890501
 30
0.0
 41
1.0
 10
52.11482261685713
 20
123.5474456649301
 30
0.0
 41
1.0
 10
51.96305893719846
 20
121.3861484965901
 30
0.0
 41
1.0
 10
51.80002744309797
 20
119.0655016107801
 30
0.0
 41
1.0
 10
51.62962106718646
 20
116.6411055182801
 30
0.0
 41
1.0
 10
51.51439314113815
 20
115.0025879921901
 30
0.0
 41
1.0
 10
51.45629590449175
 20
114.1766680322701
 30
0.0
 41
1.0
  0
ARC
  5
308
330
240
100
AcDbEntity
  8
DV3_Default
  6
Continuous
 62
     7
100
AcDbCircle
 10
200.0011737228
 20
2227.3307507855
 30
0.0
 40
2119.323772536984
100
AcDbArc
 50
265.9789987236
 51
269.9979518144
  0
ARC
  5
309
330
240
100
AcDbEntity
  8
DV3_Default
  6
Continuous
 62
     7
100
AcDbCircle
 10
199.9562215398
 20
2226.8792155903
 30
0.0
 40
2118.119931923307
100
AcDbArc
 50
265.9793515316
 51
269.9991936485
  0
ARC
  5
30A
330
240
100
AcDbEntity
  8
DV3_Default
  6
Continuous
 62
     7
100
AcDbCircle
 10
200.1740315942
 20
2245.063298038
 30
0.0
 40
2111.569453230938
100
AcDbArc
 50
266.007984396
 51
269.9933145673
  0
ARC
  5
30B
330
240
100
AcDbEntity
  8
DV3_Default
  6
Continuous
 62
     7
100
AcDbCircle
 10
200.0154484205
 20
2258.2128378793
 30
0.0
 40
2123.967373053386
100
AcDbArc
 50
266.0369381096
 51
269.9976155601
  0
ARC
  5
30C
330
240
100
AcDbEntity
  8
DV3_Default
  6
Continuous
 62
     7
100
AcDbCircle
 10
199.7860551526
 20
2259.7357501582
 30
0.0
 40
2125.490288169857
100
AcDbArc
 50
270.0038009083
 51
273.9616382574
  0
ARC
  5
30D
330
240
100
AcDbEntity
  8
DV3_Default
  6
Continuous
 62
     7
100
AcDbCircle
 10
199.9823089469
 20
2236.4457603524
 30
0.0
 40
2102.951901881439
100
AcDbArc
 50
269.998510733
 51
274.0001770701
  0
ARC
  5
30E
330
240
100
AcDbEntity
  8
DV3_Default
  6
Continuous
 62
     7
100
AcDbCircle
 10
199.8802792604
 20
2226.872493867
 30
0.0
 40
2118.113210492615
100
AcDbArc
 50
270.0012479139
 51
274.0211486415
  0
ARC
  5
30F
330
240
100
AcDbEntity
  8
DV3_Default
  6
Continuous
 62
     7
100
AcDbCircle
 10
199.8536057443
 20
2227.2872950979
 30
0.0
 40
2119.28031671178
100
AcDbArc
 50
270.0019413448
 51
274.0210622585
  0
ARC
  5
310
330
240
100
AcDbEntity
  8
DV3_Default
  6
Continuous
 62
     7
100
AcDbCircle
 10
199.9440114033
 20
2252.1103469835
 30
0.0
 40
2116.620843951241
100
AcDbArc
 50
266.0272693284
 51
269.999353761
  0
ARC
  5
311
330
240
100
AcDbEntity
  8
DV3_Default
  6
Continuous
 62
     7
100
AcDbCircle
 10
199.8818573651
 20
2252.3918784251
 30
0.0
 40
2116.902692532562
100
AcDbArc
 50
270.0010346209
 51
273.9725878275
  0
ARC
  5
312
330
240
100
AcDbEntity
  8
DV3_Default
  6
Continuous
 62
     7
100
AcDbCircle
 10
199.8917358577
 20
2225.9922344388
 30
0.0
 40
2119.226798526352
100
AcDbArc
 50
270.0007666315
 51
274.022298208
  0
ARC
  5
313
330
240
100
AcDbEntity
  8
DV3_Default
  6
Continuous
 62
     7
100
AcDbCircle
 10
199.9500701443
 20
2226.1149627666
 30
0.0
 40
2119.349487307645
100
AcDbArc
 50
265.9778893949
 51
269.9991881447
  0
LINE
  5
314
330
240
100
AcDbEntity
  8
DV3_Default
  6
Continuous
 62
     7
100
AcDbLine
 10
21.9812020778
 20
150.7823424099
 30
0.0
 11
37.8446515163
 21
150.7823424099
 31
0.0
  0
LINE
  5
315
330
240
100
AcDbEntity
  8
DV3_Default
  6
Continuous
 62
     7
100
AcDbLine
 10
38.6499737812
 20
150.2822244971
 30
0.0
 11
39.91313283
 21
150.2821834974
 31
0.0
  0
LINE
  5
316
330
240
100
AcDbEntity
  8
DV3_Default
  6
Continuous
 62
     7
100
AcDbLine
 10
37.993832225
 20
150.2823206674
 30
0.0
 11
21.8320313533
 21
150.2823293613
 31
0.0
  0
SPLINE
  5
317
330
240
100
AcDbEntity
  8
DV3_Default
  6
Continuous
 62
     7
100
AcDbSpline
210
0.0
220
0.0
230
1.0
 70
     8
 71
     3
 72
    22
 73
    18
 74
     0
 42
0.0000000004222991
 43
0.0000000001
 40
0.0
 40
0.0
 40
0.0
 40
0.0
 40
0.1622401519132014
 40
0.3060694295475828
 40
0.3715080297929024
 40
0.4323761908530919
 40
0.4609419127966402
 40
0.4883173042156753
 40
0.5397457670094933
 40
0.5898952257604104
 40
0.6362325773949353
 40
0.6822285576058934
 40
0.7400505412931161
 40
0.7988433096907754
 40
0.8299513198794346
 40
0.8621387718283763
 40
1.0
 40
1.0
 40
1.0
 40
1.0
 10
52.94103708360823
 20
138.6335781195201
 30
0.0
 10
51.66788992094212
 20
138.7344130890272
 30
0.0
 10
49.26607211858358
 20
138.9246491465309
 30
0.0
 10
46.352920415661
 20
139.1824633894598
 30
0.0
 10
44.23679341321515
 20
139.390077100242
 30
0.0
 10
43.02528576532747
 20
139.5302162551706
 30
0.0
 10
42.11824313199389
 20
139.6836128091994
 30
0.0
 10
41.29369037327788
 20
139.8685399813533
 30
0.0
 10
40.32613827772249
 20
140.1995032714496
 30
0.0
 10
39.35020749477181
 20
140.8684317791127
 30
0.0
 10
38.65399228091185
 20
141.7685876175318
 30
0.0
 10
38.20660160548248
 20
142.8758946444836
 30
0.0
 10
38.02213718807484
 20
144.1512604051416
 30
0.0
 10
37.99435119348168
 20
145.3138196834481
 30
0.0
 10
37.99167335489994
 20
146.2749341065185
 30
0.0
 10
37.99498197990992
 20
147.8584344892335
 30
0.0
 10
37.99435152609221
 20
149.1970684030998
 30
0.0
 10
37.99383222500821
 20
150.2823206673501
 30
0.0
  0
SPLINE
  5
318
330
240
100
AcDbEntity
  8
DV3_Default
  6
Continuous
 62
     7
100
AcDbSpline
210
0.0
220
0.0
230
1.0
 70
     8
 71
     3
 72
    24
 73
    20
 74
     0
 42
0.0000000001678583
 43
0.0000000001
 40
0.0
 40
0.0
 40
0.0
 40
0.0
 40
0.1147953014227456
 40
0.1941815661953433
 40
0.2738569415273511
 40
0.3418224200454528
 40
0.3982418060942585
 40
0.4204041755160157
 40
0.4430423841350195
 40
0.4703100630873367
 40
0.4990170906202017
 40
0.5498166644875647
 40
0.5957960149715088
 40
0.6430839881859218
 40
0.7007893876526721
 40
0.7478264744228447
 40
0.8121188226147452
 40
0.8728805348942013
 40
1.0
 40
1.0
 40
1.0
 40
1.0
 10
21.83203135330822
 20
150.2823293613401
 30
0.0
 10
21.8324648629693
 20
148.0082927361111
 30
0.0
 10
21.83320226148441
 20
144.1616545202327
 30
0.0
 10
21.83787471278983
 20
138.736628236698
 30
0.0
 10
21.88608586504898
 20
134.2395909033239
 30
0.0
 10
21.89235459593333
 20
130.1971658128946
 30
0.0
 10
21.9555089751543
 20
127.2946457004106
 30
0.0
 10
22.08490774295574
 20
125.2922024561213
 30
0.0
 10
22.32529249616666
 20
123.8821618929795
 30
0.0
 10
22.73256579945446
 20
122.3773229759807
 30
0.0
 10
23.48946119285103
 20
120.3940769903772
 30
0.0
 10
25.02820356019497
 20
118.3657249126065
 30
0.0
 10
27.42440905458721
 20
116.744549276392
 30
0.0
 10
30.28132343858517
 20
115.7787736128993
 30
0.0
 10
33.26836816932344
 20
115.3389644626195
 30
0.0
 10
36.60459266882307
 20
115.0591841975092
 30
0.0
 10
40.00449242714274
 20
114.8065931107454
 30
0.0
 10
44.98576107736238
 20
114.4315327041147
 30
0.0
 10
48.69821755090958
 20
114.1671101247999
 30
0.0
 10
51.21004702070822
 20
113.9882029052101
 30
0.0
  0
SPLINE
  5
319
330
240
100
AcDbEntity
  8
DV3_Default
  6
Continuous
 62
     7
100
AcDbSpline
210
0.0
220
0.0
230
1.0
 70
    12
 71
     3
 72
    26
 73
    22
 74
     0
 42
0.0000000004066195
 43
0.0000000001
 40
0.0
 40
0.0
 40
0.0
 40
0.0
 40
0.05263157894737
 40
0.1052631578947
 40
0.1578947368421
 40
0.2105263157895
 40
0.2631578947368
 40
0.3157894736842
 40
0.3684210526316
 40
0.4210526315789
 40
0.4736842105263
 40
0.5263157894737
 40
0.5789473684211001
 40
0.6315789473683999
 40
0.6842105263158
 40
0.7368421052632
 40
0.7894736842104999
 40
0.8421052631579
 40
0.8947368421053
 40
0.9473684210526
 40
1.0
 40
1.0
 40
1.0
 40
1.0
 10
51.46301694050823
 20
114.02165561098
 30
0.0
 41
1.0
 10
51.53010081330822
 20
114.9723302347601
 30
0.0
 41
1.0
 10
51.65851612290822
 20
116.79339429622
 30
0.0
 41
1.0
 10
51.83190584850822
 20
119.25517225621
 30
0.0
 41
1.0
 10
51.99041688170822
 20
121.5081572954801
 30
0.0
 41
1.0
 10
52.13342764090822
 20
123.54287505382
 30
0.0
 41
1.0
 10
52.26220551100824
 20
125.37675245831
 30
0.0
 41
1.0
 10
52.3786721155082
 20
127.0366755560001
 30
0.0
 41
1.0
 10
52.48342871040823
 20
128.5308210070401
 30
0.0
 41
1.0
 10
52.57760657200821
 20
129.8749507726401
 30
0.0
 41
1.0
 10
52.66241530540822
 20
131.08603148116
 30
0.0
 41
1.0
 10
52.73940823560822
 20
132.1860254141101
 30
0.0
 41
1.0
 10
52.80919994020825
 20
133.1835500987701
 30
0.0
 41
1.0
 10
52.8725142105082
 20
134.08884272209
 30
0.0
 41
1.0
 10
52.9301627086082
 20
134.9134318394101
 30
0.0
 41
1.0
 10
52.98273317530825
 20
135.6656763899501
 30
0.0
 41
1.0
 10
53.03071506540821
 20
136.3525495381101
 30
0.0
 41
1.0
 10
53.07457433050822
 20
136.98069751931
 30
0.0
 41
1.0
 10
53.11473177010823
 20
137.55613290926
 30
0.0
 41
1.0
 10
53.15146896840822
 20
138.0828809702301
 30
0.0
 41
1.0
 10
53.17374367100825
 20
138.4024871563001
 30
0.0
 41
1.0
 10
53.18432426080821
 20
138.55436043713
 30
0.0
 41
1.0
  0
ELLIPSE
  5
31A
330
240
100
AcDbEntity
  8
DV3_Default
  6
Continuous
 62
     7
100
AcDbEllipse
 10
53.1699278772
 20
138.3691166018
 30
0.0
 11
0.05248913174498576
 21
0.7481182675558862
 31
0.0
210
0.0
220
0.0
230
0.9999999999999998
 40
0.0019212787
 41
-0.7947169339787088
 42
-0.3019199603039864
  0
SPLINE
  5
31B
330
240
100
AcDbEntity
  8
DV3_Default
  6
Continuous
 62
     7
100
AcDbSpline
210
0.0
220
0.0
230
1.0
 70
     8
 71
     3
 72
    18
 73
    14
 74
     0
 42
0.0000000004382518
 43
0.0000000001
 40
0.0
 40
0.0
 40
0.0
 40
0.0
 40
0.1811920446235578
 40
0.2790859507931384
 40
0.3342663386418873
 40
0.3809474814523856
 40
0.4298983194397812
 40
0.4751296681981499
 40
0.5791871104770109
 40
0.6427016463076475
 40
0.7052397854321552
 40
0.8122395514848768
 40
1.0
 40
1.0
 40
1.0
 40
1.0
 10
38.64997378120821
 20
150.28222449706
 30
0.0
 10
38.6518615482252
 20
148.9106051095419
 30
0.0
 10
38.65469183983575
 20
146.7979312150914
 30
0.0
 10
38.6409785389219
 20
144.2607058455405
 30
0.0
 10
38.92546020018206
 20
142.762014494325
 30
0.0
 10
39.43521511488776
 20
141.7223899812484
 30
0.0
 10
40.18837284505619
 20
140.9413534861977
 30
0.0
 10
41.51206375508246
 20
140.1998044122157
 30
0.0
 10
43.14711021891693
 20
139.9859479787382
 30
0.0
 10
44.87921258050809
 20
139.8755234357505
 30
0.0
 10
46.64178299760147
 20
139.7644689825873
 30
0.0
 10
49.34084789716015
 20
139.5834931212595
 30
0.0
 10
51.56859452498583
 20
139.4341181072245
 30
0.0
 10
52.98765505840822
 20
139.3389613556101
 30
0.0
  0
ELLIPSE
  5
31C
330
240
100
AcDbEntity
  8
DV3_Default
  6
Continuous
 62
     7
100
AcDbEllipse
 10
51.4723332597
 20
114.1745932495
 30
0.0
 11
-0.05249154774305403
 21
-0.7481527327750093
 31
0.0
210
0.0
220
0.0
230
0.9999999999999998
 40
0.0019212765
 41
0.834479132140892
 42
1.365059618937797
  0
SPLINE
  5
31D
330
240
100
AcDbEntity
  8
DV3_Default
  6
Continuous
 62
     7
100
AcDbSpline
210
0.0
220
0.0
230
1.0
 70
     8
 71
     3
 72
    22
 73
    18
 74
     0
 42
0.0000000001644851
 43
0.0000000001
 40
0.0
 40
0.0
 40
0.0
 40
0.0
 40
0.1826622356110008
 40
0.2483813150921339
 40
0.3004987178463157
 40
0.3549230471055728
 40
0.4102338705715314
 40
0.4516004455036639
 40
0.4986408070999515
 40
0.5530716267557776
 40
0.5964072946162589
 40
0.6818248359430598
 40
0.7271001675887467
 40
0.7564295922849258
 40
0.8354175672320842
 40
0.917188187697889
 40
1.0
 40
1.0
 40
1.0
 40
1.0
 10
51.15648141660822
 20
113.2392861300301
 30
0.0
 10
47.47545171250248
 20
113.5048173284177
 30
0.0
 10
42.47004432910595
 20
113.865890064136
 30
0.0
 10
36.41591967327851
 20
114.3235817336851
 30
0.0
 10
32.94712191907392
 20
114.609036906522
 30
0.0
 10
29.70780357397604
 20
115.1010764135199
 30
0.0
 10
26.79991710592128
 20
116.1493602838746
 30
0.0
 10
24.41959045531014
 20
117.8680806937233
 30
0.0
 10
22.62670755064933
 20
120.188917630171
 30
0.0
 10
21.62985343339818
 20
122.9861517423046
 30
0.0
 10
21.13771537568754
 20
126.6634200459979
 30
0.0
 10
21.16033069352657
 20
130.1868902667907
 30
0.0
 10
21.16183750413467
 20
133.4187995296719
 30
0.0
 10
21.16804755240662
 20
136.5222022159233
 30
0.0
 10
21.1758506428229
 20
140.3626294918123
 30
0.0
 10
21.17600339711612
 20
145.2838934785274
 30
0.0
 10
21.175941869462
 20
148.6091805792051
 30
0.0
 10
21.17591333970822
 20
150.2823424507401
 30
0.0
  0
LINE
  5
31E
330
240
100
AcDbEntity
  8
DV3_Default
  6
Continuous
 62
     7
100
AcDbLine
 10
19.9128517761
 20
150.2823534912
 30
0.0
 11
21.1759161142
 21
150.2823431151
 31
0.0
  0
ARC
  5
31F
330
240
100
AcDbEntity
  8
DV3_Default
  6
Continuous
 62
     7
100
AcDbCircle
 10
39.4130611899
 20
150.2824162714
 30
0.0
 40
0.5000729900296949
100
AcDbArc
 50
359.4029928582
 51
67.3559617673
  0
ARC
  5
320
330
240
100
AcDbEntity
  8
DV3_Default
  6
Continuous
 62
     7
100
AcDbCircle
 10
38.5013303758
 20
130.373256931
 30
0.0
 40
20.40059252591451
100
AcDbArc
 50
86.8971299809
 51
88.1721197824
  0
ARC
  5
321
330
240
100
AcDbEntity
  8
DV3_Default
  6
Continuous
 62
     7
100
AcDbCircle
 10
38.5013303758
 20
130.373256931
 30
0.0
 40
20.40059252591451
100
AcDbArc
 50
88.2029169353
 51
90.6570210037
  0
ELLIPSE
  5
322
330
240
100
AcDbEntity
  8
DV3_Default
  6
Continuous
 62
     7
100
AcDbEllipse
 10
53.1698253885
 20
138.3676956522
 30
0.0
 11
0.0526314216149071
 21
0.7501463291325963
 31
0.0
210
0.0
220
0.0
230
0.9999999999999998
 40
0.0019212763
 41
-1.31931066864258
 42
-0.7947159732911446
  0
SPLINE
  5
323
330
240
100
AcDbEntity
  8
DV3_Default
  6
Continuous
 62
     7
100
AcDbSpline
210
0.0
220
0.0
230
1.0
 70
     8
 71
     3
 72
    30
 73
    26
 74
     0
 42
0.000000000480351
 43
0.0000000001
 40
0.0
 40
0.0
 40
0.0
 40
0.0
 40
0.1113386209872555
 40
0.2187727033893404
 40
0.3150034669385887
 40
0.4000979011051463
 40
0.4496214154460671
 40
0.4915762686950833
 40
0.5254962568778514
 40
0.5460422559761389
 40
0.5630418179562662
 40
0.5771516419639783
 40
0.5889084672148164
 40
0.6015154723233799
 40
0.6110002345634569
 40
0.6192096111474628
 40
0.6315083209873983
 40
0.6488695855149943
 40
0.6726699229123162
 40
0.7048577095096
 40
0.7474198718933275
 40
0.8003871708691495
 40
0.8620320338621916
 40
0.9309109204601689
 40
1.0
 40
1.0
 40
1.0
 40
1.0
 10
53.06018630367762
 20
140.5917575954836
 30
0.0
 10
52.21282377409736
 20
140.6508233735976
 30
0.0
 10
50.81083685184063
 20
140.7487465288134
 30
0.0
 10
48.5888160353066
 20
140.9059442963663
 30
0.0
 10
46.60130451446057
 20
141.0499849902741
 30
0.0
 10
45.00233864749318
 20
141.1660723925483
 30
0.0
 10
43.78131162499246
 20
141.2560985398001
 30
0.0
 10
42.91567203564334
 20
141.3430763770597
 30
0.0
 10
42.25574547214189
 20
141.458042318347
 30
0.0
 10
41.77823374372377
 20
141.5938185511903
 30
0.0
 10
41.44508775221725
 20
141.7275111557594
 30
0.0
 10
41.18257348845484
 20
141.8683643538606
 30
0.0
 10
40.96199868974343
 20
142.0193264092097
 30
0.0
 10
40.78371622174481
 20
142.1729546265099
 30
0.0
 10
40.63970828350502
 20
142.3264041985823
 30
0.0
 10
40.51054824722566
 20
142.4897186958594
 30
0.0
 10
40.36789009068287
 20
142.7109148680832
 30
0.0
 10
40.20823741252691
 20
143.0469733475153
 30
0.0
 10
40.06108561277625
 20
143.5359539912214
 30
0.0
 10
39.95740279867091
 20
144.2134322757767
 30
0.0
 10
39.91613469801564
 20
145.0987858667595
 30
0.0
 10
39.91089548389095
 20
146.190208899222
 30
0.0
 10
39.91335489790607
 20
147.4563938302745
 30
0.0
 10
39.91350925128362
 20
148.8683928203838
 30
0.0
 10
39.91335202822854
 20
149.7550926591936
 30
0.0
 10
39.91318069102623
 20
150.2821833325314
 30
0.0
  0
ARC
  5
324
330
240
100
AcDbEntity
  8
DV3_Default
  6
Continuous
 62
     7
100
AcDbCircle
 10
53.0484912466
 20
140.3546819049
 30
0.0
 40
0.2372628381941308
100
AcDbArc
 50
1.8328638644
 51
87.7250208307
  0
ELLIPSE
  5
325
330
240
100
AcDbEntity
  8
DV3_Default
  6
Continuous
 62
     7
100
AcDbEllipse
 10
51.4724280329
 20
114.1759863204
 30
0.0
 11
-0.05263690805261748
 21
-0.7502245256794521
 31
0.0
210
0.0
220
0.0
230
0.9999999999999999
 40
0.0019212762
 41
0.3011490850003762
 42
0.8344763927642541
  0
SPLINE
  5
326
330
240
100
AcDbEntity
  8
DV3_Default
  6
Continuous
 62
     7
100
AcDbSpline
210
0.0
220
0.0
230
1.0
 70
     8
 71
     3
 72
    44
 73
    40
 74
     0
 42
0.0000000001599844
 43
0.0000000001
 40
0.0
 40
0.0
 40
0.0
 40
0.0
 40
0.0643207972893722
 40
0.1247472342392814
 40
0.1812810427271923
 40
0.2339272443427645
 40
0.2826625218421721
 40
0.3276445401134137
 40
0.3694295029296384
 40
0.3925099707259659
 40
0.41463686741801
 40
0.4357723394923503
 40
0.4558394657344043
 40
0.4747297620043771
 40
0.4923298256812265
 40
0.5085472646689322
 40
0.52331066186027
 40
0.536574887849567
 40
0.5483137010605419
 40
0.5588727093058299
 40
0.5686005980768896
 40
0.581628564505043
 40
0.5927892470595268
 40
0.6021014472943089
 40
0.6109459364525535
 40
0.6193930343708409
 40
0.6290583975063541
 40
0.6401061172117073
 40
0.6540887322518848
 40
0.671237923831452
 40
0.6940192511763797
 40
0.7204195989744467
 40
0.7503323389299229
 40
0.7838623141092846
 40
0.8212056382530034
 40
0.861723775742652
 40
0.9060368038401111
 40
0.9541426288545679
 40
1.0
 40
1.0
 40
1.0
 40
1.0
 10
19.91285122096761
 20
150.2823554709276
 30
0.0
 10
19.91285016318212
 20
148.8085858532178
 30
0.0
 10
19.91284266832907
 20
146.4025338382847
 30
0.0
 10
19.91286403664236
 20
142.5538642967028
 30
0.0
 10
19.91288349421813
 20
139.0385984006288
 30
0.0
 10
19.91269690036776
 20
135.7450247126437
 30
0.0
 10
19.91359600549677
 20
132.6972690721672
 30
0.0
 10
19.90941247618033
 20
129.8746835936041
 30
0.0
 10
19.93608676283501
 20
127.5862217039746
 30
0.0
 10
20.04121296503322
 20
125.7766674798329
 30
0.0
 10
20.19265250529184
 20
124.4022726196879
 30
0.0
 10
20.42469101706595
 20
123.1024674439656
 30
0.0
 10
20.74368375082986
 20
121.8904771373863
 30
0.0
 10
21.14467174768131
 20
120.7809588209185
 30
0.0
 10
21.61323925666014
 20
119.7862848328793
 30
0.0
 10
22.12833553494725
 20
118.9136270551575
 30
0.0
 10
22.6656986299662
 20
118.163506568912
 30
0.0
 10
23.20191657278128
 20
117.5310626582203
 30
0.0
 10
23.72148896785753
 20
117.0022802059197
 30
0.0
 10
24.2191468772493
 20
116.5574102659146
 30
0.0
 10
24.7629923357513
 20
116.1258440748275
 30
0.0
 10
25.34398412658784
 20
115.7227372297445
 30
0.0
 10
25.9427423431246
 20
115.3635682265216
 30
0.0
 10
26.4827143586776
 20
115.077848085094
 30
0.0
 10
26.98404235750948
 20
114.841310909652
 30
0.0
 10
27.5014583804368
 20
114.622835765244
 30
0.0
 10
28.07047711860128
 20
114.4098059287778
 30
0.0
 10
28.75802188776963
 20
114.1863519597186
 30
0.0
 10
29.60608504639989
 20
113.9552991080612
 30
0.0
 10
30.70398954156486
 20
113.7167998535787
 30
0.0
 10
32.06853683339455
 20
113.4959738901449
 30
0.0
 10
33.70555793971342
 20
113.3068551411177
 30
0.0
 10
35.57007871430548
 20
113.1457865472687
 30
0.0
 10
37.66330550630012
 20
112.9832120028929
 30
0.0
 10
39.97624941763703
 20
112.8093566873606
 30
0.0
 10
42.51727542540593
 20
112.6173706693407
 30
0.0
 10
45.26445059595238
 20
112.415210899896
 30
0.0
 10
48.19547889156342
 20
112.2026535357863
 30
0.0
 10
50.00593032176933
 20
112.0747268112924
 30
0.0
 10
51.05404368828734
 20
112.00074981797
 30
0.0
  0
SPLINE
  5
327
330
240
100
AcDbEntity
  8
DV3_Default
  6
Continuous
 62
     7
100
AcDbSpline
210
0.0
220
0.0
230
1.0
 70
     8
 71
     3
 72
    15
 73
    11
 74
     0
 42
0.0000000262008421
 43
0.0000000001
 40
0.0
 40
0.0
 40
0.0
 40
0.0
 40
0.0366846123956134
 40
0.0756869434397967
 40
0.1175670317793605
 40
0.1631777191009748
 40
0.2692037496247849
 40
0.6091347863359348
 40
0.962015056698271
 40
1.0
 40
1.0
 40
1.0
 40
1.0
 10
51.05201326478176
 20
112.000733119312
 30
0.0
 10
51.07241504269535
 20
112.0004248375383
 30
0.0
 10
51.10812501852874
 20
112.0001596977601
 30
0.0
 10
51.1595979630087
 20
112.0142241376488
 30
0.0
 10
51.20165477565064
 20
112.034863353855
 30
0.0
 10
51.24785043914395
 20
112.0691647299405
 30
0.0
 10
51.30126407608529
 20
112.1388677828336
 30
0.0
 10
51.29770475839396
 20
112.1544530798437
 30
0.0
 10
51.31052803660721
 20
112.1944749341003
 30
0.0
 10
51.31486653963266
 20
112.2140463549951
 30
0.0
 10
51.31526674778348
 20
112.2159360221931
 30
0.0
  0
ARC
  5
328
330
240
100
AcDbEntity
  8
DV3_Default
  6
Continuous
 62
     7
100
AcDbCircle
 10
21.3256071837
 20
130.1468357157
 30
0.0
 40
20.62675309500166
100
AcDbArc
 50
89.3469951861
 51
93.0715900399
  0
ARC
  5
329
330
240
100
AcDbEntity
  8
DV3_Default
  6
Continuous
 62
     7
100
AcDbCircle
 10
20.4128449107
 20
150.2824161251
 30
0.0
 40
0.5000731064682449
100
AcDbArc
 50
112.6396280501
 51
180.5788571202
  0
LINE
  5
32A
330
240
100
AcDbEntity
  8
DV3_Default
  6
Continuous
 62
     7
100
AcDbLine
 10
20.6572413803
 20
152.7823424363
 30
0.0
 11
20.7231404221
 21
152.7823424397
 31
0.0
  0
LINE
  5
32B
330
240
100
AcDbEntity
  8
DV3_Default
  6
Continuous
 62
     7
100
AcDbLine
 10
20.7231404221
 20
152.7823424397
 30
0.0
 11
20.8286503253
 21
152.7823424363
 31
0.0
  0
LINE
  5
32C
330
240
100
AcDbEntity
  8
DV3_Default
  6
Continuous
 62
     7
100
AcDbLine
 10
20.8286503253
 20
152.7823424363
 30
0.0
 11
38.989260626
 21
152.7823424363
 31
0.0
  0
LINE
  5
32D
330
240
100
AcDbEntity
  8
DV3_Default
  6
Continuous
 62
     7
100
AcDbLine
 10
38.989260626
 20
152.7823424363
 30
0.0
 11
39.0947713118
 21
152.7823424397
 31
0.0
  0
LINE
  5
32E
330
240
100
AcDbEntity
  8
DV3_Default
  6
Continuous
 62
     7
100
AcDbLine
 10
39.0947713118
 20
152.7823424397
 30
0.0
 11
39.1606700032
 21
152.7823424363
 31
0.0
  0
LINE
  5
32F
330
240
100
AcDbEntity
  8
DV3_Default
  6
Continuous
 62
     7
100
AcDbLine
 10
39.1606700032
 20
152.7823424363
 30
0.0
 11
40.7086922135
 21
152.7823424363
 31
0.0
  0
LINE
  5
330
330
240
100
AcDbEntity
  8
DV3_Default
  6
Continuous
 62
     7
100
AcDbLine
 10
20.6572417302
 20
152.7823424363
 30
0.0
 11
19.1092195199
 21
152.7823424363
 31
0.0
  0
LINE
  5
331
330
240
100
AcDbEntity
  8
DV3_Default
  6
Continuous
 62
     7
100
AcDbLine
 10
18.9094219797
 20
152.5823424397
 30
0.0
 11
20.4680358849
 21
152.5823424397
 31
0.0
  0
LINE
  5
332
330
240
100
AcDbEntity
  8
DV3_Default
  6
Continuous
 62
     7
100
AcDbLine
 10
39.054007948
 20
152.5823424397
 30
0.0
 11
20.7639029965
 21
152.5823424397
 31
0.0
  0
LINE
  5
333
330
240
100
AcDbEntity
  8
DV3_Default
  6
Continuous
 62
     7
100
AcDbLine
 10
40.9084897537
 20
152.5823424397
 30
0.0
 11
39.3498758485
 21
152.5823424397
 31
0.0
  0
SPLINE
  5
334
330
240
100
AcDbEntity
  8
DV3_Default
  6
Continuous
 62
     7
100
AcDbSpline
210
0.0
220
0.0
230
1.0
 70
    12
 71
     3
 72
    13
 73
     9
 74
     0
 42
0.000000332573432
 43
0.0000000001
 40
0.0
 40
0.0
 40
0.0
 40
0.0
 40
0.2500000006352
 40
0.4999999998409
 40
0.6249999994438
 40
0.7499999990466
 40
0.8749999986495
 40
1.0
 40
1.0
 40
1.0
 40
1.0
 10
39.34987584852551
 20
152.5823424397091
 30
0.0
 41
1.0
 10
39.34784858898427
 20
152.5823424397091
 30
0.0
 41
1.0
 10
39.34394698830493
 20
152.581637688289
 30
0.0
 41
1.0
 10
39.33933978021145
 20
152.578924354569
 30
0.0
 41
1.0
 10
39.33575027643871
 20
152.5755845771191
 30
0.0
 41
1.0
 10
39.33308921968482
 20
152.5724828657791
 30
0.0
 41
1.0
 10
39.33044339513131
 20
152.568764175479
 30
0.0
 41
1.0
 10
39.32867626619557
 20
152.5658755788791
 30
0.0
 41
1.0
 10
39.32779019517768
 20
152.564320422289
 30
0.0
 41
1.0
  0
ARC
  5
335
330
240
100
AcDbEntity
  8
DV3_Default
  6
Continuous
 62
     7
100
AcDbCircle
 10
39.556786453
 20
152.4605443763
 30
0.0
 40
0.2514135116156376
100
AcDbArc
 50
155.6210162315
 51
182.7480186796
  0
LINE
  5
336
330
240
100
AcDbEntity
  8
DV3_Default
  6
Continuous
 62
     7
100
AcDbLine
 10
39.3056620556
 20
152.4484907106
 30
0.0
 11
39.3056620556
 21
151.1161961204
 31
0.0
  0
ARC
  5
337
330
240
100
AcDbEntity
  8
DV3_Default
  6
Continuous
 62
     7
100
AcDbCircle
 10
39.5572635012
 20
151.1042315814
 30
0.0
 40
0.2518857630326767
100
AcDbArc
 50
177.2774339258
 51
204.3531782085
  0
SPLINE
  5
338
330
240
100
AcDbEntity
  8
DV3_Default
  6
Continuous
 62
     7
100
AcDbSpline
210
0.0
220
0.0
230
1.0
 70
    12
 71
     3
 72
    13
 73
     9
 74
     0
 42
0.0000003325832781
 43
0.0000000001
 40
0.0
 40
0.0
 40
0.0
 40
0.0
 40
0.1250000011577
 40
0.2500000005671
 40
0.3749999999765
 40
0.4999999993858
 40
0.7499999982046
 40
1.0
 40
1.0
 40
1.0
 40
1.0
 10
39.32779029577768
 20
151.0003639464391
 30
0.0
 41
1.0
 10
39.32867633769558
 20
150.998808831159
 30
0.0
 41
1.0
 10
39.33044341383133
 20
150.9959203348291
 30
0.0
 41
1.0
 10
39.33308915258482
 20
150.992201734029
 30
0.0
 41
1.0
 10
39.33575012633872
 20
150.989100108069
 30
0.0
 41
1.0
 10
39.33933951881144
 20
150.985760417809
 30
0.0
 41
1.0
 10
39.34394658540491
 20
150.9830471652691
 30
0.0
 41
1.0
 10
39.34784806548425
 20
150.982342409899
 30
0.0
 41
1.0
 10
39.34987526172551
 20
150.982342409899
 30
0.0
 41
1.0
  0
LINE
  5
339
330
240
100
AcDbEntity
  8
DV3_Default
  6
Continuous
 62
     7
100
AcDbLine
 10
39.3498752617
 20
150.9823424099
 30
0.0
 11
40.9084897537
 21
150.9823424099
 31
0.0
  0
LINE
  5
33A
330
240
100
AcDbEntity
  8
DV3_Default
  6
Continuous
 62
     7
100
AcDbLine
 10
40.7086922135
 20
150.7823424133
 30
0.0
 11
39.1606694201
 21
150.7823424133
 31
0.0
  0
LINE
  5
33B
330
240
100
AcDbEntity
  8
DV3_Default
  6
Continuous
 62
     7
100
AcDbLine
 10
39.0947716057
 20
150.7823424099
 30
0.0
 11
39.1606694201
 21
150.7823424133
 31
0.0
  0
LINE
  5
33C
330
240
100
AcDbEntity
  8
DV3_Default
  6
Continuous
 62
     7
100
AcDbLine
 10
38.9892623297
 20
150.7823424133
 30
0.0
 11
39.0947716057
 21
150.7823424099
 31
0.0
  0
ARC
  5
33D
330
240
100
AcDbEntity
  8
DV3_Default
  6
Continuous
 62
     7
100
AcDbCircle
 10
39.0553769274
 20
151.1012163041
 30
0.0
 40
0.1188817569476886
100
AcDbArc
 50
269.3410241254
 51
301.968758967
  0
ARC
  5
33E
330
240
100
AcDbEntity
  8
DV3_Default
  6
Continuous
 62
     7
100
AcDbCircle
 10
39.0487282365
 20
151.1143874225
 30
0.0
 40
0.1335821504585668
100
AcDbArc
 50
301.3969126567
 51
0.7758067056
  0
ARC
  5
33F
330
240
100
AcDbEntity
  8
DV3_Default
  6
Continuous
 62
     7
100
AcDbCircle
 10
20.7691989567
 20
151.114395832
 30
0.0
 40
0.1335976260784512
100
AcDbArc
 50
179.2278900897
 51
238.5996092657
  0
ARC
  5
340
330
240
100
AcDbEntity
  8
DV3_Default
  6
Continuous
 62
     7
100
AcDbCircle
 10
20.7625338722
 20
151.1012145892
 30
0.0
 40
0.1188800437948055
100
AcDbArc
 50
238.0315262449
 51
270.6590552872
  0
LINE
  5
341
330
240
100
AcDbEntity
  8
DV3_Default
  6
Continuous
 62
     7
100
AcDbLine
 10
20.7639012817
 20
150.9823424099
 30
0.0
 11
39.054009663
 21
150.9823424099
 31
0.0
  0
LINE
  5
342
330
240
100
AcDbEntity
  8
DV3_Default
  6
Continuous
 62
     7
100
AcDbLine
 10
39.1822981416
 20
151.1161961204
 30
0.0
 11
39.1822981416
 21
152.4484907106
 31
0.0
  0
ARC
  5
343
330
240
100
AcDbEntity
  8
DV3_Default
  6
Continuous
 62
     7
100
AcDbCircle
 10
39.0487157617
 20
152.4502902696
 30
0.0
 40
0.133594500753183
100
AcDbArc
 50
359.228184865
 51
58.5999053918
  0
ARC
  5
344
330
240
100
AcDbEntity
  8
DV3_Default
  6
Continuous
 62
     7
100
AcDbCircle
 10
39.0553753616
 20
152.4634647595
 30
0.0
 40
0.1188855444291985
100
AcDbArc
 50
58.0313248183
 51
90.6590267783
  0
ARC
  5
345
330
240
100
AcDbEntity
  8
DV3_Default
  6
Continuous
 62
     7
100
AcDbCircle
 10
20.7625354378
 20
152.4634664753
 30
0.0
 40
0.1188838303717407
100
AcDbArc
 50
89.3408937943
 51
121.9683900659
  0
ARC
  5
346
330
240
100
AcDbEntity
  8
DV3_Default
  6
Continuous
 62
     7
100
AcDbCircle
 10
20.7691804444
 20
152.4502989756
 30
0.0
 40
0.1335792232747213
100
AcDbArc
 50
121.3960529626
 51
180.7756380049
  0
LINE
  5
347
330
240
100
AcDbEntity
  8
DV3_Default
  6
Continuous
 62
     7
100
AcDbLine
 10
20.635613461
 20
152.4484907106
 30
0.0
 11
20.635613461
 21
151.1161961204
 31
0.0
  0
LINE
  5
348
330
240
100
AcDbEntity
  8
DV3_Default
  6
Continuous
 62
     7
100
AcDbLine
 10
20.5122495486
 20
151.1161961204
 30
0.0
 11
20.5122495486
 21
152.4484907106
 31
0.0
  0
LINE
  5
349
330
240
100
AcDbEntity
  8
DV3_Default
  6
Continuous
 62
     7
100
AcDbLine
 10
38.9892623297
 20
150.7823424133
 30
0.0
 11
20.8286486216
 21
150.7823424133
 31
0.0
  0
LINE
  5
34A
330
240
100
AcDbEntity
  8
DV3_Default
  6
Continuous
 62
     7
100
AcDbLine
 10
20.7231401276
 20
150.7823424099
 30
0.0
 11
20.8286486216
 21
150.7823424133
 31
0.0
  0
LINE
  5
34B
330
240
100
AcDbEntity
  8
DV3_Default
  6
Continuous
 62
     7
100
AcDbLine
 10
20.6572419633
 20
150.7823424133
 30
0.0
 11
20.7231401276
 21
150.7823424099
 31
0.0
  0
LINE
  5
34C
330
240
100
AcDbEntity
  8
DV3_Default
  6
Continuous
 62
     7
100
AcDbLine
 10
19.1092195199
 20
150.7823424133
 30
0.0
 11
20.6572423133
 21
150.7823424133
 31
0.0
  0
LINE
  5
34D
330
240
100
AcDbEntity
  8
DV3_Default
  6
Continuous
 62
     7
100
AcDbLine
 10
20.4680364717
 20
150.9823424099
 30
0.0
 11
18.9094219797
 21
150.9823424099
 31
0.0
  0
SPLINE
  5
34E
330
240
100
AcDbEntity
  8
DV3_Default
  6
Continuous
 62
     7
100
AcDbSpline
210
0.0
220
0.0
230
1.0
 70
    12
 71
     3
 72
    13
 73
     9
 74
     0
 42
0.0000003325751773
 43
0.0000000001
 40
0.0
 40
0.0
 40
0.0
 40
0.0
 40
0.2500000018017
 40
0.5000000006183
 40
0.6250000000267
 40
0.7499999994350001
 40
0.8749999988432999
 40
1.0
 40
1.0
 40
1.0
 40
1.0
 10
20.46803611942549
 20
150.9823424099091
 30
0.0
 41
1.0
 10
20.47006335698423
 20
150.982342409899
 30
0.0
 41
1.0
 10
20.47396491680489
 20
150.9830472194591
 30
0.0
 41
1.0
 10
20.47857207631143
 20
150.985760550319
 30
0.0
 41
1.0
 10
20.48216153873872
 20
150.989100350989
 30
0.0
 41
1.0
 10
20.48482256368481
 20
150.992202072279
 30
0.0
 41
1.0
 10
20.48746834853129
 20
150.9959208026991
 30
0.0
 41
1.0
 10
20.48923546139556
 20
150.9988093579991
 30
0.0
 41
1.0
 10
20.49012151837767
 20
151.0003645213691
 30
0.0
 41
1.0
  0
ARC
  5
34F
330
240
100
AcDbEntity
  8
DV3_Default
  6
Continuous
 62
     7
100
AcDbCircle
 10
20.2611162957
 20
151.1041422394
 30
0.0
 40
0.2514223673207119
100
AcDbArc
 50
335.6215124393
 51
2.7479709279
  0
ARC
  5
350
330
240
100
AcDbEntity
  8
DV3_Default
  6
Continuous
 62
     7
100
AcDbCircle
 10
20.2606550725
 20
152.4604544726
 30
0.0
 40
0.2518787644891558
100
AcDbArc
 50
357.2775351621
 51
24.3533344286
  0
SPLINE
  5
351
330
240
100
AcDbEntity
  8
DV3_Default
  6
Continuous
 62
     7
100
AcDbSpline
210
0.0
220
0.0
230
1.0
 70
    12
 71
     3
 72
    13
 73
     9
 74
     0
 42
0.0000003325653308
 43
0.0000000001
 40
0.0
 40
0.0
 40
0.0
 40
0.0
 40
0.1249999998158
 40
0.249999999631
 40
0.3749999994462
 40
0.4999999992614
 40
0.7499999988917999
 40
1.0
 40
1.0
 40
1.0
 40
1.0
 10
20.49012161897767
 20
152.564319847329
 30
0.0
 41
1.0
 10
20.48923553289558
 20
152.565875052059
 30
0.0
 41
1.0
 10
20.4874683670313
 20
152.568763707569
 30
0.0
 41
1.0
 10
20.48482249648481
 20
152.572482527599
 30
0.0
 41
1.0
 10
20.48216138863873
 20
152.5755843342491
 30
0.0
 41
1.0
 10
20.47857181501145
 20
152.5789242221091
 30
0.0
 41
1.0
 10
20.47396451400496
 20
152.5816376339091
 30
0.0
 41
1.0
 10
20.47006283348426
 20
152.5823424397091
 30
0.0
 41
1.0
 10
20.46803553252552
 20
152.5823424397091
 30
0.0
 41
1.0
  0
SPLINE
  5
352
330
240
100
AcDbEntity
  8
DV3_Default
  6
Continuous
 62
     7
100
AcDbSpline
210
0.0
220
0.0
230
1.0
 70
     8
 71
     3
 72
    10
 73
     6
 74
     0
 42
0.0000000629349875
 43
0.0000000001
 40
0.0
 40
0.0
 40
0.0
 40
0.0
 40
0.4896654036785191
 40
0.7409379232507266
 40
1.0
 40
1.0
 40
1.0
 40
1.0
 10
18.9690345110726
 20
152.7244070856106
 30
0.0
 10
18.95102083236586
 20
152.7026603022208
 30
0.0
 10
18.92848840319311
 20
152.6742602252327
 30
0.0
 10
18.91242868226689
 20
152.6220085309113
 30
0.0
 10
18.91079081077377
 20
152.5972638947127
 30
0.0
 10
18.91004935762558
 20
152.5823424397089
 30
0.0
  0
SPLINE
  5
353
330
240
100
AcDbEntity
  8
DV3_Default
  6
Continuous
 62
     7
100
AcDbSpline
210
0.0
220
0.0
230
1.0
 70
     8
 71
     3
 72
    10
 73
     6
 74
     0
 42
0.0000000629349875
 43
0.0000000001
 40
0.0
 40
0.0
 40
0.0
 40
0.0
 40
0.259062076751157
 40
0.510334596329284
 40
1.0
 40
1.0
 40
1.0
 40
1.0
 10
40.9078623757857
 20
152.5823424397136
 30
0.0
 10
40.90712092263401
 20
152.5972638947174
 30
0.0
 10
40.90548305113523
 20
152.6220085309159
 30
0.0
 10
40.88942333020443
 20
152.6742602252357
 30
0.0
 10
40.86689090103327
 20
152.7026603022244
 30
0.0
 10
40.84887722232794
 20
152.724407085615
 30
0.0
  0
LINE
  5
354
330
240
100
AcDbEntity
  8
DV3_Default
  6
Continuous
 62
     7
100
AcDbLine
 10
40.9084898566
 20
150.9823424099
 30
0.0
 11
40.9084898566
 21
152.5823424397
 31
0.0
  0
SPLINE
  5
355
330
240
100
AcDbEntity
  8
DV3_Default
  6
Continuous
 62
     7
100
AcDbSpline
210
0.0
220
0.0
230
1.0
 70
     8
 71
     3
 72
    10
 73
     6
 74
     0
 42
0.0000000629349875
 43
0.0000000001
 40
0.0
 40
0.0
 40
0.0
 40
0.0
 40
0.4896654036706815
 40
0.7409379232434457
 40
1.0
 40
1.0
 40
1.0
 40
1.0
 10
40.84887722233438
 20
150.8402777639963
 30
0.0
 10
40.86689090103829
 20
150.8620245473868
 30
0.0
 10
40.88942333020765
 20
150.8904246243765
 30
0.0
 10
40.90548305112393
 20
150.9426763186996
 30
0.0
 10
40.90712092261206
 20
150.9674209548982
 30
0.0
 10
40.90786237575722
 20
150.9823424099022
 30
0.0
  0
LINE
  5
356
330
240
100
AcDbEntity
  8
DV3_Default
  6
Continuous
 62
     7
100
AcDbLine
 10
18.9094218768
 20
152.5823424397
 30
0.0
 11
18.9094218768
 21
150.9823424099
 31
0.0
  0
SPLINE
  5
357
330
240
100
AcDbEntity
  8
DV3_Default
  6
Continuous
 62
     7
100
AcDbSpline
210
0.0
220
0.0
230
1.0
 70
     8
 71
     3
 72
    10
 73
     6
 74
     0
 42
0.0000000629349875
 43
0.0000000001
 40
0.0
 40
0.0
 40
0.0
 40
0.0
 40
0.2590620767588798
 40
0.5103345963316986
 40
1.0
 40
1.0
 40
1.0
 40
1.0
 10
18.91004935765922
 20
150.9823424099058
 30
0.0
 10
18.9107908108043
 20
150.9674209549017
 30
0.0
 10
18.91242868229237
 20
150.942676318703
 30
0.0
 10
18.92848840320793
 20
150.8904246243796
 30
0.0
 10
18.95102083237718
 20
150.8620245473898
 30
0.0
 10
18.96903451108087
 20
150.8402777639992
 30
0.0
  0
LINE
  5
358
330
240
100
AcDbEntity
  8
DV3_Default
  6
Continuous
 62
     7
100
AcDbLine
 10
39.413063129
 20
152.7823424397
 30
0.0
 11
39.1615521865
 21
152.7823424397
 31
0.0
  0
LINE
  5
359
330
240
100
AcDbEntity
  8
DV3_Default
  6
Continuous
 62
     7
100
AcDbLine
 10
39.0941203343
 20
152.7823424397
 30
0.0
 11
39.0775336396
 21
152.7823424397
 31
0.0
  0
LINE
  5
35A
330
240
100
AcDbEntity
  8
DV3_Default
  6
Continuous
 62
     7
100
AcDbLine
 10
37.7543569958
 20
152.7823424398
 30
0.0
 11
38.0341856046
 21
152.7823424397
 31
0.0
  0
LINE
  5
35B
330
240
100
AcDbEntity
  8
DV3_Default
  6
Continuous
 62
     7
100
AcDbLine
 10
37.7543569958
 20
152.7823424398
 30
0.0
 11
31.1686712999
 21
152.7823424398
 31
0.0
  0
LINE
  5
35C
330
240
100
AcDbEntity
  8
DV3_Default
  6
Continuous
 62
     7
100
AcDbLine
 10
28.9738880535
 20
152.7823424398
 30
0.0
 11
22.0746597927
 21
152.7823424398
 31
0.0
  0
LINE
  5
35D
330
240
100
AcDbEntity
  8
DV3_Default
  6
Continuous
 62
     7
100
AcDbLine
 10
21.7948398438
 20
152.7823424397
 30
0.0
 11
22.0746597927
 21
152.7823424398
 31
0.0
  0
LINE
  5
35E
330
240
100
AcDbEntity
  8
DV3_Default
  6
Continuous
 62
     7
100
AcDbLine
 10
21.6256806326
 20
152.7823424398
 30
0.0
 11
21.7948398438
 21
152.7823424397
 31
0.0
  0
ARC
  5
35F
330
240
100
AcDbEntity
  8
DV3_Default
  6
Continuous
 62
     7
100
AcDbCircle
 10
-54.0499278988
 20
152.7316573574
 30
0.0
 40
75.31059850489083
100
AcDbArc
 50
0.6680971451
 51
26.7444686313
  0
ARC
  5
360
330
240
100
AcDbEntity
  8
DV3_Default
  6
Continuous
 62
     7
100
AcDbCircle
 10
12.0906890454
 20
186.1589648235
 30
0.0
 40
1.206009425871697
100
AcDbArc
 50
22.5958392412
 51
44.388370905
  0
SPLINE
  5
361
330
240
100
AcDbEntity
  8
DV3_Default
  6
Continuous
 62
     7
100
AcDbSpline
210
0.0
220
0.0
230
1.0
 70
     8
 71
     3
 72
    10
 73
     6
 74
     0
 42
0.0000001220810283
 43
0.0000000001
 40
0.0
 40
0.0
 40
0.0
 40
0.0
 40
0.331534805134652
 40
0.6614110861226882
 40
1.0
 40
1.0
 40
1.0
 40
1.0
 10
12.95252107661102
 20
187.0025905018605
 30
0.0
 10
12.94346465339236
 20
187.0102596744912
 30
0.0
 10
12.92509684071458
 20
187.0253847264264
 30
0.0
 10
12.9011859788393
 20
187.0381820403782
 30
0.0
 10
12.8886667598149
 20
187.0397398416094
 30
0.0
 10
12.88218981429101
 20
187.0404499892732
 30
0.0
  0
SPLINE
  5
362
330
240
100
AcDbEntity
  8
DV3_Default
  6
Continuous
 62
     7
100
AcDbSpline
210
0.0
220
0.0
230
1.0
 70
     8
 71
     3
 72
    14
 73
    10
 74
     0
 42
0.0000000038426313
 43
0.0000000001
 40
0.0
 40
0.0
 40
0.0
 40
0.0
 40
0.1405589457762947
 40
0.2815629704274994
 40
0.4231771201065401
 40
0.565593899786322
 40
0.7090335601682445
 40
0.8537439649154993
 40
1.0
 40
1.0
 40
1.0
 40
1.0
 10
12.88218981429101
 20
187.0404499892732
 30
0.0
 10
12.65432766634389
 20
187.0421145324795
 30
0.0
 10
12.1976099175822
 20
187.0452908298512
 30
0.0
 10
11.62757339084294
 20
187.0493268742709
 30
0.0
 10
11.14602607978463
 20
187.0527281757708
 30
0.0
 10
10.76535053406003
 20
187.0553886368364
 30
0.0
 10
10.48770693239873
 20
187.0572839296235
 30
0.0
 10
10.31798526024494
 20
187.0583996584412
 30
0.0
 10
10.27991706530421
 20
187.0586340710573
 30
0.0
 10
10.2798699744541
 20
187.0586340791417
 30
0.0
  0
LINE
  5
363
330
240
100
AcDbEntity
  8
DV3_Default
  6
Continuous
 62
     7
100
AcDbLine
 10
47.5844832586
 20
187.7823424397
 30
0.0
 11
46.5302466192
 21
187.7823424397
 31
0.0
  0
LINE
  5
364
330
240
100
AcDbEntity
  8
DV3_Default
  6
Continuous
 62
     7
100
AcDbLine
 10
12.3106656241
 20
187.7823424313
 30
0.0
 11
13.2987225481
 21
187.7823424261
 31
0.0
  0
LINE
  5
365
330
240
100
AcDbEntity
  8
DV3_Default
  6
Continuous
 62
     7
100
AcDbLine
 10
13.5114946819
 20
187.7823424397
 30
0.0
 11
13.2987225481
 21
187.7823424261
 31
0.0
  0
LINE
  5
366
330
240
100
AcDbEntity
  8
DV3_Default
  6
Continuous
 62
     7
100
AcDbLine
 10
13.8594112912
 20
187.7823424261
 30
0.0
 11
13.5114946819
 21
187.7823424397
 31
0.0
  0
LINE
  5
367
330
240
100
AcDbEntity
  8
DV3_Default
  6
Continuous
 62
     7
100
AcDbLine
 10
13.8594112912
 20
187.7823424261
 30
0.0
 11
24.3167485948
 21
187.7823424261
 31
0.0
  0
LINE
  5
368
330
240
100
AcDbEntity
  8
DV3_Default
  6
Continuous
 62
     7
100
AcDbLine
 10
35.1706385155
 20
187.7823424261
 30
0.0
 11
45.9696483265
 21
187.7823424261
 31
0.0
  0
LINE
  5
369
330
240
100
AcDbEntity
  8
DV3_Default
  6
Continuous
 62
     7
100
AcDbLine
 10
46.3175210955
 20
187.7823424397
 30
0.0
 11
45.9696483265
 21
187.7823424261
 31
0.0
  0
LINE
  5
36A
330
240
100
AcDbEntity
  8
DV3_Default
  6
Continuous
 62
     7
100
AcDbLine
 10
46.3175210955
 20
187.7823424397
 30
0.0
 11
46.5302466192
 21
187.7823424397
 31
0.0
  0
ARC
  5
36B
330
240
100
AcDbEntity
  8
DV3_Default
  6
Continuous
 62
     7
100
AcDbCircle
 10
46.1099202993
 20
186.7516587052
 30
0.0
 40
0.2889120875167359
100
AcDbArc
 50
60.2894537079
 51
91.3188230099
  0
SPLINE
  5
36C
330
240
100
AcDbEntity
  8
DV3_Default
  6
Continuous
 62
     7
100
AcDbSpline
210
0.0
220
0.0
230
1.0
 70
     8
 71
     3
 72
    13
 73
     9
 74
     0
 42
0.0000000231237723
 43
0.0000000001
 40
0.0
 40
0.0
 40
0.0
 40
0.0
 40
0.1234643301048686
 40
0.2489226529077471
 40
0.4987917178248596
 40
0.7472115531809077
 40
0.8744104961472102
 40
1.0
 40
1.0
 40
1.0
 40
1.0
 10
46.34648637994101
 20
186.6223477498291
 30
0.0
 10
46.35321239295931
 20
186.6400945393552
 30
0.0
 10
46.36695339771943
 20
186.6755572380088
 30
0.0
 10
46.38017137072251
 20
186.7481475303151
 30
0.0
 10
46.376965888443
 20
186.8381104441679
 30
0.0
 10
46.34289409155842
 20
186.9190026934213
 30
0.0
 10
46.29788531869186
 20
186.9725342660311
 30
0.0
 10
46.26793935137466
 20
186.9926729480313
 30
0.0
 10
46.253110488261
 20
187.0025904968954
 30
0.0
  0
ARC
  5
36D
330
240
100
AcDbEntity
  8
DV3_Default
  6
Continuous
 62
     7
100
AcDbCircle
 10
47.7518206016
 20
186.1500349876
 30
0.0
 40
1.221890790761669
100
AcDbArc
 50
135.7543330468
 51
157.2603234226
  0
SPLINE
  5
36E
330
240
100
AcDbEntity
  8
DV3_Default
  6
Continuous
 62
     7
100
AcDbSpline
210
0.0
220
0.0
230
1.0
 70
     8
 71
     3
 72
    10
 73
     6
 74
     0
 42
0.000000122021248
 43
0.0000000001
 40
0.0
 40
0.0
 40
0.0
 40
0.0
 40
0.3383391560435369
 40
0.6682161266525515
 40
1.0
 40
1.0
 40
1.0
 40
1.0
 10
46.946869051851
 20
187.0404943405917
 30
0.0
 10
46.94039505064174
 20
187.0397826966904
 30
0.0
 10
46.92787702299614
 20
187.0382214004606
 30
0.0
 10
46.90395541190498
 20
187.0254038468369
 30
0.0
 10
46.88557803439735
 20
187.0102692973311
 30
0.0
 10
46.87651337556101
 20
187.0025925309083
 30
0.0
  0
SPLINE
  5
36F
330
240
100
AcDbEntity
  8
DV3_Default
  6
Continuous
 62
     7
100
AcDbSpline
210
0.0
220
0.0
230
1.0
 70
     8
 71
     3
 72
    11
 73
     7
 74
     0
 42
0.0000000038423416
 43
0.0000000001
 40
0.0
 40
0.0
 40
0.0
 40
0.0
 40
0.2546339224140727
 40
0.5053449722672038
 40
0.7534467328453865
 40
1.0
 40
1.0
 40
1.0
 40
1.0
 10
49.54922044143187
 20
187.0587665387224
 30
0.0
 10
49.54930248019151
 20
187.0587665321339
 30
0.0
 10
49.43467495316958
 20
187.058047399886
 30
0.0
 10
48.92091406173846
 20
187.0545073012533
 30
0.0
 10
48.11523977890475
 20
187.0487492445259
 30
0.0
 10
47.33542175063848
 20
187.0432928750839
 30
0.0
 10
46.946869051851
 20
187.0404943405917
 30
0.0
  0
ARC
  5
370
330
240
100
AcDbEntity
  8
DV3_Default
  6
Continuous
 62
     7
100
AcDbCircle
 10
113.1900430118
 20
152.899677877
 30
0.0
 40
74.61994394377686
100
AcDbArc
 50
153.1326959301
 51
179.454739001
  0
ARC
  5
371
330
240
100
AcDbEntity
  8
DV3_Default
  6
Continuous
 62
     7
100
AcDbCircle
 10
113.4886497281
 20
152.6579143904
 30
0.0
 40
75.24395545491814
100
AcDbArc
 50
153.1670451881
 51
179.2751540909
  0
ARC
  5
372
330
240
100
AcDbEntity
  8
DV3_Default
  6
Continuous
 62
     7
100
AcDbCircle
 10
29.9145122437
 20
-6963.9620507274
 30
0.0
 40
7151.020869381229
100
AcDbArc
 50
89.8702914803
 51
90.1297082362
  0
ARC
  5
373
330
240
100
AcDbEntity
  8
DV3_Default
  6
Continuous
 62
     7
100
AcDbCircle
 10
13.7191410279
 20
186.7516125844
 30
0.0
 40
0.2889582426658208
100
AcDbArc
 50
88.6816762158
 51
119.7073204173
  0
SPLINE
  5
374
330
240
100
AcDbEntity
  8
DV3_Default
  6
Continuous
 62
     7
100
AcDbSpline
210
0.0
220
0.0
230
1.0
 70
     8
 71
     3
 72
    13
 73
     9
 74
     0
 42
0.0000000230443088
 43
0.0000000001
 40
0.0
 40
0.0
 40
0.0
 40
0.0
 40
0.0592794184110062
 40
0.1615025688936309
 40
0.3072207929850365
 40
0.4958258573549316
 40
0.7254838796576187
 40
1.0
 40
1.0
 40
1.0
 40
1.0
 10
13.48254949691099
 20
186.622350513239
 30
0.0
 10
13.4790012523891
 20
186.6306687226132
 30
0.0
 10
13.46943615575361
 20
186.6535102291609
 30
0.0
 10
13.45687703844345
 20
186.6979438822015
 30
0.0
 10
13.44824652928683
 20
186.7614915823186
 30
0.0
 10
13.45479855803186
 20
186.8413395486781
 30
0.0
 10
13.48836746468576
 20
186.9337666431799
 30
0.0
 10
13.54505311136603
 20
186.9783005827446
 30
0.0
 10
13.575942094081
 20
187.0025925265533
 30
0.0
  0
ARC
  5
375
330
240
100
AcDbEntity
  8
DV3_Default
  6
Continuous
 62
     7
100
AcDbCircle
 10
-52.9015233693
 20
152.8438190538
 30
0.0
 40
74.48378560371538
100
AcDbArc
 50
0.5892286367
 51
26.9685793011
  0
ARC
  5
376
330
240
100
AcDbEntity
  8
DV3_Default
  6
Continuous
 62
     7
100
AcDbCircle
 10
22.9274584827
 20
153.5301741196
 30
0.0
 40
1.551470010616804
100
AcDbArc
 50
177.0709266245
 51
200.5163137849
  0
ARC
  5
377
330
240
100
AcDbEntity
  8
DV3_Default
  6
Continuous
 62
     7
100
AcDbCircle
 10
36.9012000801
 20
153.5302298927
 30
0.0
 40
1.551832146350873
100
AcDbArc
 50
339.486490687
 51
2.9263298879
  0
ARC
  5
378
330
240
100
AcDbEntity
  8
DV3_Default
  6
Continuous
 62
     7
100
AcDbCircle
 10
20.4159656149
 20
153.2822692336
 30
0.0
 40
0.50007542055093
100
AcDbArc
 50
180.009109724
 51
247.498105082
  0
ARC
  5
379
330
240
100
AcDbEntity
  8
DV3_Default
  6
Continuous
 62
     7
100
AcDbCircle
 10
21.304283698
 20
172.5216580631
 30
0.0
 40
19.7309554241906
100
AcDbArc
 50
266.8631317541
 51
267.9165237432
  0
ARC
  5
37A
330
240
100
AcDbEntity
  8
DV3_Default
  6
Continuous
 62
     7
100
AcDbCircle
 10
21.304283698
 20
172.5216580631
 30
0.0
 40
19.7309554241906
100
AcDbArc
 50
268.3475084571
 51
270.6604152374
  0
ARC
  5
37B
330
240
100
AcDbEntity
  8
DV3_Default
  6
Continuous
 62
     7
100
AcDbCircle
 10
49.1022494066
 20
187.2825649955
 30
0.0
 40
0.5002856602431642
100
AcDbArc
 50
333.3915335048
 51
75.2231194063
  0
ARC
  5
37C
330
240
100
AcDbEntity
  8
DV3_Default
  6
Continuous
 62
     7
100
AcDbCircle
 10
48.0701511175
 20
134.7932864178
 30
0.0
 40
52.98571049562425
100
AcDbArc
 50
89.4275773336
 51
90.4352889964
  0
ARC
  5
37D
330
240
100
AcDbEntity
  8
DV3_Default
  6
Continuous
 62
     7
100
AcDbCircle
 10
39.4132655103
 20
153.2822106969
 30
0.0
 40
0.499868298162327
100
AcDbArc
 50
269.9768026959
 51
359.9975960862
  0
ARC
  5
37E
330
240
100
AcDbEntity
  8
DV3_Default
  6
Continuous
 62
     7
100
AcDbCircle
 10
11.7950357939
 20
131.9169471545
 30
0.0
 40
55.86213579473286
100
AcDbArc
 50
90.4010015376
 51
90.534901386
  0
ARC
  5
37F
330
240
100
AcDbEntity
  8
DV3_Default
  6
Continuous
 62
     7
100
AcDbCircle
 10
10.7267749192
 20
187.2825651585
 30
0.0
 40
0.5002860269264116
100
AcDbArc
 50
104.788303016
 51
206.6141376041
  0
ARC
  5
380
330
240
100
AcDbEntity
  8
DV3_Default
  6
Continuous
 62
     7
100
AcDbCircle
 10
10.0074659634
 20
191.9550067641
 30
0.0
 40
0.7017631576540849
100
AcDbArc
 50
357.5559582919
 51
23.6246973243
  0
SPLINE
  5
381
330
240
100
AcDbEntity
  8
DV3_Default
  6
Continuous
 62
     7
100
AcDbSpline
210
0.0
220
0.0
230
1.0
 70
    12
 71
     3
 72
    10
 73
     6
 74
     0
 42
0.0000001299251917
 43
0.0000000001
 40
0.0
 40
0.0
 40
0.0
 40
0.0
 40
0.3333333333333
 40
0.6666666666667
 40
1.0
 40
1.0
 40
1.0
 40
1.0
 10
10.65041440282971
 20
192.2362341341915
 30
0.0
 41
1.0
 10
10.64476932603153
 20
192.2463644483762
 30
0.0
 41
1.0
 10
10.63307847092046
 20
192.2632926293289
 30
0.0
 41
1.0
 10
10.61370219543739
 20
192.2791464092867
 30
0.0
 41
1.0
 10
10.60086637048316
 20
192.28243889592
 30
0.0
 41
1.0
 10
10.5943564844525
 20
192.2823424397093
 30
0.0
 41
1.0
  0
LINE
  5
382
330
240
100
AcDbEntity
  8
DV3_Default
  6
Continuous
 62
     7
100
AcDbLine
 10
10.5943564845
 20
192.2823424397
 30
0.0
 11
7.4110891223
 21
192.2823424397
 31
0.0
  0
LINE
  5
383
330
240
100
AcDbEntity
  8
DV3_Default
  6
Continuous
 62
     7
100
AcDbLine
 10
7.4110891218
 20
188.2823424397
 30
0.0
 11
10.594356485
 21
188.2823424397
 31
0.0
  0
SPLINE
  5
384
330
240
100
AcDbEntity
  8
DV3_Default
  6
Continuous
 62
     7
100
AcDbSpline
210
0.0
220
0.0
230
1.0
 70
    12
 71
     3
 72
    10
 73
     6
 74
     0
 42
0.0000001299250543
 43
0.0000000001
 40
0.0
 40
0.0
 40
0.0
 40
0.0
 40
0.3333333333333
 40
0.6666666666667
 40
1.0
 40
1.0
 40
1.0
 40
1.0
 10
10.59435648495252
 20
188.282342439709
 30
0.0
 41
1.0
 10
10.60086607218311
 20
188.282245867042
 30
0.0
 41
1.0
 10
10.61370150273735
 20
188.28553819362
 30
0.0
 41
1.0
 10
10.63307785392045
 20
188.301391412266
 30
0.0
 41
1.0
 10
10.64476910473147
 20
188.318320084459
 30
0.0
 41
1.0
 10
10.65041447512971
 20
188.32845077082
 30
0.0
 41
1.0
  0
ARC
  5
385
330
240
100
AcDbEntity
  8
DV3_Default
  6
Continuous
 62
     7
100
AcDbCircle
 10
10.0074584178
 20
188.6096793062
 30
0.0
 40
0.7017706041126223
100
AcDbArc
 50
336.3754647552
 51
2.4438388802
  0
LINE
  5
386
330
240
100
AcDbEntity
  8
DV3_Default
  6
Continuous
 62
     7
100
AcDbLine
 10
10.7085907596
 20
188.6396028771
 30
0.0
 11
10.7085907596
 21
191.9250810288
 31
0.0
  0
LINE
  5
387
330
240
100
AcDbEntity
  8
DV3_Default
  6
Continuous
 62
     7
100
AcDbLine
 10
11.0148765984
 20
191.9250810288
 30
0.0
 11
11.0148765984
 21
188.6396028771
 31
0.0
  0
ARC
  5
388
330
240
100
AcDbEntity
  8
DV3_Default
  6
Continuous
 62
     7
100
AcDbCircle
 10
11.3422779361
 20
191.9788306477
 30
0.0
 40
0.303513949788872
100
AcDbArc
 50
89.7839522797
 51
121.9954053607
  0
ARC
  5
389
330
240
100
AcDbEntity
  8
DV3_Default
  6
Continuous
 62
     7
100
AcDbCircle
 10
11.3792391913
 20
191.9301827635
 30
0.0
 40
0.3643983079034822
100
AcDbArc
 50
122.8712875419
 51
180.8021920255
  0
ARC
  5
38A
330
240
100
AcDbEntity
  8
DV3_Default
  6
Continuous
 62
     7
100
AcDbCircle
 10
11.3792365601
 20
188.6345005844
 30
0.0
 40
0.3643956847785026
100
AcDbArc
 50
179.1977144643
 51
237.1288996637
  0
ARC
  5
38B
330
240
100
AcDbEntity
  8
DV3_Default
  6
Continuous
 62
     7
100
AcDbCircle
 10
11.34227796
 20
188.5858548977
 30
0.0
 40
0.3035146156832399
100
AcDbArc
 50
238.0046216531
 51
270.2160422698
  0
LINE
  5
38C
330
240
100
AcDbEntity
  8
DV3_Default
  6
Continuous
 62
     7
100
AcDbLine
 10
11.3434224044
 20
188.2823424397
 30
0.0
 11
48.4759076294
 21
188.2823424397
 31
0.0
  0
ARC
  5
38D
330
240
100
AcDbEntity
  8
DV3_Default
  6
Continuous
 62
     7
100
AcDbCircle
 10
48.4770521527
 20
188.5858511603
 30
0.0
 40
0.3035108786021811
100
AcDbArc
 50
269.7839401592
 51
301.9969480753
  0
ARC
  5
38E
330
240
100
AcDbEntity
  8
DV3_Default
  6
Continuous
 62
     7
100
AcDbCircle
 10
48.4400878845
 20
188.6345013041
 30
0.0
 40
0.3643988951640825
100
AcDbArc
 50
302.8727847738
 51
0.8021652937
  0
LINE
  5
38F
330
240
100
AcDbEntity
  8
DV3_Default
  6
Continuous
 62
     7
100
AcDbLine
 10
48.804451067
 20
188.6396028771
 30
0.0
 11
48.804451067
 21
191.9250810288
 31
0.0
  0
ARC
  5
390
330
240
100
AcDbEntity
  8
DV3_Default
  6
Continuous
 62
     7
100
AcDbCircle
 10
48.440087828
 20
191.9301834221
 30
0.0
 40
0.3643989631987732
100
AcDbArc
 50
359.1977058478
 51
57.1272504543
  0
ARC
  5
391
330
240
100
AcDbEntity
  8
DV3_Default
  6
Continuous
 62
     7
100
AcDbCircle
 10
48.4770521739
 20
191.9788343755
 30
0.0
 40
0.303510222286928
100
AcDbArc
 50
58.003025485
 51
90.216064968
  0
LINE
  5
392
330
240
100
AcDbEntity
  8
DV3_Default
  6
Continuous
 62
     7
100
AcDbLine
 10
48.4759076259
 20
192.2823424397
 30
0.0
 11
11.3434224068
 21
192.2823424397
 31
0.0
  0
LINE
  5
393
330
240
100
AcDbEntity
  8
DV3_Default
  6
Continuous
 62
     7
100
AcDbLine
 10
11.5063050795
 20
192.7823424288
 30
0.0
 11
48.3130249228
 21
192.7823424288
 31
0.0
  0
LINE
  5
394
330
240
100
AcDbEntity
  8
DV3_Default
  6
Continuous
 62
     7
100
AcDbLine
 10
11.0670263069
 20
192.7823424288
 30
0.0
 11
11.2361867803
 21
192.7823424397
 31
0.0
  0
LINE
  5
395
330
240
100
AcDbEntity
  8
DV3_Default
  6
Continuous
 62
     7
100
AcDbLine
 10
11.2361867803
 20
192.7823424397
 30
0.0
 11
11.5063050795
 21
192.7823424288
 31
0.0
  0
LINE
  5
396
330
240
100
AcDbEntity
  8
DV3_Default
  6
Continuous
 62
     7
100
AcDbLine
 10
48.3130249228
 20
192.7823424288
 30
0.0
 11
48.5831404209
 21
192.7823424397
 31
0.0
  0
LINE
  5
397
330
240
100
AcDbEntity
  8
DV3_Default
  6
Continuous
 62
     7
100
AcDbLine
 10
48.5831404209
 20
192.7823424397
 30
0.0
 11
48.7523021474
 21
192.7823424288
 31
0.0
  0
LINE
  5
398
330
240
100
AcDbEntity
  8
DV3_Default
  6
Continuous
 62
     7
100
AcDbLine
 10
51.9083090857
 20
192.7823424402
 30
0.0
 11
48.7523008898
 21
192.7823424288
 31
0.0
  0
ARC
  5
399
330
240
100
AcDbEntity
  8
DV3_Default
  6
Continuous
 62
     7
100
AcDbCircle
 10
11.0689601405
 20
192.3233519929
 30
0.0
 40
0.4589945097060761
100
AcDbArc
 50
90.2413990347
 51
101.92482827
  0
LINE
  5
39A
330
240
100
AcDbEntity
  8
DV3_Default
  6
Continuous
 62
     7
100
AcDbLine
 10
48.3130249227
 20
187.7823424506
 30
0.0
 11
11.5063050795
 21
187.7823424506
 31
0.0
  0
LINE
  5
39B
330
240
100
AcDbEntity
  8
DV3_Default
  6
Continuous
 62
     7
100
AcDbLine
 10
49.1107368984
 20
191.9250810288
 30
0.0
 11
49.1107368984
 21
188.6396028771
 31
0.0
  0
ARC
  5
39C
330
240
100
AcDbEntity
  8
DV3_Default
  6
Continuous
 62
     7
100
AcDbCircle
 10
49.8118388502
 20
188.6096755475
 30
0.0
 40
0.7017404020423499
100
AcDbArc
 50
177.5557487099
 51
203.6256209168
  0
SPLINE
  5
39D
330
240
100
AcDbEntity
  8
DV3_Default
  6
Continuous
 62
     7
100
AcDbSpline
210
0.0
220
0.0
230
1.0
 70
    12
 71
     3
 72
    10
 73
     6
 74
     0
 42
0.0000001299322316
 43
0.0000000001
 40
0.0
 40
0.0
 40
0.0
 40
0.0
 40
0.3333333333333
 40
0.6666666666667
 40
1.0
 40
1.0
 40
1.0
 40
1.0
 10
49.16891579242963
 20
188.328446932879
 30
0.0
 41
1.0
 10
49.17456075783142
 20
188.318317432365
 30
0.0
 41
1.0
 10
49.18625133492041
 20
188.301390619931
 30
0.0
 41
1.0
 10
49.20562697513731
 20
188.28553821576
 30
0.0
 41
1.0
 10
49.21846234088306
 20
188.282245996035
 30
0.0
 41
1.0
 10
49.22497197995249
 20
188.282342439709
 30
0.0
 41
1.0
  0
LINE
  5
39E
330
240
100
AcDbEntity
  8
DV3_Default
  6
Continuous
 62
     7
100
AcDbLine
 10
52.4082380748
 20
188.2823424397
 30
0.0
 11
49.2249707115
 21
188.2823424397
 31
0.0
  0
LINE
  5
39F
330
240
100
AcDbEntity
  8
DV3_Default
  6
Continuous
 62
     7
100
AcDbLine
 10
49.2249707122
 20
192.2823424397
 30
0.0
 11
52.4082380743
 21
192.2823424397
 31
0.0
  0
SPLINE
  5
3A0
330
240
100
AcDbEntity
  8
DV3_Default
  6
Continuous
 62
     7
100
AcDbSpline
210
0.0
220
0.0
230
1.0
 70
    12
 71
     3
 72
    10
 73
     6
 74
     0
 42
0.0000001299323425
 43
0.0000000001
 40
0.0
 40
0.0
 40
0.0
 40
0.0
 40
0.3333333333333
 40
0.6666666666667
 40
1.0
 40
1.0
 40
1.0
 40
1.0
 10
49.22497197625248
 20
192.2823424397091
 30
0.0
 41
1.0
 10
49.21846264668309
 20
192.2824389995434
 30
0.0
 41
1.0
 10
49.2056277056373
 20
192.2791469433203
 30
0.0
 41
1.0
 10
49.18625204482039
 20
192.2632951227162
 30
0.0
 41
1.0
 10
49.1745611063314
 20
192.2463678353212
 30
0.0
 41
1.0
 10
49.1689158646296
 20
192.2362379719602
 30
0.0
 41
1.0
  0
ARC
  5
3A1
330
240
100
AcDbEntity
  8
DV3_Default
  6
Continuous
 62
     7
100
AcDbCircle
 10
49.8118531536
 20
191.9550064376
 30
0.0
 40
0.7017546106159988
100
AcDbArc
 50
156.3746263375
 51
182.44404481
  0
LINE
  5
3A2
330
240
100
AcDbEntity
  8
DV3_Default
  6
Continuous
 62
     7
100
AcDbLine
 10
11.5063050795
 20
187.7823424506
 30
0.0
 11
11.2361867788
 21
187.7823424397
 31
0.0
  0
LINE
  5
3A3
330
240
100
AcDbEntity
  8
DV3_Default
  6
Continuous
 62
     7
100
AcDbLine
 10
11.2361867788
 20
187.7823424397
 30
0.0
 11
11.0670263068
 21
187.7823424506
 31
0.0
  0
LINE
  5
3A4
330
240
100
AcDbEntity
  8
DV3_Default
  6
Continuous
 62
     7
100
AcDbLine
 10
48.7523008898
 20
187.7823424506
 30
0.0
 11
51.9083090857
 21
187.7823424392
 31
0.0
  0
LINE
  5
3A5
330
240
100
AcDbEntity
  8
DV3_Default
  6
Continuous
 62
     7
100
AcDbLine
 10
48.7523021474
 20
187.7823424506
 30
0.0
 11
48.5831404195
 21
187.7823424397
 31
0.0
  0
LINE
  5
3A6
330
240
100
AcDbEntity
  8
DV3_Default
  6
Continuous
 62
     7
100
AcDbLine
 10
48.5831404195
 20
187.7823424397
 30
0.0
 11
48.3130249227
 21
187.7823424506
 31
0.0
  0
ARC
  5
3A7
330
240
100
AcDbEntity
  8
DV3_Default
  6
Continuous
 62
     7
100
AcDbCircle
 10
48.7503683147
 20
188.241332901
 30
0.0
 40
0.4589945241459833
100
AcDbArc
 50
270.2413989121
 51
281.9248280231
  0
LINE
  5
3A8
330
240
100
AcDbEntity
  8
DV3_Default
  6
Continuous
 62
     7
100
AcDbLine
 10
7.4110880899
 20
192.2823424397
 30
0.0
 11
7.4110880899
 21
188.2823424397
 31
0.0
  0
ARC
  5
3A9
330
240
100
AcDbEntity
  8
DV3_Default
  6
Continuous
 62
     7
100
AcDbCircle
 10
9.7423073585
 20
147.0232475016
 30
0.0
 40
45.76600341780451
100
AcDbArc
 50
88.4577053109
 51
92.5329744785
  0
ARC
  5
3AA
330
240
100
AcDbEntity
  8
DV3_Default
  6
Continuous
 62
     7
100
AcDbCircle
 10
7.9108534396
 20
192.2824283651
 30
0.0
 40
0.5000791505993136
100
AcDbArc
 50
112.4718325346
 51
180.0098447626
  0
ARC
  5
3AB
330
240
100
AcDbEntity
  8
DV3_Default
  6
Continuous
 62
     7
100
AcDbCircle
 10
7.9108534396
 20
188.2822565144
 30
0.0
 40
0.5000791506183107
100
AcDbArc
 50
179.9901552388
 51
247.5281674713
  0
SPLINE
  5
3AC
330
240
100
AcDbEntity
  8
DV3_Default
  6
Continuous
 62
     7
100
AcDbSpline
210
0.0
220
0.0
230
1.0
 70
     8
 71
     3
 72
    22
 73
    18
 74
     0
 42
0.0000000030712804
 43
0.0000000001
 40
0.0
 40
0.0
 40
0.0
 40
0.0
 40
0.0830305712661986
 40
0.1583104548470199
 40
0.2258499222726868
 40
0.2856571307661475
 40
0.337738708990397
 40
0.3821000653366191
 40
0.4187455593353931
 40
0.4526167499537602
 40
0.5004569583758697
 40
0.5584149019077773
 40
0.6264914211214352
 40
0.7046890221130834
 40
0.7930093963114596
 40
0.8914502035324895
 40
1.0
 40
1.0
 40
1.0
 40
1.0
 10
7.71970878831385
 20
187.8201495146293
 30
0.0
 10
7.732489844442137
 20
187.8167259431182
 30
0.0
 10
7.754733692831111
 20
187.8112975838827
 30
0.0
 10
7.837098312562906
 20
187.8045020833436
 30
0.0
 10
7.938218048672397
 20
187.7996263692211
 30
0.0
 10
8.051456840689003
 20
187.7961716777091
 30
0.0
 10
8.166776879611731
 20
187.7938806870008
 30
0.0
 10
8.276622176322773
 20
187.7925065703267
 30
0.0
 10
8.378503525809016
 20
187.7919274361902
 30
0.0
 10
8.488693742483317
 20
187.7920462742981
 30
0.0
 10
8.631590054670152
 20
187.7920013853076
 30
0.0
 10
8.828331630387181
 20
187.7920178547376
 30
0.0
 10
9.08588455571191
 20
187.7920122401386
 30
0.0
 10
9.416769070039688
 20
187.7920140927278
 30
0.0
 10
9.831473180638707
 20
187.7920134972432
 30
0.0
 10
10.35709516065533
 20
187.7920136898803
 30
0.0
 10
10.73616752920792
 20
187.7920136428405
 30
0.0
 10
10.97409337930236
 20
187.792013643274
 30
0.0
  0
LINE
  5
3AD
330
240
100
AcDbEntity
  8
DV3_Default
  6
Continuous
 62
     7
100
AcDbLine
 10
52.4082391067
 20
188.2823424397
 30
0.0
 11
52.4082391067
 21
192.2823424397
 31
0.0
  0
ARC
  5
3AE
330
240
100
AcDbEntity
  8
DV3_Default
  6
Continuous
 62
     7
100
AcDbCircle
 10
51.908473757
 20
192.2824283651
 30
0.0
 40
0.5000791505995057
100
AcDbArc
 50
359.9901552374
 51
67.5281674653
  0
ARC
  5
3AF
330
240
100
AcDbEntity
  8
DV3_Default
  6
Continuous
 62
     7
100
AcDbCircle
 10
50.0770209767
 20
233.5411219256
 30
0.0
 40
45.76568807667062
100
AcDbArc
 50
268.4576948325
 51
272.5329910144
  0
ARC
  5
3B0
330
240
100
AcDbEntity
  8
DV3_Default
  6
Continuous
 62
     7
100
AcDbCircle
 10
51.908473757
 20
188.2822565144
 30
0.0
 40
0.5000791506184956
100
AcDbArc
 50
292.4718325313
 51
0.0098447612
  0
ENDBLK
  5
3B2
330
240
100
AcDbEntity
  8
0
100
AcDbBlockEnd
  0
ENDSEC
  0
SECTION
  2
ENTITIES
  0
ARC
  5
5E
330
1F
100
AcDbEntity
  8
Default
  6
Continuous
 62
     7
100
AcDbCircle
 10
533.5971063758
 20
351.3449732297
 30
0.0
 40
81.78484089065252
100
AcDbArc
 50
267.8777153255
 51
274.5044918499
  0
LINE
  5
5F
330
1F
100
AcDbEntity
  8
Default
  6
Continuous
 62
     7
100
AcDbLine
 10
495.4982345525
 20
287.0336172301
 30
0.0
 11
495.4982345552
 21
271.0591132796
 31
0.0
  0
LINE
  5
60
330
1F
100
AcDbEntity
  8
Default
  6
Continuous
 62
     7
100
AcDbLine
 10
378.6947847688
 20
153.2806640864
 30
0.0
 11
379.9191858795
 21
153.2730952911
 31
0.0
  0
LINE
  5
61
330
1F
100
AcDbEntity
  8
Default
  6
Continuous
 62
     7
100
AcDbLine
 10
377.9160936333
 20
153.2806640891
 30
0.0
 11
361.9393973861
 21
153.2806573322
 31
0.0
  0
LINE
  5
62
330
1F
100
AcDbEntity
  8
Default
  6
Continuous
 62
     7
100
AcDbLine
 10
352.9036821844
 20
187.0404499893
 30
0.0
 11
350.2946445091
 21
187.0404499893
 31
0.0
  0
INSERT
  5
64
330
1F
100
AcDbEntity
  8
Default
100
AcDbBlockReference
  2
SEANNOT_GROUP
 10
0.0
 20
0.0
 30
0.0
  0
INSERT
  5
6B
330
1F
100
AcDbEntity
  8
Default
100
AcDbBlockReference
  2
SEANNOT_GROUP1
 10
0.0
 20
0.0
 30
0.0
  0
INSERT
  5
71
330
1F
100
AcDbEntity
  8
Default
100
AcDbBlockReference
  2
SEANNOT_GROUP2
 10
0.0
 20
0.0
 30
0.0
  0
INSERT
  5
77
330
1F
100
AcDbEntity
  8
Default
100
AcDbBlockReference
  2
SE
 10
0.0
 20
0.0
 30
0.0
  0
INSERT
  5
14F
330
1F
100
AcDbEntity
  8
Default
100
AcDbBlockReference
  2
SE1
 10
0.0
 20
0.0
 30
0.0
  0
INSERT
  5
241
330
1F
100
AcDbEntity
  8
Default
100
AcDbBlockReference
  2
SE2
 10
0.0
 20
0.0
 30
0.0
  0
TEXT
  5
3B4
330
1F
100
AcDbEntity
  8
Default
  6
Continuous
 62
     7
100
AcDbText
 10
5.9362635081
 20
53.4225120485
 30
0.0
 40
10.0
  1
Grohe AG^J
  7
SEACAD_seiso_ttf
 11
5.9362635081
 21
63.4225120485
 31
0.0
100
AcDbText
 73
     3
  0
TEXT
  5
3B5
330
1F
100
AcDbEntity
  8
Default
  6
Continuous
 62
     7
100
AcDbText
 10
5.9362635081
 20
37.0588756849
 30
0.0
 40
10.0
  1
 
  7
SEACAD_seiso_ttf
 11
5.9362635081
 21
47.0588756849
 31
0.0
100
AcDbText
 73
     3
  0
TEXT
  5
3B6
330
1F
100
AcDbEntity
  8
Default
  6
Continuous
 62
     7
100
AcDbText
 10
5.9362635081
 20
20.6952393213
 30
0.0
 40
10.0
  1
ecn:
  7
SEACAD_seiso_ttf
 11
5.9362635081
 21
30.6952393213
 31
0.0
100
AcDbText
 73
     3
  0
TEXT
  5
3B7
330
1F
100
AcDbEntity
  8
Default
  6
Continuous
 62
     7
100
AcDbText
 10
5.9362635081
 20
4.3316029576
 30
0.0
 40
10.0
  1
unit: mm
  7
SEACAD_seiso_ttf
 11
5.9362635081
 21
14.3316029576
 31
0.0
100
AcDbText
 73
     3
  0
LINE
  5
3B8
330
1F
100
AcDbEntity
  8
Default
  6
Continuous
 62
     7
100
AcDbLine
 10
0.0
 20
0.0
 30
0.0
 11
100.0
 21
0.0
 31
0.0
  0
LINE
  5
3B9
330
1F
100
AcDbEntity
  8
Default
  6
Continuous
 62
     7
100
AcDbLine
 10
0.0
 20
0.0
 30
0.0
 11
0.0
 21
100.0
 31
0.0
  0
TEXT
  5
3BA
330
1F
100
AcDbEntity
  8
Default
  6
Continuous
 62
     7
100
AcDbText
 10
24.3923665681
 20
-18.2375342018
 30
0.0
 40
10.0
  1
100 mm
  7
SEACAD_seiso_ttf
 11
24.3923665681
 21
-8.2375342018
 31
0.0
100
AcDbText
 73
     3
  0
TEXT
  5
3BB
330
1F
100
AcDbEntity
  8
Default
  6
Continuous
 62
     7
100
AcDbText
 10
-7.6150308803
 20
24.6231930421
 30
0.0
 40
10.0
  1
100 mm
 50
90.0
  7
SEACAD_seiso_ttf
 11
-17.6150308803
 21
24.6231930421
 31
0.0
100
AcDbText
 73
     3
  0
TEXT
  5
3BC
330
1F
100
AcDbEntity
  8
Default
  6
Continuous
 62
     7
100
AcDbText
 10
28.4878128572
 20
20.0907663715
 30
0.0
 40
10.0
  1
227068
  7
SEACAD_seiso_ttf
 11
28.4878128572
 21
30.0907663715
 31
0.0
100
AcDbText
 73
     3
  0
TEXT
  5
3BD
330
1F
100
AcDbEntity
  8
Default
  6
Continuous
 62
     7
100
AcDbText
 10
5.9012241913
 20
36.7242780188
 30
0.0
 40
10.0
  1
40633000
  7
SEACAD_seiso_ttf
 11
5.9012241913
 21
46.7242780188
 31
0.0
100
AcDbText
 73
     3
  0
ENDSEC
  0
SECTION
  2
OBJECTS
  0
DICTIONARY
  5
C
330
0
100
AcDbDictionary
281
     1
  3
ACAD_GROUP
350
D
  3
ACAD_LAYOUT
350
1A
  3
ACAD_MLEADERSTYLE
350
3C1
  3
ACAD_MLINESTYLE
350
17
  3
ACAD_PLOTSETTINGS
350
19
  3
ACAD_PLOTSTYLENAME
350
E
  3
ACAD_SCALELIST
350
3B
  3
ACAD_TABLESTYLE
350
3C0
  3
ACAD_VISUALSTYLE
350
2A
  3
AcDbVariableDictionary
350
3BE
  0
DICTIONARY
  5
D
102
{ACAD_REACTORS
330
C
102
}
330
C
100
AcDbDictionary
281
     1
  0
DICTIONARY
  5
1A
102
{ACAD_REACTORS
330
C
102
}
330
C
100
AcDbDictionary
281
     1
  3
Layout1
350
1E
  3
Model
350
22
  0
DICTIONARY
  5
3C1
102
{ACAD_REACTORS
330
C
102
}
330
C
100
AcDbDictionary
281
     1
  0
DICTIONARY
  5
17
102
{ACAD_REACTORS
330
C
102
}
330
C
100
AcDbDictionary
281
     1
  3
Standard
350
18
  0
DICTIONARY
  5
19
102
{ACAD_REACTORS
330
C
102
}
330
C
100
AcDbDictionary
281
     1
  0
ACDBDICTIONARYWDFLT
  5
E
102
{ACAD_REACTORS
330
C
102
}
330
C
100
AcDbDictionary
281
     1
  3
Normal
350
F
100
AcDbDictionaryWithDefault
340
F
  0
DICTIONARY
  5
3B
102
{ACAD_REACTORS
330
C
102
}
330
C
100
AcDbDictionary
281
     1
  3
A0
350
3C
  3
A1
350
3D
  3
A2
350
3E
  3
A3
350
3F
  3
A4
350
40
  3
A5
350
41
  3
A6
350
42
  3
A7
350
43
  3
A8
350
44
  3
A9
350
45
  3
B0
350
46
  3
B1
350
47
  3
B2
350
48
  3
B3
350
49
  3
B4
350
4A
  3
B5
350
4B
  3
B6
350
4C
  3
B7
350
4D
  3
B8
350
4E
  3
B9
350
4F
  3
C0
350
50
  3
C1
350
51
  3
C2
350
52
  3
C3
350
53
  3
C4
350
54
  3
C5
350
55
  3
C6
350
56
  3
C7
350
57
  3
C8
350
58
  3
C9
350
59
  3
D0
350
5A
  3
D1
350
5B
  3
D2
350
5C
  0
DICTIONARY
  5
3C0
102
{ACAD_REACTORS
330
C
102
}
330
C
100
AcDbDictionary
281
     1
  0
DICTIONARY
  5
2A
102
{ACAD_REACTORS
330
C
102
}
330
C
100
AcDbDictionary
281
     1
  3
2dWireframe
350
2F
  3
3D Hidden
350
31
  3
3dWireframe
350
30
  3
Basic
350
32
  3
Brighten
350
36
  3
ColorChange
350
3A
  3
Conceptual
350
34
  3
Dim
350
35
  3
Facepattern
350
39
  3
Flat
350
2B
  3
FlatWithEdges
350
2C
  3
Gouraud
350
2D
  3
GouraudWithEdges
350
2E
  3
Linepattern
350
38
  3
Realistic
350
33
  3
Thicken
350
37
  0
DICTIONARY
  5
3BE
102
{ACAD_REACTORS
330
C
102
}
330
C
100
AcDbDictionary
281
     1
  3
CANNOSCALE
350
3BF
  3
PSOLHEIGHT
350
3C3
  3
PSOLWIDTH
350
3C2
  0
LAYOUT
  5
1E
102
{ACAD_REACTORS
330
1A
102
}
330
1A
100
AcDbPlotSettings
  1

  2
none_device
  4

  6

 40
0.0
 41
0.0
 42
0.0
 43
0.0
 44
0.0
 45
0.0
 46
0.0
 47
0.0
 48
0.0
 49
0.0
140
0.0
141
0.0
142
1.0
143
1.0
 70
   688
 72
     0
 73
     0
 74
     5
  7

 75
    16
147
1.0
148
0.0
149
0.0
100
AcDbLayout
  1
Layout1
 70
     1
 71
     1
 10
0.0
 20
0.0
 11
3000.0
 21
4500.0
 12
0.0
 22
0.0
 32
0.0
 14
0.0
 24
0.0
 34
0.0
 15
3000.0
 25
4500.0
 35
0.0
146
0.0
 13
0.0
 23
0.0
 33
0.0
 16
1.0
 26
0.0
 36
0.0
 17
0.0
 27
1.0
 37
0.0
 76
     0
330
1B
  0
LAYOUT
  5
22
102
{ACAD_REACTORS
330
1A
102
}
330
1A
100
AcDbPlotSettings
  1

  2
none_device
  4

  6

 40
0.0
 41
0.0
 42
0.0
 43
0.0
 44
0.0
 45
0.0
 46
0.0
 47
0.0
 48
0.0
 49
0.0
140
0.0
141
0.0
142
1.0
143
1.0
 70
  1712
 72
     0
 73
     0
 74
     0
  7

 75
     0
147
1.0
148
0.0
149
0.0
100
AcDbLayout
  1
Model
 70
     1
 71
     0
 10
0.0
 20
0.0
 11
3000.0
 21
4500.0
 12
0.0
 22
0.0
 32
0.0
 14
0.0
 24
0.0
 34
0.0
 15
3000.0
 25
4500.0
 35
0.0
146
0.0
 13
0.0
 23
0.0
 33
0.0
 16
1.0
 26
0.0
 36
0.0
 17
0.0
 27
1.0
 37
0.0
 76
     0
330
1F
331
29
  0
MLINESTYLE
  5
18
102
{ACAD_REACTORS
330
17
102
}
330
17
100
AcDbMlineStyle
  2
Standard
 70
     0
  3

 62
   256
 51
90.0
 52
90.0
 71
     2
 49
0.5
 62
   256
  6
BYLAYER
 49
-0.5
 62
   256
  6
BYLAYER
  0
ACDBPLACEHOLDER
  5
F
102
{ACAD_REACTORS
330
E
102
}
330
E
  0
SCALE
  5
3C
102
{ACAD_REACTORS
330
3B
102
}
330
3B
100
AcDbScale
 70
     0
300
1:1
140
1.0
141
1.0
290
     1
  0
SCALE
  5
3D
102
{ACAD_REACTORS
330
3B
102
}
330
3B
100
AcDbScale
 70
     0
300
1:2
140
1.0
141
2.0
290
     0
  0
SCALE
  5
3E
102
{ACAD_REACTORS
330
3B
102
}
330
3B
100
AcDbScale
 70
     0
300
1:4
140
1.0
141
4.0
290
     0
  0
SCALE
  5
3F
102
{ACAD_REACTORS
330
3B
102
}
330
3B
100
AcDbScale
 70
     0
300
1:5
140
1.0
141
5.0
290
     0
  0
SCALE
  5
40
102
{ACAD_REACTORS
330
3B
102
}
330
3B
100
AcDbScale
 70
     0
300
1:8
140
1.0
141
8.0
290
     0
  0
SCALE
  5
41
102
{ACAD_REACTORS
330
3B
102
}
330
3B
100
AcDbScale
 70
     0
300
1:10
140
1.0
141
10.0
290
     0
  0
SCALE
  5
42
102
{ACAD_REACTORS
330
3B
102
}
330
3B
100
AcDbScale
 70
     0
300
1:16
140
1.0
141
16.0
290
     0
  0
SCALE
  5
43
102
{ACAD_REACTORS
330
3B
102
}
330
3B
100
AcDbScale
 70
     0
300
1:20
140
1.0
141
20.0
290
     0
  0
SCALE
  5
44
102
{ACAD_REACTORS
330
3B
102
}
330
3B
100
AcDbScale
 70
     0
300
1:30
140
1.0
141
30.0
290
     0
  0
SCALE
  5
45
102
{ACAD_REACTORS
330
3B
102
}
330
3B
100
AcDbScale
 70
     0
300
1:40
140
1.0
141
40.0
290
     0
  0
SCALE
  5
46
102
{ACAD_REACTORS
330
3B
102
}
330
3B
100
AcDbScale
 70
     0
300
1:50
140
1.0
141
50.0
290
     0
  0
SCALE
  5
47
102
{ACAD_REACTORS
330
3B
102
}
330
3B
100
AcDbScale
 70
     0
300
1:100
140
1.0
141
100.0
290
     0
  0
SCALE
  5
48
102
{ACAD_REACTORS
330
3B
102
}
330
3B
100
AcDbScale
 70
     0
300
2:1
140
2.0
141
1.0
290
     0
  0
SCALE
  5
49
102
{ACAD_REACTORS
330
3B
102
}
330
3B
100
AcDbScale
 70
     0
300
4:1
140
4.0
141
1.0
290
     0
  0
SCALE
  5
4A
102
{ACAD_REACTORS
330
3B
102
}
330
3B
100
AcDbScale
 70
     0
300
8:1
140
8.0
141
1.0
290
     0
  0
SCALE
  5
4B
102
{ACAD_REACTORS
330
3B
102
}
330
3B
100
AcDbScale
 70
     0
300
10:1
140
10.0
141
1.0
290
     0
  0
SCALE
  5
4C
102
{ACAD_REACTORS
330
3B
102
}
330
3B
100
AcDbScale
 70
     0
300
100:1
140
100.0
141
1.0
290
     0
  0
SCALE
  5
4D
102
{ACAD_REACTORS
330
3B
102
}
330
3B
100
AcDbScale
 70
     0
300
1/128" = 1'-0"
140
0.0078125
141
12.0
290
     0
  0
SCALE
  5
4E
102
{ACAD_REACTORS
330
3B
102
}
330
3B
100
AcDbScale
 70
     0
300
1/64" = 1'-0"
140
0.015625
141
12.0
290
     0
  0
SCALE
  5
4F
102
{ACAD_REACTORS
330
3B
102
}
330
3B
100
AcDbScale
 70
     0
300
1/32" = 1'-0"
140
0.03125
141
12.0
290
     0
  0
SCALE
  5
50
102
{ACAD_REACTORS
330
3B
102
}
330
3B
100
AcDbScale
 70
     0
300
1/16" = 1'-0"
140
0.0625
141
12.0
290
     0
  0
SCALE
  5
51
102
{ACAD_REACTORS
330
3B
102
}
330
3B
100
AcDbScale
 70
     0
300
3/32" = 1'-0"
140
0.09375
141
12.0
290
     0
  0
SCALE
  5
52
102
{ACAD_REACTORS
330
3B
102
}
330
3B
100
AcDbScale
 70
     0
300
1/8" = 1'-0"
140
0.125
141
12.0
290
     0
  0
SCALE
  5
53
102
{ACAD_REACTORS
330
3B
102
}
330
3B
100
AcDbScale
 70
     0
300
3/16" = 1'-0"
140
0.1875
141
12.0
290
     0
  0
SCALE
  5
54
102
{ACAD_REACTORS
330
3B
102
}
330
3B
100
AcDbScale
 70
     0
300
1/4" = 1'-0"
140
0.25
141
12.0
290
     0
  0
SCALE
  5
55
102
{ACAD_REACTORS
330
3B
102
}
330
3B
100
AcDbScale
 70
     0
300
3/8" = 1'-0"
140
0.375
141
12.0
290
     0
  0
SCALE
  5
56
102
{ACAD_REACTORS
330
3B
102
}
330
3B
100
AcDbScale
 70
     0
300
1/2" = 1'-0"
140
0.5
141
12.0
290
     0
  0
SCALE
  5
57
102
{ACAD_REACTORS
330
3B
102
}
330
3B
100
AcDbScale
 70
     0
300
3/4" = 1'-0"
140
0.75
141
12.0
290
     0
  0
SCALE
  5
58
102
{ACAD_REACTORS
330
3B
102
}
330
3B
100
AcDbScale
 70
     0
300
1" = 1'-0"
140
1.0
141
12.0
290
     0
  0
SCALE
  5
59
102
{ACAD_REACTORS
330
3B
102
}
330
3B
100
AcDbScale
 70
     0
300
1-1/2" = 1'-0"
140
1.5
141
12.0
290
     0
  0
SCALE
  5
5A
102
{ACAD_REACTORS
330
3B
102
}
330
3B
100
AcDbScale
 70
     0
300
3" = 1'-0"
140
3.0
141
12.0
290
     0
  0
SCALE
  5
5B
102
{ACAD_REACTORS
330
3B
102
}
330
3B
100
AcDbScale
 70
     0
300
6" = 1'-0"
140
6.0
141
12.0
290
     0
  0
SCALE
  5
5C
102
{ACAD_REACTORS
330
3B
102
}
330
3B
100
AcDbScale
 70
     0
300
1'-0" = 1'-0"
140
12.0
141
12.0
290
     0
  0
VISUALSTYLE
  5
2F
102
{ACAD_REACTORS
330
2A
102
}
330
2A
100
AcDbVisualStyle
  2
2dWireframe
 70
     4
 71
     0
 72
     2
 73
     0
 90
        0
 40
-0.6
 41
-30.0
 62
     5
 63
     7
 74
     1
 91
        4
 64
     7
 65
   257
 75
     1
175
     1
 42
1.0
 92
        0
 66
   257
 43
1.0
 76
     1
 77
     6
 78
     2
 67
     7
 79
     5
170
     0
171
     0
290
     0
174
     0
 93
        1
 44
0.0
173
     0
291
     0
 45
0.0
1001
ACAD
1000
AcDbSavedByObjectVersion
1070
     0
  0
VISUALSTYLE
  5
31
102
{ACAD_REACTORS
330
2A
102
}
330
2A
100
AcDbVisualStyle
  2
3D Hidden
 70
     6
 71
     1
 72
     2
 73
     2
 90
        0
 40
-0.6
 41
-30.0
 62
     5
 63
     7
 74
     2
 91
        2
 64
     7
 65
   257
 75
     2
175
     1
 42
40.0
 92
        0
 66
   257
 43
1.0
 76
     1
 77
     6
 78
     2
 67
     7
 79
     3
170
     0
171
     0
290
     0
174
     0
 93
        1
 44
0.0
173
     0
291
     0
 45
0.0
1001
ACAD
1000
AcDbSavedByObjectVersion
1070
     0
  0
VISUALSTYLE
  5
30
102
{ACAD_REACTORS
330
2A
102
}
330
2A
100
AcDbVisualStyle
  2
3dWireframe
 70
     5
 71
     0
 72
     2
 73
     0
 90
        0
 40
-0.6
 41
-30.0
 62
     5
 63
     7
 74
     1
 91
        4
 64
     7
 65
   257
 75
     1
175
     1
 42
1.0
 92
        0
 66
   257
 43
1.0
 76
     1
 77
     6
 78
     2
 67
     7
 79
     5
170
     0
171
     0
290
     0
174
     0
 93
        1
 44
0.0
173
     0
291
     0
 45
0.0
1001
ACAD
1000
AcDbSavedByObjectVersion
1070
     0
  0
VISUALSTYLE
  5
32
102
{ACAD_REACTORS
330
2A
102
}
330
2A
100
AcDbVisualStyle
  2
Basic
 70
     7
 71
     1
 72
     0
 73
     1
 90
        0
 40
-0.6
 41
-30.0
 62
     5
 63
     7
 74
     0
 91
        4
 64
     7
 65
   257
 75
     1
175
     1
 42
1.0
 92
        8
 66
     7
 43
1.0
 76
     1
 77
     6
 78
     2
 67
     7
 79
     5
170
     0
171
     0
290
     0
174
     0
 93
        1
 44
0.0
173
     0
291
     1
 45
0.0
1001
ACAD
1000
AcDbSavedByObjectVersion
1070
     0
  0
VISUALSTYLE
  5
36
102
{ACAD_REACTORS
330
2A
102
}
330
2A
100
AcDbVisualStyle
  2
Brighten
 70
    12
 71
     2
 72
     2
 73
     0
 90
        0
 40
-0.6
 41
-30.0
 62
     5
 63
     7
 74
     1
 91
        4
 64
     7
 65
   257
 75
     1
175
     1
 42
1.0
 92
        8
 66
     7
 43
1.0
 76
     1
 77
     6
 78
     2
 67
     7
 79
     5
170
     0
171
     0
290
     0
174
     0
 93
        1
 44
50.0
173
     0
291
     1
 45
0.0
1001
ACAD
1000
AcDbSavedByObjectVersion
1070
     0
  0
VISUALSTYLE
  5
3A
102
{ACAD_REACTORS
330
2A
102
}
330
2A
100
AcDbVisualStyle
  2
ColorChange
 70
    16
 71
     2
 72
     2
 73
     3
 90
        0
 40
-0.6
 41
-30.0
 62
     5
 63
     8
 74
     1
 91
        4
 64
     7
 65
   257
 75
     1
175
     1
 42
1.0
 92
        8
 66
     8
 43
1.0
 76
     1
 77
     6
 78
     2
 67
     7
 79
     5
170
     0
171
     0
290
     0
174
     0
 93
        1
 44
0.0
173
     0
291
     1
 45
0.0
1001
ACAD
1000
AcDbSavedByObjectVersion
1070
     0
  0
VISUALSTYLE
  5
34
102
{ACAD_REACTORS
330
2A
102
}
330
2A
100
AcDbVisualStyle
  2
Conceptual
 70
     9
 71
     3
 72
     2
 73
     0
 90
        0
 40
-0.6
 41
-30.0
 62
     5
 63
     7
 74
     2
 91
        2
 64
     7
 65
   257
 75
     1
175
     1
 42
40.0
 92
        8
 66
     7
 43
1.0
 76
     1
 77
     6
 78
     2
 67
     7
 79
     3
170
     0
171
     0
290
     0
174
     0
 93
        1
 44
0.0
173
     0
291
     0
 45
0.0
1001
ACAD
1000
AcDbSavedByObjectVersion
1070
     0
  0
VISUALSTYLE
  5
35
102
{ACAD_REACTORS
330
2A
102
}
330
2A
100
AcDbVisualStyle
  2
Dim
 70
    11
 71
     2
 72
     2
 73
     0
 90
        0
 40
-0.6
 41
-30.0
 62
     5
 63
     7
 74
     1
 91
        4
 64
     7
 65
   257
 75
     1
175
     1
 42
1.0
 92
        8
 66
     7
 43
1.0
 76
     1
 77
     6
 78
     2
 67
     7
 79
     5
170
     0
171
     0
290
     0
174
     0
 93
        1
 44
-50.0
173
     0
291
     1
 45
0.0
1001
ACAD
1000
AcDbSavedByObjectVersion
1070
     0
  0
VISUALSTYLE
  5
39
102
{ACAD_REACTORS
330
2A
102
}
330
2A
100
AcDbVisualStyle
  2
Facepattern
 70
    15
 71
     2
 72
     2
 73
     0
 90
        0
 40
-0.6
 41
-30.0
 62
     5
 63
     7
 74
     1
 91
        4
 64
     7
 65
   257
 75
     1
175
     1
 42
1.0
 92
        8
 66
     7
 43
1.0
 76
     1
 77
     6
 78
     2
 67
     7
 79
     5
170
     0
171
     0
290
     0
174
     0
 93
        1
 44
0.0
173
     0
291
     1
 45
0.0
1001
ACAD
1000
AcDbSavedByObjectVersion
1070
     0
  0
VISUALSTYLE
  5
2B
102
{ACAD_REACTORS
330
2A
102
}
330
2A
100
AcDbVisualStyle
  2
Flat
 70
     0
 71
     2
 72
     1
 73
     1
 90
        2
 40
-0.6
 41
30.0
 62
     5
 63
     7
 74
     0
 91
        4
 64
     7
 65
   257
 75
     1
175
     1
 42
1.0
 92
        8
 66
     7
 43
1.0
 76
     1
 77
     6
 78
     2
 67
     7
 79
     5
170
     0
171
     0
290
     0
174
     0
 93
       13
 44
0.0
173
     0
291
     1
 45
0.0
1001
ACAD
1000
AcDbSavedByObjectVersion
1070
     0
  0
VISUALSTYLE
  5
2C
102
{ACAD_REACTORS
330
2A
102
}
330
2A
100
AcDbVisualStyle
  2
FlatWithEdges
 70
     1
 71
     2
 72
     1
 73
     1
 90
        2
 40
-0.6
 41
30.0
 62
     5
 63
     7
 74
     1
 91
        4
 64
     7
 65
   257
 75
     1
175
     1
 42
1.0
 92
        0
 66
   257
 43
1.0
 76
     1
 77
     6
 78
     2
 67
     7
 79
     5
170
     0
171
     0
290
     0
174
     0
 93
       13
 44
0.0
173
     0
291
     1
 45
0.0
1001
ACAD
1000
AcDbSavedByObjectVersion
1070
     0
  0
VISUALSTYLE
  5
2D
102
{ACAD_REACTORS
330
2A
102
}
330
2A
100
AcDbVisualStyle
  2
Gouraud
 70
     2
 71
     2
 72
     2
 73
     1
 90
        2
 40
-0.6
 41
30.0
 62
     5
 63
     7
 74
     0
 91
        4
 64
     7
 65
   257
 75
     1
175
     1
 42
1.0
 92
        0
 66
     7
 43
1.0
 76
     1
 77
     6
 78
     2
 67
     7
 79
     5
170
     0
171
     0
290
     0
174
     0
 93
       13
 44
0.0
173
     0
291
     1
 45
0.0
1001
ACAD
1000
AcDbSavedByObjectVersion
1070
     0
  0
VISUALSTYLE
  5
2E
102
{ACAD_REACTORS
330
2A
102
}
330
2A
100
AcDbVisualStyle
  2
GouraudWithEdges
 70
     3
 71
     2
 72
     2
 73
     1
 90
        2
 40
-0.6
 41
30.0
 62
     5
 63
     7
 74
     1
 91
        4
 64
     7
 65
   257
 75
     1
175
     1
 42
1.0
 92
        0
 66
   257
 43
1.0
 76
     1
 77
     6
 78
     2
 67
     7
 79
     5
170
     0
171
     0
290
     0
174
     0
 93
       13
 44
0.0
173
     0
291
     1
 45
0.0
1001
ACAD
1000
AcDbSavedByObjectVersion
1070
     0
  0
VISUALSTYLE
  5
38
102
{ACAD_REACTORS
330
2A
102
}
330
2A
100
AcDbVisualStyle
  2
Linepattern
 70
    14
 71
     2
 72
     2
 73
     0
 90
        0
 40
-0.6
 41
-30.0
 62
     5
 63
     7
 74
     1
 91
        4
 64
     7
 65
   257
 75
     7
175
     7
 42
1.0
 92
        8
 66
     7
 43
1.0
 76
     1
 77
     6
 78
     2
 67
     7
 79
     5
170
     0
171
     0
290
     0
174
     0
 93
        1
 44
0.0
173
     0
291
     1
 45
0.0
1001
ACAD
1000
AcDbSavedByObjectVersion
1070
     0
  0
VISUALSTYLE
  5
33
102
{ACAD_REACTORS
330
2A
102
}
330
2A
100
AcDbVisualStyle
  2
Realistic
 70
     8
 71
     2
 72
     2
 73
     0
 90
        0
 40
-0.6
 41
-30.0
 62
     5
 63
     7
 74
     1
 91
        0
 64
     7
 65
   257
 75
     1
175
     1
 42
1.0
 92
        8
 66
     8
 43
1.0
 76
     1
 77
     6
 78
     2
 67
     7
 79
     5
170
     0
171
     0
290
     0
174
     0
 93
       13
 44
0.0
173
     0
291
     0
 45
0.0
1001
ACAD
1000
AcDbSavedByObjectVersion
1070
     0
  0
VISUALSTYLE
  5
37
102
{ACAD_REACTORS
330
2A
102
}
330
2A
100
AcDbVisualStyle
  2
Thicken
 70
    13
 71
     2
 72
     2
 73
     0
 90
        0
 40
-0.6
 41
-30.0
 62
     5
 63
     7
 74
     1
 91
        4
 64
     7
 65
   257
 75
     1
175
     1
 42
1.0
 92
       12
 66
     7
 43
1.0
 76
     1
 77
     6
 78
     2
 67
     7
 79
     5
170
     0
171
     0
290
     0
174
     0
 93
        1
 44
0.0
173
     0
291
     1
 45
0.0
1001
ACAD
1000
AcDbSavedByObjectVersion
1070
     0
  0
DICTIONARYVAR
  5
3BF
102
{ACAD_REACTORS
330
3BE
102
}
330
3BE
100
DictionaryVariables
280
     0
  1
1:1
  0
DICTIONARYVAR
  5
3C3
102
{ACAD_REACTORS
330
3BE
102
}
330
3BE
100
DictionaryVariables
280
     0
  1
80.000000
  0
DICTIONARYVAR
  5
3C2
102
{ACAD_REACTORS
330
3BE
102
}
330
3BE
100
DictionaryVariables
280
     0
  1
5.000000
  0
ENDSEC
  0
EOF
