  0
SECTION
  2
HEADER
  9
$ACADVER
  1
AC1024
  9
$ACADMAINTVER
 70
   205
  9
$DWGCODEPAGE
  3
ANSI_1252
  9
$LASTSAVEDBY
  1
Ibrahim
  9
$INSBASE
 10
0.0
 20
0.0
 30
0.0
  9
$EXTMIN
 10
-54.01346817494553
 20
-91.04021492188362
 30
0.0
  9
$EXTMAX
 10
7.015527330173402
 20
-24.00000000000007
 30
0.0
  9
$LIMMIN
 10
0.0
 20
0.0
  9
$LIMMAX
 10
12.0
 20
9.0
  9
$ORTHOMODE
 70
     1
  9
$REGENMODE
 70
     1
  9
$FILLMODE
 70
     1
  9
$QTEXTMODE
 70
     0
  9
$MIRRTEXT
 70
     0
  9
$LTSCALE
 40
1.0
  9
$ATTMODE
 70
     1
  9
$TEXTSIZE
 40
0.2
  9
$TRACEWID
 40
0.05
  9
$TEXTSTYLE
  7
Standard
  9
$CLAYER
  8
Basin-Dual_Mount-Grohe-Essence-39669000-39670000
  9
$CELTYPE
  6
ByLayer
  9
$CECOLOR
 62
   256
  9
$CELTSCALE
 40
1.0
  9
$DISPSILH
 70
     0
  9
$DIMSCALE
 40
1.0
  9
$DIMASZ
 40
0.18
  9
$DIMEXO
 40
0.0625
  9
$DIMDLI
 40
0.38
  9
$DIMRND
 40
0.0
  9
$DIMDLE
 40
0.0
  9
$DIMEXE
 40
0.18
  9
$DIMTP
 40
0.0
  9
$DIMTM
 40
0.0
  9
$DIMTXT
 40
0.18
  9
$DIMCEN
 40
0.09
  9
$DIMTSZ
 40
0.0
  9
$DIMTOL
 70
     0
  9
$DIMLIM
 70
     0
  9
$DIMTIH
 70
     1
  9
$DIMTOH
 70
     1
  9
$DIMSE1
 70
     0
  9
$DIMSE2
 70
     0
  9
$DIMTAD
 70
     0
  9
$DIMZIN
 70
     0
  9
$DIMBLK
  1

  9
$DIMASO
 70
     1
  9
$DIMSHO
 70
     1
  9
$DIMPOST
  1

  9
$DIMAPOST
  1

  9
$DIMALT
 70
     0
  9
$DIMALTD
 70
     2
  9
$DIMALTF
 40
25.4
  9
$DIMLFAC
 40
1.0
  9
$DIMTOFL
 70
     0
  9
$DIMTVP
 40
0.0
  9
$DIMTIX
 70
     0
  9
$DIMSOXD
 70
     0
  9
$DIMSAH
 70
     0
  9
$DIMBLK1
  1

  9
$DIMBLK2
  1

  9
$DIMSTYLE
  2
Standard
  9
$DIMCLRD
 70
     0
  9
$DIMCLRE
 70
     0
  9
$DIMCLRT
 70
     0
  9
$DIMTFAC
 40
1.0
  9
$DIMGAP
 40
0.09
  9
$DIMJUST
 70
     0
  9
$DIMSD1
 70
     0
  9
$DIMSD2
 70
     0
  9
$DIMTOLJ
 70
     1
  9
$DIMTZIN
 70
     0
  9
$DIMALTZ
 70
     0
  9
$DIMALTTZ
 70
     0
  9
$DIMUPT
 70
     0
  9
$DIMDEC
 70
     4
  9
$DIMTDEC
 70
     4
  9
$DIMALTU
 70
     4
  9
$DIMALTTD
 70
     2
  9
$DIMTXSTY
  7
Standard
  9
$DIMAUNIT
 70
     0
  9
$DIMADEC
 70
     0
  9
$DIMALTRND
 40
0.0
  9
$DIMAZIN
 70
     0
  9
$DIMDSEP
 70
    46
  9
$DIMATFIT
 70
     3
  9
$DIMFRAC
 70
     0
  9
$DIMLDRBLK
  1

  9
$DIMLUNIT
 70
     4
  9
$DIMLWD
 70
    -2
  9
$DIMLWE
 70
    -2
  9
$DIMTMOVE
 70
     0
  9
$DIMFXL
 40
1.0
  9
$DIMFXLON
 70
     0
  9
$DIMJOGANG
 40
0.7853981633974483
  9
$DIMTFILL
 70
     0
  9
$DIMTFILLCLR
 70
     0
  9
$DIMARCSYM
 70
     0
  9
$DIMLTYPE
  6

  9
$DIMLTEX1
  6

  9
$DIMLTEX2
  6

  9
$DIMTXTDIRECTION
 70
     0
  9
$LUNITS
 70
     4
  9
$LUPREC
 70
     4
  9
$SKETCHINC
 40
0.1
  9
$FILLETRAD
 40
0.0
  9
$AUNITS
 70
     0
  9
$AUPREC
 70
     0
  9
$MENU
  1
.
  9
$ELEVATION
 40
0.0
  9
$PELEVATION
 40
0.0
  9
$THICKNESS
 40
0.0
  9
$LIMCHECK
 70
     0
  9
$CHAMFERA
 40
0.0
  9
$CHAMFERB
 40
0.0
  9
$CHAMFERC
 40
0.0
  9
$CHAMFERD
 40
0.0
  9
$SKPOLY
 70
     0
  9
$TDCREATE
 40
2458922.648435510
  9
$TDUCREATE
 40
2458922.815102176
  9
$TDUPDATE
 40
2458936.574692628
  9
$TDUUPDATE
 40
2458936.741359294
  9
$TDINDWG
 40
0.0075863657
  9
$TDUSRTIMER
 40
0.0075863657
  9
$USRTIMER
 70
     1
  9
$ANGBASE
 50
0.0
  9
$ANGDIR
 70
     0
  9
$PDMODE
 70
     0
  9
$PDSIZE
 40
0.0
  9
$PLINEWID
 40
0.0
  9
$SPLFRAME
 70
     0
  9
$SPLINETYPE
 70
     6
  9
$SPLINESEGS
 70
     8
  9
$HANDSEED
  5
765
  9
$SURFTAB1
 70
     6
  9
$SURFTAB2
 70
     6
  9
$SURFTYPE
 70
     6
  9
$SURFU
 70
     6
  9
$SURFV
 70
     6
  9
$UCSBASE
  2

  9
$UCSNAME
  2

  9
$UCSORG
 10
0.0
 20
0.0
 30
0.0
  9
$UCSXDIR
 10
1.0
 20
0.0
 30
0.0
  9
$UCSYDIR
 10
0.0
 20
1.0
 30
0.0
  9
$UCSORTHOREF
  2

  9
$UCSORTHOVIEW
 70
     0
  9
$UCSORGTOP
 10
0.0
 20
0.0
 30
0.0
  9
$UCSORGBOTTOM
 10
0.0
 20
0.0
 30
0.0
  9
$UCSORGLEFT
 10
0.0
 20
0.0
 30
0.0
  9
$UCSORGRIGHT
 10
0.0
 20
0.0
 30
0.0
  9
$UCSORGFRONT
 10
0.0
 20
0.0
 30
0.0
  9
$UCSORGBACK
 10
0.0
 20
0.0
 30
0.0
  9
$PUCSBASE
  2

  9
$PUCSNAME
  2

  9
$PUCSORG
 10
0.0
 20
0.0
 30
0.0
  9
$PUCSXDIR
 10
1.0
 20
0.0
 30
0.0
  9
$PUCSYDIR
 10
0.0
 20
1.0
 30
0.0
  9
$PUCSORTHOREF
  2

  9
$PUCSORTHOVIEW
 70
     0
  9
$PUCSORGTOP
 10
0.0
 20
0.0
 30
0.0
  9
$PUCSORGBOTTOM
 10
0.0
 20
0.0
 30
0.0
  9
$PUCSORGLEFT
 10
0.0
 20
0.0
 30
0.0
  9
$PUCSORGRIGHT
 10
0.0
 20
0.0
 30
0.0
  9
$PUCSORGFRONT
 10
0.0
 20
0.0
 30
0.0
  9
$PUCSORGBACK
 10
0.0
 20
0.0
 30
0.0
  9
$USERI1
 70
     0
  9
$USERI2
 70
     0
  9
$USERI3
 70
     0
  9
$USERI4
 70
     0
  9
$USERI5
 70
     0
  9
$USERR1
 40
0.0
  9
$USERR2
 40
0.0
  9
$USERR3
 40
0.0
  9
$USERR4
 40
0.0
  9
$USERR5
 40
0.0
  9
$WORLDVIEW
 70
     1
  9
$SHADEDGE
 70
     3
  9
$SHADEDIF
 70
    70
  9
$TILEMODE
 70
     1
  9
$MAXACTVP
 70
    64
  9
$PINSBASE
 10
0.0
 20
0.0
 30
0.0
  9
$PLIMCHECK
 70
     0
  9
$PEXTMIN
 10
1.000000000000000E+20
 20
1.000000000000000E+20
 30
1.000000000000000E+20
  9
$PEXTMAX
 10
-1.000000000000000E+20
 20
-1.000000000000000E+20
 30
-1.000000000000000E+20
  9
$PLIMMIN
 10
0.0
 20
0.0
  9
$PLIMMAX
 10
12.0
 20
9.0
  9
$UNITMODE
 70
     0
  9
$VISRETAIN
 70
     1
  9
$PLINEGEN
 70
     0
  9
$PSLTSCALE
 70
     1
  9
$TREEDEPTH
 70
  3020
  9
$CMLSTYLE
  2
Standard
  9
$CMLJUST
 70
     0
  9
$CMLSCALE
 40
1.0
  9
$PROXYGRAPHICS
 70
     1
  9
$MEASUREMENT
 70
     0
  9
$CELWEIGHT
370
    -1
  9
$ENDCAPS
280
     0
  9
$JOINSTYLE
280
     0
  9
$LWDISPLAY
290
     0
  9
$INSUNITS
 70
     1
  9
$HYPERLINKBASE
  1

  9
$STYLESHEET
  1

  9
$XEDIT
290
     1
  9
$CEPSNTYPE
380
     0
  9
$PSTYLEMODE
290
     1
  9
$FINGERPRINTGUID
  2
{87F2D230-F8CD-4F91-AC78-F9C8647AAAFC}
  9
$VERSIONGUID
  2
{CC7B369E-DEE4-4586-8982-E36180D90994}
  9
$EXTNAMES
290
     1
  9
$PSVPSCALE
 40
0.0
  9
$OLESTARTUP
290
     0
  9
$SORTENTS
280
   127
  9
$INDEXCTL
280
     0
  9
$HIDETEXT
280
     1
  9
$XCLIPFRAME
280
     2
  9
$HALOGAP
280
     0
  9
$OBSCOLOR
 70
   257
  9
$OBSLTYPE
280
     0
  9
$INTERSECTIONDISPLAY
280
     0
  9
$INTERSECTIONCOLOR
 70
   257
  9
$DIMASSOC
280
     2
  9
$PROJECTNAME
  1

  9
$CAMERADISPLAY
290
     0
  9
$LENSLENGTH
 40
50.0
  9
$CAMERAHEIGHT
 40
0.0
  9
$STEPSPERSEC
 40
2.0
  9
$STEPSIZE
 40
6.0
  9
$3DDWFPREC
 40
2.0
  9
$PSOLWIDTH
 40
0.25
  9
$PSOLHEIGHT
 40
4.0
  9
$LOFTANG1
 40
1.570796326794896
  9
$LOFTANG2
 40
1.570796326794896
  9
$LOFTMAG1
 40
0.0
  9
$LOFTMAG2
 40
0.0
  9
$LOFTPARAM
 70
     7
  9
$LOFTNORMALS
280
     1
  9
$LATITUDE
 40
0.0
  9
$LONGITUDE
 40
0.0
  9
$NORTHDIRECTION
 40
0.0
  9
$TIMEZONE
 70
     0
  9
$LIGHTGLYPHDISPLAY
280
     1
  9
$TILEMODELIGHTSYNCH
280
     1
  9
$CMATERIAL
347
11
  9
$SOLIDHIST
280
     0
  9
$SHOWHIST
280
     1
  9
$DWFFRAME
280
     2
  9
$DGNFRAME
280
     0
  9
$REALWORLDSCALE
290
     1
  9
$INTERFERECOLOR
 62
     1
  9
$INTERFEREOBJVS
345
33
  9
$INTERFEREVPVS
346
30
  9
$CSHADOW
280
     0
  9
$SHADOWPLANELOCATION
 40
0.0
  0
ENDSEC
  0
SECTION
  2
CLASSES
  0
CLASS
  1
ACDBDICTIONARYWDFLT
  2
AcDbDictionaryWithDefault
  3
ObjectDBX Classes
 90
        0
 91
        1
280
     0
281
     0
  0
CLASS
  1
MATERIAL
  2
AcDbMaterial
  3
ObjectDBX Classes
 90
     1153
 91
        3
280
     0
281
     0
  0
CLASS
  1
VISUALSTYLE
  2
AcDbVisualStyle
  3
ObjectDBX Classes
 90
     4095
 91
       24
280
     0
281
     0
  0
CLASS
  1
SCALE
  2
AcDbScale
  3
ObjectDBX Classes
 90
     1153
 91
       17
280
     0
281
     0
  0
CLASS
  1
TABLESTYLE
  2
AcDbTableStyle
  3
ObjectDBX Classes
 90
     4095
 91
        1
280
     0
281
     0
  0
CLASS
  1
MLEADERSTYLE
  2
AcDbMLeaderStyle
  3
ACDB_MLEADERSTYLE_CLASS
 90
     4095
 91
        1
280
     0
281
     0
  0
CLASS
  1
ACDBSECTIONVIEWSTYLE
  2
AcDbSectionViewStyle
  3
ObjectDBX Classes
 90
     1025
 91
        1
280
     0
281
     0
  0
CLASS
  1
ACDBDETAILVIEWSTYLE
  2
AcDbDetailViewStyle
  3
ObjectDBX Classes
 90
     1025
 91
        1
280
     0
281
     0
  0
CLASS
  1
RASTERVARIABLES
  2
AcDbRasterVariables
  3
ISM
 90
        0
 91
        1
280
     0
281
     0
  0
CLASS
  1
DICTIONARYVAR
  2
AcDbDictionaryVar
  3
ObjectDBX Classes
 90
        0
 91
        5
280
     0
281
     0
  0
CLASS
  1
SORTENTSTABLE
  2
AcDbSortentsTable
  3
ObjectDBX Classes
 90
        0
 91
        3
280
     0
281
     0
  0
CLASS
  1
NPOCOLLECTION
  2
AcDbImpNonPersistentObjectsCollection
  3
ObjectDBX Classes
 90
     1153
 91
        1
280
     0
281
     0
  0
CLASS
  1
CELLSTYLEMAP
  2
AcDbCellStyleMap
  3
ObjectDBX Classes
 90
     1152
 91
        1
280
     0
281
     0
  0
ENDSEC
  0
SECTION
  2
TABLES
  0
TABLE
  2
VPORT
  5
8
330
0
100
AcDbSymbolTable
 70
     1
  0
VPORT
  5
57
330
8
100
AcDbSymbolTableRecord
100
AcDbViewportTableRecord
  2
*Active
 70
     0
 10
0.0
 20
0.0
 11
1.0
 21
1.0
 12
-23.49897042238607
 22
-57.52010746094184
 13
0.0
 23
0.0
 14
1.0
 24
1.0
 15
0.0
 25
0.0
 16
0.0
 26
0.0
 36
1.0
 17
0.0
 27
0.0
 37
0.0
 40
67.61076994249532
 41
1.799715909090909
 42
50.0
 43
0.0
 44
0.0
 50
0.0
 51
0.0
 71
     0
 72
  1000
 73
     1
 74
     1
 75
     0
 76
     0
 77
     0
 78
     0
281
     0
 65
     1
110
0.0
120
0.0
130
0.0
111
1.0
121
0.0
131
0.0
112
0.0
122
1.0
132
0.0
 79
     0
146
0.0
348
2F
 60
     3
 61
     5
292
     1
282
     1
141
0.0
142
0.0
 63
   250
421
  3355443
1001
ACAD_NAV_VCDISPLAY
1070
     3
  0
ENDTAB
  0
TABLE
  2
LTYPE
  5
5
330
0
100
AcDbSymbolTable
 70
     2
  0
LTYPE
  5
5B
330
5
100
AcDbSymbolTableRecord
100
AcDbLinetypeTableRecord
  2
ByBlock
 70
     0
  3

 72
    65
 73
     0
 40
0.0
  0
LTYPE
  5
5C
330
5
100
AcDbSymbolTableRecord
100
AcDbLinetypeTableRecord
  2
ByLayer
 70
     0
  3

 72
    65
 73
     0
 40
0.0
  0
LTYPE
  5
5D
330
5
100
AcDbSymbolTableRecord
100
AcDbLinetypeTableRecord
  2
Continuous
 70
     0
  3
Solid line
 72
    65
 73
     0
 40
0.0
  0
ENDTAB
  0
TABLE
  2
LAYER
  5
2
102
{ACAD_XDICTIONARY
360
71D
102
}
330
0
100
AcDbSymbolTable
 70
     5
  0
LAYER
  5
54
330
2
100
AcDbSymbolTableRecord
100
AcDbLayerTableRecord
  2
0
 70
     0
 62
     7
  6
Continuous
370
    -3
390
F
347
21
  0
LAYER
  5
CB
330
2
100
AcDbSymbolTableRecord
100
AcDbLayerTableRecord
  2
Basin-Dual_Mount-Grohe-Essence-39669000-39670000
 70
     0
 62
     7
  6
Continuous
370
    -3
390
F
347
21
1001
AcAecLayerStandard
1000

1000

1001
AcCmTransparency
1071
        0
  0
ENDTAB
  0
TABLE
  2
STYLE
  5
3
330
0
100
AcDbSymbolTable
 70
     2
  0
STYLE
  5
55
330
3
100
AcDbSymbolTableRecord
100
AcDbTextStyleTableRecord
  2
Standard
 70
     0
 40
0.0
 41
1.0
 50
0.0
 71
     0
 42
0.2
  3
txt
  4

  0
ENDTAB
  0
TABLE
  2
VIEW
  5
6
330
0
100
AcDbSymbolTable
 70
     1
  0
ENDTAB
  0
TABLE
  2
UCS
  5
7
330
0
100
AcDbSymbolTable
 70
     0
  0
ENDTAB
  0
TABLE
  2
APPID
  5
9
330
0
100
AcDbSymbolTable
 70
     7
  0
APPID
  5
56
330
9
100
AcDbSymbolTableRecord
100
AcDbRegAppTableRecord
  2
ACAD
 70
     0
  0
APPID
  5
5E
330
9
100
AcDbSymbolTableRecord
100
AcDbRegAppTableRecord
  2
AcadAnnotative
 70
     0
  0
APPID
  5
78
330
9
100
AcDbSymbolTableRecord
100
AcDbRegAppTableRecord
  2
REVIT
 70
     0
  0
APPID
  5
CC
330
9
100
AcDbSymbolTableRecord
100
AcDbRegAppTableRecord
  2
AcAecLayerStandard
 70
     0
  0
APPID
  5
CD
330
9
100
AcDbSymbolTableRecord
100
AcDbRegAppTableRecord
  2
AcCmTransparency
 70
     0
  0
APPID
  5
F4
330
9
100
AcDbSymbolTableRecord
100
AcDbRegAppTableRecord
  2
ACAD_NAV_VCDISPLAY
 70
     0
  0
APPID
  5
15E
330
9
100
AcDbSymbolTableRecord
100
AcDbRegAppTableRecord
  2
ACAD_EXEMPT_FROM_CAD_STANDARDS
 70
     0
  0
ENDTAB
  0
TABLE
  2
DIMSTYLE
  5
A
330
0
100
AcDbSymbolTable
 70
     3
100
AcDbDimStyleTable
 71
     1
340
58
  0
DIMSTYLE
105
58
330
A
100
AcDbSymbolTableRecord
100
AcDbDimStyleTableRecord
  2
Standard
 70
     0
340
55
  0
ENDTAB
  0
TABLE
  2
BLOCK_RECORD
  5
1
330
0
100
AcDbSymbolTable
 70
    14
  0
BLOCK_RECORD
  5
70
102
{ACAD_XDICTIONARY
360
BA
102
}
330
1
100
AcDbSymbolTableRecord
100
AcDbBlockTableRecord
  2
*Model_Space
340
73
 70
     0
280
     1
281
     0
  0
BLOCK_RECORD
  5
6C
330
1
100
AcDbSymbolTableRecord
100
AcDbBlockTableRecord
  2
*Paper_Space
340
6F
 70
     0
280
     1
281
     0
  0
BLOCK_RECORD
  5
74
330
1
100
AcDbSymbolTableRecord
100
AcDbBlockTableRecord
  2
*Paper_Space0
340
77
 70
     0
280
     1
281
     0
  0
BLOCK_RECORD
  5
584
330
1
100
AcDbSymbolTableRecord
100
AcDbBlockTableRecord
  2
Basin-Dual_Mount-Grohe-Essence-39669000-39670000 Top View
340
0
310
28000000200000002000000001002000000000000010000001000000010000000000000000000000302821FF302821FF302821FF302821FF302821FF302821FF302821FF302821FF302821FF302821FF302821FF302821FF302821FF302821FF302821FF302821FF302821FF302821FF302821FF302821FF302821FF302821
310
FF302821FF302821FF302821FF302821FF302821FF302821FF302821FF302821FF302821FF302821FF302821FF302821FF302821FF302821FF302821FF302821FF302821FF302821FF302821FF302821FF302821FF302821FF302821FF302821FF302821FF302821FF302821FF302821FF302821FF302821FF302821FF3028
310
21FF302821FF302821FF302821FF302821FF302821FF302821FF302821FF302821FF302821FF302821FF302821FF302821FF302821FF302821FF302821FF302821FF302821FF302821FF302821FF302821FF302821FF302821FF302821FF302821FF302821FF302821FF302821FF302821FF302821FF302821FF302821FF30
310
2821FF302821FF302821FF302821FF302821FF302821FF302821FF302821FF302821FF302821FF302821FF302821FF302821FF302821FF302821FF302821FF302821FF302821FF302821FF302821FF302821FF302821FF302821FF302821FF302821FF302821FF302821FF302821FF302821FF302821FF302821FF302821FF
310
302821FF302821FF302821FF302821FF302821FF302821FF302821FF302821FF302821FF302821FF302821FF302821FF302821FF302821FF302821FF302821FF302821FF302821FF302821FF302821FF302821FF302821FF302821FF302821FF302821FF302821FF302821FF302821FF302821FF302821FF302821FF302821
310
FF302821FF302821FF302821FF302821FF302821FF302821FF302821FF302821FF302821FF302821FF302821FF302821FF302821FF302821FF302821FF302821FF302821FF302821FF302821FF302821FF302821FF302821FF302821FF302821FF302821FF302821FF302821FF302821FF302821FF302821FF302821FF3028
310
21FF302821FF302821FF302821FF302821FF302821FF302821FF302821FF302821FF302821FF302821FF302821FF302821FF302821FF302821FF302821FF302821FF302821FF302821FF302821FFFFFFFFFFFFFFFFFFFFFFFFFFFFFFFFFFFFFFFFFFFFFFFFFFFFFFFFFFFFFFFFFFFFFFFFFFFFFFFFFFFFFFFFFFFFFFFFFFFF
310
FFFFFFFFFFFFFFFFFFFFFFFFFFFFFF302821FF302821FF302821FF302821FF302821FF302821FF302821FF302821FF302821FF302821FF302821FF302821FF302821FF302821FFFFFFFFFFFFFFFFFF302821FF302821FFFFFFFFFFFFFFFFFFFFFFFFFFFFFFFFFFFFFFFFFFFFFFFFFFFFFFFFFFFFFFFFFFFFFFFFFFFFFFFFFF
310
FFFFFFFFFFFFFFFF302821FFFFFFFFFFFFFFFFFFFFFFFFFF302821FF302821FF302821FF302821FF302821FF302821FF302821FF302821FF302821FF302821FFFFFFFFFFFFFFFFFF302821FFFFFFFFFFFFFFFFFFFFFFFFFF302821FF302821FF302821FF302821FF302821FF302821FF302821FF302821FF302821FF302821
310
FF302821FF302821FFFFFFFFFFFFFFFFFFFFFFFFFF302821FFFFFFFFFFFFFFFFFF302821FF302821FF302821FF302821FF302821FF302821FF302821FF302821FFFFFFFFFF302821FFFFFFFFFF302821FF302821FF302821FF302821FF302821FF302821FF302821FF302821FF302821FF302821FF302821FF302821FF3028
310
21FF302821FF302821FF302821FF302821FF302821FFFFFFFFFF302821FFFFFFFFFFFFFFFFFF302821FF302821FF302821FF302821FF302821FF302821FFFFFFFFFF302821FFFFFFFFFF302821FF302821FF302821FF302821FF302821FF302821FF302821FF302821FF302821FF302821FF302821FF302821FF302821FF30
310
2821FF302821FF302821FF302821FF302821FF302821FF302821FFFFFFFFFF302821FFFFFFFFFF302821FF302821FF302821FF302821FF302821FF302821FFFFFFFFFFFFFFFFFF302821FF302821FF302821FF302821FF302821FF302821FF302821FF302821FF302821FF302821FF302821FF302821FF302821FF302821FF
310
302821FF302821FF302821FF302821FF302821FF302821FF302821FF302821FFFFFFFFFFFFFFFFFFFFFFFFFF302821FF302821FF302821FF302821FF302821FFFFFFFFFF302821FF302821FF302821FF302821FF302821FF302821FF302821FF302821FF302821FF302821FF302821FF302821FF302821FF302821FF302821
310
FF302821FF302821FF302821FF302821FF302821FF302821FF302821FF302821FF302821FFFFFFFFFFFFFFFFFF302821FF302821FF302821FF302821FFFFFFFFFFFFFFFFFF302821FF302821FF302821FF302821FF302821FF302821FF302821FF302821FF302821FF302821FF302821FF302821FF302821FF302821FF3028
310
21FF302821FF302821FF302821FF302821FF302821FF302821FF302821FF302821FF302821FFFFFFFFFFFFFFFFFF302821FF302821FF302821FFFFFFFFFF302821FFFFFFFFFF302821FF302821FF302821FF302821FF302821FF302821FF302821FF302821FF302821FF302821FF302821FF302821FF302821FF302821FF30
310
2821FF302821FF302821FF302821FF302821FF302821FF302821FF302821FF302821FF302821FFFFFFFFFFFFFFFFFF302821FF302821FF302821FFFFFFFFFF302821FFFFFFFFFF302821FF302821FF302821FF302821FF302821FF302821FF302821FF302821FF302821FF302821FF302821FF302821FF302821FF302821FF
310
302821FF302821FF302821FF302821FF302821FF302821FF302821FF302821FF302821FF302821FFFFFFFFFF302821FFFFFFFFFF302821FF302821FFFFFFFFFF302821FFFFFFFFFF302821FF302821FF302821FF302821FF302821FF302821FF302821FF302821FF302821FF302821FF302821FFFFFFFFFFFFFFFFFF302821
310
FF302821FF302821FF302821FF302821FF302821FF302821FF302821FF302821FF302821FF302821FFFFFFFFFF302821FFFFFFFFFF302821FF302821FF302821FFFFFFFFFFFFFFFFFF302821FF302821FF302821FF302821FF302821FF302821FF302821FF302821FF302821FF302821FF302821FFFFFFFFFFFFFFFFFF3028
310
21FF302821FF302821FF302821FF302821FF302821FF302821FF302821FF302821FF302821FF302821FFFFFFFFFF302821FFFFFFFFFF302821FF302821FF302821FFFFFFFFFFFFFFFFFF302821FF302821FF302821FF302821FF302821FF302821FF302821FF302821FF302821FF302821FF302821FFFFFFFFFFFFFFFFFF30
310
2821FF302821FF302821FF302821FF302821FF302821FF302821FF302821FF302821FF302821FF302821FFFFFFFFFFFFFFFFFF302821FF302821FF302821FF302821FFFFFFFFFFFFFFFFFFFFFFFFFF302821FF302821FF302821FF302821FF302821FF302821FF302821FF302821FF302821FF302821FF302821FF302821FF
310
302821FF302821FF302821FF302821FF302821FF302821FF302821FF302821FF302821FF302821FFFFFFFFFFFFFFFFFFFFFFFFFF302821FF302821FF302821FF302821FFFFFFFFFF302821FFFFFFFFFFFFFFFFFFFFFFFFFFFFFFFFFFFFFFFFFFFFFFFFFFFFFFFFFFFFFFFFFFFFFFFFFFFFFFFFFFFFFFFFFFFFFFFFFFFFFFFF
310
FFFFFFFFFFFFFFFFFFFFFFFFFFFFFFFFFFFFFFFFFFFFFFFFFFFFFFFFFFFFFFFFFFFFFFFFFFFFFFFFFFFFFFFFFF302821FFFFFFFFFF302821FF302821FF302821FF302821FF302821FFFFFFFFFF302821FF302821FF302821FF302821FF302821FF302821FF302821FF302821FF302821FF302821FF302821FF302821FF3028
310
21FF302821FF302821FF302821FF302821FF302821FF302821FF302821FF302821FF302821FF302821FF302821FFFFFFFFFF302821FF302821FF302821FF302821FF302821FF302821FF302821FFFFFFFFFF302821FF302821FF302821FF302821FF302821FF302821FF302821FF302821FF302821FF302821FFFFFFFFFFFF
310
FFFFFF302821FF302821FF302821FF302821FF302821FF302821FF302821FF302821FF302821FF302821FFFFFFFFFF302821FF302821FF302821FF302821FF302821FF302821FF302821FF302821FFFFFFFFFFFFFFFFFF302821FF302821FF302821FF302821FF302821FF302821FF302821FF302821FF302821FFFFFFFFFF
310
FFFFFFFF302821FF302821FF302821FF302821FF302821FF302821FF302821FF302821FF302821FFFFFFFFFF302821FF302821FF302821FF302821FF302821FF302821FF302821FF302821FF302821FF302821FF302821FFFFFFFFFFFFFFFFFFFFFFFFFF302821FF302821FF302821FF302821FF302821FF302821FF302821
310
FF302821FF302821FF302821FF302821FF302821FF302821FF302821FFFFFFFFFFFFFFFFFFFFFFFFFF302821FF302821FF302821FF302821FF302821FF302821FF302821FF302821FF302821FF302821FF302821FF302821FF302821FF302821FF302821FFFFFFFFFFFFFFFFFFFFFFFFFFFFFFFFFFFFFFFFFFFFFFFFFFFFFF
310
FFFFFFFFFFFFFFFFFFFFFFFFFFFFFFFFFFFFFFFFFFFFFFFFFFFFFFFFFFFF302821FF302821FF302821FF302821FF302821FF302821FF302821FF302821FF302821FF302821FF302821FF302821FF302821FF302821FF302821FF302821FF302821FF302821FF302821FF302821FF302821FF302821FF302821FF302821FF30
310
2821FF302821FF302821FF302821FF302821FF302821FF302821FF302821FF302821FF302821FF302821FF302821FF302821FF302821FF302821FF302821FF302821FF302821FF302821FF302821FF302821FF302821FF302821FF302821FF302821FF302821FF302821FF302821FF302821FF302821FF302821FF302821FF
310
302821FF302821FF302821FF302821FF302821FF302821FF302821FF302821FF302821FF302821FF302821FF302821FF302821FF302821FF302821FF302821FF302821FF302821FF302821FF302821FF302821FF302821FF302821FF302821FF302821FF302821FF302821FF302821FF302821FF302821FF302821FF302821
310
FF302821FF302821FF302821FF302821FF302821FF302821FF302821FF302821FF302821FF302821FF302821FF302821FF302821FF302821FF302821FF302821FF302821FF302821FF302821FF302821FF302821FF302821FF302821FF302821FF302821FF302821FF302821FF302821FF302821FF302821FF302821FF3028
310
21FF302821FF302821FF302821FF302821FF302821FF302821FF302821FF302821FF302821FF302821FF302821FF302821FF302821FF302821FF302821FF302821FF302821FF302821FF302821FF302821FF302821FF302821FF302821FF302821FF302821FF302821FF302821FF302821FF302821FF302821FF302821FF30
310
2821FF302821FF302821FF302821FF302821FF302821FF302821FF302821FF302821FF302821FF302821FF302821FF302821FF302821FF302821FF302821FF302821FF302821FF302821FF302821FF302821FF302821FF302821FF302821FF302821FF302821FF302821FF302821FF302821FF302821FF302821FF302821FF
310
302821FF302821FF302821FF302821FF302821FF302821FF302821FF302821FF302821FF302821FF302821FF302821FF302821FF302821FF302821FF302821FF302821FF302821FF
102
{BLKREFS
331
5D5
102
}
 70
     1
280
     1
281
     1
  0
BLOCK_RECORD
  5
5D6
330
1
100
AcDbSymbolTableRecord
100
AcDbBlockTableRecord
  2
Basin-Dual_Mount-Grohe-Essence-39669000-39670000 Front View
340
0
310
28000000200000002000000001002000000000000010000001000000010000000000000000000000302821FF302821FF302821FF302821FF302821FF302821FF302821FF302821FF302821FF302821FF302821FF302821FF302821FF302821FF302821FF302821FF302821FF302821FF302821FF302821FF302821FF302821
310
FF302821FF302821FF302821FF302821FF302821FF302821FF302821FF302821FF302821FF302821FF302821FF302821FF302821FF302821FF302821FF302821FF302821FF302821FF302821FF302821FF302821FF302821FF302821FF302821FF302821FF302821FF302821FF302821FF302821FF302821FF302821FF3028
310
21FF302821FF302821FF302821FF302821FF302821FF302821FF302821FF302821FF302821FF302821FF302821FF302821FF302821FF302821FF302821FF302821FF302821FF302821FF302821FF302821FF302821FF302821FF302821FF302821FF302821FF302821FF302821FF302821FF302821FF302821FF302821FF30
310
2821FF302821FF302821FF302821FF302821FF302821FF302821FF302821FF302821FF302821FF302821FF302821FF302821FF302821FF302821FF302821FF302821FF302821FF302821FF302821FF302821FF302821FF302821FF302821FF302821FF302821FF302821FF302821FF302821FF302821FF302821FF302821FF
310
302821FF302821FF302821FF302821FF302821FF302821FF302821FF302821FF302821FF302821FF302821FF302821FF302821FF302821FF302821FF302821FF302821FF302821FF302821FF302821FF302821FF302821FF302821FF302821FF302821FF302821FF302821FF302821FF302821FF302821FF302821FF302821
310
FF302821FF302821FF302821FF302821FF302821FF302821FF302821FF302821FF302821FF302821FF302821FF302821FF302821FF302821FF302821FF302821FF302821FF302821FF302821FF302821FF302821FF302821FF302821FF302821FF302821FF302821FF302821FF302821FF302821FF302821FF302821FF3028
310
21FF302821FF302821FF302821FF302821FF302821FF302821FF302821FF302821FF302821FF302821FF302821FF302821FF302821FF302821FF302821FF302821FF302821FF302821FF302821FF302821FF302821FF302821FF302821FF302821FF302821FF302821FF302821FF302821FF302821FF302821FF302821FF30
310
2821FF302821FF302821FF302821FF302821FF302821FF302821FF302821FF302821FF302821FF302821FF302821FF302821FF302821FF302821FF302821FF302821FF302821FF302821FF302821FF302821FF302821FF302821FF302821FF302821FF302821FF302821FF302821FF302821FF302821FF302821FF302821FF
310
302821FF302821FF302821FF302821FF302821FF302821FF302821FF302821FF302821FF302821FF302821FF302821FF302821FF302821FF302821FF302821FF302821FF302821FF302821FF302821FF302821FF302821FF302821FF302821FFFFFFFFFFFFFFFFFFFFFFFFFFFFFFFFFFFFFFFFFFFFFFFFFFFFFFFFFFFFFFFF
310
FF302821FF302821FF302821FF302821FF302821FF302821FF302821FF302821FF302821FF302821FF302821FF302821FF302821FF302821FF302821FF302821FF302821FF302821FF302821FF302821FF302821FF302821FF302821FF302821FFFFFFFFFF302821FF302821FF302821FF302821FF302821FF302821FFFFFF
310
FFFF302821FF302821FF302821FF302821FF302821FF302821FF302821FF302821FF302821FF302821FF302821FF302821FF302821FF302821FF302821FF302821FF302821FF302821FF302821FF302821FF302821FF302821FF302821FF302821FFFFFFFFFF302821FF302821FF302821FF302821FF302821FF302821FFFF
310
FFFFFF302821FF302821FF302821FF302821FF302821FF302821FF302821FF302821FF302821FF302821FF302821FF302821FF302821FF302821FF302821FF302821FF302821FF302821FF302821FF302821FF302821FF302821FF302821FF302821FFFFFFFFFF302821FF302821FF302821FF302821FF302821FF302821FF
310
FFFFFFFF302821FF302821FF302821FF302821FF302821FF302821FF302821FF302821FF302821FF302821FF302821FF302821FF302821FF302821FF302821FF302821FF302821FF302821FF302821FF302821FF302821FF302821FF302821FF302821FFFFFFFFFF302821FF302821FF302821FF302821FF302821FF302821
310
FFFFFFFFFF302821FF302821FF302821FF302821FF302821FF302821FF302821FF302821FF302821FF302821FF302821FF302821FF302821FF302821FF302821FF302821FF302821FF302821FF302821FF302821FF302821FF302821FF302821FF302821FFFFFFFFFF302821FF302821FF302821FF302821FF302821FF3028
310
21FFFFFFFFFF302821FF302821FF302821FF302821FF302821FF302821FF302821FF302821FF302821FF302821FF302821FF302821FF302821FF302821FF302821FF302821FF302821FF302821FF302821FF302821FF302821FF302821FF302821FFFFFFFFFF302821FF302821FF302821FF302821FF302821FF302821FF30
310
2821FF302821FFFFFFFFFF302821FF302821FF302821FF302821FF302821FF302821FF302821FF302821FF302821FF302821FF302821FF302821FF302821FF302821FF302821FF302821FF302821FF302821FF302821FF302821FF302821FF302821FFFFFFFFFF302821FF302821FF302821FF302821FF302821FF302821FF
310
302821FF302821FFFFFFFFFF302821FF302821FF302821FF302821FF302821FF302821FF302821FF302821FF302821FF302821FF302821FF302821FF302821FF302821FF302821FF302821FF302821FF302821FF302821FF302821FF302821FF302821FFFFFFFFFF302821FF302821FF302821FF302821FF302821FF302821
310
FF302821FF302821FFFFFFFFFF302821FF302821FF302821FF302821FF302821FF302821FF302821FF302821FF302821FF302821FF302821FF302821FF302821FF302821FF302821FF302821FF302821FF302821FF302821FF302821FF302821FF302821FFFFFFFFFF302821FF302821FF302821FF302821FF302821FF3028
310
21FF302821FF302821FFFFFFFFFF302821FF302821FF302821FF302821FF302821FF302821FF302821FF302821FF302821FF302821FF302821FF302821FF302821FF302821FF302821FF302821FF302821FF302821FF302821FF302821FF302821FF302821FFFFFFFFFF302821FF302821FF302821FF302821FF302821FF30
310
2821FF302821FF302821FFFFFFFFFF302821FF302821FF302821FF302821FF302821FF302821FF302821FF302821FF302821FF302821FF302821FF302821FF302821FF302821FFFFFFFFFFFFFFFFFFFFFFFFFFFFFFFFFFFFFFFFFFFFFFFFFFFFFFFFFFFFFFFFFFFFFFFFFFFFFFFFFFFFFFFFFFFFFFFFFFFFFFFFFFFFFFFFFF
310
FFFFFFFFFFFFFFFFFFFFFFFFFFFFFFFFFFFFFFFFFFFFFFFFFFFFFFFFFFFFFFFFFFFFFFFFFFFFFFFFFFFFFFFFFFFFFFFF302821FF302821FF302821FF302821FF302821FFFFFFFFFFFFFFFFFF302821FF302821FF302821FF302821FF302821FF302821FF302821FF302821FF302821FF302821FF302821FF302821FF302821
310
FF302821FF302821FF302821FF302821FF302821FF302821FF302821FF302821FF302821FF302821FF302821FFFFFFFFFFFFFFFFFF302821FF302821FF302821FF302821FFFFFFFFFF302821FF302821FF302821FF302821FF302821FF302821FF302821FF302821FF302821FF302821FF302821FF302821FF302821FF3028
310
21FF302821FF302821FF302821FF302821FF302821FF302821FF302821FF302821FF302821FF302821FF302821FF302821FFFFFFFFFF302821FF302821FF302821FF302821FFFFFFFFFF302821FF302821FF302821FF302821FF302821FF302821FF302821FF302821FF302821FF302821FF302821FF302821FF302821FF30
310
2821FF302821FF302821FF302821FF302821FF302821FF302821FF302821FF302821FF302821FF302821FF302821FF302821FF302821FFFFFFFFFF302821FF302821FFFFFFFFFFFFFFFFFFFFFFFFFFFFFFFFFFFFFFFFFFFFFFFFFFFFFFFFFFFFFFFFFFFFFFFFFFFFFFFFFFFFFFFFFFFFFFFFFFFFFFFFFFFFFFFFFFFFFFFFFF
310
FFFFFFFFFFFFFFFFFFFFFFFFFFFFFFFFFFFFFFFFFFFFFFFFFFFFFFFFFFFFFFFFFFFFFFFFFFFFFFFFFFFFFFFFFFFFFFFFFFFFFFFFFFFFFFFFFFFFFFFF302821FF302821FF302821FF302821FF302821FF302821FF302821FF302821FF302821FF302821FF302821FF302821FF302821FF302821FF302821FF302821FF302821
310
FF302821FF302821FF302821FF302821FF302821FF302821FF302821FF302821FF302821FF302821FF302821FF302821FF302821FF302821FF302821FF302821FF302821FF302821FF302821FF302821FF302821FF302821FF302821FF302821FF302821FF302821FF302821FF302821FF302821FF302821FF302821FF3028
310
21FF302821FF302821FF302821FF302821FF302821FF302821FF302821FF302821FF302821FF302821FF302821FF302821FF302821FF302821FF302821FF302821FF302821FF302821FF302821FF302821FF302821FF302821FF302821FF302821FF302821FF302821FF302821FF302821FF302821FF302821FF302821FF30
310
2821FF302821FF302821FF302821FF302821FF302821FF302821FF302821FF302821FF302821FF302821FF302821FF302821FF302821FF302821FF302821FF302821FF302821FF302821FF302821FF302821FF302821FF302821FF302821FF302821FF302821FF302821FF302821FF302821FF302821FF302821FF302821FF
310
302821FF302821FF302821FF302821FF302821FF302821FF302821FF302821FF302821FF302821FF302821FF302821FF302821FF302821FF302821FF302821FF302821FF302821FF302821FF302821FF302821FF302821FF302821FF302821FF302821FF302821FF302821FF302821FF302821FF302821FF302821FF302821
310
FF302821FF302821FF302821FF302821FF302821FF302821FF302821FF302821FF302821FF302821FF302821FF302821FF302821FF302821FF302821FF302821FF302821FF302821FF302821FF302821FF302821FF302821FF302821FF302821FF302821FF302821FF302821FF302821FF302821FF302821FF302821FF3028
310
21FF302821FF302821FF302821FF302821FF302821FF302821FF302821FF302821FF302821FF302821FF302821FF302821FF302821FF302821FF302821FF302821FF302821FF302821FF302821FF302821FF302821FF302821FF302821FF302821FF302821FF302821FF302821FF302821FF302821FF302821FF302821FF30
310
2821FF302821FF302821FF302821FF302821FF302821FF302821FF302821FF302821FF302821FF302821FF302821FF302821FF302821FF302821FF302821FF302821FF302821FF302821FF302821FF302821FF302821FF302821FF302821FF302821FF302821FF302821FF302821FF302821FF302821FF302821FF302821FF
310
302821FF302821FF302821FF302821FF302821FF302821FF302821FF302821FF302821FF302821FF302821FF302821FF302821FF302821FF302821FF302821FF302821FF302821FF
102
{BLKREFS
331
685
102
}
 70
     1
280
     1
281
     1
  0
BLOCK_RECORD
  5
686
330
1
100
AcDbSymbolTableRecord
100
AcDbBlockTableRecord
  2
Basin-Dual_Mount-Grohe-Essence-39669000-39670000 Side View
340
0
310
28000000200000002000000001002000000000000010000001000000010000000000000000000000302821FF302821FF302821FF302821FF302821FF302821FF302821FF302821FF302821FF302821FF302821FF302821FF302821FF302821FF302821FF302821FF302821FF302821FF302821FF302821FF302821FF302821
310
FF302821FF302821FF302821FF302821FF302821FF302821FF302821FF302821FF302821FF302821FF302821FF302821FF302821FF302821FF302821FF302821FF302821FF302821FF302821FF302821FF302821FF302821FF302821FF302821FF302821FF302821FF302821FF302821FF302821FF302821FF302821FF3028
310
21FF302821FF302821FF302821FF302821FF302821FF302821FF302821FF302821FF302821FF302821FF302821FF302821FF302821FF302821FF302821FF302821FF302821FF302821FF302821FF302821FF302821FF302821FF302821FF302821FF302821FF302821FF302821FF302821FF302821FF302821FF302821FF30
310
2821FF302821FF302821FF302821FF302821FF302821FF302821FF302821FF302821FF302821FF302821FF302821FF302821FF302821FF302821FF302821FF302821FF302821FF302821FF302821FF302821FF302821FF302821FF302821FF302821FF302821FF302821FF302821FF302821FF302821FF302821FF302821FF
310
302821FF302821FF302821FF302821FF302821FF302821FF302821FF302821FF302821FF302821FF302821FF302821FF302821FF302821FF302821FF302821FF302821FF302821FF302821FF302821FF302821FF302821FF302821FF302821FF302821FF302821FF302821FF302821FF302821FF302821FF302821FF302821
310
FF302821FF302821FF302821FF302821FF302821FF302821FF302821FF302821FF302821FF302821FF302821FF302821FFFFFFFFFFFFFFFFFFFFFFFFFFFFFFFFFFFFFFFFFFFFFFFFFFFFFFFFFFFFFFFFFFFFFFFFFFFFFFFFFFFFFFFFFFFFFFFFFFFFFFFFFFFFFFFFFFFFFFFFFFFFFFFFFF302821FF302821FF302821FF3028
310
21FF302821FF302821FF302821FF302821FF302821FF302821FF302821FF302821FF302821FF302821FF302821FF302821FFFFFFFFFF302821FF302821FF302821FF302821FF302821FF302821FF302821FF302821FF302821FF302821FF302821FF302821FF302821FF302821FFFFFFFFFF302821FF302821FF302821FF30
310
2821FF302821FF302821FF302821FF302821FF302821FF302821FF302821FF302821FF302821FF302821FF302821FF302821FFFFFFFFFF302821FF302821FF302821FF302821FF302821FF302821FF302821FF302821FF302821FF302821FF302821FF302821FF302821FF302821FFFFFFFFFF302821FF302821FF302821FF
310
302821FF302821FF302821FF302821FF302821FF302821FF302821FF302821FF302821FF302821FF302821FF302821FF302821FFFFFFFFFF302821FF302821FF302821FF302821FF302821FF302821FF302821FF302821FF302821FF302821FF302821FF302821FF302821FF302821FFFFFFFFFF302821FF302821FF302821
310
FF302821FF302821FF302821FF302821FF302821FF302821FF302821FF302821FF302821FF302821FF302821FF302821FF302821FFFFFFFFFF302821FF302821FF302821FF302821FF302821FF302821FF302821FF302821FF302821FF302821FF302821FF302821FF302821FF302821FFFFFFFFFF302821FF302821FF3028
310
21FF302821FF302821FF302821FF302821FF302821FF302821FF302821FF302821FF302821FF302821FF302821FF302821FF302821FFFFFFFFFF302821FF302821FF302821FF302821FF302821FF302821FF302821FF302821FF302821FF302821FF302821FF302821FF302821FF302821FFFFFFFFFF302821FF302821FF30
310
2821FF302821FF302821FF302821FF302821FF302821FF302821FF302821FF302821FF302821FF302821FF302821FF302821FF302821FFFFFFFFFF302821FF302821FF302821FF302821FF302821FF302821FF302821FF302821FF302821FF302821FF302821FF302821FF302821FF302821FFFFFFFFFF302821FF302821FF
310
302821FF302821FF302821FF302821FF302821FF302821FF302821FF302821FF302821FF302821FF302821FF302821FF302821FF302821FFFFFFFFFF302821FF302821FF302821FF302821FF302821FF302821FF302821FF302821FF302821FF302821FF302821FF302821FF302821FF302821FFFFFFFFFF302821FF302821
310
FF302821FF302821FF302821FF302821FF302821FF302821FF302821FF302821FF302821FF302821FF302821FF302821FF302821FF302821FFFFFFFFFF302821FF302821FF302821FF302821FF302821FF302821FF302821FF302821FF302821FF302821FF302821FF302821FF302821FF302821FF302821FFFFFFFFFF3028
310
21FF302821FF302821FF302821FF302821FF302821FF302821FF302821FF302821FF302821FF302821FF302821FF302821FF302821FF302821FFFFFFFFFF302821FF302821FF302821FF302821FF302821FF302821FF302821FF302821FF302821FF302821FF302821FF302821FF302821FF302821FF302821FFFFFFFFFF30
310
2821FF302821FF302821FF302821FF302821FF302821FF302821FF302821FF302821FF302821FF302821FF302821FF302821FF302821FF302821FFFFFFFFFF302821FF302821FF302821FF302821FF302821FF302821FF302821FF302821FF302821FF302821FF302821FF302821FF302821FF302821FF302821FFFFFFFFFF
310
302821FF302821FF302821FF302821FF302821FF302821FF302821FF302821FF302821FF302821FF302821FF302821FF302821FF302821FF302821FFFFFFFFFF302821FF302821FF302821FF302821FF302821FF302821FF302821FF302821FF302821FF302821FF302821FF302821FF302821FF302821FF302821FFFFFFFF
310
FF302821FF302821FF302821FF302821FF302821FF302821FF302821FF302821FF302821FF302821FF302821FF302821FF302821FF302821FF302821FFFFFFFFFF302821FF302821FF302821FF302821FF302821FF302821FF302821FF302821FF302821FF302821FF302821FF302821FF302821FF302821FF302821FFFFFF
310
FFFF302821FF302821FF302821FF302821FF302821FF302821FF302821FF302821FF302821FF302821FF302821FF302821FF302821FF302821FF302821FFFFFFFFFF302821FF302821FF302821FF302821FF302821FF302821FF302821FF302821FF302821FF302821FF302821FF302821FF302821FF302821FF302821FFFF
310
FFFFFF302821FF302821FF302821FF302821FF302821FF302821FF302821FF302821FF302821FF302821FF302821FF302821FF302821FF302821FF302821FFFFFFFFFF302821FF302821FF302821FF302821FF302821FF302821FF302821FF302821FF302821FF302821FF302821FF302821FF302821FF302821FF302821FF
310
FFFFFFFF302821FF302821FF302821FF302821FF302821FF302821FF302821FF302821FF302821FF302821FF302821FF302821FF302821FF302821FF302821FFFFFFFFFFFFFFFFFFFFFFFFFFFFFFFFFFFFFFFFFFFFFFFFFFFFFFFFFFFFFFFFFFFFFFFFFFFFFFFFFFFFFFFFFFFFFFFFFFFFFFFFFFFFFFFFFFFFFFFFFFFFFFFF
310
FFFFFFFFFFFFFFFFFFFFFFFFFFFFFFFFFFFFFFFFFFFFFFFFFFFFFFFFFFFFFFFFFF302821FF302821FF302821FF302821FF302821FF302821FF302821FF302821FF302821FF302821FFFFFFFFFFFFFFFFFFFFFFFFFFFFFFFFFFFFFFFFFFFFFFFFFFFFFFFFFFFFFFFFFFFFFFFFFFFFFFFFFFFFFFFFFFFFFFFFFFFFFFFFFFFFFF
310
FFFFFFFFFFFFFFFFFFFFFFFFFFFFFFFFFFFFFFFFFFFFFFFFFFFFFFFFFFFFFFFFFFFFFFFFFFFFFFFFFFFFFFFFFFFF302821FF302821FF302821FF302821FF302821FF302821FFFFFFFFFFFFFFFFFF302821FF302821FF302821FF302821FF302821FF302821FF302821FF302821FF302821FF302821FF302821FF302821FF30
310
2821FF302821FF302821FF302821FF302821FF302821FF302821FF302821FF302821FF302821FF302821FFFFFFFFFFFFFFFFFF302821FF302821FF302821FF302821FF302821FFFFFFFFFF302821FF302821FF302821FF302821FF302821FF302821FF302821FF302821FF302821FF302821FF302821FF302821FF302821FF
310
302821FF302821FF302821FF302821FF302821FF302821FF302821FF302821FF302821FF302821FF302821FF302821FFFFFFFFFFFFFFFFFF302821FF302821FF302821FF302821FFFFFFFFFF302821FF302821FF302821FF302821FF302821FF302821FF302821FF302821FF302821FF302821FF302821FF302821FF302821
310
FF302821FF302821FF302821FF302821FF302821FF302821FF302821FF302821FF302821FF302821FF302821FF302821FF302821FFFFFFFFFF302821FF302821FF302821FFFFFFFFFF302821FF302821FF302821FF302821FF302821FF302821FF302821FF302821FF302821FF302821FF302821FF302821FF302821FF3028
310
21FF302821FF302821FF302821FF302821FF302821FF302821FF302821FF302821FF302821FF302821FF302821FF302821FF302821FF302821FFFFFFFFFF302821FF302821FFFFFFFFFFFFFFFFFFFFFFFFFFFFFFFFFFFFFFFFFFFFFFFFFFFFFFFFFFFFFFFFFFFFFFFFFFFFFFFFFFFFFFFFFFFFFFFFFFFFFFFFFFFFFFFFFFFF
310
FFFFFFFFFFFFFFFFFFFFFFFFFFFFFFFFFFFFFFFFFFFFFFFFFFFFFFFFFFFFFFFFFFFFFFFFFFFFFFFFFFFFFFFFFFFFFFFFFFFFFFFFFFFFFFFFFFFFFFFFFFFFFF302821FF302821FF302821FF302821FF302821FF302821FF302821FF302821FF302821FF302821FF302821FF302821FF302821FF302821FF302821FF302821FF
310
302821FF302821FF302821FF302821FF302821FF302821FF302821FF302821FF302821FF302821FF302821FF302821FF302821FF302821FF302821FF302821FF302821FF302821FF302821FF302821FF302821FF302821FF302821FF302821FF302821FF302821FF302821FF302821FF302821FF302821FF302821FF302821
310
FF302821FF302821FF302821FF302821FF302821FF302821FF302821FF302821FF302821FF302821FF302821FF302821FF302821FF302821FF302821FF302821FF302821FF302821FF302821FF302821FF302821FF302821FF302821FF302821FF302821FF302821FF302821FF302821FF302821FF302821FF302821FF3028
310
21FF302821FF302821FF302821FF302821FF302821FF302821FF302821FF302821FF302821FF302821FF302821FF302821FF302821FF302821FF302821FF302821FF302821FF302821FF302821FF302821FF302821FF302821FF302821FF302821FF302821FF302821FF302821FF302821FF302821FF302821FF302821FF30
310
2821FF302821FF302821FF302821FF302821FF302821FF302821FF302821FF302821FF302821FF302821FF302821FF302821FF302821FF302821FF302821FF302821FF302821FF302821FF302821FF302821FF302821FF302821FF302821FF302821FF302821FF302821FF302821FF302821FF302821FF302821FF302821FF
310
302821FF302821FF302821FF302821FF302821FF302821FF302821FF302821FF302821FF302821FF302821FF302821FF302821FF302821FF302821FF302821FF302821FF302821FF
102
{BLKREFS
331
714
102
}
 70
     1
280
     1
281
     1
  0
ENDTAB
  0
ENDSEC
  0
SECTION
  2
BLOCKS
  0
BLOCK
  5
71
330
70
100
AcDbEntity
  8
0
100
AcDbBlockBegin
  2
*Model_Space
 70
     0
 10
0.0
 20
0.0
 30
0.0
  3
*Model_Space
  1

  0
ENDBLK
  5
72
330
70
100
AcDbEntity
  8
0
100
AcDbBlockEnd
  0
BLOCK
  5
6D
330
6C
100
AcDbEntity
 67
     1
  8
0
100
AcDbBlockBegin
  2
*Paper_Space
 70
     0
 10
0.0
 20
0.0
 30
0.0
  3
*Paper_Space
  1

  0
ENDBLK
  5
6E
330
6C
100
AcDbEntity
 67
     1
  8
0
100
AcDbBlockEnd
  0
BLOCK
  5
75
330
74
100
AcDbEntity
 67
     1
  8
0
100
AcDbBlockBegin
  2
*Paper_Space0
 70
     0
 10
0.0
 20
0.0
 30
0.0
  3
*Paper_Space0
  1

  0
ENDBLK
  5
76
330
74
100
AcDbEntity
 67
     1
  8
0
100
AcDbBlockEnd
  0
BLOCK
  5
585
330
584
100
AcDbEntity
  8
0
100
AcDbBlockBegin
  2
Basin-Dual_Mount-Grohe-Essence-39669000-39670000 Top View
 70
     0
 10
0.0
 20
0.0
 30
0.0
  3
Basin-Dual_Mount-Grohe-Essence-39669000-39670000 Top View
  1

  0
LINE
  5
587
330
584
100
AcDbEntity
  8
Basin-Dual_Mount-Grohe-Essence-39669000-39670000
100
AcDbLine
 10
-12.31520462419307
 20
-13.67810789504965
 30
0.0
 11
-12.15651286122749
 21
-13.96268381813387
 31
0.0
  0
LINE
  5
588
330
584
100
AcDbEntity
  8
Basin-Dual_Mount-Grohe-Essence-39669000-39670000
100
AcDbLine
 10
-12.15651286122749
 20
-13.96268381813387
 30
0.0
 11
-11.98656803305637
 21
-14.24068613289088
 31
0.0
  0
LINE
  5
589
330
584
100
AcDbEntity
  8
Basin-Dual_Mount-Grohe-Essence-39669000-39670000
100
AcDbLine
 10
-11.98656803305637
 20
-14.24068613289088
 30
0.0
 11
-11.80564201515182
 21
-14.51167009492106
 31
0.0
  0
LINE
  5
58A
330
584
100
AcDbEntity
  8
Basin-Dual_Mount-Grohe-Essence-39669000-39670000
100
AcDbLine
 10
-11.80564201515182
 20
-14.51167009492106
 30
0.0
 11
-11.61402425054702
 21
-14.77520218769199
 31
0.0
  0
LINE
  5
58B
330
584
100
AcDbEntity
  8
Basin-Dual_Mount-Grohe-Essence-39669000-39670000
100
AcDbLine
 10
-11.61402425054702
 20
-14.77520218769199
 30
0.0
 11
-11.41202128678902
 21
-15.03086081607241
 31
0.0
  0
LINE
  5
58C
330
584
100
AcDbEntity
  8
Basin-Dual_Mount-Grohe-Essence-39669000-39670000
100
AcDbLine
 10
-11.41202128678902
 20
-15.03086081607241
 30
0.0
 11
-11.19995628552822
 21
-15.27823698079452
 31
0.0
  0
LINE
  5
58D
330
584
100
AcDbEntity
  8
Basin-Dual_Mount-Grohe-Essence-39669000-39670000
100
AcDbLine
 10
-11.19995628552822
 20
-15.27823698079452
 30
0.0
 11
-10.97816850552848
 21
-15.51693493276553
 31
0.0
  0
LINE
  5
58E
330
584
100
AcDbEntity
  8
Basin-Dual_Mount-Grohe-Essence-39669000-39670000
100
AcDbLine
 10
-10.97816850552848
 20
-15.51693493276553
 30
0.0
 11
-10.74701275992559
 21
-15.7465728061818
 31
0.0
  0
LINE
  5
58F
330
584
100
AcDbEntity
  8
Basin-Dual_Mount-Grohe-Essence-39669000-39670000
100
AcDbLine
 10
-10.74701275992559
 20
-15.7465728061818
 30
0.0
 11
-10.50685884860196
 21
-15.96678322943265
 31
0.0
  0
LINE
  5
590
330
584
100
AcDbEntity
  8
Basin-Dual_Mount-Grohe-Essence-39669000-39670000
100
AcDbLine
 10
-10.50685884860196
 20
-15.96678322943265
 30
0.0
 11
-10.25809096658556
 21
-16.17721391281662
 31
0.0
  0
LINE
  5
591
330
584
100
AcDbEntity
  8
Basin-Dual_Mount-Grohe-Essence-39669000-39670000
100
AcDbLine
 10
-10.25809096658556
 20
-16.17721391281662
 30
0.0
 11
-10.00110708941998
 21
-16.37752821212978
 31
0.0
  0
LINE
  5
592
330
584
100
AcDbEntity
  8
Basin-Dual_Mount-Grohe-Essence-39669000-39670000
100
AcDbLine
 10
-10.00110708941998
 20
-16.37752821212978
 30
0.0
 11
-9.736318336488402
 21
-16.56740566722465
 31
0.0
  0
LINE
  5
593
330
584
100
AcDbEntity
  8
Basin-Dual_Mount-Grohe-Essence-39669000-39670000
100
AcDbLine
 10
-9.736318336488402
 20
-16.56740566722465
 30
0.0
 11
-9.464148313310239
 21
-16.74654251467811
 31
0.0
  0
LINE
  5
594
330
584
100
AcDbEntity
  8
Basin-Dual_Mount-Grohe-Essence-39669000-39670000
100
AcDbLine
 10
-9.464148313310239
 20
-16.74654251467811
 30
0.0
 11
-9.18503243386274
 21
-16.91465217374807
 31
0.0
  0
LINE
  5
595
330
584
100
AcDbEntity
  8
Basin-Dual_Mount-Grohe-Essence-39669000-39670000
100
AcDbLine
 10
-9.18503243386274
 20
-16.91465217374807
 30
0.0
 11
-8.899417224011468
 21
-17.07146570484148
 31
0.0
  0
LINE
  5
596
330
584
100
AcDbEntity
  8
Basin-Dual_Mount-Grohe-Essence-39669000-39670000
100
AcDbLine
 10
-8.899417224011468
 20
-17.07146570484148
 30
0.0
 11
-8.607759607164204
 21
-17.21673223976039
 31
0.0
  0
LINE
  5
597
330
584
100
AcDbEntity
  8
Basin-Dual_Mount-Grohe-Essence-39669000-39670000
100
AcDbLine
 10
-8.607759607164204
 20
-17.21673223976039
 30
0.0
 11
-8.310526173290938
 21
-17.35021938303744
 31
0.0
  0
LINE
  5
598
330
584
100
AcDbEntity
  8
Basin-Dual_Mount-Grohe-Essence-39669000-39670000
100
AcDbLine
 10
-8.310526173290938
 20
-17.35021938303744
 30
0.0
 11
-8.008192432479422
 21
-17.47171358371914
 31
0.0
  0
LINE
  5
599
330
584
100
AcDbEntity
  8
Basin-Dual_Mount-Grohe-Essence-39669000-39670000
100
AcDbLine
 10
-8.008192432479422
 20
-17.47171358371914
 30
0.0
 11
-7.701242054220546
 21
-17.58102047700178
 31
0.0
  0
LINE
  5
59A
330
584
100
AcDbEntity
  8
Basin-Dual_Mount-Grohe-Essence-39669000-39670000
100
AcDbLine
 10
-7.701242054220546
 20
-17.58102047700178
 30
0.0
 11
-7.390166093640281
 21
-17.67796519517367
 31
0.0
  0
LINE
  5
59B
330
584
100
AcDbEntity
  8
Basin-Dual_Mount-Grohe-Essence-39669000-39670000
100
AcDbLine
 10
-7.390166093640281
 20
-17.67796519517367
 30
0.0
 11
-7.075462205916196
 21
-17.76239264736616
 31
0.0
  0
LINE
  5
59C
330
584
100
AcDbEntity
  8
Basin-Dual_Mount-Grohe-Essence-39669000-39670000
100
AcDbLine
 10
-7.075462205916196
 20
-17.76239264736616
 30
0.0
 11
-6.757633850135423
 21
-17.83416776766599
 31
0.0
  0
LINE
  5
59D
330
584
100
AcDbEntity
  8
Basin-Dual_Mount-Grohe-Essence-39669000-39670000
100
AcDbLine
 10
-6.757633850135423
 20
-17.83416776766599
 30
0.0
 11
-6.43718948386742
 21
-17.89317573119186
 31
0.0
  0
LINE
  5
59E
330
584
100
AcDbEntity
  8
Basin-Dual_Mount-Grohe-Essence-39669000-39670000
100
AcDbLine
 10
-6.43718948386742
 20
-17.89317573119186
 30
0.0
 11
-6.114641749740428
 21
-17.93932213778986
 31
0.0
  0
LINE
  5
59F
330
584
100
AcDbEntity
  8
Basin-Dual_Mount-Grohe-Essence-39669000-39670000
100
AcDbLine
 10
-6.114641749740428
 20
-17.93932213778986
 30
0.0
 11
-5.790506655322513
 21
-17.97253316305345
 31
0.0
  0
LINE
  5
5A0
330
584
100
AcDbEntity
  8
Basin-Dual_Mount-Grohe-Essence-39669000-39670000
100
AcDbLine
 10
-5.790506655322513
 20
-17.97253316305345
 30
0.0
 11
-5.465302747619627
 21
-17.99275567642685
 31
0.0
  0
LINE
  5
5A1
330
584
100
AcDbEntity
  8
Basin-Dual_Mount-Grohe-Essence-39669000-39670000
100
AcDbLine
 10
-5.465302747619627
 20
-17.99275567642685
 30
0.0
 11
-5.387343351535676
 21
-17.99447918224548
 31
0.0
  0
LINE
  5
5A2
330
584
100
AcDbEntity
  8
Basin-Dual_Mount-Grohe-Essence-39669000-39670000
100
AcDbLine
 10
-5.139550283510949
 20
-17.99995732620258
 30
0.0
 11
-5.12240927731139
 21
-17.99997535971538
 31
0.0
  0
LINE
  5
5A3
330
584
100
AcDbEntity
  8
Basin-Dual_Mount-Grohe-Essence-39669000-39670000
100
AcDbLine
 10
-12.47156403496183
 20
-13.36706666891452
 30
0.0
 11
-12.39642619242705
 21
-13.5220958389426
 31
0.0
  0
LINE
  5
5A4
330
584
100
AcDbEntity
  8
Basin-Dual_Mount-Grohe-Essence-39669000-39670000
100
AcDbLine
 10
-12.39642619242705
 20
-13.5220958389426
 30
0.0
 11
-12.31520462419309
 21
-13.67810789504965
 31
0.0
  0
LINE
  5
5A5
330
584
100
AcDbEntity
  8
Basin-Dual_Mount-Grohe-Essence-39669000-39670000
100
AcDbLine
 10
-10.64666976434416
 20
-2.015498982904929
 30
0.0
 11
-10.8816714547453
 21
-2.241199530403115
 31
0.0
  0
LINE
  5
5A6
330
584
100
AcDbEntity
  8
Basin-Dual_Mount-Grohe-Essence-39669000-39670000
100
AcDbLine
 10
-10.8816714547453
 20
-2.241199530403115
 30
0.0
 11
-10.89802357637455
 21
-2.258212830586515
 31
0.0
  0
LINE
  5
5A7
330
584
100
AcDbEntity
  8
Basin-Dual_Mount-Grohe-Essence-39669000-39670000
100
AcDbLine
 10
12.31520462419337
 20
-13.67810789504962
 30
0.0
 11
12.49800770867157
 21
-13.31706653505571
 31
0.0
  0
LINE
  5
5A8
330
584
100
AcDbEntity
  8
Basin-Dual_Mount-Grohe-Essence-39669000-39670000
100
AcDbLine
 10
5.38469446902314
 20
-17.99472895634204
 30
0.0
 11
5.448176173545296
 21
-17.99345915293996
 31
0.0
  0
LINE
  5
5A9
330
584
100
AcDbEntity
  8
Basin-Dual_Mount-Grohe-Essence-39669000-39670000
100
AcDbLine
 10
5.448176173545296
 20
-17.99345915293996
 30
0.0
 11
5.773421912238085
 21
-17.97392095715453
 31
0.0
  0
LINE
  5
5AA
330
584
100
AcDbEntity
  8
Basin-Dual_Mount-Grohe-Essence-39669000-39670000
100
AcDbLine
 10
5.773421912238085
 20
-17.97392095715453
 30
0.0
 11
6.097626169590276
 21
-17.94139202930438
 31
0.0
  0
LINE
  5
5AB
330
584
100
AcDbEntity
  8
Basin-Dual_Mount-Grohe-Essence-39669000-39670000
100
AcDbLine
 10
6.097626169590276
 20
-17.94139202930438
 30
0.0
 11
6.420270287950008
 21
-17.89592440873497
 31
0.0
  0
LINE
  5
5AC
330
584
100
AcDbEntity
  8
Basin-Dual_Mount-Grohe-Essence-39669000-39670000
100
AcDbLine
 10
6.420270287950008
 20
-17.89592440873497
 30
0.0
 11
6.740838105554961
 21
-17.83759083393995
 31
0.0
  0
LINE
  5
5AD
330
584
100
AcDbEntity
  8
Basin-Dual_Mount-Grohe-Essence-39669000-39670000
100
AcDbLine
 10
6.740838105554961
 20
-17.83759083393995
 30
0.0
 11
7.05881678228112
 21
-17.76648462619517
 31
0.0
  0
LINE
  5
5AE
330
584
100
AcDbEntity
  8
Basin-Dual_Mount-Grohe-Essence-39669000-39670000
100
AcDbLine
 10
7.05881678228112
 20
-17.76648462619517
 30
0.0
 11
7.373697620077577
 21
-17.6827195402645
 31
0.0
  0
LINE
  5
5AF
330
584
100
AcDbEntity
  8
Basin-Dual_Mount-Grohe-Essence-39669000-39670000
100
AcDbLine
 10
7.373697620077577
 20
-17.6827195402645
 30
0.0
 11
7.684976876774833
 21
-17.5864295824165
 31
0.0
  0
LINE
  5
5B0
330
584
100
AcDbEntity
  8
Basin-Dual_Mount-Grohe-Essence-39669000-39670000
100
AcDbLine
 10
7.684976876774833
 20
-17.5864295824165
 30
0.0
 11
7.992156571964886
 21
-17.47776879604295
 31
0.0
  0
LINE
  5
5B1
330
584
100
AcDbEntity
  8
Basin-Dual_Mount-Grohe-Essence-39669000-39670000
100
AcDbLine
 10
7.992156571964886
 20
-17.47776879604295
 30
0.0
 11
8.294745283663599
 21
-17.35691101522235
 31
0.0
  0
LINE
  5
5B2
330
584
100
AcDbEntity
  8
Basin-Dual_Mount-Grohe-Essence-39669000-39670000
100
AcDbLine
 10
8.294745283663599
 20
-17.35691101522235
 30
0.0
 11
8.592258934481064
 21
-17.22404958662236
 31
0.0
  0
LINE
  5
5B3
330
584
100
AcDbEntity
  8
Basin-Dual_Mount-Grohe-Essence-39669000-39670000
100
AcDbLine
 10
8.592258934481064
 20
-17.22404958662236
 30
0.0
 11
8.884221566042182
 21
-17.07939706018651
 31
0.0
  0
LINE
  5
5B4
330
584
100
AcDbEntity
  8
Basin-Dual_Mount-Grohe-Essence-39669000-39670000
100
AcDbLine
 10
8.884221566042182
 20
-17.07939706018651
 30
0.0
 11
9.17016610041848
 21
-16.9231848490995
 31
0.0
  0
LINE
  5
5B5
330
584
100
AcDbEntity
  8
Basin-Dual_Mount-Grohe-Essence-39669000-39670000
100
AcDbLine
 10
9.17016610041848
 20
-16.9231848490995
 30
0.0
 11
9.449635087353213
 21
-16.75566285957561
 31
0.0
  0
LINE
  5
5B6
330
584
100
AcDbEntity
  8
Basin-Dual_Mount-Grohe-Essence-39669000-39670000
100
AcDbLine
 10
9.449635087353213
 20
-16.75566285957561
 30
0.0
 11
9.722181436084149
 21
-16.57709909106195
 31
0.0
  0
LINE
  5
5B7
330
584
100
AcDbEntity
  8
Basin-Dual_Mount-Grohe-Essence-39669000-39670000
100
AcDbLine
 10
9.722181436084149
 20
-16.57709909106195
 30
0.0
 11
9.987369130593448
 21
-16.38777920749656
 31
0.0
  0
LINE
  5
5B8
330
584
100
AcDbEntity
  8
Basin-Dual_Mount-Grohe-Essence-39669000-39670000
100
AcDbLine
 10
9.987369130593448
 20
-16.38777920749656
 30
0.0
 11
10.24477392714024
 21
-16.18800608030707
 31
0.0
  0
LINE
  5
5B9
330
584
100
AcDbEntity
  8
Basin-Dual_Mount-Grohe-Essence-39669000-39670000
100
AcDbLine
 10
10.24477392714024
 20
-16.18800608030707
 30
0.0
 11
10.49398403296016
 21
-15.97809930388098
 31
0.0
  0
LINE
  5
5BA
330
584
100
AcDbEntity
  8
Basin-Dual_Mount-Grohe-Essence-39669000-39670000
100
AcDbLine
 10
10.49398403296016
 20
-15.97809930388098
 30
0.0
 11
10.73460076504587
 21
-15.75839468428284
 31
0.0
  0
LINE
  5
5BB
330
584
100
AcDbEntity
  8
Basin-Dual_Mount-Grohe-Essence-39669000-39670000
100
AcDbLine
 10
10.73460076504587
 20
-15.75839468428284
 30
0.0
 11
10.96623918795488
 21
-15.52924370203621
 31
0.0
  0
LINE
  5
5BC
330
584
100
AcDbEntity
  8
Basin-Dual_Mount-Grohe-Essence-39669000-39670000
100
AcDbLine
 10
10.96623918795488
 20
-15.52924370203621
 30
0.0
 11
11.18852872962408
 21
-15.29101294982973
 31
0.0
  0
LINE
  5
5BD
330
584
100
AcDbEntity
  8
Basin-Dual_Mount-Grohe-Essence-39669000-39670000
100
AcDbLine
 10
11.18852872962408
 20
-15.29101294982973
 30
0.0
 11
11.40111377420604
 21
-15.04408354604709
 31
0.0
  0
LINE
  5
5BE
330
584
100
AcDbEntity
  8
Basin-Dual_Mount-Grohe-Essence-39669000-39670000
100
AcDbLine
 10
11.40111377420604
 20
-15.04408354604709
 30
0.0
 11
11.6036542309785
 21
-14.78885052505887
 31
0.0
  0
LINE
  5
5BF
330
584
100
AcDbEntity
  8
Basin-Dual_Mount-Grohe-Essence-39669000-39670000
100
AcDbLine
 10
11.6036542309785
 20
-14.78885052505887
 30
0.0
 11
11.79582607841694
 21
-14.52572220525186
 31
0.0
  0
LINE
  5
5C0
330
584
100
AcDbEntity
  8
Basin-Dual_Mount-Grohe-Essence-39669000-39670000
100
AcDbLine
 10
11.79582607841694
 20
-14.52572220525186
 30
0.0
 11
11.97732188255995
 21
-14.25511953580668
 31
0.0
  0
LINE
  5
5C1
330
584
100
AcDbEntity
  8
Basin-Dual_Mount-Grohe-Essence-39669000-39670000
100
AcDbLine
 10
11.97732188255995
 20
-14.25511953580668
 30
0.0
 11
12.14785128883791
 21
-13.97747542326898
 31
0.0
  0
LINE
  5
5C2
330
584
100
AcDbEntity
  8
Basin-Dual_Mount-Grohe-Essence-39669000-39670000
100
AcDbLine
 10
12.14785128883791
 20
-13.97747542326898
 30
0.0
 11
12.30714148657847
 21
-13.69323403899121
 31
0.0
  0
LINE
  5
5C3
330
584
100
AcDbEntity
  8
Basin-Dual_Mount-Grohe-Essence-39669000-39670000
100
AcDbLine
 10
12.30714148657847
 20
-13.69323403899121
 30
0.0
 11
12.31520462419337
 21
-13.67810789504962
 31
0.0
  0
ARC
  5
5C4
330
584
100
AcDbEntity
  8
Basin-Dual_Mount-Grohe-Essence-39669000-39670000
100
AcDbCircle
 10
5.037237866758871
 20
-8.180509568810606
 30
0.0
 40
8.335053127188482
100
AcDbArc
 50
33.05050756764473
 51
78.94949243235384
1001
REVIT
1002
{
1070
     1
1000
133243
1002
}
1002
{
1070
     2
1000
-2001160
1002
}
  0
ARC
  5
5C5
330
584
100
AcDbEntity
  8
Basin-Dual_Mount-Grohe-Essence-39669000-39670000
100
AcDbCircle
 10
-5.037237866758651
 20
-8.180509568810606
 30
0.0
 40
8.335053127188471
100
AcDbArc
 50
101.0505075676474
 51
146.9494924323555
1001
REVIT
1002
{
1070
     1
1000
133243
1002
}
1002
{
1070
     2
1000
-2001160
1002
}
  0
LINE
  5
5C6
330
584
100
AcDbEntity
  8
Basin-Dual_Mount-Grohe-Essence-39669000-39670000
100
AcDbLine
 10
-6.634852910394911
 20
-0.0000000000000213
 30
0.0
 11
6.634852910394911
 21
0.0000000000000213
 31
0.0
1001
REVIT
1002
{
1070
     1
1000
133243
1002
}
1002
{
1070
     2
1000
-2001160
1002
}
  0
CIRCLE
  5
5C7
330
584
100
AcDbEntity
  8
Basin-Dual_Mount-Grohe-Essence-39669000-39670000
100
AcDbCircle
 10
-0.0000000000002203
 20
-2.249999999999989
 30
0.0
 40
0.6874999999999991
1001
REVIT
1002
{
1070
     1
1000
133714
1002
}
1002
{
1070
     2
1000
-2001160
1002
}
  0
CIRCLE
  5
5C8
330
584
100
AcDbEntity
  8
Basin-Dual_Mount-Grohe-Essence-39669000-39670000
100
AcDbCircle
 10
-0.0000000000002203
 20
-7.374999999999989
 30
0.0
 40
0.6874999999999988
1001
REVIT
1002
{
1070
     1
1000
133875
1002
}
1002
{
1070
     2
1000
-2001160
1002
}
  0
ARC
  5
5C9
330
584
100
AcDbEntity
  8
Basin-Dual_Mount-Grohe-Essence-39669000-39670000
100
AcDbCircle
 10
3.954886758327866
 20
-8.884753872559826
 30
0.0
 40
9.626348585743603
100
AcDbArc
 50
326.949492432354
 51
33.05050756764518
1001
REVIT
1002
{
1070
     1
1000
135939
1002
}
1002
{
1070
     2
1000
-2001160
1002
}
  0
ARC
  5
5CA
330
584
100
AcDbEntity
  8
Basin-Dual_Mount-Grohe-Essence-39669000-39670000
100
AcDbCircle
 10
4.874929289479609
 20
-9.483390217756436
 30
0.0
 40
8.528694845751578
100
AcDbArc
 50
273.0505075676453
 51
326.949492432354
1001
REVIT
1002
{
1070
     1
1000
135945
1002
}
1002
{
1070
     2
1000
-2001160
1002
}
  0
LINE
  5
5CB
330
584
100
AcDbEntity
  8
Basin-Dual_Mount-Grohe-Essence-39669000-39670000
100
AcDbLine
 10
5.328794455517396
 20
-18.00000000000003
 30
0.0
 11
-5.328794455516415
 21
-18.00000000000006
 31
0.0
1001
REVIT
1002
{
1070
     1
1000
135959
1002
}
1002
{
1070
     2
1000
-2001160
1002
}
  0
ARC
  5
5CC
330
584
100
AcDbEntity
  8
Basin-Dual_Mount-Grohe-Essence-39669000-39670000
100
AcDbCircle
 10
-3.740457009198978
 20
-8.892483155868006
 30
0.0
 40
9.810918790335252
100
AcDbArc
 50
147.5946316706062
 51
207.1345739697618
1001
REVIT
1002
{
1070
     1
1000
135974
1002
}
1002
{
1070
     2
1000
-2001160
1002
}
  0
ARC
  5
5CD
330
584
100
AcDbEntity
  8
Basin-Dual_Mount-Grohe-Essence-39669000-39670000
100
AcDbCircle
 10
3.954886758327866
 20
-8.884753872559826
 30
0.0
 40
8.376348585743601
100
AcDbArc
 50
326.949492432354
 51
23.75219953164968
1001
REVIT
1002
{
1070
     1
1000
135990
1002
}
1002
{
1070
     2
1000
-2001160
1002
}
  0
ARC
  5
5CE
330
584
100
AcDbEntity
  8
Basin-Dual_Mount-Grohe-Essence-39669000-39670000
100
AcDbCircle
 10
4.874929289479609
 20
-9.483390217756436
 30
0.0
 40
7.278694845751579
100
AcDbArc
 50
273.3021397597605
 51
326.949492432354
1001
REVIT
1002
{
1070
     1
1000
136016
1002
}
1002
{
1070
     2
1000
-2001160
1002
}
  0
LINE
  5
5CF
330
584
100
AcDbEntity
  8
Basin-Dual_Mount-Grohe-Essence-39669000-39670000
100
AcDbLine
 10
5.29419165384413
 20
-16.75000000000003
 30
0.0
 11
-5.294191653843213
 21
-16.75000000000006
 31
0.0
1001
REVIT
1002
{
1070
     1
1000
136047
1002
}
1002
{
1070
     2
1000
-2001160
1002
}
  0
ARC
  5
5D0
330
584
100
AcDbEntity
  8
Basin-Dual_Mount-Grohe-Essence-39669000-39670000
100
AcDbCircle
 10
-4.874929289479361
 20
-9.483390217756436
 30
0.0
 40
7.278694845751585
100
AcDbArc
 50
213.0505075676467
 51
266.6978602402447
1001
REVIT
1002
{
1070
     1
1000
136079
1002
}
1002
{
1070
     2
1000
-2001160
1002
}
  0
ARC
  5
5D1
330
584
100
AcDbEntity
  8
Basin-Dual_Mount-Grohe-Essence-39669000-39670000
100
AcDbCircle
 10
-3.954886758327653
 20
-8.884753872559826
 30
0.0
 40
8.376348585743587
100
AcDbArc
 50
156.2478004683499
 51
213.0505075676469
1001
REVIT
1002
{
1070
     1
1000
136118
1002
}
1002
{
1070
     2
1000
-2001160
1002
}
  0
LINE
  5
5D2
330
584
100
AcDbEntity
  8
Basin-Dual_Mount-Grohe-Essence-39669000-39670000
100
AcDbLine
 10
9.791133224249918
 20
-4.316476536303746
 30
0.0
 11
-9.791133224249698
 21
-4.316476536303806
 31
0.0
1001
REVIT
1002
{
1070
     1
1000
136179
1002
}
1002
{
1070
     2
1000
-2001160
1002
}
  0
ARC
  5
5D3
330
584
100
AcDbEntity
  8
Basin-Dual_Mount-Grohe-Essence-39669000-39670000
100
AcDbCircle
 10
9.791133224249925
 20
-6.316476536303742
 30
0.0
 40
2.0
100
AcDbArc
 50
23.75219953164968
 51
90.0
1001
REVIT
1002
{
1070
     1
1000
136269
1002
}
1002
{
1070
     2
1000
-2001160
1002
}
  0
ARC
  5
5D4
330
584
100
AcDbEntity
  8
Basin-Dual_Mount-Grohe-Essence-39669000-39670000
100
AcDbCircle
 10
-9.791133224249691
 20
-6.316476536303738
 30
0.0
 40
1.999999999999998
100
AcDbArc
 50
89.99999999999959
 51
156.247800468351
1001
REVIT
1002
{
1070
     1
1000
136310
1002
}
1002
{
1070
     2
1000
-2001160
1002
}
  0
ENDBLK
  5
586
330
584
100
AcDbEntity
  8
0
100
AcDbBlockEnd
  0
BLOCK
  5
5D7
330
5D6
100
AcDbEntity
  8
0
100
AcDbBlockBegin
  2
Basin-Dual_Mount-Grohe-Essence-39669000-39670000 Front View
 70
     0
 10
0.0
 20
0.0
 30
0.0
  3
Basin-Dual_Mount-Grohe-Essence-39669000-39670000 Front View
  1

  0
LINE
  5
5D9
330
5D6
100
AcDbEntity
  8
Basin-Dual_Mount-Grohe-Essence-39669000-39670000
100
AcDbLine
 10
-10.66733616259694
 20
-3.611164191483993
 30
0.0
 11
-10.77116469730535
 21
-3.609087343869418
 31
0.0
1001
REVIT
1002
{
1070
     2
1000
-2001160
1002
}
  0
LINE
  5
5DA
330
5D6
100
AcDbEntity
  8
Basin-Dual_Mount-Grohe-Essence-39669000-39670000
100
AcDbLine
 10
-10.77116469730535
 20
-3.609087343869418
 30
0.0
 11
-10.87482712850714
 21
-3.60286012353886
 31
0.0
1001
REVIT
1002
{
1070
     2
1000
-2001160
1002
}
  0
LINE
  5
5DB
330
5D6
100
AcDbEntity
  8
Basin-Dual_Mount-Grohe-Essence-39669000-39670000
100
AcDbLine
 10
-10.87482712850714
 20
-3.60286012353886
 30
0.0
 11
-10.97815761842587
 21
-3.592492492716431
 31
0.0
1001
REVIT
1002
{
1070
     2
1000
-2001160
1002
}
  0
LINE
  5
5DC
330
5D6
100
AcDbEntity
  8
Basin-Dual_Mount-Grohe-Essence-39669000-39670000
100
AcDbLine
 10
-10.97815761842587
 20
-3.592492492716431
 30
0.0
 11
-11.08099086032029
 21
-3.578001037399829
 31
0.0
1001
REVIT
1002
{
1070
     2
1000
-2001160
1002
}
  0
LINE
  5
5DD
330
5D6
100
AcDbEntity
  8
Basin-Dual_Mount-Grohe-Essence-39669000-39670000
100
AcDbLine
 10
-11.08099086032029
 20
-3.578001037399829
 30
0.0
 11
-11.18316234293999
 21
-3.559408940826173
 31
0.0
1001
REVIT
1002
{
1070
     2
1000
-2001160
1002
}
  0
LINE
  5
5DE
330
5D6
100
AcDbEntity
  8
Basin-Dual_Mount-Grohe-Essence-39669000-39670000
100
AcDbLine
 10
-11.18316234293999
 20
-3.559408940826173
 30
0.0
 11
-11.28450861370819
 21
-3.536745946383916
 31
0.0
1001
REVIT
1002
{
1070
     2
1000
-2001160
1002
}
  0
LINE
  5
5DF
330
5D6
100
AcDbEntity
  8
Basin-Dual_Mount-Grohe-Essence-39669000-39670000
100
AcDbLine
 10
-11.28450861370819
 20
-3.536745946383916
 30
0.0
 11
-11.38486754021105
 21
-3.510048310029631
 31
0.0
1001
REVIT
1002
{
1070
     2
1000
-2001160
1002
}
  0
LINE
  5
5E0
330
5D6
100
AcDbEntity
  8
Basin-Dual_Mount-Grohe-Essence-39669000-39670000
100
AcDbLine
 10
-11.38486754021105
 20
-3.510048310029631
 30
0.0
 11
-11.48407856957492
 21
-3.479358742286294
 31
0.0
1001
REVIT
1002
{
1070
     2
1000
-2001160
1002
}
  0
LINE
  5
5E1
330
5D6
100
AcDbEntity
  8
Basin-Dual_Mount-Grohe-Essence-39669000-39670000
100
AcDbLine
 10
-11.48407856957492
 20
-3.479358742286294
 30
0.0
 11
-11.58198298531672
 21
-3.444726339915547
 31
0.0
1001
REVIT
1002
{
1070
     2
1000
-2001160
1002
}
  0
LINE
  5
5E2
330
5D6
100
AcDbEntity
  8
Basin-Dual_Mount-Grohe-Essence-39669000-39670000
100
AcDbLine
 10
-11.58198298531672
 20
-3.444726339915547
 30
0.0
 11
-11.67842416125641
 21
-3.406206507373326
 31
0.0
1001
REVIT
1002
{
1070
     2
1000
-2001160
1002
}
  0
LINE
  5
5E3
330
5D6
100
AcDbEntity
  8
Basin-Dual_Mount-Grohe-Essence-39669000-39670000
100
AcDbLine
 10
-11.67842416125641
 20
-3.406206507373326
 30
0.0
 11
-11.77324781208551
 21
-3.363860868174569
 31
0.0
1001
REVIT
1002
{
1070
     2
1000
-2001160
1002
}
  0
LINE
  5
5E4
330
5D6
100
AcDbEntity
  8
Basin-Dual_Mount-Grohe-Essence-39669000-39670000
100
AcDbLine
 10
-11.77324781208551
 20
-3.363860868174569
 30
0.0
 11
-11.86630224019068
 21
-3.317757166308737
 31
0.0
1001
REVIT
1002
{
1070
     2
1000
-2001160
1002
}
  0
LINE
  5
5E5
330
5D6
100
AcDbEntity
  8
Basin-Dual_Mount-Grohe-Essence-39669000-39670000
100
AcDbLine
 10
-11.86630224019068
 20
-3.317757166308737
 30
0.0
 11
-11.95743857833748
 21
-3.267969157863888
 31
0.0
1001
REVIT
1002
{
1070
     2
1000
-2001160
1002
}
  0
LINE
  5
5E6
330
5D6
100
AcDbEntity
  8
Basin-Dual_Mount-Grohe-Essence-39669000-39670000
100
AcDbLine
 10
-11.95743857833748
 20
-3.267969157863888
 30
0.0
 11
-12.04651102782626
 21
-3.21457649303268
 31
0.0
1001
REVIT
1002
{
1070
     2
1000
-2001160
1002
}
  0
LINE
  5
5E7
330
5D6
100
AcDbEntity
  8
Basin-Dual_Mount-Grohe-Essence-39669000-39670000
100
AcDbLine
 10
-12.04651102782626
 20
-3.21457649303268
 30
0.0
 11
-12.13337709173895
 21
-3.157664588688973
 31
0.0
1001
REVIT
1002
{
1070
     2
1000
-2001160
1002
}
  0
LINE
  5
5E8
330
5D6
100
AcDbEntity
  8
Basin-Dual_Mount-Grohe-Essence-39669000-39670000
100
AcDbLine
 10
-12.13337709173895
 20
-3.157664588688973
 30
0.0
 11
-12.21789780290375
 21
-3.097324491739186
 31
0.0
1001
REVIT
1002
{
1070
     2
1000
-2001160
1002
}
  0
LINE
  5
5E9
330
5D6
100
AcDbEntity
  8
Basin-Dual_Mount-Grohe-Essence-39669000-39670000
100
AcDbLine
 10
-12.21789780290375
 20
-3.097324491739186
 30
0.0
 11
-12.29993794621289
 21
-3.033652733466567
 31
0.0
1001
REVIT
1002
{
1070
     2
1000
-2001160
1002
}
  0
LINE
  5
5EA
330
5D6
100
AcDbEntity
  8
Basin-Dual_Mount-Grohe-Essence-39669000-39670000
100
AcDbLine
 10
-12.29993794621289
 20
-3.033652733466567
 30
0.0
 11
-12.37936627493805
 21
-2.966751175101748
 31
0.0
1001
REVIT
1002
{
1070
     2
1000
-2001160
1002
}
  0
LINE
  5
5EB
330
5D6
100
AcDbEntity
  8
Basin-Dual_Mount-Grohe-Essence-39669000-39670000
100
AcDbLine
 10
-12.37936627493805
 20
-2.966751175101748
 30
0.0
 11
-12.45605572069707
 21
-2.896726844866577
 31
0.0
1001
REVIT
1002
{
1070
     2
1000
-2001160
1002
}
  0
LINE
  5
5EC
330
5D6
100
AcDbEntity
  8
Basin-Dual_Mount-Grohe-Essence-39669000-39670000
100
AcDbLine
 10
-12.45605572069707
 20
-2.896726844866577
 30
0.0
 11
-12.52988359673629
 21
-2.823691766751679
 31
0.0
1001
REVIT
1002
{
1070
     2
1000
-2001160
1002
}
  0
LINE
  5
5ED
330
5D6
100
AcDbEntity
  8
Basin-Dual_Mount-Grohe-Essence-39669000-39670000
100
AcDbLine
 10
-12.52988359673629
 20
-2.823691766751679
 30
0.0
 11
-12.60073179420315
 21
-2.747762781302071
 31
0.0
1001
REVIT
1002
{
1070
     2
1000
-2001160
1002
}
  0
LINE
  5
5EE
330
5D6
100
AcDbEntity
  8
Basin-Dual_Mount-Grohe-Essence-39669000-39670000
100
AcDbLine
 10
-12.60073179420315
 20
-2.747762781302071
 30
0.0
 11
-12.66848697109518
 21
-2.669061358697135
 31
0.0
1001
REVIT
1002
{
1070
     2
1000
-2001160
1002
}
  0
LINE
  5
5EF
330
5D6
100
AcDbEntity
  8
Basin-Dual_Mount-Grohe-Essence-39669000-39670000
100
AcDbLine
 10
-12.66848697109518
 20
-2.669061358697135
 30
0.0
 11
-12.73304073358302
 21
-2.587713404424292
 31
0.0
1001
REVIT
1002
{
1070
     2
1000
-2001160
1002
}
  0
LINE
  5
5F0
330
5D6
100
AcDbEntity
  8
Basin-Dual_Mount-Grohe-Essence-39669000-39670000
100
AcDbLine
 10
-12.73304073358302
 20
-2.587713404424292
 30
0.0
 11
-12.79428980941741
 21
-2.503849057857081
 31
0.0
1001
REVIT
1002
{
1070
     2
1000
-2001160
1002
}
  0
LINE
  5
5F1
330
5D6
100
AcDbEntity
  8
Basin-Dual_Mount-Grohe-Essence-39669000-39670000
100
AcDbLine
 10
-12.79428980941741
 20
-2.503849057857081
 30
0.0
 11
-12.8521362131428
 21
-2.417602484059926
 31
0.0
1001
REVIT
1002
{
1070
     2
1000
-2001160
1002
}
  0
LINE
  5
5F2
330
5D6
100
AcDbEntity
  8
Basin-Dual_Mount-Grohe-Essence-39669000-39670000
100
AcDbLine
 10
-12.8521362131428
 20
-2.417602484059926
 30
0.0
 11
-12.90648740285315
 21
-2.329111659152573
 31
0.0
1001
REVIT
1002
{
1070
     2
1000
-2001160
1002
}
  0
LINE
  5
5F3
330
5D6
100
AcDbEntity
  8
Basin-Dual_Mount-Grohe-Essence-39669000-39670000
100
AcDbLine
 10
-12.90648740285315
 20
-2.329111659152573
 30
0.0
 11
-12.9572564282392
 21
-2.23851814957787
 31
0.0
1001
REVIT
1002
{
1070
     2
1000
-2001160
1002
}
  0
LINE
  5
5F4
330
5D6
100
AcDbEntity
  8
Basin-Dual_Mount-Grohe-Essence-39669000-39670000
100
AcDbLine
 10
-12.9572564282392
 20
-2.23851814957787
 30
0.0
 11
-13.00436206969049
 21
-2.14596688562554
 31
0.0
1001
REVIT
1002
{
1070
     2
1000
-2001160
1002
}
  0
LINE
  5
5F5
330
5D6
100
AcDbEntity
  8
Basin-Dual_Mount-Grohe-Essence-39669000-39670000
100
AcDbLine
 10
-13.00436206969049
 20
-2.14596688562554
 30
0.0
 11
-13.04772896822938
 21
-2.051605929574691
 31
0.0
1001
REVIT
1002
{
1070
     2
1000
-2001160
1002
}
  0
LINE
  5
5F6
330
5D6
100
AcDbEntity
  8
Basin-Dual_Mount-Grohe-Essence-39669000-39670000
100
AcDbLine
 10
-13.04772896822938
 20
-2.051605929574691
 30
0.0
 11
-13.0872877460693
 21
-1.955586238825745
 31
0.0
1001
REVIT
1002
{
1070
     2
1000
-2001160
1002
}
  0
LINE
  5
5F7
330
5D6
100
AcDbEntity
  8
Basin-Dual_Mount-Grohe-Essence-39669000-39670000
100
AcDbLine
 10
-13.0872877460693
 20
-1.955586238825745
 30
0.0
 11
-13.12297511760447
 21
-1.858061424400801
 31
0.0
1001
REVIT
1002
{
1070
     2
1000
-2001160
1002
}
  0
LINE
  5
5F8
330
5D6
100
AcDbEntity
  8
Basin-Dual_Mount-Grohe-Essence-39669000-39670000
100
AcDbLine
 10
-13.12297511760447
 20
-1.858061424400801
 30
0.0
 11
-13.15473399065333
 21
-1.759187505198724
 31
0.0
1001
REVIT
1002
{
1070
     2
1000
-2001160
1002
}
  0
LINE
  5
5F9
330
5D6
100
AcDbEntity
  8
Basin-Dual_Mount-Grohe-Essence-39669000-39670000
100
AcDbLine
 10
-13.15473399065333
 20
-1.759187505198724
 30
0.0
 11
-13.18251355779387
 21
-1.659122658398288
 31
0.0
1001
REVIT
1002
{
1070
     2
1000
-2001160
1002
}
  0
LINE
  5
5FA
330
5D6
100
AcDbEntity
  8
Basin-Dual_Mount-Grohe-Essence-39669000-39670000
100
AcDbLine
 10
-13.18251355779387
 20
-1.659122658398288
 30
0.0
 11
-13.20626937764467
 21
-1.55802696640832
 31
0.0
1001
REVIT
1002
{
1070
     2
1000
-2001160
1002
}
  0
LINE
  5
5FB
330
5D6
100
AcDbEntity
  8
Basin-Dual_Mount-Grohe-Essence-39669000-39670000
100
AcDbLine
 10
-13.20626937764467
 20
-1.55802696640832
 30
0.0
 11
-13.20700415603632
 21
-1.554581600780352
 31
0.0
1001
REVIT
1002
{
1070
     2
1000
-2001160
1002
}
  0
LINE
  5
5FC
330
5D6
100
AcDbEntity
  8
Basin-Dual_Mount-Grohe-Essence-39669000-39670000
100
AcDbLine
 10
10.62734071912848
 20
-3.611164191483993
 30
0.0
 11
-10.63876139134125
 21
-3.611164191483993
 31
0.0
1001
REVIT
1002
{
1070
     2
1000
-2001160
1002
}
  0
LINE
  5
5FD
330
5D6
100
AcDbEntity
  8
Basin-Dual_Mount-Grohe-Essence-39669000-39670000
100
AcDbLine
 10
-9.976316349047685
 20
-3.611164191484036
 30
0.0
 11
-9.787906282155157
 21
-3.937499999999332
 31
0.0
1001
REVIT
1002
{
1070
     2
1000
-2001160
1002
}
  0
LINE
  5
5FE
330
5D6
100
AcDbEntity
  8
Basin-Dual_Mount-Grohe-Essence-39669000-39670000
100
AcDbLine
 10
-13.5131301257535
 20
-0.1143721463555494
 30
0.0
 11
-13.51384328408633
 21
-0.1106527177334158
 31
0.0
1001
REVIT
1002
{
1070
     2
1000
-2001160
1002
}
  0
LINE
  5
5FF
330
5D6
100
AcDbEntity
  8
Basin-Dual_Mount-Grohe-Essence-39669000-39670000
100
AcDbLine
 10
-13.51384328408633
 20
-0.1106527177334158
 30
0.0
 11
-13.51440713449441
 21
-0.1069077455305631
 31
0.0
1001
REVIT
1002
{
1070
     2
1000
-2001160
1002
}
  0
LINE
  5
600
330
5D6
100
AcDbEntity
  8
Basin-Dual_Mount-Grohe-Essence-39669000-39670000
100
AcDbLine
 10
-13.51440713449441
 20
-0.1069077455305631
 30
0.0
 11
-13.51482077493737
 21
-0.1031432209036183
 31
0.0
1001
REVIT
1002
{
1070
     2
1000
-2001160
1002
}
  0
LINE
  5
601
330
5D6
100
AcDbEntity
  8
Basin-Dual_Mount-Grohe-Essence-39669000-39670000
100
AcDbLine
 10
-13.51482077493737
 20
-0.1031432209036183
 30
0.0
 11
-13.51508354367872
 21
-0.0993651662889477
 31
0.0
1001
REVIT
1002
{
1070
     2
1000
-2001160
1002
}
  0
LINE
  5
602
330
5D6
100
AcDbEntity
  8
Basin-Dual_Mount-Grohe-Essence-39669000-39670000
100
AcDbLine
 10
-13.51508354367872
 20
-0.0993651662889477
 30
0.0
 11
-13.51519502034455
 21
-0.0955796257679822
 31
0.0
1001
REVIT
1002
{
1070
     2
1000
-2001160
1002
}
  0
LINE
  5
603
330
5D6
100
AcDbEntity
  8
Basin-Dual_Mount-Grohe-Essence-39669000-39670000
100
AcDbLine
 10
-13.51519502034455
 20
-0.0955796257679822
 30
0.0
 11
-13.51515502659597
 21
-0.0917926553980237
 31
0.0
1001
REVIT
1002
{
1070
     2
1000
-2001160
1002
}
  0
LINE
  5
604
330
5D6
100
AcDbEntity
  8
Basin-Dual_Mount-Grohe-Essence-39669000-39670000
100
AcDbLine
 10
-13.51515502659597
 20
-0.0917926553980237
 30
0.0
 11
-13.51496362641445
 21
-0.0880103135238244
 31
0.0
1001
REVIT
1002
{
1070
     2
1000
-2001160
1002
}
  0
LINE
  5
605
330
5D6
100
AcDbEntity
  8
Basin-Dual_Mount-Grohe-Essence-39669000-39670000
100
AcDbLine
 10
-13.51496362641445
 20
-0.0880103135238244
 30
0.0
 11
-13.51462112599944
 21
-0.0842386510855136
 31
0.0
1001
REVIT
1002
{
1070
     2
1000
-2001160
1002
}
  0
LINE
  5
606
330
5D6
100
AcDbEntity
  8
Basin-Dual_Mount-Grohe-Essence-39669000-39670000
100
AcDbLine
 10
-13.51462112599944
 20
-0.0842386510855136
 30
0.0
 11
-13.51412807327854
 21
-0.0804837019384195
 31
0.0
1001
REVIT
1002
{
1070
     2
1000
-2001160
1002
}
  0
LINE
  5
607
330
5D6
100
AcDbEntity
  8
Basin-Dual_Mount-Grohe-Essence-39669000-39670000
100
AcDbLine
 10
-13.51412807327854
 20
-0.0804837019384195
 30
0.0
 11
-13.51348525703094
 21
-0.0767514732001615
 31
0.0
1001
REVIT
1002
{
1070
     2
1000
-2001160
1002
}
  0
LINE
  5
608
330
5D6
100
AcDbEntity
  8
Basin-Dual_Mount-Grohe-Essence-39669000-39670000
100
AcDbLine
 10
-13.51348525703094
 20
-0.0767514732001615
 30
0.0
 11
-13.51269370562549
 21
-0.0730479356405596
 31
0.0
1001
REVIT
1002
{
1070
     2
1000
-2001160
1002
}
  0
LINE
  5
609
330
5D6
100
AcDbEntity
  8
Basin-Dual_Mount-Grohe-Essence-39669000-39670000
100
AcDbLine
 10
-13.51269370562549
 20
-0.0730479356405596
 30
0.0
 11
-13.5117546853756
 21
-0.0693790141296518
 31
0.0
1001
REVIT
1002
{
1070
     2
1000
-2001160
1002
}
  0
LINE
  5
60A
330
5D6
100
AcDbEntity
  8
Basin-Dual_Mount-Grohe-Essence-39669000-39670000
100
AcDbLine
 10
-13.5117546853756
 20
-0.0693790141296518
 30
0.0
 11
-13.51066969851334
 21
-0.0657505781592107
 31
0.0
1001
REVIT
1002
{
1070
     2
1000
-2001160
1002
}
  0
LINE
  5
60B
330
5D6
100
AcDbEntity
  8
Basin-Dual_Mount-Grohe-Essence-39669000-39670000
100
AcDbLine
 10
-13.51066969851334
 20
-0.0657505781592107
 30
0.0
 11
-13.50944048078625
 21
-0.0621684324527507
 31
0.0
1001
REVIT
1002
{
1070
     2
1000
-2001160
1002
}
  0
LINE
  5
60C
330
5D6
100
AcDbEntity
  8
Basin-Dual_Mount-Grohe-Essence-39669000-39670000
100
AcDbLine
 10
-13.50944048078625
 20
-0.0621684324527507
 30
0.0
 11
-13.50806899868048
 21
-0.0586383076792743
 31
0.0
1001
REVIT
1002
{
1070
     2
1000
-2001160
1002
}
  0
LINE
  5
60D
330
5D6
100
AcDbEntity
  8
Basin-Dual_Mount-Grohe-Essence-39669000-39670000
100
AcDbLine
 10
-13.50806899868048
 20
-0.0586383076792743
 30
0.0
 11
-13.50655744627482
 21
-0.0551658512853379
 31
0.0
1001
REVIT
1002
{
1070
     2
1000
-2001160
1002
}
  0
LINE
  5
60E
330
5D6
100
AcDbEntity
  8
Basin-Dual_Mount-Grohe-Essence-39669000-39670000
100
AcDbLine
 10
-13.50655744627482
 20
-0.0551658512853379
 30
0.0
 11
-13.50490824173067
 21
-0.0517566184604306
 31
0.0
1001
REVIT
1002
{
1070
     2
1000
-2001160
1002
}
  0
LINE
  5
60F
330
5D6
100
AcDbEntity
  8
Basin-Dual_Mount-Grohe-Essence-39669000-39670000
100
AcDbLine
 10
-13.50490824173067
 20
-0.0517566184604306
 30
0.0
 11
-13.50312402342349
 21
-0.0484160632498032
 31
0.0
1001
REVIT
1002
{
1070
     2
1000
-2001160
1002
}
  0
LINE
  5
610
330
5D6
100
AcDbEntity
  8
Basin-Dual_Mount-Grohe-Essence-39669000-39670000
100
AcDbLine
 10
-13.50312402342349
 20
-0.0484160632498032
 30
0.0
 11
-13.50120764572198
 21
-0.0451495298291889
 31
0.0
1001
REVIT
1002
{
1070
     2
1000
-2001160
1002
}
  0
LINE
  5
611
330
5D6
100
AcDbEntity
  8
Basin-Dual_Mount-Grohe-Essence-39669000-39670000
100
AcDbLine
 10
-13.50120764572198
 20
-0.0451495298291889
 30
0.0
 11
-13.49916217442163
 21
-0.0419622439552256
 31
0.0
1001
REVIT
1002
{
1070
     2
1000
-2001160
1002
}
  0
LINE
  5
612
330
5D6
100
AcDbEntity
  8
Basin-Dual_Mount-Grohe-Essence-39669000-39670000
100
AcDbLine
 10
-13.49916217442163
 20
-0.0419622439552256
 30
0.0
 11
-13.49699088184019
 21
-0.038859304605424
 31
0.0
1001
REVIT
1002
{
1070
     2
1000
-2001160
1002
}
  0
LINE
  5
613
330
5D6
100
AcDbEntity
  8
Basin-Dual_Mount-Grohe-Essence-39669000-39670000
100
AcDbLine
 10
-13.49699088184019
 20
-0.038859304605424
 30
0.0
 11
-13.49469724158259
 21
-0.0358456758207808
 31
0.0
1001
REVIT
1002
{
1070
     2
1000
-2001160
1002
}
  0
LINE
  5
614
330
5D6
100
AcDbEntity
  8
Basin-Dual_Mount-Grohe-Essence-39669000-39670000
100
AcDbLine
 10
-13.49469724158259
 20
-0.0358456758207808
 30
0.0
 11
-13.49228492298398
 21
-0.0329261787644981
 31
0.0
1001
REVIT
1002
{
1070
     2
1000
-2001160
1002
}
  0
LINE
  5
615
330
5D6
100
AcDbEntity
  8
Basin-Dual_Mount-Grohe-Essence-39669000-39670000
100
AcDbLine
 10
-13.49228492298398
 20
-0.0329261787644981
 30
0.0
 11
-13.4897577852395
 21
-0.0301054840090558
 31
0.0
1001
REVIT
1002
{
1070
     2
1000
-2001160
1002
}
  0
LINE
  5
616
330
5D6
100
AcDbEntity
  8
Basin-Dual_Mount-Grohe-Essence-39669000-39670000
100
AcDbLine
 10
-13.4897577852395
 20
-0.0301054840090558
 30
0.0
 11
-13.48711987123046
 21
-0.0273881040643858
 31
0.0
1001
REVIT
1002
{
1070
     2
1000
-2001160
1002
}
  0
LINE
  5
617
330
5D6
100
AcDbEntity
  8
Basin-Dual_Mount-Grohe-Essence-39669000-39670000
100
AcDbLine
 10
-13.48711987123046
 20
-0.0273881040643858
 30
0.0
 11
-13.48437540105656
 21
-0.0247783861586726
 31
0.0
1001
REVIT
1002
{
1070
     2
1000
-2001160
1002
}
  0
LINE
  5
618
330
5D6
100
AcDbEntity
  8
Basin-Dual_Mount-Grohe-Essence-39669000-39670000
100
AcDbLine
 10
-13.48437540105656
 20
-0.0247783861586726
 30
0.0
 11
-13.48152876528459
 21
-0.0222805052838879
 31
0.0
1001
REVIT
1002
{
1070
     2
1000
-2001160
1002
}
  0
LINE
  5
619
330
5D6
100
AcDbEntity
  8
Basin-Dual_Mount-Grohe-Essence-39669000-39670000
100
AcDbLine
 10
-13.48152876528459
 20
-0.0222805052838879
 30
0.0
 11
-13.47858451792456
 21
-0.0198984575165611
 31
0.0
1001
REVIT
1002
{
1070
     2
1000
-2001160
1002
}
  0
LINE
  5
61A
330
5D6
100
AcDbEntity
  8
Basin-Dual_Mount-Grohe-Essence-39669000-39670000
100
AcDbLine
 10
-13.47858451792456
 20
-0.0198984575165611
 30
0.0
 11
-13.47554736914416
 21
-0.0176360536249831
 31
0.0
1001
REVIT
1002
{
1070
     2
1000
-2001160
1002
}
  0
LINE
  5
61B
330
5D6
100
AcDbEntity
  8
Basin-Dual_Mount-Grohe-Essence-39669000-39670000
100
AcDbLine
 10
-13.47554736914416
 20
-0.0176360536249831
 30
0.0
 11
-13.47242217773356
 21
-0.0154969129727789
 31
0.0
1001
REVIT
1002
{
1070
     2
1000
-2001160
1002
}
  0
LINE
  5
61C
330
5D6
100
AcDbEntity
  8
Basin-Dual_Mount-Grohe-Essence-39669000-39670000
100
AcDbLine
 10
-13.47242217773356
 20
-0.0154969129727789
 30
0.0
 11
-13.46921394333232
 21
-0.0134844577286515
 31
0.0
1001
REVIT
1002
{
1070
     2
1000
-2001160
1002
}
  0
LINE
  5
61D
330
5D6
100
AcDbEntity
  8
Basin-Dual_Mount-Grohe-Essence-39669000-39670000
100
AcDbLine
 10
-13.46921394333232
 20
-0.0134844577286515
 30
0.0
 11
-13.46592779843114
 21
-0.0116019073916647
 31
0.0
1001
REVIT
1002
{
1070
     2
1000
-2001160
1002
}
  0
LINE
  5
61E
330
5D6
100
AcDbEntity
  8
Basin-Dual_Mount-Grohe-Essence-39669000-39670000
100
AcDbLine
 10
-13.46592779843114
 20
-0.0116019073916647
 30
0.0
 11
-13.46256900016082
 21
-0.0098522736408029
 31
0.0
1001
REVIT
1002
{
1070
     2
1000
-2001160
1002
}
  0
LINE
  5
61F
330
5D6
100
AcDbEntity
  8
Basin-Dual_Mount-Grohe-Essence-39669000-39670000
100
AcDbLine
 10
-13.46256900016082
 20
-0.0098522736408029
 30
0.0
 11
-13.45914292188209
 21
-0.0082383555168377
 31
0.0
1001
REVIT
1002
{
1070
     2
1000
-2001160
1002
}
  0
LINE
  5
620
330
5D6
100
AcDbEntity
  8
Basin-Dual_Mount-Grohe-Essence-39669000-39670000
100
AcDbLine
 10
-13.45914292188209
 20
-0.0082383555168377
 30
0.0
 11
-13.45565504458935
 21
-0.006762734944445
 31
0.0
1001
REVIT
1002
{
1070
     2
1000
-2001160
1002
}
  0
LINE
  5
621
330
5D6
100
AcDbEntity
  8
Basin-Dual_Mount-Grohe-Essence-39669000-39670000
100
AcDbLine
 10
-13.45565504458935
 20
-0.006762734944445
 30
0.0
 11
-13.45211094814222
 21
-0.0054277726017773
 31
0.0
1001
REVIT
1002
{
1070
     2
1000
-2001160
1002
}
  0
LINE
  5
622
330
5D6
100
AcDbEntity
  8
Basin-Dual_Mount-Grohe-Essence-39669000-39670000
100
AcDbLine
 10
-13.45211094814222
 20
-0.0054277726017773
 30
0.0
 11
-13.44851630233899
 21
-0.0042356041438296
 31
0.0
1001
REVIT
1002
{
1070
     2
1000
-2001160
1002
}
  0
LINE
  5
623
330
5D6
100
AcDbEntity
  8
Basin-Dual_Mount-Grohe-Essence-39669000-39670000
100
AcDbLine
 10
-13.44851630233899
 20
-0.0042356041438296
 30
0.0
 11
-13.44487685784612
 21
-0.0031881367857949
 31
0.0
1001
REVIT
1002
{
1070
     2
1000
-2001160
1002
}
  0
LINE
  5
624
330
5D6
100
AcDbEntity
  8
Basin-Dual_Mount-Grohe-Essence-39669000-39670000
100
AcDbLine
 10
-13.44487685784612
 20
-0.0031881367857949
 30
0.0
 11
-13.44119843699842
 21
-0.0022870462519933
 31
0.0
1001
REVIT
1002
{
1070
     2
1000
-2001160
1002
}
  0
LINE
  5
625
330
5D6
100
AcDbEntity
  8
Basin-Dual_Mount-Grohe-Essence-39669000-39670000
100
AcDbLine
 10
-13.44119843699842
 20
-0.0022870462519933
 30
0.0
 11
-13.43748692448457
 21
-0.0015337740950656
 31
0.0
1001
REVIT
1002
{
1070
     2
1000
-2001160
1002
}
  0
LINE
  5
626
330
5D6
100
AcDbEntity
  8
Basin-Dual_Mount-Grohe-Essence-39669000-39670000
100
AcDbLine
 10
-13.43748692448457
 20
-0.0015337740950656
 30
0.0
 11
-13.43374825793285
 21
-0.0009295253897932
 31
0.0
1001
REVIT
1002
{
1070
     2
1000
-2001160
1002
}
  0
LINE
  5
627
330
5D6
100
AcDbEntity
  8
Basin-Dual_Mount-Grohe-Essence-39669000-39670000
100
AcDbLine
 10
-13.43374825793285
 20
-0.0009295253897932
 30
0.0
 11
-13.42998841841217
 21
-0.0004752668051538
 31
0.0
1001
REVIT
1002
{
1070
     2
1000
-2001160
1002
}
  0
LINE
  5
628
330
5D6
100
AcDbEntity
  8
Basin-Dual_Mount-Grohe-Essence-39669000-39670000
100
AcDbLine
 10
-13.42998841841217
 20
-0.0004752668051538
 30
0.0
 11
-13.42621342086375
 21
-0.0001717250580242
 31
0.0
1001
REVIT
1002
{
1070
     2
1000
-2001160
1002
}
  0
LINE
  5
629
330
5D6
100
AcDbEntity
  8
Basin-Dual_Mount-Grohe-Essence-39669000-39670000
100
AcDbLine
 10
-13.42621342086375
 20
-0.0001717250580242
 30
0.0
 11
-13.42242930447835
 21
-0.0000193857504485
 31
0.0
1001
REVIT
1002
{
1070
     2
1000
-2001160
1002
}
  0
LINE
  5
62A
330
5D6
100
AcDbEntity
  8
Basin-Dual_Mount-Grohe-Essence-39669000-39670000
100
AcDbLine
 10
-13.42242930447835
 20
-0.0000193857504485
 30
0.0
 11
-13.42051338779253
 21
0.0
 31
0.0
1001
REVIT
1002
{
1070
     2
1000
-2001160
1002
}
  0
LINE
  5
62B
330
5D6
100
AcDbEntity
  8
Basin-Dual_Mount-Grohe-Essence-39669000-39670000
100
AcDbLine
 10
13.38111704771411
 20
0.0
 30
0.0
 11
-13.38111704771411
 21
-0.0000000000000142
 31
0.0
1001
REVIT
1002
{
1070
     2
1000
-2001160
1002
}
  0
LINE
  5
62C
330
5D6
100
AcDbEntity
  8
Basin-Dual_Mount-Grohe-Essence-39669000-39670000
100
AcDbLine
 10
-13.51313012575351
 20
-0.1143721463555494
 30
0.0
 11
-13.20700415603631
 21
-1.554581600780352
 31
0.0
1001
REVIT
1002
{
1070
     2
1000
-2001160
1002
}
  0
LINE
  5
62D
330
5D6
100
AcDbEntity
  8
Basin-Dual_Mount-Grohe-Essence-39669000-39670000
100
AcDbLine
 10
13.17562518547588
 20
-1.554581600780352
 30
0.0
 11
13.15200655575824
 21
-1.655709431993983
 31
0.0
1001
REVIT
1002
{
1070
     2
1000
-2001160
1002
}
  0
LINE
  5
62E
330
5D6
100
AcDbEntity
  8
Basin-Dual_Mount-Grohe-Essence-39669000-39670000
100
AcDbLine
 10
13.15200655575824
 20
-1.655709431993983
 30
0.0
 11
13.12436278378722
 21
-1.75581187845222
 31
0.0
1001
REVIT
1002
{
1070
     2
1000
-2001160
1002
}
  0
LINE
  5
62F
330
5D6
100
AcDbEntity
  8
Basin-Dual_Mount-Grohe-Essence-39669000-39670000
100
AcDbLine
 10
13.12436278378722
 20
-1.75581187845222
 30
0.0
 11
13.09273809370095
 21
-1.854728797594802
 31
0.0
1001
REVIT
1002
{
1070
     2
1000
-2001160
1002
}
  0
LINE
  5
630
330
5D6
100
AcDbEntity
  8
Basin-Dual_Mount-Grohe-Essence-39669000-39670000
100
AcDbLine
 10
13.09273809370095
 20
-1.854728797594802
 30
0.0
 11
13.05718307825731
 21
-1.952301943452226
 31
0.0
1001
REVIT
1002
{
1070
     2
1000
-2001160
1002
}
  0
LINE
  5
631
330
5D6
100
AcDbEntity
  8
Basin-Dual_Mount-Grohe-Essence-39669000-39670000
100
AcDbLine
 10
13.05718307825731
 20
-1.952301943452226
 30
0.0
 11
13.01775461789637
 21
-2.04837521980562
 31
0.0
1001
REVIT
1002
{
1070
     2
1000
-2001160
1002
}
  0
LINE
  5
632
330
5D6
100
AcDbEntity
  8
Basin-Dual_Mount-Grohe-Essence-39669000-39670000
100
AcDbLine
 10
13.01775461789637
 20
-2.04837521980562
 30
0.0
 11
12.97451578974375
 21
-2.142794929907381
 31
0.0
1001
REVIT
1002
{
1070
     2
1000
-2001160
1002
}
  0
LINE
  5
633
330
5D6
100
AcDbEntity
  8
Basin-Dual_Mount-Grohe-Essence-39669000-39670000
100
AcDbLine
 10
12.97451578974375
 20
-2.142794929907381
 30
0.0
 11
12.92753576670066
 21
-2.235410022363112
 31
0.0
1001
REVIT
1002
{
1070
     2
1000
-2001160
1002
}
  0
LINE
  5
634
330
5D6
100
AcDbEntity
  8
Basin-Dual_Mount-Grohe-Essence-39669000-39670000
100
AcDbLine
 10
12.92753576670066
 20
-2.235410022363112
 30
0.0
 11
12.87688970678216
 21
-2.326072332781734
 31
0.0
1001
REVIT
1002
{
1070
     2
1000
-2001160
1002
}
  0
LINE
  5
635
330
5D6
100
AcDbEntity
  8
Basin-Dual_Mount-Grohe-Essence-39669000-39670000
100
AcDbLine
 10
12.87688970678216
 20
-2.326072332781734
 30
0.0
 11
12.82265863288017
 21
-2.414636820806833
 31
0.0
1001
REVIT
1002
{
1070
     2
1000
-2001160
1002
}
  0
LINE
  5
636
330
5D6
100
AcDbEntity
  8
Basin-Dual_Mount-Grohe-Essence-39669000-39670000
100
AcDbLine
 10
12.82265863288017
 20
-2.414636820806833
 30
0.0
 11
12.76492930314426
 21
-2.500961802150314
 31
0.0
1001
REVIT
1002
{
1070
     2
1000
-2001160
1002
}
  0
LINE
  5
637
330
5D6
100
AcDbEntity
  8
Basin-Dual_Mount-Grohe-Essence-39669000-39670000
100
AcDbLine
 10
12.76492930314426
 20
-2.500961802150314
 30
0.0
 11
12.70379407218706
 21
-2.584909175257067
 31
0.0
1001
REVIT
1002
{
1070
     2
1000
-2001160
1002
}
  0
LINE
  5
638
330
5D6
100
AcDbEntity
  8
Basin-Dual_Mount-Grohe-Essence-39669000-39670000
100
AcDbLine
 10
12.70379407218706
 20
-2.584909175257067
 30
0.0
 11
12.63935074333663
 21
-2.666344642237902
 31
0.0
1001
REVIT
1002
{
1070
     2
1000
-2001160
1002
}
  0
LINE
  5
639
330
5D6
100
AcDbEntity
  8
Basin-Dual_Mount-Grohe-Essence-39669000-39670000
100
AcDbLine
 10
12.63935074333663
 20
-2.666344642237902
 30
0.0
 11
12.57170241217197
 21
-2.745137923717635
 31
0.0
1001
REVIT
1002
{
1070
     2
1000
-2001160
1002
}
  0
LINE
  5
63A
330
5D6
100
AcDbEntity
  8
Basin-Dual_Mount-Grohe-Essence-39669000-39670000
100
AcDbLine
 10
12.57170241217197
 20
-2.745137923717635
 30
0.0
 11
12.50095730159202
 21
-2.821162967254252
 31
0.0
1001
REVIT
1002
{
1070
     2
1000
-2001160
1002
}
  0
LINE
  5
63B
330
5D6
100
AcDbEntity
  8
Basin-Dual_Mount-Grohe-Essence-39669000-39670000
100
AcDbLine
 10
12.50095730159202
 20
-2.821162967254252
 30
0.0
 11
12.42722858868227
 21
-2.894298148995886
 31
0.0
1001
REVIT
1002
{
1070
     2
1000
-2001160
1002
}
  0
LINE
  5
63C
330
5D6
100
AcDbEntity
  8
Basin-Dual_Mount-Grohe-Essence-39669000-39670000
100
AcDbLine
 10
12.42722858868227
 20
-2.894298148995886
 30
0.0
 11
12.35063422365539
 21
-2.964426468253108
 31
0.0
1001
REVIT
1002
{
1070
     2
1000
-2001160
1002
}
  0
LINE
  5
63D
330
5D6
100
AcDbEntity
  8
Basin-Dual_Mount-Grohe-Essence-39669000-39670000
100
AcDbLine
 10
12.35063422365539
 20
-2.964426468253108
 30
0.0
 11
12.27129674115619
 21
-3.031435734675
 31
0.0
1001
REVIT
1002
{
1070
     2
1000
-2001160
1002
}
  0
LINE
  5
63E
330
5D6
100
AcDbEntity
  8
Basin-Dual_Mount-Grohe-Essence-39669000-39670000
100
AcDbLine
 10
12.27129674115619
 20
-3.031435734675
 30
0.0
 11
12.18934306423223
 21
-3.095218747729845
 31
0.0
1001
REVIT
1002
{
1070
     2
1000
-2001160
1002
}
  0
LINE
  5
63F
330
5D6
100
AcDbEntity
  8
Basin-Dual_Mount-Grohe-Essence-39669000-39670000
100
AcDbLine
 10
12.18934306423223
 20
-3.095218747729845
 30
0.0
 11
12.10490430128406
 21
-3.155673468203062
 31
0.0
1001
REVIT
1002
{
1070
     2
1000
-2001160
1002
}
  0
LINE
  5
640
330
5D6
100
AcDbEntity
  8
Basin-Dual_Mount-Grohe-Essence-39669000-39670000
100
AcDbLine
 10
12.10490430128406
 20
-3.155673468203062
 30
0.0
 11
12.01811553631978
 21
-3.212703181438229
 31
0.0
1001
REVIT
1002
{
1070
     2
1000
-2001160
1002
}
  0
LINE
  5
641
330
5D6
100
AcDbEntity
  8
Basin-Dual_Mount-Grohe-Essence-39669000-39670000
100
AcDbLine
 10
12.01811553631978
 20
-3.212703181438229
 30
0.0
 11
11.92911561284936
 21
-3.266216652059839
 31
0.0
1001
REVIT
1002
{
1070
     2
1000
-2001160
1002
}
  0
LINE
  5
642
330
5D6
100
AcDbEntity
  8
Basin-Dual_Mount-Grohe-Essence-39669000-39670000
100
AcDbLine
 10
11.92911561284936
 20
-3.266216652059839
 30
0.0
 11
11.83804691176472
 21
-3.31612826993053
 31
0.0
1001
REVIT
1002
{
1070
     2
1000
-2001160
1002
}
  0
LINE
  5
643
330
5D6
100
AcDbEntity
  8
Basin-Dual_Mount-Grohe-Essence-39669000-39670000
100
AcDbLine
 10
11.83804691176472
 20
-3.31612826993053
 30
0.0
 11
11.74505512356064
 21
-3.36235818710891
 31
0.0
1001
REVIT
1002
{
1070
     2
1000
-2001160
1002
}
  0
LINE
  5
644
330
5D6
100
AcDbEntity
  8
Basin-Dual_Mount-Grohe-Essence-39669000-39670000
100
AcDbLine
 10
11.74505512356064
 20
-3.36235818710891
 30
0.0
 11
11.65028901526107
 21
-3.404832445589377
 31
0.0
1001
REVIT
1002
{
1070
     2
1000
-2001160
1002
}
  0
LINE
  5
645
330
5D6
100
AcDbEntity
  8
Basin-Dual_Mount-Grohe-Essence-39669000-39670000
100
AcDbLine
 10
11.65028901526107
 20
-3.404832445589377
 30
0.0
 11
11.5539001924236
 21
-3.443483095619043
 31
0.0
1001
REVIT
1002
{
1070
     2
1000
-2001160
1002
}
  0
LINE
  5
646
330
5D6
100
AcDbEntity
  8
Basin-Dual_Mount-Grohe-Essence-39669000-39670000
100
AcDbLine
 10
11.5539001924236
 20
-3.443483095619043
 30
0.0
 11
11.45604285660288
 21
-3.478248304402896
 31
0.0
1001
REVIT
1002
{
1070
     2
1000
-2001160
1002
}
  0
LINE
  5
647
330
5D6
100
AcDbEntity
  8
Basin-Dual_Mount-Grohe-Essence-39669000-39670000
100
AcDbLine
 10
11.45604285660288
 20
-3.478248304402896
 30
0.0
 11
11.35687355866114
 21
-3.509072455023073
 31
0.0
1001
REVIT
1002
{
1070
     2
1000
-2001160
1002
}
  0
LINE
  5
648
330
5D6
100
AcDbEntity
  8
Basin-Dual_Mount-Grohe-Essence-39669000-39670000
100
AcDbLine
 10
11.35687355866114
 20
-3.509072455023073
 30
0.0
 11
11.25655094832009
 21
-3.535906235414032
 31
0.0
1001
REVIT
1002
{
1070
     2
1000
-2001160
1002
}
  0
LINE
  5
649
330
5D6
100
AcDbEntity
  8
Basin-Dual_Mount-Grohe-Essence-39669000-39670000
100
AcDbLine
 10
11.25655094832009
 20
-3.535906235414032
 30
0.0
 11
11.15523552035528
 21
-3.558706717251396
 31
0.0
1001
REVIT
1002
{
1070
     2
1000
-2001160
1002
}
  0
LINE
  5
64A
330
5D6
100
AcDbEntity
  8
Basin-Dual_Mount-Grohe-Essence-39669000-39670000
100
AcDbLine
 10
11.15523552035528
 20
-3.558706717251396
 30
0.0
 11
11.05308935783861
 21
-3.577437424628072
 31
0.0
1001
REVIT
1002
{
1070
     2
1000
-2001160
1002
}
  0
LINE
  5
64B
330
5D6
100
AcDbEntity
  8
Basin-Dual_Mount-Grohe-Essence-39669000-39670000
100
AcDbLine
 10
11.05308935783861
 20
-3.577437424628072
 30
0.0
 11
10.95027587284011
 21
-3.592068392407909
 31
0.0
1001
REVIT
1002
{
1070
     2
1000
-2001160
1002
}
  0
LINE
  5
64C
330
5D6
100
AcDbEntity
  8
Basin-Dual_Mount-Grohe-Essence-39669000-39670000
100
AcDbLine
 10
10.95027587284011
 20
-3.592068392407909
 30
0.0
 11
10.84695954500341
 21
-3.602576214163576
 31
0.0
1001
REVIT
1002
{
1070
     2
1000
-2001160
1002
}
  0
LINE
  5
64D
330
5D6
100
AcDbEntity
  8
Basin-Dual_Mount-Grohe-Essence-39669000-39670000
100
AcDbLine
 10
10.84695954500341
 20
-3.602576214163576
 30
0.0
 11
10.74330565841338
 21
-3.608944079621835
 31
0.0
1001
REVIT
1002
{
1070
     2
1000
-2001160
1002
}
  0
LINE
  5
64E
330
5D6
100
AcDbEntity
  8
Basin-Dual_Mount-Grohe-Essence-39669000-39670000
100
AcDbLine
 10
10.74330565841338
 20
-3.608944079621835
 30
0.0
 11
10.63948003717694
 21
-3.61116180155632
 31
0.0
1001
REVIT
1002
{
1070
     2
1000
-2001160
1002
}
  0
LINE
  5
64F
330
5D6
100
AcDbEntity
  8
Basin-Dual_Mount-Grohe-Essence-39669000-39670000
100
AcDbLine
 10
10.63948003717694
 20
-3.61116180155632
 30
0.0
 11
10.6359571920365
 21
-3.611164191483993
 31
0.0
1001
REVIT
1002
{
1070
     2
1000
-2001160
1002
}
  0
LINE
  5
650
330
5D6
100
AcDbEntity
  8
Basin-Dual_Mount-Grohe-Essence-39669000-39670000
100
AcDbLine
 10
9.756527311594719
 20
-3.937499999999332
 30
0.0
 11
9.944937378487242
 21
-3.611164191484036
 31
0.0
1001
REVIT
1002
{
1070
     2
1000
-2001160
1002
}
  0
LINE
  5
651
330
5D6
100
AcDbEntity
  8
Basin-Dual_Mount-Grohe-Essence-39669000-39670000
100
AcDbLine
 10
13.38913441723209
 20
0.0
 30
0.0
 11
13.39292084136975
 21
-0.0000757385815007
 31
0.0
1001
REVIT
1002
{
1070
     2
1000
-2001160
1002
}
  0
LINE
  5
652
330
5D6
100
AcDbEntity
  8
Basin-Dual_Mount-Grohe-Essence-39669000-39670000
100
AcDbLine
 10
13.39292084136975
 20
-0.0000757385815007
 30
0.0
 11
13.39670120803649
 21
-0.0003028331604185
 31
0.0
1001
REVIT
1002
{
1070
     2
1000
-2001160
1002
}
  0
LINE
  5
653
330
5D6
100
AcDbEntity
  8
Basin-Dual_Mount-Grohe-Essence-39669000-39670000
100
AcDbLine
 10
13.39670120803649
 20
-0.0003028331604185
 30
0.0
 11
13.40046946945211
 21
-0.0006809204338936
 31
0.0
1001
REVIT
1002
{
1070
     2
1000
-2001160
1002
}
  0
LINE
  5
654
330
5D6
100
AcDbEntity
  8
Basin-Dual_Mount-Grohe-Essence-39669000-39670000
100
AcDbLine
 10
13.40046946945211
 20
-0.0006809204338936
 30
0.0
 11
13.4042195972022
 21
-0.0012093955429151
 31
0.0
1001
REVIT
1002
{
1070
     2
1000
-2001160
1002
}
  0
LINE
  5
655
330
5D6
100
AcDbEntity
  8
Basin-Dual_Mount-Grohe-Essence-39669000-39670000
100
AcDbLine
 10
13.4042195972022
 20
-0.0012093955429151
 30
0.0
 11
13.40794559188235
 21
-0.0018874130400803
 31
0.0
1001
REVIT
1002
{
1070
     2
1000
-2001160
1002
}
  0
LINE
  5
656
330
5D6
100
AcDbEntity
  8
Basin-Dual_Mount-Grohe-Essence-39669000-39670000
100
AcDbLine
 10
13.40794559188235
 20
-0.0018874130400803
 30
0.0
 11
13.41164149269587
 21
-0.0027138882419848
 31
0.0
1001
REVIT
1002
{
1070
     2
1000
-2001160
1002
}
  0
LINE
  5
657
330
5D6
100
AcDbEntity
  8
Basin-Dual_Mount-Grohe-Essence-39669000-39670000
100
AcDbLine
 10
13.41164149269587
 20
-0.0027138882419848
 30
0.0
 11
13.41530138698993
 21
-0.0036874989646378
 31
0.0
1001
REVIT
1002
{
1070
     2
1000
-2001160
1002
}
  0
LINE
  5
658
330
5D6
100
AcDbEntity
  8
Basin-Dual_Mount-Grohe-Essence-39669000-39670000
100
AcDbLine
 10
13.41530138698993
 20
-0.0036874989646378
 30
0.0
 11
13.41891941971434
 21
-0.0048066876385775
 31
0.0
1001
REVIT
1002
{
1070
     2
1000
-2001160
1002
}
  0
LINE
  5
659
330
5D6
100
AcDbEntity
  8
Basin-Dual_Mount-Grohe-Essence-39669000-39670000
100
AcDbLine
 10
13.41891941971434
 20
-0.0048066876385775
 30
0.0
 11
13.4224898027886
 21
-0.006069663800659
 31
0.0
1001
REVIT
1002
{
1070
     2
1000
-2001160
1002
}
  0
LINE
  5
65A
330
5D6
100
AcDbEntity
  8
Basin-Dual_Mount-Grohe-Essence-39669000-39670000
100
AcDbLine
 10
13.4224898027886
 20
-0.006069663800659
 30
0.0
 11
13.42600682436138
 21
-0.0074744069584654
 31
0.0
1001
REVIT
1002
{
1070
     2
1000
-2001160
1002
}
  0
LINE
  5
65B
330
5D6
100
AcDbEntity
  8
Basin-Dual_Mount-Grohe-Essence-39669000-39670000
100
AcDbLine
 10
13.42600682436138
 20
-0.0074744069584654
 30
0.0
 11
13.42946485794846
 21
-0.0090186698225807
 31
0.0
1001
REVIT
1002
{
1070
     2
1000
-2001160
1002
}
  0
LINE
  5
65C
330
5D6
100
AcDbEntity
  8
Basin-Dual_Mount-Grohe-Essence-39669000-39670000
100
AcDbLine
 10
13.42946485794846
 20
-0.0090186698225807
 30
0.0
 11
13.43285837143376
 21
-0.0106999819018654
 31
0.0
1001
REVIT
1002
{
1070
     2
1000
-2001160
1002
}
  0
LINE
  5
65D
330
5D6
100
AcDbEntity
  8
Basin-Dual_Mount-Grohe-Essence-39669000-39670000
100
AcDbLine
 10
13.43285837143376
 20
-0.0106999819018654
 30
0.0
 11
13.43618193591962
 21
-0.012515653455651
 31
0.0
1001
REVIT
1002
{
1070
     2
1000
-2001160
1002
}
  0
LINE
  5
65E
330
5D6
100
AcDbEntity
  8
Basin-Dual_Mount-Grohe-Essence-39669000-39670000
100
AcDbLine
 10
13.43618193591962
 20
-0.012515653455651
 30
0.0
 11
13.43943023441185
 21
-0.0144627797967587
 31
0.0
1001
REVIT
1002
{
1070
     2
1000
-2001160
1002
}
  0
LINE
  5
65F
330
5D6
100
AcDbEntity
  8
Basin-Dual_Mount-Grohe-Essence-39669000-39670000
100
AcDbLine
 10
13.43943023441185
 20
-0.0144627797967587
 30
0.0
 11
13.44259807032579
 21
-0.0165382459384347
 31
0.0
1001
REVIT
1002
{
1070
     2
1000
-2001160
1002
}
  0
LINE
  5
660
330
5D6
100
AcDbEntity
  8
Basin-Dual_Mount-Grohe-Essence-39669000-39670000
100
AcDbLine
 10
13.44259807032579
 20
-0.0165382459384347
 30
0.0
 11
13.44568037579975
 21
-0.0187387315775567
 31
0.0
1001
REVIT
1002
{
1070
     2
1000
-2001160
1002
}
  0
LINE
  5
661
330
5D6
100
AcDbEntity
  8
Basin-Dual_Mount-Grohe-Essence-39669000-39670000
100
AcDbLine
 10
13.44568037579975
 20
-0.0187387315775567
 30
0.0
 11
13.4486722198025
 21
-0.0210607164065664
 31
0.0
1001
REVIT
1002
{
1070
     2
1000
-2001160
1002
}
  0
LINE
  5
662
330
5D6
100
AcDbEntity
  8
Basin-Dual_Mount-Grohe-Essence-39669000-39670000
100
AcDbLine
 10
13.4486722198025
 20
-0.0210607164065664
 30
0.0
 11
13.45156881602185
 21
-0.0235004857450179
 31
0.0
1001
REVIT
1002
{
1070
     2
1000
-2001160
1002
}
  0
LINE
  5
663
330
5D6
100
AcDbEntity
  8
Basin-Dual_Mount-Grohe-Essence-39669000-39670000
100
AcDbLine
 10
13.45156881602185
 20
-0.0235004857450179
 30
0.0
 11
13.45436553052179
 21
-0.0260541364824576
 31
0.0
1001
REVIT
1002
{
1070
     2
1000
-2001160
1002
}
  0
LINE
  5
664
330
5D6
100
AcDbEntity
  8
Basin-Dual_Mount-Grohe-Essence-39669000-39670000
100
AcDbLine
 10
13.45436553052179
 20
-0.0260541364824576
 30
0.0
 11
13.45705788915567
 21
-0.0287175833224325
 31
0.0
1001
REVIT
1002
{
1070
     2
1000
-2001160
1002
}
  0
LINE
  5
665
330
5D6
100
AcDbEntity
  8
Basin-Dual_Mount-Grohe-Essence-39669000-39670000
100
AcDbLine
 10
13.45705788915567
 20
-0.0287175833224325
 30
0.0
 11
13.45964158472403
 21
-0.0314865653181897
 31
0.0
1001
REVIT
1002
{
1070
     2
1000
-2001160
1002
}
  0
LINE
  5
666
330
5D6
100
AcDbEntity
  8
Basin-Dual_Mount-Grohe-Essence-39669000-39670000
100
AcDbLine
 10
13.45964158472403
 20
-0.0314865653181897
 30
0.0
 11
13.46211248386515
 21
-0.0343566526891976
 31
0.0
1001
REVIT
1002
{
1070
     2
1000
-2001160
1002
}
  0
LINE
  5
667
330
5D6
100
AcDbEntity
  8
Basin-Dual_Mount-Grohe-Essence-39669000-39670000
100
AcDbLine
 10
13.46211248386515
 20
-0.0343566526891976
 30
0.0
 11
13.46446663366749
 21
-0.0373232539079567
 31
0.0
1001
REVIT
1002
{
1070
     2
1000
-2001160
1002
}
  0
LINE
  5
668
330
5D6
100
AcDbEntity
  8
Basin-Dual_Mount-Grohe-Essence-39669000-39670000
100
AcDbLine
 10
13.46446663366749
 20
-0.0373232539079567
 30
0.0
 11
13.46670026799352
 21
-0.0403816230453202
 31
0.0
1001
REVIT
1002
{
1070
     2
1000
-2001160
1002
}
  0
LINE
  5
669
330
5D6
100
AcDbEntity
  8
Basin-Dual_Mount-Grohe-Essence-39669000-39670000
100
AcDbLine
 10
13.46670026799352
 20
-0.0403816230453202
 30
0.0
 11
13.46880981350486
 21
-0.0435268673630844
 31
0.0
1001
REVIT
1002
{
1070
     2
1000
-2001160
1002
}
  0
LINE
  5
66A
330
5D6
100
AcDbEntity
  8
Basin-Dual_Mount-Grohe-Essence-39669000-39670000
100
AcDbLine
 10
13.46880981350486
 20
-0.0435268673630844
 30
0.0
 11
13.47079189537865
 21
-0.0467539551413268
 31
0.0
1001
REVIT
1002
{
1070
     2
1000
-2001160
1002
}
  0
LINE
  5
66B
330
5D6
100
AcDbEntity
  8
Basin-Dual_Mount-Grohe-Essence-39669000-39670000
100
AcDbLine
 10
13.47079189537865
 20
-0.0467539551413268
 30
0.0
 11
13.47264334270676
 21
-0.0500577237279742
 31
0.0
1001
REVIT
1002
{
1070
     2
1000
-2001160
1002
}
  0
LINE
  5
66C
330
5D6
100
AcDbEntity
  8
Basin-Dual_Mount-Grohe-Essence-39669000-39670000
100
AcDbLine
 10
13.47264334270676
 20
-0.0500577237279742
 30
0.0
 11
13.47436119356839
 21
-0.053432887798067
 31
0.0
1001
REVIT
1002
{
1070
     2
1000
-2001160
1002
}
  0
LINE
  5
66D
330
5D6
100
AcDbEntity
  8
Basin-Dual_Mount-Grohe-Essence-39669000-39670000
100
AcDbLine
 10
13.47436119356839
 20
-0.053432887798067
 30
0.0
 11
13.47594269976862
 21
-0.056874047809103
 31
0.0
1001
REVIT
1002
{
1070
     2
1000
-2001160
1002
}
  0
LINE
  5
66E
330
5D6
100
AcDbEntity
  8
Basin-Dual_Mount-Grohe-Essence-39669000-39670000
100
AcDbLine
 10
13.47594269976862
 20
-0.056874047809103
 30
0.0
 11
13.47738533123489
 21
-0.0603756986391062
 31
0.0
1001
REVIT
1002
{
1070
     2
1000
-2001160
1002
}
  0
LINE
  5
66F
330
5D6
100
AcDbEntity
  8
Basin-Dual_Mount-Grohe-Essence-39669000-39670000
100
AcDbLine
 10
13.47738533123489
 20
-0.0603756986391062
 30
0.0
 11
13.47868678006464
 21
-0.0639322383937611
 31
0.0
1001
REVIT
1002
{
1070
     2
1000
-2001160
1002
}
  0
LINE
  5
670
330
5D6
100
AcDbEntity
  8
Basin-Dual_Mount-Grohe-Essence-39669000-39670000
100
AcDbLine
 10
13.47868678006464
 20
-0.0639322383937611
 30
0.0
 11
13.47984496421733
 21
-0.0675379773681471
 31
0.0
1001
REVIT
1002
{
1070
     2
1000
-2001160
1002
}
  0
LINE
  5
671
330
5D6
100
AcDbEntity
  8
Basin-Dual_Mount-Grohe-Essence-39669000-39670000
100
AcDbLine
 10
13.47984496421733
 20
-0.0675379773681471
 30
0.0
 11
13.4808580308454
 21
-0.0711871471490468
 31
0.0
1001
REVIT
1002
{
1070
     2
1000
-2001160
1002
}
  0
LINE
  5
672
330
5D6
100
AcDbEntity
  8
Basin-Dual_Mount-Grohe-Essence-39669000-39670000
100
AcDbLine
 10
13.4808580308454
 20
-0.0711871471490468
 30
0.0
 11
13.48172435925835
 21
-0.0748739098433049
 31
0.0
1001
REVIT
1002
{
1070
     2
1000
-2001160
1002
}
  0
LINE
  5
673
330
5D6
100
AcDbEntity
  8
Basin-Dual_Mount-Grohe-Essence-39669000-39670000
100
AcDbLine
 10
13.48172435925835
 20
-0.0748739098433049
 30
0.0
 11
13.48244256351552
 21
-0.0785923674170732
 31
0.0
1001
REVIT
1002
{
1070
     2
1000
-2001160
1002
}
  0
LINE
  5
674
330
5D6
100
AcDbEntity
  8
Basin-Dual_Mount-Grohe-Essence-39669000-39670000
100
AcDbLine
 10
13.48244256351552
 20
-0.0785923674170732
 30
0.0
 11
13.48301149464331
 21
-0.0823365711314495
 31
0.0
1001
REVIT
1002
{
1070
     2
1000
-2001160
1002
}
  0
LINE
  5
675
330
5D6
100
AcDbEntity
  8
Basin-Dual_Mount-Grohe-Essence-39669000-39670000
100
AcDbLine
 10
13.48301149464331
 20
-0.0823365711314495
 30
0.0
 11
13.4834302424733
 21
-0.086100531059202
 31
0.0
1001
REVIT
1002
{
1070
     2
1000
-2001160
1002
}
  0
LINE
  5
676
330
5D6
100
AcDbEntity
  8
Basin-Dual_Mount-Grohe-Essence-39669000-39670000
100
AcDbLine
 10
13.4834302424733
 20
-0.086100531059202
 30
0.0
 11
13.48369813709826
 21
-0.0898782256673911
 31
0.0
1001
REVIT
1002
{
1070
     2
1000
-2001160
1002
}
  0
LINE
  5
677
330
5D6
100
AcDbEntity
  8
Basin-Dual_Mount-Grohe-Essence-39669000-39670000
100
AcDbLine
 10
13.48369813709826
 20
-0.0898782256673911
 30
0.0
 11
13.48381474994394
 21
-0.0936636114505092
 31
0.0
1001
REVIT
1002
{
1070
     2
1000
-2001160
1002
}
  0
LINE
  5
678
330
5D6
100
AcDbEntity
  8
Basin-Dual_Mount-Grohe-Essence-39669000-39670000
100
AcDbLine
 10
13.48381474994394
 20
-0.0936636114505092
 30
0.0
 11
13.4837798944547
 21
-0.0974506325988358
 31
0.0
1001
REVIT
1002
{
1070
     2
1000
-2001160
1002
}
  0
LINE
  5
679
330
5D6
100
AcDbEntity
  8
Basin-Dual_Mount-Grohe-Essence-39669000-39670000
100
AcDbLine
 10
13.4837798944547
 20
-0.0974506325988358
 30
0.0
 11
13.48359362639185
 21
-0.1012332306863328
 31
0.0
1001
REVIT
1002
{
1070
     2
1000
-2001160
1002
}
  0
LINE
  5
67A
330
5D6
100
AcDbEntity
  8
Basin-Dual_Mount-Grohe-Essence-39669000-39670000
100
AcDbLine
 10
13.48359362639185
 20
-0.1012332306863328
 30
0.0
 11
13.48325624374457
 21
-0.1050053543630156
 31
0.0
1001
REVIT
1002
{
1070
     2
1000
-2001160
1002
}
  0
LINE
  5
67B
330
5D6
100
AcDbEntity
  8
Basin-Dual_Mount-Grohe-Essence-39669000-39670000
100
AcDbLine
 10
13.48325624374457
 20
-0.1050053543630156
 30
0.0
 11
13.48276828625313
 21
-0.1087609690356572
 31
0.0
1001
REVIT
1002
{
1070
     2
1000
-2001160
1002
}
  0
LINE
  5
67C
330
5D6
100
AcDbEntity
  8
Basin-Dual_Mount-Grohe-Essence-39669000-39670000
100
AcDbLine
 10
13.48276828625313
 20
-0.1087609690356572
 30
0.0
 11
13.48213053454541
 21
-0.1124940665219469
 31
0.0
1001
REVIT
1002
{
1070
     2
1000
-2001160
1002
}
  0
LINE
  5
67D
330
5D6
100
AcDbEntity
  8
Basin-Dual_Mount-Grohe-Essence-39669000-39670000
100
AcDbLine
 10
13.48213053454541
 20
-0.1124940665219469
 30
0.0
 11
13.48175115519306
 21
-0.1143721463555494
 31
0.0
1001
REVIT
1002
{
1070
     2
1000
-2001160
1002
}
  0
LINE
  5
67E
330
5D6
100
AcDbEntity
  8
Basin-Dual_Mount-Grohe-Essence-39669000-39670000
100
AcDbLine
 10
13.17562518547587
 20
-1.554581600780352
 30
0.0
 11
13.48175115519306
 21
-0.1143721463555494
 31
0.0
1001
REVIT
1002
{
1070
     2
1000
-2001160
1002
}
  0
LINE
  5
67F
330
5D6
100
AcDbEntity
  8
Basin-Dual_Mount-Grohe-Essence-39669000-39670000
100
AcDbLine
 10
-9.787906282155155
 20
-3.937499999999332
 30
0.0
 11
9.756527311594702
 21
-3.937499999999332
 31
0.0
1001
REVIT
1002
{
1070
     2
1000
-2001160
1002
}
  0
LINE
  5
680
330
5D6
100
AcDbEntity
  8
Basin-Dual_Mount-Grohe-Essence-39669000-39670000
100
AcDbLine
 10
-3.033631078736567
 20
-13.99999999999963
 30
0.0
 11
2.981636375829866
 21
-13.99999999999963
 31
0.0
1001
REVIT
1002
{
1070
     1
1000
130780
1002
}
  0
LINE
  5
681
330
5D6
100
AcDbEntity
  8
Basin-Dual_Mount-Grohe-Essence-39669000-39670000
100
AcDbLine
 10
-3.859439485280004
 20
-3.937499999999573
 30
0.0
 11
-3.347199359458519
 21
-13.71162385773831
 31
0.0
1001
REVIT
1002
{
1070
     1
1000
130780
1002
}
  0
LINE
  5
682
330
5D6
100
AcDbEntity
  8
Basin-Dual_Mount-Grohe-Essence-39669000-39670000
100
AcDbLine
 10
3.315820388897387
 20
-13.71162385773831
 30
0.0
 11
3.828060514718872
 21
-3.937499999999573
 31
0.0
1001
REVIT
1002
{
1070
     1
1000
130780
1002
}
  0
ARC
  5
683
330
5D6
100
AcDbEntity
  8
Basin-Dual_Mount-Grohe-Essence-39669000-39670000
100
AcDbCircle
 10
-3.043314312138347
 20
-13.69569791725094
 30
0.0
 40
0.3043020827486771
100
AcDbArc
 50
183.0000000000007
 51
269.9999999999974
  0
ARC
  5
684
330
5D6
100
AcDbEntity
  8
Basin-Dual_Mount-Grohe-Essence-39669000-39670000
100
AcDbCircle
 10
3.027012657962033
 20
-13.71162385773833
 30
0.0
 40
0.2888077309353545
100
AcDbArc
 50
266.8672745094693
 51
0.0
  0
ENDBLK
  5
5D8
330
5D6
100
AcDbEntity
  8
0
100
AcDbBlockEnd
  0
BLOCK
  5
687
330
686
100
AcDbEntity
  8
0
100
AcDbBlockBegin
  2
Basin-Dual_Mount-Grohe-Essence-39669000-39670000 Side View
 70
     0
 10
0.0
 20
0.0
 30
0.0
  3
Basin-Dual_Mount-Grohe-Essence-39669000-39670000 Side View
  1

  0
LINE
  5
689
330
686
100
AcDbEntity
  8
Basin-Dual_Mount-Grohe-Essence-39669000-39670000
100
AcDbLine
 10
0.0314645470519111
 20
-0.0009295253904753
 30
0.0
 11
0.0352243865725654
 21
-0.0004752668058501
 31
0.0
1001
REVIT
1002
{
1070
     2
1000
-2001160
1002
}
  0
LINE
  5
68A
330
686
100
AcDbEntity
  8
Basin-Dual_Mount-Grohe-Essence-39669000-39670000
100
AcDbLine
 10
14.27268240309644
 20
-3.937499999999289
 30
0.0
 11
14.46109246998898
 21
-3.61116419148395
 31
0.0
1001
REVIT
1002
{
1070
     2
1000
-2001160
1002
}
  0
LINE
  5
68B
330
686
100
AcDbEntity
  8
Basin-Dual_Mount-Grohe-Essence-39669000-39670000
100
AcDbLine
 10
17.69178027697762
 20
-1.554581600780366
 30
0.0
 11
17.99790624669484
 21
-0.1143721463555636
 31
0.0
1001
REVIT
1002
{
1070
     2
1000
-2001160
1002
}
  0
LINE
  5
68C
330
686
100
AcDbEntity
  8
Basin-Dual_Mount-Grohe-Essence-39669000-39670000
100
AcDbLine
 10
2.721072742421114
 20
-3.611164191483993
 30
0.0
 11
15.14741651379526
 21
-3.61116419148395
 31
0.0
1001
REVIT
1002
{
1070
     2
1000
-2001160
1002
}
  0
LINE
  5
68D
330
686
100
AcDbEntity
  8
Basin-Dual_Mount-Grohe-Essence-39669000-39670000
100
AcDbLine
 10
3.395146455936981
 20
-3.611164191484007
 30
0.0
 11
3.583556522829525
 21
-3.937499999999332
 31
0.0
1001
REVIT
1002
{
1070
     2
1000
-2001160
1002
}
  0
LINE
  5
68E
330
686
100
AcDbEntity
  8
Basin-Dual_Mount-Grohe-Essence-39669000-39670000
100
AcDbLine
 10
17.89884904053997
 20
0.0
 30
0.0
 11
0.0108976601095776
 21
0.0
 31
0.0
1001
REVIT
1002
{
1070
     2
1000
-2001160
1002
}
  0
LINE
  5
68F
330
686
100
AcDbEntity
  8
Basin-Dual_Mount-Grohe-Essence-39669000-39670000
100
AcDbLine
 10
0.0
 20
-0.7808644891736521
 30
0.0
 11
0.1644586489483686
 21
-1.554581600780366
 31
0.0
1001
REVIT
1002
{
1070
     2
1000
-2001160
1002
}
  0
LINE
  5
690
330
686
100
AcDbEntity
  8
Basin-Dual_Mount-Grohe-Essence-39669000-39670000
100
AcDbLine
 10
2.600298107679321
 20
-3.609087343869418
 30
0.0
 11
2.496635676477524
 21
-3.60286012353886
 31
0.0
1001
REVIT
1002
{
1070
     2
1000
-2001160
1002
}
  0
LINE
  5
691
330
686
100
AcDbEntity
  8
Basin-Dual_Mount-Grohe-Essence-39669000-39670000
100
AcDbLine
 10
2.496635676477524
 20
-3.60286012353886
 30
0.0
 11
2.393305186558819
 21
-3.592492492716445
 31
0.0
1001
REVIT
1002
{
1070
     2
1000
-2001160
1002
}
  0
LINE
  5
692
330
686
100
AcDbEntity
  8
Basin-Dual_Mount-Grohe-Essence-39669000-39670000
100
AcDbLine
 10
2.290471944664403
 20
-3.578001037399829
 30
0.0
 11
2.188300462044679
 21
-3.559408940826187
 31
0.0
1001
REVIT
1002
{
1070
     2
1000
-2001160
1002
}
  0
LINE
  5
693
330
686
100
AcDbEntity
  8
Basin-Dual_Mount-Grohe-Essence-39669000-39670000
100
AcDbLine
 10
2.188300462044679
 20
-3.559408940826187
 30
0.0
 11
2.086954191276475
 21
-3.536745946383916
 31
0.0
1001
REVIT
1002
{
1070
     2
1000
-2001160
1002
}
  0
LINE
  5
694
330
686
100
AcDbEntity
  8
Basin-Dual_Mount-Grohe-Essence-39669000-39670000
100
AcDbLine
 10
2.086954191276475
 20
-3.536745946383916
 30
0.0
 11
1.986595264773626
 21
-3.510048310029631
 31
0.0
1001
REVIT
1002
{
1070
     2
1000
-2001160
1002
}
  0
LINE
  5
695
330
686
100
AcDbEntity
  8
Basin-Dual_Mount-Grohe-Essence-39669000-39670000
100
AcDbLine
 10
1.986595264773626
 20
-3.510048310029631
 30
0.0
 11
1.887384235409768
 21
-3.479358742286308
 31
0.0
1001
REVIT
1002
{
1070
     2
1000
-2001160
1002
}
  0
LINE
  5
696
330
686
100
AcDbEntity
  8
Basin-Dual_Mount-Grohe-Essence-39669000-39670000
100
AcDbLine
 10
1.887384235409768
 20
-3.479358742286308
 30
0.0
 11
1.789479819667974
 21
-3.444726339915561
 31
0.0
1001
REVIT
1002
{
1070
     2
1000
-2001160
1002
}
  0
LINE
  5
697
330
686
100
AcDbEntity
  8
Basin-Dual_Mount-Grohe-Essence-39669000-39670000
100
AcDbLine
 10
1.693038643728272
 20
-3.406206507373326
 30
0.0
 11
1.657377763443406
 21
-3.390281337261768
 31
0.0
1001
REVIT
1002
{
1070
     2
1000
-2001160
1002
}
  0
LINE
  5
698
330
686
100
AcDbEntity
  8
Basin-Dual_Mount-Grohe-Essence-39669000-39670000
100
AcDbLine
 10
1.57344281948022
 20
-3.351587525345735
 30
0.0
 11
1.50516056479401
 21
-3.317757166308751
 31
0.0
1001
REVIT
1002
{
1070
     2
1000
-2001160
1002
}
  0
LINE
  5
699
330
686
100
AcDbEntity
  8
Basin-Dual_Mount-Grohe-Essence-39669000-39670000
100
AcDbLine
 10
1.50516056479401
 20
-3.317757166308751
 30
0.0
 11
1.4140242266472
 21
-3.267969157863902
 31
0.0
1001
REVIT
1002
{
1070
     2
1000
-2001160
1002
}
  0
LINE
  5
69A
330
686
100
AcDbEntity
  8
Basin-Dual_Mount-Grohe-Essence-39669000-39670000
100
AcDbLine
 10
1.4140242266472
 20
-3.267969157863902
 30
0.0
 11
1.324951777158418
 21
-3.21457649303268
 31
0.0
1001
REVIT
1002
{
1070
     2
1000
-2001160
1002
}
  0
LINE
  5
69B
330
686
100
AcDbEntity
  8
Basin-Dual_Mount-Grohe-Essence-39669000-39670000
100
AcDbLine
 10
1.324951777158418
 20
-3.21457649303268
 30
0.0
 11
1.238085713245709
 21
-3.157664588688987
 31
0.0
1001
REVIT
1002
{
1070
     2
1000
-2001160
1002
}
  0
LINE
  5
69C
330
686
100
AcDbEntity
  8
Basin-Dual_Mount-Grohe-Essence-39669000-39670000
100
AcDbLine
 10
1.238085713245709
 20
-3.157664588688987
 30
0.0
 11
1.153565002080938
 21
-3.0973244917392
 31
0.0
1001
REVIT
1002
{
1070
     2
1000
-2001160
1002
}
  0
LINE
  5
69D
330
686
100
AcDbEntity
  8
Basin-Dual_Mount-Grohe-Essence-39669000-39670000
100
AcDbLine
 10
1.153565002080938
 20
-3.0973244917392
 30
0.0
 11
1.071524858771795
 21
-3.033652733466567
 31
0.0
1001
REVIT
1002
{
1070
     2
1000
-2001160
1002
}
  0
LINE
  5
69E
330
686
100
AcDbEntity
  8
Basin-Dual_Mount-Grohe-Essence-39669000-39670000
100
AcDbLine
 10
1.071524858771795
 20
-3.033652733466567
 30
0.0
 11
0.9920965300466377
 21
-2.966751175101762
 31
0.0
1001
REVIT
1002
{
1070
     2
1000
-2001160
1002
}
  0
LINE
  5
69F
330
686
100
AcDbEntity
  8
Basin-Dual_Mount-Grohe-Essence-39669000-39670000
100
AcDbLine
 10
0.9920965300466377
 20
-2.966751175101762
 30
0.0
 11
0.915407084287608
 21
-2.896726844866591
 31
0.0
1001
REVIT
1002
{
1070
     2
1000
-2001160
1002
}
  0
LINE
  5
6A0
330
686
100
AcDbEntity
  8
Basin-Dual_Mount-Grohe-Essence-39669000-39670000
100
AcDbLine
 10
0.915407084287608
 20
-2.896726844866591
 30
0.0
 11
0.8415792082483903
 21
-2.823691766751693
 31
0.0
1001
REVIT
1002
{
1070
     2
1000
-2001160
1002
}
  0
LINE
  5
6A1
330
686
100
AcDbEntity
  8
Basin-Dual_Mount-Grohe-Essence-39669000-39670000
100
AcDbLine
 10
0.8415792082483903
 20
-2.823691766751693
 30
0.0
 11
0.7707310107815318
 21
-2.747762781302071
 31
0.0
1001
REVIT
1002
{
1070
     2
1000
-2001160
1002
}
  0
LINE
  5
6A2
330
686
100
AcDbEntity
  8
Basin-Dual_Mount-Grohe-Essence-39669000-39670000
100
AcDbLine
 10
0.7707310107815318
 20
-2.747762781302071
 30
0.0
 11
0.7029758338894965
 21
-2.669061358697135
 31
0.0
1001
REVIT
1002
{
1070
     2
1000
-2001160
1002
}
  0
LINE
  5
6A3
330
686
100
AcDbEntity
  8
Basin-Dual_Mount-Grohe-Essence-39669000-39670000
100
AcDbLine
 10
0.7029758338894965
 20
-2.669061358697135
 30
0.0
 11
0.6384220714016636
 21
-2.587713404424292
 31
0.0
1001
REVIT
1002
{
1070
     2
1000
-2001160
1002
}
  0
LINE
  5
6A4
330
686
100
AcDbEntity
  8
Basin-Dual_Mount-Grohe-Essence-39669000-39670000
100
AcDbLine
 10
0.6384220714016636
 20
-2.587713404424292
 30
0.0
 11
0.5771729955672811
 21
-2.503849057857081
 31
0.0
1001
REVIT
1002
{
1070
     2
1000
-2001160
1002
}
  0
LINE
  5
6A5
330
686
100
AcDbEntity
  8
Basin-Dual_Mount-Grohe-Essence-39669000-39670000
100
AcDbLine
 10
0.5771729955672811
 20
-2.503849057857081
 30
0.0
 11
0.5193265918418604
 21
-2.417602484059926
 31
0.0
1001
REVIT
1002
{
1070
     2
1000
-2001160
1002
}
  0
LINE
  5
6A6
330
686
100
AcDbEntity
  8
Basin-Dual_Mount-Grohe-Essence-39669000-39670000
100
AcDbLine
 10
0.5193265918418604
 20
-2.417602484059926
 30
0.0
 11
0.4649754021315289
 21
-2.329111659152573
 31
0.0
1001
REVIT
1002
{
1070
     2
1000
-2001160
1002
}
  0
LINE
  5
6A7
330
686
100
AcDbEntity
  8
Basin-Dual_Mount-Grohe-Essence-39669000-39670000
100
AcDbLine
 10
0.4649754021315289
 20
-2.329111659152573
 30
0.0
 11
0.4142063767454829
 21
-2.23851814957787
 31
0.0
1001
REVIT
1002
{
1070
     2
1000
-2001160
1002
}
  0
LINE
  5
6A8
330
686
100
AcDbEntity
  8
Basin-Dual_Mount-Grohe-Essence-39669000-39670000
100
AcDbLine
 10
0.4142063767454829
 20
-2.23851814957787
 30
0.0
 11
0.3671007352941729
 21
-2.14596688562554
 31
0.0
1001
REVIT
1002
{
1070
     2
1000
-2001160
1002
}
  0
LINE
  5
6A9
330
686
100
AcDbEntity
  8
Basin-Dual_Mount-Grohe-Essence-39669000-39670000
100
AcDbLine
 10
0.3671007352941729
 20
-2.14596688562554
 30
0.0
 11
0.3237338367553093
 21
-2.051605929574705
 31
0.0
1001
REVIT
1002
{
1070
     2
1000
-2001160
1002
}
  0
LINE
  5
6AA
330
686
100
AcDbEntity
  8
Basin-Dual_Mount-Grohe-Essence-39669000-39670000
100
AcDbLine
 10
0.3237338367553093
 20
-2.051605929574705
 30
0.0
 11
0.2841750589153662
 21
-1.955586238825745
 31
0.0
1001
REVIT
1002
{
1070
     2
1000
-2001160
1002
}
  0
LINE
  5
6AB
330
686
100
AcDbEntity
  8
Basin-Dual_Mount-Grohe-Essence-39669000-39670000
100
AcDbLine
 10
0.2841750589153662
 20
-1.955586238825745
 30
0.0
 11
0.2484876873802193
 21
-1.858061424400801
 31
0.0
1001
REVIT
1002
{
1070
     2
1000
-2001160
1002
}
  0
LINE
  5
6AC
330
686
100
AcDbEntity
  8
Basin-Dual_Mount-Grohe-Essence-39669000-39670000
100
AcDbLine
 10
0.2484876873802193
 20
-1.858061424400801
 30
0.0
 11
0.2167288143313613
 21
-1.759187505198724
 31
0.0
1001
REVIT
1002
{
1070
     2
1000
-2001160
1002
}
  0
LINE
  5
6AD
330
686
100
AcDbEntity
  8
Basin-Dual_Mount-Grohe-Essence-39669000-39670000
100
AcDbLine
 10
0.2167288143313613
 20
-1.759187505198724
 30
0.0
 11
0.1889492471908056
 21
-1.659122658398288
 31
0.0
1001
REVIT
1002
{
1070
     2
1000
-2001160
1002
}
  0
LINE
  5
6AE
330
686
100
AcDbEntity
  8
Basin-Dual_Mount-Grohe-Essence-39669000-39670000
100
AcDbLine
 10
0.1889492471908056
 20
-1.659122658398288
 30
0.0
 11
0.1651934273400286
 21
-1.558026966408334
 31
0.0
1001
REVIT
1002
{
1070
     2
1000
-2001160
1002
}
  0
LINE
  5
6AF
330
686
100
AcDbEntity
  8
Basin-Dual_Mount-Grohe-Essence-39669000-39670000
100
AcDbLine
 10
17.69178027697765
 20
-1.554581600780352
 30
0.0
 11
17.66816164726001
 21
-1.655709431993969
 31
0.0
1001
REVIT
1002
{
1070
     2
1000
-2001160
1002
}
  0
LINE
  5
6B0
330
686
100
AcDbEntity
  8
Basin-Dual_Mount-Grohe-Essence-39669000-39670000
100
AcDbLine
 10
17.66816164726001
 20
-1.655709431993969
 30
0.0
 11
17.64051787528899
 21
-1.75581187845222
 31
0.0
1001
REVIT
1002
{
1070
     2
1000
-2001160
1002
}
  0
LINE
  5
6B1
330
686
100
AcDbEntity
  8
Basin-Dual_Mount-Grohe-Essence-39669000-39670000
100
AcDbLine
 10
17.64051787528899
 20
-1.75581187845222
 30
0.0
 11
17.6088931852027
 21
-1.854728797594788
 31
0.0
1001
REVIT
1002
{
1070
     2
1000
-2001160
1002
}
  0
LINE
  5
6B2
330
686
100
AcDbEntity
  8
Basin-Dual_Mount-Grohe-Essence-39669000-39670000
100
AcDbLine
 10
17.6088931852027
 20
-1.854728797594788
 30
0.0
 11
17.57333816975907
 21
-1.952301943452226
 31
0.0
1001
REVIT
1002
{
1070
     2
1000
-2001160
1002
}
  0
LINE
  5
6B3
330
686
100
AcDbEntity
  8
Basin-Dual_Mount-Grohe-Essence-39669000-39670000
100
AcDbLine
 10
17.57333816975907
 20
-1.952301943452226
 30
0.0
 11
17.53390970939813
 21
-2.04837521980562
 31
0.0
1001
REVIT
1002
{
1070
     2
1000
-2001160
1002
}
  0
LINE
  5
6B4
330
686
100
AcDbEntity
  8
Basin-Dual_Mount-Grohe-Essence-39669000-39670000
100
AcDbLine
 10
17.53390970939813
 20
-2.04837521980562
 30
0.0
 11
17.4906708812455
 21
-2.142794929907381
 31
0.0
1001
REVIT
1002
{
1070
     2
1000
-2001160
1002
}
  0
LINE
  5
6B5
330
686
100
AcDbEntity
  8
Basin-Dual_Mount-Grohe-Essence-39669000-39670000
100
AcDbLine
 10
17.4906708812455
 20
-2.142794929907381
 30
0.0
 11
17.44369085820241
 21
-2.235410022363097
 31
0.0
1001
REVIT
1002
{
1070
     2
1000
-2001160
1002
}
  0
LINE
  5
6B6
330
686
100
AcDbEntity
  8
Basin-Dual_Mount-Grohe-Essence-39669000-39670000
100
AcDbLine
 10
17.44369085820241
 20
-2.235410022363097
 30
0.0
 11
17.39304479828391
 21
-2.326072332781734
 31
0.0
1001
REVIT
1002
{
1070
     2
1000
-2001160
1002
}
  0
LINE
  5
6B7
330
686
100
AcDbEntity
  8
Basin-Dual_Mount-Grohe-Essence-39669000-39670000
100
AcDbLine
 10
17.39304479828391
 20
-2.326072332781734
 30
0.0
 11
17.3388137243819
 21
-2.414636820806819
 31
0.0
1001
REVIT
1002
{
1070
     2
1000
-2001160
1002
}
  0
LINE
  5
6B8
330
686
100
AcDbEntity
  8
Basin-Dual_Mount-Grohe-Essence-39669000-39670000
100
AcDbLine
 10
17.3388137243819
 20
-2.414636820806819
 30
0.0
 11
17.281084394646
 21
-2.500961802150314
 31
0.0
1001
REVIT
1002
{
1070
     2
1000
-2001160
1002
}
  0
LINE
  5
6B9
330
686
100
AcDbEntity
  8
Basin-Dual_Mount-Grohe-Essence-39669000-39670000
100
AcDbLine
 10
17.281084394646
 20
-2.500961802150314
 30
0.0
 11
17.21994916368882
 21
-2.584909175257038
 31
0.0
1001
REVIT
1002
{
1070
     2
1000
-2001160
1002
}
  0
LINE
  5
6BA
330
686
100
AcDbEntity
  8
Basin-Dual_Mount-Grohe-Essence-39669000-39670000
100
AcDbLine
 10
17.21994916368882
 20
-2.584909175257038
 30
0.0
 11
17.15550583483838
 21
-2.666344642237888
 31
0.0
1001
REVIT
1002
{
1070
     2
1000
-2001160
1002
}
  0
LINE
  5
6BB
330
686
100
AcDbEntity
  8
Basin-Dual_Mount-Grohe-Essence-39669000-39670000
100
AcDbLine
 10
17.15550583483838
 20
-2.666344642237888
 30
0.0
 11
17.08785750367369
 21
-2.745137923717621
 31
0.0
1001
REVIT
1002
{
1070
     2
1000
-2001160
1002
}
  0
LINE
  5
6BC
330
686
100
AcDbEntity
  8
Basin-Dual_Mount-Grohe-Essence-39669000-39670000
100
AcDbLine
 10
17.08785750367369
 20
-2.745137923717621
 30
0.0
 11
17.01711239309375
 21
-2.821162967254238
 31
0.0
1001
REVIT
1002
{
1070
     2
1000
-2001160
1002
}
  0
LINE
  5
6BD
330
686
100
AcDbEntity
  8
Basin-Dual_Mount-Grohe-Essence-39669000-39670000
100
AcDbLine
 10
17.01711239309375
 20
-2.821162967254238
 30
0.0
 11
16.94338368018401
 21
-2.894298148995872
 31
0.0
1001
REVIT
1002
{
1070
     2
1000
-2001160
1002
}
  0
LINE
  5
6BE
330
686
100
AcDbEntity
  8
Basin-Dual_Mount-Grohe-Essence-39669000-39670000
100
AcDbLine
 10
16.94338368018401
 20
-2.894298148995872
 30
0.0
 11
16.86678931515715
 21
-2.964426468253094
 31
0.0
1001
REVIT
1002
{
1070
     2
1000
-2001160
1002
}
  0
LINE
  5
6BF
330
686
100
AcDbEntity
  8
Basin-Dual_Mount-Grohe-Essence-39669000-39670000
100
AcDbLine
 10
16.86678931515715
 20
-2.964426468253094
 30
0.0
 11
16.78745183265792
 21
-3.031435734674985
 31
0.0
1001
REVIT
1002
{
1070
     2
1000
-2001160
1002
}
  0
LINE
  5
6C0
330
686
100
AcDbEntity
  8
Basin-Dual_Mount-Grohe-Essence-39669000-39670000
100
AcDbLine
 10
16.78745183265792
 20
-3.031435734674985
 30
0.0
 11
16.70549815573397
 21
-3.09521874772983
 31
0.0
1001
REVIT
1002
{
1070
     2
1000
-2001160
1002
}
  0
LINE
  5
6C1
330
686
100
AcDbEntity
  8
Basin-Dual_Mount-Grohe-Essence-39669000-39670000
100
AcDbLine
 10
16.70549815573397
 20
-3.09521874772983
 30
0.0
 11
16.62105939278581
 21
-3.155673468203048
 31
0.0
1001
REVIT
1002
{
1070
     2
1000
-2001160
1002
}
  0
LINE
  5
6C2
330
686
100
AcDbEntity
  8
Basin-Dual_Mount-Grohe-Essence-39669000-39670000
100
AcDbLine
 10
16.62105939278581
 20
-3.155673468203048
 30
0.0
 11
16.53427062782151
 21
-3.212703181438214
 31
0.0
1001
REVIT
1002
{
1070
     2
1000
-2001160
1002
}
  0
LINE
  5
6C3
330
686
100
AcDbEntity
  8
Basin-Dual_Mount-Grohe-Essence-39669000-39670000
100
AcDbLine
 10
16.53427062782151
 20
-3.212703181438214
 30
0.0
 11
16.44527070435109
 21
-3.266216652059824
 31
0.0
1001
REVIT
1002
{
1070
     2
1000
-2001160
1002
}
  0
LINE
  5
6C4
330
686
100
AcDbEntity
  8
Basin-Dual_Mount-Grohe-Essence-39669000-39670000
100
AcDbLine
 10
16.44527070435109
 20
-3.266216652059824
 30
0.0
 11
16.35420200326646
 21
-3.316128269930501
 31
0.0
1001
REVIT
1002
{
1070
     2
1000
-2001160
1002
}
  0
LINE
  5
6C5
330
686
100
AcDbEntity
  8
Basin-Dual_Mount-Grohe-Essence-39669000-39670000
100
AcDbLine
 10
16.35420200326646
 20
-3.316128269930501
 30
0.0
 11
16.26121021506239
 21
-3.362358187108881
 31
0.0
1001
REVIT
1002
{
1070
     2
1000
-2001160
1002
}
  0
LINE
  5
6C6
330
686
100
AcDbEntity
  8
Basin-Dual_Mount-Grohe-Essence-39669000-39670000
100
AcDbLine
 10
16.26121021506239
 20
-3.362358187108881
 30
0.0
 11
16.16644410676281
 21
-3.404832445589349
 31
0.0
1001
REVIT
1002
{
1070
     2
1000
-2001160
1002
}
  0
LINE
  5
6C7
330
686
100
AcDbEntity
  8
Basin-Dual_Mount-Grohe-Essence-39669000-39670000
100
AcDbLine
 10
16.16644410676281
 20
-3.404832445589349
 30
0.0
 11
16.07005528392531
 21
-3.443483095619015
 31
0.0
1001
REVIT
1002
{
1070
     2
1000
-2001160
1002
}
  0
LINE
  5
6C8
330
686
100
AcDbEntity
  8
Basin-Dual_Mount-Grohe-Essence-39669000-39670000
100
AcDbLine
 10
16.07005528392531
 20
-3.443483095619015
 30
0.0
 11
15.97219794810462
 21
-3.478248304402868
 31
0.0
1001
REVIT
1002
{
1070
     2
1000
-2001160
1002
}
  0
LINE
  5
6C9
330
686
100
AcDbEntity
  8
Basin-Dual_Mount-Grohe-Essence-39669000-39670000
100
AcDbLine
 10
15.97219794810462
 20
-3.478248304402868
 30
0.0
 11
15.87302865016289
 21
-3.509072455023044
 31
0.0
1001
REVIT
1002
{
1070
     2
1000
-2001160
1002
}
  0
LINE
  5
6CA
330
686
100
AcDbEntity
  8
Basin-Dual_Mount-Grohe-Essence-39669000-39670000
100
AcDbLine
 10
15.87302865016289
 20
-3.509072455023044
 30
0.0
 11
15.77270603982183
 21
-3.535906235414003
 31
0.0
1001
REVIT
1002
{
1070
     2
1000
-2001160
1002
}
  0
LINE
  5
6CB
330
686
100
AcDbEntity
  8
Basin-Dual_Mount-Grohe-Essence-39669000-39670000
100
AcDbLine
 10
15.77270603982183
 20
-3.535906235414003
 30
0.0
 11
15.67139061185702
 21
-3.558706717251368
 31
0.0
1001
REVIT
1002
{
1070
     2
1000
-2001160
1002
}
  0
LINE
  5
6CC
330
686
100
AcDbEntity
  8
Basin-Dual_Mount-Grohe-Essence-39669000-39670000
100
AcDbLine
 10
15.67139061185702
 20
-3.558706717251368
 30
0.0
 11
15.56924444934034
 21
-3.577437424628044
 31
0.0
1001
REVIT
1002
{
1070
     2
1000
-2001160
1002
}
  0
LINE
  5
6CD
330
686
100
AcDbEntity
  8
Basin-Dual_Mount-Grohe-Essence-39669000-39670000
100
AcDbLine
 10
15.56924444934034
 20
-3.577437424628044
 30
0.0
 11
15.46643096434184
 21
-3.592068392407867
 31
0.0
1001
REVIT
1002
{
1070
     2
1000
-2001160
1002
}
  0
LINE
  5
6CE
330
686
100
AcDbEntity
  8
Basin-Dual_Mount-Grohe-Essence-39669000-39670000
100
AcDbLine
 10
15.46643096434184
 20
-3.592068392407867
 30
0.0
 11
15.36311463650514
 21
-3.602576214163548
 31
0.0
1001
REVIT
1002
{
1070
     2
1000
-2001160
1002
}
  0
LINE
  5
6CF
330
686
100
AcDbEntity
  8
Basin-Dual_Mount-Grohe-Essence-39669000-39670000
100
AcDbLine
 10
15.36311463650514
 20
-3.602576214163548
 30
0.0
 11
15.25946074991512
 21
-3.608944079621792
 31
0.0
1001
REVIT
1002
{
1070
     2
1000
-2001160
1002
}
  0
LINE
  5
6D0
330
686
100
AcDbEntity
  8
Basin-Dual_Mount-Grohe-Essence-39669000-39670000
100
AcDbLine
 10
15.25946074991512
 20
-3.608944079621792
 30
0.0
 11
15.15563512867868
 21
-3.611161801556292
 31
0.0
1001
REVIT
1002
{
1070
     2
1000
-2001160
1002
}
  0
LINE
  5
6D1
330
686
100
AcDbEntity
  8
Basin-Dual_Mount-Grohe-Essence-39669000-39670000
100
AcDbLine
 10
15.15563512867868
 20
-3.611161801556292
 30
0.0
 11
15.15211228353823
 21
-3.611164191483965
 31
0.0
1001
REVIT
1002
{
1070
     2
1000
-2001160
1002
}
  0
LINE
  5
6D2
330
686
100
AcDbEntity
  8
Basin-Dual_Mount-Grohe-Essence-39669000-39670000
100
AcDbLine
 10
17.90528950873389
 20
0.0
 30
0.0
 11
17.90907593287153
 21
-0.0000757385815007
 31
0.0
1001
REVIT
1002
{
1070
     2
1000
-2001160
1002
}
  0
LINE
  5
6D3
330
686
100
AcDbEntity
  8
Basin-Dual_Mount-Grohe-Essence-39669000-39670000
100
AcDbLine
 10
17.91662456095389
 20
-0.0006809204338936
 30
0.0
 11
17.92037468870399
 21
-0.0012093955429151
 31
0.0
1001
REVIT
1002
{
1070
     2
1000
-2001160
1002
}
  0
LINE
  5
6D4
330
686
100
AcDbEntity
  8
Basin-Dual_Mount-Grohe-Essence-39669000-39670000
100
AcDbLine
 10
17.92037468870399
 20
-0.0012093955429151
 30
0.0
 11
17.92410068338412
 21
-0.0018874130400803
 31
0.0
1001
REVIT
1002
{
1070
     2
1000
-2001160
1002
}
  0
LINE
  5
6D5
330
686
100
AcDbEntity
  8
Basin-Dual_Mount-Grohe-Essence-39669000-39670000
100
AcDbLine
 10
17.92410068338412
 20
-0.0018874130400803
 30
0.0
 11
17.92779658419766
 21
-0.0027138882419848
 31
0.0
1001
REVIT
1002
{
1070
     2
1000
-2001160
1002
}
  0
LINE
  5
6D6
330
686
100
AcDbEntity
  8
Basin-Dual_Mount-Grohe-Essence-39669000-39670000
100
AcDbLine
 10
17.93507451121613
 20
-0.0048066876385775
 30
0.0
 11
17.93864489429038
 21
-0.0060696638006732
 31
0.0
1001
REVIT
1002
{
1070
     2
1000
-2001160
1002
}
  0
LINE
  5
6D7
330
686
100
AcDbEntity
  8
Basin-Dual_Mount-Grohe-Essence-39669000-39670000
100
AcDbLine
 10
17.93864489429038
 20
-0.0060696638006732
 30
0.0
 11
17.94216191586318
 21
-0.0074744069584796
 31
0.0
1001
REVIT
1002
{
1070
     2
1000
-2001160
1002
}
  0
LINE
  5
6D8
330
686
100
AcDbEntity
  8
Basin-Dual_Mount-Grohe-Essence-39669000-39670000
100
AcDbLine
 10
17.94216191586318
 20
-0.0074744069584796
 30
0.0
 11
17.94561994945025
 21
-0.0090186698225807
 31
0.0
1001
REVIT
1002
{
1070
     2
1000
-2001160
1002
}
  0
LINE
  5
6D9
330
686
100
AcDbEntity
  8
Basin-Dual_Mount-Grohe-Essence-39669000-39670000
100
AcDbLine
 10
17.95558532591363
 20
-0.0144627797967587
 30
0.0
 11
17.95875316182756
 21
-0.0165382459384347
 31
0.0
1001
REVIT
1002
{
1070
     2
1000
-2001160
1002
}
  0
LINE
  5
6DA
330
686
100
AcDbEntity
  8
Basin-Dual_Mount-Grohe-Essence-39669000-39670000
100
AcDbLine
 10
17.95875316182756
 20
-0.0165382459384347
 30
0.0
 11
17.96183546730154
 21
-0.0187387315775567
 31
0.0
1001
REVIT
1002
{
1070
     2
1000
-2001160
1002
}
  0
LINE
  5
6DB
330
686
100
AcDbEntity
  8
Basin-Dual_Mount-Grohe-Essence-39669000-39670000
100
AcDbLine
 10
17.96183546730154
 20
-0.0187387315775567
 30
0.0
 11
17.96482731130427
 21
-0.0210607164065664
 31
0.0
1001
REVIT
1002
{
1070
     2
1000
-2001160
1002
}
  0
LINE
  5
6DC
330
686
100
AcDbEntity
  8
Basin-Dual_Mount-Grohe-Essence-39669000-39670000
100
AcDbLine
 10
17.97579667622582
 20
-0.0314865653181897
 30
0.0
 11
17.97826757536694
 21
-0.0343566526892119
 31
0.0
1001
REVIT
1002
{
1070
     2
1000
-2001160
1002
}
  0
LINE
  5
6DD
330
686
100
AcDbEntity
  8
Basin-Dual_Mount-Grohe-Essence-39669000-39670000
100
AcDbLine
 10
17.97826757536694
 20
-0.0343566526892119
 30
0.0
 11
17.98062172516927
 21
-0.0373232539079567
 31
0.0
1001
REVIT
1002
{
1070
     2
1000
-2001160
1002
}
  0
LINE
  5
6DE
330
686
100
AcDbEntity
  8
Basin-Dual_Mount-Grohe-Essence-39669000-39670000
100
AcDbLine
 10
17.98062172516927
 20
-0.0373232539079567
 30
0.0
 11
17.98285535949531
 21
-0.0403816230453202
 31
0.0
1001
REVIT
1002
{
1070
     2
1000
-2001160
1002
}
  0
LINE
  5
6DF
330
686
100
AcDbEntity
  8
Basin-Dual_Mount-Grohe-Essence-39669000-39670000
100
AcDbLine
 10
17.98879843420852
 20
-0.0500577237279742
 30
0.0
 11
17.99051628507015
 21
-0.0534328877980812
 31
0.0
1001
REVIT
1002
{
1070
     2
1000
-2001160
1002
}
  0
LINE
  5
6E0
330
686
100
AcDbEntity
  8
Basin-Dual_Mount-Grohe-Essence-39669000-39670000
100
AcDbLine
 10
17.99051628507015
 20
-0.0534328877980812
 30
0.0
 11
17.99209779127039
 21
-0.056874047809103
 31
0.0
1001
REVIT
1002
{
1070
     2
1000
-2001160
1002
}
  0
LINE
  5
6E1
330
686
100
AcDbEntity
  8
Basin-Dual_Mount-Grohe-Essence-39669000-39670000
100
AcDbLine
 10
17.99209779127039
 20
-0.056874047809103
 30
0.0
 11
17.99354042273668
 21
-0.0603756986391204
 31
0.0
1001
REVIT
1002
{
1070
     2
1000
-2001160
1002
}
  0
LINE
  5
6E2
330
686
100
AcDbEntity
  8
Basin-Dual_Mount-Grohe-Essence-39669000-39670000
100
AcDbLine
 10
17.99958533397506
 20
-0.086100531059202
 30
0.0
 11
17.99985322860004
 21
-0.0898782256673911
 31
0.0
1001
REVIT
1002
{
1070
     2
1000
-2001160
1002
}
  0
LINE
  5
6E3
330
686
100
AcDbEntity
  8
Basin-Dual_Mount-Grohe-Essence-39669000-39670000
100
AcDbLine
 10
17.99985322860004
 20
-0.0898782256673911
 30
0.0
 11
17.99996984144573
 21
-0.0936636114505234
 31
0.0
1001
REVIT
1002
{
1070
     2
1000
-2001160
1002
}
  0
LINE
  5
6E4
330
686
100
AcDbEntity
  8
Basin-Dual_Mount-Grohe-Essence-39669000-39670000
100
AcDbLine
 10
17.99892337775492
 20
-0.1087609690356572
 30
0.0
 11
17.99828562604719
 21
-0.1124940665219611
 31
0.0
1001
REVIT
1002
{
1070
     2
1000
-2001160
1002
}
  0
SPLINE
  5
6E5
330
686
100
AcDbEntity
  8
Basin-Dual_Mount-Grohe-Essence-39669000-39670000
100
AcDbSpline
210
0.0
220
0.0
230
1.0
 70
     8
 71
     3
 72
     8
 73
     4
 74
     0
 42
0.000000001
 43
0.0000000001
 40
-1.0
 40
-1.0
 40
-1.0
 40
-1.0
 40
-0.9556057783379641
 40
-0.9556057783379641
 40
-0.9556057783379641
 40
-0.9556057783379641
 10
2.249999999999886
 20
-3.571141004066802
 30
0.0
 10
2.216669062458237
 20
-3.565219954789199
 30
0.0
 10
2.184223672527082
 20
-3.558804777057503
 30
0.0
 10
2.152575447731891
 20
-3.551938797191823
 30
0.0
1001
REVIT
1002
{
1070
     2
1000
-2001160
1002
}
  0
SPLINE
  5
6E6
330
686
100
AcDbEntity
  8
Basin-Dual_Mount-Grohe-Essence-39669000-39670000
100
AcDbSpline
210
0.0
220
0.0
230
1.0
 70
     8
 71
     3
 72
    26
 73
    22
 74
     0
 42
0.000000001
 43
0.0000000001
 40
-0.9281025811176242
 40
-0.9281025811176242
 40
-0.9281025811176242
 40
-0.9281025811176242
 40
-0.861111111111111
 40
-0.7916666666666668
 40
-0.7569444444444445
 40
-0.7222222222222223
 40
-0.6875
 40
-0.6527777777777777
 40
-0.6180555555555555
 40
-0.5833333333333333
 40
-0.5486111111111111
 40
-0.5138888888888889
 40
-0.4791666666666666
 40
-0.4444444444444445
 40
-0.3888888888888888
 40
-0.3611111111111111
 40
-0.3333333333333333
 40
-0.2777777777777778
 40
-0.2222222222222222
 40
-0.1111111111111111
 40
-0.071905326575887
 40
-0.071905326575887
 40
-0.071905326575887
 40
-0.071905326575887
 10
2.09465199125168
 20
-3.538669158622013
 30
0.0
 10
2.048333697890058
 20
-3.527490517146262
 30
0.0
 10
1.957444128216081
 20
-3.502757746052623
 30
0.0
 10
1.8506400168759
 20
-3.467481875692214
 30
0.0
 10
1.777063690891537
 20
-3.440236243488342
 30
0.0
 10
1.725349201572498
 20
-3.419809178557827
 30
0.0
 10
1.679594079781935
 20
-3.400619181776065
 30
0.0
 10
1.642095812032238
 20
-3.384122625917242
 30
0.0
 10
1.6101911024179
 20
-3.369532751215203
 30
0.0
 10
1.585342036014679
 20
-3.35779279395443
 30
0.0
 10
1.56954166518409
 20
-3.350157239995468
 30
0.0
 10
1.562333322527706
 20
-3.346631189244547
 30
0.0
 10
1.563188243438929
 20
-3.347050778528966
 30
0.0
 10
1.573665335519763
 20
-3.352166425091098
 30
0.0
 10
1.597029574138787
 20
-3.363401807324962
 30
0.0
 10
1.629042982146586
 20
-3.378185961238571
 30
0.0
 10
1.665715966081762
 20
-3.394629142916883
 30
0.0
 10
1.724007846182303
 20
-3.419616513076391
 30
0.0
 10
1.836938542487672
 20
-3.463188267596308
 30
0.0
 10
1.963615130340599
 20
-3.506991025441109
 30
0.0
 10
2.069190660197108
 20
-3.531202162271242
 30
0.0
 10
2.097045686519777
 20
-3.537324416685549
 30
0.0
1001
REVIT
1002
{
1070
     2
1000
-2001160
1002
}
  0
SPLINE
  5
6E7
330
686
100
AcDbEntity
  8
Basin-Dual_Mount-Grohe-Essence-39669000-39670000
100
AcDbSpline
210
0.0
220
0.0
230
1.0
 70
     8
 71
     3
 72
     8
 73
     4
 74
     0
 42
0.000000001
 43
0.0000000001
 40
-0.0444071341726282
 40
-0.0444071341726282
 40
-0.0444071341726282
 40
-0.0444071341726282
 40
0.0
 40
0.0
 40
0.0
 40
0.0
 10
2.152571317180616
 20
-3.551933027465437
 30
0.0
 10
2.184215733663677
 20
-3.558802046901675
 30
0.0
 10
2.216656863769401
 20
-3.565217787762321
 30
0.0
 10
2.249999999999886
 20
-3.571141004066788
 30
0.0
1001
REVIT
1002
{
1070
     2
1000
-2001160
1002
}
  0
SPLINE
  5
6E8
330
686
100
AcDbEntity
  8
Basin-Dual_Mount-Grohe-Essence-39669000-39670000
100
AcDbSpline
210
0.0
220
0.0
230
1.0
 70
     8
 71
     3
 72
    10
 73
     6
 74
     0
 42
0.000000001
 43
0.0000000001
 40
-1.0
 40
-1.0
 40
-1.0
 40
-1.0
 40
-0.6666666666666666
 40
-0.3333333333333333
 40
0.0
 40
0.0
 40
0.0
 40
0.0
 10
2.704126642387734
 20
-3.611164191483993
 30
0.0
 10
2.661623752451532
 20
-3.611164191483993
 30
0.0
 10
2.571059205162754
 20
-3.609168496160108
 30
0.0
 10
2.413500542051508
 20
-3.596546900278013
 30
0.0
 10
2.305506585779028
 20
-3.581001429661455
 30
0.0
 10
2.249999999999886
 20
-3.571141004066802
 30
0.0
1001
REVIT
1002
{
1070
     2
1000
-2001160
1002
}
  0
LINE
  5
6E9
330
686
100
AcDbEntity
  8
Basin-Dual_Mount-Grohe-Essence-39669000-39670000
100
AcDbLine
 10
-0.0000000000000284
 20
-3.93749999999936
 30
0.0
 11
-0.0000000000000284
 21
-13.99999999999941
 31
0.0
1001
REVIT
1002
{
1070
     1
1000
2522
1002
}
1002
{
1070
     2
1000
-2001160
1002
}
  0
LINE
  5
6EA
330
686
100
AcDbEntity
  8
Basin-Dual_Mount-Grohe-Essence-39669000-39670000
100
AcDbLine
 10
9.488448214145165
 20
-13.71162385773821
 30
0.0
 11
9.487568270763603
 21
-13.72376327939612
 31
0.0
1001
REVIT
1002
{
1070
     1
1000
130780
1002
}
  0
LINE
  5
6EB
330
686
100
AcDbEntity
  8
Basin-Dual_Mount-Grohe-Essence-39669000-39670000
100
AcDbLine
 10
9.487568270763603
 20
-13.72376327939612
 30
0.0
 11
9.486203583853381
 21
-13.73585780246152
 31
0.0
1001
REVIT
1002
{
1070
     1
1000
130780
1002
}
  0
LINE
  5
6EC
330
686
100
AcDbEntity
  8
Basin-Dual_Mount-Grohe-Essence-39669000-39670000
100
AcDbLine
 10
9.486203583853381
 20
-13.73585780246152
 30
0.0
 11
9.484356336622425
 21
-13.7478880782776
 31
0.0
1001
REVIT
1002
{
1070
     1
1000
130780
1002
}
  0
LINE
  5
6ED
330
686
100
AcDbEntity
  8
Basin-Dual_Mount-Grohe-Essence-39669000-39670000
100
AcDbLine
 10
9.484356336622425
 20
-13.7478880782776
 30
0.0
 11
9.48202948427226
 21
-13.75983486096932
 31
0.0
1001
REVIT
1002
{
1070
     1
1000
130780
1002
}
  0
LINE
  5
6EE
330
686
100
AcDbEntity
  8
Basin-Dual_Mount-Grohe-Essence-39669000-39670000
100
AcDbLine
 10
9.48202948427226
 20
-13.75983486096932
 30
0.0
 11
9.479226749270281
 21
-13.77167903823293
 31
0.0
1001
REVIT
1002
{
1070
     1
1000
130780
1002
}
  0
LINE
  5
6EF
330
686
100
AcDbEntity
  8
Basin-Dual_Mount-Grohe-Essence-39669000-39670000
100
AcDbLine
 10
9.479226749270281
 20
-13.77167903823293
 30
0.0
 11
9.475952615394618
 21
-13.78340166191141
 31
0.0
1001
REVIT
1002
{
1070
     1
1000
130780
1002
}
  0
LINE
  5
6F0
330
686
100
AcDbEntity
  8
Basin-Dual_Mount-Grohe-Essence-39669000-39670000
100
AcDbLine
 10
9.475952615394618
 20
-13.78340166191141
 30
0.0
 11
9.472212320560998
 21
-13.79498397830754
 31
0.0
1001
REVIT
1002
{
1070
     1
1000
130780
1002
}
  0
LINE
  5
6F1
330
686
100
AcDbEntity
  8
Basin-Dual_Mount-Grohe-Essence-39669000-39670000
100
AcDbLine
 10
9.472212320560998
 20
-13.79498397830754
 30
0.0
 11
9.468011848443268
 21
-13.80640745818591
 31
0.0
1001
REVIT
1002
{
1070
     1
1000
130780
1002
}
  0
LINE
  5
6F2
330
686
100
AcDbEntity
  8
Basin-Dual_Mount-Grohe-Essence-39669000-39670000
100
AcDbLine
 10
9.468011848443268
 20
-13.80640745818591
 30
0.0
 11
9.463357918900783
 21
-13.81765382641553
 31
0.0
1001
REVIT
1002
{
1070
     1
1000
130780
1002
}
  0
LINE
  5
6F3
330
686
100
AcDbEntity
  8
Basin-Dual_Mount-Grohe-Essence-39669000-39670000
100
AcDbLine
 10
9.463357918900783
 20
-13.81765382641553
 30
0.0
 11
9.458257977228015
 21
-13.8287050912064
 31
0.0
1001
REVIT
1002
{
1070
     1
1000
130780
1002
}
  0
LINE
  5
6F4
330
686
100
AcDbEntity
  8
Basin-Dual_Mount-Grohe-Essence-39669000-39670000
100
AcDbLine
 10
9.458257977228015
 20
-13.8287050912064
 30
0.0
 11
9.452720182243723
 21
-13.83954357289225
 31
0.0
1001
REVIT
1002
{
1070
     1
1000
130780
1002
}
  0
LINE
  5
6F5
330
686
100
AcDbEntity
  8
Basin-Dual_Mount-Grohe-Essence-39669000-39670000
100
AcDbLine
 10
9.452720182243723
 20
-13.83954357289225
 30
0.0
 11
9.446753393238537
 21
-13.85015193221453
 31
0.0
1001
REVIT
1002
{
1070
     1
1000
130780
1002
}
  0
LINE
  5
6F6
330
686
100
AcDbEntity
  8
Basin-Dual_Mount-Grohe-Essence-39669000-39670000
100
AcDbLine
 10
9.446753393238537
 20
-13.85015193221453
 30
0.0
 11
9.440367155802022
 21
-13.8605131980613
 31
0.0
1001
REVIT
1002
{
1070
     1
1000
130780
1002
}
  0
LINE
  5
6F7
330
686
100
AcDbEntity
  8
Basin-Dual_Mount-Grohe-Essence-39669000-39670000
100
AcDbLine
 10
9.440367155802022
 20
-13.8605131980613
 30
0.0
 11
9.433571686551744
 21
-13.87061079461746
 31
0.0
1001
REVIT
1002
{
1070
     1
1000
130780
1002
}
  0
LINE
  5
6F8
330
686
100
AcDbEntity
  8
Basin-Dual_Mount-Grohe-Essence-39669000-39670000
100
AcDbLine
 10
9.433571686551744
 20
-13.87061079461746
 30
0.0
 11
9.426377856788889
 21
-13.88042856788264
 31
0.0
1001
REVIT
1002
{
1070
     1
1000
130780
1002
}
  0
LINE
  5
6F9
330
686
100
AcDbEntity
  8
Basin-Dual_Mount-Grohe-Essence-39669000-39670000
100
AcDbLine
 10
9.426377856788889
 20
-13.88042856788264
 30
0.0
 11
9.418797175106504
 21
-13.88995081151388
 31
0.0
1001
REVIT
1002
{
1070
     1
1000
130780
1002
}
  0
LINE
  5
6FA
330
686
100
AcDbEntity
  8
Basin-Dual_Mount-Grohe-Essence-39669000-39670000
100
AcDbLine
 10
9.418797175106504
 20
-13.88995081151388
 30
0.0
 11
9.410841768978087
 21
-13.89916229195275
 31
0.0
1001
REVIT
1002
{
1070
     1
1000
130780
1002
}
  0
LINE
  5
6FB
330
686
100
AcDbEntity
  8
Basin-Dual_Mount-Grohe-Essence-39669000-39670000
100
AcDbLine
 10
9.410841768978087
 20
-13.89916229195275
 30
0.0
 11
9.402524365356441
 21
-13.90804827279545
 31
0.0
1001
REVIT
1002
{
1070
     1
1000
130780
1002
}
  0
LINE
  5
6FC
330
686
100
AcDbEntity
  8
Basin-Dual_Mount-Grohe-Essence-39669000-39670000
100
AcDbLine
 10
9.402524365356441
 20
-13.90804827279545
 30
0.0
 11
9.393858270313046
 21
-13.91659453836833
 31
0.0
1001
REVIT
1002
{
1070
     1
1000
130780
1002
}
  0
LINE
  5
6FD
330
686
100
AcDbEntity
  8
Basin-Dual_Mount-Grohe-Essence-39669000-39670000
100
AcDbLine
 10
9.393858270313046
 20
-13.91659453836833
 30
0.0
 11
9.384857347751307
 21
-13.92478741646947
 31
0.0
1001
REVIT
1002
{
1070
     1
1000
130780
1002
}
  0
LINE
  5
6FE
330
686
100
AcDbEntity
  8
Basin-Dual_Mount-Grohe-Essence-39669000-39670000
100
AcDbLine
 10
9.384857347751307
 20
-13.92478741646947
 30
0.0
 11
9.375535997227245
 21
-13.93261380024172
 31
0.0
1001
REVIT
1002
{
1070
     1
1000
130780
1002
}
  0
LINE
  5
6FF
330
686
100
AcDbEntity
  8
Basin-Dual_Mount-Grohe-Essence-39669000-39670000
100
AcDbLine
 10
9.375535997227245
 20
-13.93261380024172
 30
0.0
 11
9.365909130913223
 21
-13.94006116914052
 31
0.0
1001
REVIT
1002
{
1070
     1
1000
130780
1002
}
  0
LINE
  5
700
330
686
100
AcDbEntity
  8
Basin-Dual_Mount-Grohe-Essence-39669000-39670000
100
AcDbLine
 10
9.365909130913223
 20
-13.94006116914052
 30
0.0
 11
9.355992149741751
 21
-13.94711760896434
 31
0.0
1001
REVIT
1002
{
1070
     1
1000
130780
1002
}
  0
LINE
  5
701
330
686
100
AcDbEntity
  8
Basin-Dual_Mount-Grohe-Essence-39669000-39670000
100
AcDbLine
 10
9.355992149741751
 20
-13.94711760896434
 30
0.0
 11
9.345800918767167
 21
-13.95377183091479
 31
0.0
1001
REVIT
1002
{
1070
     1
1000
130780
1002
}
  0
LINE
  5
702
330
686
100
AcDbEntity
  8
Basin-Dual_Mount-Grohe-Essence-39669000-39670000
100
AcDbLine
 10
9.345800918767167
 20
-13.95377183091479
 30
0.0
 11
9.335351741785018
 21
-13.96001318965621
 31
0.0
1001
REVIT
1002
{
1070
     1
1000
130780
1002
}
  0
LINE
  5
703
330
686
100
AcDbEntity
  8
Basin-Dual_Mount-Grohe-Essence-39669000-39670000
100
AcDbLine
 10
9.335351741785018
 20
-13.96001318965621
 30
0.0
 11
9.324661335249459
 21
-13.96583170034598
 31
0.0
1001
REVIT
1002
{
1070
     1
1000
130780
1002
}
  0
LINE
  5
704
330
686
100
AcDbEntity
  8
Basin-Dual_Mount-Grohe-Essence-39669000-39670000
100
AcDbLine
 10
9.324661335249459
 20
-13.96583170034598
 30
0.0
 11
9.313746801530442
 21
-13.97121805460831
 31
0.0
1001
REVIT
1002
{
1070
     1
1000
130780
1002
}
  0
LINE
  5
705
330
686
100
AcDbEntity
  8
Basin-Dual_Mount-Grohe-Essence-39669000-39670000
100
AcDbLine
 10
9.313746801530442
 20
-13.97121805460831
 30
0.0
 11
9.302625601553586
 21
-13.97616363542535
 31
0.0
1001
REVIT
1002
{
1070
     1
1000
130780
1002
}
  0
LINE
  5
706
330
686
100
AcDbEntity
  8
Basin-Dual_Mount-Grohe-Essence-39669000-39670000
100
AcDbLine
 10
9.302625601553586
 20
-13.97616363542535
 30
0.0
 11
9.291315526866497
 21
-13.98066053092283
 31
0.0
1001
REVIT
1002
{
1070
     1
1000
130780
1002
}
  0
LINE
  5
707
330
686
100
AcDbEntity
  8
Basin-Dual_Mount-Grohe-Essence-39669000-39670000
100
AcDbLine
 10
9.291315526866497
 20
-13.98066053092283
 30
0.0
 11
9.279834671175933
 21
-13.9847015470272
 31
0.0
1001
REVIT
1002
{
1070
     1
1000
130780
1002
}
  0
LINE
  5
708
330
686
100
AcDbEntity
  8
Basin-Dual_Mount-Grohe-Essence-39669000-39670000
100
AcDbLine
 10
9.279834671175933
 20
-13.9847015470272
 30
0.0
 11
9.268201401401938
 21
-13.98828021897474
 31
0.0
1001
REVIT
1002
{
1070
     1
1000
130780
1002
}
  0
LINE
  5
709
330
686
100
AcDbEntity
  8
Basin-Dual_Mount-Grohe-Essence-39669000-39670000
100
AcDbLine
 10
9.268201401401938
 20
-13.98828021897474
 30
0.0
 11
9.256434328294488
 21
-13.99139082165375
 31
0.0
1001
REVIT
1002
{
1070
     1
1000
130780
1002
}
  0
LINE
  5
70A
330
686
100
AcDbEntity
  8
Basin-Dual_Mount-Grohe-Essence-39669000-39670000
100
AcDbLine
 10
9.256434328294488
 20
-13.99139082165375
 30
0.0
 11
9.244552276660357
 21
-13.9940283787635
 31
0.0
1001
REVIT
1002
{
1070
     1
1000
130780
1002
}
  0
LINE
  5
70B
330
686
100
AcDbEntity
  8
Basin-Dual_Mount-Grohe-Essence-39669000-39670000
100
AcDbLine
 10
9.244552276660357
 20
-13.9940283787635
 30
0.0
 11
9.232574255247499
 21
-13.99618867077528
 31
0.0
1001
REVIT
1002
{
1070
     1
1000
130780
1002
}
  0
LINE
  5
70C
330
686
100
AcDbEntity
  8
Basin-Dual_Mount-Grohe-Essence-39669000-39670000
100
AcDbLine
 10
9.232574255247499
 20
-13.99618867077528
 30
0.0
 11
9.220519426335016
 21
-13.99786824168266
 31
0.0
1001
REVIT
1002
{
1070
     1
1000
130780
1002
}
  0
LINE
  5
70D
330
686
100
AcDbEntity
  8
Basin-Dual_Mount-Grohe-Essence-39669000-39670000
100
AcDbLine
 10
9.220519426335016
 20
-13.99786824168266
 30
0.0
 11
9.208407075077531
 21
-13.99906440453056
 31
0.0
1001
REVIT
1002
{
1070
     1
1000
130780
1002
}
  0
LINE
  5
70E
330
686
100
AcDbEntity
  8
Basin-Dual_Mount-Grohe-Essence-39669000-39670000
100
AcDbLine
 10
9.208407075077531
 20
-13.99906440453056
 30
0.0
 11
9.196256578653304
 21
-13.99977524571353
 31
0.0
1001
REVIT
1002
{
1070
     1
1000
130780
1002
}
  0
LINE
  5
70F
330
686
100
AcDbEntity
  8
Basin-Dual_Mount-Grohe-Essence-39669000-39670000
100
AcDbLine
 10
9.196256578653304
 20
-13.99977524571353
 30
0.0
 11
9.184563166824972
 21
-13.99999999999953
 31
0.0
1001
REVIT
1002
{
1070
     1
1000
130780
1002
}
  0
LINE
  5
710
330
686
100
AcDbEntity
  8
Basin-Dual_Mount-Grohe-Essence-39669000-39670000
100
AcDbLine
 10
9.488448214145165
 20
-13.71162385773824
 30
0.0
 11
10.00068833996678
 21
-3.937499999999502
 31
0.0
1001
REVIT
1002
{
1070
     1
1000
130780
1002
}
  0
LINE
  5
711
330
686
100
AcDbEntity
  8
Basin-Dual_Mount-Grohe-Essence-39669000-39670000
100
AcDbLine
 10
-0.0000000000000284
 20
-13.99999999999941
 30
0.0
 11
9.145892172866609
 21
-13.99999999999953
 31
0.0
1001
REVIT
1002
{
1070
     1
1000
130780
1002
}
  0
LINE
  5
712
330
686
100
AcDbEntity
  8
Basin-Dual_Mount-Grohe-Essence-39669000-39670000
100
AcDbLine
 10
-0.0000000000000284
 20
-3.93749999999936
 30
0.0
 11
14.27268240309644
 21
-3.937499999999275
 31
0.0
1001
REVIT
1002
{
1070
     1
1000
130780
1002
}
  0
LINE
  5
713
330
686
100
AcDbEntity
  8
Basin-Dual_Mount-Grohe-Essence-39669000-39670000
100
AcDbLine
 10
0.0
 20
-0.7808644891736521
 30
0.0
 11
0.0
 21
0.0
 31
0.0
  0
ENDBLK
  5
688
330
686
100
AcDbEntity
  8
0
100
AcDbBlockEnd
  0
ENDSEC
  0
SECTION
  2
ENTITIES
  0
INSERT
  5
5D5
330
70
100
AcDbEntity
  8
Basin-Dual_Mount-Grohe-Essence-39669000-39670000
100
AcDbBlockReference
  2
Basin-Dual_Mount-Grohe-Essence-39669000-39670000 Top View
 10
-6.565708013898067
 20
-24.00000000000009
 30
0.0
  0
INSERT
  5
685
330
70
100
AcDbEntity
  8
Basin-Dual_Mount-Grohe-Essence-39669000-39670000
100
AcDbBlockReference
  2
Basin-Dual_Mount-Grohe-Essence-39669000-39670000 Front View
 10
-6.565708013898287
 20
-77.03978333320993
 30
0.0
  0
INSERT
  5
714
330
70
100
AcDbEntity
  8
Basin-Dual_Mount-Grohe-Essence-39669000-39670000
100
AcDbBlockReference
  2
Basin-Dual_Mount-Grohe-Essence-39669000-39670000 Side View
 10
-54.0134681749455
 20
-77.03978333320994
 30
0.0
  0
ENDSEC
  0
SECTION
  2
OBJECTS
  0
DICTIONARY
  5
C
330
0
100
AcDbDictionary
281
     1
  3
ACAD_CIP_PREVIOUS_PRODUCT_INFO
350
79
  3
ACAD_COLOR
350
63
  3
ACAD_DETAILVIEWSTYLE
350
6A
  3
ACAD_GROUP
350
D
  3
ACAD_IMAGE_VARS
350
7A
  3
ACAD_LAYOUT
350
62
  3
ACAD_MATERIAL
350
10
  3
ACAD_MLEADERSTYLE
350
66
  3
ACAD_MLINESTYLE
350
5F
  3
ACAD_PLOTSETTINGS
350
61
  3
ACAD_PLOTSTYLENAME
350
E
  3
ACAD_SCALELIST
350
42
  3
ACAD_SECTIONVIEWSTYLE
350
68
  3
ACAD_TABLESTYLE
350
64
  3
ACAD_VISUALSTYLE
350
29
  3
ACDB_RECOMPOSE_DATA
350
728
  3
AcDbVariableDictionary
350
C1
  3
AcDsDecomposeData
350
72E
  3
AEC_PROPERTY_SET_DEFS
350
103
  3
REVIT_DICTIONARY
350
B7
  0
DICTIONARY
  5
71D
330
2
100
AcDbDictionary
280
     1
281
     1
  3
ACAD_LAYERSTATES
360
71E
  0
DICTIONARY
  5
BA
330
70
100
AcDbDictionary
280
     1
281
     1
  3
ACAD_SORTENTS
360
BB
  0
XRECORD
  5
79
102
{ACAD_REACTORS
330
C
102
}
330
C
100
AcDbXrecord
280
     1
300
ACD
300
2016
300
86445ACD_2016_0F
  0
DICTIONARY
  5
63
102
{ACAD_REACTORS
330
C
102
}
330
C
100
AcDbDictionary
281
     1
  0
DICTIONARY
  5
6A
102
{ACAD_REACTORS
330
C
102
}
330
C
100
AcDbDictionary
281
     1
  3
Imperial24
350
6B
  0
DICTIONARY
  5
D
102
{ACAD_REACTORS
330
C
102
}
330
C
100
AcDbDictionary
281
     1
  0
RASTERVARIABLES
  5
7A
102
{ACAD_REACTORS
330
C
102
}
330
C
100
AcDbRasterVariables
 90
        0
 70
     0
 71
     1
 72
     5
  0
DICTIONARY
  5
62
102
{ACAD_REACTORS
330
C
102
}
330
C
100
AcDbDictionary
281
     1
  3
Layout1
350
6F
  3
Layout2
350
77
  3
Model
350
73
  0
DICTIONARY
  5
10
102
{ACAD_REACTORS
330
C
102
}
330
C
100
AcDbDictionary
281
     1
  3
ByBlock
350
19
  3
ByLayer
350
11
  3
Global
350
21
  0
DICTIONARY
  5
66
102
{ACAD_REACTORS
330
C
102
}
330
C
100
AcDbDictionary
281
     1
  3
Standard
350
67
  0
DICTIONARY
  5
5F
102
{ACAD_REACTORS
330
C
102
}
330
C
100
AcDbDictionary
281
     1
  3
Standard
350
60
  0
DICTIONARY
  5
61
102
{ACAD_REACTORS
330
C
102
}
330
C
100
AcDbDictionary
281
     1
  0
ACDBDICTIONARYWDFLT
  5
E
102
{ACAD_REACTORS
330
C
102
}
330
C
100
AcDbDictionary
281
     1
  3
Normal
350
F
100
AcDbDictionaryWithDefault
340
F
  0
DICTIONARY
  5
42
102
{ACAD_REACTORS
330
C
102
}
330
C
100
AcDbDictionary
281
     1
  3
A0
350
43
  3
A1
350
44
  3
A2
350
45
  3
A3
350
46
  3
A4
350
47
  3
A5
350
48
  3
A6
350
49
  3
A7
350
4A
  3
A8
350
4B
  3
A9
350
4C
  3
B0
350
4D
  3
B1
350
4E
  3
B2
350
4F
  3
B3
350
50
  3
B4
350
51
  3
B5
350
52
  3
B6
350
53
  0
DICTIONARY
  5
68
102
{ACAD_REACTORS
330
C
102
}
330
C
100
AcDbDictionary
281
     1
  3
Imperial24
350
69
  0
DICTIONARY
  5
64
102
{ACAD_REACTORS
330
C
102
}
330
C
100
AcDbDictionary
281
     1
  3
Standard
350
65
  0
DICTIONARY
  5
29
102
{ACAD_REACTORS
330
C
102
}
330
C
100
AcDbDictionary
281
     1
  3
2dWireframe
350
2F
  3
Basic
350
2E
  3
Brighten
350
35
  3
ColorChange
350
39
  3
Conceptual
350
32
  3
Dim
350
34
  3
EdgeColorOff
350
41
  3
Facepattern
350
38
  3
Flat
350
2A
  3
FlatWithEdges
350
2B
  3
Gouraud
350
2C
  3
GouraudWithEdges
350
2D
  3
Hidden
350
31
  3
JitterOff
350
3F
  3
Linepattern
350
37
  3
OverhangOff
350
40
  3
Realistic
350
33
  3
Shaded
350
3E
  3
Shaded with edges
350
3D
  3
Shades of Gray
350
3A
  3
Sketchy
350
3B
  3
Thicken
350
36
  3
Wireframe
350
30
  3
X-Ray
350
3C
  0
XRECORD
  5
728
102
{ACAD_REACTORS
330
C
102
}
330
C
100
AcDbXrecord
280
     1
 90
        1
330
65
  0
DICTIONARY
  5
C1
102
{ACAD_REACTORS
330
C
102
}
330
C
100
AcDbDictionary
281
     1
  3
CANNOSCALE
350
C6
  3
CMLEADERSTYLE
350
C3
  3
CTABLESTYLE
350
C2
  3
CVIEWDETAILSTYLE
350
C4
  3
CVIEWSECTIONSTYLE
350
C5
  0
DICTIONARY
  5
72E
102
{ACAD_REACTORS
330
C
102
}
330
C
100
AcDbDictionary
281
     1
  3
AcDsRecords
350
730
  3
AcDsSchemas
350
72F
1001
ACAD
1070
     2
  0
DICTIONARY
  5
103
102
{ACAD_REACTORS
330
C
102
}
330
C
100
AcDbDictionary
281
     1
  0
DICTIONARY
  5
B7
102
{ACAD_REACTORS
330
C
102
}
330
C
100
AcDbDictionary
281
     1
  3
DRAWING_TOOL
350
B9
  3
REVIT_CATEGORY_MAPPING
350
B8
  0
DICTIONARY
  5
71E
102
{ACAD_REACTORS
330
71D
102
}
330
71D
100
AcDbDictionary
281
     1
  0
SORTENTSTABLE
  5
BB
102
{ACAD_REACTORS
330
BA
102
}
330
BA
100
AcDbSortentsTable
330
70
  0
ACDBDETAILVIEWSTYLE
  5
6B
102
{ACAD_XDICTIONARY
360
BE
102
}
102
{ACAD_REACTORS
330
6A
102
}
330
6A
100
AcDbModelDocViewStyle
 70
     0
  3
Imperial24
290
     0
100
AcDbDetailViewStyle
 70
     0
 71
     0
 90
        3
 71
     1
340
55
 62
   256
 40
0.24
340
0
 62
   256
 40
0.24
300

 40
0.36
280
     3
 71
     2
340
5D
 90
       25
 62
   256
 71
     3
340
55
 62
   256
 40
0.24
 90
        1
 40
0.75
 90
        1
300
%<\AcVar ViewType \f "%tc1">% %<\AcVar ViewDetailId>%\PSCALE %<\AcVar ViewScale \f "%sn">%
 71
     4
340
5D
 90
       25
 62
   256
340
5D
 90
       25
 62
   256
280
     0
  0
LAYOUT
  5
6F
102
{ACAD_REACTORS
330
62
102
}
330
62
100
AcDbPlotSettings
  1

  2

  4

  6

 40
0.0
 41
0.0
 42
0.0
 43
0.0
 44
0.0
 45
0.0
 46
0.0
 47
0.0
 48
0.0
 49
0.0
140
0.0
141
0.0
142
1.0
143
1.0
 70
   688
 72
     0
 73
     0
 74
     5
  7

 75
    16
147
1.0
 76
     0
 77
     2
 78
   300
148
0.0
149
0.0
100
AcDbLayout
  1
Layout1
 70
     1
 71
     1
 10
0.0
 20
0.0
 11
12.0
 21
9.0
 12
0.0
 22
0.0
 32
0.0
 14
1.000000000000000E+20
 24
1.000000000000000E+20
 34
1.000000000000000E+20
 15
-1.000000000000000E+20
 25
-1.000000000000000E+20
 35
-1.000000000000000E+20
146
0.0
 13
0.0
 23
0.0
 33
0.0
 16
1.0
 26
0.0
 36
0.0
 17
0.0
 27
1.0
 37
0.0
 76
     0
330
6C
  0
LAYOUT
  5
77
102
{ACAD_REACTORS
330
62
102
}
330
62
100
AcDbPlotSettings
  1

  2

  4

  6

 40
0.0
 41
0.0
 42
0.0
 43
0.0
 44
0.0
 45
0.0
 46
0.0
 47
0.0
 48
0.0
 49
0.0
140
0.0
141
0.0
142
1.0
143
1.0
 70
   688
 72
     0
 73
     0
 74
     5
  7

 75
    16
147
1.0
 76
     0
 77
     2
 78
   300
148
0.0
149
0.0
100
AcDbLayout
  1
Layout2
 70
     1
 71
     2
 10
0.0
 20
0.0
 11
12.0
 21
9.0
 12
0.0
 22
0.0
 32
0.0
 14
0.0
 24
0.0
 34
0.0
 15
0.0
 25
0.0
 35
0.0
146
0.0
 13
0.0
 23
0.0
 33
0.0
 16
1.0
 26
0.0
 36
0.0
 17
0.0
 27
1.0
 37
0.0
 76
     0
330
74
  0
LAYOUT
  5
73
102
{ACAD_REACTORS
330
62
102
}
330
62
100
AcDbPlotSettings
  1

  2

  4

  6

 40
0.0
 41
0.0
 42
0.0
 43
0.0
 44
0.0
 45
0.0
 46
0.0
 47
0.0
 48
0.0
 49
0.0
140
0.0
141
0.0
142
1.0
143
1.0
 70
  1712
 72
     0
 73
     0
 74
     0
  7

 75
     0
147
1.0
 76
     0
 77
     2
 78
   300
148
0.0
149
0.0
100
AcDbLayout
  1
Model
 70
     1
 71
     0
 10
0.0
 20
0.0
 11
12.0
 21
9.0
 12
0.0
 22
0.0
 32
0.0
 14
0.0
 24
0.0
 34
0.0
 15
0.0
 25
0.0
 35
0.0
146
0.0
 13
0.0
 23
0.0
 33
0.0
 16
1.0
 26
0.0
 36
0.0
 17
0.0
 27
1.0
 37
0.0
 76
     0
330
70
331
57
  0
MATERIAL
  5
19
102
{ACAD_XDICTIONARY
360
1A
102
}
102
{ACAD_REACTORS
330
10
102
}
330
10
100
AcDbMaterial
  1
ByBlock
 72
     0
 43
0.0208333333333333
 43
0.0
 43
0.0
 43
0.0
 43
0.0
 43
0.0208333333333333
 43
0.0
 43
0.0
 43
0.0
 43
0.0
 43
1.0
 43
0.0
 43
0.0
 43
0.0
 43
0.0
 43
1.0
 77
     0
 47
0.0208333333333333
 47
0.0
 47
0.0
 47
0.0
 47
0.0
 47
0.0208333333333333
 47
0.0
 47
0.0
 47
0.0
 47
0.0
 47
1.0
 47
0.0
 47
0.0
 47
0.0
 47
0.0
 47
1.0
171
     0
 49
0.0208333333333333
 49
0.0
 49
0.0
 49
0.0
 49
0.0
 49
0.0208333333333333
 49
0.0
 49
0.0
 49
0.0
 49
0.0
 49
1.0
 49
0.0
 49
0.0
 49
0.0
 49
0.0
 49
1.0
175
     0
142
0.0208333333333333
142
0.0
142
0.0
142
0.0
142
0.0
142
0.0208333333333333
142
0.0
142
0.0
142
0.0
142
0.0
142
1.0
142
0.0
142
0.0
142
0.0
142
0.0
142
1.0
179
     0
144
0.0208333333333333
144
0.0
144
0.0
144
0.0
144
0.0
144
0.0208333333333333
144
0.0
144
0.0
144
0.0
144
0.0
144
1.0
144
0.0
144
0.0
144
0.0
144
0.0
144
1.0
147
0.0208333333333333
147
0.0
147
0.0
147
0.0
147
0.0
147
0.0208333333333333
147
0.0
147
0.0
147
0.0
147
0.0
147
1.0
147
0.0
147
0.0
147
0.0
147
0.0
147
1.0
  0
MATERIAL
  5
11
102
{ACAD_XDICTIONARY
360
12
102
}
102
{ACAD_REACTORS
330
10
102
}
330
10
100
AcDbMaterial
  1
ByLayer
 72
     0
 43
0.0208333333333333
 43
0.0
 43
0.0
 43
0.0
 43
0.0
 43
0.0208333333333333
 43
0.0
 43
0.0
 43
0.0
 43
0.0
 43
1.0
 43
0.0
 43
0.0
 43
0.0
 43
0.0
 43
1.0
 77
     0
 47
0.0208333333333333
 47
0.0
 47
0.0
 47
0.0
 47
0.0
 47
0.0208333333333333
 47
0.0
 47
0.0
 47
0.0
 47
0.0
 47
1.0
 47
0.0
 47
0.0
 47
0.0
 47
0.0
 47
1.0
171
     0
 49
0.0208333333333333
 49
0.0
 49
0.0
 49
0.0
 49
0.0
 49
0.0208333333333333
 49
0.0
 49
0.0
 49
0.0
 49
0.0
 49
1.0
 49
0.0
 49
0.0
 49
0.0
 49
0.0
 49
1.0
175
     0
142
0.0208333333333333
142
0.0
142
0.0
142
0.0
142
0.0
142
0.0208333333333333
142
0.0
142
0.0
142
0.0
142
0.0
142
1.0
142
0.0
142
0.0
142
0.0
142
0.0
142
1.0
179
     0
144
0.0208333333333333
144
0.0
144
0.0
144
0.0
144
0.0
144
0.0208333333333333
144
0.0
144
0.0
144
0.0
144
0.0
144
1.0
144
0.0
144
0.0
144
0.0
144
0.0
144
1.0
147
0.0208333333333333
147
0.0
147
0.0
147
0.0
147
0.0
147
0.0208333333333333
147
0.0
147
0.0
147
0.0
147
0.0
147
1.0
147
0.0
147
0.0
147
0.0
147
0.0
147
1.0
  0
MATERIAL
  5
21
102
{ACAD_XDICTIONARY
360
22
102
}
102
{ACAD_REACTORS
330
10
102
}
330
10
100
AcDbMaterial
  1
Global
 72
     0
 43
0.0208333333333333
 43
0.0
 43
0.0
 43
0.0
 43
0.0
 43
0.0208333333333333
 43
0.0
 43
0.0
 43
0.0
 43
0.0
 43
1.0
 43
0.0
 43
0.0
 43
0.0
 43
0.0
 43
1.0
 77
     0
 47
0.0208333333333333
 47
0.0
 47
0.0
 47
0.0
 47
0.0
 47
0.0208333333333333
 47
0.0
 47
0.0
 47
0.0
 47
0.0
 47
1.0
 47
0.0
 47
0.0
 47
0.0
 47
0.0
 47
1.0
171
     0
 49
0.0208333333333333
 49
0.0
 49
0.0
 49
0.0
 49
0.0
 49
0.0208333333333333
 49
0.0
 49
0.0
 49
0.0
 49
0.0
 49
1.0
 49
0.0
 49
0.0
 49
0.0
 49
0.0
 49
1.0
175
     0
142
0.0208333333333333
142
0.0
142
0.0
142
0.0
142
0.0
142
0.0208333333333333
142
0.0
142
0.0
142
0.0
142
0.0
142
1.0
142
0.0
142
0.0
142
0.0
142
0.0
142
1.0
179
     0
144
0.0208333333333333
144
0.0
144
0.0
144
0.0
144
0.0
144
0.0208333333333333
144
0.0
144
0.0
144
0.0
144
0.0
144
1.0
144
0.0
144
0.0
144
0.0
144
0.0
144
1.0
147
0.0208333333333333
147
0.0
147
0.0
147
0.0
147
0.0
147
0.0208333333333333
147
0.0
147
0.0
147
0.0
147
0.0
147
1.0
147
0.0
147
0.0
147
0.0
147
0.0
147
1.0
  0
MLEADERSTYLE
  5
67
102
{ACAD_XDICTIONARY
360
761
102
}
102
{ACAD_REACTORS
330
66
102
}
330
66
100
AcDbMLeaderStyle
179
     2
170
     2
171
     1
172
     0
 90
        2
 40
0.0
 41
0.0
173
     1
 91
-1056964608
340
5B
 92
       -2
290
     1
 42
0.09
291
     1
 43
0.36
  3
Standard
 44
0.18
300

342
55
174
     1
178
     6
175
     1
176
     0
 93
-1056964608
 45
0.18
292
     0
297
     0
 46
0.18
 94
-1056964608
 47
1.0
 49
1.0
140
1.0
293
     1
141
0.0
294
     1
177
     0
142
1.0
295
     0
296
     0
143
0.125
271
     0
272
     9
273
     9
  0
MLINESTYLE
  5
60
102
{ACAD_REACTORS
330
5F
102
}
330
5F
100
AcDbMlineStyle
  2
STANDARD
 70
     0
  3

 62
   256
 51
90.0
 52
90.0
 71
     2
 49
0.5
 62
   256
  6
BYLAYER
 49
-0.5
 62
   256
  6
BYLAYER
  0
ACDBPLACEHOLDER
  5
F
102
{ACAD_REACTORS
330
E
102
}
330
E
  0
SCALE
  5
43
102
{ACAD_REACTORS
330
42
102
}
330
42
100
AcDbScale
 70
     0
300
1:1
140
1.0
141
1.0
290
     1
  0
SCALE
  5
44
102
{ACAD_REACTORS
330
42
102
}
330
42
100
AcDbScale
 70
     0
300
1/128" = 1'-0"
140
0.0078125
141
12.0
290
     0
  0
SCALE
  5
45
102
{ACAD_REACTORS
330
42
102
}
330
42
100
AcDbScale
 70
     0
300
1/64" = 1'-0"
140
0.015625
141
12.0
290
     0
  0
SCALE
  5
46
102
{ACAD_REACTORS
330
42
102
}
330
42
100
AcDbScale
 70
     0
300
1/32" = 1'-0"
140
0.03125
141
12.0
290
     0
  0
SCALE
  5
47
102
{ACAD_REACTORS
330
42
102
}
330
42
100
AcDbScale
 70
     0
300
1/16" = 1'-0"
140
0.0625
141
12.0
290
     0
  0
SCALE
  5
48
102
{ACAD_REACTORS
330
42
102
}
330
42
100
AcDbScale
 70
     0
300
3/32" = 1'-0"
140
0.09375
141
12.0
290
     0
  0
SCALE
  5
49
102
{ACAD_REACTORS
330
42
102
}
330
42
100
AcDbScale
 70
     0
300
1/8" = 1'-0"
140
0.125
141
12.0
290
     0
  0
SCALE
  5
4A
102
{ACAD_REACTORS
330
42
102
}
330
42
100
AcDbScale
 70
     0
300
3/16" = 1'-0"
140
0.1875
141
12.0
290
     0
  0
SCALE
  5
4B
102
{ACAD_REACTORS
330
42
102
}
330
42
100
AcDbScale
 70
     0
300
1/4" = 1'-0"
140
0.25
141
12.0
290
     0
  0
SCALE
  5
4C
102
{ACAD_REACTORS
330
42
102
}
330
42
100
AcDbScale
 70
     0
300
3/8" = 1'-0"
140
0.375
141
12.0
290
     0
  0
SCALE
  5
4D
102
{ACAD_REACTORS
330
42
102
}
330
42
100
AcDbScale
 70
     0
300
1/2" = 1'-0"
140
0.5
141
12.0
290
     0
  0
SCALE
  5
4E
102
{ACAD_REACTORS
330
42
102
}
330
42
100
AcDbScale
 70
     0
300
3/4" = 1'-0"
140
0.75
141
12.0
290
     0
  0
SCALE
  5
4F
102
{ACAD_REACTORS
330
42
102
}
330
42
100
AcDbScale
 70
     0
300
1" = 1'-0"
140
1.0
141
12.0
290
     0
  0
SCALE
  5
50
102
{ACAD_REACTORS
330
42
102
}
330
42
100
AcDbScale
 70
     0
300
1-1/2" = 1'-0"
140
1.5
141
12.0
290
     0
  0
SCALE
  5
51
102
{ACAD_REACTORS
330
42
102
}
330
42
100
AcDbScale
 70
     0
300
3" = 1'-0"
140
3.0
141
12.0
290
     0
  0
SCALE
  5
52
102
{ACAD_REACTORS
330
42
102
}
330
42
100
AcDbScale
 70
     0
300
6" = 1'-0"
140
6.0
141
12.0
290
     0
  0
SCALE
  5
53
102
{ACAD_REACTORS
330
42
102
}
330
42
100
AcDbScale
 70
     0
300
1'-0" = 1'-0"
140
12.0
141
12.0
290
     0
  0
ACDBSECTIONVIEWSTYLE
  5
69
102
{ACAD_XDICTIONARY
360
BC
102
}
102
{ACAD_REACTORS
330
68
102
}
330
68
100
AcDbModelDocViewStyle
 70
     0
  3
Imperial24
290
     0
100
AcDbSectionViewStyle
 70
     0
 71
     0
 90
       78
 71
     1
340
55
 62
   256
 40
0.24
340
0
340
0
 62
   256
 40
0.24
300
I, O, Q, S, X, Z
 40
0.48
 90
        3
 40
0.18
 90
        1
 71
     2
340
5D
 90
       25
 62
   256
340
5D
 90
       50
 62
   256
 40
0.24
 40
0.0
 40
0.24
 71
     3
340
55
 62
   256
 40
0.24
 90
        1
 40
0.75
 90
        1
300
%<\AcVar ViewType \f "%tc1">% %<\AcVar ViewSectionStartId>%-%<\AcVar ViewSectionEndId>%\PSCALE %<\AcVar ViewScale \f "%sn">%
 71
     4
 62
   256
 62
   257
300
ANSI31
 40
1.0
 90
        0
290
     0
290
     0
 90
        6
 40
0.0
 40
1.570796326794896
 40
0.2617993877991494
 40
1.308996938995747
 40
-0.2617993877991494
 40
1.832595714594046
  0
TABLESTYLE
  5
65
102
{ACAD_XDICTIONARY
360
726
102
}
102
{ACAD_REACTORS
330
64
102
}
330
64
100
AcDbTableStyle
280
     0
  3
Standard
 70
     0
 71
     0
 40
0.06
 41
0.06
280
     0
281
     0
  7
Standard
140
0.18
170
     2
 62
     0
 63
     7
283
     0
 90
      512
 91
        0
  1

274
    -2
284
     1
 64
     0
275
    -2
285
     1
 65
     0
276
    -2
286
     1
 66
     0
277
    -2
287
     1
 67
     0
278
    -2
288
     1
 68
     0
279
    -2
289
     1
 69
     0
  7
Standard
140
0.25
170
     5
 62
     0
 63
     7
283
     0
 90
      512
 91
        0
  1

274
    -2
284
     1
 64
     0
275
    -2
285
     1
 65
     0
276
    -2
286
     1
 66
     0
277
    -2
287
     1
 67
     0
278
    -2
288
     1
 68
     0
279
    -2
289
     1
 69
     0
  7
Standard
140
0.18
170
     5
 62
     0
 63
     7
283
     0
 90
      512
 91
        0
  1

274
    -2
284
     1
 64
     0
275
    -2
285
     1
 65
     0
276
    -2
286
     1
 66
     0
277
    -2
287
     1
 67
     0
278
    -2
288
     1
 68
     0
279
    -2
289
     1
 69
     0
  0
VISUALSTYLE
  5
2F
102
{ACAD_XDICTIONARY
360
73B
102
}
102
{ACAD_REACTORS
330
29
102
}
330
29
100
AcDbVisualStyle
  2
2dWireframe
 70
     4
177
     2
291
     0
 71
     0
176
     1
 72
     2
176
     1
 73
     0
176
     1
 90
        0
176
     1
 40
0.6
176
     1
 41
30.0
176
     1
 63
     7
421
 16777215
176
     1
 74
     1
176
     1
 91
        4
176
     1
 64
     7
176
     1
 65
   257
176
     1
 75
     1
176
     1
175
     1
176
     1
 42
1.0
176
     1
 92
        0
176
     1
 66
   257
176
     1
 43
1.0
176
     1
 76
     1
176
     1
 77
     6
176
     1
 78
     2
176
     1
 67
     7
176
     1
 79
     5
176
     1
170
     0
176
     1
171
     0
176
     1
290
     0
176
     1
 93
        1
176
     1
 44
0.0
176
     1
173
     0
176
     1
1001
ACAD
1000
AcDbSavedByObjectVersion
1070
     0
  0
VISUALSTYLE
  5
2E
102
{ACAD_XDICTIONARY
360
739
102
}
102
{ACAD_REACTORS
330
29
102
}
330
29
100
AcDbVisualStyle
  2
Basic
 70
     7
177
     2
291
     1
 71
     1
176
     1
 72
     0
176
     1
 73
     1
176
     1
 90
        0
176
     1
 40
0.6
176
     1
 41
30.0
176
     1
 63
     7
421
 16777215
176
     1
 74
     0
176
     1
 91
        4
176
     1
 64
     7
176
     1
 65
   257
176
     1
 75
     1
176
     1
175
     1
176
     1
 42
1.0
176
     1
 92
        8
176
     1
 66
     7
176
     1
 43
1.0
176
     1
 76
     1
176
     1
 77
     6
176
     1
 78
     2
176
     1
 67
     7
176
     1
 79
     5
176
     1
170
     0
176
     1
171
     0
176
     1
290
     0
176
     1
 93
        1
176
     1
 44
0.0
176
     1
173
     0
176
     1
1001
ACAD
1000
AcDbSavedByObjectVersion
1070
     0
  0
VISUALSTYLE
  5
35
102
{ACAD_XDICTIONARY
360
747
102
}
102
{ACAD_REACTORS
330
29
102
}
330
29
100
AcDbVisualStyle
  2
Brighten
 70
    12
177
     2
291
     1
 71
     2
176
     1
 72
     2
176
     1
 73
     0
176
     1
 90
        0
176
     1
 40
0.6
176
     1
 41
30.0
176
     1
 63
     7
421
 16777215
176
     1
 74
     1
176
     1
 91
        4
176
     1
 64
     7
176
     1
 65
   257
176
     1
 75
     1
176
     1
175
     1
176
     1
 42
1.0
176
     1
 92
        8
176
     1
 66
     7
176
     1
 43
1.0
176
     1
 76
     1
176
     1
 77
     6
176
     1
 78
     2
176
     1
 67
     7
176
     1
 79
     5
176
     1
170
     0
176
     1
171
     0
176
     1
290
     0
176
     1
 93
        1
176
     1
 44
50.0
176
     1
173
     0
176
     1
1001
ACAD
1000
AcDbSavedByObjectVersion
1070
     0
  0
VISUALSTYLE
  5
39
102
{ACAD_XDICTIONARY
360
74F
102
}
102
{ACAD_REACTORS
330
29
102
}
330
29
100
AcDbVisualStyle
  2
ColorChange
 70
    16
177
     2
291
     1
 71
     2
176
     1
 72
     2
176
     1
 73
     3
176
     1
 90
        0
176
     1
 40
0.6
176
     1
 41
30.0
176
     1
 63
     8
421
  8421504
176
     1
 74
     1
176
     1
 91
        4
176
     1
 64
     7
176
     1
 65
   257
176
     1
 75
     1
176
     1
175
     1
176
     1
 42
1.0
176
     1
 92
        8
176
     1
 66
     8
424
  8421504
176
     1
 43
1.0
176
     1
 76
     1
176
     1
 77
     6
176
     1
 78
     2
176
     1
 67
     7
176
     1
 79
     5
176
     1
170
     0
176
     1
171
     0
176
     1
290
     0
176
     1
 93
        1
176
     1
 44
0.0
176
     1
173
     0
176
     1
1001
ACAD
1000
AcDbSavedByObjectVersion
1070
     0
  0
VISUALSTYLE
  5
32
102
{ACAD_XDICTIONARY
360
741
102
}
102
{ACAD_REACTORS
330
29
102
}
330
29
100
AcDbVisualStyle
  2
Conceptual
 70
     9
177
     2
291
     0
 71
     3
176
     1
 72
     2
176
     1
 73
     0
176
     1
 90
        0
176
     1
 40
0.6
176
     1
 41
30.0
176
     1
 63
     7
421
 16777215
176
     1
 74
     2
176
     1
 91
        2
176
     1
 64
     7
176
     1
 65
   257
176
     1
 75
     1
176
     1
175
     1
176
     1
 42
179.0
176
     1
 92
        8
176
     1
 66
     7
176
     1
 43
1.0
176
     1
 76
     1
176
     1
 77
     6
176
     1
 78
     2
176
     1
 67
     7
176
     1
 79
     3
176
     1
170
     0
176
     1
171
     0
176
     1
290
     0
176
     1
 93
        1
176
     1
 44
0.0
176
     1
173
     0
176
     1
1001
ACAD
1000
AcDbSavedByObjectVersion
1070
     0
  0
VISUALSTYLE
  5
34
102
{ACAD_XDICTIONARY
360
745
102
}
102
{ACAD_REACTORS
330
29
102
}
330
29
100
AcDbVisualStyle
  2
Dim
 70
    11
177
     2
291
     1
 71
     2
176
     1
 72
     2
176
     1
 73
     0
176
     1
 90
        0
176
     1
 40
0.6
176
     1
 41
30.0
176
     1
 63
     7
421
 16777215
176
     1
 74
     1
176
     1
 91
        4
176
     1
 64
     7
176
     1
 65
   257
176
     1
 75
     1
176
     1
175
     1
176
     1
 42
1.0
176
     1
 92
        8
176
     1
 66
     7
176
     1
 43
1.0
176
     1
 76
     1
176
     1
 77
     6
176
     1
 78
     2
176
     1
 67
     7
176
     1
 79
     5
176
     1
170
     0
176
     1
171
     0
176
     1
290
     0
176
     1
 93
        1
176
     1
 44
-50.0
176
     1
173
     0
176
     1
1001
ACAD
1000
AcDbSavedByObjectVersion
1070
     0
  0
VISUALSTYLE
  5
41
102
{ACAD_XDICTIONARY
360
75F
102
}
102
{ACAD_REACTORS
330
29
102
}
330
29
100
AcDbVisualStyle
  2
EdgeColorOff
 70
    22
177
     2
291
     1
 71
     2
176
     0
 72
     2
176
     0
 73
     0
176
     0
 90
        0
176
     0
 40
0.6
176
     0
 41
30.0
176
     0
 63
     7
421
 16777215
176
     0
 74
     1
176
     0
 91
        4
176
     0
 64
     7
176
     0
 65
   257
176
     0
 75
     1
176
     0
175
     1
176
     0
 42
1.0
176
     0
 92
        8
176
     2
 66
     7
176
     0
 43
1.0
176
     0
 76
     1
176
     0
 77
     6
176
     0
 78
     2
176
     0
 67
     7
176
     0
 79
     5
176
     0
170
     0
176
     0
171
     0
176
     0
290
     0
176
     0
 93
        1
176
     0
 44
0.0
176
     0
173
     0
176
     0
1001
ACAD
1000
AcDbSavedByObjectVersion
1070
     0
  0
VISUALSTYLE
  5
38
102
{ACAD_XDICTIONARY
360
74D
102
}
102
{ACAD_REACTORS
330
29
102
}
330
29
100
AcDbVisualStyle
  2
Facepattern
 70
    15
177
     2
291
     1
 71
     2
176
     1
 72
     2
176
     1
 73
     0
176
     1
 90
        0
176
     1
 40
0.6
176
     1
 41
30.0
176
     1
 63
     7
421
 16777215
176
     1
 74
     1
176
     1
 91
        4
176
     1
 64
     7
176
     1
 65
   257
176
     1
 75
     1
176
     1
175
     1
176
     1
 42
1.0
176
     1
 92
        8
176
     1
 66
     7
176
     1
 43
1.0
176
     1
 76
     1
176
     1
 77
     6
176
     1
 78
     2
176
     1
 67
     7
176
     1
 79
     5
176
     1
170
     0
176
     1
171
     0
176
     1
290
     0
176
     1
 93
        1
176
     1
 44
0.0
176
     1
173
     0
176
     1
1001
ACAD
1000
AcDbSavedByObjectVersion
1070
     0
  0
VISUALSTYLE
  5
2A
102
{ACAD_XDICTIONARY
360
731
102
}
102
{ACAD_REACTORS
330
29
102
}
330
29
100
AcDbVisualStyle
  2
Flat
 70
     0
177
     2
291
     1
 71
     2
176
     1
 72
     1
176
     1
 73
     1
176
     1
 90
        2
176
     1
 40
0.6
176
     1
 41
30.0
176
     1
 63
     7
421
 16777215
176
     1
 74
     0
176
     1
 91
        0
176
     1
 64
     7
176
     1
 65
   257
176
     1
 75
     1
176
     1
175
     1
176
     1
 42
1.0
176
     1
 92
        8
176
     1
 66
     7
176
     1
 43
1.0
176
     1
 76
     1
176
     1
 77
     6
176
     1
 78
     2
176
     1
 67
     7
176
     1
 79
     5
176
     1
170
     0
176
     1
171
     0
176
     1
290
     0
176
     1
 93
       13
176
     1
 44
0.0
176
     1
173
     0
176
     1
1001
ACAD
1000
AcDbSavedByObjectVersion
1070
     0
  0
VISUALSTYLE
  5
2B
102
{ACAD_XDICTIONARY
360
733
102
}
102
{ACAD_REACTORS
330
29
102
}
330
29
100
AcDbVisualStyle
  2
FlatWithEdges
 70
     1
177
     2
291
     1
 71
     2
176
     1
 72
     1
176
     1
 73
     1
176
     1
 90
        2
176
     1
 40
0.6
176
     1
 41
30.0
176
     1
 63
     7
421
 16777215
176
     1
 74
     1
176
     1
 91
        0
176
     1
 64
     7
176
     1
 65
   257
176
     1
 75
     1
176
     1
175
     1
176
     1
 42
1.0
176
     1
 92
        0
176
     1
 66
   257
176
     1
 43
1.0
176
     1
 76
     1
176
     1
 77
     6
176
     1
 78
     2
176
     1
 67
     7
176
     1
 79
     5
176
     1
170
     0
176
     1
171
     0
176
     1
290
     0
176
     1
 93
       13
176
     1
 44
0.0
176
     1
173
     0
176
     1
1001
ACAD
1000
AcDbSavedByObjectVersion
1070
     0
  0
VISUALSTYLE
  5
2C
102
{ACAD_XDICTIONARY
360
735
102
}
102
{ACAD_REACTORS
330
29
102
}
330
29
100
AcDbVisualStyle
  2
Gouraud
 70
     2
177
     2
291
     1
 71
     2
176
     1
 72
     2
176
     1
 73
     1
176
     1
 90
        2
176
     1
 40
0.6
176
     1
 41
30.0
176
     1
 63
     7
421
 16777215
176
     1
 74
     0
176
     1
 91
        0
176
     1
 64
     7
176
     1
 65
   257
176
     1
 75
     1
176
     1
175
     1
176
     1
 42
1.0
176
     1
 92
        0
176
     1
 66
     7
176
     1
 43
1.0
176
     1
 76
     1
176
     1
 77
     6
176
     1
 78
     2
176
     1
 67
     7
176
     1
 79
     5
176
     1
170
     0
176
     1
171
     0
176
     1
290
     0
176
     1
 93
       13
176
     1
 44
0.0
176
     1
173
     0
176
     1
1001
ACAD
1000
AcDbSavedByObjectVersion
1070
     0
  0
VISUALSTYLE
  5
2D
102
{ACAD_XDICTIONARY
360
737
102
}
102
{ACAD_REACTORS
330
29
102
}
330
29
100
AcDbVisualStyle
  2
GouraudWithEdges
 70
     3
177
     2
291
     1
 71
     2
176
     1
 72
     2
176
     1
 73
     1
176
     1
 90
        2
176
     1
 40
0.6
176
     1
 41
30.0
176
     1
 63
     7
421
 16777215
176
     1
 74
     1
176
     1
 91
        0
176
     1
 64
     7
176
     1
 65
   257
176
     1
 75
     1
176
     1
175
     1
176
     1
 42
1.0
176
     1
 92
        0
176
     1
 66
   257
176
     1
 43
1.0
176
     1
 76
     1
176
     1
 77
     6
176
     1
 78
     2
176
     1
 67
     7
176
     1
 79
     5
176
     1
170
     0
176
     1
171
     0
176
     1
290
     0
176
     1
 93
       13
176
     1
 44
0.0
176
     1
173
     0
176
     1
1001
ACAD
1000
AcDbSavedByObjectVersion
1070
     0
  0
VISUALSTYLE
  5
31
102
{ACAD_XDICTIONARY
360
73F
102
}
102
{ACAD_REACTORS
330
29
102
}
330
29
100
AcDbVisualStyle
  2
Hidden
 70
     6
177
     2
291
     0
 71
     1
176
     1
 72
     2
176
     1
 73
     2
176
     1
 90
        0
176
     1
 40
0.6
176
     1
 41
30.0
176
     1
 63
     7
421
 16777215
176
     1
 74
     2
176
     1
 91
        2
176
     1
 64
     7
176
     1
 65
   257
176
     1
 75
     2
176
     1
175
     1
176
     1
 42
40.0
176
     1
 92
        0
176
     1
 66
   257
176
     1
 43
1.0
176
     1
 76
     1
176
     1
 77
     6
176
     1
 78
     2
176
     1
 67
     7
176
     1
 79
     3
176
     1
170
     0
176
     1
171
     0
176
     1
290
     0
176
     1
 93
        1
176
     1
 44
0.0
176
     1
173
     0
176
     1
1001
ACAD
1000
AcDbSavedByObjectVersion
1070
     0
  0
VISUALSTYLE
  5
3F
102
{ACAD_XDICTIONARY
360
75B
102
}
102
{ACAD_REACTORS
330
29
102
}
330
29
100
AcDbVisualStyle
  2
JitterOff
 70
    20
177
     2
291
     1
 71
     2
176
     0
 72
     2
176
     0
 73
     0
176
     0
 90
        0
176
     0
 40
0.6
176
     0
 41
30.0
176
     0
 63
     7
421
 16777215
176
     0
 74
     1
176
     0
 91
        4
176
     0
 64
     7
176
     0
 65
   257
176
     0
 75
     1
176
     0
175
     1
176
     0
 42
1.0
176
     0
 92
       10
176
     2
 66
     7
176
     0
 43
1.0
176
     0
 76
     1
176
     0
 77
     6
176
     0
 78
     2
176
     0
 67
     7
176
     0
 79
     5
176
     0
170
     0
176
     0
171
     0
176
     0
290
     0
176
     0
 93
        1
176
     0
 44
0.0
176
     0
173
     0
176
     0
1001
ACAD
1000
AcDbSavedByObjectVersion
1070
     0
  0
VISUALSTYLE
  5
37
102
{ACAD_XDICTIONARY
360
74B
102
}
102
{ACAD_REACTORS
330
29
102
}
330
29
100
AcDbVisualStyle
  2
Linepattern
 70
    14
177
     2
291
     1
 71
     2
176
     1
 72
     2
176
     1
 73
     0
176
     1
 90
        0
176
     1
 40
0.6
176
     1
 41
30.0
176
     1
 63
     7
421
 16777215
176
     1
 74
     1
176
     1
 91
        4
176
     1
 64
     7
176
     1
 65
   257
176
     1
 75
     7
176
     1
175
     7
176
     1
 42
1.0
176
     1
 92
        8
176
     1
 66
     7
176
     1
 43
1.0
176
     1
 76
     1
176
     1
 77
     6
176
     1
 78
     2
176
     1
 67
     7
176
     1
 79
     5
176
     1
170
     0
176
     1
171
     0
176
     1
290
     0
176
     1
 93
        1
176
     1
 44
0.0
176
     1
173
     0
176
     1
1001
ACAD
1000
AcDbSavedByObjectVersion
1070
     0
  0
VISUALSTYLE
  5
40
102
{ACAD_XDICTIONARY
360
75D
102
}
102
{ACAD_REACTORS
330
29
102
}
330
29
100
AcDbVisualStyle
  2
OverhangOff
 70
    21
177
     2
291
     1
 71
     2
176
     0
 72
     2
176
     0
 73
     0
176
     0
 90
        0
176
     0
 40
0.6
176
     0
 41
30.0
176
     0
 63
     7
421
 16777215
176
     0
 74
     1
176
     0
 91
        4
176
     0
 64
     7
176
     0
 65
   257
176
     0
 75
     1
176
     0
175
     1
176
     0
 42
1.0
176
     0
 92
        9
176
     2
 66
     7
176
     0
 43
1.0
176
     0
 76
     1
176
     0
 77
     6
176
     0
 78
     2
176
     0
 67
     7
176
     0
 79
     5
176
     0
170
     0
176
     0
171
     0
176
     0
290
     0
176
     0
 93
        1
176
     0
 44
0.0
176
     0
173
     0
176
     0
1001
ACAD
1000
AcDbSavedByObjectVersion
1070
     0
  0
VISUALSTYLE
  5
33
102
{ACAD_XDICTIONARY
360
743
102
}
102
{ACAD_REACTORS
330
29
102
}
330
29
100
AcDbVisualStyle
  2
Realistic
 70
     8
177
     2
291
     0
 71
     2
176
     1
 72
     3
176
     1
 73
     0
176
     1
 90
        2
176
     1
 40
0.6
176
     1
 41
30.0
176
     1
 63
     7
421
 16777215
176
     1
 74
     0
176
     1
 91
        0
176
     1
 64
     7
176
     1
 65
   257
176
     1
 75
     1
176
     1
175
     1
176
     1
 42
1.0
176
     1
 92
        8
176
     1
 66
   257
176
     1
 43
1.0
176
     1
 76
     1
176
     1
 77
     6
176
     1
 78
     2
176
     1
 67
     7
176
     1
 79
     3
176
     1
170
     0
176
     1
171
     0
176
     1
290
     0
176
     1
 93
       13
176
     1
 44
0.0
176
     1
173
     0
176
     1
1001
ACAD
1000
AcDbSavedByObjectVersion
1070
     0
  0
VISUALSTYLE
  5
3E
102
{ACAD_XDICTIONARY
360
759
102
}
102
{ACAD_REACTORS
330
29
102
}
330
29
100
AcDbVisualStyle
  2
Shaded
 70
    27
177
     2
291
     0
 71
     2
176
     1
 72
     2
176
     1
 73
     1
176
     1
 90
        2
176
     1
 40
0.6
176
     1
 41
30.0
176
     1
 63
     7
421
 16777215
176
     1
 74
     0
176
     1
 91
        4
176
     1
 64
     7
176
     1
 65
   257
176
     1
 75
     1
176
     1
175
     1
176
     1
 42
1.0
176
     1
 92
        8
176
     1
 66
   257
176
     1
 43
1.0
176
     1
 76
     1
176
     1
 77
     6
176
     1
 78
     2
176
     1
 67
     8
425
  7895160
176
     1
 79
     3
176
     1
170
     0
176
     1
171
     0
176
     1
290
     0
176
     1
 93
        5
176
     1
 44
0.0
176
     1
173
     0
176
     1
1001
ACAD
1000
AcDbSavedByObjectVersion
1070
     0
  0
VISUALSTYLE
  5
3D
102
{ACAD_XDICTIONARY
360
757
102
}
102
{ACAD_REACTORS
330
29
102
}
330
29
100
AcDbVisualStyle
  2
Shaded with edges
 70
    26
177
     2
291
     0
 71
     2
176
     1
 72
     2
176
     1
 73
     1
176
     1
 90
        2
176
     1
 40
0.6
176
     1
 41
30.0
176
     1
 63
     7
421
 16777215
176
     1
 74
     1
176
     1
 91
       10
176
     1
 64
     7
176
     1
 65
   257
176
     1
 75
     2
176
     1
175
     1
176
     1
 42
1.0
176
     1
 92
        8
176
     1
 66
   257
176
     1
 43
1.0
176
     1
 76
     1
176
     1
 77
     6
176
     1
 78
     2
176
     1
 67
     7
176
     1
 79
     3
176
     1
170
     0
176
     1
171
     0
176
     1
290
     0
176
     1
 93
        5
176
     1
 44
0.0
176
     1
173
     0
176
     1
1001
ACAD
1000
AcDbSavedByObjectVersion
1070
     0
  0
VISUALSTYLE
  5
3A
102
{ACAD_XDICTIONARY
360
751
102
}
102
{ACAD_REACTORS
330
29
102
}
330
29
100
AcDbVisualStyle
  2
Shades of Gray
 70
    23
177
     2
291
     0
 71
     2
176
     1
 72
     2
176
     1
 73
     3
176
     1
 90
        0
176
     1
 40
0.6
176
     1
 41
30.0
176
     1
 63
     7
421
 16777215
176
     1
 74
     2
176
     1
 91
        2
176
     1
 64
     7
176
     1
 65
     7
176
     1
 75
     1
176
     1
175
     1
176
     1
 42
40.0
176
     1
 92
        8
176
     1
 66
     7
176
     1
 43
1.0
176
     1
 76
     1
176
     1
 77
     6
176
     1
 78
     2
176
     1
 67
     7
176
     1
 79
     3
176
     1
170
     0
176
     1
171
     0
176
     1
290
     0
176
     1
 93
        1
176
     1
 44
0.0
176
     1
173
     0
176
     1
1001
ACAD
1000
AcDbSavedByObjectVersion
1070
     0
  0
VISUALSTYLE
  5
3B
102
{ACAD_XDICTIONARY
360
753
102
}
102
{ACAD_REACTORS
330
29
102
}
330
29
100
AcDbVisualStyle
  2
Sketchy
 70
    24
177
     2
291
     0
 71
     1
176
     1
 72
     2
176
     1
 73
     2
176
     1
 90
        0
176
     1
 40
0.6
176
     1
 41
30.0
176
     1
 63
     7
421
 16777215
176
     1
 74
     2
176
     1
 91
        2
176
     1
 64
     7
176
     1
 65
     7
176
     1
 75
     1
176
     1
175
     1
176
     1
 42
40.0
176
     1
 92
       11
176
     1
 66
     7
176
     1
 43
1.0
176
     1
 76
     1
176
     1
 77
     6
176
     1
 78
     2
176
     1
 67
     7
176
     1
 79
     6
176
     1
170
     0
176
     1
171
     0
176
     1
290
     0
176
     1
 93
        1
176
     1
 44
0.0
176
     1
173
     0
176
     1
1001
ACAD
1000
AcDbSavedByObjectVersion
1070
     0
  0
VISUALSTYLE
  5
36
102
{ACAD_XDICTIONARY
360
749
102
}
102
{ACAD_REACTORS
330
29
102
}
330
29
100
AcDbVisualStyle
  2
Thicken
 70
    13
177
     2
291
     1
 71
     2
176
     1
 72
     2
176
     1
 73
     0
176
     1
 90
        0
176
     1
 40
0.6
176
     1
 41
30.0
176
     1
 63
     7
421
 16777215
176
     1
 74
     1
176
     1
 91
        4
176
     1
 64
     7
176
     1
 65
   257
176
     1
 75
     1
176
     1
175
     1
176
     1
 42
1.0
176
     1
 92
       12
176
     1
 66
     7
176
     1
 43
1.0
176
     1
 76
     1
176
     1
 77
     6
176
     1
 78
     2
176
     1
 67
     7
176
     1
 79
     5
176
     1
170
     0
176
     1
171
     0
176
     1
290
     0
176
     1
 93
        1
176
     1
 44
0.0
176
     1
173
     0
176
     1
1001
ACAD
1000
AcDbSavedByObjectVersion
1070
     0
  0
VISUALSTYLE
  5
30
102
{ACAD_XDICTIONARY
360
73D
102
}
102
{ACAD_REACTORS
330
29
102
}
330
29
100
AcDbVisualStyle
  2
Wireframe
 70
     5
177
     2
291
     0
 71
     0
176
     1
 72
     2
176
     1
 73
     0
176
     1
 90
        0
176
     1
 40
0.6
176
     1
 41
30.0
176
     1
 63
     7
421
 16777215
176
     1
 74
     1
176
     1
 91
        4
176
     1
 64
     7
176
     1
 65
   257
176
     1
 75
     1
176
     1
175
     1
176
     1
 42
1.0
176
     1
 92
        0
176
     1
 66
   257
176
     1
 43
1.0
176
     1
 76
     1
176
     1
 77
     6
176
     1
 78
     2
176
     1
 67
     7
176
     1
 79
     3
176
     1
170
     0
176
     1
171
     0
176
     1
290
     0
176
     1
 93
        1
176
     1
 44
0.0
176
     1
173
     0
176
     1
1001
ACAD
1000
AcDbSavedByObjectVersion
1070
     0
  0
VISUALSTYLE
  5
3C
102
{ACAD_XDICTIONARY
360
755
102
}
102
{ACAD_REACTORS
330
29
102
}
330
29
100
AcDbVisualStyle
  2
X-Ray
 70
    25
177
     2
291
     0
 71
     2
176
     1
 72
     2
176
     1
 73
     1
176
     1
 90
        1
176
     1
 40
0.5
176
     1
 41
30.0
176
     1
 63
     7
421
 16777215
176
     1
 74
     1
176
     1
 91
        0
176
     1
 64
     7
176
     1
 65
   257
176
     1
 75
     1
176
     1
175
     1
176
     1
 42
1.0
176
     1
 92
        8
176
     1
 66
     7
176
     1
 43
1.0
176
     1
 76
     1
176
     1
 77
     6
176
     1
 78
     2
176
     1
 67
     7
176
     1
 79
     3
176
     1
170
     0
176
     1
171
     0
176
     1
290
     0
176
     1
 93
       13
176
     1
 44
0.0
176
     1
173
     0
176
     1
1001
ACAD
1000
AcDbSavedByObjectVersion
1070
     0
  0
DICTIONARYVAR
  5
C6
102
{ACAD_REACTORS
330
C1
102
}
330
C1
100
DictionaryVariables
280
     0
  1
1:1
  0
DICTIONARYVAR
  5
C3
102
{ACAD_REACTORS
330
C1
102
}
330
C1
100
DictionaryVariables
280
     0
  1
STANDARD
  0
DICTIONARYVAR
  5
C2
102
{ACAD_REACTORS
330
C1
102
}
330
C1
100
DictionaryVariables
280
     0
  1
STANDARD
  0
DICTIONARYVAR
  5
C4
102
{ACAD_REACTORS
330
C1
102
}
330
C1
100
DictionaryVariables
280
     0
  1
Imperial24
  0
DICTIONARYVAR
  5
C5
102
{ACAD_REACTORS
330
C1
102
}
330
C1
100
DictionaryVariables
280
     0
  1
Imperial24
  0
DICTIONARY
  5
730
102
{ACAD_REACTORS
330
72E
102
}
330
72E
100
AcDbDictionary
281
     1
  0
DICTIONARY
  5
72F
102
{ACAD_REACTORS
330
72E
102
}
330
72E
100
AcDbDictionary
281
     1
  3
140694880596496
350
729
  3
140694880596512
350
72A
  3
140694880596528
350
72B
  3
140694880596544
350
72C
  3
140694880596560
350
72D
  0
XRECORD
  5
B9
102
{ACAD_REACTORS
330
B7
102
}
330
B7
100
AcDbXrecord
280
     1
  1
BUILDING_ID
  1
Basin-Dual_Mount-Grohe-Essence-3966_Series
  1
FLOOR_ID
  1
1892
  0
XRECORD
  5
B8
102
{ACAD_REACTORS
330
B7
102
}
330
B7
100
AcDbXrecord
280
     1
  1
-2000051
  1
Lines
  1
-2001160
  1
Plumbing Fixtures
  0
DICTIONARY
  5
BE
330
6B
100
AcDbDictionary
280
     1
281
     1
  3
ACAD_XREC_ROUNDTRIP
360
764
  0
DICTIONARY
  5
1A
330
19
100
AcDbDictionary
280
     1
281
     1
  3
BUMPTILE
360
1C
  3
DIFFUSETILE
360
1B
  3
OPACITYTILE
360
1F
  3
REFLECTIONTILE
360
1E
  3
REFRACTIONTILE
360
20
  3
SPECULARTILE
360
1D
  0
DICTIONARY
  5
12
330
11
100
AcDbDictionary
280
     1
281
     1
  3
BUMPTILE
360
14
  3
DIFFUSETILE
360
13
  3
OPACITYTILE
360
17
  3
REFLECTIONTILE
360
16
  3
REFRACTIONTILE
360
18
  3
SPECULARTILE
360
15
  0
DICTIONARY
  5
22
330
21
100
AcDbDictionary
280
     1
281
     1
  3
BUMPTILE
360
24
  3
DIFFUSETILE
360
23
  3
OPACITYTILE
360
27
  3
REFLECTIONTILE
360
26
  3
REFRACTIONTILE
360
28
  3
SPECULARTILE
360
25
  0
DICTIONARY
  5
761
330
67
100
AcDbDictionary
280
     1
281
     1
  3
ACAD_XREC_ROUNDTRIP
360
762
  0
DICTIONARY
  5
BC
330
69
100
AcDbDictionary
280
     1
281
     1
  3
ACAD_XREC_ROUNDTRIP
360
763
  0
DICTIONARY
  5
726
330
65
100
AcDbDictionary
280
     1
281
     1
  3
ACAD_ROUNDTRIP_2008_TABLESTYLE_CELLSTYLEMAP
360
727
  0
DICTIONARY
  5
73B
330
2F
100
AcDbDictionary
280
     1
281
     1
  3
ACAD_XREC_ROUNDTRIP
360
73C
  0
DICTIONARY
  5
739
330
2E
100
AcDbDictionary
280
     1
281
     1
  3
ACAD_XREC_ROUNDTRIP
360
73A
  0
DICTIONARY
  5
747
330
35
100
AcDbDictionary
280
     1
281
     1
  3
ACAD_XREC_ROUNDTRIP
360
748
  0
DICTIONARY
  5
74F
330
39
100
AcDbDictionary
280
     1
281
     1
  3
ACAD_XREC_ROUNDTRIP
360
750
  0
DICTIONARY
  5
741
330
32
100
AcDbDictionary
280
     1
281
     1
  3
ACAD_XREC_ROUNDTRIP
360
742
  0
DICTIONARY
  5
745
330
34
100
AcDbDictionary
280
     1
281
     1
  3
ACAD_XREC_ROUNDTRIP
360
746
  0
DICTIONARY
  5
75F
330
41
100
AcDbDictionary
280
     1
281
     1
  3
ACAD_XREC_ROUNDTRIP
360
760
  0
DICTIONARY
  5
74D
330
38
100
AcDbDictionary
280
     1
281
     1
  3
ACAD_XREC_ROUNDTRIP
360
74E
  0
DICTIONARY
  5
731
330
2A
100
AcDbDictionary
280
     1
281
     1
  3
ACAD_XREC_ROUNDTRIP
360
732
  0
DICTIONARY
  5
733
330
2B
100
AcDbDictionary
280
     1
281
     1
  3
ACAD_XREC_ROUNDTRIP
360
734
  0
DICTIONARY
  5
735
330
2C
100
AcDbDictionary
280
     1
281
     1
  3
ACAD_XREC_ROUNDTRIP
360
736
  0
DICTIONARY
  5
737
330
2D
100
AcDbDictionary
280
     1
281
     1
  3
ACAD_XREC_ROUNDTRIP
360
738
  0
DICTIONARY
  5
73F
330
31
100
AcDbDictionary
280
     1
281
     1
  3
ACAD_XREC_ROUNDTRIP
360
740
  0
DICTIONARY
  5
75B
330
3F
100
AcDbDictionary
280
     1
281
     1
  3
ACAD_XREC_ROUNDTRIP
360
75C
  0
DICTIONARY
  5
74B
330
37
100
AcDbDictionary
280
     1
281
     1
  3
ACAD_XREC_ROUNDTRIP
360
74C
  0
DICTIONARY
  5
75D
330
40
100
AcDbDictionary
280
     1
281
     1
  3
ACAD_XREC_ROUNDTRIP
360
75E
  0
DICTIONARY
  5
743
330
33
100
AcDbDictionary
280
     1
281
     1
  3
ACAD_XREC_ROUNDTRIP
360
744
  0
DICTIONARY
  5
759
330
3E
100
AcDbDictionary
280
     1
281
     1
  3
ACAD_XREC_ROUNDTRIP
360
75A
  0
DICTIONARY
  5
757
330
3D
100
AcDbDictionary
280
     1
281
     1
  3
ACAD_XREC_ROUNDTRIP
360
758
  0
DICTIONARY
  5
751
330
3A
100
AcDbDictionary
280
     1
281
     1
  3
ACAD_XREC_ROUNDTRIP
360
752
  0
DICTIONARY
  5
753
330
3B
100
AcDbDictionary
280
     1
281
     1
  3
ACAD_XREC_ROUNDTRIP
360
754
  0
DICTIONARY
  5
749
330
36
100
AcDbDictionary
280
     1
281
     1
  3
ACAD_XREC_ROUNDTRIP
360
74A
  0
DICTIONARY
  5
73D
330
30
100
AcDbDictionary
280
     1
281
     1
  3
ACAD_XREC_ROUNDTRIP
360
73E
  0
DICTIONARY
  5
755
330
3C
100
AcDbDictionary
280
     1
281
     1
  3
ACAD_XREC_ROUNDTRIP
360
756
  0
XRECORD
  5
729
102
{ACAD_REACTORS
330
72F
102
}
330
72F
100
AcDbXrecord
280
     1
  1
AcDb_Thumbnail_Schema
102
{ATTRRECORD
341
72A
  2
AcDbDs::TreatedAsObjectData
280
     1
291
     1
102
ATTRRECORD}
102
{ATTRRECORD
341
72B
  2
AcDbDs::Legacy
280
     1
291
     1
102
ATTRRECORD}
  2
AcDbDs::ID
280
    10
 91
        8
102
{ATTRRECORD
341
72C
  2
AcDs:Indexable
280
     1
291
     1
102
ATTRRECORD}
102
{ATTRRECORD
341
72D
  2
AcDbDs::HandleAttribute
280
     7
282
     1
102
ATTRRECORD}
  2
Thumbnail_Data
280
    15
 91
        0
  0
XRECORD
  5
72A
102
{ACAD_REACTORS
330
72F
102
}
330
72F
100
AcDbXrecord
280
     1
  1
AcDbDs::TreatedAsObjectDataSchema
  2
AcDbDs::TreatedAsObjectData
280
     1
 91
        0
  0
XRECORD
  5
72B
102
{ACAD_REACTORS
330
72F
102
}
330
72F
100
AcDbXrecord
280
     1
  1
AcDbDs::LegacySchema
  2
AcDbDs::Legacy
280
     1
 91
        0
  0
XRECORD
  5
72C
102
{ACAD_REACTORS
330
72F
102
}
330
72F
100
AcDbXrecord
280
     1
  1
AcDbDs::IndexedPropertySchema
  2
AcDs:Indexable
280
     1
 91
        0
  0
XRECORD
  5
72D
102
{ACAD_REACTORS
330
72F
102
}
330
72F
100
AcDbXrecord
280
     1
  1
AcDbDs::HandleAttributeSchema
  2
AcDbDs::HandleAttribute
280
     7
 91
        1
284
     1
  0
XRECORD
  5
764
102
{ACAD_REACTORS
330
BE
102
}
330
BE
100
AcDbXrecord
280
     1
102
DISPLAYNAME
  1
Imperial24
102
FLAGS
 90
        0
  0
XRECORD
  5
1C
102
{ACAD_REACTORS
330
1A
102
}
330
1A
100
AcDbXrecord
280
     1
270
     1
271
     1
  0
XRECORD
  5
1B
102
{ACAD_REACTORS
330
1A
102
}
330
1A
100
AcDbXrecord
280
     1
270
     1
271
     1
  0
XRECORD
  5
1F
102
{ACAD_REACTORS
330
1A
102
}
330
1A
100
AcDbXrecord
280
     1
270
     1
271
     1
  0
XRECORD
  5
1E
102
{ACAD_REACTORS
330
1A
102
}
330
1A
100
AcDbXrecord
280
     1
270
     1
271
     1
  0
XRECORD
  5
20
102
{ACAD_REACTORS
330
1A
102
}
330
1A
100
AcDbXrecord
280
     1
270
     1
271
     1
  0
XRECORD
  5
1D
102
{ACAD_REACTORS
330
1A
102
}
330
1A
100
AcDbXrecord
280
     1
270
     1
271
     1
  0
XRECORD
  5
14
102
{ACAD_REACTORS
330
12
102
}
330
12
100
AcDbXrecord
280
     1
270
     1
271
     1
  0
XRECORD
  5
13
102
{ACAD_REACTORS
330
12
102
}
330
12
100
AcDbXrecord
280
     1
270
     1
271
     1
  0
XRECORD
  5
17
102
{ACAD_REACTORS
330
12
102
}
330
12
100
AcDbXrecord
280
     1
270
     1
271
     1
  0
XRECORD
  5
16
102
{ACAD_REACTORS
330
12
102
}
330
12
100
AcDbXrecord
280
     1
270
     1
271
     1
  0
XRECORD
  5
18
102
{ACAD_REACTORS
330
12
102
}
330
12
100
AcDbXrecord
280
     1
270
     1
271
     1
  0
XRECORD
  5
15
102
{ACAD_REACTORS
330
12
102
}
330
12
100
AcDbXrecord
280
     1
270
     1
271
     1
  0
XRECORD
  5
24
102
{ACAD_REACTORS
330
22
102
}
330
22
100
AcDbXrecord
280
     1
270
     1
271
     1
  0
XRECORD
  5
23
102
{ACAD_REACTORS
330
22
102
}
330
22
100
AcDbXrecord
280
     1
270
     1
271
     1
  0
XRECORD
  5
27
102
{ACAD_REACTORS
330
22
102
}
330
22
100
AcDbXrecord
280
     1
270
     1
271
     1
  0
XRECORD
  5
26
102
{ACAD_REACTORS
330
22
102
}
330
22
100
AcDbXrecord
280
     1
270
     1
271
     1
  0
XRECORD
  5
28
102
{ACAD_REACTORS
330
22
102
}
330
22
100
AcDbXrecord
280
     1
270
     1
271
     1
  0
XRECORD
  5
25
102
{ACAD_REACTORS
330
22
102
}
330
22
100
AcDbXrecord
280
     1
270
     1
271
     1
  0
XRECORD
  5
762
102
{ACAD_REACTORS
330
761
102
}
330
761
100
AcDbXrecord
280
     1
102
ACAD_ROUNDTRIP_2012_MLEADER_STYLE
298
     1
  0
XRECORD
  5
763
102
{ACAD_REACTORS
330
BC
102
}
330
BC
100
AcDbXrecord
280
     1
102
DISPLAYNAME
  1
Imperial24
102
FLAGS
 90
        0
  0
CELLSTYLEMAP
  5
727
102
{ACAD_REACTORS
330
726
102
}
330
726
100
AcDbCellStyleMap
 90
        3
300
CELLSTYLE
  1
TABLEFORMAT_BEGIN
 90
        5
170
     1
 91
        0
 92
    32768
 62
   257
 93
        1
300
CONTENTFORMAT
  1
CONTENTFORMAT_BEGIN
 90
        0
 91
        0
 92
      512
 93
        0
300

 40
0.0
140
1.0
 94
        5
 62
     0
340
55
144
0.25
309
CONTENTFORMAT_END
171
     0
 94
        0
309
TABLEFORMAT_END
  1
CELLSTYLE_BEGIN
 90
        1
 91
        1
300
_TITLE
309
CELLSTYLE_END
300
CELLSTYLE
  1
TABLEFORMAT_BEGIN
 90
        5
170
     1
 91
        0
 92
        0
 62
   257
 93
        1
300
CONTENTFORMAT
  1
CONTENTFORMAT_BEGIN
 90
        0
 91
        0
 92
      512
 93
        0
300

 40
0.0
140
1.0
 94
        5
 62
     0
340
55
144
0.18
309
CONTENTFORMAT_END
171
     0
 94
        0
309
TABLEFORMAT_END
  1
CELLSTYLE_BEGIN
 90
        2
 91
        1
300
_HEADER
309
CELLSTYLE_END
300
CELLSTYLE
  1
TABLEFORMAT_BEGIN
 90
        5
170
     1
 91
        0
 92
        0
 62
   257
 93
        1
300
CONTENTFORMAT
  1
CONTENTFORMAT_BEGIN
 90
        0
 91
        0
 92
      512
 93
        0
300

 40
0.0
140
1.0
 94
        2
 62
     0
340
55
144
0.18
309
CONTENTFORMAT_END
171
     0
 94
        0
309
TABLEFORMAT_END
  1
CELLSTYLE_BEGIN
 90
        3
 91
        2
300
_DATA
309
CELLSTYLE_END
  0
XRECORD
  5
73C
102
{ACAD_REACTORS
330
73B
102
}
330
73B
100
AcDbXrecord
280
     1
102
RTVSPost2010Prop28
280
     1
102
RTVSPost2010PropOp28
 70
     1
102
RTVSPost2010Prop29
280
     1
102
RTVSPost2010PropOp29
 70
     1
102
RTVSPost2010Prop30
280
     0
102
RTVSPost2010PropOp30
 70
     1
102
RTVSPost2010Prop31
280
     0
102
RTVSPost2010PropOp31
 70
     1
102
RTVSPost2010Prop32
280
     0
102
RTVSPost2010PropOp32
 70
     1
102
RTVSPost2010Prop33
280
     0
102
RTVSPost2010PropOp33
 70
     1
102
RTVSPost2010Prop34
280
     0
102
RTVSPost2010PropOp34
 70
     1
102
RTVSPost2010Prop35
280
     0
102
RTVSPost2010PropOp35
 70
     1
102
RTVSPost2010Prop36
280
     0
102
RTVSPost2010PropOp36
 70
     1
102
RTVSPost2010Prop37
 90
       50
102
RTVSPost2010PropOp37
 70
     1
102
RTVSPost2010Prop38
140
0.0
102
RTVSPost2010PropOp38
 70
     1
102
RTVSPost2010Prop39
140
1.0
102
RTVSPost2010PropOp39
 70
     1
102
RTVSPost2010Prop40
 90
        0
102
RTVSPost2010PropOp40
 70
     1
102
RTVSPost2010Prop41ColorIndex
 90
       18
102
RTVSPost2010Prop41ColorRGB
 90
        0
102
RTVSPost2010PropOp41
 70
     1
102
RTVSPost2010Prop42
 90
       50
102
RTVSPost2010PropOp42
 70
     1
102
RTVSPost2010Prop43
 90
        3
102
RTVSPost2010PropOp43
 70
     1
102
RTVSPost2010Prop44ColorIndex
 90
        5
102
RTVSPost2010Prop44ColorRGB
 90
      255
102
RTVSPost2010PropOp44
 70
     1
102
RTVSPost2010Prop45
280
     0
102
RTVSPost2010PropOp45
 70
     1
102
RTVSPost2010Prop46
 90
       50
102
RTVSPost2010PropOp46
 70
     1
102
RTVSPost2010Prop47
 90
       50
102
RTVSPost2010PropOp47
 70
     1
102
RTVSPost2010Prop48
 90
       50
102
RTVSPost2010PropOp48
 70
     1
102
RTVSPost2010Prop49
280
     0
102
RTVSPost2010PropOp49
 70
     1
102
RTVSPost2010Prop50
 90
       50
102
RTVSPost2010PropOp50
 70
     1
102
RTVSPost2010Prop51ColorIndex
 90
      256
102
RTVSPost2010Prop51ColorRGB
 90
-16777216
102
RTVSPost2010PropOp51
 70
     0
102
RTVSPost2010Prop52
140
1.0
102
RTVSPost2010PropOp52
 70
     0
102
RTVSPost2010Prop53
 90
        2
102
RTVSPost2010PropOp53
 70
     1
102
RTVSPost2010Prop54
  1
strokes_ogs.tif
102
RTVSPost2010PropOp54
 70
     1
102
RTVSPost2010Prop55
280
     0
102
RTVSPost2010PropOp55
 70
     1
102
RTVSPost2010Prop56
140
1.0
102
RTVSPost2010PropOp56
 70
     1
102
RTVSPost2010Prop57
140
1.0
102
RTVSPost2010PropOp57
 70
     1
  0
XRECORD
  5
73A
102
{ACAD_REACTORS
330
739
102
}
330
739
100
AcDbXrecord
280
     1
102
RTVSPost2010Prop28
280
     0
102
RTVSPost2010PropOp28
 70
     1
102
RTVSPost2010Prop29
280
     1
102
RTVSPost2010PropOp29
 70
     1
102
RTVSPost2010Prop30
280
     1
102
RTVSPost2010PropOp30
 70
     1
102
RTVSPost2010Prop31
280
     0
102
RTVSPost2010PropOp31
 70
     1
102
RTVSPost2010Prop32
280
     0
102
RTVSPost2010PropOp32
 70
     1
102
RTVSPost2010Prop33
280
     0
102
RTVSPost2010PropOp33
 70
     1
102
RTVSPost2010Prop34
280
     0
102
RTVSPost2010PropOp34
 70
     1
102
RTVSPost2010Prop35
280
     0
102
RTVSPost2010PropOp35
 70
     1
102
RTVSPost2010Prop36
280
     0
102
RTVSPost2010PropOp36
 70
     1
102
RTVSPost2010Prop37
 90
       50
102
RTVSPost2010PropOp37
 70
     1
102
RTVSPost2010Prop38
140
0.0
102
RTVSPost2010PropOp38
 70
     1
102
RTVSPost2010Prop39
140
1.0
102
RTVSPost2010PropOp39
 70
     1
102
RTVSPost2010Prop40
 90
        0
102
RTVSPost2010PropOp40
 70
     1
102
RTVSPost2010Prop41ColorIndex
 90
       18
102
RTVSPost2010Prop41ColorRGB
 90
        0
102
RTVSPost2010PropOp41
 70
     1
102
RTVSPost2010Prop42
 90
       50
102
RTVSPost2010PropOp42
 70
     1
102
RTVSPost2010Prop43
 90
        3
102
RTVSPost2010PropOp43
 70
     1
102
RTVSPost2010Prop44ColorIndex
 90
        5
102
RTVSPost2010Prop44ColorRGB
 90
      255
102
RTVSPost2010PropOp44
 70
     1
102
RTVSPost2010Prop45
280
     0
102
RTVSPost2010PropOp45
 70
     1
102
RTVSPost2010Prop46
 90
       50
102
RTVSPost2010PropOp46
 70
     1
102
RTVSPost2010Prop47
 90
       50
102
RTVSPost2010PropOp47
 70
     1
102
RTVSPost2010Prop48
 90
       50
102
RTVSPost2010PropOp48
 70
     1
102
RTVSPost2010Prop49
280
     0
102
RTVSPost2010PropOp49
 70
     1
102
RTVSPost2010Prop50
 90
       50
102
RTVSPost2010PropOp50
 70
     1
102
RTVSPost2010Prop51ColorIndex
 90
      256
102
RTVSPost2010Prop51ColorRGB
 90
-16777216
102
RTVSPost2010PropOp51
 70
     0
102
RTVSPost2010Prop52
140
1.0
102
RTVSPost2010PropOp52
 70
     0
102
RTVSPost2010Prop53
 90
        2
102
RTVSPost2010PropOp53
 70
     1
102
RTVSPost2010Prop54
  1
strokes_ogs.tif
102
RTVSPost2010PropOp54
 70
     1
102
RTVSPost2010Prop55
280
     0
102
RTVSPost2010PropOp55
 70
     1
102
RTVSPost2010Prop56
140
1.0
102
RTVSPost2010PropOp56
 70
     1
102
RTVSPost2010Prop57
140
1.0
102
RTVSPost2010PropOp57
 70
     1
  0
XRECORD
  5
748
102
{ACAD_REACTORS
330
747
102
}
330
747
100
AcDbXrecord
280
     1
102
RTVSPost2010Prop28
280
     0
102
RTVSPost2010PropOp28
 70
     1
102
RTVSPost2010Prop29
280
     1
102
RTVSPost2010PropOp29
 70
     1
102
RTVSPost2010Prop30
280
     1
102
RTVSPost2010PropOp30
 70
     1
102
RTVSPost2010Prop31
280
     0
102
RTVSPost2010PropOp31
 70
     1
102
RTVSPost2010Prop32
280
     0
102
RTVSPost2010PropOp32
 70
     1
102
RTVSPost2010Prop33
280
     0
102
RTVSPost2010PropOp33
 70
     1
102
RTVSPost2010Prop34
280
     0
102
RTVSPost2010PropOp34
 70
     1
102
RTVSPost2010Prop35
280
     0
102
RTVSPost2010PropOp35
 70
     1
102
RTVSPost2010Prop36
280
     0
102
RTVSPost2010PropOp36
 70
     1
102
RTVSPost2010Prop37
 90
       50
102
RTVSPost2010PropOp37
 70
     1
102
RTVSPost2010Prop38
140
0.0
102
RTVSPost2010PropOp38
 70
     1
102
RTVSPost2010Prop39
140
1.0
102
RTVSPost2010PropOp39
 70
     1
102
RTVSPost2010Prop40
 90
        0
102
RTVSPost2010PropOp40
 70
     1
102
RTVSPost2010Prop41ColorIndex
 90
       18
102
RTVSPost2010Prop41ColorRGB
 90
        0
102
RTVSPost2010PropOp41
 70
     1
102
RTVSPost2010Prop42
 90
       50
102
RTVSPost2010PropOp42
 70
     1
102
RTVSPost2010Prop43
 90
        3
102
RTVSPost2010PropOp43
 70
     1
102
RTVSPost2010Prop44ColorIndex
 90
        5
102
RTVSPost2010Prop44ColorRGB
 90
      255
102
RTVSPost2010PropOp44
 70
     1
102
RTVSPost2010Prop45
280
     0
102
RTVSPost2010PropOp45
 70
     1
102
RTVSPost2010Prop46
 90
       50
102
RTVSPost2010PropOp46
 70
     1
102
RTVSPost2010Prop47
 90
       50
102
RTVSPost2010PropOp47
 70
     1
102
RTVSPost2010Prop48
 90
       50
102
RTVSPost2010PropOp48
 70
     1
102
RTVSPost2010Prop49
280
     0
102
RTVSPost2010PropOp49
 70
     1
102
RTVSPost2010Prop50
 90
       50
102
RTVSPost2010PropOp50
 70
     1
102
RTVSPost2010Prop51ColorIndex
 90
      256
102
RTVSPost2010Prop51ColorRGB
 90
-16777216
102
RTVSPost2010PropOp51
 70
     0
102
RTVSPost2010Prop52
140
1.0
102
RTVSPost2010PropOp52
 70
     0
102
RTVSPost2010Prop53
 90
        2
102
RTVSPost2010PropOp53
 70
     1
102
RTVSPost2010Prop54
  1
strokes_ogs.tif
102
RTVSPost2010PropOp54
 70
     1
102
RTVSPost2010Prop55
280
     0
102
RTVSPost2010PropOp55
 70
     1
102
RTVSPost2010Prop56
140
1.0
102
RTVSPost2010PropOp56
 70
     1
102
RTVSPost2010Prop57
140
1.0
102
RTVSPost2010PropOp57
 70
     1
  0
XRECORD
  5
750
102
{ACAD_REACTORS
330
74F
102
}
330
74F
100
AcDbXrecord
280
     1
102
RTVSPost2010Prop28
280
     0
102
RTVSPost2010PropOp28
 70
     1
102
RTVSPost2010Prop29
280
     1
102
RTVSPost2010PropOp29
 70
     1
102
RTVSPost2010Prop30
280
     1
102
RTVSPost2010PropOp30
 70
     1
102
RTVSPost2010Prop31
280
     0
102
RTVSPost2010PropOp31
 70
     1
102
RTVSPost2010Prop32
280
     0
102
RTVSPost2010PropOp32
 70
     1
102
RTVSPost2010Prop33
280
     0
102
RTVSPost2010PropOp33
 70
     1
102
RTVSPost2010Prop34
280
     0
102
RTVSPost2010PropOp34
 70
     1
102
RTVSPost2010Prop35
280
     0
102
RTVSPost2010PropOp35
 70
     1
102
RTVSPost2010Prop36
280
     0
102
RTVSPost2010PropOp36
 70
     1
102
RTVSPost2010Prop37
 90
       50
102
RTVSPost2010PropOp37
 70
     1
102
RTVSPost2010Prop38
140
0.0
102
RTVSPost2010PropOp38
 70
     1
102
RTVSPost2010Prop39
140
1.0
102
RTVSPost2010PropOp39
 70
     1
102
RTVSPost2010Prop40
 90
        0
102
RTVSPost2010PropOp40
 70
     1
102
RTVSPost2010Prop41ColorIndex
 90
       18
102
RTVSPost2010Prop41ColorRGB
 90
        0
102
RTVSPost2010PropOp41
 70
     1
102
RTVSPost2010Prop42
 90
       50
102
RTVSPost2010PropOp42
 70
     1
102
RTVSPost2010Prop43
 90
        3
102
RTVSPost2010PropOp43
 70
     1
102
RTVSPost2010Prop44ColorIndex
 90
        5
102
RTVSPost2010Prop44ColorRGB
 90
      255
102
RTVSPost2010PropOp44
 70
     1
102
RTVSPost2010Prop45
280
     0
102
RTVSPost2010PropOp45
 70
     1
102
RTVSPost2010Prop46
 90
       50
102
RTVSPost2010PropOp46
 70
     1
102
RTVSPost2010Prop47
 90
       50
102
RTVSPost2010PropOp47
 70
     1
102
RTVSPost2010Prop48
 90
       50
102
RTVSPost2010PropOp48
 70
     1
102
RTVSPost2010Prop49
280
     0
102
RTVSPost2010PropOp49
 70
     1
102
RTVSPost2010Prop50
 90
       50
102
RTVSPost2010PropOp50
 70
     1
102
RTVSPost2010Prop51ColorIndex
 90
      256
102
RTVSPost2010Prop51ColorRGB
 90
-16777216
102
RTVSPost2010PropOp51
 70
     0
102
RTVSPost2010Prop52
140
1.0
102
RTVSPost2010PropOp52
 70
     0
102
RTVSPost2010Prop53
 90
        2
102
RTVSPost2010PropOp53
 70
     1
102
RTVSPost2010Prop54
  1
strokes_ogs.tif
102
RTVSPost2010PropOp54
 70
     1
102
RTVSPost2010Prop55
280
     0
102
RTVSPost2010PropOp55
 70
     1
102
RTVSPost2010Prop56
140
1.0
102
RTVSPost2010PropOp56
 70
     1
102
RTVSPost2010Prop57
140
1.0
102
RTVSPost2010PropOp57
 70
     1
  0
XRECORD
  5
742
102
{ACAD_REACTORS
330
741
102
}
330
741
100
AcDbXrecord
280
     1
102
RTVSPost2010Prop28
280
     0
102
RTVSPost2010PropOp28
 70
     1
102
RTVSPost2010Prop29
280
     1
102
RTVSPost2010PropOp29
 70
     1
102
RTVSPost2010Prop30
280
     1
102
RTVSPost2010PropOp30
 70
     1
102
RTVSPost2010Prop31
280
     0
102
RTVSPost2010PropOp31
 70
     1
102
RTVSPost2010Prop32
280
     0
102
RTVSPost2010PropOp32
 70
     1
102
RTVSPost2010Prop33
280
     0
102
RTVSPost2010PropOp33
 70
     1
102
RTVSPost2010Prop34
280
     0
102
RTVSPost2010PropOp34
 70
     1
102
RTVSPost2010Prop35
280
     0
102
RTVSPost2010PropOp35
 70
     1
102
RTVSPost2010Prop36
280
     0
102
RTVSPost2010PropOp36
 70
     1
102
RTVSPost2010Prop37
 90
       50
102
RTVSPost2010PropOp37
 70
     1
102
RTVSPost2010Prop38
140
0.0
102
RTVSPost2010PropOp38
 70
     1
102
RTVSPost2010Prop39
140
1.0
102
RTVSPost2010PropOp39
 70
     1
102
RTVSPost2010Prop40
 90
        0
102
RTVSPost2010PropOp40
 70
     1
102
RTVSPost2010Prop41ColorIndex
 90
       18
102
RTVSPost2010Prop41ColorRGB
 90
        0
102
RTVSPost2010PropOp41
 70
     1
102
RTVSPost2010Prop42
 90
       50
102
RTVSPost2010PropOp42
 70
     1
102
RTVSPost2010Prop43
 90
        3
102
RTVSPost2010PropOp43
 70
     1
102
RTVSPost2010Prop44ColorIndex
 90
        5
102
RTVSPost2010Prop44ColorRGB
 90
      255
102
RTVSPost2010PropOp44
 70
     1
102
RTVSPost2010Prop45
280
     0
102
RTVSPost2010PropOp45
 70
     1
102
RTVSPost2010Prop46
 90
       50
102
RTVSPost2010PropOp46
 70
     1
102
RTVSPost2010Prop47
 90
       50
102
RTVSPost2010PropOp47
 70
     1
102
RTVSPost2010Prop48
 90
       50
102
RTVSPost2010PropOp48
 70
     1
102
RTVSPost2010Prop49
280
     0
102
RTVSPost2010PropOp49
 70
     1
102
RTVSPost2010Prop50
 90
       50
102
RTVSPost2010PropOp50
 70
     1
102
RTVSPost2010Prop51ColorIndex
 90
      256
102
RTVSPost2010Prop51ColorRGB
 90
-16777216
102
RTVSPost2010PropOp51
 70
     0
102
RTVSPost2010Prop52
140
1.0
102
RTVSPost2010PropOp52
 70
     0
102
RTVSPost2010Prop53
 90
        2
102
RTVSPost2010PropOp53
 70
     1
102
RTVSPost2010Prop54
  1
strokes_ogs.tif
102
RTVSPost2010PropOp54
 70
     1
102
RTVSPost2010Prop55
280
     0
102
RTVSPost2010PropOp55
 70
     1
102
RTVSPost2010Prop56
140
1.0
102
RTVSPost2010PropOp56
 70
     1
102
RTVSPost2010Prop57
140
1.0
102
RTVSPost2010PropOp57
 70
     1
  0
XRECORD
  5
746
102
{ACAD_REACTORS
330
745
102
}
330
745
100
AcDbXrecord
280
     1
102
RTVSPost2010Prop28
280
     0
102
RTVSPost2010PropOp28
 70
     1
102
RTVSPost2010Prop29
280
     1
102
RTVSPost2010PropOp29
 70
     1
102
RTVSPost2010Prop30
280
     1
102
RTVSPost2010PropOp30
 70
     1
102
RTVSPost2010Prop31
280
     0
102
RTVSPost2010PropOp31
 70
     1
102
RTVSPost2010Prop32
280
     0
102
RTVSPost2010PropOp32
 70
     1
102
RTVSPost2010Prop33
280
     0
102
RTVSPost2010PropOp33
 70
     1
102
RTVSPost2010Prop34
280
     0
102
RTVSPost2010PropOp34
 70
     1
102
RTVSPost2010Prop35
280
     0
102
RTVSPost2010PropOp35
 70
     1
102
RTVSPost2010Prop36
280
     0
102
RTVSPost2010PropOp36
 70
     1
102
RTVSPost2010Prop37
 90
       50
102
RTVSPost2010PropOp37
 70
     1
102
RTVSPost2010Prop38
140
0.0
102
RTVSPost2010PropOp38
 70
     1
102
RTVSPost2010Prop39
140
1.0
102
RTVSPost2010PropOp39
 70
     1
102
RTVSPost2010Prop40
 90
        0
102
RTVSPost2010PropOp40
 70
     1
102
RTVSPost2010Prop41ColorIndex
 90
       18
102
RTVSPost2010Prop41ColorRGB
 90
        0
102
RTVSPost2010PropOp41
 70
     1
102
RTVSPost2010Prop42
 90
       50
102
RTVSPost2010PropOp42
 70
     1
102
RTVSPost2010Prop43
 90
        3
102
RTVSPost2010PropOp43
 70
     1
102
RTVSPost2010Prop44ColorIndex
 90
        5
102
RTVSPost2010Prop44ColorRGB
 90
      255
102
RTVSPost2010PropOp44
 70
     1
102
RTVSPost2010Prop45
280
     0
102
RTVSPost2010PropOp45
 70
     1
102
RTVSPost2010Prop46
 90
       50
102
RTVSPost2010PropOp46
 70
     1
102
RTVSPost2010Prop47
 90
       50
102
RTVSPost2010PropOp47
 70
     1
102
RTVSPost2010Prop48
 90
       50
102
RTVSPost2010PropOp48
 70
     1
102
RTVSPost2010Prop49
280
     0
102
RTVSPost2010PropOp49
 70
     1
102
RTVSPost2010Prop50
 90
       50
102
RTVSPost2010PropOp50
 70
     1
102
RTVSPost2010Prop51ColorIndex
 90
      256
102
RTVSPost2010Prop51ColorRGB
 90
-16777216
102
RTVSPost2010PropOp51
 70
     0
102
RTVSPost2010Prop52
140
1.0
102
RTVSPost2010PropOp52
 70
     0
102
RTVSPost2010Prop53
 90
        2
102
RTVSPost2010PropOp53
 70
     1
102
RTVSPost2010Prop54
  1
strokes_ogs.tif
102
RTVSPost2010PropOp54
 70
     1
102
RTVSPost2010Prop55
280
     0
102
RTVSPost2010PropOp55
 70
     1
102
RTVSPost2010Prop56
140
1.0
102
RTVSPost2010PropOp56
 70
     1
102
RTVSPost2010Prop57
140
1.0
102
RTVSPost2010PropOp57
 70
     1
  0
XRECORD
  5
760
102
{ACAD_REACTORS
330
75F
102
}
330
75F
100
AcDbXrecord
280
     1
102
RTVSPost2010Prop28
280
     0
102
RTVSPost2010PropOp28
 70
     0
102
RTVSPost2010Prop29
280
     1
102
RTVSPost2010PropOp29
 70
     0
102
RTVSPost2010Prop30
280
     1
102
RTVSPost2010PropOp30
 70
     0
102
RTVSPost2010Prop31
280
     0
102
RTVSPost2010PropOp31
 70
     0
102
RTVSPost2010Prop32
280
     0
102
RTVSPost2010PropOp32
 70
     0
102
RTVSPost2010Prop33
280
     0
102
RTVSPost2010PropOp33
 70
     0
102
RTVSPost2010Prop34
280
     0
102
RTVSPost2010PropOp34
 70
     0
102
RTVSPost2010Prop35
280
     0
102
RTVSPost2010PropOp35
 70
     0
102
RTVSPost2010Prop36
280
     0
102
RTVSPost2010PropOp36
 70
     0
102
RTVSPost2010Prop37
 90
       50
102
RTVSPost2010PropOp37
 70
     0
102
RTVSPost2010Prop38
140
0.0
102
RTVSPost2010PropOp38
 70
     0
102
RTVSPost2010Prop39
140
1.0
102
RTVSPost2010PropOp39
 70
     0
102
RTVSPost2010Prop40
 90
        0
102
RTVSPost2010PropOp40
 70
     0
102
RTVSPost2010Prop41ColorIndex
 90
       18
102
RTVSPost2010Prop41ColorRGB
 90
        0
102
RTVSPost2010PropOp41
 70
     0
102
RTVSPost2010Prop42
 90
       50
102
RTVSPost2010PropOp42
 70
     0
102
RTVSPost2010Prop43
 90
        3
102
RTVSPost2010PropOp43
 70
     0
102
RTVSPost2010Prop44ColorIndex
 90
        5
102
RTVSPost2010Prop44ColorRGB
 90
      255
102
RTVSPost2010PropOp44
 70
     0
102
RTVSPost2010Prop45
280
     0
102
RTVSPost2010PropOp45
 70
     0
102
RTVSPost2010Prop46
 90
       50
102
RTVSPost2010PropOp46
 70
     0
102
RTVSPost2010Prop47
 90
       50
102
RTVSPost2010PropOp47
 70
     0
102
RTVSPost2010Prop48
 90
       50
102
RTVSPost2010PropOp48
 70
     0
102
RTVSPost2010Prop49
280
     0
102
RTVSPost2010PropOp49
 70
     0
102
RTVSPost2010Prop50
 90
       50
102
RTVSPost2010PropOp50
 70
     0
102
RTVSPost2010Prop51ColorIndex
 90
      256
102
RTVSPost2010Prop51ColorRGB
 90
-16777216
102
RTVSPost2010PropOp51
 70
     0
102
RTVSPost2010Prop52
140
1.0
102
RTVSPost2010PropOp52
 70
     0
102
RTVSPost2010Prop53
 90
        2
102
RTVSPost2010PropOp53
 70
     0
102
RTVSPost2010Prop54
  1
strokes_ogs.tif
102
RTVSPost2010PropOp54
 70
     0
102
RTVSPost2010Prop55
280
     0
102
RTVSPost2010PropOp55
 70
     0
102
RTVSPost2010Prop56
140
1.0
102
RTVSPost2010PropOp56
 70
     0
102
RTVSPost2010Prop57
140
1.0
102
RTVSPost2010PropOp57
 70
     0
  0
XRECORD
  5
74E
102
{ACAD_REACTORS
330
74D
102
}
330
74D
100
AcDbXrecord
280
     1
102
RTVSPost2010Prop28
280
     0
102
RTVSPost2010PropOp28
 70
     1
102
RTVSPost2010Prop29
280
     1
102
RTVSPost2010PropOp29
 70
     1
102
RTVSPost2010Prop30
280
     1
102
RTVSPost2010PropOp30
 70
     1
102
RTVSPost2010Prop31
280
     0
102
RTVSPost2010PropOp31
 70
     1
102
RTVSPost2010Prop32
280
     0
102
RTVSPost2010PropOp32
 70
     1
102
RTVSPost2010Prop33
280
     0
102
RTVSPost2010PropOp33
 70
     1
102
RTVSPost2010Prop34
280
     0
102
RTVSPost2010PropOp34
 70
     1
102
RTVSPost2010Prop35
280
     0
102
RTVSPost2010PropOp35
 70
     1
102
RTVSPost2010Prop36
280
     0
102
RTVSPost2010PropOp36
 70
     1
102
RTVSPost2010Prop37
 90
       50
102
RTVSPost2010PropOp37
 70
     1
102
RTVSPost2010Prop38
140
0.0
102
RTVSPost2010PropOp38
 70
     1
102
RTVSPost2010Prop39
140
1.0
102
RTVSPost2010PropOp39
 70
     1
102
RTVSPost2010Prop40
 90
        0
102
RTVSPost2010PropOp40
 70
     1
102
RTVSPost2010Prop41ColorIndex
 90
       18
102
RTVSPost2010Prop41ColorRGB
 90
        0
102
RTVSPost2010PropOp41
 70
     1
102
RTVSPost2010Prop42
 90
       50
102
RTVSPost2010PropOp42
 70
     1
102
RTVSPost2010Prop43
 90
        3
102
RTVSPost2010PropOp43
 70
     1
102
RTVSPost2010Prop44ColorIndex
 90
        5
102
RTVSPost2010Prop44ColorRGB
 90
      255
102
RTVSPost2010PropOp44
 70
     1
102
RTVSPost2010Prop45
280
     0
102
RTVSPost2010PropOp45
 70
     1
102
RTVSPost2010Prop46
 90
       50
102
RTVSPost2010PropOp46
 70
     1
102
RTVSPost2010Prop47
 90
       50
102
RTVSPost2010PropOp47
 70
     1
102
RTVSPost2010Prop48
 90
       50
102
RTVSPost2010PropOp48
 70
     1
102
RTVSPost2010Prop49
280
     0
102
RTVSPost2010PropOp49
 70
     1
102
RTVSPost2010Prop50
 90
       50
102
RTVSPost2010PropOp50
 70
     1
102
RTVSPost2010Prop51ColorIndex
 90
      256
102
RTVSPost2010Prop51ColorRGB
 90
-16777216
102
RTVSPost2010PropOp51
 70
     0
102
RTVSPost2010Prop52
140
1.0
102
RTVSPost2010PropOp52
 70
     0
102
RTVSPost2010Prop53
 90
        2
102
RTVSPost2010PropOp53
 70
     1
102
RTVSPost2010Prop54
  1
strokes_ogs.tif
102
RTVSPost2010PropOp54
 70
     1
102
RTVSPost2010Prop55
280
     0
102
RTVSPost2010PropOp55
 70
     1
102
RTVSPost2010Prop56
140
1.0
102
RTVSPost2010PropOp56
 70
     1
102
RTVSPost2010Prop57
140
1.0
102
RTVSPost2010PropOp57
 70
     1
  0
XRECORD
  5
732
102
{ACAD_REACTORS
330
731
102
}
330
731
100
AcDbXrecord
280
     1
102
RTVSPost2010Prop28
280
     0
102
RTVSPost2010PropOp28
 70
     1
102
RTVSPost2010Prop29
280
     1
102
RTVSPost2010PropOp29
 70
     1
102
RTVSPost2010Prop30
280
     1
102
RTVSPost2010PropOp30
 70
     1
102
RTVSPost2010Prop31
280
     0
102
RTVSPost2010PropOp31
 70
     1
102
RTVSPost2010Prop32
280
     0
102
RTVSPost2010PropOp32
 70
     1
102
RTVSPost2010Prop33
280
     0
102
RTVSPost2010PropOp33
 70
     1
102
RTVSPost2010Prop34
280
     0
102
RTVSPost2010PropOp34
 70
     1
102
RTVSPost2010Prop35
280
     0
102
RTVSPost2010PropOp35
 70
     1
102
RTVSPost2010Prop36
280
     0
102
RTVSPost2010PropOp36
 70
     1
102
RTVSPost2010Prop37
 90
       50
102
RTVSPost2010PropOp37
 70
     1
102
RTVSPost2010Prop38
140
0.0
102
RTVSPost2010PropOp38
 70
     1
102
RTVSPost2010Prop39
140
1.0
102
RTVSPost2010PropOp39
 70
     1
102
RTVSPost2010Prop40
 90
        0
102
RTVSPost2010PropOp40
 70
     1
102
RTVSPost2010Prop41ColorIndex
 90
       18
102
RTVSPost2010Prop41ColorRGB
 90
        0
102
RTVSPost2010PropOp41
 70
     1
102
RTVSPost2010Prop42
 90
       50
102
RTVSPost2010PropOp42
 70
     1
102
RTVSPost2010Prop43
 90
        3
102
RTVSPost2010PropOp43
 70
     1
102
RTVSPost2010Prop44ColorIndex
 90
        5
102
RTVSPost2010Prop44ColorRGB
 90
      255
102
RTVSPost2010PropOp44
 70
     1
102
RTVSPost2010Prop45
280
     0
102
RTVSPost2010PropOp45
 70
     1
102
RTVSPost2010Prop46
 90
       50
102
RTVSPost2010PropOp46
 70
     1
102
RTVSPost2010Prop47
 90
       50
102
RTVSPost2010PropOp47
 70
     1
102
RTVSPost2010Prop48
 90
       50
102
RTVSPost2010PropOp48
 70
     1
102
RTVSPost2010Prop49
280
     0
102
RTVSPost2010PropOp49
 70
     1
102
RTVSPost2010Prop50
 90
       50
102
RTVSPost2010PropOp50
 70
     1
102
RTVSPost2010Prop51ColorIndex
 90
      256
102
RTVSPost2010Prop51ColorRGB
 90
-16777216
102
RTVSPost2010PropOp51
 70
     0
102
RTVSPost2010Prop52
140
1.0
102
RTVSPost2010PropOp52
 70
     0
102
RTVSPost2010Prop53
 90
        2
102
RTVSPost2010PropOp53
 70
     1
102
RTVSPost2010Prop54
  1
strokes_ogs.tif
102
RTVSPost2010PropOp54
 70
     1
102
RTVSPost2010Prop55
280
     0
102
RTVSPost2010PropOp55
 70
     1
102
RTVSPost2010Prop56
140
1.0
102
RTVSPost2010PropOp56
 70
     1
102
RTVSPost2010Prop57
140
1.0
102
RTVSPost2010PropOp57
 70
     1
  0
XRECORD
  5
734
102
{ACAD_REACTORS
330
733
102
}
330
733
100
AcDbXrecord
280
     1
102
RTVSPost2010Prop28
280
     0
102
RTVSPost2010PropOp28
 70
     1
102
RTVSPost2010Prop29
280
     1
102
RTVSPost2010PropOp29
 70
     1
102
RTVSPost2010Prop30
280
     1
102
RTVSPost2010PropOp30
 70
     1
102
RTVSPost2010Prop31
280
     0
102
RTVSPost2010PropOp31
 70
     1
102
RTVSPost2010Prop32
280
     0
102
RTVSPost2010PropOp32
 70
     1
102
RTVSPost2010Prop33
280
     0
102
RTVSPost2010PropOp33
 70
     1
102
RTVSPost2010Prop34
280
     0
102
RTVSPost2010PropOp34
 70
     1
102
RTVSPost2010Prop35
280
     0
102
RTVSPost2010PropOp35
 70
     1
102
RTVSPost2010Prop36
280
     0
102
RTVSPost2010PropOp36
 70
     1
102
RTVSPost2010Prop37
 90
       50
102
RTVSPost2010PropOp37
 70
     1
102
RTVSPost2010Prop38
140
0.0
102
RTVSPost2010PropOp38
 70
     1
102
RTVSPost2010Prop39
140
1.0
102
RTVSPost2010PropOp39
 70
     1
102
RTVSPost2010Prop40
 90
        0
102
RTVSPost2010PropOp40
 70
     1
102
RTVSPost2010Prop41ColorIndex
 90
       18
102
RTVSPost2010Prop41ColorRGB
 90
        0
102
RTVSPost2010PropOp41
 70
     1
102
RTVSPost2010Prop42
 90
       50
102
RTVSPost2010PropOp42
 70
     1
102
RTVSPost2010Prop43
 90
        3
102
RTVSPost2010PropOp43
 70
     1
102
RTVSPost2010Prop44ColorIndex
 90
        5
102
RTVSPost2010Prop44ColorRGB
 90
      255
102
RTVSPost2010PropOp44
 70
     1
102
RTVSPost2010Prop45
280
     0
102
RTVSPost2010PropOp45
 70
     1
102
RTVSPost2010Prop46
 90
       50
102
RTVSPost2010PropOp46
 70
     1
102
RTVSPost2010Prop47
 90
       50
102
RTVSPost2010PropOp47
 70
     1
102
RTVSPost2010Prop48
 90
       50
102
RTVSPost2010PropOp48
 70
     1
102
RTVSPost2010Prop49
280
     0
102
RTVSPost2010PropOp49
 70
     1
102
RTVSPost2010Prop50
 90
       50
102
RTVSPost2010PropOp50
 70
     1
102
RTVSPost2010Prop51ColorIndex
 90
      256
102
RTVSPost2010Prop51ColorRGB
 90
-16777216
102
RTVSPost2010PropOp51
 70
     0
102
RTVSPost2010Prop52
140
1.0
102
RTVSPost2010PropOp52
 70
     0
102
RTVSPost2010Prop53
 90
        2
102
RTVSPost2010PropOp53
 70
     1
102
RTVSPost2010Prop54
  1
strokes_ogs.tif
102
RTVSPost2010PropOp54
 70
     1
102
RTVSPost2010Prop55
280
     0
102
RTVSPost2010PropOp55
 70
     1
102
RTVSPost2010Prop56
140
1.0
102
RTVSPost2010PropOp56
 70
     1
102
RTVSPost2010Prop57
140
1.0
102
RTVSPost2010PropOp57
 70
     1
  0
XRECORD
  5
736
102
{ACAD_REACTORS
330
735
102
}
330
735
100
AcDbXrecord
280
     1
102
RTVSPost2010Prop28
280
     0
102
RTVSPost2010PropOp28
 70
     1
102
RTVSPost2010Prop29
280
     1
102
RTVSPost2010PropOp29
 70
     1
102
RTVSPost2010Prop30
280
     1
102
RTVSPost2010PropOp30
 70
     1
102
RTVSPost2010Prop31
280
     0
102
RTVSPost2010PropOp31
 70
     1
102
RTVSPost2010Prop32
280
     0
102
RTVSPost2010PropOp32
 70
     1
102
RTVSPost2010Prop33
280
     0
102
RTVSPost2010PropOp33
 70
     1
102
RTVSPost2010Prop34
280
     0
102
RTVSPost2010PropOp34
 70
     1
102
RTVSPost2010Prop35
280
     0
102
RTVSPost2010PropOp35
 70
     1
102
RTVSPost2010Prop36
280
     0
102
RTVSPost2010PropOp36
 70
     1
102
RTVSPost2010Prop37
 90
       50
102
RTVSPost2010PropOp37
 70
     1
102
RTVSPost2010Prop38
140
0.0
102
RTVSPost2010PropOp38
 70
     1
102
RTVSPost2010Prop39
140
1.0
102
RTVSPost2010PropOp39
 70
     1
102
RTVSPost2010Prop40
 90
        0
102
RTVSPost2010PropOp40
 70
     1
102
RTVSPost2010Prop41ColorIndex
 90
       18
102
RTVSPost2010Prop41ColorRGB
 90
        0
102
RTVSPost2010PropOp41
 70
     1
102
RTVSPost2010Prop42
 90
       50
102
RTVSPost2010PropOp42
 70
     1
102
RTVSPost2010Prop43
 90
        3
102
RTVSPost2010PropOp43
 70
     1
102
RTVSPost2010Prop44ColorIndex
 90
        5
102
RTVSPost2010Prop44ColorRGB
 90
      255
102
RTVSPost2010PropOp44
 70
     1
102
RTVSPost2010Prop45
280
     0
102
RTVSPost2010PropOp45
 70
     1
102
RTVSPost2010Prop46
 90
       50
102
RTVSPost2010PropOp46
 70
     1
102
RTVSPost2010Prop47
 90
       50
102
RTVSPost2010PropOp47
 70
     1
102
RTVSPost2010Prop48
 90
       50
102
RTVSPost2010PropOp48
 70
     1
102
RTVSPost2010Prop49
280
     0
102
RTVSPost2010PropOp49
 70
     1
102
RTVSPost2010Prop50
 90
       50
102
RTVSPost2010PropOp50
 70
     1
102
RTVSPost2010Prop51ColorIndex
 90
      256
102
RTVSPost2010Prop51ColorRGB
 90
-16777216
102
RTVSPost2010PropOp51
 70
     0
102
RTVSPost2010Prop52
140
1.0
102
RTVSPost2010PropOp52
 70
     0
102
RTVSPost2010Prop53
 90
        2
102
RTVSPost2010PropOp53
 70
     1
102
RTVSPost2010Prop54
  1
strokes_ogs.tif
102
RTVSPost2010PropOp54
 70
     1
102
RTVSPost2010Prop55
280
     0
102
RTVSPost2010PropOp55
 70
     1
102
RTVSPost2010Prop56
140
1.0
102
RTVSPost2010PropOp56
 70
     1
102
RTVSPost2010Prop57
140
1.0
102
RTVSPost2010PropOp57
 70
     1
  0
XRECORD
  5
738
102
{ACAD_REACTORS
330
737
102
}
330
737
100
AcDbXrecord
280
     1
102
RTVSPost2010Prop28
280
     0
102
RTVSPost2010PropOp28
 70
     1
102
RTVSPost2010Prop29
280
     1
102
RTVSPost2010PropOp29
 70
     1
102
RTVSPost2010Prop30
280
     1
102
RTVSPost2010PropOp30
 70
     1
102
RTVSPost2010Prop31
280
     0
102
RTVSPost2010PropOp31
 70
     1
102
RTVSPost2010Prop32
280
     0
102
RTVSPost2010PropOp32
 70
     1
102
RTVSPost2010Prop33
280
     0
102
RTVSPost2010PropOp33
 70
     1
102
RTVSPost2010Prop34
280
     0
102
RTVSPost2010PropOp34
 70
     1
102
RTVSPost2010Prop35
280
     0
102
RTVSPost2010PropOp35
 70
     1
102
RTVSPost2010Prop36
280
     0
102
RTVSPost2010PropOp36
 70
     1
102
RTVSPost2010Prop37
 90
       50
102
RTVSPost2010PropOp37
 70
     1
102
RTVSPost2010Prop38
140
0.0
102
RTVSPost2010PropOp38
 70
     1
102
RTVSPost2010Prop39
140
1.0
102
RTVSPost2010PropOp39
 70
     1
102
RTVSPost2010Prop40
 90
        0
102
RTVSPost2010PropOp40
 70
     1
102
RTVSPost2010Prop41ColorIndex
 90
       18
102
RTVSPost2010Prop41ColorRGB
 90
        0
102
RTVSPost2010PropOp41
 70
     1
102
RTVSPost2010Prop42
 90
       50
102
RTVSPost2010PropOp42
 70
     1
102
RTVSPost2010Prop43
 90
        3
102
RTVSPost2010PropOp43
 70
     1
102
RTVSPost2010Prop44ColorIndex
 90
        5
102
RTVSPost2010Prop44ColorRGB
 90
      255
102
RTVSPost2010PropOp44
 70
     1
102
RTVSPost2010Prop45
280
     0
102
RTVSPost2010PropOp45
 70
     1
102
RTVSPost2010Prop46
 90
       50
102
RTVSPost2010PropOp46
 70
     1
102
RTVSPost2010Prop47
 90
       50
102
RTVSPost2010PropOp47
 70
     1
102
RTVSPost2010Prop48
 90
       50
102
RTVSPost2010PropOp48
 70
     1
102
RTVSPost2010Prop49
280
     0
102
RTVSPost2010PropOp49
 70
     1
102
RTVSPost2010Prop50
 90
       50
102
RTVSPost2010PropOp50
 70
     1
102
RTVSPost2010Prop51ColorIndex
 90
      256
102
RTVSPost2010Prop51ColorRGB
 90
-16777216
102
RTVSPost2010PropOp51
 70
     0
102
RTVSPost2010Prop52
140
1.0
102
RTVSPost2010PropOp52
 70
     0
102
RTVSPost2010Prop53
 90
        2
102
RTVSPost2010PropOp53
 70
     1
102
RTVSPost2010Prop54
  1
strokes_ogs.tif
102
RTVSPost2010PropOp54
 70
     1
102
RTVSPost2010Prop55
280
     0
102
RTVSPost2010PropOp55
 70
     1
102
RTVSPost2010Prop56
140
1.0
102
RTVSPost2010PropOp56
 70
     1
102
RTVSPost2010Prop57
140
1.0
102
RTVSPost2010PropOp57
 70
     1
  0
XRECORD
  5
740
102
{ACAD_REACTORS
330
73F
102
}
330
73F
100
AcDbXrecord
280
     1
102
RTVSPost2010Prop28
280
     0
102
RTVSPost2010PropOp28
 70
     1
102
RTVSPost2010Prop29
280
     1
102
RTVSPost2010PropOp29
 70
     1
102
RTVSPost2010Prop30
280
     1
102
RTVSPost2010PropOp30
 70
     1
102
RTVSPost2010Prop31
280
     0
102
RTVSPost2010PropOp31
 70
     1
102
RTVSPost2010Prop32
280
     0
102
RTVSPost2010PropOp32
 70
     1
102
RTVSPost2010Prop33
280
     0
102
RTVSPost2010PropOp33
 70
     1
102
RTVSPost2010Prop34
280
     0
102
RTVSPost2010PropOp34
 70
     1
102
RTVSPost2010Prop35
280
     0
102
RTVSPost2010PropOp35
 70
     1
102
RTVSPost2010Prop36
280
     0
102
RTVSPost2010PropOp36
 70
     1
102
RTVSPost2010Prop37
 90
       50
102
RTVSPost2010PropOp37
 70
     1
102
RTVSPost2010Prop38
140
0.0
102
RTVSPost2010PropOp38
 70
     1
102
RTVSPost2010Prop39
140
1.0
102
RTVSPost2010PropOp39
 70
     1
102
RTVSPost2010Prop40
 90
        0
102
RTVSPost2010PropOp40
 70
     1
102
RTVSPost2010Prop41ColorIndex
 90
       18
102
RTVSPost2010Prop41ColorRGB
 90
        0
102
RTVSPost2010PropOp41
 70
     1
102
RTVSPost2010Prop42
 90
       50
102
RTVSPost2010PropOp42
 70
     1
102
RTVSPost2010Prop43
 90
        3
102
RTVSPost2010PropOp43
 70
     1
102
RTVSPost2010Prop44ColorIndex
 90
        5
102
RTVSPost2010Prop44ColorRGB
 90
      255
102
RTVSPost2010PropOp44
 70
     1
102
RTVSPost2010Prop45
280
     0
102
RTVSPost2010PropOp45
 70
     1
102
RTVSPost2010Prop46
 90
       50
102
RTVSPost2010PropOp46
 70
     1
102
RTVSPost2010Prop47
 90
       50
102
RTVSPost2010PropOp47
 70
     1
102
RTVSPost2010Prop48
 90
       50
102
RTVSPost2010PropOp48
 70
     1
102
RTVSPost2010Prop49
280
     0
102
RTVSPost2010PropOp49
 70
     1
102
RTVSPost2010Prop50
 90
       50
102
RTVSPost2010PropOp50
 70
     1
102
RTVSPost2010Prop51ColorIndex
 90
      256
102
RTVSPost2010Prop51ColorRGB
 90
-16777216
102
RTVSPost2010PropOp51
 70
     0
102
RTVSPost2010Prop52
140
1.0
102
RTVSPost2010PropOp52
 70
     0
102
RTVSPost2010Prop53
 90
        2
102
RTVSPost2010PropOp53
 70
     1
102
RTVSPost2010Prop54
  1
strokes_ogs.tif
102
RTVSPost2010PropOp54
 70
     1
102
RTVSPost2010Prop55
280
     0
102
RTVSPost2010PropOp55
 70
     1
102
RTVSPost2010Prop56
140
1.0
102
RTVSPost2010PropOp56
 70
     1
102
RTVSPost2010Prop57
140
1.0
102
RTVSPost2010PropOp57
 70
     1
  0
XRECORD
  5
75C
102
{ACAD_REACTORS
330
75B
102
}
330
75B
100
AcDbXrecord
280
     1
102
RTVSPost2010Prop28
280
     0
102
RTVSPost2010PropOp28
 70
     0
102
RTVSPost2010Prop29
280
     1
102
RTVSPost2010PropOp29
 70
     0
102
RTVSPost2010Prop30
280
     1
102
RTVSPost2010PropOp30
 70
     0
102
RTVSPost2010Prop31
280
     0
102
RTVSPost2010PropOp31
 70
     0
102
RTVSPost2010Prop32
280
     0
102
RTVSPost2010PropOp32
 70
     0
102
RTVSPost2010Prop33
280
     0
102
RTVSPost2010PropOp33
 70
     0
102
RTVSPost2010Prop34
280
     0
102
RTVSPost2010PropOp34
 70
     0
102
RTVSPost2010Prop35
280
     0
102
RTVSPost2010PropOp35
 70
     0
102
RTVSPost2010Prop36
280
     0
102
RTVSPost2010PropOp36
 70
     0
102
RTVSPost2010Prop37
 90
       50
102
RTVSPost2010PropOp37
 70
     0
102
RTVSPost2010Prop38
140
0.0
102
RTVSPost2010PropOp38
 70
     0
102
RTVSPost2010Prop39
140
1.0
102
RTVSPost2010PropOp39
 70
     0
102
RTVSPost2010Prop40
 90
        0
102
RTVSPost2010PropOp40
 70
     0
102
RTVSPost2010Prop41ColorIndex
 90
       18
102
RTVSPost2010Prop41ColorRGB
 90
        0
102
RTVSPost2010PropOp41
 70
     0
102
RTVSPost2010Prop42
 90
       50
102
RTVSPost2010PropOp42
 70
     0
102
RTVSPost2010Prop43
 90
        3
102
RTVSPost2010PropOp43
 70
     0
102
RTVSPost2010Prop44ColorIndex
 90
        5
102
RTVSPost2010Prop44ColorRGB
 90
      255
102
RTVSPost2010PropOp44
 70
     0
102
RTVSPost2010Prop45
280
     0
102
RTVSPost2010PropOp45
 70
     0
102
RTVSPost2010Prop46
 90
       50
102
RTVSPost2010PropOp46
 70
     0
102
RTVSPost2010Prop47
 90
       50
102
RTVSPost2010PropOp47
 70
     0
102
RTVSPost2010Prop48
 90
       50
102
RTVSPost2010PropOp48
 70
     0
102
RTVSPost2010Prop49
280
     0
102
RTVSPost2010PropOp49
 70
     0
102
RTVSPost2010Prop50
 90
       50
102
RTVSPost2010PropOp50
 70
     0
102
RTVSPost2010Prop51ColorIndex
 90
      256
102
RTVSPost2010Prop51ColorRGB
 90
-16777216
102
RTVSPost2010PropOp51
 70
     0
102
RTVSPost2010Prop52
140
1.0
102
RTVSPost2010PropOp52
 70
     0
102
RTVSPost2010Prop53
 90
        2
102
RTVSPost2010PropOp53
 70
     0
102
RTVSPost2010Prop54
  1
strokes_ogs.tif
102
RTVSPost2010PropOp54
 70
     0
102
RTVSPost2010Prop55
280
     0
102
RTVSPost2010PropOp55
 70
     0
102
RTVSPost2010Prop56
140
1.0
102
RTVSPost2010PropOp56
 70
     0
102
RTVSPost2010Prop57
140
1.0
102
RTVSPost2010PropOp57
 70
     0
  0
XRECORD
  5
74C
102
{ACAD_REACTORS
330
74B
102
}
330
74B
100
AcDbXrecord
280
     1
102
RTVSPost2010Prop28
280
     0
102
RTVSPost2010PropOp28
 70
     1
102
RTVSPost2010Prop29
280
     1
102
RTVSPost2010PropOp29
 70
     1
102
RTVSPost2010Prop30
280
     1
102
RTVSPost2010PropOp30
 70
     1
102
RTVSPost2010Prop31
280
     0
102
RTVSPost2010PropOp31
 70
     1
102
RTVSPost2010Prop32
280
     0
102
RTVSPost2010PropOp32
 70
     1
102
RTVSPost2010Prop33
280
     0
102
RTVSPost2010PropOp33
 70
     1
102
RTVSPost2010Prop34
280
     0
102
RTVSPost2010PropOp34
 70
     1
102
RTVSPost2010Prop35
280
     0
102
RTVSPost2010PropOp35
 70
     1
102
RTVSPost2010Prop36
280
     0
102
RTVSPost2010PropOp36
 70
     1
102
RTVSPost2010Prop37
 90
       50
102
RTVSPost2010PropOp37
 70
     1
102
RTVSPost2010Prop38
140
0.0
102
RTVSPost2010PropOp38
 70
     1
102
RTVSPost2010Prop39
140
1.0
102
RTVSPost2010PropOp39
 70
     1
102
RTVSPost2010Prop40
 90
        0
102
RTVSPost2010PropOp40
 70
     1
102
RTVSPost2010Prop41ColorIndex
 90
       18
102
RTVSPost2010Prop41ColorRGB
 90
        0
102
RTVSPost2010PropOp41
 70
     1
102
RTVSPost2010Prop42
 90
       50
102
RTVSPost2010PropOp42
 70
     1
102
RTVSPost2010Prop43
 90
        3
102
RTVSPost2010PropOp43
 70
     1
102
RTVSPost2010Prop44ColorIndex
 90
        5
102
RTVSPost2010Prop44ColorRGB
 90
      255
102
RTVSPost2010PropOp44
 70
     1
102
RTVSPost2010Prop45
280
     0
102
RTVSPost2010PropOp45
 70
     1
102
RTVSPost2010Prop46
 90
       50
102
RTVSPost2010PropOp46
 70
     1
102
RTVSPost2010Prop47
 90
       50
102
RTVSPost2010PropOp47
 70
     1
102
RTVSPost2010Prop48
 90
       50
102
RTVSPost2010PropOp48
 70
     1
102
RTVSPost2010Prop49
280
     0
102
RTVSPost2010PropOp49
 70
     1
102
RTVSPost2010Prop50
 90
       50
102
RTVSPost2010PropOp50
 70
     1
102
RTVSPost2010Prop51ColorIndex
 90
      256
102
RTVSPost2010Prop51ColorRGB
 90
-16777216
102
RTVSPost2010PropOp51
 70
     0
102
RTVSPost2010Prop52
140
1.0
102
RTVSPost2010PropOp52
 70
     0
102
RTVSPost2010Prop53
 90
        2
102
RTVSPost2010PropOp53
 70
     1
102
RTVSPost2010Prop54
  1
strokes_ogs.tif
102
RTVSPost2010PropOp54
 70
     1
102
RTVSPost2010Prop55
280
     0
102
RTVSPost2010PropOp55
 70
     1
102
RTVSPost2010Prop56
140
1.0
102
RTVSPost2010PropOp56
 70
     1
102
RTVSPost2010Prop57
140
1.0
102
RTVSPost2010PropOp57
 70
     1
  0
XRECORD
  5
75E
102
{ACAD_REACTORS
330
75D
102
}
330
75D
100
AcDbXrecord
280
     1
102
RTVSPost2010Prop28
280
     0
102
RTVSPost2010PropOp28
 70
     0
102
RTVSPost2010Prop29
280
     1
102
RTVSPost2010PropOp29
 70
     0
102
RTVSPost2010Prop30
280
     1
102
RTVSPost2010PropOp30
 70
     0
102
RTVSPost2010Prop31
280
     0
102
RTVSPost2010PropOp31
 70
     0
102
RTVSPost2010Prop32
280
     0
102
RTVSPost2010PropOp32
 70
     0
102
RTVSPost2010Prop33
280
     0
102
RTVSPost2010PropOp33
 70
     0
102
RTVSPost2010Prop34
280
     0
102
RTVSPost2010PropOp34
 70
     0
102
RTVSPost2010Prop35
280
     0
102
RTVSPost2010PropOp35
 70
     0
102
RTVSPost2010Prop36
280
     0
102
RTVSPost2010PropOp36
 70
     0
102
RTVSPost2010Prop37
 90
       50
102
RTVSPost2010PropOp37
 70
     0
102
RTVSPost2010Prop38
140
0.0
102
RTVSPost2010PropOp38
 70
     0
102
RTVSPost2010Prop39
140
1.0
102
RTVSPost2010PropOp39
 70
     0
102
RTVSPost2010Prop40
 90
        0
102
RTVSPost2010PropOp40
 70
     0
102
RTVSPost2010Prop41ColorIndex
 90
       18
102
RTVSPost2010Prop41ColorRGB
 90
        0
102
RTVSPost2010PropOp41
 70
     0
102
RTVSPost2010Prop42
 90
       50
102
RTVSPost2010PropOp42
 70
     0
102
RTVSPost2010Prop43
 90
        3
102
RTVSPost2010PropOp43
 70
     0
102
RTVSPost2010Prop44ColorIndex
 90
        5
102
RTVSPost2010Prop44ColorRGB
 90
      255
102
RTVSPost2010PropOp44
 70
     0
102
RTVSPost2010Prop45
280
     0
102
RTVSPost2010PropOp45
 70
     0
102
RTVSPost2010Prop46
 90
       50
102
RTVSPost2010PropOp46
 70
     0
102
RTVSPost2010Prop47
 90
       50
102
RTVSPost2010PropOp47
 70
     0
102
RTVSPost2010Prop48
 90
       50
102
RTVSPost2010PropOp48
 70
     0
102
RTVSPost2010Prop49
280
     0
102
RTVSPost2010PropOp49
 70
     0
102
RTVSPost2010Prop50
 90
       50
102
RTVSPost2010PropOp50
 70
     0
102
RTVSPost2010Prop51ColorIndex
 90
      256
102
RTVSPost2010Prop51ColorRGB
 90
-16777216
102
RTVSPost2010PropOp51
 70
     0
102
RTVSPost2010Prop52
140
1.0
102
RTVSPost2010PropOp52
 70
     0
102
RTVSPost2010Prop53
 90
        2
102
RTVSPost2010PropOp53
 70
     0
102
RTVSPost2010Prop54
  1
strokes_ogs.tif
102
RTVSPost2010PropOp54
 70
     0
102
RTVSPost2010Prop55
280
     0
102
RTVSPost2010PropOp55
 70
     0
102
RTVSPost2010Prop56
140
1.0
102
RTVSPost2010PropOp56
 70
     0
102
RTVSPost2010Prop57
140
1.0
102
RTVSPost2010PropOp57
 70
     0
  0
XRECORD
  5
744
102
{ACAD_REACTORS
330
743
102
}
330
743
100
AcDbXrecord
280
     1
102
RTVSPost2010Prop28
280
     0
102
RTVSPost2010PropOp28
 70
     1
102
RTVSPost2010Prop29
280
     1
102
RTVSPost2010PropOp29
 70
     1
102
RTVSPost2010Prop30
280
     1
102
RTVSPost2010PropOp30
 70
     1
102
RTVSPost2010Prop31
280
     0
102
RTVSPost2010PropOp31
 70
     1
102
RTVSPost2010Prop32
280
     0
102
RTVSPost2010PropOp32
 70
     1
102
RTVSPost2010Prop33
280
     0
102
RTVSPost2010PropOp33
 70
     1
102
RTVSPost2010Prop34
280
     0
102
RTVSPost2010PropOp34
 70
     1
102
RTVSPost2010Prop35
280
     0
102
RTVSPost2010PropOp35
 70
     1
102
RTVSPost2010Prop36
280
     0
102
RTVSPost2010PropOp36
 70
     1
102
RTVSPost2010Prop37
 90
       50
102
RTVSPost2010PropOp37
 70
     1
102
RTVSPost2010Prop38
140
0.0
102
RTVSPost2010PropOp38
 70
     1
102
RTVSPost2010Prop39
140
1.0
102
RTVSPost2010PropOp39
 70
     1
102
RTVSPost2010Prop40
 90
        0
102
RTVSPost2010PropOp40
 70
     1
102
RTVSPost2010Prop41ColorIndex
 90
       18
102
RTVSPost2010Prop41ColorRGB
 90
        0
102
RTVSPost2010PropOp41
 70
     1
102
RTVSPost2010Prop42
 90
       50
102
RTVSPost2010PropOp42
 70
     1
102
RTVSPost2010Prop43
 90
        3
102
RTVSPost2010PropOp43
 70
     1
102
RTVSPost2010Prop44ColorIndex
 90
        5
102
RTVSPost2010Prop44ColorRGB
 90
      255
102
RTVSPost2010PropOp44
 70
     1
102
RTVSPost2010Prop45
280
     0
102
RTVSPost2010PropOp45
 70
     1
102
RTVSPost2010Prop46
 90
       50
102
RTVSPost2010PropOp46
 70
     1
102
RTVSPost2010Prop47
 90
       50
102
RTVSPost2010PropOp47
 70
     1
102
RTVSPost2010Prop48
 90
       50
102
RTVSPost2010PropOp48
 70
     1
102
RTVSPost2010Prop49
280
     0
102
RTVSPost2010PropOp49
 70
     1
102
RTVSPost2010Prop50
 90
       50
102
RTVSPost2010PropOp50
 70
     1
102
RTVSPost2010Prop51ColorIndex
 90
      256
102
RTVSPost2010Prop51ColorRGB
 90
-16777216
102
RTVSPost2010PropOp51
 70
     0
102
RTVSPost2010Prop52
140
1.0
102
RTVSPost2010PropOp52
 70
     0
102
RTVSPost2010Prop53
 90
        2
102
RTVSPost2010PropOp53
 70
     1
102
RTVSPost2010Prop54
  1
strokes_ogs.tif
102
RTVSPost2010PropOp54
 70
     1
102
RTVSPost2010Prop55
280
     0
102
RTVSPost2010PropOp55
 70
     1
102
RTVSPost2010Prop56
140
1.0
102
RTVSPost2010PropOp56
 70
     1
102
RTVSPost2010Prop57
140
1.0
102
RTVSPost2010PropOp57
 70
     1
  0
XRECORD
  5
75A
102
{ACAD_REACTORS
330
759
102
}
330
759
100
AcDbXrecord
280
     1
102
RTVSPost2010Prop28
280
     0
102
RTVSPost2010PropOp28
 70
     1
102
RTVSPost2010Prop29
280
     1
102
RTVSPost2010PropOp29
 70
     1
102
RTVSPost2010Prop30
280
     1
102
RTVSPost2010PropOp30
 70
     1
102
RTVSPost2010Prop31
280
     0
102
RTVSPost2010PropOp31
 70
     1
102
RTVSPost2010Prop32
280
     0
102
RTVSPost2010PropOp32
 70
     1
102
RTVSPost2010Prop33
280
     0
102
RTVSPost2010PropOp33
 70
     1
102
RTVSPost2010Prop34
280
     0
102
RTVSPost2010PropOp34
 70
     1
102
RTVSPost2010Prop35
280
     0
102
RTVSPost2010PropOp35
 70
     1
102
RTVSPost2010Prop36
280
     0
102
RTVSPost2010PropOp36
 70
     1
102
RTVSPost2010Prop37
 90
       50
102
RTVSPost2010PropOp37
 70
     1
102
RTVSPost2010Prop38
140
0.0
102
RTVSPost2010PropOp38
 70
     1
102
RTVSPost2010Prop39
140
1.0
102
RTVSPost2010PropOp39
 70
     1
102
RTVSPost2010Prop40
 90
        0
102
RTVSPost2010PropOp40
 70
     1
102
RTVSPost2010Prop41ColorIndex
 90
       18
102
RTVSPost2010Prop41ColorRGB
 90
        0
102
RTVSPost2010PropOp41
 70
     1
102
RTVSPost2010Prop42
 90
       50
102
RTVSPost2010PropOp42
 70
     1
102
RTVSPost2010Prop43
 90
        3
102
RTVSPost2010PropOp43
 70
     1
102
RTVSPost2010Prop44ColorIndex
 90
        5
102
RTVSPost2010Prop44ColorRGB
 90
      255
102
RTVSPost2010PropOp44
 70
     1
102
RTVSPost2010Prop45
280
     0
102
RTVSPost2010PropOp45
 70
     1
102
RTVSPost2010Prop46
 90
       50
102
RTVSPost2010PropOp46
 70
     1
102
RTVSPost2010Prop47
 90
       50
102
RTVSPost2010PropOp47
 70
     1
102
RTVSPost2010Prop48
 90
       50
102
RTVSPost2010PropOp48
 70
     1
102
RTVSPost2010Prop49
280
     0
102
RTVSPost2010PropOp49
 70
     1
102
RTVSPost2010Prop50
 90
       50
102
RTVSPost2010PropOp50
 70
     1
102
RTVSPost2010Prop51ColorIndex
 90
      256
102
RTVSPost2010Prop51ColorRGB
 90
-16777216
102
RTVSPost2010PropOp51
 70
     0
102
RTVSPost2010Prop52
140
1.0
102
RTVSPost2010PropOp52
 70
     0
102
RTVSPost2010Prop53
 90
        2
102
RTVSPost2010PropOp53
 70
     1
102
RTVSPost2010Prop54
  1
strokes_ogs.tif
102
RTVSPost2010PropOp54
 70
     1
102
RTVSPost2010Prop55
280
     0
102
RTVSPost2010PropOp55
 70
     1
102
RTVSPost2010Prop56
140
1.0
102
RTVSPost2010PropOp56
 70
     1
102
RTVSPost2010Prop57
140
1.0
102
RTVSPost2010PropOp57
 70
     1
  0
XRECORD
  5
758
102
{ACAD_REACTORS
330
757
102
}
330
757
100
AcDbXrecord
280
     1
102
RTVSPost2010Prop28
280
     0
102
RTVSPost2010PropOp28
 70
     1
102
RTVSPost2010Prop29
280
     1
102
RTVSPost2010PropOp29
 70
     1
102
RTVSPost2010Prop30
280
     1
102
RTVSPost2010PropOp30
 70
     1
102
RTVSPost2010Prop31
280
     0
102
RTVSPost2010PropOp31
 70
     1
102
RTVSPost2010Prop32
280
     0
102
RTVSPost2010PropOp32
 70
     1
102
RTVSPost2010Prop33
280
     0
102
RTVSPost2010PropOp33
 70
     1
102
RTVSPost2010Prop34
280
     0
102
RTVSPost2010PropOp34
 70
     1
102
RTVSPost2010Prop35
280
     0
102
RTVSPost2010PropOp35
 70
     1
102
RTVSPost2010Prop36
280
     0
102
RTVSPost2010PropOp36
 70
     1
102
RTVSPost2010Prop37
 90
       50
102
RTVSPost2010PropOp37
 70
     1
102
RTVSPost2010Prop38
140
0.0
102
RTVSPost2010PropOp38
 70
     1
102
RTVSPost2010Prop39
140
1.0
102
RTVSPost2010PropOp39
 70
     1
102
RTVSPost2010Prop40
 90
        0
102
RTVSPost2010PropOp40
 70
     1
102
RTVSPost2010Prop41ColorIndex
 90
       18
102
RTVSPost2010Prop41ColorRGB
 90
        0
102
RTVSPost2010PropOp41
 70
     1
102
RTVSPost2010Prop42
 90
       50
102
RTVSPost2010PropOp42
 70
     1
102
RTVSPost2010Prop43
 90
        3
102
RTVSPost2010PropOp43
 70
     1
102
RTVSPost2010Prop44ColorIndex
 90
        5
102
RTVSPost2010Prop44ColorRGB
 90
      255
102
RTVSPost2010PropOp44
 70
     1
102
RTVSPost2010Prop45
280
     0
102
RTVSPost2010PropOp45
 70
     1
102
RTVSPost2010Prop46
 90
       50
102
RTVSPost2010PropOp46
 70
     1
102
RTVSPost2010Prop47
 90
       50
102
RTVSPost2010PropOp47
 70
     1
102
RTVSPost2010Prop48
 90
       50
102
RTVSPost2010PropOp48
 70
     1
102
RTVSPost2010Prop49
280
     0
102
RTVSPost2010PropOp49
 70
     1
102
RTVSPost2010Prop50
 90
       50
102
RTVSPost2010PropOp50
 70
     1
102
RTVSPost2010Prop51ColorIndex
 90
      256
102
RTVSPost2010Prop51ColorRGB
 90
-16777216
102
RTVSPost2010PropOp51
 70
     0
102
RTVSPost2010Prop52
140
1.0
102
RTVSPost2010PropOp52
 70
     0
102
RTVSPost2010Prop53
 90
        2
102
RTVSPost2010PropOp53
 70
     1
102
RTVSPost2010Prop54
  1
strokes_ogs.tif
102
RTVSPost2010PropOp54
 70
     1
102
RTVSPost2010Prop55
280
     0
102
RTVSPost2010PropOp55
 70
     1
102
RTVSPost2010Prop56
140
1.0
102
RTVSPost2010PropOp56
 70
     1
102
RTVSPost2010Prop57
140
1.0
102
RTVSPost2010PropOp57
 70
     1
  0
XRECORD
  5
752
102
{ACAD_REACTORS
330
751
102
}
330
751
100
AcDbXrecord
280
     1
102
RTVSPost2010Prop28
280
     0
102
RTVSPost2010PropOp28
 70
     1
102
RTVSPost2010Prop29
280
     1
102
RTVSPost2010PropOp29
 70
     1
102
RTVSPost2010Prop30
280
     1
102
RTVSPost2010PropOp30
 70
     1
102
RTVSPost2010Prop31
280
     0
102
RTVSPost2010PropOp31
 70
     1
102
RTVSPost2010Prop32
280
     0
102
RTVSPost2010PropOp32
 70
     1
102
RTVSPost2010Prop33
280
     0
102
RTVSPost2010PropOp33
 70
     1
102
RTVSPost2010Prop34
280
     0
102
RTVSPost2010PropOp34
 70
     1
102
RTVSPost2010Prop35
280
     0
102
RTVSPost2010PropOp35
 70
     1
102
RTVSPost2010Prop36
280
     0
102
RTVSPost2010PropOp36
 70
     1
102
RTVSPost2010Prop37
 90
       50
102
RTVSPost2010PropOp37
 70
     1
102
RTVSPost2010Prop38
140
0.0
102
RTVSPost2010PropOp38
 70
     1
102
RTVSPost2010Prop39
140
1.0
102
RTVSPost2010PropOp39
 70
     1
102
RTVSPost2010Prop40
 90
        0
102
RTVSPost2010PropOp40
 70
     1
102
RTVSPost2010Prop41ColorIndex
 90
       18
102
RTVSPost2010Prop41ColorRGB
 90
        0
102
RTVSPost2010PropOp41
 70
     1
102
RTVSPost2010Prop42
 90
       50
102
RTVSPost2010PropOp42
 70
     1
102
RTVSPost2010Prop43
 90
        3
102
RTVSPost2010PropOp43
 70
     1
102
RTVSPost2010Prop44ColorIndex
 90
        5
102
RTVSPost2010Prop44ColorRGB
 90
      255
102
RTVSPost2010PropOp44
 70
     1
102
RTVSPost2010Prop45
280
     0
102
RTVSPost2010PropOp45
 70
     1
102
RTVSPost2010Prop46
 90
       50
102
RTVSPost2010PropOp46
 70
     1
102
RTVSPost2010Prop47
 90
       50
102
RTVSPost2010PropOp47
 70
     1
102
RTVSPost2010Prop48
 90
       50
102
RTVSPost2010PropOp48
 70
     1
102
RTVSPost2010Prop49
280
     0
102
RTVSPost2010PropOp49
 70
     1
102
RTVSPost2010Prop50
 90
       50
102
RTVSPost2010PropOp50
 70
     1
102
RTVSPost2010Prop51ColorIndex
 90
      256
102
RTVSPost2010Prop51ColorRGB
 90
-16777216
102
RTVSPost2010PropOp51
 70
     0
102
RTVSPost2010Prop52
140
1.0
102
RTVSPost2010PropOp52
 70
     0
102
RTVSPost2010Prop53
 90
        2
102
RTVSPost2010PropOp53
 70
     1
102
RTVSPost2010Prop54
  1
strokes_ogs.tif
102
RTVSPost2010PropOp54
 70
     1
102
RTVSPost2010Prop55
280
     0
102
RTVSPost2010PropOp55
 70
     1
102
RTVSPost2010Prop56
140
1.0
102
RTVSPost2010PropOp56
 70
     1
102
RTVSPost2010Prop57
140
1.0
102
RTVSPost2010PropOp57
 70
     1
  0
XRECORD
  5
754
102
{ACAD_REACTORS
330
753
102
}
330
753
100
AcDbXrecord
280
     1
102
RTVSPost2010Prop28
280
     0
102
RTVSPost2010PropOp28
 70
     1
102
RTVSPost2010Prop29
280
     1
102
RTVSPost2010PropOp29
 70
     1
102
RTVSPost2010Prop30
280
     1
102
RTVSPost2010PropOp30
 70
     1
102
RTVSPost2010Prop31
280
     0
102
RTVSPost2010PropOp31
 70
     1
102
RTVSPost2010Prop32
280
     0
102
RTVSPost2010PropOp32
 70
     1
102
RTVSPost2010Prop33
280
     0
102
RTVSPost2010PropOp33
 70
     1
102
RTVSPost2010Prop34
280
     0
102
RTVSPost2010PropOp34
 70
     1
102
RTVSPost2010Prop35
280
     0
102
RTVSPost2010PropOp35
 70
     1
102
RTVSPost2010Prop36
280
     0
102
RTVSPost2010PropOp36
 70
     1
102
RTVSPost2010Prop37
 90
       50
102
RTVSPost2010PropOp37
 70
     1
102
RTVSPost2010Prop38
140
0.0
102
RTVSPost2010PropOp38
 70
     1
102
RTVSPost2010Prop39
140
1.0
102
RTVSPost2010PropOp39
 70
     1
102
RTVSPost2010Prop40
 90
        0
102
RTVSPost2010PropOp40
 70
     1
102
RTVSPost2010Prop41ColorIndex
 90
       18
102
RTVSPost2010Prop41ColorRGB
 90
        0
102
RTVSPost2010PropOp41
 70
     1
102
RTVSPost2010Prop42
 90
       50
102
RTVSPost2010PropOp42
 70
     1
102
RTVSPost2010Prop43
 90
        3
102
RTVSPost2010PropOp43
 70
     1
102
RTVSPost2010Prop44ColorIndex
 90
        5
102
RTVSPost2010Prop44ColorRGB
 90
      255
102
RTVSPost2010PropOp44
 70
     1
102
RTVSPost2010Prop45
280
     0
102
RTVSPost2010PropOp45
 70
     1
102
RTVSPost2010Prop46
 90
       50
102
RTVSPost2010PropOp46
 70
     1
102
RTVSPost2010Prop47
 90
       50
102
RTVSPost2010PropOp47
 70
     1
102
RTVSPost2010Prop48
 90
       50
102
RTVSPost2010PropOp48
 70
     1
102
RTVSPost2010Prop49
280
     0
102
RTVSPost2010PropOp49
 70
     1
102
RTVSPost2010Prop50
 90
       50
102
RTVSPost2010PropOp50
 70
     1
102
RTVSPost2010Prop51ColorIndex
 90
      256
102
RTVSPost2010Prop51ColorRGB
 90
-16777216
102
RTVSPost2010PropOp51
 70
     0
102
RTVSPost2010Prop52
140
1.0
102
RTVSPost2010PropOp52
 70
     0
102
RTVSPost2010Prop53
 90
        2
102
RTVSPost2010PropOp53
 70
     1
102
RTVSPost2010Prop54
  1
strokes_ogs.tif
102
RTVSPost2010PropOp54
 70
     1
102
RTVSPost2010Prop55
280
     0
102
RTVSPost2010PropOp55
 70
     1
102
RTVSPost2010Prop56
140
1.0
102
RTVSPost2010PropOp56
 70
     1
102
RTVSPost2010Prop57
140
1.0
102
RTVSPost2010PropOp57
 70
     1
  0
XRECORD
  5
74A
102
{ACAD_REACTORS
330
749
102
}
330
749
100
AcDbXrecord
280
     1
102
RTVSPost2010Prop28
280
     0
102
RTVSPost2010PropOp28
 70
     1
102
RTVSPost2010Prop29
280
     1
102
RTVSPost2010PropOp29
 70
     1
102
RTVSPost2010Prop30
280
     1
102
RTVSPost2010PropOp30
 70
     1
102
RTVSPost2010Prop31
280
     0
102
RTVSPost2010PropOp31
 70
     1
102
RTVSPost2010Prop32
280
     0
102
RTVSPost2010PropOp32
 70
     1
102
RTVSPost2010Prop33
280
     0
102
RTVSPost2010PropOp33
 70
     1
102
RTVSPost2010Prop34
280
     0
102
RTVSPost2010PropOp34
 70
     1
102
RTVSPost2010Prop35
280
     0
102
RTVSPost2010PropOp35
 70
     1
102
RTVSPost2010Prop36
280
     0
102
RTVSPost2010PropOp36
 70
     1
102
RTVSPost2010Prop37
 90
       50
102
RTVSPost2010PropOp37
 70
     1
102
RTVSPost2010Prop38
140
0.0
102
RTVSPost2010PropOp38
 70
     1
102
RTVSPost2010Prop39
140
1.0
102
RTVSPost2010PropOp39
 70
     1
102
RTVSPost2010Prop40
 90
        0
102
RTVSPost2010PropOp40
 70
     1
102
RTVSPost2010Prop41ColorIndex
 90
       18
102
RTVSPost2010Prop41ColorRGB
 90
        0
102
RTVSPost2010PropOp41
 70
     1
102
RTVSPost2010Prop42
 90
       50
102
RTVSPost2010PropOp42
 70
     1
102
RTVSPost2010Prop43
 90
        3
102
RTVSPost2010PropOp43
 70
     1
102
RTVSPost2010Prop44ColorIndex
 90
        5
102
RTVSPost2010Prop44ColorRGB
 90
      255
102
RTVSPost2010PropOp44
 70
     1
102
RTVSPost2010Prop45
280
     0
102
RTVSPost2010PropOp45
 70
     1
102
RTVSPost2010Prop46
 90
       50
102
RTVSPost2010PropOp46
 70
     1
102
RTVSPost2010Prop47
 90
       50
102
RTVSPost2010PropOp47
 70
     1
102
RTVSPost2010Prop48
 90
       50
102
RTVSPost2010PropOp48
 70
     1
102
RTVSPost2010Prop49
280
     0
102
RTVSPost2010PropOp49
 70
     1
102
RTVSPost2010Prop50
 90
       50
102
RTVSPost2010PropOp50
 70
     1
102
RTVSPost2010Prop51ColorIndex
 90
      256
102
RTVSPost2010Prop51ColorRGB
 90
-16777216
102
RTVSPost2010PropOp51
 70
     0
102
RTVSPost2010Prop52
140
1.0
102
RTVSPost2010PropOp52
 70
     0
102
RTVSPost2010Prop53
 90
        2
102
RTVSPost2010PropOp53
 70
     1
102
RTVSPost2010Prop54
  1
strokes_ogs.tif
102
RTVSPost2010PropOp54
 70
     1
102
RTVSPost2010Prop55
280
     0
102
RTVSPost2010PropOp55
 70
     1
102
RTVSPost2010Prop56
140
1.0
102
RTVSPost2010PropOp56
 70
     1
102
RTVSPost2010Prop57
140
1.0
102
RTVSPost2010PropOp57
 70
     1
  0
XRECORD
  5
73E
102
{ACAD_REACTORS
330
73D
102
}
330
73D
100
AcDbXrecord
280
     1
102
RTVSPost2010Prop28
280
     0
102
RTVSPost2010PropOp28
 70
     1
102
RTVSPost2010Prop29
280
     1
102
RTVSPost2010PropOp29
 70
     1
102
RTVSPost2010Prop30
280
     1
102
RTVSPost2010PropOp30
 70
     1
102
RTVSPost2010Prop31
280
     0
102
RTVSPost2010PropOp31
 70
     1
102
RTVSPost2010Prop32
280
     0
102
RTVSPost2010PropOp32
 70
     1
102
RTVSPost2010Prop33
280
     0
102
RTVSPost2010PropOp33
 70
     1
102
RTVSPost2010Prop34
280
     0
102
RTVSPost2010PropOp34
 70
     1
102
RTVSPost2010Prop35
280
     0
102
RTVSPost2010PropOp35
 70
     1
102
RTVSPost2010Prop36
280
     0
102
RTVSPost2010PropOp36
 70
     1
102
RTVSPost2010Prop37
 90
       50
102
RTVSPost2010PropOp37
 70
     1
102
RTVSPost2010Prop38
140
0.0
102
RTVSPost2010PropOp38
 70
     1
102
RTVSPost2010Prop39
140
1.0
102
RTVSPost2010PropOp39
 70
     1
102
RTVSPost2010Prop40
 90
        0
102
RTVSPost2010PropOp40
 70
     1
102
RTVSPost2010Prop41ColorIndex
 90
       18
102
RTVSPost2010Prop41ColorRGB
 90
        0
102
RTVSPost2010PropOp41
 70
     1
102
RTVSPost2010Prop42
 90
       50
102
RTVSPost2010PropOp42
 70
     1
102
RTVSPost2010Prop43
 90
        3
102
RTVSPost2010PropOp43
 70
     1
102
RTVSPost2010Prop44ColorIndex
 90
        5
102
RTVSPost2010Prop44ColorRGB
 90
      255
102
RTVSPost2010PropOp44
 70
     1
102
RTVSPost2010Prop45
280
     0
102
RTVSPost2010PropOp45
 70
     1
102
RTVSPost2010Prop46
 90
       50
102
RTVSPost2010PropOp46
 70
     1
102
RTVSPost2010Prop47
 90
       50
102
RTVSPost2010PropOp47
 70
     1
102
RTVSPost2010Prop48
 90
       50
102
RTVSPost2010PropOp48
 70
     1
102
RTVSPost2010Prop49
280
     0
102
RTVSPost2010PropOp49
 70
     1
102
RTVSPost2010Prop50
 90
       50
102
RTVSPost2010PropOp50
 70
     1
102
RTVSPost2010Prop51ColorIndex
 90
      256
102
RTVSPost2010Prop51ColorRGB
 90
-16777216
102
RTVSPost2010PropOp51
 70
     0
102
RTVSPost2010Prop52
140
1.0
102
RTVSPost2010PropOp52
 70
     0
102
RTVSPost2010Prop53
 90
        2
102
RTVSPost2010PropOp53
 70
     1
102
RTVSPost2010Prop54
  1
strokes_ogs.tif
102
RTVSPost2010PropOp54
 70
     1
102
RTVSPost2010Prop55
280
     0
102
RTVSPost2010PropOp55
 70
     1
102
RTVSPost2010Prop56
140
1.0
102
RTVSPost2010PropOp56
 70
     1
102
RTVSPost2010Prop57
140
1.0
102
RTVSPost2010PropOp57
 70
     1
  0
XRECORD
  5
756
102
{ACAD_REACTORS
330
755
102
}
330
755
100
AcDbXrecord
280
     1
102
RTVSPost2010Prop28
280
     0
102
RTVSPost2010PropOp28
 70
     1
102
RTVSPost2010Prop29
280
     1
102
RTVSPost2010PropOp29
 70
     1
102
RTVSPost2010Prop30
280
     1
102
RTVSPost2010PropOp30
 70
     1
102
RTVSPost2010Prop31
280
     0
102
RTVSPost2010PropOp31
 70
     1
102
RTVSPost2010Prop32
280
     0
102
RTVSPost2010PropOp32
 70
     1
102
RTVSPost2010Prop33
280
     0
102
RTVSPost2010PropOp33
 70
     1
102
RTVSPost2010Prop34
280
     0
102
RTVSPost2010PropOp34
 70
     1
102
RTVSPost2010Prop35
280
     0
102
RTVSPost2010PropOp35
 70
     1
102
RTVSPost2010Prop36
280
     0
102
RTVSPost2010PropOp36
 70
     1
102
RTVSPost2010Prop37
 90
       50
102
RTVSPost2010PropOp37
 70
     1
102
RTVSPost2010Prop38
140
0.0
102
RTVSPost2010PropOp38
 70
     1
102
RTVSPost2010Prop39
140
1.0
102
RTVSPost2010PropOp39
 70
     1
102
RTVSPost2010Prop40
 90
        0
102
RTVSPost2010PropOp40
 70
     1
102
RTVSPost2010Prop41ColorIndex
 90
       18
102
RTVSPost2010Prop41ColorRGB
 90
        0
102
RTVSPost2010PropOp41
 70
     1
102
RTVSPost2010Prop42
 90
       50
102
RTVSPost2010PropOp42
 70
     1
102
RTVSPost2010Prop43
 90
        3
102
RTVSPost2010PropOp43
 70
     1
102
RTVSPost2010Prop44ColorIndex
 90
        5
102
RTVSPost2010Prop44ColorRGB
 90
      255
102
RTVSPost2010PropOp44
 70
     1
102
RTVSPost2010Prop45
280
     0
102
RTVSPost2010PropOp45
 70
     1
102
RTVSPost2010Prop46
 90
       50
102
RTVSPost2010PropOp46
 70
     1
102
RTVSPost2010Prop47
 90
       50
102
RTVSPost2010PropOp47
 70
     1
102
RTVSPost2010Prop48
 90
       50
102
RTVSPost2010PropOp48
 70
     1
102
RTVSPost2010Prop49
280
     0
102
RTVSPost2010PropOp49
 70
     1
102
RTVSPost2010Prop50
 90
       50
102
RTVSPost2010PropOp50
 70
     1
102
RTVSPost2010Prop51ColorIndex
 90
      256
102
RTVSPost2010Prop51ColorRGB
 90
-16777216
102
RTVSPost2010PropOp51
 70
     0
102
RTVSPost2010Prop52
140
1.0
102
RTVSPost2010PropOp52
 70
     0
102
RTVSPost2010Prop53
 90
        2
102
RTVSPost2010PropOp53
 70
     1
102
RTVSPost2010Prop54
  1
strokes_ogs.tif
102
RTVSPost2010PropOp54
 70
     1
102
RTVSPost2010Prop55
280
     0
102
RTVSPost2010PropOp55
 70
     1
102
RTVSPost2010Prop56
140
1.0
102
RTVSPost2010PropOp56
 70
     1
102
RTVSPost2010Prop57
140
1.0
102
RTVSPost2010PropOp57
 70
     1
  0
ENDSEC
  0
EOF
