  0
SECTION
  2
HEADER
  9
$ACADVER
  1
AC1024
  9
$ACADMAINTVER
 70
   205
  9
$DWGCODEPAGE
  3
ANSI_1252
  9
$LASTSAVEDBY
  1
Ibrahim
  9
$INSBASE
 10
0.0
 20
0.0
 30
0.0
  9
$EXTMIN
 10
-34.58130131424925
 20
-120.9577333193359
 30
-0.0015258207003583
  9
$EXTMAX
 10
20.17775959502103
 20
-67.12099033011998
 30
0.0000000349246037
  9
$LIMMIN
 10
0.0
 20
0.0
  9
$LIMMAX
 10
12.0
 20
9.0
  9
$ORTHOMODE
 70
     1
  9
$REGENMODE
 70
     1
  9
$FILLMODE
 70
     1
  9
$QTEXTMODE
 70
     0
  9
$MIRRTEXT
 70
     0
  9
$LTSCALE
 40
1.0
  9
$ATTMODE
 70
     1
  9
$TEXTSIZE
 40
0.2
  9
$TRACEWID
 40
0.05
  9
$TEXTSTYLE
  7
Standard
  9
$CLAYER
  8
Basin-Wall_Hung-Grohe-Eurocube-39655000
  9
$CELTYPE
  6
ByLayer
  9
$CECOLOR
 62
   256
  9
$CELTSCALE
 40
1.0
  9
$DISPSILH
 70
     0
  9
$DIMSCALE
 40
1.0
  9
$DIMASZ
 40
0.18
  9
$DIMEXO
 40
0.0625
  9
$DIMDLI
 40
0.38
  9
$DIMRND
 40
0.0
  9
$DIMDLE
 40
0.0
  9
$DIMEXE
 40
0.18
  9
$DIMTP
 40
0.0
  9
$DIMTM
 40
0.0
  9
$DIMTXT
 40
0.18
  9
$DIMCEN
 40
0.09
  9
$DIMTSZ
 40
0.0
  9
$DIMTOL
 70
     0
  9
$DIMLIM
 70
     0
  9
$DIMTIH
 70
     1
  9
$DIMTOH
 70
     1
  9
$DIMSE1
 70
     0
  9
$DIMSE2
 70
     0
  9
$DIMTAD
 70
     0
  9
$DIMZIN
 70
     0
  9
$DIMBLK
  1

  9
$DIMASO
 70
     1
  9
$DIMSHO
 70
     1
  9
$DIMPOST
  1

  9
$DIMAPOST
  1

  9
$DIMALT
 70
     0
  9
$DIMALTD
 70
     2
  9
$DIMALTF
 40
25.4
  9
$DIMLFAC
 40
1.0
  9
$DIMTOFL
 70
     0
  9
$DIMTVP
 40
0.0
  9
$DIMTIX
 70
     0
  9
$DIMSOXD
 70
     0
  9
$DIMSAH
 70
     0
  9
$DIMBLK1
  1

  9
$DIMBLK2
  1

  9
$DIMSTYLE
  2
Standard
  9
$DIMCLRD
 70
     0
  9
$DIMCLRE
 70
     0
  9
$DIMCLRT
 70
     0
  9
$DIMTFAC
 40
1.0
  9
$DIMGAP
 40
0.09
  9
$DIMJUST
 70
     0
  9
$DIMSD1
 70
     0
  9
$DIMSD2
 70
     0
  9
$DIMTOLJ
 70
     1
  9
$DIMTZIN
 70
     0
  9
$DIMALTZ
 70
     0
  9
$DIMALTTZ
 70
     0
  9
$DIMUPT
 70
     0
  9
$DIMDEC
 70
     4
  9
$DIMTDEC
 70
     4
  9
$DIMALTU
 70
     4
  9
$DIMALTTD
 70
     2
  9
$DIMTXSTY
  7
Standard
  9
$DIMAUNIT
 70
     0
  9
$DIMADEC
 70
     0
  9
$DIMALTRND
 40
0.0
  9
$DIMAZIN
 70
     0
  9
$DIMDSEP
 70
    46
  9
$DIMATFIT
 70
     3
  9
$DIMFRAC
 70
     0
  9
$DIMLDRBLK
  1

  9
$DIMLUNIT
 70
     4
  9
$DIMLWD
 70
    -2
  9
$DIMLWE
 70
    -2
  9
$DIMTMOVE
 70
     0
  9
$DIMFXL
 40
1.0
  9
$DIMFXLON
 70
     0
  9
$DIMJOGANG
 40
0.7853981633974483
  9
$DIMTFILL
 70
     0
  9
$DIMTFILLCLR
 70
     0
  9
$DIMARCSYM
 70
     0
  9
$DIMLTYPE
  6

  9
$DIMLTEX1
  6

  9
$DIMLTEX2
  6

  9
$DIMTXTDIRECTION
 70
     0
  9
$LUNITS
 70
     4
  9
$LUPREC
 70
     4
  9
$SKETCHINC
 40
0.1
  9
$FILLETRAD
 40
0.0
  9
$AUNITS
 70
     0
  9
$AUPREC
 70
     0
  9
$MENU
  1
.
  9
$ELEVATION
 40
0.0
  9
$PELEVATION
 40
0.0
  9
$THICKNESS
 40
0.0
  9
$LIMCHECK
 70
     0
  9
$CHAMFERA
 40
0.0
  9
$CHAMFERB
 40
0.0
  9
$CHAMFERC
 40
0.0
  9
$CHAMFERD
 40
0.0
  9
$SKPOLY
 70
     0
  9
$TDCREATE
 40
2458922.407489931
  9
$TDUCREATE
 40
2458922.574156598
  9
$TDUPDATE
 40
2458936.600918623
  9
$TDUUPDATE
 40
2458936.767585289
  9
$TDINDWG
 40
0.0200355556
  9
$TDUSRTIMER
 40
0.0200355556
  9
$USRTIMER
 70
     1
  9
$ANGBASE
 50
0.0
  9
$ANGDIR
 70
     0
  9
$PDMODE
 70
     0
  9
$PDSIZE
 40
0.0
  9
$PLINEWID
 40
0.0
  9
$SPLFRAME
 70
     0
  9
$SPLINETYPE
 70
     6
  9
$SPLINESEGS
 70
     8
  9
$HANDSEED
  5
53B
  9
$SURFTAB1
 70
     6
  9
$SURFTAB2
 70
     6
  9
$SURFTYPE
 70
     6
  9
$SURFU
 70
     6
  9
$SURFV
 70
     6
  9
$UCSBASE
  2

  9
$UCSNAME
  2

  9
$UCSORG
 10
0.0
 20
0.0
 30
0.0
  9
$UCSXDIR
 10
1.0
 20
0.0
 30
0.0
  9
$UCSYDIR
 10
0.0
 20
1.0
 30
0.0
  9
$UCSORTHOREF
  2

  9
$UCSORTHOVIEW
 70
     0
  9
$UCSORGTOP
 10
0.0
 20
0.0
 30
0.0
  9
$UCSORGBOTTOM
 10
0.0
 20
0.0
 30
0.0
  9
$UCSORGLEFT
 10
0.0
 20
0.0
 30
0.0
  9
$UCSORGRIGHT
 10
0.0
 20
0.0
 30
0.0
  9
$UCSORGFRONT
 10
0.0
 20
0.0
 30
0.0
  9
$UCSORGBACK
 10
0.0
 20
0.0
 30
0.0
  9
$PUCSBASE
  2

  9
$PUCSNAME
  2

  9
$PUCSORG
 10
0.0
 20
0.0
 30
0.0
  9
$PUCSXDIR
 10
1.0
 20
0.0
 30
0.0
  9
$PUCSYDIR
 10
0.0
 20
1.0
 30
0.0
  9
$PUCSORTHOREF
  2

  9
$PUCSORTHOVIEW
 70
     0
  9
$PUCSORGTOP
 10
0.0
 20
0.0
 30
0.0
  9
$PUCSORGBOTTOM
 10
0.0
 20
0.0
 30
0.0
  9
$PUCSORGLEFT
 10
0.0
 20
0.0
 30
0.0
  9
$PUCSORGRIGHT
 10
0.0
 20
0.0
 30
0.0
  9
$PUCSORGFRONT
 10
0.0
 20
0.0
 30
0.0
  9
$PUCSORGBACK
 10
0.0
 20
0.0
 30
0.0
  9
$USERI1
 70
     0
  9
$USERI2
 70
     0
  9
$USERI3
 70
     0
  9
$USERI4
 70
     0
  9
$USERI5
 70
     0
  9
$USERR1
 40
0.0
  9
$USERR2
 40
0.0
  9
$USERR3
 40
0.0
  9
$USERR4
 40
0.0
  9
$USERR5
 40
0.0
  9
$WORLDVIEW
 70
     1
  9
$SHADEDGE
 70
     3
  9
$SHADEDIF
 70
    70
  9
$TILEMODE
 70
     1
  9
$MAXACTVP
 70
    64
  9
$PINSBASE
 10
0.0
 20
0.0
 30
0.0
  9
$PLIMCHECK
 70
     0
  9
$PEXTMIN
 10
1.000000000000000E+20
 20
1.000000000000000E+20
 30
1.000000000000000E+20
  9
$PEXTMAX
 10
-1.000000000000000E+20
 20
-1.000000000000000E+20
 30
-1.000000000000000E+20
  9
$PLIMMIN
 10
0.0
 20
0.0
  9
$PLIMMAX
 10
12.0
 20
9.0
  9
$UNITMODE
 70
     0
  9
$VISRETAIN
 70
     1
  9
$PLINEGEN
 70
     0
  9
$PSLTSCALE
 70
     1
  9
$TREEDEPTH
 70
  3020
  9
$CMLSTYLE
  2
Standard
  9
$CMLJUST
 70
     0
  9
$CMLSCALE
 40
1.0
  9
$PROXYGRAPHICS
 70
     1
  9
$MEASUREMENT
 70
     0
  9
$CELWEIGHT
370
    -1
  9
$ENDCAPS
280
     0
  9
$JOINSTYLE
280
     0
  9
$LWDISPLAY
290
     0
  9
$INSUNITS
 70
     1
  9
$HYPERLINKBASE
  1

  9
$STYLESHEET
  1

  9
$XEDIT
290
     1
  9
$CEPSNTYPE
380
     0
  9
$PSTYLEMODE
290
     1
  9
$FINGERPRINTGUID
  2
{B4434C29-B3EA-4785-A297-D09684506BE9}
  9
$VERSIONGUID
  2
{411ADC4A-2387-4EEC-BFD9-107ED45A632B}
  9
$EXTNAMES
290
     1
  9
$PSVPSCALE
 40
0.0
  9
$OLESTARTUP
290
     0
  9
$SORTENTS
280
   127
  9
$INDEXCTL
280
     0
  9
$HIDETEXT
280
     1
  9
$XCLIPFRAME
280
     2
  9
$HALOGAP
280
     0
  9
$OBSCOLOR
 70
   257
  9
$OBSLTYPE
280
     0
  9
$INTERSECTIONDISPLAY
280
     0
  9
$INTERSECTIONCOLOR
 70
   257
  9
$DIMASSOC
280
     2
  9
$PROJECTNAME
  1

  9
$CAMERADISPLAY
290
     0
  9
$LENSLENGTH
 40
50.0
  9
$CAMERAHEIGHT
 40
0.0
  9
$STEPSPERSEC
 40
2.0
  9
$STEPSIZE
 40
6.0
  9
$3DDWFPREC
 40
2.0
  9
$PSOLWIDTH
 40
0.25
  9
$PSOLHEIGHT
 40
4.0
  9
$LOFTANG1
 40
1.570796326794896
  9
$LOFTANG2
 40
1.570796326794896
  9
$LOFTMAG1
 40
0.0
  9
$LOFTMAG2
 40
0.0
  9
$LOFTPARAM
 70
     7
  9
$LOFTNORMALS
280
     1
  9
$LATITUDE
 40
0.0
  9
$LONGITUDE
 40
0.0
  9
$NORTHDIRECTION
 40
0.0
  9
$TIMEZONE
 70
     0
  9
$LIGHTGLYPHDISPLAY
280
     1
  9
$TILEMODELIGHTSYNCH
280
     1
  9
$CMATERIAL
347
11
  9
$SOLIDHIST
280
     0
  9
$SHOWHIST
280
     1
  9
$DWFFRAME
280
     2
  9
$DGNFRAME
280
     0
  9
$REALWORLDSCALE
290
     1
  9
$INTERFERECOLOR
 62
     1
  9
$INTERFEREOBJVS
345
33
  9
$INTERFEREVPVS
346
30
  9
$CSHADOW
280
     0
  9
$SHADOWPLANELOCATION
 40
0.0
  0
ENDSEC
  0
SECTION
  2
CLASSES
  0
CLASS
  1
ACDBDICTIONARYWDFLT
  2
AcDbDictionaryWithDefault
  3
ObjectDBX Classes
 90
        0
 91
        1
280
     0
281
     0
  0
CLASS
  1
MATERIAL
  2
AcDbMaterial
  3
ObjectDBX Classes
 90
     1153
 91
        3
280
     0
281
     0
  0
CLASS
  1
VISUALSTYLE
  2
AcDbVisualStyle
  3
ObjectDBX Classes
 90
     4095
 91
       24
280
     0
281
     0
  0
CLASS
  1
SCALE
  2
AcDbScale
  3
ObjectDBX Classes
 90
     1153
 91
       17
280
     0
281
     0
  0
CLASS
  1
TABLESTYLE
  2
AcDbTableStyle
  3
ObjectDBX Classes
 90
     4095
 91
        1
280
     0
281
     0
  0
CLASS
  1
MLEADERSTYLE
  2
AcDbMLeaderStyle
  3
ACDB_MLEADERSTYLE_CLASS
 90
     4095
 91
        1
280
     0
281
     0
  0
CLASS
  1
ACDBSECTIONVIEWSTYLE
  2
AcDbSectionViewStyle
  3
ObjectDBX Classes
 90
     1025
 91
        1
280
     0
281
     0
  0
CLASS
  1
ACDBDETAILVIEWSTYLE
  2
AcDbDetailViewStyle
  3
ObjectDBX Classes
 90
     1025
 91
        1
280
     0
281
     0
  0
CLASS
  1
RASTERVARIABLES
  2
AcDbRasterVariables
  3
ISM
 90
        0
 91
        1
280
     0
281
     0
  0
CLASS
  1
DICTIONARYVAR
  2
AcDbDictionaryVar
  3
ObjectDBX Classes
 90
        0
 91
        5
280
     0
281
     0
  0
CLASS
  1
SORTENTSTABLE
  2
AcDbSortentsTable
  3
ObjectDBX Classes
 90
        0
 91
        1
280
     0
281
     0
  0
CLASS
  1
NPOCOLLECTION
  2
AcDbImpNonPersistentObjectsCollection
  3
ObjectDBX Classes
 90
     1153
 91
        0
280
     0
281
     0
  0
CLASS
  1
CELLSTYLEMAP
  2
AcDbCellStyleMap
  3
ObjectDBX Classes
 90
     1152
 91
        1
280
     0
281
     0
  0
ENDSEC
  0
SECTION
  2
TABLES
  0
TABLE
  2
VPORT
  5
8
330
0
100
AcDbSymbolTable
 70
     1
  0
VPORT
  5
57
330
8
100
AcDbSymbolTableRecord
100
AcDbViewportTableRecord
  2
*Active
 70
     0
 10
0.0
 20
0.0
 11
1.0
 21
1.0
 12
-7.201770859614107
 22
-94.03936182472794
 13
0.0
 23
0.0
 14
1.0
 24
1.0
 15
0.0
 25
0.0
 16
0.0
 26
0.0
 36
1.0
 17
0.0
 27
0.0
 37
0.0
 40
54.29492803593262
 41
1.799715909090909
 42
50.0
 43
0.0
 44
0.0
 50
0.0
 51
0.0
 71
     0
 72
  1000
 73
     1
 74
     1
 75
     0
 76
     0
 77
     0
 78
     0
281
     0
 65
     1
110
0.0
120
0.0
130
0.0
111
1.0
121
0.0
131
0.0
112
0.0
122
1.0
132
0.0
 79
     0
146
0.0
348
2F
 60
     3
 61
     5
292
     1
282
     1
141
0.0
142
0.0
 63
   250
421
  3355443
1001
ACAD_NAV_VCDISPLAY
1070
     3
  0
ENDTAB
  0
TABLE
  2
LTYPE
  5
5
330
0
100
AcDbSymbolTable
 70
     1
  0
LTYPE
  5
5B
330
5
100
AcDbSymbolTableRecord
100
AcDbLinetypeTableRecord
  2
ByBlock
 70
     0
  3

 72
    65
 73
     0
 40
0.0
  0
LTYPE
  5
5C
330
5
100
AcDbSymbolTableRecord
100
AcDbLinetypeTableRecord
  2
ByLayer
 70
     0
  3

 72
    65
 73
     0
 40
0.0
  0
LTYPE
  5
5D
330
5
100
AcDbSymbolTableRecord
100
AcDbLinetypeTableRecord
  2
Continuous
 70
     0
  3
Solid line
 72
    65
 73
     0
 40
0.0
  0
ENDTAB
  0
TABLE
  2
LAYER
  5
2
102
{ACAD_XDICTIONARY
360
4D1
102
}
330
0
100
AcDbSymbolTable
 70
     2
  0
LAYER
  5
54
330
2
100
AcDbSymbolTableRecord
100
AcDbLayerTableRecord
  2
0
 70
     0
 62
     7
  6
Continuous
370
    -3
390
F
347
21
  0
LAYER
  5
DF
330
2
100
AcDbSymbolTableRecord
100
AcDbLayerTableRecord
  2
Basin-Wall_Hung-Grohe-Eurocube-39655000
 70
     0
 62
     7
  6
Continuous
370
    -3
390
F
347
21
1001
AcAecLayerStandard
1000

1000

1001
AcCmTransparency
1071
        0
  0
ENDTAB
  0
TABLE
  2
STYLE
  5
3
330
0
100
AcDbSymbolTable
 70
     1
  0
STYLE
  5
55
330
3
100
AcDbSymbolTableRecord
100
AcDbTextStyleTableRecord
  2
Standard
 70
     0
 40
0.0
 41
1.0
 50
0.0
 71
     0
 42
0.2
  3
txt
  4

  0
ENDTAB
  0
TABLE
  2
VIEW
  5
6
330
0
100
AcDbSymbolTable
 70
     1
  0
ENDTAB
  0
TABLE
  2
UCS
  5
7
330
0
100
AcDbSymbolTable
 70
     0
  0
ENDTAB
  0
TABLE
  2
APPID
  5
9
330
0
100
AcDbSymbolTable
 70
     6
  0
APPID
  5
56
330
9
100
AcDbSymbolTableRecord
100
AcDbRegAppTableRecord
  2
ACAD
 70
     0
  0
APPID
  5
5E
330
9
100
AcDbSymbolTableRecord
100
AcDbRegAppTableRecord
  2
AcadAnnotative
 70
     0
  0
APPID
  5
78
330
9
100
AcDbSymbolTableRecord
100
AcDbRegAppTableRecord
  2
REVIT
 70
     0
  0
APPID
  5
E0
330
9
100
AcDbSymbolTableRecord
100
AcDbRegAppTableRecord
  2
AcAecLayerStandard
 70
     0
  0
APPID
  5
E1
330
9
100
AcDbSymbolTableRecord
100
AcDbRegAppTableRecord
  2
AcCmTransparency
 70
     0
  0
APPID
  5
E2
330
9
100
AcDbSymbolTableRecord
100
AcDbRegAppTableRecord
  2
ACAD_NAV_VCDISPLAY
 70
     0
  0
ENDTAB
  0
TABLE
  2
DIMSTYLE
  5
A
330
0
100
AcDbSymbolTable
 70
     1
100
AcDbDimStyleTable
 71
     0
  0
DIMSTYLE
105
58
330
A
100
AcDbSymbolTableRecord
100
AcDbDimStyleTableRecord
  2
Standard
 70
     0
340
55
  0
ENDTAB
  0
TABLE
  2
BLOCK_RECORD
  5
1
330
0
100
AcDbSymbolTable
 70
     4
  0
BLOCK_RECORD
  5
70
102
{ACAD_XDICTIONARY
360
CB
102
}
330
1
100
AcDbSymbolTableRecord
100
AcDbBlockTableRecord
  2
*Model_Space
340
73
 70
     0
280
     1
281
     0
  0
BLOCK_RECORD
  5
6C
330
1
100
AcDbSymbolTableRecord
100
AcDbBlockTableRecord
  2
*Paper_Space
340
6F
 70
     0
280
     1
281
     0
  0
BLOCK_RECORD
  5
74
330
1
100
AcDbSymbolTableRecord
100
AcDbBlockTableRecord
  2
*Paper_Space0
340
77
 70
     0
280
     1
281
     0
  0
BLOCK_RECORD
  5
32E
330
1
100
AcDbSymbolTableRecord
100
AcDbBlockTableRecord
  2
Basin-Wall_Hung-Grohe-Eurocube-39655000 Top View
340
0
310
28000000200000002000000001002000000000000010000001000000010000000000000000000000302821FF302821FF302821FF302821FF302821FF302821FF302821FF302821FF302821FF302821FF302821FF302821FF302821FF302821FF302821FF302821FF302821FF302821FF302821FF302821FF302821FF302821
310
FF302821FF302821FF302821FF302821FF302821FF302821FF302821FF302821FF302821FF302821FF302821FF302821FF302821FF302821FF302821FF302821FF302821FF302821FF302821FF302821FF302821FF302821FF302821FF302821FF302821FF302821FF302821FF302821FF302821FF302821FF302821FF3028
310
21FF302821FF302821FF302821FF302821FF302821FF302821FF302821FF302821FF302821FF302821FF302821FF302821FF302821FF302821FF302821FF302821FF302821FF302821FF302821FF302821FF302821FF302821FF302821FF302821FF302821FF302821FF302821FF302821FF302821FF302821FF302821FF30
310
2821FF302821FF302821FF302821FF302821FF302821FF302821FF302821FF302821FF302821FF302821FF302821FF302821FF302821FF302821FF302821FF302821FF302821FF302821FF302821FF302821FF302821FF302821FF302821FF302821FF302821FF302821FF302821FF302821FF302821FF302821FF302821FF
310
302821FF302821FF302821FF302821FF302821FF302821FF302821FF302821FF302821FF302821FF302821FF302821FF302821FFFFFFFFFFFFFFFFFFFFFFFFFFFFFFFFFFFFFFFFFFFFFFFFFFFFFFFFFFFFFFFFFFFFFFFFFFFFFFFFFFFFFFFFFFFFFFFFFFFFFFFFFFFFFFFFFFFFFFFFFFFFFFFFFFFFFFFFFFFFFFFFFFFFFFFF
310
FFFFFFFFFFFFFFFFFFFFFFFFFFFFFFFFFFFFFFFFFFFFFFFFFFFFFFFFFFFFFFFFFFFFFFFFFF302821FF302821FF302821FFFFFFFFFFFFFFFFFF302821FF302821FF302821FF302821FF302821FF302821FF302821FF302821FF302821FF302821FF302821FF302821FF302821FF302821FF302821FF302821FF302821FF3028
310
21FF302821FF302821FF302821FF302821FF302821FF302821FF302821FF302821FFFFFFFFFFFFFFFFFF302821FF302821FFFFFFFFFF302821FF302821FF302821FF302821FF302821FFFFFFFFFFFFFFFFFFFFFFFFFFFFFFFFFFFFFFFFFFFFFFFFFFFFFFFFFFFFFFFFFFFFFFFFFFFFFFFFFFFFFFFFFFFFFFFFFFFFFFFFFFFF
310
FFFFFFFFFFFFFFFFFFFFFFFFFFFFFFFFFFFFFF302821FF302821FF302821FF302821FF302821FFFFFFFFFF302821FF302821FFFFFFFFFF302821FF302821FF302821FF302821FFFFFFFFFF302821FF302821FF302821FF302821FF302821FF302821FF302821FF302821FF302821FF302821FF302821FF302821FF302821FF
310
302821FF302821FF302821FF302821FF302821FFFFFFFFFF302821FF302821FF302821FF302821FFFFFFFFFF302821FF302821FFFFFFFFFF302821FF302821FF302821FFFFFFFFFF302821FF302821FF302821FF302821FF302821FF302821FF302821FF302821FF302821FF302821FF302821FF302821FF302821FF302821
310
FF302821FF302821FF302821FF302821FF302821FF302821FFFFFFFFFF302821FF302821FF302821FFFFFFFFFF302821FF302821FFFFFFFFFF302821FF302821FFFFFFFFFF302821FF302821FF302821FF302821FF302821FF302821FF302821FF302821FF302821FF302821FF302821FF302821FF302821FF302821FF3028
310
21FF302821FF302821FF302821FF302821FF302821FF302821FF302821FFFFFFFFFF302821FF302821FFFFFFFFFF302821FF302821FFFFFFFFFF302821FF302821FFFFFFFFFF302821FF302821FF302821FF302821FF302821FF302821FF302821FF302821FF302821FF302821FF302821FF302821FF302821FF302821FF30
310
2821FF302821FF302821FF302821FF302821FF302821FF302821FF302821FFFFFFFFFF302821FF302821FFFFFFFFFF302821FF302821FFFFFFFFFF302821FF302821FFFFFFFFFF302821FF302821FF302821FF302821FF302821FF302821FF302821FF302821FF302821FF302821FF302821FF302821FF302821FF302821FF
310
302821FF302821FF302821FF302821FF302821FF302821FF302821FF302821FFFFFFFFFF302821FF302821FFFFFFFFFF302821FF302821FFFFFFFFFF302821FF302821FFFFFFFFFF302821FF302821FF302821FF302821FF302821FF302821FF302821FF302821FF302821FF302821FF302821FF302821FF302821FF302821
310
FF302821FF302821FF302821FF302821FF302821FF302821FF302821FF302821FFFFFFFFFF302821FF302821FFFFFFFFFF302821FF302821FFFFFFFFFF302821FF302821FFFFFFFFFF302821FF302821FF302821FF302821FF302821FF302821FF302821FF302821FF302821FF302821FF302821FF302821FF302821FF3028
310
21FF302821FF302821FF302821FF302821FF302821FF302821FF302821FF302821FFFFFFFFFF302821FF302821FFFFFFFFFF302821FF302821FFFFFFFFFF302821FF302821FFFFFFFFFF302821FF302821FF302821FF302821FF302821FF302821FF302821FF302821FF302821FF302821FF302821FF302821FF302821FF30
310
2821FF302821FF302821FF302821FF302821FF302821FF302821FF302821FF302821FFFFFFFFFF302821FF302821FFFFFFFFFF302821FF302821FFFFFFFFFF302821FF302821FFFFFFFFFF302821FF302821FF302821FF302821FF302821FF302821FF302821FF302821FF302821FF302821FF302821FF302821FF302821FF
310
302821FF302821FF302821FF302821FF302821FF302821FF302821FF302821FF302821FFFFFFFFFF302821FF302821FFFFFFFFFF302821FF302821FFFFFFFFFF302821FF302821FFFFFFFFFF302821FF302821FF302821FF302821FF302821FF302821FF302821FF302821FF302821FF302821FFFFFFFFFFFFFFFFFF302821
310
FF302821FF302821FF302821FF302821FF302821FF302821FF302821FF302821FF302821FFFFFFFFFF302821FF302821FFFFFFFFFF302821FF302821FFFFFFFFFF302821FF302821FFFFFFFFFF302821FF302821FF302821FF302821FF302821FF302821FF302821FF302821FF302821FF302821FFFFFFFFFFFFFFFFFF3028
310
21FF302821FF302821FF302821FF302821FF302821FF302821FF302821FF302821FF302821FFFFFFFFFF302821FF302821FFFFFFFFFF302821FF302821FFFFFFFFFF302821FF302821FFFFFFFFFF302821FF302821FF302821FF302821FF302821FF302821FF302821FF302821FF302821FF302821FFFFFFFFFFFFFFFFFF30
310
2821FF302821FF302821FF302821FF302821FF302821FF302821FF302821FF302821FF302821FFFFFFFFFF302821FF302821FFFFFFFFFF302821FF302821FFFFFFFFFF302821FF302821FF302821FFFFFFFFFF302821FF302821FF302821FF302821FF302821FF302821FF302821FF302821FF302821FF302821FF302821FF
310
302821FF302821FF302821FF302821FF302821FF302821FF302821FF302821FF302821FFFFFFFFFF302821FF302821FF302821FFFFFFFFFF302821FF302821FFFFFFFFFF302821FF302821FF302821FFFFFFFFFFFFFFFFFFFFFFFFFFFFFFFFFFFFFFFFFF302821FF302821FF302821FF302821FF302821FF302821FF302821
310
FF302821FF302821FF302821FF302821FF302821FFFFFFFFFFFFFFFFFFFFFFFFFFFFFFFFFFFFFFFFFF302821FF302821FF302821FFFFFFFFFF302821FF302821FFFFFFFFFF302821FF302821FF302821FF302821FF302821FF302821FF302821FF302821FFFFFFFFFFFFFFFFFFFFFFFFFFFFFFFFFFFFFFFFFFFFFFFFFFFFFF
310
FFFFFFFFFFFFFFFFFFFFFFFFFFFFFFFFFFFFFFFFFFFF302821FF302821FF302821FF302821FF302821FF302821FF302821FF302821FFFFFFFFFF302821FF302821FFFFFFFFFF302821FF302821FF302821FF302821FF302821FF302821FF302821FF302821FF302821FF302821FF302821FF302821FF302821FF302821FF30
310
2821FF302821FF302821FF302821FF302821FF302821FF302821FF302821FF302821FF302821FF302821FF302821FF302821FF302821FFFFFFFFFF302821FF302821FFFFFFFFFF302821FF302821FF302821FF302821FF302821FF302821FF302821FF302821FFFFFFFFFFFFFFFFFFFFFFFFFF302821FF302821FFFFFFFFFF
310
FFFFFFFF302821FF302821FFFFFFFFFFFFFFFFFFFFFFFFFF302821FF302821FF302821FF302821FF302821FF302821FF302821FF302821FFFFFFFFFF302821FF302821FFFFFFFFFF302821FF302821FF302821FF302821FF302821FF302821FF302821FF302821FFFFFFFFFFFFFFFFFFFFFFFFFF302821FF302821FFFFFFFF
310
FFFFFFFFFF302821FF302821FFFFFFFFFFFFFFFFFFFFFFFFFF302821FF302821FF302821FF302821FF302821FF302821FF302821FF302821FFFFFFFFFF302821FF302821FFFFFFFFFF302821FF302821FF302821FF302821FF302821FF302821FF302821FF302821FFFFFFFFFFFFFFFFFF302821FF302821FF302821FFFFFF
310
FFFFFFFFFFFF302821FF302821FF302821FFFFFFFFFFFFFFFFFF302821FF302821FF302821FF302821FF302821FF302821FF302821FF302821FFFFFFFFFF302821FF302821FFFFFFFFFF302821FF302821FF302821FF302821FF302821FF302821FF302821FF302821FF302821FF302821FF302821FF302821FF302821FF30
310
2821FF302821FF302821FF302821FF302821FF302821FF302821FF302821FF302821FF302821FF302821FF302821FF302821FF302821FF302821FFFFFFFFFF302821FF302821FFFFFFFFFFFFFFFFFFFFFFFFFFFFFFFFFFFFFFFFFFFFFFFFFFFFFFFFFFFFFFFFFFFFFFFFFFFFFFFFFFFFFFFFFFFFFFFFFFFFFFFFFFFFFFFFFF
310
FFFFFFFFFFFFFFFFFFFFFFFFFFFFFFFFFFFFFFFFFFFFFFFFFFFFFFFFFFFFFFFFFFFFFFFFFFFFFFFFFFFFFFFFFFFFFFFFFFFFFFFFFFFFFFFFFFFFFFFFFFFFFFFF302821FF302821FF302821FF302821FF302821FF302821FF302821FF302821FF302821FF302821FF302821FF302821FF302821FF302821FF302821FF302821
310
FF302821FF302821FF302821FF302821FF302821FF302821FF302821FF302821FF302821FF302821FF302821FF302821FF302821FF302821FF302821FF302821FF302821FF302821FF302821FF302821FF302821FF302821FF302821FF302821FF302821FF302821FF302821FF302821FF302821FF302821FF302821FF3028
310
21FF302821FF302821FF302821FF302821FF302821FF302821FF302821FF302821FF302821FF302821FF302821FF302821FF302821FF302821FF302821FF302821FF302821FF302821FF302821FF302821FF302821FF302821FF302821FF302821FF302821FF302821FF302821FF302821FF302821FF302821FF302821FF30
310
2821FF302821FF302821FF302821FF302821FF302821FF302821FF302821FF302821FF302821FF302821FF302821FF302821FF302821FF302821FF302821FF302821FF302821FF302821FF302821FF302821FF302821FF302821FF302821FF302821FF302821FF302821FF302821FF302821FF302821FF302821FF302821FF
310
302821FF302821FF302821FF302821FF302821FF302821FF302821FF302821FF302821FF302821FF302821FF302821FF302821FF302821FF302821FF302821FF302821FF302821FF
102
{BLKREFS
331
393
102
}
 70
     1
280
     1
281
     1
  0
BLOCK_RECORD
  5
395
330
1
100
AcDbSymbolTableRecord
100
AcDbBlockTableRecord
  2
Basin-Wall_Hung-Grohe-Eurocube-39655000 Front View
340
0
310
28000000200000002000000001002000000000000010000001000000010000000000000000000000302821FF302821FF302821FF302821FF302821FF302821FF302821FF302821FF302821FF302821FF302821FF302821FF302821FF302821FF302821FF302821FF302821FF302821FF302821FF302821FF302821FF302821
310
FF302821FF302821FF302821FF302821FF302821FF302821FF302821FF302821FF302821FF302821FF302821FF302821FF302821FF302821FF302821FF302821FF302821FF302821FF302821FF302821FF302821FF302821FF302821FF302821FF302821FF302821FF302821FF302821FF302821FF302821FF302821FF3028
310
21FF302821FF302821FF302821FF302821FF302821FF302821FF302821FF302821FF302821FF302821FF302821FF302821FF302821FF302821FF302821FF302821FF302821FF302821FF302821FF302821FF302821FF302821FF302821FF302821FF302821FF302821FF302821FF302821FF302821FF302821FF302821FF30
310
2821FF302821FF302821FF302821FF302821FF302821FF302821FF302821FF302821FF302821FF302821FF302821FF302821FF302821FF302821FF302821FF302821FF302821FF302821FF302821FF302821FF302821FF302821FF302821FF302821FF302821FF302821FF302821FF302821FF302821FF302821FF302821FF
310
302821FF302821FF302821FF302821FF302821FF302821FF302821FF302821FF302821FF302821FF302821FF302821FF302821FF302821FF302821FF302821FF302821FF302821FF302821FF302821FF302821FF302821FF302821FF302821FF302821FF302821FF302821FF302821FF302821FF302821FF302821FF302821
310
FF302821FF302821FF302821FF302821FF302821FF302821FF302821FF302821FF302821FF302821FF302821FF302821FF302821FF302821FF302821FF302821FF302821FF302821FF302821FF302821FF302821FF302821FF302821FF302821FF302821FF302821FF302821FF302821FF302821FF302821FF302821FF3028
310
21FF302821FF302821FF302821FF302821FF302821FF302821FF302821FF302821FF302821FF302821FF302821FF302821FF302821FF302821FF302821FF302821FF302821FF302821FF302821FF302821FF302821FF302821FF302821FF302821FF302821FF302821FF302821FF302821FF302821FF302821FF302821FF30
310
2821FF302821FF302821FF302821FF302821FF302821FF302821FF302821FF302821FF302821FF302821FF302821FF302821FF302821FF302821FF302821FF302821FF302821FF302821FF302821FF302821FF302821FF302821FF302821FF302821FF302821FF302821FF302821FF302821FF302821FF302821FF302821FF
310
302821FF302821FF302821FF302821FF302821FF302821FF302821FF302821FF302821FF302821FF302821FF302821FF302821FF302821FF302821FF302821FF302821FF302821FF302821FF302821FF302821FF302821FF302821FF302821FF302821FF302821FF302821FF302821FF302821FF302821FF302821FF302821
310
FF302821FF302821FF302821FF302821FF302821FF302821FF302821FF302821FF302821FF302821FF302821FF302821FF302821FF302821FF302821FF302821FF302821FF302821FF302821FF302821FF302821FF302821FF302821FF302821FF302821FF302821FF302821FF302821FF302821FF302821FF302821FF3028
310
21FF302821FF302821FF302821FF302821FF302821FF302821FF302821FF302821FF302821FF302821FF302821FF302821FF302821FF302821FF302821FF302821FF302821FF302821FF302821FF302821FF302821FF302821FF302821FF302821FF302821FF302821FF302821FF302821FF302821FF302821FF302821FF30
310
2821FF302821FF302821FF302821FF302821FF302821FF302821FF302821FF302821FF302821FF302821FF302821FF302821FF302821FF302821FF302821FF302821FF302821FF302821FF302821FF302821FF302821FF302821FF302821FF302821FF302821FF302821FF302821FF302821FF302821FF302821FF302821FF
310
302821FF302821FF302821FF302821FF302821FF302821FF302821FF302821FF302821FF302821FF302821FF302821FF302821FF302821FF302821FF302821FF302821FF302821FF302821FF302821FF302821FF302821FF302821FF302821FF302821FF302821FF302821FF302821FF302821FF302821FF302821FF302821
310
FF302821FF302821FF302821FF302821FF302821FF302821FF302821FF302821FF302821FF302821FF302821FF302821FF302821FF302821FF302821FFFFFFFFFFFFFFFFFFFFFFFFFFFFFFFFFFFFFFFFFFFFFFFFFFFFFFFFFFFFFFFFFFFFFFFFFFFFFFFFFFFFFFFFFFFFFFFFFFFFFFFFFFFFFFFFFFFFFFFFFFFFFFFFFFFFFF
310
FFFFFFFFFFFFFFFFFFFFFFFFFFFFFFFFFFFFFFFFFFFFFFFFFFFFFFFFFFFFFFFFFFFFFFFFFFFFFFFFFFFFFFFFFFFF302821FF302821FF302821FF302821FFFFFFFFFF302821FF302821FF302821FF302821FF302821FF302821FF302821FF302821FF302821FF302821FF302821FF302821FF302821FF302821FF302821FF30
310
2821FF302821FF302821FF302821FF302821FF302821FF302821FF302821FF302821FF302821FF302821FFFFFFFFFF302821FF302821FF302821FF302821FFFFFFFFFF302821FF302821FF302821FF302821FF302821FF302821FF302821FF302821FF302821FF302821FF302821FF302821FF302821FF302821FF302821FF
310
302821FF302821FF302821FF302821FF302821FF302821FF302821FF302821FF302821FF302821FF302821FFFFFFFFFF302821FF302821FF302821FFFFFFFFFF302821FF302821FF302821FF302821FF302821FF302821FF302821FF302821FF302821FF302821FF302821FF302821FF302821FF302821FF302821FF302821
310
FF302821FF302821FF302821FF302821FF302821FF302821FF302821FF302821FF302821FF302821FF302821FF302821FFFFFFFFFF302821FF302821FFFFFFFFFF302821FF302821FF302821FF302821FF302821FF302821FF302821FF302821FF302821FF302821FF302821FF302821FF302821FF302821FF302821FF3028
310
21FF302821FF302821FF302821FF302821FF302821FF302821FF302821FF302821FF302821FF302821FF302821FF302821FFFFFFFFFF302821FF302821FFFFFFFFFFFFFFFFFFFFFFFFFFFFFFFFFFFFFFFFFFFFFFFFFFFFFFFFFFFFFFFFFFFFFFFFFFFFFFFFFFFFFFFFFFFFFFFFFFFFFFFFFFFFFFFFFFFFFFFFFFFFFFFFFFFF
310
FFFFFFFFFFFFFFFFFFFFFFFFFFFFFFFFFFFFFFFFFFFFFFFFFFFFFFFFFFFFFFFFFFFFFFFFFFFFFFFFFFFFFFFFFFFFFFFFFFFFFFFFFFFFFF302821FF302821FF302821FF302821FF302821FF302821FF302821FF302821FF302821FF302821FF302821FF302821FF302821FF302821FF302821FF302821FF302821FF302821FF
310
302821FF302821FF302821FF302821FF302821FF302821FF302821FF302821FF302821FF302821FF302821FF302821FF302821FF302821FF302821FF302821FF302821FF302821FF302821FF302821FF302821FF302821FF302821FF302821FF302821FF302821FF302821FF302821FF302821FF302821FF302821FF302821
310
FF302821FF302821FF302821FF302821FF302821FF302821FF302821FF302821FF302821FF302821FF302821FF302821FF302821FF302821FF302821FF302821FF302821FF302821FF302821FF302821FF302821FF302821FF302821FF302821FF302821FF302821FF302821FF302821FF302821FF302821FF302821FF3028
310
21FF302821FF302821FF302821FF302821FF302821FF302821FF302821FF302821FF302821FF302821FF302821FF302821FF302821FF302821FF302821FF302821FF302821FF302821FF302821FF302821FF302821FF302821FF302821FF302821FF302821FF302821FF302821FF302821FF302821FF302821FF302821FF30
310
2821FF302821FF302821FF302821FF302821FF302821FF302821FF302821FF302821FF302821FF302821FF302821FF302821FF302821FF302821FF302821FF302821FF302821FF302821FF302821FF302821FF302821FF302821FF302821FF302821FF302821FF302821FF302821FF302821FF302821FF302821FF302821FF
310
302821FF302821FF302821FF302821FF302821FF302821FF302821FF302821FF302821FF302821FF302821FF302821FF302821FF302821FF302821FF302821FF302821FF302821FF302821FF302821FF302821FF302821FF302821FF302821FF302821FF302821FF302821FF302821FF302821FF302821FF302821FF302821
310
FF302821FF302821FF302821FF302821FF302821FF302821FF302821FF302821FF302821FF302821FF302821FF302821FF302821FF302821FF302821FF302821FF302821FF302821FF302821FF302821FF302821FF302821FF302821FF302821FF302821FF302821FF302821FF302821FF302821FF302821FF302821FF3028
310
21FF302821FF302821FF302821FF302821FF302821FF302821FF302821FF302821FF302821FF302821FF302821FF302821FF302821FF302821FF302821FF302821FF302821FF302821FF302821FF302821FF302821FF302821FF302821FF302821FF302821FF302821FF302821FF302821FF302821FF302821FF302821FF30
310
2821FF302821FF302821FF302821FF302821FF302821FF302821FF302821FF302821FF302821FF302821FF302821FF302821FF302821FF302821FF302821FF302821FF302821FF302821FF302821FF302821FF302821FF302821FF302821FF302821FF302821FF302821FF302821FF302821FF302821FF302821FF302821FF
310
302821FF302821FF302821FF302821FF302821FF302821FF302821FF302821FF302821FF302821FF302821FF302821FF302821FF302821FF302821FF302821FF302821FF302821FF302821FF302821FF302821FF302821FF302821FF302821FF302821FF302821FF302821FF302821FF302821FF302821FF302821FF302821
310
FF302821FF302821FF302821FF302821FF302821FF302821FF302821FF302821FF302821FF302821FF302821FF302821FF302821FF302821FF302821FF302821FF302821FF302821FF302821FF302821FF302821FF302821FF302821FF302821FF302821FF302821FF302821FF302821FF302821FF302821FF302821FF3028
310
21FF302821FF302821FF302821FF302821FF302821FF302821FF302821FF302821FF302821FF302821FF302821FF302821FF302821FF302821FF302821FF302821FF302821FF302821FF302821FF302821FF302821FF302821FF302821FF302821FF302821FF302821FF302821FF302821FF302821FF302821FF302821FF30
310
2821FF302821FF302821FF302821FF302821FF302821FF302821FF302821FF302821FF302821FF302821FF302821FF302821FF302821FF302821FF302821FF302821FF302821FF302821FF302821FF302821FF302821FF302821FF302821FF302821FF302821FF302821FF302821FF302821FF302821FF302821FF302821FF
310
302821FF302821FF302821FF302821FF302821FF302821FF302821FF302821FF302821FF302821FF302821FF302821FF302821FF302821FF302821FF302821FF302821FF302821FF
102
{BLKREFS
331
440
102
}
 70
     1
280
     1
281
     1
  0
BLOCK_RECORD
  5
441
330
1
100
AcDbSymbolTableRecord
100
AcDbBlockTableRecord
  2
Basin-Wall_Hung-Grohe-Eurocube-39655000 Side View
340
0
310
28000000200000002000000001002000000000000010000001000000010000000000000000000000302821FF302821FF302821FF302821FF302821FF302821FF302821FF302821FF302821FF302821FF302821FF302821FF302821FF302821FF302821FF302821FF302821FF302821FF302821FF302821FF302821FF302821
310
FF302821FF302821FF302821FF302821FF302821FF302821FF302821FF302821FF302821FF302821FF302821FF302821FF302821FF302821FF302821FF302821FF302821FF302821FF302821FF302821FF302821FF302821FF302821FF302821FF302821FF302821FF302821FF302821FF302821FF302821FF302821FF3028
310
21FF302821FF302821FF302821FF302821FF302821FF302821FF302821FF302821FF302821FF302821FF302821FF302821FF302821FF302821FF302821FF302821FF302821FF302821FF302821FF302821FF302821FF302821FF302821FF302821FF302821FF302821FF302821FF302821FF302821FF302821FF302821FF30
310
2821FF302821FF302821FF302821FF302821FF302821FF302821FF302821FF302821FF302821FF302821FF302821FF302821FF302821FF302821FF302821FF302821FF302821FF302821FF302821FF302821FF302821FF302821FF302821FF302821FF302821FF302821FF302821FF302821FF302821FF302821FF302821FF
310
302821FF302821FF302821FF302821FF302821FF302821FF302821FF302821FF302821FF302821FF302821FF302821FF302821FF302821FF302821FF302821FF302821FF302821FF302821FF302821FF302821FF302821FF302821FF302821FF302821FF302821FF302821FF302821FF302821FF302821FF302821FF302821
310
FF302821FF302821FF302821FF302821FF302821FF302821FF302821FF302821FF302821FF302821FF302821FF302821FF302821FF302821FF302821FF302821FF302821FF302821FF302821FF302821FF302821FF302821FF302821FF302821FF302821FF302821FF302821FF302821FF302821FF302821FF302821FF3028
310
21FF302821FF302821FF302821FF302821FF302821FF302821FF302821FF302821FF302821FF302821FF302821FF302821FF302821FF302821FF302821FF302821FF302821FF302821FF302821FF302821FF302821FF302821FF302821FF302821FF302821FF302821FF302821FF302821FF302821FF302821FF302821FF30
310
2821FF302821FF302821FF302821FF302821FF302821FF302821FF302821FF302821FF302821FF302821FF302821FF302821FF302821FF302821FF302821FF302821FF302821FF302821FF302821FF302821FF302821FF302821FF302821FF302821FF302821FF302821FF302821FF302821FF302821FF302821FF302821FF
310
302821FF302821FF302821FF302821FF302821FF302821FF302821FF302821FF302821FF302821FF302821FF302821FF302821FF302821FF302821FF302821FF302821FF302821FF302821FF302821FF302821FF302821FF302821FF302821FF302821FF302821FF302821FF302821FF302821FF302821FF302821FF302821
310
FF302821FF302821FF302821FF302821FF302821FF302821FF302821FF302821FF302821FF302821FF302821FF302821FF302821FF302821FF302821FF302821FF302821FF302821FF302821FF302821FF302821FF302821FF302821FF302821FF302821FF302821FF302821FF302821FF302821FF302821FF302821FF3028
310
21FF302821FF302821FF302821FF302821FF302821FF302821FF302821FF302821FF302821FF302821FF302821FF302821FF302821FF302821FF302821FF302821FF302821FF302821FF302821FF302821FF302821FF302821FF302821FF302821FF302821FF302821FF302821FF302821FF302821FF302821FF302821FF30
310
2821FF302821FF302821FF302821FF302821FF302821FF302821FF302821FF302821FF302821FF302821FF302821FF302821FF302821FF302821FF302821FF302821FF302821FF302821FF302821FF302821FF302821FF302821FF302821FF302821FF302821FF302821FF302821FF302821FF302821FF302821FF302821FF
310
302821FF302821FF302821FF302821FF302821FF302821FF302821FF302821FF302821FF302821FF302821FF302821FF302821FF302821FFFFFFFFFFFFFFFFFFFFFFFFFFFFFFFFFFFFFFFFFFFFFFFFFFFFFFFFFFFFFFFFFFFFFFFFFFFFFFFFFFFFFFFFFFFFFFFFFFFFFFFFFFFFFFFFFFFFFFFFFFFFFFFFFFFFFFFFFFFFFFFF
310
FFFFFFFFFFFFFFFFFFFFFFFFFFFFFFFFFFFFFFFFFFFFFFFFFFFFFFFFFFFFFFFFFFFFFFFFFFFFFFFFFFFFFFFFFF302821FF302821FF302821FFFFFFFFFF302821FF302821FF302821FF302821FF302821FF302821FF302821FF302821FF302821FF302821FF302821FF302821FF302821FF302821FF302821FF302821FF3028
310
21FF302821FF302821FF302821FF302821FF302821FF302821FF302821FF302821FF302821FF302821FFFFFFFFFF302821FF302821FF302821FFFFFFFFFF302821FF302821FF302821FF302821FF302821FF302821FF302821FF302821FF302821FF302821FF302821FF302821FF302821FF302821FF302821FF302821FF30
310
2821FF302821FF302821FF302821FF302821FF302821FF302821FF302821FF302821FF302821FF302821FFFFFFFFFF302821FF302821FF302821FFFFFFFFFF302821FF302821FF302821FF302821FF302821FF302821FF302821FF302821FF302821FF302821FF302821FF302821FF302821FF302821FF302821FF302821FF
310
302821FF302821FF302821FF302821FF302821FF302821FF302821FF302821FF302821FF302821FF302821FFFFFFFFFF302821FF302821FF302821FFFFFFFFFF302821FF302821FF302821FF302821FF302821FF302821FF302821FF302821FF302821FF302821FF302821FF302821FF302821FF302821FF302821FF302821
310
FF302821FF302821FF302821FF302821FF302821FF302821FF302821FF302821FF302821FF302821FF302821FF302821FFFFFFFFFF302821FF302821FFFFFFFFFF302821FF302821FF302821FF302821FF302821FF302821FF302821FF302821FF302821FF302821FF302821FF302821FF302821FF302821FF302821FF3028
310
21FF302821FF302821FF302821FF302821FF302821FF302821FF302821FF302821FF302821FF302821FF302821FF302821FFFFFFFFFF302821FF302821FFFFFFFFFF302821FF302821FF302821FF302821FF302821FF302821FF302821FF302821FF302821FF302821FF302821FF302821FF302821FF302821FF302821FF30
310
2821FF302821FF302821FF302821FF302821FF302821FF302821FF302821FF302821FF302821FF302821FF302821FFFFFFFFFFFFFFFFFF302821FF302821FFFFFFFFFFFFFFFFFFFFFFFFFFFFFFFFFFFFFFFFFFFFFFFFFFFFFFFFFFFFFFFFFFFFFFFFFFFFFFFFFFFFFFFFFFFFFFFFFFFFFFFFFFFFFFFFFFFFFFFFFFFFFFFFFF
310
FFFFFFFFFFFFFFFFFFFFFFFFFFFFFFFFFFFFFFFFFFFFFFFFFFFFFFFFFFFFFFFFFFFFFFFFFFFFFFFFFFFFFFFFFFFFFFFFFFFFFFFF302821FF302821FF302821FF302821FF302821FF302821FF302821FF302821FF302821FF302821FF302821FF302821FF302821FF302821FF302821FF302821FF302821FF302821FF302821
310
FF302821FF302821FF302821FF302821FF302821FF302821FF302821FF302821FF302821FF302821FF302821FF302821FF302821FF302821FF302821FF302821FF302821FF302821FF302821FF302821FF302821FF302821FF302821FF302821FF302821FF302821FF302821FF302821FF302821FF302821FF302821FF3028
310
21FF302821FF302821FF302821FF302821FF302821FF302821FF302821FF302821FF302821FF302821FF302821FF302821FF302821FF302821FF302821FF302821FF302821FF302821FF302821FF302821FF302821FF302821FF302821FF302821FF302821FF302821FF302821FF302821FF302821FF302821FF302821FF30
310
2821FF302821FF302821FF302821FF302821FF302821FF302821FF302821FF302821FF302821FF302821FF302821FF302821FF302821FF302821FF302821FF302821FF302821FF302821FF302821FF302821FF302821FF302821FF302821FF302821FF302821FF302821FF302821FF302821FF302821FF302821FF302821FF
310
302821FF302821FF302821FF302821FF302821FF302821FF302821FF302821FF302821FF302821FF302821FF302821FF302821FF302821FF302821FF302821FF302821FF302821FF302821FF302821FF302821FF302821FF302821FF302821FF302821FF302821FF302821FF302821FF302821FF302821FF302821FF302821
310
FF302821FF302821FF302821FF302821FF302821FF302821FF302821FF302821FF302821FF302821FF302821FF302821FF302821FF302821FF302821FF302821FF302821FF302821FF302821FF302821FF302821FF302821FF302821FF302821FF302821FF302821FF302821FF302821FF302821FF302821FF302821FF3028
310
21FF302821FF302821FF302821FF302821FF302821FF302821FF302821FF302821FF302821FF302821FF302821FF302821FF302821FF302821FF302821FF302821FF302821FF302821FF302821FF302821FF302821FF302821FF302821FF302821FF302821FF302821FF302821FF302821FF302821FF302821FF302821FF30
310
2821FF302821FF302821FF302821FF302821FF302821FF302821FF302821FF302821FF302821FF302821FF302821FF302821FF302821FF302821FF302821FF302821FF302821FF302821FF302821FF302821FF302821FF302821FF302821FF302821FF302821FF302821FF302821FF302821FF302821FF302821FF302821FF
310
302821FF302821FF302821FF302821FF302821FF302821FF302821FF302821FF302821FF302821FF302821FF302821FF302821FF302821FF302821FF302821FF302821FF302821FF302821FF302821FF302821FF302821FF302821FF302821FF302821FF302821FF302821FF302821FF302821FF302821FF302821FF302821
310
FF302821FF302821FF302821FF302821FF302821FF302821FF302821FF302821FF302821FF302821FF302821FF302821FF302821FF302821FF302821FF302821FF302821FF302821FF302821FF302821FF302821FF302821FF302821FF302821FF302821FF302821FF302821FF302821FF302821FF302821FF302821FF3028
310
21FF302821FF302821FF302821FF302821FF302821FF302821FF302821FF302821FF302821FF302821FF302821FF302821FF302821FF302821FF302821FF302821FF302821FF302821FF302821FF302821FF302821FF302821FF302821FF302821FF302821FF302821FF302821FF302821FF302821FF302821FF302821FF30
310
2821FF302821FF302821FF302821FF302821FF302821FF302821FF302821FF302821FF302821FF302821FF302821FF302821FF302821FF302821FF302821FF302821FF302821FF302821FF302821FF302821FF302821FF302821FF302821FF302821FF302821FF302821FF302821FF302821FF302821FF302821FF302821FF
310
302821FF302821FF302821FF302821FF302821FF302821FF302821FF302821FF302821FF302821FF302821FF302821FF302821FF302821FF302821FF302821FF302821FF302821FF
102
{BLKREFS
331
4CC
102
}
 70
     1
280
     1
281
     1
  0
ENDTAB
  0
ENDSEC
  0
SECTION
  2
BLOCKS
  0
BLOCK
  5
71
330
70
100
AcDbEntity
  8
0
100
AcDbBlockBegin
  2
*Model_Space
 70
     0
 10
0.0
 20
0.0
 30
0.0
  3
*Model_Space
  1

  0
ENDBLK
  5
72
330
70
100
AcDbEntity
  8
0
100
AcDbBlockEnd
  0
BLOCK
  5
6D
330
6C
100
AcDbEntity
 67
     1
  8
0
100
AcDbBlockBegin
  2
*Paper_Space
 70
     0
 10
0.0
 20
0.0
 30
0.0
  3
*Paper_Space
  1

  0
ENDBLK
  5
6E
330
6C
100
AcDbEntity
 67
     1
  8
0
100
AcDbBlockEnd
  0
BLOCK
  5
75
330
74
100
AcDbEntity
 67
     1
  8
0
100
AcDbBlockBegin
  2
*Paper_Space0
 70
     0
 10
0.0
 20
0.0
 30
0.0
  3
*Paper_Space0
  1

  0
ENDBLK
  5
76
330
74
100
AcDbEntity
 67
     1
  8
0
100
AcDbBlockEnd
  0
BLOCK
  5
32F
330
32E
100
AcDbEntity
  8
0
100
AcDbBlockBegin
  2
Basin-Wall_Hung-Grohe-Eurocube-39655000 Top View
 70
     0
 10
0.0
 20
0.0
 30
0.0
  3
Basin-Wall_Hung-Grohe-Eurocube-39655000 Top View
  1

  0
LINE
  5
331
330
32E
100
AcDbEntity
  8
Basin-Wall_Hung-Grohe-Eurocube-39655000
100
AcDbLine
 10
-12.09390062467618
 20
-18.56250000000004
 30
0.0
 11
-12.093500557523
 21
-18.58250069047388
 31
0.0
  0
LINE
  5
332
330
32E
100
AcDbEntity
  8
Basin-Wall_Hung-Grohe-Eurocube-39655000
100
AcDbLine
 10
-12.093500557523
 20
-18.58250069047388
 30
0.0
 11
-12.09230099608555
 21
-18.60246938410955
 31
0.0
  0
LINE
  5
333
330
32E
100
AcDbEntity
  8
Basin-Wall_Hung-Grohe-Eurocube-39655000
100
AcDbLine
 10
-12.09230099608555
 20
-18.60246938410955
 30
0.0
 11
-12.09030385940622
 21
-18.62237413525697
 31
0.0
  0
LINE
  5
334
330
32E
100
AcDbEntity
  8
Basin-Wall_Hung-Grohe-Eurocube-39655000
100
AcDbLine
 10
-12.09030385940622
 20
-18.62237413525697
 30
0.0
 11
-12.08751234247768
 21
-18.64218310056047
 31
0.0
  0
LINE
  5
335
330
32E
100
AcDbEntity
  8
Basin-Wall_Hung-Grohe-Eurocube-39655000
100
AcDbLine
 10
-12.08751234247768
 20
-18.64218310056047
 30
0.0
 11
-12.08393091113155
 21
-18.66186458990123
 31
0.0
  0
LINE
  5
336
330
32E
100
AcDbEntity
  8
Basin-Wall_Hung-Grohe-Eurocube-39655000
100
AcDbLine
 10
-12.08393091113155
 20
-18.66186458990123
 30
0.0
 11
-12.07956529489394
 21
-18.68138711709478
 31
0.0
  0
LINE
  5
337
330
32E
100
AcDbEntity
  8
Basin-Wall_Hung-Grohe-Eurocube-39655000
100
AcDbLine
 10
-12.07956529489394
 20
-18.68138711709478
 30
0.0
 11
-12.07442247781957
 21
-18.70071945026223
 31
0.0
  0
LINE
  5
338
330
32E
100
AcDbEntity
  8
Basin-Wall_Hung-Grohe-Eurocube-39655000
100
AcDbLine
 10
-12.07442247781957
 20
-18.70071945026223
 30
0.0
 11
-12.06851068731868
 21
-18.71983066179449
 31
0.0
  0
LINE
  5
339
330
32E
100
AcDbEntity
  8
Basin-Wall_Hung-Grohe-Eurocube-39655000
100
AcDbLine
 10
-12.06851068731868
 20
-18.71983066179449
 30
0.0
 11
-12.06183938099497
 21
-18.73869017782996
 31
0.0
  0
LINE
  5
33A
330
32E
100
AcDbEntity
  8
Basin-Wall_Hung-Grohe-Eurocube-39655000
100
AcDbLine
 10
-12.06183938099497
 20
-18.73869017782996
 30
0.0
 11
-12.05441923151539
 21
-18.75726782716614
 31
0.0
  0
LINE
  5
33B
330
32E
100
AcDbEntity
  8
Basin-Wall_Hung-Grohe-Eurocube-39655000
100
AcDbLine
 10
-12.05441923151539
 20
-18.75726782716614
 30
0.0
 11
-12.04626210953627
 21
-18.77553388952711
 31
0.0
  0
LINE
  5
33C
330
32E
100
AcDbEntity
  8
Basin-Wall_Hung-Grohe-Eurocube-39655000
100
AcDbLine
 10
-12.04626210953627
 20
-18.77553388952711
 30
0.0
 11
-12.03738106471264
 21
-18.79345914310964
 31
0.0
  0
LINE
  5
33D
330
32E
100
AcDbEntity
  8
Basin-Wall_Hung-Grohe-Eurocube-39655000
100
AcDbLine
 10
-12.03738106471264
 20
-18.79345914310964
 30
0.0
 11
-12.02779030482174
 21
-18.81101491133186
 31
0.0
  0
LINE
  5
33E
330
32E
100
AcDbEntity
  8
Basin-Wall_Hung-Grohe-Eurocube-39655000
100
AcDbLine
 10
-12.02779030482174
 20
-18.81101491133186
 30
0.0
 11
-12.01750517303342
 21
-18.82817310870963
 31
0.0
  0
LINE
  5
33F
330
32E
100
AcDbEntity
  8
Basin-Wall_Hung-Grohe-Eurocube-39655000
100
AcDbLine
 10
-12.01750517303342
 20
-18.82817310870963
 30
0.0
 11
-12.00654212336454
 21
-18.84490628578737
 31
0.0
  0
LINE
  5
340
330
32E
100
AcDbEntity
  8
Basin-Wall_Hung-Grohe-Eurocube-39655000
100
AcDbLine
 10
-12.00654212336454
 20
-18.84490628578737
 30
0.0
 11
-11.99491869435591
 21
-18.86118767305132
 31
0.0
  0
LINE
  5
341
330
32E
100
AcDbEntity
  8
Basin-Wall_Hung-Grohe-Eurocube-39655000
100
AcDbLine
 10
-11.99491869435591
 20
-18.86118767305132
 30
0.0
 11
-11.9826534810144
 21
-18.87699122375501
 31
0.0
  0
LINE
  5
342
330
32E
100
AcDbEntity
  8
Basin-Wall_Hung-Grohe-Eurocube-39655000
100
AcDbLine
 10
-11.9826534810144
 20
-18.87699122375501
 30
0.0
 11
-11.96976610506492
 21
-18.89229165558859
 31
0.0
  0
LINE
  5
343
330
32E
100
AcDbEntity
  8
Basin-Wall_Hung-Grohe-Eurocube-39655000
100
AcDbLine
 10
-11.96976610506492
 20
-18.89229165558859
 30
0.0
 11
-11.95627718355982
 21
-18.90706449112503
 31
0.0
  0
LINE
  5
344
330
32E
100
AcDbEntity
  8
Basin-Wall_Hung-Grohe-Eurocube-39655000
100
AcDbLine
 10
-11.95627718355982
 20
-18.90706449112503
 30
0.0
 11
-11.94220829589602
 21
-18.92128609697882
 31
0.0
  0
LINE
  5
345
330
32E
100
AcDbEntity
  8
Basin-Wall_Hung-Grohe-Eurocube-39655000
100
AcDbLine
 10
-11.94220829589602
 20
-18.92128609697882
 30
0.0
 11
-11.9275819492926
 21
-18.93493372161441
 31
0.0
  0
LINE
  5
346
330
32E
100
AcDbEntity
  8
Basin-Wall_Hung-Grohe-Eurocube-39655000
100
AcDbLine
 10
-11.9275819492926
 20
-18.93493372161441
 30
0.0
 11
-11.91242154278401
 21
-18.94798553174371
 31
0.0
  0
LINE
  5
347
330
32E
100
AcDbEntity
  8
Basin-Wall_Hung-Grohe-Eurocube-39655000
100
AcDbLine
 10
-11.91242154278401
 20
-18.94798553174371
 30
0.0
 11
-11.89675132978659
 21
-18.96042064725475
 31
0.0
  0
LINE
  5
348
330
32E
100
AcDbEntity
  8
Basin-Wall_Hung-Grohe-Eurocube-39655000
100
AcDbLine
 10
-11.89675132978659
 20
-18.96042064725475
 30
0.0
 11
-11.88059637929834
 21
-18.97221917461539
 31
0.0
  0
LINE
  5
349
330
32E
100
AcDbEntity
  8
Basin-Wall_Hung-Grohe-Eurocube-39655000
100
AcDbLine
 10
-11.88059637929834
 20
-18.97221917461539
 30
0.0
 11
-11.86398253579386
 21
-18.98336223869873
 31
0.0
  0
LINE
  5
34A
330
32E
100
AcDbEntity
  8
Basin-Wall_Hung-Grohe-Eurocube-39655000
100
AcDbLine
 10
-11.86398253579386
 20
-18.98336223869873
 30
0.0
 11
-11.84693637787863
 21
-18.99383201297932
 31
0.0
  0
LINE
  5
34B
330
32E
100
AcDbEntity
  8
Basin-Wall_Hung-Grohe-Eurocube-39655000
100
AcDbLine
 10
-11.84693637787863
 20
-18.99383201297932
 30
0.0
 11
-11.82948517576901
 21
-19.00361174805174
 31
0.0
  0
LINE
  5
34C
330
32E
100
AcDbEntity
  8
Basin-Wall_Hung-Grohe-Eurocube-39655000
100
AcDbLine
 10
-11.82948517576901
 20
-19.00361174805174
 30
0.0
 11
-11.81165684766566
 21
-19.01268579842609
 31
0.0
  0
LINE
  5
34D
330
32E
100
AcDbEntity
  8
Basin-Wall_Hung-Grohe-Eurocube-39655000
100
AcDbLine
 10
-11.81165684766566
 20
-19.01268579842609
 30
0.0
 11
-11.79347991509035
 21
-19.02103964755746
 31
0.0
  0
LINE
  5
34E
330
32E
100
AcDbEntity
  8
Basin-Wall_Hung-Grohe-Eurocube-39655000
100
AcDbLine
 10
-11.79347991509035
 20
-19.02103964755746
 30
0.0
 11
-11.77498345725766
 21
-19.02865993106933
 31
0.0
  0
LINE
  5
34F
330
32E
100
AcDbEntity
  8
Basin-Wall_Hung-Grohe-Eurocube-39655000
100
AcDbLine
 10
-11.77498345725766
 20
-19.02865993106933
 30
0.0
 11
-11.75619706455445
 21
-19.03553445813362
 31
0.0
  0
LINE
  5
350
330
32E
100
AcDbEntity
  8
Basin-Wall_Hung-Grohe-Eurocube-39655000
100
AcDbLine
 10
-11.75619706455445
 20
-19.03553445813362
 30
0.0
 11
-11.73715079120147
 21
-19.04165223097355
 31
0.0
  0
LINE
  5
351
330
32E
100
AcDbEntity
  8
Basin-Wall_Hung-Grohe-Eurocube-39655000
100
AcDbLine
 10
-11.73715079120147
 20
-19.04165223097355
 30
0.0
 11
-11.7178751071731
 21
-19.04700346245761
 31
0.0
  0
LINE
  5
352
330
32E
100
AcDbEntity
  8
Basin-Wall_Hung-Grohe-Eurocube-39655000
100
AcDbLine
 10
-11.7178751071731
 20
-19.04700346245761
 30
0.0
 11
-11.69840084945188
 21
-19.05157959175696
 31
0.0
  0
LINE
  5
353
330
32E
100
AcDbEntity
  8
Basin-Wall_Hung-Grohe-Eurocube-39655000
100
AcDbLine
 10
-11.69840084945188
 20
-19.05157959175696
 30
0.0
 11
-11.67875917269586
 21
-19.05537329804092
 31
0.0
  0
LINE
  5
354
330
32E
100
AcDbEntity
  8
Basin-Wall_Hung-Grohe-Eurocube-39655000
100
AcDbLine
 10
-11.67875917269586
 20
-19.05537329804092
 30
0.0
 11
-11.65898149939783
 21
-19.05837851218869
 31
0.0
  0
LINE
  5
355
330
32E
100
AcDbEntity
  8
Basin-Wall_Hung-Grohe-Eurocube-39655000
100
AcDbLine
 10
-11.65898149939783
 20
-19.05837851218869
 30
0.0
 11
-11.63909946961609
 21
-19.06059042649876
 31
0.0
  0
LINE
  5
356
330
32E
100
AcDbEntity
  8
Basin-Wall_Hung-Grohe-Eurocube-39655000
100
AcDbLine
 10
-11.63909946961609
 20
-19.06059042649876
 30
0.0
 11
-11.61914489035699
 21
-19.06200550238004
 31
0.0
  0
LINE
  5
357
330
32E
100
AcDbEntity
  8
Basin-Wall_Hung-Grohe-Eurocube-39655000
100
AcDbLine
 10
-11.61914489035699
 20
-19.06200550238004
 30
0.0
 11
-11.59914968469062
 21
-19.06262147601301
 31
0.0
  0
LINE
  5
358
330
32E
100
AcDbEntity
  8
Basin-Wall_Hung-Grohe-Eurocube-39655000
100
AcDbLine
 10
-11.59914968469062
 20
-19.06262147601301
 30
0.0
 11
-11.59374999999984
 21
-19.06265062467639
 31
0.0
  0
LINE
  5
359
330
32E
100
AcDbEntity
  8
Basin-Wall_Hung-Grohe-Eurocube-39655000
100
AcDbLine
 10
11.59374999999979
 20
-19.06265062467646
 30
0.0
 11
11.61375069047362
 21
-19.06225055752328
 31
0.0
  0
LINE
  5
35A
330
32E
100
AcDbEntity
  8
Basin-Wall_Hung-Grohe-Eurocube-39655000
100
AcDbLine
 10
11.61375069047362
 20
-19.06225055752328
 30
0.0
 11
11.63371938410929
 21
-19.06105099608582
 31
0.0
  0
LINE
  5
35B
330
32E
100
AcDbEntity
  8
Basin-Wall_Hung-Grohe-Eurocube-39655000
100
AcDbLine
 10
11.63371938410929
 20
-19.06105099608582
 30
0.0
 11
11.65362413525672
 21
-19.05905385940649
 31
0.0
  0
LINE
  5
35C
330
32E
100
AcDbEntity
  8
Basin-Wall_Hung-Grohe-Eurocube-39655000
100
AcDbLine
 10
11.65362413525672
 20
-19.05905385940649
 30
0.0
 11
11.67343310056021
 21
-19.05626234247798
 31
0.0
  0
LINE
  5
35D
330
32E
100
AcDbEntity
  8
Basin-Wall_Hung-Grohe-Eurocube-39655000
100
AcDbLine
 10
11.67343310056021
 20
-19.05626234247798
 30
0.0
 11
11.69311458990097
 21
-19.05268091113183
 31
0.0
  0
LINE
  5
35E
330
32E
100
AcDbEntity
  8
Basin-Wall_Hung-Grohe-Eurocube-39655000
100
AcDbLine
 10
11.69311458990097
 20
-19.05268091113183
 30
0.0
 11
11.71263711709452
 21
-19.04831529489422
 31
0.0
  0
LINE
  5
35F
330
32E
100
AcDbEntity
  8
Basin-Wall_Hung-Grohe-Eurocube-39655000
100
AcDbLine
 10
11.71263711709452
 20
-19.04831529489422
 30
0.0
 11
11.73196945026196
 21
-19.04317247781985
 31
0.0
  0
LINE
  5
360
330
32E
100
AcDbEntity
  8
Basin-Wall_Hung-Grohe-Eurocube-39655000
100
AcDbLine
 10
11.73196945026196
 20
-19.04317247781985
 30
0.0
 11
11.75108066179422
 21
-19.03726068731896
 31
0.0
  0
LINE
  5
361
330
32E
100
AcDbEntity
  8
Basin-Wall_Hung-Grohe-Eurocube-39655000
100
AcDbLine
 10
11.75108066179422
 20
-19.03726068731896
 30
0.0
 11
11.7699401778297
 21
-19.03058938099525
 31
0.0
  0
LINE
  5
362
330
32E
100
AcDbEntity
  8
Basin-Wall_Hung-Grohe-Eurocube-39655000
100
AcDbLine
 10
11.7699401778297
 20
-19.03058938099525
 30
0.0
 11
11.78851782716589
 21
-19.02316923151568
 31
0.0
  0
LINE
  5
363
330
32E
100
AcDbEntity
  8
Basin-Wall_Hung-Grohe-Eurocube-39655000
100
AcDbLine
 10
11.78851782716589
 20
-19.02316923151568
 30
0.0
 11
11.80678388952686
 21
-19.01501210953654
 31
0.0
  0
LINE
  5
364
330
32E
100
AcDbEntity
  8
Basin-Wall_Hung-Grohe-Eurocube-39655000
100
AcDbLine
 10
11.80678388952686
 20
-19.01501210953654
 30
0.0
 11
11.82470914310939
 21
-19.00613106471293
 31
0.0
  0
LINE
  5
365
330
32E
100
AcDbEntity
  8
Basin-Wall_Hung-Grohe-Eurocube-39655000
100
AcDbLine
 10
11.82470914310939
 20
-19.00613106471293
 30
0.0
 11
11.84226491133159
 21
-18.996540304822
 31
0.0
  0
LINE
  5
366
330
32E
100
AcDbEntity
  8
Basin-Wall_Hung-Grohe-Eurocube-39655000
100
AcDbLine
 10
11.84226491133159
 20
-18.996540304822
 30
0.0
 11
11.85942310870937
 21
-18.98625517303371
 31
0.0
  0
LINE
  5
367
330
32E
100
AcDbEntity
  8
Basin-Wall_Hung-Grohe-Eurocube-39655000
100
AcDbLine
 10
11.85942310870937
 20
-18.98625517303371
 30
0.0
 11
11.87615628578711
 21
-18.97529212336484
 31
0.0
  0
LINE
  5
368
330
32E
100
AcDbEntity
  8
Basin-Wall_Hung-Grohe-Eurocube-39655000
100
AcDbLine
 10
11.87615628578711
 20
-18.97529212336484
 30
0.0
 11
11.89243767305105
 21
-18.9636686943562
 31
0.0
  0
LINE
  5
369
330
32E
100
AcDbEntity
  8
Basin-Wall_Hung-Grohe-Eurocube-39655000
100
AcDbLine
 10
11.89243767305105
 20
-18.9636686943562
 30
0.0
 11
11.90824122375476
 21
-18.95140348101468
 31
0.0
  0
LINE
  5
36A
330
32E
100
AcDbEntity
  8
Basin-Wall_Hung-Grohe-Eurocube-39655000
100
AcDbLine
 10
11.90824122375476
 20
-18.95140348101468
 30
0.0
 11
11.92354165558832
 21
-18.9385161050652
 31
0.0
  0
LINE
  5
36B
330
32E
100
AcDbEntity
  8
Basin-Wall_Hung-Grohe-Eurocube-39655000
100
AcDbLine
 10
11.92354165558832
 20
-18.9385161050652
 30
0.0
 11
11.93831449112476
 21
-18.92502718356009
 31
0.0
  0
LINE
  5
36C
330
32E
100
AcDbEntity
  8
Basin-Wall_Hung-Grohe-Eurocube-39655000
100
AcDbLine
 10
11.93831449112476
 20
-18.92502718356009
 30
0.0
 11
11.95253609697857
 21
-18.9109582958963
 31
0.0
  0
LINE
  5
36D
330
32E
100
AcDbEntity
  8
Basin-Wall_Hung-Grohe-Eurocube-39655000
100
AcDbLine
 10
11.95253609697857
 20
-18.9109582958963
 30
0.0
 11
11.96618372161416
 21
-18.8963319492929
 31
0.0
  0
LINE
  5
36E
330
32E
100
AcDbEntity
  8
Basin-Wall_Hung-Grohe-Eurocube-39655000
100
AcDbLine
 10
11.96618372161416
 20
-18.8963319492929
 30
0.0
 11
11.97923553174345
 21
-18.88117154278429
 31
0.0
  0
LINE
  5
36F
330
32E
100
AcDbEntity
  8
Basin-Wall_Hung-Grohe-Eurocube-39655000
100
AcDbLine
 10
11.97923553174345
 20
-18.88117154278429
 30
0.0
 11
11.99167064725449
 21
-18.86550132978686
 31
0.0
  0
LINE
  5
370
330
32E
100
AcDbEntity
  8
Basin-Wall_Hung-Grohe-Eurocube-39655000
100
AcDbLine
 10
11.99167064725449
 20
-18.86550132978686
 30
0.0
 11
12.00346917461512
 21
-18.84934637929864
 31
0.0
  0
LINE
  5
371
330
32E
100
AcDbEntity
  8
Basin-Wall_Hung-Grohe-Eurocube-39655000
100
AcDbLine
 10
12.00346917461512
 20
-18.84934637929864
 30
0.0
 11
12.01461223869848
 21
-18.83273253579413
 31
0.0
  0
LINE
  5
372
330
32E
100
AcDbEntity
  8
Basin-Wall_Hung-Grohe-Eurocube-39655000
100
AcDbLine
 10
12.01461223869848
 20
-18.83273253579413
 30
0.0
 11
12.02508201297906
 21
-18.81568637787892
 31
0.0
  0
LINE
  5
373
330
32E
100
AcDbEntity
  8
Basin-Wall_Hung-Grohe-Eurocube-39655000
100
AcDbLine
 10
12.02508201297906
 20
-18.81568637787892
 30
0.0
 11
12.03486174805148
 21
-18.7982351757693
 31
0.0
  0
LINE
  5
374
330
32E
100
AcDbEntity
  8
Basin-Wall_Hung-Grohe-Eurocube-39655000
100
AcDbLine
 10
12.03486174805148
 20
-18.7982351757693
 30
0.0
 11
12.04393579842582
 21
-18.78040684766594
 31
0.0
  0
LINE
  5
375
330
32E
100
AcDbEntity
  8
Basin-Wall_Hung-Grohe-Eurocube-39655000
100
AcDbLine
 10
12.04393579842582
 20
-18.78040684766594
 30
0.0
 11
12.05228964755721
 21
-18.76222991509063
 31
0.0
  0
LINE
  5
376
330
32E
100
AcDbEntity
  8
Basin-Wall_Hung-Grohe-Eurocube-39655000
100
AcDbLine
 10
12.05228964755721
 20
-18.76222991509063
 30
0.0
 11
12.05990993106907
 21
-18.74373345725794
 31
0.0
  0
LINE
  5
377
330
32E
100
AcDbEntity
  8
Basin-Wall_Hung-Grohe-Eurocube-39655000
100
AcDbLine
 10
12.05990993106907
 20
-18.74373345725794
 30
0.0
 11
12.06678445813337
 21
-18.72494706455474
 31
0.0
  0
LINE
  5
378
330
32E
100
AcDbEntity
  8
Basin-Wall_Hung-Grohe-Eurocube-39655000
100
AcDbLine
 10
12.06678445813337
 20
-18.72494706455474
 30
0.0
 11
12.07290223097329
 21
-18.70590079120175
 31
0.0
  0
LINE
  5
379
330
32E
100
AcDbEntity
  8
Basin-Wall_Hung-Grohe-Eurocube-39655000
100
AcDbLine
 10
12.07290223097329
 20
-18.70590079120175
 30
0.0
 11
12.07825346245735
 21
-18.6866251071734
 31
0.0
  0
LINE
  5
37A
330
32E
100
AcDbEntity
  8
Basin-Wall_Hung-Grohe-Eurocube-39655000
100
AcDbLine
 10
12.07825346245735
 20
-18.6866251071734
 30
0.0
 11
12.0828295917567
 21
-18.66715084945217
 31
0.0
  0
LINE
  5
37B
330
32E
100
AcDbEntity
  8
Basin-Wall_Hung-Grohe-Eurocube-39655000
100
AcDbLine
 10
12.0828295917567
 20
-18.66715084945217
 30
0.0
 11
12.08662329804065
 21
-18.64750917269613
 31
0.0
  0
LINE
  5
37C
330
32E
100
AcDbEntity
  8
Basin-Wall_Hung-Grohe-Eurocube-39655000
100
AcDbLine
 10
12.08662329804065
 20
-18.64750917269613
 30
0.0
 11
12.08962851218844
 21
-18.62773149939811
 31
0.0
  0
LINE
  5
37D
330
32E
100
AcDbEntity
  8
Basin-Wall_Hung-Grohe-Eurocube-39655000
100
AcDbLine
 10
12.08962851218844
 20
-18.62773149939811
 30
0.0
 11
12.0918404264985
 21
-18.60784946961637
 31
0.0
  0
LINE
  5
37E
330
32E
100
AcDbEntity
  8
Basin-Wall_Hung-Grohe-Eurocube-39655000
100
AcDbLine
 10
12.0918404264985
 20
-18.60784946961637
 30
0.0
 11
12.09325550237978
 21
-18.58789489035727
 31
0.0
  0
LINE
  5
37F
330
32E
100
AcDbEntity
  8
Basin-Wall_Hung-Grohe-Eurocube-39655000
100
AcDbLine
 10
12.09325550237978
 20
-18.58789489035727
 30
0.0
 11
12.09387147601275
 21
-18.5678996846909
 31
0.0
  0
LINE
  5
380
330
32E
100
AcDbEntity
  8
Basin-Wall_Hung-Grohe-Eurocube-39655000
100
AcDbLine
 10
12.09387147601275
 20
-18.5678996846909
 30
0.0
 11
12.09390062467613
 21
-18.5625000000001
 31
0.0
  0
ARC
  5
381
330
32E
100
AcDbEntity
  8
Basin-Wall_Hung-Grohe-Eurocube-39655000
100
AcDbCircle
 10
11.59374999999977
 20
-18.56250000000003
 30
0.0
 40
0.5000000000000018
100
AcDbArc
 50
270.0
 51
359.9999999999996
1001
REVIT
1002
{
1070
     1
1000
121183
1002
}
1002
{
1070
     2
1000
-2001160
1002
}
  0
LINE
  5
382
330
32E
100
AcDbEntity
  8
Basin-Wall_Hung-Grohe-Eurocube-39655000
100
AcDbLine
 10
12.09374999999977
 20
-18.56250000000004
 30
0.0
 11
12.09374999999977
 21
0.0
 31
0.0
1001
REVIT
1002
{
1070
     1
1000
121183
1002
}
1002
{
1070
     2
1000
-2001160
1002
}
  0
LINE
  5
383
330
32E
100
AcDbEntity
  8
Basin-Wall_Hung-Grohe-Eurocube-39655000
100
AcDbLine
 10
12.09374999999977
 20
0.0
 30
0.0
 11
-12.09374999999977
 21
0.0000000000000071
 31
0.0
1001
REVIT
1002
{
1070
     1
1000
121183
1002
}
1002
{
1070
     2
1000
-2001160
1002
}
  0
LINE
  5
384
330
32E
100
AcDbEntity
  8
Basin-Wall_Hung-Grohe-Eurocube-39655000
100
AcDbLine
 10
-12.09374999999977
 20
0.0000000000000071
 30
0.0
 11
-12.09374999999977
 21
-18.56250000000004
 31
0.0
1001
REVIT
1002
{
1070
     1
1000
121183
1002
}
1002
{
1070
     2
1000
-2001160
1002
}
  0
ARC
  5
385
330
32E
100
AcDbEntity
  8
Basin-Wall_Hung-Grohe-Eurocube-39655000
100
AcDbCircle
 10
-11.59374999999977
 20
-18.56250000000004
 30
0.0
 40
0.5000000000000014
100
AcDbArc
 50
179.9999999999992
 51
270.0
1001
REVIT
1002
{
1070
     1
1000
121183
1002
}
1002
{
1070
     2
1000
-2001160
1002
}
  0
LINE
  5
386
330
32E
100
AcDbEntity
  8
Basin-Wall_Hung-Grohe-Eurocube-39655000
100
AcDbLine
 10
-11.59374999999977
 20
-19.06250000000004
 30
0.0
 11
11.59374999999977
 21
-19.06250000000004
 31
0.0
1001
REVIT
1002
{
1070
     1
1000
121183
1002
}
1002
{
1070
     2
1000
-2001160
1002
}
  0
CIRCLE
  5
387
330
32E
100
AcDbEntity
  8
Basin-Wall_Hung-Grohe-Eurocube-39655000
100
AcDbCircle
 10
-3.999999999999829
 20
-2.374999999999957
 30
0.0
 40
0.7500000000000007
1001
REVIT
1002
{
1070
     1
1000
121316
1002
}
1002
{
1070
     2
1000
-2001160
1002
}
  0
CIRCLE
  5
388
330
32E
100
AcDbEntity
  8
Basin-Wall_Hung-Grohe-Eurocube-39655000
100
AcDbCircle
 10
4.00000000000017
 20
-2.374999999999957
 30
0.0
 40
0.7500000000000005
1001
REVIT
1002
{
1070
     1
1000
121336
1002
}
1002
{
1070
     2
1000
-2001160
1002
}
  0
CIRCLE
  5
389
330
32E
100
AcDbEntity
  8
Basin-Wall_Hung-Grohe-Eurocube-39655000
100
AcDbCircle
 10
0.0000000000004547
 20
-2.374999999999957
 30
0.0
 40
0.7500000000000009
1001
REVIT
1002
{
1070
     1
1000
121353
1002
}
1002
{
1070
     2
1000
-2001160
1002
}
  0
CIRCLE
  5
38A
330
32E
100
AcDbEntity
  8
Basin-Wall_Hung-Grohe-Eurocube-39655000
100
AcDbCircle
 10
0.0000000000004547
 20
-7.93749999999995
 30
0.0
 40
0.7500000000000005
1001
REVIT
1002
{
1070
     1
1000
121395
1002
}
1002
{
1070
     2
1000
-2001160
1002
}
  0
ARC
  5
38B
330
32E
100
AcDbEntity
  8
Basin-Wall_Hung-Grohe-Eurocube-39655000
100
AcDbCircle
 10
2.690220321280776
 20
-11.07647788575826
 30
0.0
 40
12.9010257141052
100
AcDbArc
 50
162.6120650603477
 51
198.6853382537924
1001
REVIT
1002
{
1070
     1
1000
121443
1002
}
1002
{
1070
     2
1000
-2001160
1002
}
  0
ARC
  5
38C
330
32E
100
AcDbEntity
  8
Basin-Wall_Hung-Grohe-Eurocube-39655000
100
AcDbCircle
 10
-6.452121930526089
 20
-14.16838271695002
 30
0.0
 40
3.249999999999997
100
AcDbArc
 50
198.6853382537924
 51
263.4499223956096
1001
REVIT
1002
{
1070
     1
1000
121602
1002
}
1002
{
1070
     2
1000
-2001160
1002
}
  0
ARC
  5
38D
330
32E
100
AcDbEntity
  8
Basin-Wall_Hung-Grohe-Eurocube-39655000
100
AcDbCircle
 10
-6.996936791559249
 20
-8.042946920104867
 30
0.0
 40
2.749999999999998
100
AcDbArc
 50
103.2290774559566
 51
162.6120650603477
1001
REVIT
1002
{
1070
     1
1000
121627
1002
}
1002
{
1070
     2
1000
-2001160
1002
}
  0
ARC
  5
38E
330
32E
100
AcDbEntity
  8
Basin-Wall_Hung-Grohe-Eurocube-39655000
100
AcDbCircle
 10
-2.690220321280577
 20
-11.07647788575821
 30
0.0
 40
12.9010257141052
100
AcDbArc
 50
341.3146617462067
 51
17.38793493964973
1001
REVIT
1002
{
1070
     1
1000
121664
1002
}
1002
{
1070
     2
1000
-2001160
1002
}
  0
ARC
  5
38F
330
32E
100
AcDbEntity
  8
Basin-Wall_Hung-Grohe-Eurocube-39655000
100
AcDbCircle
 10
6.452121930526203
 20
-14.16838271695015
 30
0.0
 40
3.249999999999998
100
AcDbArc
 50
276.5500776043903
 51
341.3146617462067
1001
REVIT
1002
{
1070
     1
1000
121665
1002
}
1002
{
1070
     2
1000
-2001160
1002
}
  0
ARC
  5
390
330
32E
100
AcDbEntity
  8
Basin-Wall_Hung-Grohe-Eurocube-39655000
100
AcDbCircle
 10
6.996936791559505
 20
-8.042946920105009
 30
0.0
 40
2.749999999999996
100
AcDbArc
 50
17.38793493964973
 51
76.77092254404339
1001
REVIT
1002
{
1070
     1
1000
121666
1002
}
1002
{
1070
     2
1000
-2001160
1002
}
  0
ARC
  5
391
330
32E
100
AcDbEntity
  8
Basin-Wall_Hung-Grohe-Eurocube-39655000
100
AcDbCircle
 10
0.0000000000004547
 20
42.02446060606701
 30
0.0
 40
59.81205015848983
100
AcDbArc
 50
263.4499223956096
 51
276.5500776043903
1001
REVIT
1002
{
1070
     1
1000
121733
1002
}
1002
{
1070
     2
1000
-2001160
1002
}
  0
ARC
  5
392
330
32E
100
AcDbEntity
  8
Basin-Wall_Hung-Grohe-Eurocube-39655000
100
AcDbCircle
 10
0.0000000000004547
 20
-37.80658786546999
 30
0.0
 40
33.32501343891264
100
AcDbArc
 50
76.77092254404339
 51
103.2290774559566
1001
REVIT
1002
{
1070
     1
1000
121785
1002
}
1002
{
1070
     2
1000
-2001160
1002
}
  0
ENDBLK
  5
330
330
32E
100
AcDbEntity
  8
0
100
AcDbBlockEnd
  0
BLOCK
  5
396
330
395
100
AcDbEntity
  8
0
100
AcDbBlockBegin
  2
Basin-Wall_Hung-Grohe-Eurocube-39655000 Front View
 70
     0
 10
0.0
 20
0.0
 30
0.0
  3
Basin-Wall_Hung-Grohe-Eurocube-39655000 Front View
  1

  0
LINE
  5
398
330
395
100
AcDbEntity
  8
Basin-Wall_Hung-Grohe-Eurocube-39655000
100
AcDbLine
 10
11.59374999999981
 20
-4.171883320852543
 30
0.0
 11
11.60577834593985
 21
-4.171883320852543
 31
0.0
1001
REVIT
1002
{
1070
     2
1000
-2001160
1002
}
  0
LINE
  5
399
330
395
100
AcDbEntity
  8
Basin-Wall_Hung-Grohe-Eurocube-39655000
100
AcDbLine
 10
11.60577834593985
 20
-4.171883320852543
 30
0.0
 11
11.6177874490923
 21
-4.171883320852543
 31
0.0
1001
REVIT
1002
{
1070
     2
1000
-2001160
1002
}
  0
LINE
  5
39A
330
395
100
AcDbEntity
  8
Basin-Wall_Hung-Grohe-Eurocube-39655000
100
AcDbLine
 10
11.6177874490923
 20
-4.171883320852543
 30
0.0
 11
11.62975809745391
 21
-4.171883320852543
 31
0.0
1001
REVIT
1002
{
1070
     2
1000
-2001160
1002
}
  0
LINE
  5
39B
330
395
100
AcDbEntity
  8
Basin-Wall_Hung-Grohe-Eurocube-39655000
100
AcDbLine
 10
11.62975809745391
 20
-4.171883320852543
 30
0.0
 11
11.64167114054091
 21
-4.171883320852543
 31
0.0
1001
REVIT
1002
{
1070
     2
1000
-2001160
1002
}
  0
LINE
  5
39C
330
395
100
AcDbEntity
  8
Basin-Wall_Hung-Grohe-Eurocube-39655000
100
AcDbLine
 10
11.64167114054091
 20
-4.171883320852543
 30
0.0
 11
11.65350752002567
 21
-4.171883320852543
 31
0.0
1001
REVIT
1002
{
1070
     2
1000
-2001160
1002
}
  0
LINE
  5
39D
330
395
100
AcDbEntity
  8
Basin-Wall_Hung-Grohe-Eurocube-39655000
100
AcDbLine
 10
11.65350752002567
 20
-4.171883320852543
 30
0.0
 11
11.66524830022599
 21
-4.171883320852543
 31
0.0
1001
REVIT
1002
{
1070
     2
1000
-2001160
1002
}
  0
LINE
  5
39E
330
395
100
AcDbEntity
  8
Basin-Wall_Hung-Grohe-Eurocube-39655000
100
AcDbLine
 10
11.66524830022599
 20
-4.171883320852543
 30
0.0
 11
11.67687469839811
 21
-4.171883320852543
 31
0.0
1001
REVIT
1002
{
1070
     2
1000
-2001160
1002
}
  0
LINE
  5
39F
330
395
100
AcDbEntity
  8
Basin-Wall_Hung-Grohe-Eurocube-39655000
100
AcDbLine
 10
11.67687469839811
 20
-4.171883320852543
 30
0.0
 11
11.6883681147851
 21
-4.171883320852543
 31
0.0
1001
REVIT
1002
{
1070
     2
1000
-2001160
1002
}
  0
LINE
  5
3A0
330
395
100
AcDbEntity
  8
Basin-Wall_Hung-Grohe-Eurocube-39655000
100
AcDbLine
 10
11.6883681147851
 20
-4.171883320852543
 30
0.0
 11
11.69971016237256
 21
-4.171883320852543
 31
0.0
1001
REVIT
1002
{
1070
     2
1000
-2001160
1002
}
  0
LINE
  5
3A1
330
395
100
AcDbEntity
  8
Basin-Wall_Hung-Grohe-Eurocube-39655000
100
AcDbLine
 10
11.69971016237256
 20
-4.171883320852543
 30
0.0
 11
11.71088269630385
 21
-4.171883320852543
 31
0.0
1001
REVIT
1002
{
1070
     2
1000
-2001160
1002
}
  0
LINE
  5
3A2
330
395
100
AcDbEntity
  8
Basin-Wall_Hung-Grohe-Eurocube-39655000
100
AcDbLine
 10
11.71088269630385
 20
-4.171883320852543
 30
0.0
 11
11.72186784290804
 21
-4.171883320852543
 31
0.0
1001
REVIT
1002
{
1070
     2
1000
-2001160
1002
}
  0
LINE
  5
3A3
330
395
100
AcDbEntity
  8
Basin-Wall_Hung-Grohe-Eurocube-39655000
100
AcDbLine
 10
11.72186784290804
 20
-4.171883320852543
 30
0.0
 11
11.73264802829392
 21
-4.171883320852543
 31
0.0
1001
REVIT
1002
{
1070
     2
1000
-2001160
1002
}
  0
LINE
  5
3A4
330
395
100
AcDbEntity
  8
Basin-Wall_Hung-Grohe-Eurocube-39655000
100
AcDbLine
 10
11.73264802829392
 20
-4.171883320852543
 30
0.0
 11
11.74320600646453
 21
-4.171883320852543
 31
0.0
1001
REVIT
1002
{
1070
     2
1000
-2001160
1002
}
  0
LINE
  5
3A5
330
395
100
AcDbEntity
  8
Basin-Wall_Hung-Grohe-Eurocube-39655000
100
AcDbLine
 10
11.74320600646453
 20
-4.171883320852543
 30
0.0
 11
11.75352488690706
 21
-4.171883320852543
 31
0.0
1001
REVIT
1002
{
1070
     2
1000
-2001160
1002
}
  0
LINE
  5
3A6
330
395
100
AcDbEntity
  8
Basin-Wall_Hung-Grohe-Eurocube-39655000
100
AcDbLine
 10
11.75352488690706
 20
-4.171883320852543
 30
0.0
 11
11.76358816161399
 21
-4.171883320852543
 31
0.0
1001
REVIT
1002
{
1070
     2
1000
-2001160
1002
}
  0
LINE
  5
3A7
330
395
100
AcDbEntity
  8
Basin-Wall_Hung-Grohe-Eurocube-39655000
100
AcDbLine
 10
11.76358816161399
 20
-4.171883320852543
 30
0.0
 11
11.77337973149257
 21
-4.171883320852543
 31
0.0
1001
REVIT
1002
{
1070
     2
1000
-2001160
1002
}
  0
LINE
  5
3A8
330
395
100
AcDbEntity
  8
Basin-Wall_Hung-Grohe-Eurocube-39655000
100
AcDbLine
 10
11.77337973149257
 20
-4.171883320852543
 30
0.0
 11
11.78288393211972
 21
-4.171883320852543
 31
0.0
1001
REVIT
1002
{
1070
     2
1000
-2001160
1002
}
  0
LINE
  5
3A9
330
395
100
AcDbEntity
  8
Basin-Wall_Hung-Grohe-Eurocube-39655000
100
AcDbLine
 10
11.78288393211972
 20
-4.171883320852543
 30
0.0
 11
11.79208555880192
 21
-4.171883320852543
 31
0.0
1001
REVIT
1002
{
1070
     2
1000
-2001160
1002
}
  0
LINE
  5
3AA
330
395
100
AcDbEntity
  8
Basin-Wall_Hung-Grohe-Eurocube-39655000
100
AcDbLine
 10
11.79208555880192
 20
-4.171883320852543
 30
0.0
 11
11.80096989089935
 21
-4.171883320852543
 31
0.0
1001
REVIT
1002
{
1070
     2
1000
-2001160
1002
}
  0
LINE
  5
3AB
330
395
100
AcDbEntity
  8
Basin-Wall_Hung-Grohe-Eurocube-39655000
100
AcDbLine
 10
11.80096989089935
 20
-4.171883320852543
 30
0.0
 11
11.80952271537589
 21
-4.171883320852543
 31
0.0
1001
REVIT
1002
{
1070
     2
1000
-2001160
1002
}
  0
LINE
  5
3AC
330
395
100
AcDbEntity
  8
Basin-Wall_Hung-Grohe-Eurocube-39655000
100
AcDbLine
 10
11.80952271537589
 20
-4.171883320852543
 30
0.0
 11
11.81773034953689
 21
-4.171883320852543
 31
0.0
1001
REVIT
1002
{
1070
     2
1000
-2001160
1002
}
  0
LINE
  5
3AD
330
395
100
AcDbEntity
  8
Basin-Wall_Hung-Grohe-Eurocube-39655000
100
AcDbLine
 10
11.81773034953689
 20
-4.171883320852543
 30
0.0
 11
11.82557966291856
 21
-4.171883320852543
 31
0.0
1001
REVIT
1002
{
1070
     2
1000
-2001160
1002
}
  0
LINE
  5
3AE
330
395
100
AcDbEntity
  8
Basin-Wall_Hung-Grohe-Eurocube-39655000
100
AcDbLine
 10
11.82557966291856
 20
-4.171883320852543
 30
0.0
 11
11.83305809829392
 21
-4.171883320852543
 31
0.0
1001
REVIT
1002
{
1070
     2
1000
-2001160
1002
}
  0
LINE
  5
3AF
330
395
100
AcDbEntity
  8
Basin-Wall_Hung-Grohe-Eurocube-39655000
100
AcDbLine
 10
11.83305809829392
 20
-4.171883320852543
 30
0.0
 11
11.84015369176167
 21
-4.171883320852543
 31
0.0
1001
REVIT
1002
{
1070
     2
1000
-2001160
1002
}
  0
LINE
  5
3B0
330
395
100
AcDbEntity
  8
Basin-Wall_Hung-Grohe-Eurocube-39655000
100
AcDbLine
 10
11.84015369176167
 20
-4.171883320852543
 30
0.0
 11
11.84685509188592
 21
-4.171883320852543
 31
0.0
1001
REVIT
1002
{
1070
     2
1000
-2001160
1002
}
  0
LINE
  5
3B1
330
395
100
AcDbEntity
  8
Basin-Wall_Hung-Grohe-Eurocube-39655000
100
AcDbLine
 10
11.84685509188592
 20
-4.171883320852543
 30
0.0
 11
11.85315157785603
 21
-4.171883320852543
 31
0.0
1001
REVIT
1002
{
1070
     2
1000
-2001160
1002
}
  0
LINE
  5
3B2
330
395
100
AcDbEntity
  8
Basin-Wall_Hung-Grohe-Eurocube-39655000
100
AcDbLine
 10
11.85315157785603
 20
-4.171883320852543
 30
0.0
 11
11.85903307663762
 21
-4.171883320852543
 31
0.0
1001
REVIT
1002
{
1070
     2
1000
-2001160
1002
}
  0
LINE
  5
3B3
330
395
100
AcDbEntity
  8
Basin-Wall_Hung-Grohe-Eurocube-39655000
100
AcDbLine
 10
11.85903307663762
 20
-4.171883320852543
 30
0.0
 11
11.8644901790873
 21
-4.171883320852543
 31
0.0
1001
REVIT
1002
{
1070
     2
1000
-2001160
1002
}
  0
LINE
  5
3B4
330
395
100
AcDbEntity
  8
Basin-Wall_Hung-Grohe-Eurocube-39655000
100
AcDbLine
 10
11.8644901790873
 20
-4.171883320852543
 30
0.0
 11
11.86951415500525
 21
-4.171883320852543
 31
0.0
1001
REVIT
1002
{
1070
     2
1000
-2001160
1002
}
  0
LINE
  5
3B5
330
395
100
AcDbEntity
  8
Basin-Wall_Hung-Grohe-Eurocube-39655000
100
AcDbLine
 10
11.86951415500525
 20
-4.171883320852543
 30
0.0
 11
11.87409696710175
 21
-4.171883320852543
 31
0.0
1001
REVIT
1002
{
1070
     2
1000
-2001160
1002
}
  0
LINE
  5
3B6
330
395
100
AcDbEntity
  8
Basin-Wall_Hung-Grohe-Eurocube-39655000
100
AcDbLine
 10
11.87409696710175
 20
-4.171883320852543
 30
0.0
 11
11.87823128385506
 21
-4.171883320852543
 31
0.0
1001
REVIT
1002
{
1070
     2
1000
-2001160
1002
}
  0
LINE
  5
3B7
330
395
100
AcDbEntity
  8
Basin-Wall_Hung-Grohe-Eurocube-39655000
100
AcDbLine
 10
11.87823128385506
 20
-4.171883320852543
 30
0.0
 11
11.88191049124029
 21
-4.171883320852543
 31
0.0
1001
REVIT
1002
{
1070
     2
1000
-2001160
1002
}
  0
LINE
  5
3B8
330
395
100
AcDbEntity
  8
Basin-Wall_Hung-Grohe-Eurocube-39655000
100
AcDbLine
 10
11.88191049124029
 20
-4.171883320852543
 30
0.0
 11
11.88512870331049
 21
-4.171883320852543
 31
0.0
1001
REVIT
1002
{
1070
     2
1000
-2001160
1002
}
  0
LINE
  5
3B9
330
395
100
AcDbEntity
  8
Basin-Wall_Hung-Grohe-Eurocube-39655000
100
AcDbLine
 10
11.88512870331049
 20
-4.171883320852543
 30
0.0
 11
11.88788077161289
 21
-4.171883320852543
 31
0.0
1001
REVIT
1002
{
1070
     2
1000
-2001160
1002
}
  0
LINE
  5
3BA
330
395
100
AcDbEntity
  8
Basin-Wall_Hung-Grohe-Eurocube-39655000
100
AcDbLine
 10
11.88788077161289
 20
-4.171883320852543
 30
0.0
 11
11.89016229342524
 21
-4.171883320852543
 31
0.0
1001
REVIT
1002
{
1070
     2
1000
-2001160
1002
}
  0
LINE
  5
3BB
330
395
100
AcDbEntity
  8
Basin-Wall_Hung-Grohe-Eurocube-39655000
100
AcDbLine
 10
11.89016229342524
 20
-4.171883320852543
 30
0.0
 11
11.89196961879938
 21
-4.171883320852543
 31
0.0
1001
REVIT
1002
{
1070
     2
1000
-2001160
1002
}
  0
LINE
  5
3BC
330
395
100
AcDbEntity
  8
Basin-Wall_Hung-Grohe-Eurocube-39655000
100
AcDbLine
 10
11.89196961879938
 20
-4.171883320852543
 30
0.0
 11
11.89329985640022
 21
-4.171883320852543
 31
0.0
1001
REVIT
1002
{
1070
     2
1000
-2001160
1002
}
  0
LINE
  5
3BD
330
395
100
AcDbEntity
  8
Basin-Wall_Hung-Grohe-Eurocube-39655000
100
AcDbLine
 10
11.89329985640022
 20
-4.171883320852543
 30
0.0
 11
11.89415087813138
 21
-4.171883320852543
 31
0.0
1001
REVIT
1002
{
1070
     2
1000
-2001160
1002
}
  0
LINE
  5
3BE
330
395
100
AcDbEntity
  8
Basin-Wall_Hung-Grohe-Eurocube-39655000
100
AcDbLine
 10
11.89415087813138
 20
-4.171883320852543
 30
0.0
 11
11.89452132253963
 21
-4.171883320852543
 31
0.0
1001
REVIT
1002
{
1070
     2
1000
-2001160
1002
}
  0
LINE
  5
3BF
330
395
100
AcDbEntity
  8
Basin-Wall_Hung-Grohe-Eurocube-39655000
100
AcDbLine
 10
11.89452132253963
 20
-4.171883320852543
 30
0.0
 11
11.89453885244477
 21
-4.171883320852543
 31
0.0
1001
REVIT
1002
{
1070
     2
1000
-2001160
1002
}
  0
LINE
  5
3C0
330
395
100
AcDbEntity
  8
Basin-Wall_Hung-Grohe-Eurocube-39655000
100
AcDbLine
 10
11.84390062467616
 20
0.0000000000000284
 30
0.0
 11
11.84370053085774
 21
0.0000000000000284
 31
0.0
1001
REVIT
1002
{
1070
     2
1000
-2001160
1002
}
  0
LINE
  5
3C1
330
395
100
AcDbEntity
  8
Basin-Wall_Hung-Grohe-Eurocube-39655000
100
AcDbLine
 10
11.84370053085774
 20
0.0000000000000284
 30
0.0
 11
11.84310056950987
 21
0.0000000000000284
 31
0.0
1001
REVIT
1002
{
1070
     2
1000
-2001160
1002
}
  0
LINE
  5
3C2
330
395
100
AcDbEntity
  8
Basin-Wall_Hung-Grohe-Eurocube-39655000
100
AcDbLine
 10
11.84310056950987
 20
0.0000000000000284
 30
0.0
 11
11.84210170044273
 21
0.0000000000000284
 31
0.0
1001
REVIT
1002
{
1070
     2
1000
-2001160
1002
}
  0
LINE
  5
3C3
330
395
100
AcDbEntity
  8
Basin-Wall_Hung-Grohe-Eurocube-39655000
100
AcDbLine
 10
11.84210170044273
 20
0.0000000000000284
 30
0.0
 11
11.84070552163376
 21
0.0000000000000284
 31
0.0
1001
REVIT
1002
{
1070
     2
1000
-2001160
1002
}
  0
LINE
  5
3C4
330
395
100
AcDbEntity
  8
Basin-Wall_Hung-Grohe-Eurocube-39655000
100
AcDbLine
 10
11.84070552163376
 20
0.0000000000000284
 30
0.0
 11
11.83891426667122
 21
0.0000000000000284
 31
0.0
1001
REVIT
1002
{
1070
     2
1000
-2001160
1002
}
  0
LINE
  5
3C5
330
395
100
AcDbEntity
  8
Basin-Wall_Hung-Grohe-Eurocube-39655000
100
AcDbLine
 10
11.83891426667122
 20
0.0000000000000284
 30
0.0
 11
11.8367308011809
 21
0.0000000000000284
 31
0.0
1001
REVIT
1002
{
1070
     2
1000
-2001160
1002
}
  0
LINE
  5
3C6
330
395
100
AcDbEntity
  8
Basin-Wall_Hung-Grohe-Eurocube-39655000
100
AcDbLine
 10
11.8367308011809
 20
0.0000000000000284
 30
0.0
 11
11.83415861824186
 21
0.0000000000000284
 31
0.0
1001
REVIT
1002
{
1070
     2
1000
-2001160
1002
}
  0
LINE
  5
3C7
330
395
100
AcDbEntity
  8
Basin-Wall_Hung-Grohe-Eurocube-39655000
100
AcDbLine
 10
11.83415861824186
 20
0.0000000000000284
 30
0.0
 11
11.83120183279806
 21
0.0000000000000284
 31
0.0
1001
REVIT
1002
{
1070
     2
1000
-2001160
1002
}
  0
LINE
  5
3C8
330
395
100
AcDbEntity
  8
Basin-Wall_Hung-Grohe-Eurocube-39655000
100
AcDbLine
 10
11.83120183279806
 20
0.0000000000000284
 30
0.0
 11
11.82786517507546
 21
0.0000000000000284
 31
0.0
1001
REVIT
1002
{
1070
     2
1000
-2001160
1002
}
  0
LINE
  5
3C9
330
395
100
AcDbEntity
  8
Basin-Wall_Hung-Grohe-Eurocube-39655000
100
AcDbLine
 10
11.82786517507546
 20
0.0000000000000284
 30
0.0
 11
11.82415398301466
 21
0.0000000000000284
 31
0.0
1001
REVIT
1002
{
1070
     2
1000
-2001160
1002
}
  0
LINE
  5
3CA
330
395
100
AcDbEntity
  8
Basin-Wall_Hung-Grohe-Eurocube-39655000
100
AcDbLine
 10
11.82415398301466
 20
0.0000000000000284
 30
0.0
 11
11.82007419373125
 21
0.0000000000000284
 31
0.0
1001
REVIT
1002
{
1070
     2
1000
-2001160
1002
}
  0
LINE
  5
3CB
330
395
100
AcDbEntity
  8
Basin-Wall_Hung-Grohe-Eurocube-39655000
100
AcDbLine
 10
11.82007419373125
 20
0.0000000000000284
 30
0.0
 11
11.8156323340178
 21
0.0000000000000284
 31
0.0
1001
REVIT
1002
{
1070
     2
1000
-2001160
1002
}
  0
LINE
  5
3CC
330
395
100
AcDbEntity
  8
Basin-Wall_Hung-Grohe-Eurocube-39655000
100
AcDbLine
 10
11.8156323340178
 20
0.0000000000000284
 30
0.0
 11
11.81083550990229
 21
0.0000000000000284
 31
0.0
1001
REVIT
1002
{
1070
     2
1000
-2001160
1002
}
  0
LINE
  5
3CD
330
395
100
AcDbEntity
  8
Basin-Wall_Hung-Grohe-Eurocube-39655000
100
AcDbLine
 10
11.81083550990229
 20
0.0000000000000284
 30
0.0
 11
11.80569139528006
 21
0.0000000000000284
 31
0.0
1001
REVIT
1002
{
1070
     2
1000
-2001160
1002
}
  0
LINE
  5
3CE
330
395
100
AcDbEntity
  8
Basin-Wall_Hung-Grohe-Eurocube-39655000
100
AcDbLine
 10
11.80569139528006
 20
0.0000000000000284
 30
0.0
 11
11.8002082196371
 21
0.0000000000000284
 31
0.0
1001
REVIT
1002
{
1070
     2
1000
-2001160
1002
}
  0
LINE
  5
3CF
330
395
100
AcDbEntity
  8
Basin-Wall_Hung-Grohe-Eurocube-39655000
100
AcDbLine
 10
11.8002082196371
 20
0.0000000000000284
 30
0.0
 11
11.79439475488482
 21
0.0000000000000284
 31
0.0
1001
REVIT
1002
{
1070
     2
1000
-2001160
1002
}
  0
LINE
  5
3D0
330
395
100
AcDbEntity
  8
Basin-Wall_Hung-Grohe-Eurocube-39655000
100
AcDbLine
 10
11.79439475488482
 20
0.0000000000000284
 30
0.0
 11
11.78826030132664
 21
0.0000000000000284
 31
0.0
1001
REVIT
1002
{
1070
     2
1000
-2001160
1002
}
  0
LINE
  5
3D1
330
395
100
AcDbEntity
  8
Basin-Wall_Hung-Grohe-Eurocube-39655000
100
AcDbLine
 10
11.78826030132664
 20
0.0000000000000284
 30
0.0
 11
11.78181467277968
 21
0.0000000000000284
 31
0.0
1001
REVIT
1002
{
1070
     2
1000
-2001160
1002
}
  0
LINE
  5
3D2
330
395
100
AcDbEntity
  8
Basin-Wall_Hung-Grohe-Eurocube-39655000
100
AcDbLine
 10
11.78181467277968
 20
0.0000000000000284
 30
0.0
 11
11.77506818087457
 21
0.0000000000000284
 31
0.0
1001
REVIT
1002
{
1070
     2
1000
-2001160
1002
}
  0
LINE
  5
3D3
330
395
100
AcDbEntity
  8
Basin-Wall_Hung-Grohe-Eurocube-39655000
100
AcDbLine
 10
11.77506818087457
 20
0.0000000000000284
 30
0.0
 11
11.76803161855921
 21
0.0000000000000284
 31
0.0
1001
REVIT
1002
{
1070
     2
1000
-2001160
1002
}
  0
LINE
  5
3D4
330
395
100
AcDbEntity
  8
Basin-Wall_Hung-Grohe-Eurocube-39655000
100
AcDbLine
 10
11.76803161855921
 20
0.0000000000000284
 30
0.0
 11
11.76071624283225
 21
0.0000000000000284
 31
0.0
1001
REVIT
1002
{
1070
     2
1000
-2001160
1002
}
  0
LINE
  5
3D5
330
395
100
AcDbEntity
  8
Basin-Wall_Hung-Grohe-Eurocube-39655000
100
AcDbLine
 10
11.76071624283225
 20
0.0000000000000284
 30
0.0
 11
11.75313375673435
 21
0.0
 31
0.0
1001
REVIT
1002
{
1070
     2
1000
-2001160
1002
}
  0
LINE
  5
3D6
330
395
100
AcDbEntity
  8
Basin-Wall_Hung-Grohe-Eurocube-39655000
100
AcDbLine
 10
11.75313375673435
 20
0.0
 30
0.0
 11
11.74529629062569
 21
0.0
 31
0.0
1001
REVIT
1002
{
1070
     2
1000
-2001160
1002
}
  0
LINE
  5
3D7
330
395
100
AcDbEntity
  8
Basin-Wall_Hung-Grohe-Eurocube-39655000
100
AcDbLine
 10
11.74529629062569
 20
0.0
 30
0.0
 11
11.7372163827802
 21
0.0
 31
0.0
1001
REVIT
1002
{
1070
     2
1000
-2001160
1002
}
  0
LINE
  5
3D8
330
395
100
AcDbEntity
  8
Basin-Wall_Hung-Grohe-Eurocube-39655000
100
AcDbLine
 10
11.7372163827802
 20
0.0
 30
0.0
 11
11.72890695932681
 21
0.0
 31
0.0
1001
REVIT
1002
{
1070
     2
1000
-2001160
1002
}
  0
LINE
  5
3D9
330
395
100
AcDbEntity
  8
Basin-Wall_Hung-Grohe-Eurocube-39655000
100
AcDbLine
 10
11.72890695932681
 20
0.0
 30
0.0
 11
11.72038131357043
 21
0.0
 31
0.0
1001
REVIT
1002
{
1070
     2
1000
-2001160
1002
}
  0
LINE
  5
3DA
330
395
100
AcDbEntity
  8
Basin-Wall_Hung-Grohe-Eurocube-39655000
100
AcDbLine
 10
11.72038131357043
 20
0.0
 30
0.0
 11
11.71165308472555
 21
0.0
 31
0.0
1001
REVIT
1002
{
1070
     2
1000
-2001160
1002
}
  0
LINE
  5
3DB
330
395
100
AcDbEntity
  8
Basin-Wall_Hung-Grohe-Eurocube-39655000
100
AcDbLine
 10
11.71165308472555
 20
0.0
 30
0.0
 11
11.70273623609646
 21
0.0
 31
0.0
1001
REVIT
1002
{
1070
     2
1000
-2001160
1002
}
  0
LINE
  5
3DC
330
395
100
AcDbEntity
  8
Basin-Wall_Hung-Grohe-Eurocube-39655000
100
AcDbLine
 10
11.70273623609646
 20
0.0
 30
0.0
 11
11.69364503273875
 21
0.0
 31
0.0
1001
REVIT
1002
{
1070
     2
1000
-2001160
1002
}
  0
LINE
  5
3DD
330
395
100
AcDbEntity
  8
Basin-Wall_Hung-Grohe-Eurocube-39655000
100
AcDbLine
 10
11.69364503273875
 20
0.0
 30
0.0
 11
11.68439401863847
 21
0.0
 31
0.0
1001
REVIT
1002
{
1070
     2
1000
-2001160
1002
}
  0
LINE
  5
3DE
330
395
100
AcDbEntity
  8
Basin-Wall_Hung-Grohe-Eurocube-39655000
100
AcDbLine
 10
11.68439401863847
 20
0.0
 30
0.0
 11
11.67499799344473
 21
0.0
 31
0.0
1001
REVIT
1002
{
1070
     2
1000
-2001160
1002
}
  0
LINE
  5
3DF
330
395
100
AcDbEntity
  8
Basin-Wall_Hung-Grohe-Eurocube-39655000
100
AcDbLine
 10
11.67499799344473
 20
0.0
 30
0.0
 11
11.66547198879346
 21
0.0
 31
0.0
1001
REVIT
1002
{
1070
     2
1000
-2001160
1002
}
  0
LINE
  5
3E0
330
395
100
AcDbEntity
  8
Basin-Wall_Hung-Grohe-Eurocube-39655000
100
AcDbLine
 10
11.66547198879346
 20
0.0
 30
0.0
 11
11.65583124426
 21
0.0
 31
0.0
1001
REVIT
1002
{
1070
     2
1000
-2001160
1002
}
  0
LINE
  5
3E1
330
395
100
AcDbEntity
  8
Basin-Wall_Hung-Grohe-Eurocube-39655000
100
AcDbLine
 10
11.65583124426
 20
0.0
 30
0.0
 11
11.646091182979
 21
0.0
 31
0.0
1001
REVIT
1002
{
1070
     2
1000
-2001160
1002
}
  0
LINE
  5
3E2
330
395
100
AcDbEntity
  8
Basin-Wall_Hung-Grohe-Eurocube-39655000
100
AcDbLine
 10
11.646091182979
 20
0.0
 30
0.0
 11
11.63626738697076
 21
0.0
 31
0.0
1001
REVIT
1002
{
1070
     2
1000
-2001160
1002
}
  0
LINE
  5
3E3
330
395
100
AcDbEntity
  8
Basin-Wall_Hung-Grohe-Eurocube-39655000
100
AcDbLine
 10
11.63626738697076
 20
0.0
 30
0.0
 11
11.62637557221327
 21
0.0
 31
0.0
1001
REVIT
1002
{
1070
     2
1000
-2001160
1002
}
  0
LINE
  5
3E4
330
395
100
AcDbEntity
  8
Basin-Wall_Hung-Grohe-Eurocube-39655000
100
AcDbLine
 10
11.62637557221327
 20
0.0
 30
0.0
 11
11.61643156349998
 21
0.0
 31
0.0
1001
REVIT
1002
{
1070
     2
1000
-2001160
1002
}
  0
LINE
  5
3E5
330
395
100
AcDbEntity
  8
Basin-Wall_Hung-Grohe-Eurocube-39655000
100
AcDbLine
 10
11.61643156349998
 20
0.0
 30
0.0
 11
11.60645126912357
 21
0.0
 31
0.0
1001
REVIT
1002
{
1070
     2
1000
-2001160
1002
}
  0
LINE
  5
3E6
330
395
100
AcDbEntity
  8
Basin-Wall_Hung-Grohe-Eurocube-39655000
100
AcDbLine
 10
11.60645126912357
 20
0.0
 30
0.0
 11
11.59645065542602
 21
0.0
 31
0.0
1001
REVIT
1002
{
1070
     2
1000
-2001160
1002
}
  0
LINE
  5
3E7
330
395
100
AcDbEntity
  8
Basin-Wall_Hung-Grohe-Eurocube-39655000
100
AcDbLine
 10
11.59645065542602
 20
0.0
 30
0.0
 11
11.59374999999981
 21
0.0
 31
0.0
1001
REVIT
1002
{
1070
     2
1000
-2001160
1002
}
  0
LINE
  5
3E8
330
395
100
AcDbEntity
  8
Basin-Wall_Hung-Grohe-Eurocube-39655000
100
AcDbLine
 10
11.95928110406757
 20
-4.10936245520466
 30
0.0
 11
12.09374833143095
 21
-0.2587248741756127
 31
0.0
1001
REVIT
1002
{
1070
     2
1000
-2001160
1002
}
  0
LINE
  5
3E9
330
395
100
AcDbEntity
  8
Basin-Wall_Hung-Grohe-Eurocube-39655000
100
AcDbLine
 10
-11.59374999999981
 20
-4.171883320852543
 30
0.0
 11
11.59374999999981
 21
-4.171883320852543
 31
0.0
1001
REVIT
1002
{
1070
     2
1000
-2001160
1002
}
  0
LINE
  5
3EA
330
395
100
AcDbEntity
  8
Basin-Wall_Hung-Grohe-Eurocube-39655000
100
AcDbLine
 10
11.59374999999981
 20
0.0
 30
0.0
 11
-11.59374999999981
 21
0.0
 31
0.0
1001
REVIT
1002
{
1070
     2
1000
-2001160
1002
}
  0
LINE
  5
3EB
330
395
100
AcDbEntity
  8
Basin-Wall_Hung-Grohe-Eurocube-39655000
100
AcDbLine
 10
-11.89453885244478
 20
-4.171883320852543
 30
0.0
 11
-11.89429825344525
 21
-4.171883320852543
 31
0.0
1001
REVIT
1002
{
1070
     2
1000
-2001160
1002
}
  0
LINE
  5
3EC
330
395
100
AcDbEntity
  8
Basin-Wall_Hung-Grohe-Eurocube-39655000
100
AcDbLine
 10
-11.89429825344525
 20
-4.171883320852543
 30
0.0
 11
-11.89357684135377
 21
-4.171883320852543
 31
0.0
1001
REVIT
1002
{
1070
     2
1000
-2001160
1002
}
  0
LINE
  5
3ED
330
395
100
AcDbEntity
  8
Basin-Wall_Hung-Grohe-Eurocube-39655000
100
AcDbLine
 10
-11.89357684135377
 20
-4.171883320852543
 30
0.0
 11
-11.89237577027575
 21
-4.171883320852543
 31
0.0
1001
REVIT
1002
{
1070
     2
1000
-2001160
1002
}
  0
LINE
  5
3EE
330
395
100
AcDbEntity
  8
Basin-Wall_Hung-Grohe-Eurocube-39655000
100
AcDbLine
 10
-11.89237577027575
 20
-4.171883320852543
 30
0.0
 11
-11.89069696166873
 21
-4.171883320852543
 31
0.0
1001
REVIT
1002
{
1070
     2
1000
-2001160
1002
}
  0
LINE
  5
3EF
330
395
100
AcDbEntity
  8
Basin-Wall_Hung-Grohe-Eurocube-39655000
100
AcDbLine
 10
-11.89069696166873
 20
-4.171883320852543
 30
0.0
 11
-11.88854310126835
 21
-4.171883320852543
 31
0.0
1001
REVIT
1002
{
1070
     2
1000
-2001160
1002
}
  0
LINE
  5
3F0
330
395
100
AcDbEntity
  8
Basin-Wall_Hung-Grohe-Eurocube-39655000
100
AcDbLine
 10
-11.88854310126835
 20
-4.171883320852543
 30
0.0
 11
-11.88591763479178
 21
-4.171883320852543
 31
0.0
1001
REVIT
1002
{
1070
     2
1000
-2001160
1002
}
  0
LINE
  5
3F1
330
395
100
AcDbEntity
  8
Basin-Wall_Hung-Grohe-Eurocube-39655000
100
AcDbLine
 10
-11.88591763479178
 20
-4.171883320852543
 30
0.0
 11
-11.88282476242531
 21
-4.171883320852543
 31
0.0
1001
REVIT
1002
{
1070
     2
1000
-2001160
1002
}
  0
LINE
  5
3F2
330
395
100
AcDbEntity
  8
Basin-Wall_Hung-Grohe-Eurocube-39655000
100
AcDbLine
 10
-11.88282476242531
 20
-4.171883320852543
 30
0.0
 11
-11.87926943210495
 21
-4.171883320852543
 31
0.0
1001
REVIT
1002
{
1070
     2
1000
-2001160
1002
}
  0
LINE
  5
3F3
330
395
100
AcDbEntity
  8
Basin-Wall_Hung-Grohe-Eurocube-39655000
100
AcDbLine
 10
-11.87926943210495
 20
-4.171883320852543
 30
0.0
 11
-11.87525733160079
 21
-4.171883320852543
 31
0.0
1001
REVIT
1002
{
1070
     2
1000
-2001160
1002
}
  0
LINE
  5
3F4
330
395
100
AcDbEntity
  8
Basin-Wall_Hung-Grohe-Eurocube-39655000
100
AcDbLine
 10
-11.87525733160079
 20
-4.171883320852543
 30
0.0
 11
-11.87079487941776
 21
-4.171883320852543
 31
0.0
1001
REVIT
1002
{
1070
     2
1000
-2001160
1002
}
  0
LINE
  5
3F5
330
395
100
AcDbEntity
  8
Basin-Wall_Hung-Grohe-Eurocube-39655000
100
AcDbLine
 10
-11.87079487941776
 20
-4.171883320852543
 30
0.0
 11
-11.86588921452743
 21
-4.171883320852543
 31
0.0
1001
REVIT
1002
{
1070
     2
1000
-2001160
1002
}
  0
LINE
  5
3F6
330
395
100
AcDbEntity
  8
Basin-Wall_Hung-Grohe-Eurocube-39655000
100
AcDbLine
 10
-11.86588921452743
 20
-4.171883320852543
 30
0.0
 11
-11.86054818494711
 21
-4.171883320852543
 31
0.0
1001
REVIT
1002
{
1070
     2
1000
-2001160
1002
}
  0
LINE
  5
3F7
330
395
100
AcDbEntity
  8
Basin-Wall_Hung-Grohe-Eurocube-39655000
100
AcDbLine
 10
-11.86054818494711
 20
-4.171883320852543
 30
0.0
 11
-11.85478033518478
 21
-4.171883320852543
 31
0.0
1001
REVIT
1002
{
1070
     2
1000
-2001160
1002
}
  0
LINE
  5
3F8
330
395
100
AcDbEntity
  8
Basin-Wall_Hung-Grohe-Eurocube-39655000
100
AcDbLine
 10
-11.85478033518478
 20
-4.171883320852543
 30
0.0
 11
-11.84859489256967
 21
-4.171883320852543
 31
0.0
1001
REVIT
1002
{
1070
     2
1000
-2001160
1002
}
  0
LINE
  5
3F9
330
395
100
AcDbEntity
  8
Basin-Wall_Hung-Grohe-Eurocube-39655000
100
AcDbLine
 10
-11.84859489256967
 20
-4.171883320852543
 30
0.0
 11
-11.84200175249046
 21
-4.171883320852543
 31
0.0
1001
REVIT
1002
{
1070
     2
1000
-2001160
1002
}
  0
LINE
  5
3FA
330
395
100
AcDbEntity
  8
Basin-Wall_Hung-Grohe-Eurocube-39655000
100
AcDbLine
 10
-11.84200175249046
 20
-4.171883320852543
 30
0.0
 11
-11.83501146256481
 21
-4.171883320852543
 31
0.0
1001
REVIT
1002
{
1070
     2
1000
-2001160
1002
}
  0
LINE
  5
3FB
330
395
100
AcDbEntity
  8
Basin-Wall_Hung-Grohe-Eurocube-39655000
100
AcDbLine
 10
-11.83501146256481
 20
-4.171883320852543
 30
0.0
 11
-11.82763520576542
 21
-4.171883320852543
 31
0.0
1001
REVIT
1002
{
1070
     2
1000
-2001160
1002
}
  0
LINE
  5
3FC
330
395
100
AcDbEntity
  8
Basin-Wall_Hung-Grohe-Eurocube-39655000
100
AcDbLine
 10
-11.82763520576542
 20
-4.171883320852543
 30
0.0
 11
-11.81988478252966
 21
-4.171883320852543
 31
0.0
1001
REVIT
1002
{
1070
     2
1000
-2001160
1002
}
  0
LINE
  5
3FD
330
395
100
AcDbEntity
  8
Basin-Wall_Hung-Grohe-Eurocube-39655000
100
AcDbLine
 10
-11.81988478252966
 20
-4.171883320852543
 30
0.0
 11
-11.81177259188136
 21
-4.171883320852543
 31
0.0
1001
REVIT
1002
{
1070
     2
1000
-2001160
1002
}
  0
LINE
  5
3FE
330
395
100
AcDbEntity
  8
Basin-Wall_Hung-Grohe-Eurocube-39655000
100
AcDbLine
 10
-11.81177259188136
 20
-4.171883320852543
 30
0.0
 11
-11.80331161159506
 21
-4.171883320852543
 31
0.0
1001
REVIT
1002
{
1070
     2
1000
-2001160
1002
}
  0
LINE
  5
3FF
330
395
100
AcDbEntity
  8
Basin-Wall_Hung-Grohe-Eurocube-39655000
100
AcDbLine
 10
-11.80331161159506
 20
-4.171883320852543
 30
0.0
 11
-11.7945153774343
 21
-4.171883320852543
 31
0.0
1001
REVIT
1002
{
1070
     2
1000
-2001160
1002
}
  0
LINE
  5
400
330
395
100
AcDbEntity
  8
Basin-Wall_Hung-Grohe-Eurocube-39655000
100
AcDbLine
 10
-11.7945153774343
 20
-4.171883320852543
 30
0.0
 11
-11.7853979614973
 21
-4.171883320852543
 31
0.0
1001
REVIT
1002
{
1070
     2
1000
-2001160
1002
}
  0
LINE
  5
401
330
395
100
AcDbEntity
  8
Basin-Wall_Hung-Grohe-Eurocube-39655000
100
AcDbLine
 10
-11.7853979614973
 20
-4.171883320852543
 30
0.0
 11
-11.77597394970463
 21
-4.171883320852543
 31
0.0
1001
REVIT
1002
{
1070
     2
1000
-2001160
1002
}
  0
LINE
  5
402
330
395
100
AcDbEntity
  8
Basin-Wall_Hung-Grohe-Eurocube-39655000
100
AcDbLine
 10
-11.77597394970463
 20
-4.171883320852543
 30
0.0
 11
-11.7662584184648
 21
-4.171883320852543
 31
0.0
1001
REVIT
1002
{
1070
     2
1000
-2001160
1002
}
  0
LINE
  5
403
330
395
100
AcDbEntity
  8
Basin-Wall_Hung-Grohe-Eurocube-39655000
100
AcDbLine
 10
-11.7662584184648
 20
-4.171883320852543
 30
0.0
 11
-11.75626691055527
 21
-4.171883320852543
 31
0.0
1001
REVIT
1002
{
1070
     2
1000
-2001160
1002
}
  0
LINE
  5
404
330
395
100
AcDbEntity
  8
Basin-Wall_Hung-Grohe-Eurocube-39655000
100
AcDbLine
 10
-11.75626691055527
 20
-4.171883320852543
 30
0.0
 11
-11.74601541025726
 21
-4.171883320852543
 31
0.0
1001
REVIT
1002
{
1070
     2
1000
-2001160
1002
}
  0
LINE
  5
405
330
395
100
AcDbEntity
  8
Basin-Wall_Hung-Grohe-Eurocube-39655000
100
AcDbLine
 10
-11.74601541025726
 20
-4.171883320852543
 30
0.0
 11
-11.7355203177844
 21
-4.171883320852543
 31
0.0
1001
REVIT
1002
{
1070
     2
1000
-2001160
1002
}
  0
LINE
  5
406
330
395
100
AcDbEntity
  8
Basin-Wall_Hung-Grohe-Eurocube-39655000
100
AcDbLine
 10
-11.7355203177844
 20
-4.171883320852543
 30
0.0
 11
-11.7247984230458
 21
-4.171883320852543
 31
0.0
1001
REVIT
1002
{
1070
     2
1000
-2001160
1002
}
  0
LINE
  5
407
330
395
100
AcDbEntity
  8
Basin-Wall_Hung-Grohe-Eurocube-39655000
100
AcDbLine
 10
-11.7247984230458
 20
-4.171883320852543
 30
0.0
 11
-11.71386687878585
 21
-4.171883320852543
 31
0.0
1001
REVIT
1002
{
1070
     2
1000
-2001160
1002
}
  0
LINE
  5
408
330
395
100
AcDbEntity
  8
Basin-Wall_Hung-Grohe-Eurocube-39655000
100
AcDbLine
 10
-11.71386687878585
 20
-4.171883320852543
 30
0.0
 11
-11.70274317314339
 21
-4.171883320852543
 31
0.0
1001
REVIT
1002
{
1070
     2
1000
-2001160
1002
}
  0
LINE
  5
409
330
395
100
AcDbEntity
  8
Basin-Wall_Hung-Grohe-Eurocube-39655000
100
AcDbLine
 10
-11.70274317314339
 20
-4.171883320852543
 30
0.0
 11
-11.69144510167455
 21
-4.171883320852543
 31
0.0
1001
REVIT
1002
{
1070
     2
1000
-2001160
1002
}
  0
LINE
  5
40A
330
395
100
AcDbEntity
  8
Basin-Wall_Hung-Grohe-Eurocube-39655000
100
AcDbLine
 10
-11.69144510167455
 20
-4.171883320852543
 30
0.0
 11
-11.67999073888353
 21
-4.171883320852543
 31
0.0
1001
REVIT
1002
{
1070
     2
1000
-2001160
1002
}
  0
LINE
  5
40B
330
395
100
AcDbEntity
  8
Basin-Wall_Hung-Grohe-Eurocube-39655000
100
AcDbLine
 10
-11.67999073888353
 20
-4.171883320852543
 30
0.0
 11
-11.66839840930735
 21
-4.171883320852543
 31
0.0
1001
REVIT
1002
{
1070
     2
1000
-2001160
1002
}
  0
LINE
  5
40C
330
395
100
AcDbEntity
  8
Basin-Wall_Hung-Grohe-Eurocube-39655000
100
AcDbLine
 10
-11.66839840930735
 20
-4.171883320852543
 30
0.0
 11
-11.65668665820041
 21
-4.171883320852543
 31
0.0
1001
REVIT
1002
{
1070
     2
1000
-2001160
1002
}
  0
LINE
  5
40D
330
395
100
AcDbEntity
  8
Basin-Wall_Hung-Grohe-Eurocube-39655000
100
AcDbLine
 10
-11.65668665820041
 20
-4.171883320852543
 30
0.0
 11
-11.64487422186613
 21
-4.171883320852543
 31
0.0
1001
REVIT
1002
{
1070
     2
1000
-2001160
1002
}
  0
LINE
  5
40E
330
395
100
AcDbEntity
  8
Basin-Wall_Hung-Grohe-Eurocube-39655000
100
AcDbLine
 10
-11.64487422186613
 20
-4.171883320852543
 30
0.0
 11
-11.63297999768278
 21
-4.171883320852543
 31
0.0
1001
REVIT
1002
{
1070
     2
1000
-2001160
1002
}
  0
LINE
  5
40F
330
395
100
AcDbEntity
  8
Basin-Wall_Hung-Grohe-Eurocube-39655000
100
AcDbLine
 10
-11.63297999768278
 20
-4.171883320852543
 30
0.0
 11
-11.62102301387176
 21
-4.171883320852543
 31
0.0
1001
REVIT
1002
{
1070
     2
1000
-2001160
1002
}
  0
LINE
  5
410
330
395
100
AcDbEntity
  8
Basin-Wall_Hung-Grohe-Eurocube-39655000
100
AcDbLine
 10
-11.62102301387176
 20
-4.171883320852543
 30
0.0
 11
-11.60902239905648
 21
-4.171883320852543
 31
0.0
1001
REVIT
1002
{
1070
     2
1000
-2001160
1002
}
  0
LINE
  5
411
330
395
100
AcDbEntity
  8
Basin-Wall_Hung-Grohe-Eurocube-39655000
100
AcDbLine
 10
-11.60902239905648
 20
-4.171883320852543
 30
0.0
 11
-11.59699735166063
 21
-4.171883320852543
 31
0.0
1001
REVIT
1002
{
1070
     2
1000
-2001160
1002
}
  0
LINE
  5
412
330
395
100
AcDbEntity
  8
Basin-Wall_Hung-Grohe-Eurocube-39655000
100
AcDbLine
 10
-11.59699735166063
 20
-4.171883320852543
 30
0.0
 11
-11.59374999999981
 21
-4.171883320852543
 31
0.0
1001
REVIT
1002
{
1070
     2
1000
-2001160
1002
}
  0
LINE
  5
413
330
395
100
AcDbEntity
  8
Basin-Wall_Hung-Grohe-Eurocube-39655000
100
AcDbLine
 10
-11.59374999999981
 20
0.0
 30
0.0
 11
-11.60375335692699
 21
0.0
 31
0.0
1001
REVIT
1002
{
1070
     2
1000
-2001160
1002
}
  0
LINE
  5
414
330
395
100
AcDbEntity
  8
Basin-Wall_Hung-Grohe-Eurocube-39655000
100
AcDbLine
 10
-11.60375335692699
 20
0.0
 30
0.0
 11
-11.61374071061702
 21
0.0
 31
0.0
1001
REVIT
1002
{
1070
     2
1000
-2001160
1002
}
  0
LINE
  5
415
330
395
100
AcDbEntity
  8
Basin-Wall_Hung-Grohe-Eurocube-39655000
100
AcDbLine
 10
-11.61374071061702
 20
0.0
 30
0.0
 11
-11.62369608343452
 21
0.0
 31
0.0
1001
REVIT
1002
{
1070
     2
1000
-2001160
1002
}
  0
LINE
  5
416
330
395
100
AcDbEntity
  8
Basin-Wall_Hung-Grohe-Eurocube-39655000
100
AcDbLine
 10
-11.62369608343452
 20
0.0
 30
0.0
 11
-11.63360354890668
 21
0.0
 31
0.0
1001
REVIT
1002
{
1070
     2
1000
-2001160
1002
}
  0
LINE
  5
417
330
395
100
AcDbEntity
  8
Basin-Wall_Hung-Grohe-Eurocube-39655000
100
AcDbLine
 10
-11.63360354890668
 20
0.0
 30
0.0
 11
-11.64344725720223
 21
0.0
 31
0.0
1001
REVIT
1002
{
1070
     2
1000
-2001160
1002
}
  0
LINE
  5
418
330
395
100
AcDbEntity
  8
Basin-Wall_Hung-Grohe-Eurocube-39655000
100
AcDbLine
 10
-11.64344725720223
 20
0.0
 30
0.0
 11
-11.65321146048777
 21
0.0
 31
0.0
1001
REVIT
1002
{
1070
     2
1000
-2001160
1002
}
  0
LINE
  5
419
330
395
100
AcDbEntity
  8
Basin-Wall_Hung-Grohe-Eurocube-39655000
100
AcDbLine
 10
-11.65321146048777
 20
0.0
 30
0.0
 11
-11.66288053812096
 21
0.0
 31
0.0
1001
REVIT
1002
{
1070
     2
1000
-2001160
1002
}
  0
LINE
  5
41A
330
395
100
AcDbEntity
  8
Basin-Wall_Hung-Grohe-Eurocube-39655000
100
AcDbLine
 10
-11.66288053812096
 20
0.0
 30
0.0
 11
-11.67243902164022
 21
0.0
 31
0.0
1001
REVIT
1002
{
1070
     2
1000
-2001160
1002
}
  0
LINE
  5
41B
330
395
100
AcDbEntity
  8
Basin-Wall_Hung-Grohe-Eurocube-39655000
100
AcDbLine
 10
-11.67243902164022
 20
0.0
 30
0.0
 11
-11.68187161951095
 21
0.0
 31
0.0
1001
REVIT
1002
{
1070
     2
1000
-2001160
1002
}
  0
LINE
  5
41C
330
395
100
AcDbEntity
  8
Basin-Wall_Hung-Grohe-Eurocube-39655000
100
AcDbLine
 10
-11.68187161951095
 20
0.0
 30
0.0
 11
-11.69116324158875
 21
0.0
 31
0.0
1001
REVIT
1002
{
1070
     2
1000
-2001160
1002
}
  0
LINE
  5
41D
330
395
100
AcDbEntity
  8
Basin-Wall_Hung-Grohe-Eurocube-39655000
100
AcDbLine
 10
-11.69116324158875
 20
0.0
 30
0.0
 11
-11.70029902326038
 21
0.0
 31
0.0
1001
REVIT
1002
{
1070
     2
1000
-2001160
1002
}
  0
LINE
  5
41E
330
395
100
AcDbEntity
  8
Basin-Wall_Hung-Grohe-Eurocube-39655000
100
AcDbLine
 10
-11.70029902326038
 20
0.0
 30
0.0
 11
-11.70926434922405
 21
0.0
 31
0.0
1001
REVIT
1002
{
1070
     2
1000
-2001160
1002
}
  0
LINE
  5
41F
330
395
100
AcDbEntity
  8
Basin-Wall_Hung-Grohe-Eurocube-39655000
100
AcDbLine
 10
-11.70926434922405
 20
0.0
 30
0.0
 11
-11.71804487687069
 21
0.0
 31
0.0
1001
REVIT
1002
{
1070
     2
1000
-2001160
1002
}
  0
LINE
  5
420
330
395
100
AcDbEntity
  8
Basin-Wall_Hung-Grohe-Eurocube-39655000
100
AcDbLine
 10
-11.71804487687069
 20
0.0
 30
0.0
 11
-11.72662655922918
 21
0.0
 31
0.0
1001
REVIT
1002
{
1070
     2
1000
-2001160
1002
}
  0
LINE
  5
421
330
395
100
AcDbEntity
  8
Basin-Wall_Hung-Grohe-Eurocube-39655000
100
AcDbLine
 10
-11.72662655922918
 20
0.0
 30
0.0
 11
-11.73499566743838
 21
0.0
 31
0.0
1001
REVIT
1002
{
1070
     2
1000
-2001160
1002
}
  0
LINE
  5
422
330
395
100
AcDbEntity
  8
Basin-Wall_Hung-Grohe-Eurocube-39655000
100
AcDbLine
 10
-11.73499566743838
 20
0.0
 30
0.0
 11
-11.74313881271048
 21
0.0
 31
0.0
1001
REVIT
1002
{
1070
     2
1000
-2001160
1002
}
  0
LINE
  5
423
330
395
100
AcDbEntity
  8
Basin-Wall_Hung-Grohe-Eurocube-39655000
100
AcDbLine
 10
-11.74313881271048
 20
0.0
 30
0.0
 11
-11.75104296775016
 21
0.0
 31
0.0
1001
REVIT
1002
{
1070
     2
1000
-2001160
1002
}
  0
LINE
  5
424
330
395
100
AcDbEntity
  8
Basin-Wall_Hung-Grohe-Eurocube-39655000
100
AcDbLine
 10
-11.75104296775016
 20
0.0
 30
0.0
 11
-11.75869548759549
 21
0.0
 31
0.0
1001
REVIT
1002
{
1070
     2
1000
-2001160
1002
}
  0
LINE
  5
425
330
395
100
AcDbEntity
  8
Basin-Wall_Hung-Grohe-Eurocube-39655000
100
AcDbLine
 10
-11.75869548759549
 20
0.0
 30
0.0
 11
-11.76608412984715
 21
0.0
 31
0.0
1001
REVIT
1002
{
1070
     2
1000
-2001160
1002
}
  0
LINE
  5
426
330
395
100
AcDbEntity
  8
Basin-Wall_Hung-Grohe-Eurocube-39655000
100
AcDbLine
 10
-11.76608412984715
 20
0.0
 30
0.0
 11
-11.77319707425371
 21
0.0
 31
0.0
1001
REVIT
1002
{
1070
     2
1000
-2001160
1002
}
  0
LINE
  5
427
330
395
100
AcDbEntity
  8
Basin-Wall_Hung-Grohe-Eurocube-39655000
100
AcDbLine
 10
-11.77319707425371
 20
0.0
 30
0.0
 11
-11.78002294162147
 21
0.0
 31
0.0
1001
REVIT
1002
{
1070
     2
1000
-2001160
1002
}
  0
LINE
  5
428
330
395
100
AcDbEntity
  8
Basin-Wall_Hung-Grohe-Eurocube-39655000
100
AcDbLine
 10
-11.78002294162147
 20
0.0
 30
0.0
 11
-11.78655081201873
 21
0.0
 31
0.0
1001
REVIT
1002
{
1070
     2
1000
-2001160
1002
}
  0
LINE
  5
429
330
395
100
AcDbEntity
  8
Basin-Wall_Hung-Grohe-Eurocube-39655000
100
AcDbLine
 10
-11.78655081201873
 20
0.0
 30
0.0
 11
-11.79277024224542
 21
0.0
 31
0.0
1001
REVIT
1002
{
1070
     2
1000
-2001160
1002
}
  0
LINE
  5
42A
330
395
100
AcDbEntity
  8
Basin-Wall_Hung-Grohe-Eurocube-39655000
100
AcDbLine
 10
-11.79277024224542
 20
0.0
 30
0.0
 11
-11.7986712825399
 21
0.0000000000000284
 31
0.0
1001
REVIT
1002
{
1070
     2
1000
-2001160
1002
}
  0
LINE
  5
42B
330
395
100
AcDbEntity
  8
Basin-Wall_Hung-Grohe-Eurocube-39655000
100
AcDbLine
 10
-11.7986712825399
 20
0.0000000000000284
 30
0.0
 11
-11.80424449249653
 21
0.0000000000000284
 31
0.0
1001
REVIT
1002
{
1070
     2
1000
-2001160
1002
}
  0
LINE
  5
42C
330
395
100
AcDbEntity
  8
Basin-Wall_Hung-Grohe-Eurocube-39655000
100
AcDbLine
 10
-11.80424449249653
 20
0.0000000000000284
 30
0.0
 11
-11.80948095616826
 21
0.0000000000000284
 31
0.0
1001
REVIT
1002
{
1070
     2
1000
-2001160
1002
}
  0
LINE
  5
42D
330
395
100
AcDbEntity
  8
Basin-Wall_Hung-Grohe-Eurocube-39655000
100
AcDbLine
 10
-11.80948095616826
 20
0.0000000000000284
 30
0.0
 11
-11.81437229633026
 21
0.0000000000000284
 31
0.0
1001
REVIT
1002
{
1070
     2
1000
-2001160
1002
}
  0
LINE
  5
42E
330
395
100
AcDbEntity
  8
Basin-Wall_Hung-Grohe-Eurocube-39655000
100
AcDbLine
 10
-11.81437229633026
 20
0.0000000000000284
 30
0.0
 11
-11.81891068788172
 21
0.0000000000000284
 31
0.0
1001
REVIT
1002
{
1070
     2
1000
-2001160
1002
}
  0
LINE
  5
42F
330
395
100
AcDbEntity
  8
Basin-Wall_Hung-Grohe-Eurocube-39655000
100
AcDbLine
 10
-11.81891068788172
 20
0.0000000000000284
 30
0.0
 11
-11.82308887036428
 21
0.0000000000000284
 31
0.0
1001
REVIT
1002
{
1070
     2
1000
-2001160
1002
}
  0
LINE
  5
430
330
395
100
AcDbEntity
  8
Basin-Wall_Hung-Grohe-Eurocube-39655000
100
AcDbLine
 10
-11.82308887036428
 20
0.0000000000000284
 30
0.0
 11
-11.82690015957728
 21
0.0000000000000284
 31
0.0
1001
REVIT
1002
{
1070
     2
1000
-2001160
1002
}
  0
LINE
  5
431
330
395
100
AcDbEntity
  8
Basin-Wall_Hung-Grohe-Eurocube-39655000
100
AcDbLine
 10
-11.82690015957728
 20
0.0000000000000284
 30
0.0
 11
-11.83033845827101
 21
0.0000000000000284
 31
0.0
1001
REVIT
1002
{
1070
     2
1000
-2001160
1002
}
  0
LINE
  5
432
330
395
100
AcDbEntity
  8
Basin-Wall_Hung-Grohe-Eurocube-39655000
100
AcDbLine
 10
-11.83033845827101
 20
0.0000000000000284
 30
0.0
 11
-11.83339826590101
 21
0.0000000000000284
 31
0.0
1001
REVIT
1002
{
1070
     2
1000
-2001160
1002
}
  0
LINE
  5
433
330
395
100
AcDbEntity
  8
Basin-Wall_Hung-Grohe-Eurocube-39655000
100
AcDbLine
 10
-11.83339826590101
 20
0.0000000000000284
 30
0.0
 11
-11.8360746874278
 21
0.0000000000000284
 31
0.0
1001
REVIT
1002
{
1070
     2
1000
-2001160
1002
}
  0
LINE
  5
434
330
395
100
AcDbEntity
  8
Basin-Wall_Hung-Grohe-Eurocube-39655000
100
AcDbLine
 10
-11.8360746874278
 20
0.0000000000000284
 30
0.0
 11
-11.83836344114789
 21
0.0000000000000284
 31
0.0
1001
REVIT
1002
{
1070
     2
1000
-2001160
1002
}
  0
LINE
  5
435
330
395
100
AcDbEntity
  8
Basin-Wall_Hung-Grohe-Eurocube-39655000
100
AcDbLine
 10
-11.83836344114789
 20
0.0000000000000284
 30
0.0
 11
-11.84026086554356
 21
0.0000000000000284
 31
0.0
1001
REVIT
1002
{
1070
     2
1000
-2001160
1002
}
  0
LINE
  5
436
330
395
100
AcDbEntity
  8
Basin-Wall_Hung-Grohe-Eurocube-39655000
100
AcDbLine
 10
-11.84026086554356
 20
0.0000000000000284
 30
0.0
 11
-11.84176392514054
 21
0.0000000000000284
 31
0.0
1001
REVIT
1002
{
1070
     2
1000
-2001160
1002
}
  0
LINE
  5
437
330
395
100
AcDbEntity
  8
Basin-Wall_Hung-Grohe-Eurocube-39655000
100
AcDbLine
 10
-11.84176392514054
 20
0.0000000000000284
 30
0.0
 11
-11.84287021536411
 21
0.0000000000000284
 31
0.0
1001
REVIT
1002
{
1070
     2
1000
-2001160
1002
}
  0
LINE
  5
438
330
395
100
AcDbEntity
  8
Basin-Wall_Hung-Grohe-Eurocube-39655000
100
AcDbLine
 10
-11.84287021536411
 20
0.0000000000000284
 30
0.0
 11
-11.84357796638591
 21
0.0000000000000284
 31
0.0
1001
REVIT
1002
{
1070
     2
1000
-2001160
1002
}
  0
LINE
  5
439
330
395
100
AcDbEntity
  8
Basin-Wall_Hung-Grohe-Eurocube-39655000
100
AcDbLine
 10
-11.84357796638591
 20
0.0000000000000284
 30
0.0
 11
-11.84388604595528
 21
0.0000000000000284
 31
0.0
1001
REVIT
1002
{
1070
     2
1000
-2001160
1002
}
  0
LINE
  5
43A
330
395
100
AcDbEntity
  8
Basin-Wall_Hung-Grohe-Eurocube-39655000
100
AcDbLine
 10
-11.84388604595528
 20
0.0000000000000284
 30
0.0
 11
-11.84390062467616
 21
0.0000000000000284
 31
0.0
1001
REVIT
1002
{
1070
     2
1000
-2001160
1002
}
  0
LINE
  5
43B
330
395
100
AcDbEntity
  8
Basin-Wall_Hung-Grohe-Eurocube-39655000
100
AcDbLine
 10
-12.09374833143095
 20
-0.2587248741756127
 30
0.0
 11
-11.95928110406756
 21
-4.10936245520466
 31
0.0
1001
REVIT
1002
{
1070
     2
1000
-2001160
1002
}
  0
ARC
  5
43C
330
395
100
AcDbEntity
  8
Basin-Wall_Hung-Grohe-Eurocube-39655000
100
AcDbCircle
 10
-11.83486575298329
 20
-0.2587248741756127
 30
0.0
 40
0.2588825784476585
100
AcDbArc
 50
92.00000000000054
 51
180.0
  0
ARC
  5
43D
330
395
100
AcDbEntity
  8
Basin-Wall_Hung-Grohe-Eurocube-39655000
100
AcDbCircle
 10
11.84390062467616
 20
-0.25
 30
0.0
 40
0.2500000000000284
100
AcDbArc
 50
358.0000000000029
 51
90.00000000000234
  0
ARC
  5
43E
330
395
100
AcDbEntity
  8
Basin-Wall_Hung-Grohe-Eurocube-39655000
100
AcDbCircle
 10
11.89672212918247
 20
-4.10936245520466
 30
0.0
 40
0.0625589748850963
100
AcDbArc
 50
268.0000000000131
 51
0.0
  0
ARC
  5
43F
330
395
100
AcDbEntity
  8
Basin-Wall_Hung-Grohe-Eurocube-39655000
100
AcDbCircle
 10
-11.88723036803006
 20
-4.09910627985505
 30
0.0
 40
0.0727770409974937
100
AcDbArc
 50
188.1014318733763
 51
270.0000000000177
  0
ENDBLK
  5
397
330
395
100
AcDbEntity
  8
0
100
AcDbBlockEnd
  0
BLOCK
  5
442
330
441
100
AcDbEntity
  8
0
100
AcDbBlockBegin
  2
Basin-Wall_Hung-Grohe-Eurocube-39655000 Side View
 70
     0
 10
0.0
 20
0.0
 30
0.0
  3
Basin-Wall_Hung-Grohe-Eurocube-39655000 Side View
  1

  0
LINE
  5
444
330
441
100
AcDbEntity
  8
Basin-Wall_Hung-Grohe-Eurocube-39655000
100
AcDbLine
 10
18.87716617117942
 20
-4.170379490004847
 30
0.0
 11
18.8746246303529
 21
-4.170883819183387
 31
0.0
1001
REVIT
1002
{
1070
     2
1000
-2001160
1002
}
  0
LINE
  5
445
330
441
100
AcDbEntity
  8
Basin-Wall_Hung-Grohe-Eurocube-39655000
100
AcDbLine
 10
18.8746246303529
 20
-4.170883819183387
 30
0.0
 11
18.87206495469989
 21
-4.171286110426905
 31
0.0
1001
REVIT
1002
{
1070
     2
1000
-2001160
1002
}
  0
LINE
  5
446
330
441
100
AcDbEntity
  8
Basin-Wall_Hung-Grohe-Eurocube-39655000
100
AcDbLine
 10
18.87206495469989
 20
-4.171286110426905
 30
0.0
 11
18.86949123915541
 21
-4.171585720155235
 31
0.0
1001
REVIT
1002
{
1070
     2
1000
-2001160
1002
}
  0
LINE
  5
447
330
441
100
AcDbEntity
  8
Basin-Wall_Hung-Grohe-Eurocube-39655000
100
AcDbLine
 10
18.86949123915541
 20
-4.171585720155235
 30
0.0
 11
18.8669076011153
 21
-4.17178216905674
 31
0.0
1001
REVIT
1002
{
1070
     2
1000
-2001160
1002
}
  0
LINE
  5
448
330
441
100
AcDbEntity
  8
Basin-Wall_Hung-Grohe-Eurocube-39655000
100
AcDbLine
 10
18.8669076011153
 20
-4.17178216905674
 30
0.0
 11
18.86431817384927
 21
-4.171875142855071
 31
0.0
1001
REVIT
1002
{
1070
     2
1000
-2001160
1002
}
  0
LINE
  5
449
330
441
100
AcDbEntity
  8
Basin-Wall_Hung-Grohe-Eurocube-39655000
100
AcDbLine
 10
18.86431817384927
 20
-4.171875142855071
 30
0.0
 11
18.86328885244495
 21
-4.171883320852799
 31
0.0
1001
REVIT
1002
{
1070
     2
1000
-2001160
1002
}
  0
LINE
  5
44A
330
441
100
AcDbEntity
  8
Basin-Wall_Hung-Grohe-Eurocube-39655000
100
AcDbLine
 10
18.86328885244495
 20
-4.171883320852799
 30
0.0
 11
18.86304825344544
 21
-4.171883320852799
 31
0.0
1001
REVIT
1002
{
1070
     2
1000
-2001160
1002
}
  0
LINE
  5
44B
330
441
100
AcDbEntity
  8
Basin-Wall_Hung-Grohe-Eurocube-39655000
100
AcDbLine
 10
18.86304825344544
 20
-4.171883320852799
 30
0.0
 11
18.86232684135393
 21
-4.171883320852799
 31
0.0
1001
REVIT
1002
{
1070
     2
1000
-2001160
1002
}
  0
LINE
  5
44C
330
441
100
AcDbEntity
  8
Basin-Wall_Hung-Grohe-Eurocube-39655000
100
AcDbLine
 10
18.86232684135393
 20
-4.171883320852799
 30
0.0
 11
18.86112577027593
 21
-4.171883320852799
 31
0.0
1001
REVIT
1002
{
1070
     2
1000
-2001160
1002
}
  0
LINE
  5
44D
330
441
100
AcDbEntity
  8
Basin-Wall_Hung-Grohe-Eurocube-39655000
100
AcDbLine
 10
18.86112577027593
 20
-4.171883320852799
 30
0.0
 11
18.85944696166891
 21
-4.171883320852799
 31
0.0
1001
REVIT
1002
{
1070
     2
1000
-2001160
1002
}
  0
LINE
  5
44E
330
441
100
AcDbEntity
  8
Basin-Wall_Hung-Grohe-Eurocube-39655000
100
AcDbLine
 10
18.85944696166891
 20
-4.171883320852799
 30
0.0
 11
18.85729310126852
 21
-4.171883320852799
 31
0.0
1001
REVIT
1002
{
1070
     2
1000
-2001160
1002
}
  0
LINE
  5
44F
330
441
100
AcDbEntity
  8
Basin-Wall_Hung-Grohe-Eurocube-39655000
100
AcDbLine
 10
18.85729310126852
 20
-4.171883320852799
 30
0.0
 11
18.85466763479195
 21
-4.171883320852799
 31
0.0
1001
REVIT
1002
{
1070
     2
1000
-2001160
1002
}
  0
LINE
  5
450
330
441
100
AcDbEntity
  8
Basin-Wall_Hung-Grohe-Eurocube-39655000
100
AcDbLine
 10
18.85466763479195
 20
-4.171883320852799
 30
0.0
 11
18.85157476242548
 21
-4.171883320852799
 31
0.0
1001
REVIT
1002
{
1070
     2
1000
-2001160
1002
}
  0
LINE
  5
451
330
441
100
AcDbEntity
  8
Basin-Wall_Hung-Grohe-Eurocube-39655000
100
AcDbLine
 10
18.85157476242548
 20
-4.171883320852799
 30
0.0
 11
18.84801943210513
 21
-4.171883320852799
 31
0.0
1001
REVIT
1002
{
1070
     2
1000
-2001160
1002
}
  0
LINE
  5
452
330
441
100
AcDbEntity
  8
Basin-Wall_Hung-Grohe-Eurocube-39655000
100
AcDbLine
 10
18.84801943210513
 20
-4.171883320852799
 30
0.0
 11
18.84400733160096
 21
-4.171883320852799
 31
0.0
1001
REVIT
1002
{
1070
     2
1000
-2001160
1002
}
  0
LINE
  5
453
330
441
100
AcDbEntity
  8
Basin-Wall_Hung-Grohe-Eurocube-39655000
100
AcDbLine
 10
18.81265062467646
 20
-0.0000000000002558
 30
0.0
 11
18.82264795822306
 21
-0.0001999733350146
 31
0.0
1001
REVIT
1002
{
1070
     2
1000
-2001160
1002
}
  0
LINE
  5
454
330
441
100
AcDbEntity
  8
Basin-Wall_Hung-Grohe-Eurocube-39655000
100
AcDbLine
 10
18.82264795822306
 20
-0.0001999733350146
 30
0.0
 11
18.83262929816868
 21
-0.0007995734245867
 31
0.0
1001
REVIT
1002
{
1070
     2
1000
-2001160
1002
}
  0
LINE
  5
455
330
441
100
AcDbEntity
  8
Basin-Wall_Hung-Grohe-Eurocube-39655000
100
AcDbLine
 10
18.83262929816868
 20
-0.0007995734245867
 30
0.0
 11
18.84257867649862
 21
-0.0017978410367903
 31
0.0
1001
REVIT
1002
{
1070
     2
1000
-2001160
1002
}
  0
LINE
  5
456
330
441
100
AcDbEntity
  8
Basin-Wall_Hung-Grohe-Eurocube-39655000
100
AcDbLine
 10
18.84257867649862
 20
-0.0017978410367903
 30
0.0
 11
18.85248017632996
 21
-0.0031931791563409
 31
0.0
1001
REVIT
1002
{
1070
     2
1000
-2001160
1002
}
  0
LINE
  5
457
330
441
100
AcDbEntity
  8
Basin-Wall_Hung-Grohe-Eurocube-39655000
100
AcDbLine
 10
18.85248017632996
 20
-0.0031931791563409
 30
0.0
 11
18.86231795737515
 21
-0.0049833555399346
 31
0.0
1001
REVIT
1002
{
1070
     2
1000
-2001160
1002
}
  0
LINE
  5
458
330
441
100
AcDbEntity
  8
Basin-Wall_Hung-Grohe-Eurocube-39655000
100
AcDbLine
 10
18.86231795737515
 20
-0.0049833555399346
 30
0.0
 11
18.87207628128318
 21
-0.0071655062872367
 31
0.0
1001
REVIT
1002
{
1070
     2
1000
-2001160
1002
}
  0
LINE
  5
459
330
441
100
AcDbEntity
  8
Basin-Wall_Hung-Grohe-Eurocube-39655000
100
AcDbLine
 10
18.87207628128318
 20
-0.0071655062872367
 30
0.0
 11
18.88173953681742
 21
-0.0097361404225467
 31
0.0
1001
REVIT
1002
{
1070
     2
1000
-2001160
1002
}
  0
LINE
  5
45A
330
441
100
AcDbEntity
  8
Basin-Wall_Hung-Grohe-Eurocube-39655000
100
AcDbLine
 10
18.88173953681742
 20
-0.0097361404225467
 30
0.0
 11
18.89129226483042
 21
-0.0126911454796357
 31
0.0
1001
REVIT
1002
{
1070
     2
1000
-2001160
1002
}
  0
LINE
  5
45B
330
441
100
AcDbEntity
  8
Basin-Wall_Hung-Grohe-Eurocube-39655000
100
AcDbLine
 10
18.90071918299516
 20
-0.0160257940807753
 30
0.0
 11
18.91000521025356
 21
-0.0197347514995272
 31
0.0
1001
REVIT
1002
{
1070
     2
1000
-2001160
1002
}
  0
LINE
  5
45C
330
441
100
AcDbEntity
  8
Basin-Wall_Hung-Grohe-Eurocube-39655000
100
AcDbLine
 10
18.91000521025356
 20
-0.0197347514995272
 30
0.0
 11
18.91913549094289
 21
-0.0238120841952707
 31
0.0
1001
REVIT
1002
{
1070
     2
1000
-2001160
1002
}
  0
LINE
  5
45D
330
441
100
AcDbEntity
  8
Basin-Wall_Hung-Grohe-Eurocube-39655000
100
AcDbLine
 10
18.91913549094289
 20
-0.0238120841952707
 30
0.0
 11
18.92809541856177
 21
-0.0282512693054287
 31
0.0
1001
REVIT
1002
{
1070
     2
1000
-2001160
1002
}
  0
LINE
  5
45E
330
441
100
AcDbEntity
  8
Basin-Wall_Hung-Grohe-Eurocube-39655000
100
AcDbLine
 10
18.92809541856177
 20
-0.0282512693054287
 30
0.0
 11
18.93687065913733
 21
-0.033045205080839
 31
0.0
1001
REVIT
1002
{
1070
     2
1000
-2001160
1002
}
  0
LINE
  5
45F
330
441
100
AcDbEntity
  8
Basin-Wall_Hung-Grohe-Eurocube-39655000
100
AcDbLine
 10
18.93687065913733
 20
-0.033045205080839
 30
0.0
 11
18.94544717415661
 21
-0.0381862222469067
 31
0.0
1001
REVIT
1002
{
1070
     2
1000
-2001160
1002
}
  0
LINE
  5
460
330
441
100
AcDbEntity
  8
Basin-Wall_Hung-Grohe-Eurocube-39655000
100
AcDbLine
 10
18.95381124302516
 20
-0.0436660962728297
 30
0.0
 11
18.96194948501699
 21
-0.0494760605291731
 31
0.0
1001
REVIT
1002
{
1070
     2
1000
-2001160
1002
}
  0
LINE
  5
461
330
441
100
AcDbEntity
  8
Basin-Wall_Hung-Grohe-Eurocube-39655000
100
AcDbLine
 10
18.96194948501699
 20
-0.0494760605291731
 30
0.0
 11
18.96984888068101
 21
-0.0556068203125335
 31
0.0
1001
REVIT
1002
{
1070
     2
1000
-2001160
1002
}
  0
LINE
  5
462
330
441
100
AcDbEntity
  8
Basin-Wall_Hung-Grohe-Eurocube-39655000
100
AcDbLine
 10
18.96984888068101
 20
-0.0556068203125335
 30
0.0
 11
18.97749679266926
 21
-0.0620485677150384
 31
0.0
1001
REVIT
1002
{
1070
     2
1000
-2001160
1002
}
  0
LINE
  5
463
330
441
100
AcDbEntity
  8
Basin-Wall_Hung-Grohe-Eurocube-39655000
100
AcDbLine
 10
18.97749679266926
 20
-0.0620485677150384
 30
0.0
 11
18.98488098595403
 21
-0.068790997315034
 31
0.0
1001
REVIT
1002
{
1070
     2
1000
-2001160
1002
}
  0
LINE
  5
464
330
441
100
AcDbEntity
  8
Basin-Wall_Hung-Grohe-Eurocube-39655000
100
AcDbLine
 10
18.98488098595403
 20
-0.068790997315034
 30
0.0
 11
18.99198964740127
 21
-0.0758233226634673
 31
0.0
1001
REVIT
1002
{
1070
     2
1000
-2001160
1002
}
  0
LINE
  5
465
330
441
100
AcDbEntity
  8
Basin-Wall_Hung-Grohe-Eurocube-39655000
100
AcDbLine
 10
18.99198964740127
 20
-0.0758233226634673
 30
0.0
 11
18.99881140466911
 21
-0.0831342935399278
 31
0.0
1001
REVIT
1002
{
1070
     2
1000
-2001160
1002
}
  0
LINE
  5
466
330
441
100
AcDbEntity
  8
Basin-Wall_Hung-Grohe-Eurocube-39655000
100
AcDbLine
 10
18.99881140466911
 20
-0.0831342935399278
 30
0.0
 11
19.00533534440113
 21
-0.09071221395061
 31
0.0
1001
REVIT
1002
{
1070
     2
1000
-2001160
1002
}
  0
LINE
  5
467
330
441
100
AcDbEntity
  8
Basin-Wall_Hung-Grohe-Eurocube-39655000
100
AcDbLine
 10
19.00533534440113
 20
-0.09071221395061
 30
0.0
 11
19.01155102968549
 21
-0.0985449608393765
 31
0.0
1001
REVIT
1002
{
1070
     2
1000
-2001160
1002
}
  0
LINE
  5
468
330
441
100
AcDbEntity
  8
Basin-Wall_Hung-Grohe-Eurocube-39655000
100
AcDbLine
 10
19.01155102968549
 20
-0.0985449608393765
 30
0.0
 11
19.01744851675164
 21
-0.106620003482135
 31
0.0
1001
REVIT
1002
{
1070
     2
1000
-2001160
1002
}
  0
LINE
  5
469
330
441
100
AcDbEntity
  8
Basin-Wall_Hung-Grohe-Eurocube-39655000
100
AcDbLine
 10
19.01744851675164
 20
-0.106620003482135
 30
0.0
 11
19.02301837087836
 21
-0.1149244235332105
 31
0.0
1001
REVIT
1002
{
1070
     2
1000
-2001160
1002
}
  0
LINE
  5
46A
330
441
100
AcDbEntity
  8
Basin-Wall_Hung-Grohe-Eurocube-39655000
100
AcDbLine
 10
19.02301837087836
 20
-0.1149244235332105
 30
0.0
 11
19.02825168148723
 21
-0.1234449356920493
 31
0.0
1001
REVIT
1002
{
1070
     2
1000
-2001160
1002
}
  0
LINE
  5
46B
330
441
100
AcDbEntity
  8
Basin-Wall_Hung-Grohe-Eurocube-39655000
100
AcDbLine
 10
19.02825168148723
 20
-0.1234449356920493
 30
0.0
 11
19.03314007639763
 21
-0.1321679089568306
 31
0.0
1001
REVIT
1002
{
1070
     2
1000
-2001160
1002
}
  0
LINE
  5
46C
330
441
100
AcDbEntity
  8
Basin-Wall_Hung-Grohe-Eurocube-39655000
100
AcDbLine
 10
19.03314007639763
 20
-0.1321679089568306
 30
0.0
 11
19.03767573522052
 21
-0.1410793884310806
 31
0.0
1001
REVIT
1002
{
1070
     2
1000
-2001160
1002
}
  0
LINE
  5
46D
330
441
100
AcDbEntity
  8
Basin-Wall_Hung-Grohe-Eurocube-39655000
100
AcDbLine
 10
19.03767573522052
 20
-0.1410793884310806
 30
0.0
 11
19.04185140186934
 21
-0.1501651176486973
 31
0.0
1001
REVIT
1002
{
1070
     2
1000
-2001160
1002
}
  0
LINE
  5
46E
330
441
100
AcDbEntity
  8
Basin-Wall_Hung-Grohe-Eurocube-39655000
100
AcDbLine
 10
19.04185140186934
 20
-0.1501651176486973
 30
0.0
 11
19.0456603961682
 21
-0.1594105613810939
 31
0.0
1001
REVIT
1002
{
1070
     2
1000
-2001160
1002
}
  0
LINE
  5
46F
330
441
100
AcDbEntity
  8
Basin-Wall_Hung-Grohe-Eurocube-39655000
100
AcDbLine
 10
19.0456603961682
 20
-0.1594105613810939
 30
0.0
 11
19.04909662453878
 21
-0.1688009288905619
 31
0.0
1001
REVIT
1002
{
1070
     2
1000
-2001160
1002
}
  0
LINE
  5
470
330
441
100
AcDbEntity
  8
Basin-Wall_Hung-Grohe-Eurocube-39655000
100
AcDbLine
 10
19.05215458974869
 20
-0.1783211975922825
 30
0.0
 11
19.05482939970596
 21
-0.1879561370871556
 31
0.0
1001
REVIT
1002
{
1070
     2
1000
-2001160
1002
}
  0
LINE
  5
471
330
441
100
AcDbEntity
  8
Basin-Wall_Hung-Grohe-Eurocube-39655000
100
AcDbLine
 10
19.05482939970596
 20
-0.1879561370871556
 30
0.0
 11
19.05711677528522
 21
-0.1976903335273903
 31
0.0
1001
REVIT
1002
{
1070
     2
1000
-2001160
1002
}
  0
LINE
  5
472
330
441
100
AcDbEntity
  8
Basin-Wall_Hung-Grohe-Eurocube-39655000
100
AcDbLine
 10
19.05711677528522
 20
-0.1976903335273903
 30
0.0
 11
19.05901305717351
 21
-0.2075082142751796
 31
0.0
1001
REVIT
1002
{
1070
     2
1000
-2001160
1002
}
  0
LINE
  5
473
330
441
100
AcDbEntity
  8
Basin-Wall_Hung-Grohe-Eurocube-39655000
100
AcDbLine
 10
19.05901305717351
 20
-0.2075082142751796
 30
0.0
 11
19.06051521172432
 21
-0.217394072815722
 31
0.0
1001
REVIT
1002
{
1070
     2
1000
-2001160
1002
}
  0
LINE
  5
474
330
441
100
AcDbEntity
  8
Basin-Wall_Hung-Grohe-Eurocube-39655000
100
AcDbLine
 10
19.06051521172432
 20
-0.217394072815722
 30
0.0
 11
19.0616208358108
 21
-0.2273320938841721
 31
0.0
1001
REVIT
1002
{
1070
     2
1000
-2001160
1002
}
  0
LINE
  5
475
330
441
100
AcDbEntity
  8
Basin-Wall_Hung-Grohe-Eurocube-39655000
100
AcDbLine
 10
19.06232816067029
 20
-0.2373063787668457
 30
0.0
 11
19.06263605473388
 21
-0.2473009707356937
 31
0.0
1001
REVIT
1002
{
1070
     2
1000
-2001160
1002
}
  0
LINE
  5
476
330
441
100
AcDbEntity
  8
Basin-Wall_Hung-Grohe-Eurocube-39655000
100
AcDbLine
 10
19.06263605473388
 20
-0.2473009707356937
 30
0.0
 11
19.06254402543676
 21
-0.2572998805755731
 31
0.0
1001
REVIT
1002
{
1070
     2
1000
-2001160
1002
}
  0
LINE
  5
477
330
441
100
AcDbEntity
  8
Basin-Wall_Hung-Grohe-Eurocube-39655000
100
AcDbLine
 10
18.56250000000006
 20
-4.171883320852799
 30
0.0
 11
18.57452834594009
 21
-4.171883320852799
 31
0.0
1001
REVIT
1002
{
1070
     2
1000
-2001160
1002
}
  0
LINE
  5
478
330
441
100
AcDbEntity
  8
Basin-Wall_Hung-Grohe-Eurocube-39655000
100
AcDbLine
 10
18.57452834594009
 20
-4.171883320852799
 30
0.0
 11
18.58653744909253
 21
-4.171883320852799
 31
0.0
1001
REVIT
1002
{
1070
     2
1000
-2001160
1002
}
  0
LINE
  5
479
330
441
100
AcDbEntity
  8
Basin-Wall_Hung-Grohe-Eurocube-39655000
100
AcDbLine
 10
18.58653744909253
 20
-4.171883320852799
 30
0.0
 11
18.59850809745416
 21
-4.171883320852799
 31
0.0
1001
REVIT
1002
{
1070
     2
1000
-2001160
1002
}
  0
LINE
  5
47A
330
441
100
AcDbEntity
  8
Basin-Wall_Hung-Grohe-Eurocube-39655000
100
AcDbLine
 10
18.59850809745416
 20
-4.171883320852799
 30
0.0
 11
18.61042114054115
 21
-4.171883320852799
 31
0.0
1001
REVIT
1002
{
1070
     2
1000
-2001160
1002
}
  0
LINE
  5
47B
330
441
100
AcDbEntity
  8
Basin-Wall_Hung-Grohe-Eurocube-39655000
100
AcDbLine
 10
18.61042114054115
 20
-4.171883320852799
 30
0.0
 11
18.62225752002591
 21
-4.171883320852799
 31
0.0
1001
REVIT
1002
{
1070
     2
1000
-2001160
1002
}
  0
LINE
  5
47C
330
441
100
AcDbEntity
  8
Basin-Wall_Hung-Grohe-Eurocube-39655000
100
AcDbLine
 10
18.62225752002591
 20
-4.171883320852799
 30
0.0
 11
18.63399830022624
 21
-4.171883320852799
 31
0.0
1001
REVIT
1002
{
1070
     2
1000
-2001160
1002
}
  0
LINE
  5
47D
330
441
100
AcDbEntity
  8
Basin-Wall_Hung-Grohe-Eurocube-39655000
100
AcDbLine
 10
18.63399830022624
 20
-4.171883320852799
 30
0.0
 11
18.64562469839833
 21
-4.171883320852799
 31
0.0
1001
REVIT
1002
{
1070
     2
1000
-2001160
1002
}
  0
LINE
  5
47E
330
441
100
AcDbEntity
  8
Basin-Wall_Hung-Grohe-Eurocube-39655000
100
AcDbLine
 10
18.64562469839833
 20
-4.171883320852799
 30
0.0
 11
18.65711811478535
 21
-4.171883320852799
 31
0.0
1001
REVIT
1002
{
1070
     2
1000
-2001160
1002
}
  0
LINE
  5
47F
330
441
100
AcDbEntity
  8
Basin-Wall_Hung-Grohe-Eurocube-39655000
100
AcDbLine
 10
18.65711811478535
 20
-4.171883320852799
 30
0.0
 11
18.66846016237281
 21
-4.171883320852799
 31
0.0
1001
REVIT
1002
{
1070
     2
1000
-2001160
1002
}
  0
LINE
  5
480
330
441
100
AcDbEntity
  8
Basin-Wall_Hung-Grohe-Eurocube-39655000
100
AcDbLine
 10
18.66846016237281
 20
-4.171883320852799
 30
0.0
 11
18.6796326963041
 21
-4.171883320852799
 31
0.0
1001
REVIT
1002
{
1070
     2
1000
-2001160
1002
}
  0
LINE
  5
481
330
441
100
AcDbEntity
  8
Basin-Wall_Hung-Grohe-Eurocube-39655000
100
AcDbLine
 10
18.6796326963041
 20
-4.171883320852799
 30
0.0
 11
18.69061784290828
 21
-4.171883320852799
 31
0.0
1001
REVIT
1002
{
1070
     2
1000
-2001160
1002
}
  0
LINE
  5
482
330
441
100
AcDbEntity
  8
Basin-Wall_Hung-Grohe-Eurocube-39655000
100
AcDbLine
 10
18.69061784290828
 20
-4.171883320852799
 30
0.0
 11
18.70139802829416
 21
-4.171883320852799
 31
0.0
1001
REVIT
1002
{
1070
     2
1000
-2001160
1002
}
  0
LINE
  5
483
330
441
100
AcDbEntity
  8
Basin-Wall_Hung-Grohe-Eurocube-39655000
100
AcDbLine
 10
18.70139802829416
 20
-4.171883320852799
 30
0.0
 11
18.71195600646477
 21
-4.171883320852799
 31
0.0
1001
REVIT
1002
{
1070
     2
1000
-2001160
1002
}
  0
LINE
  5
484
330
441
100
AcDbEntity
  8
Basin-Wall_Hung-Grohe-Eurocube-39655000
100
AcDbLine
 10
18.71195600646477
 20
-4.171883320852799
 30
0.0
 11
18.72227488690728
 21
-4.171883320852799
 31
0.0
1001
REVIT
1002
{
1070
     2
1000
-2001160
1002
}
  0
LINE
  5
485
330
441
100
AcDbEntity
  8
Basin-Wall_Hung-Grohe-Eurocube-39655000
100
AcDbLine
 10
18.72227488690728
 20
-4.171883320852799
 30
0.0
 11
18.73233816161423
 21
-4.171883320852799
 31
0.0
1001
REVIT
1002
{
1070
     2
1000
-2001160
1002
}
  0
LINE
  5
486
330
441
100
AcDbEntity
  8
Basin-Wall_Hung-Grohe-Eurocube-39655000
100
AcDbLine
 10
18.73233816161423
 20
-4.171883320852799
 30
0.0
 11
18.74212973149282
 21
-4.171883320852799
 31
0.0
1001
REVIT
1002
{
1070
     2
1000
-2001160
1002
}
  0
LINE
  5
487
330
441
100
AcDbEntity
  8
Basin-Wall_Hung-Grohe-Eurocube-39655000
100
AcDbLine
 10
18.74212973149282
 20
-4.171883320852799
 30
0.0
 11
18.75163393211997
 21
-4.171883320852799
 31
0.0
1001
REVIT
1002
{
1070
     2
1000
-2001160
1002
}
  0
LINE
  5
488
330
441
100
AcDbEntity
  8
Basin-Wall_Hung-Grohe-Eurocube-39655000
100
AcDbLine
 10
18.75163393211997
 20
-4.171883320852799
 30
0.0
 11
18.76083555880216
 21
-4.171883320852799
 31
0.0
1001
REVIT
1002
{
1070
     2
1000
-2001160
1002
}
  0
LINE
  5
489
330
441
100
AcDbEntity
  8
Basin-Wall_Hung-Grohe-Eurocube-39655000
100
AcDbLine
 10
18.76083555880216
 20
-4.171883320852799
 30
0.0
 11
18.76971989089959
 21
-4.171883320852799
 31
0.0
1001
REVIT
1002
{
1070
     2
1000
-2001160
1002
}
  0
LINE
  5
48A
330
441
100
AcDbEntity
  8
Basin-Wall_Hung-Grohe-Eurocube-39655000
100
AcDbLine
 10
18.76971989089959
 20
-4.171883320852799
 30
0.0
 11
18.77827271537613
 21
-4.171883320852799
 31
0.0
1001
REVIT
1002
{
1070
     2
1000
-2001160
1002
}
  0
LINE
  5
48B
330
441
100
AcDbEntity
  8
Basin-Wall_Hung-Grohe-Eurocube-39655000
100
AcDbLine
 10
18.77827271537613
 20
-4.171883320852799
 30
0.0
 11
18.78648034953714
 21
-4.171883320852799
 31
0.0
1001
REVIT
1002
{
1070
     2
1000
-2001160
1002
}
  0
LINE
  5
48C
330
441
100
AcDbEntity
  8
Basin-Wall_Hung-Grohe-Eurocube-39655000
100
AcDbLine
 10
18.78648034953714
 20
-4.171883320852799
 30
0.0
 11
18.7943296629188
 21
-4.171883320852799
 31
0.0
1001
REVIT
1002
{
1070
     2
1000
-2001160
1002
}
  0
LINE
  5
48D
330
441
100
AcDbEntity
  8
Basin-Wall_Hung-Grohe-Eurocube-39655000
100
AcDbLine
 10
18.7943296629188
 20
-4.171883320852799
 30
0.0
 11
18.80180809829416
 21
-4.171883320852799
 31
0.0
1001
REVIT
1002
{
1070
     2
1000
-2001160
1002
}
  0
LINE
  5
48E
330
441
100
AcDbEntity
  8
Basin-Wall_Hung-Grohe-Eurocube-39655000
100
AcDbLine
 10
18.80180809829416
 20
-4.171883320852799
 30
0.0
 11
18.80890369176191
 21
-4.171883320852799
 31
0.0
1001
REVIT
1002
{
1070
     2
1000
-2001160
1002
}
  0
LINE
  5
48F
330
441
100
AcDbEntity
  8
Basin-Wall_Hung-Grohe-Eurocube-39655000
100
AcDbLine
 10
18.80890369176191
 20
-4.171883320852799
 30
0.0
 11
18.81560509188617
 21
-4.171883320852799
 31
0.0
1001
REVIT
1002
{
1070
     2
1000
-2001160
1002
}
  0
LINE
  5
490
330
441
100
AcDbEntity
  8
Basin-Wall_Hung-Grohe-Eurocube-39655000
100
AcDbLine
 10
18.81560509188617
 20
-4.171883320852799
 30
0.0
 11
18.82190157785626
 21
-4.171883320852799
 31
0.0
1001
REVIT
1002
{
1070
     2
1000
-2001160
1002
}
  0
LINE
  5
491
330
441
100
AcDbEntity
  8
Basin-Wall_Hung-Grohe-Eurocube-39655000
100
AcDbLine
 10
18.82190157785626
 20
-4.171883320852799
 30
0.0
 11
18.82778307663787
 21
-4.171883320852799
 31
0.0
1001
REVIT
1002
{
1070
     2
1000
-2001160
1002
}
  0
LINE
  5
492
330
441
100
AcDbEntity
  8
Basin-Wall_Hung-Grohe-Eurocube-39655000
100
AcDbLine
 10
18.82778307663787
 20
-4.171883320852799
 30
0.0
 11
18.83324017908754
 21
-4.171883320852799
 31
0.0
1001
REVIT
1002
{
1070
     2
1000
-2001160
1002
}
  0
LINE
  5
493
330
441
100
AcDbEntity
  8
Basin-Wall_Hung-Grohe-Eurocube-39655000
100
AcDbLine
 10
18.83324017908754
 20
-4.171883320852799
 30
0.0
 11
18.8382641550055
 21
-4.171883320852799
 31
0.0
1001
REVIT
1002
{
1070
     2
1000
-2001160
1002
}
  0
LINE
  5
494
330
441
100
AcDbEntity
  8
Basin-Wall_Hung-Grohe-Eurocube-39655000
100
AcDbLine
 10
18.8382641550055
 20
-4.171883320852799
 30
0.0
 11
18.84284696710199
 21
-4.171883320852799
 31
0.0
1001
REVIT
1002
{
1070
     2
1000
-2001160
1002
}
  0
LINE
  5
495
330
441
100
AcDbEntity
  8
Basin-Wall_Hung-Grohe-Eurocube-39655000
100
AcDbLine
 10
18.84284696710199
 20
-4.171883320852799
 30
0.0
 11
18.8469812838553
 21
-4.171883320852799
 31
0.0
1001
REVIT
1002
{
1070
     2
1000
-2001160
1002
}
  0
LINE
  5
496
330
441
100
AcDbEntity
  8
Basin-Wall_Hung-Grohe-Eurocube-39655000
100
AcDbLine
 10
18.8469812838553
 20
-4.171883320852799
 30
0.0
 11
18.85066049124053
 21
-4.171883320852799
 31
0.0
1001
REVIT
1002
{
1070
     2
1000
-2001160
1002
}
  0
LINE
  5
497
330
441
100
AcDbEntity
  8
Basin-Wall_Hung-Grohe-Eurocube-39655000
100
AcDbLine
 10
18.85066049124053
 20
-4.171883320852799
 30
0.0
 11
18.85387870331075
 21
-4.171883320852799
 31
0.0
1001
REVIT
1002
{
1070
     2
1000
-2001160
1002
}
  0
LINE
  5
498
330
441
100
AcDbEntity
  8
Basin-Wall_Hung-Grohe-Eurocube-39655000
100
AcDbLine
 10
18.85387870331075
 20
-4.171883320852799
 30
0.0
 11
18.85663077161314
 21
-4.171883320852799
 31
0.0
1001
REVIT
1002
{
1070
     2
1000
-2001160
1002
}
  0
LINE
  5
499
330
441
100
AcDbEntity
  8
Basin-Wall_Hung-Grohe-Eurocube-39655000
100
AcDbLine
 10
18.85663077161314
 20
-4.171883320852799
 30
0.0
 11
18.85891229342549
 21
-4.171883320852799
 31
0.0
1001
REVIT
1002
{
1070
     2
1000
-2001160
1002
}
  0
LINE
  5
49A
330
441
100
AcDbEntity
  8
Basin-Wall_Hung-Grohe-Eurocube-39655000
100
AcDbLine
 10
18.85891229342549
 20
-4.171883320852799
 30
0.0
 11
18.86071961879962
 21
-4.171883320852799
 31
0.0
1001
REVIT
1002
{
1070
     2
1000
-2001160
1002
}
  0
LINE
  5
49B
330
441
100
AcDbEntity
  8
Basin-Wall_Hung-Grohe-Eurocube-39655000
100
AcDbLine
 10
18.86071961879962
 20
-4.171883320852799
 30
0.0
 11
18.86204985640046
 21
-4.171883320852799
 31
0.0
1001
REVIT
1002
{
1070
     2
1000
-2001160
1002
}
  0
LINE
  5
49C
330
441
100
AcDbEntity
  8
Basin-Wall_Hung-Grohe-Eurocube-39655000
100
AcDbLine
 10
18.86204985640046
 20
-4.171883320852799
 30
0.0
 11
18.86290087813162
 21
-4.171883320852799
 31
0.0
1001
REVIT
1002
{
1070
     2
1000
-2001160
1002
}
  0
LINE
  5
49D
330
441
100
AcDbEntity
  8
Basin-Wall_Hung-Grohe-Eurocube-39655000
100
AcDbLine
 10
18.86290087813162
 20
-4.171883320852799
 30
0.0
 11
18.86327132253987
 21
-4.171883320852799
 31
0.0
1001
REVIT
1002
{
1070
     2
1000
-2001160
1002
}
  0
LINE
  5
49E
330
441
100
AcDbEntity
  8
Basin-Wall_Hung-Grohe-Eurocube-39655000
100
AcDbLine
 10
18.86327132253987
 20
-4.171883320852799
 30
0.0
 11
18.86328885244502
 21
-4.171883320852799
 31
0.0
1001
REVIT
1002
{
1070
     2
1000
-2001160
1002
}
  0
LINE
  5
49F
330
441
100
AcDbEntity
  8
Basin-Wall_Hung-Grohe-Eurocube-39655000
100
AcDbLine
 10
18.81265062467646
 20
-0.0000000000002558
 30
0.0
 11
18.81245053085803
 21
-0.0000000000002558
 31
0.0
1001
REVIT
1002
{
1070
     2
1000
-2001160
1002
}
  0
LINE
  5
4A0
330
441
100
AcDbEntity
  8
Basin-Wall_Hung-Grohe-Eurocube-39655000
100
AcDbLine
 10
18.81245053085803
 20
-0.0000000000002558
 30
0.0
 11
18.81185056951017
 21
-0.0000000000002558
 31
0.0
1001
REVIT
1002
{
1070
     2
1000
-2001160
1002
}
  0
LINE
  5
4A1
330
441
100
AcDbEntity
  8
Basin-Wall_Hung-Grohe-Eurocube-39655000
100
AcDbLine
 10
18.81185056951017
 20
-0.0000000000002558
 30
0.0
 11
18.81085170044304
 21
-0.0000000000002558
 31
0.0
1001
REVIT
1002
{
1070
     2
1000
-2001160
1002
}
  0
LINE
  5
4A2
330
441
100
AcDbEntity
  8
Basin-Wall_Hung-Grohe-Eurocube-39655000
100
AcDbLine
 10
18.81085170044304
 20
-0.0000000000002558
 30
0.0
 11
18.80945552163406
 21
-0.0000000000002558
 31
0.0
1001
REVIT
1002
{
1070
     2
1000
-2001160
1002
}
  0
LINE
  5
4A3
330
441
100
AcDbEntity
  8
Basin-Wall_Hung-Grohe-Eurocube-39655000
100
AcDbLine
 10
18.80945552163406
 20
-0.0000000000002558
 30
0.0
 11
18.80766426667151
 21
-0.0000000000002558
 31
0.0
1001
REVIT
1002
{
1070
     2
1000
-2001160
1002
}
  0
LINE
  5
4A4
330
441
100
AcDbEntity
  8
Basin-Wall_Hung-Grohe-Eurocube-39655000
100
AcDbLine
 10
18.80766426667151
 20
-0.0000000000002558
 30
0.0
 11
18.8054808011812
 21
-0.0000000000002558
 31
0.0
1001
REVIT
1002
{
1070
     2
1000
-2001160
1002
}
  0
LINE
  5
4A5
330
441
100
AcDbEntity
  8
Basin-Wall_Hung-Grohe-Eurocube-39655000
100
AcDbLine
 10
18.8054808011812
 20
-0.0000000000002558
 30
0.0
 11
18.80290861824216
 21
-0.0000000000002558
 31
0.0
1001
REVIT
1002
{
1070
     2
1000
-2001160
1002
}
  0
LINE
  5
4A6
330
441
100
AcDbEntity
  8
Basin-Wall_Hung-Grohe-Eurocube-39655000
100
AcDbLine
 10
18.80290861824216
 20
-0.0000000000002558
 30
0.0
 11
18.79995183279836
 21
-0.0000000000002558
 31
0.0
1001
REVIT
1002
{
1070
     2
1000
-2001160
1002
}
  0
LINE
  5
4A7
330
441
100
AcDbEntity
  8
Basin-Wall_Hung-Grohe-Eurocube-39655000
100
AcDbLine
 10
18.79995183279836
 20
-0.0000000000002558
 30
0.0
 11
18.79661517507577
 21
-0.0000000000002558
 31
0.0
1001
REVIT
1002
{
1070
     2
1000
-2001160
1002
}
  0
LINE
  5
4A8
330
441
100
AcDbEntity
  8
Basin-Wall_Hung-Grohe-Eurocube-39655000
100
AcDbLine
 10
18.79661517507577
 20
-0.0000000000002558
 30
0.0
 11
18.79290398301495
 21
-0.0000000000002558
 31
0.0
1001
REVIT
1002
{
1070
     2
1000
-2001160
1002
}
  0
LINE
  5
4A9
330
441
100
AcDbEntity
  8
Basin-Wall_Hung-Grohe-Eurocube-39655000
100
AcDbLine
 10
18.79290398301495
 20
-0.0000000000002558
 30
0.0
 11
18.78882419373155
 21
-0.0000000000002558
 31
0.0
1001
REVIT
1002
{
1070
     2
1000
-2001160
1002
}
  0
LINE
  5
4AA
330
441
100
AcDbEntity
  8
Basin-Wall_Hung-Grohe-Eurocube-39655000
100
AcDbLine
 10
18.78882419373155
 20
-0.0000000000002558
 30
0.0
 11
18.7843823340181
 21
-0.0000000000002558
 31
0.0
1001
REVIT
1002
{
1070
     2
1000
-2001160
1002
}
  0
LINE
  5
4AB
330
441
100
AcDbEntity
  8
Basin-Wall_Hung-Grohe-Eurocube-39655000
100
AcDbLine
 10
18.7843823340181
 20
-0.0000000000002558
 30
0.0
 11
18.7795855099026
 21
-0.0000000000002558
 31
0.0
1001
REVIT
1002
{
1070
     2
1000
-2001160
1002
}
  0
LINE
  5
4AC
330
441
100
AcDbEntity
  8
Basin-Wall_Hung-Grohe-Eurocube-39655000
100
AcDbLine
 10
18.7795855099026
 20
-0.0000000000002558
 30
0.0
 11
18.77444139528035
 21
-0.0000000000002558
 31
0.0
1001
REVIT
1002
{
1070
     2
1000
-2001160
1002
}
  0
LINE
  5
4AD
330
441
100
AcDbEntity
  8
Basin-Wall_Hung-Grohe-Eurocube-39655000
100
AcDbLine
 10
18.77444139528035
 20
-0.0000000000002558
 30
0.0
 11
18.76895821963741
 21
-0.0000000000002558
 31
0.0
1001
REVIT
1002
{
1070
     2
1000
-2001160
1002
}
  0
LINE
  5
4AE
330
441
100
AcDbEntity
  8
Basin-Wall_Hung-Grohe-Eurocube-39655000
100
AcDbLine
 10
18.76895821963741
 20
-0.0000000000002558
 30
0.0
 11
18.76314475488513
 21
-0.0000000000002558
 31
0.0
1001
REVIT
1002
{
1070
     2
1000
-2001160
1002
}
  0
LINE
  5
4AF
330
441
100
AcDbEntity
  8
Basin-Wall_Hung-Grohe-Eurocube-39655000
100
AcDbLine
 10
18.76314475488513
 20
-0.0000000000002558
 30
0.0
 11
18.75701030132694
 21
-0.0000000000002558
 31
0.0
1001
REVIT
1002
{
1070
     2
1000
-2001160
1002
}
  0
LINE
  5
4B0
330
441
100
AcDbEntity
  8
Basin-Wall_Hung-Grohe-Eurocube-39655000
100
AcDbLine
 10
18.75701030132694
 20
-0.0000000000002558
 30
0.0
 11
18.75056467277997
 21
-0.0000000000002558
 31
0.0
1001
REVIT
1002
{
1070
     2
1000
-2001160
1002
}
  0
LINE
  5
4B1
330
441
100
AcDbEntity
  8
Basin-Wall_Hung-Grohe-Eurocube-39655000
100
AcDbLine
 10
18.75056467277997
 20
-0.0000000000002558
 30
0.0
 11
18.74381818087487
 21
-0.0000000000002558
 31
0.0
1001
REVIT
1002
{
1070
     2
1000
-2001160
1002
}
  0
LINE
  5
4B2
330
441
100
AcDbEntity
  8
Basin-Wall_Hung-Grohe-Eurocube-39655000
100
AcDbLine
 10
18.74381818087487
 20
-0.0000000000002558
 30
0.0
 11
18.73678161855952
 21
-0.0000000000002558
 31
0.0
1001
REVIT
1002
{
1070
     2
1000
-2001160
1002
}
  0
LINE
  5
4B3
330
441
100
AcDbEntity
  8
Basin-Wall_Hung-Grohe-Eurocube-39655000
100
AcDbLine
 10
18.73678161855952
 20
-0.0000000000002558
 30
0.0
 11
18.72946624283256
 21
-0.0000000000002558
 31
0.0
1001
REVIT
1002
{
1070
     2
1000
-2001160
1002
}
  0
LINE
  5
4B4
330
441
100
AcDbEntity
  8
Basin-Wall_Hung-Grohe-Eurocube-39655000
100
AcDbLine
 10
18.72946624283256
 20
-0.0000000000002558
 30
0.0
 11
18.72188375673465
 21
-0.0000000000002558
 31
0.0
1001
REVIT
1002
{
1070
     2
1000
-2001160
1002
}
  0
LINE
  5
4B5
330
441
100
AcDbEntity
  8
Basin-Wall_Hung-Grohe-Eurocube-39655000
100
AcDbLine
 10
18.72188375673465
 20
-0.0000000000002558
 30
0.0
 11
18.71404629062601
 21
-0.0000000000002558
 31
0.0
1001
REVIT
1002
{
1070
     2
1000
-2001160
1002
}
  0
LINE
  5
4B6
330
441
100
AcDbEntity
  8
Basin-Wall_Hung-Grohe-Eurocube-39655000
100
AcDbLine
 10
18.71404629062601
 20
-0.0000000000002558
 30
0.0
 11
18.70596638278051
 21
-0.0000000000002558
 31
0.0
1001
REVIT
1002
{
1070
     2
1000
-2001160
1002
}
  0
LINE
  5
4B7
330
441
100
AcDbEntity
  8
Basin-Wall_Hung-Grohe-Eurocube-39655000
100
AcDbLine
 10
18.70596638278051
 20
-0.0000000000002558
 30
0.0
 11
18.6976569593271
 21
-0.0000000000002558
 31
0.0
1001
REVIT
1002
{
1070
     2
1000
-2001160
1002
}
  0
LINE
  5
4B8
330
441
100
AcDbEntity
  8
Basin-Wall_Hung-Grohe-Eurocube-39655000
100
AcDbLine
 10
18.6976569593271
 20
-0.0000000000002558
 30
0.0
 11
18.68913131357072
 21
-0.0000000000002558
 31
0.0
1001
REVIT
1002
{
1070
     2
1000
-2001160
1002
}
  0
LINE
  5
4B9
330
441
100
AcDbEntity
  8
Basin-Wall_Hung-Grohe-Eurocube-39655000
100
AcDbLine
 10
18.68913131357072
 20
-0.0000000000002558
 30
0.0
 11
18.68040308472586
 21
-0.0000000000002558
 31
0.0
1001
REVIT
1002
{
1070
     2
1000
-2001160
1002
}
  0
LINE
  5
4BA
330
441
100
AcDbEntity
  8
Basin-Wall_Hung-Grohe-Eurocube-39655000
100
AcDbLine
 10
18.68040308472586
 20
-0.0000000000002558
 30
0.0
 11
18.67148623609677
 21
-0.0000000000002558
 31
0.0
1001
REVIT
1002
{
1070
     2
1000
-2001160
1002
}
  0
LINE
  5
4BB
330
441
100
AcDbEntity
  8
Basin-Wall_Hung-Grohe-Eurocube-39655000
100
AcDbLine
 10
18.67148623609677
 20
-0.0000000000002558
 30
0.0
 11
18.66239503273905
 21
-0.0000000000002558
 31
0.0
1001
REVIT
1002
{
1070
     2
1000
-2001160
1002
}
  0
LINE
  5
4BC
330
441
100
AcDbEntity
  8
Basin-Wall_Hung-Grohe-Eurocube-39655000
100
AcDbLine
 10
18.66239503273905
 20
-0.0000000000002558
 30
0.0
 11
18.65314401863878
 21
-0.0000000000002558
 31
0.0
1001
REVIT
1002
{
1070
     2
1000
-2001160
1002
}
  0
LINE
  5
4BD
330
441
100
AcDbEntity
  8
Basin-Wall_Hung-Grohe-Eurocube-39655000
100
AcDbLine
 10
18.65314401863878
 20
-0.0000000000002558
 30
0.0
 11
18.64374799344503
 21
-0.0000000000002558
 31
0.0
1001
REVIT
1002
{
1070
     2
1000
-2001160
1002
}
  0
LINE
  5
4BE
330
441
100
AcDbEntity
  8
Basin-Wall_Hung-Grohe-Eurocube-39655000
100
AcDbLine
 10
18.64374799344503
 20
-0.0000000000002558
 30
0.0
 11
18.63422198879377
 21
-0.0000000000002558
 31
0.0
1001
REVIT
1002
{
1070
     2
1000
-2001160
1002
}
  0
LINE
  5
4BF
330
441
100
AcDbEntity
  8
Basin-Wall_Hung-Grohe-Eurocube-39655000
100
AcDbLine
 10
18.63422198879377
 20
-0.0000000000002558
 30
0.0
 11
18.6245812442603
 21
-0.0000000000002558
 31
0.0
1001
REVIT
1002
{
1070
     2
1000
-2001160
1002
}
  0
LINE
  5
4C0
330
441
100
AcDbEntity
  8
Basin-Wall_Hung-Grohe-Eurocube-39655000
100
AcDbLine
 10
18.6245812442603
 20
-0.0000000000002558
 30
0.0
 11
18.6148411829793
 21
-0.0000000000002558
 31
0.0
1001
REVIT
1002
{
1070
     2
1000
-2001160
1002
}
  0
LINE
  5
4C1
330
441
100
AcDbEntity
  8
Basin-Wall_Hung-Grohe-Eurocube-39655000
100
AcDbLine
 10
18.6148411829793
 20
-0.0000000000002558
 30
0.0
 11
18.60501738697107
 21
-0.0000000000002558
 31
0.0
1001
REVIT
1002
{
1070
     2
1000
-2001160
1002
}
  0
LINE
  5
4C2
330
441
100
AcDbEntity
  8
Basin-Wall_Hung-Grohe-Eurocube-39655000
100
AcDbLine
 10
18.60501738697107
 20
-0.0000000000002558
 30
0.0
 11
18.59512557221357
 21
-0.0000000000002558
 31
0.0
1001
REVIT
1002
{
1070
     2
1000
-2001160
1002
}
  0
LINE
  5
4C3
330
441
100
AcDbEntity
  8
Basin-Wall_Hung-Grohe-Eurocube-39655000
100
AcDbLine
 10
18.59512557221357
 20
-0.0000000000002558
 30
0.0
 11
18.5851815635003
 21
-0.0000000000002558
 31
0.0
1001
REVIT
1002
{
1070
     2
1000
-2001160
1002
}
  0
LINE
  5
4C4
330
441
100
AcDbEntity
  8
Basin-Wall_Hung-Grohe-Eurocube-39655000
100
AcDbLine
 10
18.5851815635003
 20
-0.0000000000002558
 30
0.0
 11
18.57520126912388
 21
-0.0000000000002558
 31
0.0
1001
REVIT
1002
{
1070
     2
1000
-2001160
1002
}
  0
LINE
  5
4C5
330
441
100
AcDbEntity
  8
Basin-Wall_Hung-Grohe-Eurocube-39655000
100
AcDbLine
 10
18.57520126912388
 20
-0.0000000000002558
 30
0.0
 11
18.56520065542634
 21
-0.0000000000002558
 31
0.0
1001
REVIT
1002
{
1070
     2
1000
-2001160
1002
}
  0
LINE
  5
4C6
330
441
100
AcDbEntity
  8
Basin-Wall_Hung-Grohe-Eurocube-39655000
100
AcDbLine
 10
18.56520065542634
 20
-0.0000000000002558
 30
0.0
 11
18.56250000000011
 21
-0.0000000000002558
 31
0.0
1001
REVIT
1002
{
1070
     2
1000
-2001160
1002
}
  0
LINE
  5
4C7
330
441
100
AcDbEntity
  8
Basin-Wall_Hung-Grohe-Eurocube-39655000
100
AcDbLine
 10
18.92803110406781
 20
-4.109362455204944
 30
0.0
 11
19.06249833143124
 21
-0.258724874175897
 31
0.0
1001
REVIT
1002
{
1070
     2
1000
-2001160
1002
}
  0
LINE
  5
4C8
330
441
100
AcDbEntity
  8
Basin-Wall_Hung-Grohe-Eurocube-39655000
100
AcDbLine
 10
-0.0000000000000568
 20
-4.171883320852543
 30
0.0
 11
18.56250000000006
 21
-4.171883320852799
 31
0.0
1001
REVIT
1002
{
1070
     2
1000
-2001160
1002
}
  0
LINE
  5
4C9
330
441
100
AcDbEntity
  8
Basin-Wall_Hung-Grohe-Eurocube-39655000
100
AcDbLine
 10
18.56250000000011
 20
-0.0000000000002558
 30
0.0
 11
0.0
 21
0.0
 31
0.0
1001
REVIT
1002
{
1070
     2
1000
-2001160
1002
}
  0
LINE
  5
4CA
330
441
100
AcDbEntity
  8
Basin-Wall_Hung-Grohe-Eurocube-39655000
100
AcDbLine
 10
-0.0000000000000568
 20
-4.171883320852543
 30
0.0
 11
0.0
 21
0.0
 31
0.0
  0
ARC
  5
4CB
330
441
100
AcDbEntity
  8
Basin-Wall_Hung-Grohe-Eurocube-39655000
100
AcDbCircle
 10
18.86600094325584
 20
-4.109362455204973
 30
0.0
 40
0.0620301608119718
100
AcDbArc
 50
280.3695710426495
 51
0.0000000000130276
  0
ENDBLK
  5
443
330
441
100
AcDbEntity
  8
0
100
AcDbBlockEnd
  0
ENDSEC
  0
SECTION
  2
ENTITIES
  0
INSERT
  5
393
330
70
100
AcDbEntity
  8
Basin-Wall_Hung-Grohe-Eurocube-39655000
100
AcDbBlockReference
  2
Basin-Wall_Hung-Grohe-Eurocube-39655000 Top View
 10
8.082187830925931
 20
-67.12322079944769
 30
0.0
  0
INSERT
  5
440
330
70
100
AcDbEntity
  8
Basin-Wall_Hung-Grohe-Eurocube-39655000
100
AcDbBlockReference
  2
Basin-Wall_Hung-Grohe-Eurocube-39655000 Front View
 10
8.082187830925931
 20
-116.7818463175538
 30
0.0
  0
INSERT
  5
4CC
330
70
100
AcDbEntity
  8
Basin-Wall_Hung-Grohe-Eurocube-39655000
100
AcDbBlockReference
  2
Basin-Wall_Hung-Grohe-Eurocube-39655000 Side View
 10
-34.57963042980646
 20
-116.7818463175538
 30
0.0
  0
ENDSEC
  0
SECTION
  2
OBJECTS
  0
DICTIONARY
  5
C
330
0
100
AcDbDictionary
281
     1
  3
ACAD_CIP_PREVIOUS_PRODUCT_INFO
350
79
  3
ACAD_COLOR
350
63
  3
ACAD_DETAILVIEWSTYLE
350
6A
  3
ACAD_GROUP
350
D
  3
ACAD_IMAGE_VARS
350
7A
  3
ACAD_LAYOUT
350
62
  3
ACAD_MATERIAL
350
10
  3
ACAD_MLEADERSTYLE
350
66
  3
ACAD_MLINESTYLE
350
5F
  3
ACAD_PLOTSETTINGS
350
61
  3
ACAD_PLOTSTYLENAME
350
E
  3
ACAD_SCALELIST
350
42
  3
ACAD_SECTIONVIEWSTYLE
350
68
  3
ACAD_TABLESTYLE
350
64
  3
ACAD_VISUALSTYLE
350
29
  3
ACDB_RECOMPOSE_DATA
350
4FE
  3
AcDbVariableDictionary
350
D3
  3
AcDsDecomposeData
350
504
  3
AEC_PROPERTY_SET_DEFS
350
120
  3
REVIT_DICTIONARY
350
C8
  0
DICTIONARY
  5
4D1
330
2
100
AcDbDictionary
280
     1
281
     1
  3
ACAD_LAYERSTATES
360
4D2
  0
DICTIONARY
  5
CB
330
70
100
AcDbDictionary
280
     1
281
     1
  3
ACAD_SORTENTS
360
CC
  0
XRECORD
  5
79
102
{ACAD_REACTORS
330
C
102
}
330
C
100
AcDbXrecord
280
     1
300
ACD
300
2016
300
86445ACD_2016_0F
  0
DICTIONARY
  5
63
102
{ACAD_REACTORS
330
C
102
}
330
C
100
AcDbDictionary
281
     1
  0
DICTIONARY
  5
6A
102
{ACAD_REACTORS
330
C
102
}
330
C
100
AcDbDictionary
281
     1
  3
Imperial24
350
6B
  0
DICTIONARY
  5
D
102
{ACAD_REACTORS
330
C
102
}
330
C
100
AcDbDictionary
281
     1
  0
RASTERVARIABLES
  5
7A
102
{ACAD_REACTORS
330
C
102
}
330
C
100
AcDbRasterVariables
 90
        0
 70
     0
 71
     1
 72
     5
  0
DICTIONARY
  5
62
102
{ACAD_REACTORS
330
C
102
}
330
C
100
AcDbDictionary
281
     1
  3
Layout1
350
6F
  3
Layout2
350
77
  3
Model
350
73
  0
DICTIONARY
  5
10
102
{ACAD_REACTORS
330
C
102
}
330
C
100
AcDbDictionary
281
     1
  3
ByBlock
350
19
  3
ByLayer
350
11
  3
Global
350
21
  0
DICTIONARY
  5
66
102
{ACAD_REACTORS
330
C
102
}
330
C
100
AcDbDictionary
281
     1
  3
Standard
350
67
  0
DICTIONARY
  5
5F
102
{ACAD_REACTORS
330
C
102
}
330
C
100
AcDbDictionary
281
     1
  3
Standard
350
60
  0
DICTIONARY
  5
61
102
{ACAD_REACTORS
330
C
102
}
330
C
100
AcDbDictionary
281
     1
  0
ACDBDICTIONARYWDFLT
  5
E
102
{ACAD_REACTORS
330
C
102
}
330
C
100
AcDbDictionary
281
     1
  3
Normal
350
F
100
AcDbDictionaryWithDefault
340
F
  0
DICTIONARY
  5
42
102
{ACAD_REACTORS
330
C
102
}
330
C
100
AcDbDictionary
281
     1
  3
A0
350
43
  3
A1
350
44
  3
A2
350
45
  3
A3
350
46
  3
A4
350
47
  3
A5
350
48
  3
A6
350
49
  3
A7
350
4A
  3
A8
350
4B
  3
A9
350
4C
  3
B0
350
4D
  3
B1
350
4E
  3
B2
350
4F
  3
B3
350
50
  3
B4
350
51
  3
B5
350
52
  3
B6
350
53
  0
DICTIONARY
  5
68
102
{ACAD_REACTORS
330
C
102
}
330
C
100
AcDbDictionary
281
     1
  3
Imperial24
350
69
  0
DICTIONARY
  5
64
102
{ACAD_REACTORS
330
C
102
}
330
C
100
AcDbDictionary
281
     1
  3
Standard
350
65
  0
DICTIONARY
  5
29
102
{ACAD_REACTORS
330
C
102
}
330
C
100
AcDbDictionary
281
     1
  3
2dWireframe
350
2F
  3
Basic
350
2E
  3
Brighten
350
35
  3
ColorChange
350
39
  3
Conceptual
350
32
  3
Dim
350
34
  3
EdgeColorOff
350
41
  3
Facepattern
350
38
  3
Flat
350
2A
  3
FlatWithEdges
350
2B
  3
Gouraud
350
2C
  3
GouraudWithEdges
350
2D
  3
Hidden
350
31
  3
JitterOff
350
3F
  3
Linepattern
350
37
  3
OverhangOff
350
40
  3
Realistic
350
33
  3
Shaded
350
3E
  3
Shaded with edges
350
3D
  3
Shades of Gray
350
3A
  3
Sketchy
350
3B
  3
Thicken
350
36
  3
Wireframe
350
30
  3
X-Ray
350
3C
  0
XRECORD
  5
4FE
102
{ACAD_REACTORS
330
C
102
}
330
C
100
AcDbXrecord
280
     1
 90
        1
330
65
  0
DICTIONARY
  5
D3
102
{ACAD_REACTORS
330
C
102
}
330
C
100
AcDbDictionary
281
     1
  3
CANNOSCALE
350
D8
  3
CMLEADERSTYLE
350
D5
  3
CTABLESTYLE
350
D4
  3
CVIEWDETAILSTYLE
350
D6
  3
CVIEWSECTIONSTYLE
350
D7
  0
DICTIONARY
  5
504
102
{ACAD_REACTORS
330
C
102
}
330
C
100
AcDbDictionary
281
     1
  3
AcDsRecords
350
506
  3
AcDsSchemas
350
505
1001
ACAD
1070
     2
  0
DICTIONARY
  5
120
102
{ACAD_REACTORS
330
C
102
}
330
C
100
AcDbDictionary
281
     1
  0
DICTIONARY
  5
C8
102
{ACAD_REACTORS
330
C
102
}
330
C
100
AcDbDictionary
281
     1
  3
DRAWING_TOOL
350
CA
  3
REVIT_CATEGORY_MAPPING
350
C9
  0
DICTIONARY
  5
4D2
102
{ACAD_REACTORS
330
4D1
102
}
330
4D1
100
AcDbDictionary
281
     1
  0
SORTENTSTABLE
  5
CC
102
{ACAD_REACTORS
330
CB
102
}
330
CB
100
AcDbSortentsTable
330
70
  0
ACDBDETAILVIEWSTYLE
  5
6B
102
{ACAD_XDICTIONARY
360
D0
102
}
102
{ACAD_REACTORS
330
6A
102
}
330
6A
100
AcDbModelDocViewStyle
 70
     0
  3
Imperial24
290
     0
100
AcDbDetailViewStyle
 70
     0
 71
     0
 90
        3
 71
     1
340
55
 62
   256
 40
0.24
340
0
 62
   256
 40
0.24
300

 40
0.36
280
     3
 71
     2
340
5D
 90
       25
 62
   256
 71
     3
340
55
 62
   256
 40
0.24
 90
        1
 40
0.75
 90
        1
300
%<\AcVar ViewType \f "%tc1">% %<\AcVar ViewDetailId>%\PSCALE %<\AcVar ViewScale \f "%sn">%
 71
     4
340
5D
 90
       25
 62
   256
340
5D
 90
       25
 62
   256
280
     0
  0
LAYOUT
  5
6F
102
{ACAD_REACTORS
330
62
102
}
330
62
100
AcDbPlotSettings
  1

  2

  4

  6

 40
0.0
 41
0.0
 42
0.0
 43
0.0
 44
0.0
 45
0.0
 46
0.0
 47
0.0
 48
0.0
 49
0.0
140
0.0
141
0.0
142
1.0
143
1.0
 70
   688
 72
     0
 73
     0
 74
     5
  7

 75
    16
147
1.0
 76
     0
 77
     2
 78
   300
148
0.0
149
0.0
100
AcDbLayout
  1
Layout1
 70
     1
 71
     1
 10
0.0
 20
0.0
 11
12.0
 21
9.0
 12
0.0
 22
0.0
 32
0.0
 14
1.000000000000000E+20
 24
1.000000000000000E+20
 34
1.000000000000000E+20
 15
-1.000000000000000E+20
 25
-1.000000000000000E+20
 35
-1.000000000000000E+20
146
0.0
 13
0.0
 23
0.0
 33
0.0
 16
1.0
 26
0.0
 36
0.0
 17
0.0
 27
1.0
 37
0.0
 76
     0
330
6C
  0
LAYOUT
  5
77
102
{ACAD_REACTORS
330
62
102
}
330
62
100
AcDbPlotSettings
  1

  2

  4

  6

 40
0.0
 41
0.0
 42
0.0
 43
0.0
 44
0.0
 45
0.0
 46
0.0
 47
0.0
 48
0.0
 49
0.0
140
0.0
141
0.0
142
1.0
143
1.0
 70
   688
 72
     0
 73
     0
 74
     5
  7

 75
    16
147
1.0
 76
     0
 77
     2
 78
   300
148
0.0
149
0.0
100
AcDbLayout
  1
Layout2
 70
     1
 71
     2
 10
0.0
 20
0.0
 11
12.0
 21
9.0
 12
0.0
 22
0.0
 32
0.0
 14
0.0
 24
0.0
 34
0.0
 15
0.0
 25
0.0
 35
0.0
146
0.0
 13
0.0
 23
0.0
 33
0.0
 16
1.0
 26
0.0
 36
0.0
 17
0.0
 27
1.0
 37
0.0
 76
     0
330
74
  0
LAYOUT
  5
73
102
{ACAD_REACTORS
330
62
102
}
330
62
100
AcDbPlotSettings
  1

  2

  4

  6

 40
0.0
 41
0.0
 42
0.0
 43
0.0
 44
0.0
 45
0.0
 46
0.0
 47
0.0
 48
0.0
 49
0.0
140
0.0
141
0.0
142
1.0
143
1.0
 70
  1712
 72
     0
 73
     0
 74
     0
  7

 75
     0
147
1.0
 76
     0
 77
     2
 78
   300
148
0.0
149
0.0
100
AcDbLayout
  1
Model
 70
     1
 71
     0
 10
0.0
 20
0.0
 11
12.0
 21
9.0
 12
0.0
 22
0.0
 32
0.0
 14
0.0
 24
0.0
 34
0.0
 15
0.0
 25
0.0
 35
0.0
146
0.0
 13
0.0
 23
0.0
 33
0.0
 16
1.0
 26
0.0
 36
0.0
 17
0.0
 27
1.0
 37
0.0
 76
     0
330
70
331
57
  0
MATERIAL
  5
19
102
{ACAD_XDICTIONARY
360
1A
102
}
102
{ACAD_REACTORS
330
10
102
}
330
10
100
AcDbMaterial
  1
ByBlock
 72
     0
 43
0.0208333333333333
 43
0.0
 43
0.0
 43
0.0
 43
0.0
 43
0.0208333333333333
 43
0.0
 43
0.0
 43
0.0
 43
0.0
 43
1.0
 43
0.0
 43
0.0
 43
0.0
 43
0.0
 43
1.0
 77
     0
 47
0.0208333333333333
 47
0.0
 47
0.0
 47
0.0
 47
0.0
 47
0.0208333333333333
 47
0.0
 47
0.0
 47
0.0
 47
0.0
 47
1.0
 47
0.0
 47
0.0
 47
0.0
 47
0.0
 47
1.0
171
     0
 49
0.0208333333333333
 49
0.0
 49
0.0
 49
0.0
 49
0.0
 49
0.0208333333333333
 49
0.0
 49
0.0
 49
0.0
 49
0.0
 49
1.0
 49
0.0
 49
0.0
 49
0.0
 49
0.0
 49
1.0
175
     0
142
0.0208333333333333
142
0.0
142
0.0
142
0.0
142
0.0
142
0.0208333333333333
142
0.0
142
0.0
142
0.0
142
0.0
142
1.0
142
0.0
142
0.0
142
0.0
142
0.0
142
1.0
179
     0
144
0.0208333333333333
144
0.0
144
0.0
144
0.0
144
0.0
144
0.0208333333333333
144
0.0
144
0.0
144
0.0
144
0.0
144
1.0
144
0.0
144
0.0
144
0.0
144
0.0
144
1.0
147
0.0208333333333333
147
0.0
147
0.0
147
0.0
147
0.0
147
0.0208333333333333
147
0.0
147
0.0
147
0.0
147
0.0
147
1.0
147
0.0
147
0.0
147
0.0
147
0.0
147
1.0
  0
MATERIAL
  5
11
102
{ACAD_XDICTIONARY
360
12
102
}
102
{ACAD_REACTORS
330
10
102
}
330
10
100
AcDbMaterial
  1
ByLayer
 72
     0
 43
0.0208333333333333
 43
0.0
 43
0.0
 43
0.0
 43
0.0
 43
0.0208333333333333
 43
0.0
 43
0.0
 43
0.0
 43
0.0
 43
1.0
 43
0.0
 43
0.0
 43
0.0
 43
0.0
 43
1.0
 77
     0
 47
0.0208333333333333
 47
0.0
 47
0.0
 47
0.0
 47
0.0
 47
0.0208333333333333
 47
0.0
 47
0.0
 47
0.0
 47
0.0
 47
1.0
 47
0.0
 47
0.0
 47
0.0
 47
0.0
 47
1.0
171
     0
 49
0.0208333333333333
 49
0.0
 49
0.0
 49
0.0
 49
0.0
 49
0.0208333333333333
 49
0.0
 49
0.0
 49
0.0
 49
0.0
 49
1.0
 49
0.0
 49
0.0
 49
0.0
 49
0.0
 49
1.0
175
     0
142
0.0208333333333333
142
0.0
142
0.0
142
0.0
142
0.0
142
0.0208333333333333
142
0.0
142
0.0
142
0.0
142
0.0
142
1.0
142
0.0
142
0.0
142
0.0
142
0.0
142
1.0
179
     0
144
0.0208333333333333
144
0.0
144
0.0
144
0.0
144
0.0
144
0.0208333333333333
144
0.0
144
0.0
144
0.0
144
0.0
144
1.0
144
0.0
144
0.0
144
0.0
144
0.0
144
1.0
147
0.0208333333333333
147
0.0
147
0.0
147
0.0
147
0.0
147
0.0208333333333333
147
0.0
147
0.0
147
0.0
147
0.0
147
1.0
147
0.0
147
0.0
147
0.0
147
0.0
147
1.0
  0
MATERIAL
  5
21
102
{ACAD_XDICTIONARY
360
22
102
}
102
{ACAD_REACTORS
330
10
102
}
330
10
100
AcDbMaterial
  1
Global
 72
     0
 43
0.0208333333333333
 43
0.0
 43
0.0
 43
0.0
 43
0.0
 43
0.0208333333333333
 43
0.0
 43
0.0
 43
0.0
 43
0.0
 43
1.0
 43
0.0
 43
0.0
 43
0.0
 43
0.0
 43
1.0
 77
     0
 47
0.0208333333333333
 47
0.0
 47
0.0
 47
0.0
 47
0.0
 47
0.0208333333333333
 47
0.0
 47
0.0
 47
0.0
 47
0.0
 47
1.0
 47
0.0
 47
0.0
 47
0.0
 47
0.0
 47
1.0
171
     0
 49
0.0208333333333333
 49
0.0
 49
0.0
 49
0.0
 49
0.0
 49
0.0208333333333333
 49
0.0
 49
0.0
 49
0.0
 49
0.0
 49
1.0
 49
0.0
 49
0.0
 49
0.0
 49
0.0
 49
1.0
175
     0
142
0.0208333333333333
142
0.0
142
0.0
142
0.0
142
0.0
142
0.0208333333333333
142
0.0
142
0.0
142
0.0
142
0.0
142
1.0
142
0.0
142
0.0
142
0.0
142
0.0
142
1.0
179
     0
144
0.0208333333333333
144
0.0
144
0.0
144
0.0
144
0.0
144
0.0208333333333333
144
0.0
144
0.0
144
0.0
144
0.0
144
1.0
144
0.0
144
0.0
144
0.0
144
0.0
144
1.0
147
0.0208333333333333
147
0.0
147
0.0
147
0.0
147
0.0
147
0.0208333333333333
147
0.0
147
0.0
147
0.0
147
0.0
147
1.0
147
0.0
147
0.0
147
0.0
147
0.0
147
1.0
  0
MLEADERSTYLE
  5
67
102
{ACAD_XDICTIONARY
360
537
102
}
102
{ACAD_REACTORS
330
66
102
}
330
66
100
AcDbMLeaderStyle
179
     2
170
     2
171
     1
172
     0
 90
        2
 40
0.0
 41
0.0
173
     1
 91
-1056964608
340
5B
 92
       -2
290
     1
 42
0.09
291
     1
 43
0.36
  3
Standard
 44
0.18
300

342
55
174
     1
178
     6
175
     1
176
     0
 93
-1056964608
 45
0.18
292
     0
297
     0
 46
0.18
 94
-1056964608
 47
1.0
 49
1.0
140
1.0
293
     1
141
0.0
294
     1
177
     0
142
1.0
295
     0
296
     0
143
0.125
271
     0
272
     9
273
     9
  0
MLINESTYLE
  5
60
102
{ACAD_REACTORS
330
5F
102
}
330
5F
100
AcDbMlineStyle
  2
STANDARD
 70
     0
  3

 62
   256
 51
90.0
 52
90.0
 71
     2
 49
0.5
 62
   256
  6
BYLAYER
 49
-0.5
 62
   256
  6
BYLAYER
  0
ACDBPLACEHOLDER
  5
F
102
{ACAD_REACTORS
330
E
102
}
330
E
  0
SCALE
  5
43
102
{ACAD_REACTORS
330
42
102
}
330
42
100
AcDbScale
 70
     0
300
1:1
140
1.0
141
1.0
290
     1
  0
SCALE
  5
44
102
{ACAD_REACTORS
330
42
102
}
330
42
100
AcDbScale
 70
     0
300
1/128" = 1'-0"
140
0.0078125
141
12.0
290
     0
  0
SCALE
  5
45
102
{ACAD_REACTORS
330
42
102
}
330
42
100
AcDbScale
 70
     0
300
1/64" = 1'-0"
140
0.015625
141
12.0
290
     0
  0
SCALE
  5
46
102
{ACAD_REACTORS
330
42
102
}
330
42
100
AcDbScale
 70
     0
300
1/32" = 1'-0"
140
0.03125
141
12.0
290
     0
  0
SCALE
  5
47
102
{ACAD_REACTORS
330
42
102
}
330
42
100
AcDbScale
 70
     0
300
1/16" = 1'-0"
140
0.0625
141
12.0
290
     0
  0
SCALE
  5
48
102
{ACAD_REACTORS
330
42
102
}
330
42
100
AcDbScale
 70
     0
300
3/32" = 1'-0"
140
0.09375
141
12.0
290
     0
  0
SCALE
  5
49
102
{ACAD_REACTORS
330
42
102
}
330
42
100
AcDbScale
 70
     0
300
1/8" = 1'-0"
140
0.125
141
12.0
290
     0
  0
SCALE
  5
4A
102
{ACAD_REACTORS
330
42
102
}
330
42
100
AcDbScale
 70
     0
300
3/16" = 1'-0"
140
0.1875
141
12.0
290
     0
  0
SCALE
  5
4B
102
{ACAD_REACTORS
330
42
102
}
330
42
100
AcDbScale
 70
     0
300
1/4" = 1'-0"
140
0.25
141
12.0
290
     0
  0
SCALE
  5
4C
102
{ACAD_REACTORS
330
42
102
}
330
42
100
AcDbScale
 70
     0
300
3/8" = 1'-0"
140
0.375
141
12.0
290
     0
  0
SCALE
  5
4D
102
{ACAD_REACTORS
330
42
102
}
330
42
100
AcDbScale
 70
     0
300
1/2" = 1'-0"
140
0.5
141
12.0
290
     0
  0
SCALE
  5
4E
102
{ACAD_REACTORS
330
42
102
}
330
42
100
AcDbScale
 70
     0
300
3/4" = 1'-0"
140
0.75
141
12.0
290
     0
  0
SCALE
  5
4F
102
{ACAD_REACTORS
330
42
102
}
330
42
100
AcDbScale
 70
     0
300
1" = 1'-0"
140
1.0
141
12.0
290
     0
  0
SCALE
  5
50
102
{ACAD_REACTORS
330
42
102
}
330
42
100
AcDbScale
 70
     0
300
1-1/2" = 1'-0"
140
1.5
141
12.0
290
     0
  0
SCALE
  5
51
102
{ACAD_REACTORS
330
42
102
}
330
42
100
AcDbScale
 70
     0
300
3" = 1'-0"
140
3.0
141
12.0
290
     0
  0
SCALE
  5
52
102
{ACAD_REACTORS
330
42
102
}
330
42
100
AcDbScale
 70
     0
300
6" = 1'-0"
140
6.0
141
12.0
290
     0
  0
SCALE
  5
53
102
{ACAD_REACTORS
330
42
102
}
330
42
100
AcDbScale
 70
     0
300
1'-0" = 1'-0"
140
12.0
141
12.0
290
     0
  0
ACDBSECTIONVIEWSTYLE
  5
69
102
{ACAD_XDICTIONARY
360
CE
102
}
102
{ACAD_REACTORS
330
68
102
}
330
68
100
AcDbModelDocViewStyle
 70
     0
  3
Imperial24
290
     0
100
AcDbSectionViewStyle
 70
     0
 71
     0
 90
       78
 71
     1
340
55
 62
   256
 40
0.24
340
0
340
0
 62
   256
 40
0.24
300
I, O, Q, S, X, Z
 40
0.48
 90
        3
 40
0.18
 90
        1
 71
     2
340
5D
 90
       25
 62
   256
340
5D
 90
       50
 62
   256
 40
0.24
 40
0.0
 40
0.24
 71
     3
340
55
 62
   256
 40
0.24
 90
        1
 40
0.75
 90
        1
300
%<\AcVar ViewType \f "%tc1">% %<\AcVar ViewSectionStartId>%-%<\AcVar ViewSectionEndId>%\PSCALE %<\AcVar ViewScale \f "%sn">%
 71
     4
 62
   256
 62
   257
300
ANSI31
 40
1.0
 90
        0
290
     0
290
     0
 90
        6
 40
0.0
 40
1.570796326794896
 40
0.2617993877991494
 40
1.308996938995747
 40
-0.2617993877991494
 40
1.832595714594046
  0
TABLESTYLE
  5
65
102
{ACAD_XDICTIONARY
360
4FC
102
}
102
{ACAD_REACTORS
330
64
102
}
330
64
100
AcDbTableStyle
280
     0
  3
Standard
 70
     0
 71
     0
 40
0.06
 41
0.06
280
     0
281
     0
  7
Standard
140
0.18
170
     2
 62
     0
 63
     7
283
     0
 90
      512
 91
        0
  1

274
    -2
284
     1
 64
     0
275
    -2
285
     1
 65
     0
276
    -2
286
     1
 66
     0
277
    -2
287
     1
 67
     0
278
    -2
288
     1
 68
     0
279
    -2
289
     1
 69
     0
  7
Standard
140
0.25
170
     5
 62
     0
 63
     7
283
     0
 90
      512
 91
        0
  1

274
    -2
284
     1
 64
     0
275
    -2
285
     1
 65
     0
276
    -2
286
     1
 66
     0
277
    -2
287
     1
 67
     0
278
    -2
288
     1
 68
     0
279
    -2
289
     1
 69
     0
  7
Standard
140
0.18
170
     5
 62
     0
 63
     7
283
     0
 90
      512
 91
        0
  1

274
    -2
284
     1
 64
     0
275
    -2
285
     1
 65
     0
276
    -2
286
     1
 66
     0
277
    -2
287
     1
 67
     0
278
    -2
288
     1
 68
     0
279
    -2
289
     1
 69
     0
  0
VISUALSTYLE
  5
2F
102
{ACAD_XDICTIONARY
360
511
102
}
102
{ACAD_REACTORS
330
29
102
}
330
29
100
AcDbVisualStyle
  2
2dWireframe
 70
     4
177
     2
291
     0
 71
     0
176
     1
 72
     2
176
     1
 73
     0
176
     1
 90
        0
176
     1
 40
0.6
176
     1
 41
30.0
176
     1
 63
     7
421
 16777215
176
     1
 74
     1
176
     1
 91
        4
176
     1
 64
     7
176
     1
 65
   257
176
     1
 75
     1
176
     1
175
     1
176
     1
 42
1.0
176
     1
 92
        0
176
     1
 66
   257
176
     1
 43
1.0
176
     1
 76
     1
176
     1
 77
     6
176
     1
 78
     2
176
     1
 67
     7
176
     1
 79
     5
176
     1
170
     0
176
     1
171
     0
176
     1
290
     0
176
     1
 93
        1
176
     1
 44
0.0
176
     1
173
     0
176
     1
1001
ACAD
1000
AcDbSavedByObjectVersion
1070
     0
  0
VISUALSTYLE
  5
2E
102
{ACAD_XDICTIONARY
360
50F
102
}
102
{ACAD_REACTORS
330
29
102
}
330
29
100
AcDbVisualStyle
  2
Basic
 70
     7
177
     2
291
     1
 71
     1
176
     1
 72
     0
176
     1
 73
     1
176
     1
 90
        0
176
     1
 40
0.6
176
     1
 41
30.0
176
     1
 63
     7
421
 16777215
176
     1
 74
     0
176
     1
 91
        4
176
     1
 64
     7
176
     1
 65
   257
176
     1
 75
     1
176
     1
175
     1
176
     1
 42
1.0
176
     1
 92
        8
176
     1
 66
     7
176
     1
 43
1.0
176
     1
 76
     1
176
     1
 77
     6
176
     1
 78
     2
176
     1
 67
     7
176
     1
 79
     5
176
     1
170
     0
176
     1
171
     0
176
     1
290
     0
176
     1
 93
        1
176
     1
 44
0.0
176
     1
173
     0
176
     1
1001
ACAD
1000
AcDbSavedByObjectVersion
1070
     0
  0
VISUALSTYLE
  5
35
102
{ACAD_XDICTIONARY
360
51D
102
}
102
{ACAD_REACTORS
330
29
102
}
330
29
100
AcDbVisualStyle
  2
Brighten
 70
    12
177
     2
291
     1
 71
     2
176
     1
 72
     2
176
     1
 73
     0
176
     1
 90
        0
176
     1
 40
0.6
176
     1
 41
30.0
176
     1
 63
     7
421
 16777215
176
     1
 74
     1
176
     1
 91
        4
176
     1
 64
     7
176
     1
 65
   257
176
     1
 75
     1
176
     1
175
     1
176
     1
 42
1.0
176
     1
 92
        8
176
     1
 66
     7
176
     1
 43
1.0
176
     1
 76
     1
176
     1
 77
     6
176
     1
 78
     2
176
     1
 67
     7
176
     1
 79
     5
176
     1
170
     0
176
     1
171
     0
176
     1
290
     0
176
     1
 93
        1
176
     1
 44
50.0
176
     1
173
     0
176
     1
1001
ACAD
1000
AcDbSavedByObjectVersion
1070
     0
  0
VISUALSTYLE
  5
39
102
{ACAD_XDICTIONARY
360
525
102
}
102
{ACAD_REACTORS
330
29
102
}
330
29
100
AcDbVisualStyle
  2
ColorChange
 70
    16
177
     2
291
     1
 71
     2
176
     1
 72
     2
176
     1
 73
     3
176
     1
 90
        0
176
     1
 40
0.6
176
     1
 41
30.0
176
     1
 63
     8
421
  8421504
176
     1
 74
     1
176
     1
 91
        4
176
     1
 64
     7
176
     1
 65
   257
176
     1
 75
     1
176
     1
175
     1
176
     1
 42
1.0
176
     1
 92
        8
176
     1
 66
     8
424
  8421504
176
     1
 43
1.0
176
     1
 76
     1
176
     1
 77
     6
176
     1
 78
     2
176
     1
 67
     7
176
     1
 79
     5
176
     1
170
     0
176
     1
171
     0
176
     1
290
     0
176
     1
 93
        1
176
     1
 44
0.0
176
     1
173
     0
176
     1
1001
ACAD
1000
AcDbSavedByObjectVersion
1070
     0
  0
VISUALSTYLE
  5
32
102
{ACAD_XDICTIONARY
360
517
102
}
102
{ACAD_REACTORS
330
29
102
}
330
29
100
AcDbVisualStyle
  2
Conceptual
 70
     9
177
     2
291
     0
 71
     3
176
     1
 72
     2
176
     1
 73
     0
176
     1
 90
        0
176
     1
 40
0.6
176
     1
 41
30.0
176
     1
 63
     7
421
 16777215
176
     1
 74
     2
176
     1
 91
        2
176
     1
 64
     7
176
     1
 65
   257
176
     1
 75
     1
176
     1
175
     1
176
     1
 42
179.0
176
     1
 92
        8
176
     1
 66
     7
176
     1
 43
1.0
176
     1
 76
     1
176
     1
 77
     6
176
     1
 78
     2
176
     1
 67
     7
176
     1
 79
     3
176
     1
170
     0
176
     1
171
     0
176
     1
290
     0
176
     1
 93
        1
176
     1
 44
0.0
176
     1
173
     0
176
     1
1001
ACAD
1000
AcDbSavedByObjectVersion
1070
     0
  0
VISUALSTYLE
  5
34
102
{ACAD_XDICTIONARY
360
51B
102
}
102
{ACAD_REACTORS
330
29
102
}
330
29
100
AcDbVisualStyle
  2
Dim
 70
    11
177
     2
291
     1
 71
     2
176
     1
 72
     2
176
     1
 73
     0
176
     1
 90
        0
176
     1
 40
0.6
176
     1
 41
30.0
176
     1
 63
     7
421
 16777215
176
     1
 74
     1
176
     1
 91
        4
176
     1
 64
     7
176
     1
 65
   257
176
     1
 75
     1
176
     1
175
     1
176
     1
 42
1.0
176
     1
 92
        8
176
     1
 66
     7
176
     1
 43
1.0
176
     1
 76
     1
176
     1
 77
     6
176
     1
 78
     2
176
     1
 67
     7
176
     1
 79
     5
176
     1
170
     0
176
     1
171
     0
176
     1
290
     0
176
     1
 93
        1
176
     1
 44
-50.0
176
     1
173
     0
176
     1
1001
ACAD
1000
AcDbSavedByObjectVersion
1070
     0
  0
VISUALSTYLE
  5
41
102
{ACAD_XDICTIONARY
360
535
102
}
102
{ACAD_REACTORS
330
29
102
}
330
29
100
AcDbVisualStyle
  2
EdgeColorOff
 70
    22
177
     2
291
     1
 71
     2
176
     0
 72
     2
176
     0
 73
     0
176
     0
 90
        0
176
     0
 40
0.6
176
     0
 41
30.0
176
     0
 63
     7
421
 16777215
176
     0
 74
     1
176
     0
 91
        4
176
     0
 64
     7
176
     0
 65
   257
176
     0
 75
     1
176
     0
175
     1
176
     0
 42
1.0
176
     0
 92
        8
176
     2
 66
     7
176
     0
 43
1.0
176
     0
 76
     1
176
     0
 77
     6
176
     0
 78
     2
176
     0
 67
     7
176
     0
 79
     5
176
     0
170
     0
176
     0
171
     0
176
     0
290
     0
176
     0
 93
        1
176
     0
 44
0.0
176
     0
173
     0
176
     0
1001
ACAD
1000
AcDbSavedByObjectVersion
1070
     0
  0
VISUALSTYLE
  5
38
102
{ACAD_XDICTIONARY
360
523
102
}
102
{ACAD_REACTORS
330
29
102
}
330
29
100
AcDbVisualStyle
  2
Facepattern
 70
    15
177
     2
291
     1
 71
     2
176
     1
 72
     2
176
     1
 73
     0
176
     1
 90
        0
176
     1
 40
0.6
176
     1
 41
30.0
176
     1
 63
     7
421
 16777215
176
     1
 74
     1
176
     1
 91
        4
176
     1
 64
     7
176
     1
 65
   257
176
     1
 75
     1
176
     1
175
     1
176
     1
 42
1.0
176
     1
 92
        8
176
     1
 66
     7
176
     1
 43
1.0
176
     1
 76
     1
176
     1
 77
     6
176
     1
 78
     2
176
     1
 67
     7
176
     1
 79
     5
176
     1
170
     0
176
     1
171
     0
176
     1
290
     0
176
     1
 93
        1
176
     1
 44
0.0
176
     1
173
     0
176
     1
1001
ACAD
1000
AcDbSavedByObjectVersion
1070
     0
  0
VISUALSTYLE
  5
2A
102
{ACAD_XDICTIONARY
360
507
102
}
102
{ACAD_REACTORS
330
29
102
}
330
29
100
AcDbVisualStyle
  2
Flat
 70
     0
177
     2
291
     1
 71
     2
176
     1
 72
     1
176
     1
 73
     1
176
     1
 90
        2
176
     1
 40
0.6
176
     1
 41
30.0
176
     1
 63
     7
421
 16777215
176
     1
 74
     0
176
     1
 91
        0
176
     1
 64
     7
176
     1
 65
   257
176
     1
 75
     1
176
     1
175
     1
176
     1
 42
1.0
176
     1
 92
        8
176
     1
 66
     7
176
     1
 43
1.0
176
     1
 76
     1
176
     1
 77
     6
176
     1
 78
     2
176
     1
 67
     7
176
     1
 79
     5
176
     1
170
     0
176
     1
171
     0
176
     1
290
     0
176
     1
 93
       13
176
     1
 44
0.0
176
     1
173
     0
176
     1
1001
ACAD
1000
AcDbSavedByObjectVersion
1070
     0
  0
VISUALSTYLE
  5
2B
102
{ACAD_XDICTIONARY
360
509
102
}
102
{ACAD_REACTORS
330
29
102
}
330
29
100
AcDbVisualStyle
  2
FlatWithEdges
 70
     1
177
     2
291
     1
 71
     2
176
     1
 72
     1
176
     1
 73
     1
176
     1
 90
        2
176
     1
 40
0.6
176
     1
 41
30.0
176
     1
 63
     7
421
 16777215
176
     1
 74
     1
176
     1
 91
        0
176
     1
 64
     7
176
     1
 65
   257
176
     1
 75
     1
176
     1
175
     1
176
     1
 42
1.0
176
     1
 92
        0
176
     1
 66
   257
176
     1
 43
1.0
176
     1
 76
     1
176
     1
 77
     6
176
     1
 78
     2
176
     1
 67
     7
176
     1
 79
     5
176
     1
170
     0
176
     1
171
     0
176
     1
290
     0
176
     1
 93
       13
176
     1
 44
0.0
176
     1
173
     0
176
     1
1001
ACAD
1000
AcDbSavedByObjectVersion
1070
     0
  0
VISUALSTYLE
  5
2C
102
{ACAD_XDICTIONARY
360
50B
102
}
102
{ACAD_REACTORS
330
29
102
}
330
29
100
AcDbVisualStyle
  2
Gouraud
 70
     2
177
     2
291
     1
 71
     2
176
     1
 72
     2
176
     1
 73
     1
176
     1
 90
        2
176
     1
 40
0.6
176
     1
 41
30.0
176
     1
 63
     7
421
 16777215
176
     1
 74
     0
176
     1
 91
        0
176
     1
 64
     7
176
     1
 65
   257
176
     1
 75
     1
176
     1
175
     1
176
     1
 42
1.0
176
     1
 92
        0
176
     1
 66
     7
176
     1
 43
1.0
176
     1
 76
     1
176
     1
 77
     6
176
     1
 78
     2
176
     1
 67
     7
176
     1
 79
     5
176
     1
170
     0
176
     1
171
     0
176
     1
290
     0
176
     1
 93
       13
176
     1
 44
0.0
176
     1
173
     0
176
     1
1001
ACAD
1000
AcDbSavedByObjectVersion
1070
     0
  0
VISUALSTYLE
  5
2D
102
{ACAD_XDICTIONARY
360
50D
102
}
102
{ACAD_REACTORS
330
29
102
}
330
29
100
AcDbVisualStyle
  2
GouraudWithEdges
 70
     3
177
     2
291
     1
 71
     2
176
     1
 72
     2
176
     1
 73
     1
176
     1
 90
        2
176
     1
 40
0.6
176
     1
 41
30.0
176
     1
 63
     7
421
 16777215
176
     1
 74
     1
176
     1
 91
        0
176
     1
 64
     7
176
     1
 65
   257
176
     1
 75
     1
176
     1
175
     1
176
     1
 42
1.0
176
     1
 92
        0
176
     1
 66
   257
176
     1
 43
1.0
176
     1
 76
     1
176
     1
 77
     6
176
     1
 78
     2
176
     1
 67
     7
176
     1
 79
     5
176
     1
170
     0
176
     1
171
     0
176
     1
290
     0
176
     1
 93
       13
176
     1
 44
0.0
176
     1
173
     0
176
     1
1001
ACAD
1000
AcDbSavedByObjectVersion
1070
     0
  0
VISUALSTYLE
  5
31
102
{ACAD_XDICTIONARY
360
515
102
}
102
{ACAD_REACTORS
330
29
102
}
330
29
100
AcDbVisualStyle
  2
Hidden
 70
     6
177
     2
291
     0
 71
     1
176
     1
 72
     2
176
     1
 73
     2
176
     1
 90
        0
176
     1
 40
0.6
176
     1
 41
30.0
176
     1
 63
     7
421
 16777215
176
     1
 74
     2
176
     1
 91
        2
176
     1
 64
     7
176
     1
 65
   257
176
     1
 75
     2
176
     1
175
     1
176
     1
 42
40.0
176
     1
 92
        0
176
     1
 66
   257
176
     1
 43
1.0
176
     1
 76
     1
176
     1
 77
     6
176
     1
 78
     2
176
     1
 67
     7
176
     1
 79
     3
176
     1
170
     0
176
     1
171
     0
176
     1
290
     0
176
     1
 93
        1
176
     1
 44
0.0
176
     1
173
     0
176
     1
1001
ACAD
1000
AcDbSavedByObjectVersion
1070
     0
  0
VISUALSTYLE
  5
3F
102
{ACAD_XDICTIONARY
360
531
102
}
102
{ACAD_REACTORS
330
29
102
}
330
29
100
AcDbVisualStyle
  2
JitterOff
 70
    20
177
     2
291
     1
 71
     2
176
     0
 72
     2
176
     0
 73
     0
176
     0
 90
        0
176
     0
 40
0.6
176
     0
 41
30.0
176
     0
 63
     7
421
 16777215
176
     0
 74
     1
176
     0
 91
        4
176
     0
 64
     7
176
     0
 65
   257
176
     0
 75
     1
176
     0
175
     1
176
     0
 42
1.0
176
     0
 92
       10
176
     2
 66
     7
176
     0
 43
1.0
176
     0
 76
     1
176
     0
 77
     6
176
     0
 78
     2
176
     0
 67
     7
176
     0
 79
     5
176
     0
170
     0
176
     0
171
     0
176
     0
290
     0
176
     0
 93
        1
176
     0
 44
0.0
176
     0
173
     0
176
     0
1001
ACAD
1000
AcDbSavedByObjectVersion
1070
     0
  0
VISUALSTYLE
  5
37
102
{ACAD_XDICTIONARY
360
521
102
}
102
{ACAD_REACTORS
330
29
102
}
330
29
100
AcDbVisualStyle
  2
Linepattern
 70
    14
177
     2
291
     1
 71
     2
176
     1
 72
     2
176
     1
 73
     0
176
     1
 90
        0
176
     1
 40
0.6
176
     1
 41
30.0
176
     1
 63
     7
421
 16777215
176
     1
 74
     1
176
     1
 91
        4
176
     1
 64
     7
176
     1
 65
   257
176
     1
 75
     7
176
     1
175
     7
176
     1
 42
1.0
176
     1
 92
        8
176
     1
 66
     7
176
     1
 43
1.0
176
     1
 76
     1
176
     1
 77
     6
176
     1
 78
     2
176
     1
 67
     7
176
     1
 79
     5
176
     1
170
     0
176
     1
171
     0
176
     1
290
     0
176
     1
 93
        1
176
     1
 44
0.0
176
     1
173
     0
176
     1
1001
ACAD
1000
AcDbSavedByObjectVersion
1070
     0
  0
VISUALSTYLE
  5
40
102
{ACAD_XDICTIONARY
360
533
102
}
102
{ACAD_REACTORS
330
29
102
}
330
29
100
AcDbVisualStyle
  2
OverhangOff
 70
    21
177
     2
291
     1
 71
     2
176
     0
 72
     2
176
     0
 73
     0
176
     0
 90
        0
176
     0
 40
0.6
176
     0
 41
30.0
176
     0
 63
     7
421
 16777215
176
     0
 74
     1
176
     0
 91
        4
176
     0
 64
     7
176
     0
 65
   257
176
     0
 75
     1
176
     0
175
     1
176
     0
 42
1.0
176
     0
 92
        9
176
     2
 66
     7
176
     0
 43
1.0
176
     0
 76
     1
176
     0
 77
     6
176
     0
 78
     2
176
     0
 67
     7
176
     0
 79
     5
176
     0
170
     0
176
     0
171
     0
176
     0
290
     0
176
     0
 93
        1
176
     0
 44
0.0
176
     0
173
     0
176
     0
1001
ACAD
1000
AcDbSavedByObjectVersion
1070
     0
  0
VISUALSTYLE
  5
33
102
{ACAD_XDICTIONARY
360
519
102
}
102
{ACAD_REACTORS
330
29
102
}
330
29
100
AcDbVisualStyle
  2
Realistic
 70
     8
177
     2
291
     0
 71
     2
176
     1
 72
     3
176
     1
 73
     0
176
     1
 90
        2
176
     1
 40
0.6
176
     1
 41
30.0
176
     1
 63
     7
421
 16777215
176
     1
 74
     0
176
     1
 91
        0
176
     1
 64
     7
176
     1
 65
   257
176
     1
 75
     1
176
     1
175
     1
176
     1
 42
1.0
176
     1
 92
        8
176
     1
 66
   257
176
     1
 43
1.0
176
     1
 76
     1
176
     1
 77
     6
176
     1
 78
     2
176
     1
 67
     7
176
     1
 79
     3
176
     1
170
     0
176
     1
171
     0
176
     1
290
     0
176
     1
 93
       13
176
     1
 44
0.0
176
     1
173
     0
176
     1
1001
ACAD
1000
AcDbSavedByObjectVersion
1070
     0
  0
VISUALSTYLE
  5
3E
102
{ACAD_XDICTIONARY
360
52F
102
}
102
{ACAD_REACTORS
330
29
102
}
330
29
100
AcDbVisualStyle
  2
Shaded
 70
    27
177
     2
291
     0
 71
     2
176
     1
 72
     2
176
     1
 73
     1
176
     1
 90
        2
176
     1
 40
0.6
176
     1
 41
30.0
176
     1
 63
     7
421
 16777215
176
     1
 74
     0
176
     1
 91
        4
176
     1
 64
     7
176
     1
 65
   257
176
     1
 75
     1
176
     1
175
     1
176
     1
 42
1.0
176
     1
 92
        8
176
     1
 66
   257
176
     1
 43
1.0
176
     1
 76
     1
176
     1
 77
     6
176
     1
 78
     2
176
     1
 67
     8
425
  7895160
176
     1
 79
     3
176
     1
170
     0
176
     1
171
     0
176
     1
290
     0
176
     1
 93
        5
176
     1
 44
0.0
176
     1
173
     0
176
     1
1001
ACAD
1000
AcDbSavedByObjectVersion
1070
     0
  0
VISUALSTYLE
  5
3D
102
{ACAD_XDICTIONARY
360
52D
102
}
102
{ACAD_REACTORS
330
29
102
}
330
29
100
AcDbVisualStyle
  2
Shaded with edges
 70
    26
177
     2
291
     0
 71
     2
176
     1
 72
     2
176
     1
 73
     1
176
     1
 90
        2
176
     1
 40
0.6
176
     1
 41
30.0
176
     1
 63
     7
421
 16777215
176
     1
 74
     1
176
     1
 91
       10
176
     1
 64
     7
176
     1
 65
   257
176
     1
 75
     2
176
     1
175
     1
176
     1
 42
1.0
176
     1
 92
        8
176
     1
 66
   257
176
     1
 43
1.0
176
     1
 76
     1
176
     1
 77
     6
176
     1
 78
     2
176
     1
 67
     7
176
     1
 79
     3
176
     1
170
     0
176
     1
171
     0
176
     1
290
     0
176
     1
 93
        5
176
     1
 44
0.0
176
     1
173
     0
176
     1
1001
ACAD
1000
AcDbSavedByObjectVersion
1070
     0
  0
VISUALSTYLE
  5
3A
102
{ACAD_XDICTIONARY
360
527
102
}
102
{ACAD_REACTORS
330
29
102
}
330
29
100
AcDbVisualStyle
  2
Shades of Gray
 70
    23
177
     2
291
     0
 71
     2
176
     1
 72
     2
176
     1
 73
     3
176
     1
 90
        0
176
     1
 40
0.6
176
     1
 41
30.0
176
     1
 63
     7
421
 16777215
176
     1
 74
     2
176
     1
 91
        2
176
     1
 64
     7
176
     1
 65
     7
176
     1
 75
     1
176
     1
175
     1
176
     1
 42
40.0
176
     1
 92
        8
176
     1
 66
     7
176
     1
 43
1.0
176
     1
 76
     1
176
     1
 77
     6
176
     1
 78
     2
176
     1
 67
     7
176
     1
 79
     3
176
     1
170
     0
176
     1
171
     0
176
     1
290
     0
176
     1
 93
        1
176
     1
 44
0.0
176
     1
173
     0
176
     1
1001
ACAD
1000
AcDbSavedByObjectVersion
1070
     0
  0
VISUALSTYLE
  5
3B
102
{ACAD_XDICTIONARY
360
529
102
}
102
{ACAD_REACTORS
330
29
102
}
330
29
100
AcDbVisualStyle
  2
Sketchy
 70
    24
177
     2
291
     0
 71
     1
176
     1
 72
     2
176
     1
 73
     2
176
     1
 90
        0
176
     1
 40
0.6
176
     1
 41
30.0
176
     1
 63
     7
421
 16777215
176
     1
 74
     2
176
     1
 91
        2
176
     1
 64
     7
176
     1
 65
     7
176
     1
 75
     1
176
     1
175
     1
176
     1
 42
40.0
176
     1
 92
       11
176
     1
 66
     7
176
     1
 43
1.0
176
     1
 76
     1
176
     1
 77
     6
176
     1
 78
     2
176
     1
 67
     7
176
     1
 79
     6
176
     1
170
     0
176
     1
171
     0
176
     1
290
     0
176
     1
 93
        1
176
     1
 44
0.0
176
     1
173
     0
176
     1
1001
ACAD
1000
AcDbSavedByObjectVersion
1070
     0
  0
VISUALSTYLE
  5
36
102
{ACAD_XDICTIONARY
360
51F
102
}
102
{ACAD_REACTORS
330
29
102
}
330
29
100
AcDbVisualStyle
  2
Thicken
 70
    13
177
     2
291
     1
 71
     2
176
     1
 72
     2
176
     1
 73
     0
176
     1
 90
        0
176
     1
 40
0.6
176
     1
 41
30.0
176
     1
 63
     7
421
 16777215
176
     1
 74
     1
176
     1
 91
        4
176
     1
 64
     7
176
     1
 65
   257
176
     1
 75
     1
176
     1
175
     1
176
     1
 42
1.0
176
     1
 92
       12
176
     1
 66
     7
176
     1
 43
1.0
176
     1
 76
     1
176
     1
 77
     6
176
     1
 78
     2
176
     1
 67
     7
176
     1
 79
     5
176
     1
170
     0
176
     1
171
     0
176
     1
290
     0
176
     1
 93
        1
176
     1
 44
0.0
176
     1
173
     0
176
     1
1001
ACAD
1000
AcDbSavedByObjectVersion
1070
     0
  0
VISUALSTYLE
  5
30
102
{ACAD_XDICTIONARY
360
513
102
}
102
{ACAD_REACTORS
330
29
102
}
330
29
100
AcDbVisualStyle
  2
Wireframe
 70
     5
177
     2
291
     0
 71
     0
176
     1
 72
     2
176
     1
 73
     0
176
     1
 90
        0
176
     1
 40
0.6
176
     1
 41
30.0
176
     1
 63
     7
421
 16777215
176
     1
 74
     1
176
     1
 91
        4
176
     1
 64
     7
176
     1
 65
   257
176
     1
 75
     1
176
     1
175
     1
176
     1
 42
1.0
176
     1
 92
        0
176
     1
 66
   257
176
     1
 43
1.0
176
     1
 76
     1
176
     1
 77
     6
176
     1
 78
     2
176
     1
 67
     7
176
     1
 79
     3
176
     1
170
     0
176
     1
171
     0
176
     1
290
     0
176
     1
 93
        1
176
     1
 44
0.0
176
     1
173
     0
176
     1
1001
ACAD
1000
AcDbSavedByObjectVersion
1070
     0
  0
VISUALSTYLE
  5
3C
102
{ACAD_XDICTIONARY
360
52B
102
}
102
{ACAD_REACTORS
330
29
102
}
330
29
100
AcDbVisualStyle
  2
X-Ray
 70
    25
177
     2
291
     0
 71
     2
176
     1
 72
     2
176
     1
 73
     1
176
     1
 90
        1
176
     1
 40
0.5
176
     1
 41
30.0
176
     1
 63
     7
421
 16777215
176
     1
 74
     1
176
     1
 91
        0
176
     1
 64
     7
176
     1
 65
   257
176
     1
 75
     1
176
     1
175
     1
176
     1
 42
1.0
176
     1
 92
        8
176
     1
 66
     7
176
     1
 43
1.0
176
     1
 76
     1
176
     1
 77
     6
176
     1
 78
     2
176
     1
 67
     7
176
     1
 79
     3
176
     1
170
     0
176
     1
171
     0
176
     1
290
     0
176
     1
 93
       13
176
     1
 44
0.0
176
     1
173
     0
176
     1
1001
ACAD
1000
AcDbSavedByObjectVersion
1070
     0
  0
DICTIONARYVAR
  5
D8
102
{ACAD_REACTORS
330
D3
102
}
330
D3
100
DictionaryVariables
280
     0
  1
1:1
  0
DICTIONARYVAR
  5
D5
102
{ACAD_REACTORS
330
D3
102
}
330
D3
100
DictionaryVariables
280
     0
  1
STANDARD
  0
DICTIONARYVAR
  5
D4
102
{ACAD_REACTORS
330
D3
102
}
330
D3
100
DictionaryVariables
280
     0
  1
STANDARD
  0
DICTIONARYVAR
  5
D6
102
{ACAD_REACTORS
330
D3
102
}
330
D3
100
DictionaryVariables
280
     0
  1
Imperial24
  0
DICTIONARYVAR
  5
D7
102
{ACAD_REACTORS
330
D3
102
}
330
D3
100
DictionaryVariables
280
     0
  1
Imperial24
  0
DICTIONARY
  5
506
102
{ACAD_REACTORS
330
504
102
}
330
504
100
AcDbDictionary
281
     1
  0
DICTIONARY
  5
505
102
{ACAD_REACTORS
330
504
102
}
330
504
100
AcDbDictionary
281
     1
  3
140694880842224
350
4FF
  3
140694880842240
350
500
  3
140694880842256
350
501
  3
140694880842272
350
502
  3
140694880842288
350
503
  0
XRECORD
  5
CA
102
{ACAD_REACTORS
330
C8
102
}
330
C8
100
AcDbXrecord
280
     1
  1
BUILDING_ID
  1
Basin-Wall_Hung-Grohe-Eurocube-3965_Series
  1
FLOOR_ID
  1
1896
  0
XRECORD
  5
C9
102
{ACAD_REACTORS
330
C8
102
}
330
C8
100
AcDbXrecord
280
     1
  1
-2001160
  1
Plumbing Fixtures
  1
-2007000
  1
Connector Element
  0
DICTIONARY
  5
D0
330
6B
100
AcDbDictionary
280
     1
281
     1
  3
ACAD_XREC_ROUNDTRIP
360
53A
  0
DICTIONARY
  5
1A
330
19
100
AcDbDictionary
280
     1
281
     1
  3
BUMPTILE
360
1C
  3
DIFFUSETILE
360
1B
  3
OPACITYTILE
360
1F
  3
REFLECTIONTILE
360
1E
  3
REFRACTIONTILE
360
20
  3
SPECULARTILE
360
1D
  0
DICTIONARY
  5
12
330
11
100
AcDbDictionary
280
     1
281
     1
  3
BUMPTILE
360
14
  3
DIFFUSETILE
360
13
  3
OPACITYTILE
360
17
  3
REFLECTIONTILE
360
16
  3
REFRACTIONTILE
360
18
  3
SPECULARTILE
360
15
  0
DICTIONARY
  5
22
330
21
100
AcDbDictionary
280
     1
281
     1
  3
BUMPTILE
360
24
  3
DIFFUSETILE
360
23
  3
OPACITYTILE
360
27
  3
REFLECTIONTILE
360
26
  3
REFRACTIONTILE
360
28
  3
SPECULARTILE
360
25
  0
DICTIONARY
  5
537
330
67
100
AcDbDictionary
280
     1
281
     1
  3
ACAD_XREC_ROUNDTRIP
360
538
  0
DICTIONARY
  5
CE
330
69
100
AcDbDictionary
280
     1
281
     1
  3
ACAD_XREC_ROUNDTRIP
360
539
  0
DICTIONARY
  5
4FC
330
65
100
AcDbDictionary
280
     1
281
     1
  3
ACAD_ROUNDTRIP_2008_TABLESTYLE_CELLSTYLEMAP
360
4FD
  0
DICTIONARY
  5
511
330
2F
100
AcDbDictionary
280
     1
281
     1
  3
ACAD_XREC_ROUNDTRIP
360
512
  0
DICTIONARY
  5
50F
330
2E
100
AcDbDictionary
280
     1
281
     1
  3
ACAD_XREC_ROUNDTRIP
360
510
  0
DICTIONARY
  5
51D
330
35
100
AcDbDictionary
280
     1
281
     1
  3
ACAD_XREC_ROUNDTRIP
360
51E
  0
DICTIONARY
  5
525
330
39
100
AcDbDictionary
280
     1
281
     1
  3
ACAD_XREC_ROUNDTRIP
360
526
  0
DICTIONARY
  5
517
330
32
100
AcDbDictionary
280
     1
281
     1
  3
ACAD_XREC_ROUNDTRIP
360
518
  0
DICTIONARY
  5
51B
330
34
100
AcDbDictionary
280
     1
281
     1
  3
ACAD_XREC_ROUNDTRIP
360
51C
  0
DICTIONARY
  5
535
330
41
100
AcDbDictionary
280
     1
281
     1
  3
ACAD_XREC_ROUNDTRIP
360
536
  0
DICTIONARY
  5
523
330
38
100
AcDbDictionary
280
     1
281
     1
  3
ACAD_XREC_ROUNDTRIP
360
524
  0
DICTIONARY
  5
507
330
2A
100
AcDbDictionary
280
     1
281
     1
  3
ACAD_XREC_ROUNDTRIP
360
508
  0
DICTIONARY
  5
509
330
2B
100
AcDbDictionary
280
     1
281
     1
  3
ACAD_XREC_ROUNDTRIP
360
50A
  0
DICTIONARY
  5
50B
330
2C
100
AcDbDictionary
280
     1
281
     1
  3
ACAD_XREC_ROUNDTRIP
360
50C
  0
DICTIONARY
  5
50D
330
2D
100
AcDbDictionary
280
     1
281
     1
  3
ACAD_XREC_ROUNDTRIP
360
50E
  0
DICTIONARY
  5
515
330
31
100
AcDbDictionary
280
     1
281
     1
  3
ACAD_XREC_ROUNDTRIP
360
516
  0
DICTIONARY
  5
531
330
3F
100
AcDbDictionary
280
     1
281
     1
  3
ACAD_XREC_ROUNDTRIP
360
532
  0
DICTIONARY
  5
521
330
37
100
AcDbDictionary
280
     1
281
     1
  3
ACAD_XREC_ROUNDTRIP
360
522
  0
DICTIONARY
  5
533
330
40
100
AcDbDictionary
280
     1
281
     1
  3
ACAD_XREC_ROUNDTRIP
360
534
  0
DICTIONARY
  5
519
330
33
100
AcDbDictionary
280
     1
281
     1
  3
ACAD_XREC_ROUNDTRIP
360
51A
  0
DICTIONARY
  5
52F
330
3E
100
AcDbDictionary
280
     1
281
     1
  3
ACAD_XREC_ROUNDTRIP
360
530
  0
DICTIONARY
  5
52D
330
3D
100
AcDbDictionary
280
     1
281
     1
  3
ACAD_XREC_ROUNDTRIP
360
52E
  0
DICTIONARY
  5
527
330
3A
100
AcDbDictionary
280
     1
281
     1
  3
ACAD_XREC_ROUNDTRIP
360
528
  0
DICTIONARY
  5
529
330
3B
100
AcDbDictionary
280
     1
281
     1
  3
ACAD_XREC_ROUNDTRIP
360
52A
  0
DICTIONARY
  5
51F
330
36
100
AcDbDictionary
280
     1
281
     1
  3
ACAD_XREC_ROUNDTRIP
360
520
  0
DICTIONARY
  5
513
330
30
100
AcDbDictionary
280
     1
281
     1
  3
ACAD_XREC_ROUNDTRIP
360
514
  0
DICTIONARY
  5
52B
330
3C
100
AcDbDictionary
280
     1
281
     1
  3
ACAD_XREC_ROUNDTRIP
360
52C
  0
XRECORD
  5
4FF
102
{ACAD_REACTORS
330
505
102
}
330
505
100
AcDbXrecord
280
     1
  1
AcDb_Thumbnail_Schema
102
{ATTRRECORD
341
500
  2
AcDbDs::TreatedAsObjectData
280
     1
291
     1
102
ATTRRECORD}
102
{ATTRRECORD
341
501
  2
AcDbDs::Legacy
280
     1
291
     1
102
ATTRRECORD}
  2
AcDbDs::ID
280
    10
 91
        8
102
{ATTRRECORD
341
502
  2
AcDs:Indexable
280
     1
291
     1
102
ATTRRECORD}
102
{ATTRRECORD
341
503
  2
AcDbDs::HandleAttribute
280
     7
282
     1
102
ATTRRECORD}
  2
Thumbnail_Data
280
    15
 91
        0
  0
XRECORD
  5
500
102
{ACAD_REACTORS
330
505
102
}
330
505
100
AcDbXrecord
280
     1
  1
AcDbDs::TreatedAsObjectDataSchema
  2
AcDbDs::TreatedAsObjectData
280
     1
 91
        0
  0
XRECORD
  5
501
102
{ACAD_REACTORS
330
505
102
}
330
505
100
AcDbXrecord
280
     1
  1
AcDbDs::LegacySchema
  2
AcDbDs::Legacy
280
     1
 91
        0
  0
XRECORD
  5
502
102
{ACAD_REACTORS
330
505
102
}
330
505
100
AcDbXrecord
280
     1
  1
AcDbDs::IndexedPropertySchema
  2
AcDs:Indexable
280
     1
 91
        0
  0
XRECORD
  5
503
102
{ACAD_REACTORS
330
505
102
}
330
505
100
AcDbXrecord
280
     1
  1
AcDbDs::HandleAttributeSchema
  2
AcDbDs::HandleAttribute
280
     7
 91
        1
284
     1
  0
XRECORD
  5
53A
102
{ACAD_REACTORS
330
D0
102
}
330
D0
100
AcDbXrecord
280
     1
102
DISPLAYNAME
  1
Imperial24
102
FLAGS
 90
        0
  0
XRECORD
  5
1C
102
{ACAD_REACTORS
330
1A
102
}
330
1A
100
AcDbXrecord
280
     1
270
     1
271
     1
  0
XRECORD
  5
1B
102
{ACAD_REACTORS
330
1A
102
}
330
1A
100
AcDbXrecord
280
     1
270
     1
271
     1
  0
XRECORD
  5
1F
102
{ACAD_REACTORS
330
1A
102
}
330
1A
100
AcDbXrecord
280
     1
270
     1
271
     1
  0
XRECORD
  5
1E
102
{ACAD_REACTORS
330
1A
102
}
330
1A
100
AcDbXrecord
280
     1
270
     1
271
     1
  0
XRECORD
  5
20
102
{ACAD_REACTORS
330
1A
102
}
330
1A
100
AcDbXrecord
280
     1
270
     1
271
     1
  0
XRECORD
  5
1D
102
{ACAD_REACTORS
330
1A
102
}
330
1A
100
AcDbXrecord
280
     1
270
     1
271
     1
  0
XRECORD
  5
14
102
{ACAD_REACTORS
330
12
102
}
330
12
100
AcDbXrecord
280
     1
270
     1
271
     1
  0
XRECORD
  5
13
102
{ACAD_REACTORS
330
12
102
}
330
12
100
AcDbXrecord
280
     1
270
     1
271
     1
  0
XRECORD
  5
17
102
{ACAD_REACTORS
330
12
102
}
330
12
100
AcDbXrecord
280
     1
270
     1
271
     1
  0
XRECORD
  5
16
102
{ACAD_REACTORS
330
12
102
}
330
12
100
AcDbXrecord
280
     1
270
     1
271
     1
  0
XRECORD
  5
18
102
{ACAD_REACTORS
330
12
102
}
330
12
100
AcDbXrecord
280
     1
270
     1
271
     1
  0
XRECORD
  5
15
102
{ACAD_REACTORS
330
12
102
}
330
12
100
AcDbXrecord
280
     1
270
     1
271
     1
  0
XRECORD
  5
24
102
{ACAD_REACTORS
330
22
102
}
330
22
100
AcDbXrecord
280
     1
270
     1
271
     1
  0
XRECORD
  5
23
102
{ACAD_REACTORS
330
22
102
}
330
22
100
AcDbXrecord
280
     1
270
     1
271
     1
  0
XRECORD
  5
27
102
{ACAD_REACTORS
330
22
102
}
330
22
100
AcDbXrecord
280
     1
270
     1
271
     1
  0
XRECORD
  5
26
102
{ACAD_REACTORS
330
22
102
}
330
22
100
AcDbXrecord
280
     1
270
     1
271
     1
  0
XRECORD
  5
28
102
{ACAD_REACTORS
330
22
102
}
330
22
100
AcDbXrecord
280
     1
270
     1
271
     1
  0
XRECORD
  5
25
102
{ACAD_REACTORS
330
22
102
}
330
22
100
AcDbXrecord
280
     1
270
     1
271
     1
  0
XRECORD
  5
538
102
{ACAD_REACTORS
330
537
102
}
330
537
100
AcDbXrecord
280
     1
102
ACAD_ROUNDTRIP_2012_MLEADER_STYLE
298
     1
  0
XRECORD
  5
539
102
{ACAD_REACTORS
330
CE
102
}
330
CE
100
AcDbXrecord
280
     1
102
DISPLAYNAME
  1
Imperial24
102
FLAGS
 90
        0
  0
CELLSTYLEMAP
  5
4FD
102
{ACAD_REACTORS
330
4FC
102
}
330
4FC
100
AcDbCellStyleMap
 90
        3
300
CELLSTYLE
  1
TABLEFORMAT_BEGIN
 90
        5
170
     1
 91
        0
 92
    32768
 62
   257
 93
        1
300
CONTENTFORMAT
  1
CONTENTFORMAT_BEGIN
 90
        0
 91
        0
 92
      512
 93
        0
300

 40
0.0
140
1.0
 94
        5
 62
     0
340
55
144
0.25
309
CONTENTFORMAT_END
171
     0
 94
        0
309
TABLEFORMAT_END
  1
CELLSTYLE_BEGIN
 90
        1
 91
        1
300
_TITLE
309
CELLSTYLE_END
300
CELLSTYLE
  1
TABLEFORMAT_BEGIN
 90
        5
170
     1
 91
        0
 92
        0
 62
   257
 93
        1
300
CONTENTFORMAT
  1
CONTENTFORMAT_BEGIN
 90
        0
 91
        0
 92
      512
 93
        0
300

 40
0.0
140
1.0
 94
        5
 62
     0
340
55
144
0.18
309
CONTENTFORMAT_END
171
     0
 94
        0
309
TABLEFORMAT_END
  1
CELLSTYLE_BEGIN
 90
        2
 91
        1
300
_HEADER
309
CELLSTYLE_END
300
CELLSTYLE
  1
TABLEFORMAT_BEGIN
 90
        5
170
     1
 91
        0
 92
        0
 62
   257
 93
        1
300
CONTENTFORMAT
  1
CONTENTFORMAT_BEGIN
 90
        0
 91
        0
 92
      512
 93
        0
300

 40
0.0
140
1.0
 94
        2
 62
     0
340
55
144
0.18
309
CONTENTFORMAT_END
171
     0
 94
        0
309
TABLEFORMAT_END
  1
CELLSTYLE_BEGIN
 90
        3
 91
        2
300
_DATA
309
CELLSTYLE_END
  0
XRECORD
  5
512
102
{ACAD_REACTORS
330
511
102
}
330
511
100
AcDbXrecord
280
     1
102
RTVSPost2010Prop28
280
     1
102
RTVSPost2010PropOp28
 70
     1
102
RTVSPost2010Prop29
280
     1
102
RTVSPost2010PropOp29
 70
     1
102
RTVSPost2010Prop30
280
     0
102
RTVSPost2010PropOp30
 70
     1
102
RTVSPost2010Prop31
280
     0
102
RTVSPost2010PropOp31
 70
     1
102
RTVSPost2010Prop32
280
     0
102
RTVSPost2010PropOp32
 70
     1
102
RTVSPost2010Prop33
280
     0
102
RTVSPost2010PropOp33
 70
     1
102
RTVSPost2010Prop34
280
     0
102
RTVSPost2010PropOp34
 70
     1
102
RTVSPost2010Prop35
280
     0
102
RTVSPost2010PropOp35
 70
     1
102
RTVSPost2010Prop36
280
     0
102
RTVSPost2010PropOp36
 70
     1
102
RTVSPost2010Prop37
 90
       50
102
RTVSPost2010PropOp37
 70
     1
102
RTVSPost2010Prop38
140
0.0
102
RTVSPost2010PropOp38
 70
     1
102
RTVSPost2010Prop39
140
1.0
102
RTVSPost2010PropOp39
 70
     1
102
RTVSPost2010Prop40
 90
        0
102
RTVSPost2010PropOp40
 70
     1
102
RTVSPost2010Prop41ColorIndex
 90
       18
102
RTVSPost2010Prop41ColorRGB
 90
        0
102
RTVSPost2010PropOp41
 70
     1
102
RTVSPost2010Prop42
 90
       50
102
RTVSPost2010PropOp42
 70
     1
102
RTVSPost2010Prop43
 90
        3
102
RTVSPost2010PropOp43
 70
     1
102
RTVSPost2010Prop44ColorIndex
 90
        5
102
RTVSPost2010Prop44ColorRGB
 90
      255
102
RTVSPost2010PropOp44
 70
     1
102
RTVSPost2010Prop45
280
     0
102
RTVSPost2010PropOp45
 70
     1
102
RTVSPost2010Prop46
 90
       50
102
RTVSPost2010PropOp46
 70
     1
102
RTVSPost2010Prop47
 90
       50
102
RTVSPost2010PropOp47
 70
     1
102
RTVSPost2010Prop48
 90
       50
102
RTVSPost2010PropOp48
 70
     1
102
RTVSPost2010Prop49
280
     0
102
RTVSPost2010PropOp49
 70
     1
102
RTVSPost2010Prop50
 90
       50
102
RTVSPost2010PropOp50
 70
     1
102
RTVSPost2010Prop51ColorIndex
 90
      256
102
RTVSPost2010Prop51ColorRGB
 90
-16777216
102
RTVSPost2010PropOp51
 70
     0
102
RTVSPost2010Prop52
140
1.0
102
RTVSPost2010PropOp52
 70
     0
102
RTVSPost2010Prop53
 90
        2
102
RTVSPost2010PropOp53
 70
     1
102
RTVSPost2010Prop54
  1
strokes_ogs.tif
102
RTVSPost2010PropOp54
 70
     1
102
RTVSPost2010Prop55
280
     0
102
RTVSPost2010PropOp55
 70
     1
102
RTVSPost2010Prop56
140
1.0
102
RTVSPost2010PropOp56
 70
     1
102
RTVSPost2010Prop57
140
1.0
102
RTVSPost2010PropOp57
 70
     1
  0
XRECORD
  5
510
102
{ACAD_REACTORS
330
50F
102
}
330
50F
100
AcDbXrecord
280
     1
102
RTVSPost2010Prop28
280
     0
102
RTVSPost2010PropOp28
 70
     1
102
RTVSPost2010Prop29
280
     1
102
RTVSPost2010PropOp29
 70
     1
102
RTVSPost2010Prop30
280
     1
102
RTVSPost2010PropOp30
 70
     1
102
RTVSPost2010Prop31
280
     0
102
RTVSPost2010PropOp31
 70
     1
102
RTVSPost2010Prop32
280
     0
102
RTVSPost2010PropOp32
 70
     1
102
RTVSPost2010Prop33
280
     0
102
RTVSPost2010PropOp33
 70
     1
102
RTVSPost2010Prop34
280
     0
102
RTVSPost2010PropOp34
 70
     1
102
RTVSPost2010Prop35
280
     0
102
RTVSPost2010PropOp35
 70
     1
102
RTVSPost2010Prop36
280
     0
102
RTVSPost2010PropOp36
 70
     1
102
RTVSPost2010Prop37
 90
       50
102
RTVSPost2010PropOp37
 70
     1
102
RTVSPost2010Prop38
140
0.0
102
RTVSPost2010PropOp38
 70
     1
102
RTVSPost2010Prop39
140
1.0
102
RTVSPost2010PropOp39
 70
     1
102
RTVSPost2010Prop40
 90
        0
102
RTVSPost2010PropOp40
 70
     1
102
RTVSPost2010Prop41ColorIndex
 90
       18
102
RTVSPost2010Prop41ColorRGB
 90
        0
102
RTVSPost2010PropOp41
 70
     1
102
RTVSPost2010Prop42
 90
       50
102
RTVSPost2010PropOp42
 70
     1
102
RTVSPost2010Prop43
 90
        3
102
RTVSPost2010PropOp43
 70
     1
102
RTVSPost2010Prop44ColorIndex
 90
        5
102
RTVSPost2010Prop44ColorRGB
 90
      255
102
RTVSPost2010PropOp44
 70
     1
102
RTVSPost2010Prop45
280
     0
102
RTVSPost2010PropOp45
 70
     1
102
RTVSPost2010Prop46
 90
       50
102
RTVSPost2010PropOp46
 70
     1
102
RTVSPost2010Prop47
 90
       50
102
RTVSPost2010PropOp47
 70
     1
102
RTVSPost2010Prop48
 90
       50
102
RTVSPost2010PropOp48
 70
     1
102
RTVSPost2010Prop49
280
     0
102
RTVSPost2010PropOp49
 70
     1
102
RTVSPost2010Prop50
 90
       50
102
RTVSPost2010PropOp50
 70
     1
102
RTVSPost2010Prop51ColorIndex
 90
      256
102
RTVSPost2010Prop51ColorRGB
 90
-16777216
102
RTVSPost2010PropOp51
 70
     0
102
RTVSPost2010Prop52
140
1.0
102
RTVSPost2010PropOp52
 70
     0
102
RTVSPost2010Prop53
 90
        2
102
RTVSPost2010PropOp53
 70
     1
102
RTVSPost2010Prop54
  1
strokes_ogs.tif
102
RTVSPost2010PropOp54
 70
     1
102
RTVSPost2010Prop55
280
     0
102
RTVSPost2010PropOp55
 70
     1
102
RTVSPost2010Prop56
140
1.0
102
RTVSPost2010PropOp56
 70
     1
102
RTVSPost2010Prop57
140
1.0
102
RTVSPost2010PropOp57
 70
     1
  0
XRECORD
  5
51E
102
{ACAD_REACTORS
330
51D
102
}
330
51D
100
AcDbXrecord
280
     1
102
RTVSPost2010Prop28
280
     0
102
RTVSPost2010PropOp28
 70
     1
102
RTVSPost2010Prop29
280
     1
102
RTVSPost2010PropOp29
 70
     1
102
RTVSPost2010Prop30
280
     1
102
RTVSPost2010PropOp30
 70
     1
102
RTVSPost2010Prop31
280
     0
102
RTVSPost2010PropOp31
 70
     1
102
RTVSPost2010Prop32
280
     0
102
RTVSPost2010PropOp32
 70
     1
102
RTVSPost2010Prop33
280
     0
102
RTVSPost2010PropOp33
 70
     1
102
RTVSPost2010Prop34
280
     0
102
RTVSPost2010PropOp34
 70
     1
102
RTVSPost2010Prop35
280
     0
102
RTVSPost2010PropOp35
 70
     1
102
RTVSPost2010Prop36
280
     0
102
RTVSPost2010PropOp36
 70
     1
102
RTVSPost2010Prop37
 90
       50
102
RTVSPost2010PropOp37
 70
     1
102
RTVSPost2010Prop38
140
0.0
102
RTVSPost2010PropOp38
 70
     1
102
RTVSPost2010Prop39
140
1.0
102
RTVSPost2010PropOp39
 70
     1
102
RTVSPost2010Prop40
 90
        0
102
RTVSPost2010PropOp40
 70
     1
102
RTVSPost2010Prop41ColorIndex
 90
       18
102
RTVSPost2010Prop41ColorRGB
 90
        0
102
RTVSPost2010PropOp41
 70
     1
102
RTVSPost2010Prop42
 90
       50
102
RTVSPost2010PropOp42
 70
     1
102
RTVSPost2010Prop43
 90
        3
102
RTVSPost2010PropOp43
 70
     1
102
RTVSPost2010Prop44ColorIndex
 90
        5
102
RTVSPost2010Prop44ColorRGB
 90
      255
102
RTVSPost2010PropOp44
 70
     1
102
RTVSPost2010Prop45
280
     0
102
RTVSPost2010PropOp45
 70
     1
102
RTVSPost2010Prop46
 90
       50
102
RTVSPost2010PropOp46
 70
     1
102
RTVSPost2010Prop47
 90
       50
102
RTVSPost2010PropOp47
 70
     1
102
RTVSPost2010Prop48
 90
       50
102
RTVSPost2010PropOp48
 70
     1
102
RTVSPost2010Prop49
280
     0
102
RTVSPost2010PropOp49
 70
     1
102
RTVSPost2010Prop50
 90
       50
102
RTVSPost2010PropOp50
 70
     1
102
RTVSPost2010Prop51ColorIndex
 90
      256
102
RTVSPost2010Prop51ColorRGB
 90
-16777216
102
RTVSPost2010PropOp51
 70
     0
102
RTVSPost2010Prop52
140
1.0
102
RTVSPost2010PropOp52
 70
     0
102
RTVSPost2010Prop53
 90
        2
102
RTVSPost2010PropOp53
 70
     1
102
RTVSPost2010Prop54
  1
strokes_ogs.tif
102
RTVSPost2010PropOp54
 70
     1
102
RTVSPost2010Prop55
280
     0
102
RTVSPost2010PropOp55
 70
     1
102
RTVSPost2010Prop56
140
1.0
102
RTVSPost2010PropOp56
 70
     1
102
RTVSPost2010Prop57
140
1.0
102
RTVSPost2010PropOp57
 70
     1
  0
XRECORD
  5
526
102
{ACAD_REACTORS
330
525
102
}
330
525
100
AcDbXrecord
280
     1
102
RTVSPost2010Prop28
280
     0
102
RTVSPost2010PropOp28
 70
     1
102
RTVSPost2010Prop29
280
     1
102
RTVSPost2010PropOp29
 70
     1
102
RTVSPost2010Prop30
280
     1
102
RTVSPost2010PropOp30
 70
     1
102
RTVSPost2010Prop31
280
     0
102
RTVSPost2010PropOp31
 70
     1
102
RTVSPost2010Prop32
280
     0
102
RTVSPost2010PropOp32
 70
     1
102
RTVSPost2010Prop33
280
     0
102
RTVSPost2010PropOp33
 70
     1
102
RTVSPost2010Prop34
280
     0
102
RTVSPost2010PropOp34
 70
     1
102
RTVSPost2010Prop35
280
     0
102
RTVSPost2010PropOp35
 70
     1
102
RTVSPost2010Prop36
280
     0
102
RTVSPost2010PropOp36
 70
     1
102
RTVSPost2010Prop37
 90
       50
102
RTVSPost2010PropOp37
 70
     1
102
RTVSPost2010Prop38
140
0.0
102
RTVSPost2010PropOp38
 70
     1
102
RTVSPost2010Prop39
140
1.0
102
RTVSPost2010PropOp39
 70
     1
102
RTVSPost2010Prop40
 90
        0
102
RTVSPost2010PropOp40
 70
     1
102
RTVSPost2010Prop41ColorIndex
 90
       18
102
RTVSPost2010Prop41ColorRGB
 90
        0
102
RTVSPost2010PropOp41
 70
     1
102
RTVSPost2010Prop42
 90
       50
102
RTVSPost2010PropOp42
 70
     1
102
RTVSPost2010Prop43
 90
        3
102
RTVSPost2010PropOp43
 70
     1
102
RTVSPost2010Prop44ColorIndex
 90
        5
102
RTVSPost2010Prop44ColorRGB
 90
      255
102
RTVSPost2010PropOp44
 70
     1
102
RTVSPost2010Prop45
280
     0
102
RTVSPost2010PropOp45
 70
     1
102
RTVSPost2010Prop46
 90
       50
102
RTVSPost2010PropOp46
 70
     1
102
RTVSPost2010Prop47
 90
       50
102
RTVSPost2010PropOp47
 70
     1
102
RTVSPost2010Prop48
 90
       50
102
RTVSPost2010PropOp48
 70
     1
102
RTVSPost2010Prop49
280
     0
102
RTVSPost2010PropOp49
 70
     1
102
RTVSPost2010Prop50
 90
       50
102
RTVSPost2010PropOp50
 70
     1
102
RTVSPost2010Prop51ColorIndex
 90
      256
102
RTVSPost2010Prop51ColorRGB
 90
-16777216
102
RTVSPost2010PropOp51
 70
     0
102
RTVSPost2010Prop52
140
1.0
102
RTVSPost2010PropOp52
 70
     0
102
RTVSPost2010Prop53
 90
        2
102
RTVSPost2010PropOp53
 70
     1
102
RTVSPost2010Prop54
  1
strokes_ogs.tif
102
RTVSPost2010PropOp54
 70
     1
102
RTVSPost2010Prop55
280
     0
102
RTVSPost2010PropOp55
 70
     1
102
RTVSPost2010Prop56
140
1.0
102
RTVSPost2010PropOp56
 70
     1
102
RTVSPost2010Prop57
140
1.0
102
RTVSPost2010PropOp57
 70
     1
  0
XRECORD
  5
518
102
{ACAD_REACTORS
330
517
102
}
330
517
100
AcDbXrecord
280
     1
102
RTVSPost2010Prop28
280
     0
102
RTVSPost2010PropOp28
 70
     1
102
RTVSPost2010Prop29
280
     1
102
RTVSPost2010PropOp29
 70
     1
102
RTVSPost2010Prop30
280
     1
102
RTVSPost2010PropOp30
 70
     1
102
RTVSPost2010Prop31
280
     0
102
RTVSPost2010PropOp31
 70
     1
102
RTVSPost2010Prop32
280
     0
102
RTVSPost2010PropOp32
 70
     1
102
RTVSPost2010Prop33
280
     0
102
RTVSPost2010PropOp33
 70
     1
102
RTVSPost2010Prop34
280
     0
102
RTVSPost2010PropOp34
 70
     1
102
RTVSPost2010Prop35
280
     0
102
RTVSPost2010PropOp35
 70
     1
102
RTVSPost2010Prop36
280
     0
102
RTVSPost2010PropOp36
 70
     1
102
RTVSPost2010Prop37
 90
       50
102
RTVSPost2010PropOp37
 70
     1
102
RTVSPost2010Prop38
140
0.0
102
RTVSPost2010PropOp38
 70
     1
102
RTVSPost2010Prop39
140
1.0
102
RTVSPost2010PropOp39
 70
     1
102
RTVSPost2010Prop40
 90
        0
102
RTVSPost2010PropOp40
 70
     1
102
RTVSPost2010Prop41ColorIndex
 90
       18
102
RTVSPost2010Prop41ColorRGB
 90
        0
102
RTVSPost2010PropOp41
 70
     1
102
RTVSPost2010Prop42
 90
       50
102
RTVSPost2010PropOp42
 70
     1
102
RTVSPost2010Prop43
 90
        3
102
RTVSPost2010PropOp43
 70
     1
102
RTVSPost2010Prop44ColorIndex
 90
        5
102
RTVSPost2010Prop44ColorRGB
 90
      255
102
RTVSPost2010PropOp44
 70
     1
102
RTVSPost2010Prop45
280
     0
102
RTVSPost2010PropOp45
 70
     1
102
RTVSPost2010Prop46
 90
       50
102
RTVSPost2010PropOp46
 70
     1
102
RTVSPost2010Prop47
 90
       50
102
RTVSPost2010PropOp47
 70
     1
102
RTVSPost2010Prop48
 90
       50
102
RTVSPost2010PropOp48
 70
     1
102
RTVSPost2010Prop49
280
     0
102
RTVSPost2010PropOp49
 70
     1
102
RTVSPost2010Prop50
 90
       50
102
RTVSPost2010PropOp50
 70
     1
102
RTVSPost2010Prop51ColorIndex
 90
      256
102
RTVSPost2010Prop51ColorRGB
 90
-16777216
102
RTVSPost2010PropOp51
 70
     0
102
RTVSPost2010Prop52
140
1.0
102
RTVSPost2010PropOp52
 70
     0
102
RTVSPost2010Prop53
 90
        2
102
RTVSPost2010PropOp53
 70
     1
102
RTVSPost2010Prop54
  1
strokes_ogs.tif
102
RTVSPost2010PropOp54
 70
     1
102
RTVSPost2010Prop55
280
     0
102
RTVSPost2010PropOp55
 70
     1
102
RTVSPost2010Prop56
140
1.0
102
RTVSPost2010PropOp56
 70
     1
102
RTVSPost2010Prop57
140
1.0
102
RTVSPost2010PropOp57
 70
     1
  0
XRECORD
  5
51C
102
{ACAD_REACTORS
330
51B
102
}
330
51B
100
AcDbXrecord
280
     1
102
RTVSPost2010Prop28
280
     0
102
RTVSPost2010PropOp28
 70
     1
102
RTVSPost2010Prop29
280
     1
102
RTVSPost2010PropOp29
 70
     1
102
RTVSPost2010Prop30
280
     1
102
RTVSPost2010PropOp30
 70
     1
102
RTVSPost2010Prop31
280
     0
102
RTVSPost2010PropOp31
 70
     1
102
RTVSPost2010Prop32
280
     0
102
RTVSPost2010PropOp32
 70
     1
102
RTVSPost2010Prop33
280
     0
102
RTVSPost2010PropOp33
 70
     1
102
RTVSPost2010Prop34
280
     0
102
RTVSPost2010PropOp34
 70
     1
102
RTVSPost2010Prop35
280
     0
102
RTVSPost2010PropOp35
 70
     1
102
RTVSPost2010Prop36
280
     0
102
RTVSPost2010PropOp36
 70
     1
102
RTVSPost2010Prop37
 90
       50
102
RTVSPost2010PropOp37
 70
     1
102
RTVSPost2010Prop38
140
0.0
102
RTVSPost2010PropOp38
 70
     1
102
RTVSPost2010Prop39
140
1.0
102
RTVSPost2010PropOp39
 70
     1
102
RTVSPost2010Prop40
 90
        0
102
RTVSPost2010PropOp40
 70
     1
102
RTVSPost2010Prop41ColorIndex
 90
       18
102
RTVSPost2010Prop41ColorRGB
 90
        0
102
RTVSPost2010PropOp41
 70
     1
102
RTVSPost2010Prop42
 90
       50
102
RTVSPost2010PropOp42
 70
     1
102
RTVSPost2010Prop43
 90
        3
102
RTVSPost2010PropOp43
 70
     1
102
RTVSPost2010Prop44ColorIndex
 90
        5
102
RTVSPost2010Prop44ColorRGB
 90
      255
102
RTVSPost2010PropOp44
 70
     1
102
RTVSPost2010Prop45
280
     0
102
RTVSPost2010PropOp45
 70
     1
102
RTVSPost2010Prop46
 90
       50
102
RTVSPost2010PropOp46
 70
     1
102
RTVSPost2010Prop47
 90
       50
102
RTVSPost2010PropOp47
 70
     1
102
RTVSPost2010Prop48
 90
       50
102
RTVSPost2010PropOp48
 70
     1
102
RTVSPost2010Prop49
280
     0
102
RTVSPost2010PropOp49
 70
     1
102
RTVSPost2010Prop50
 90
       50
102
RTVSPost2010PropOp50
 70
     1
102
RTVSPost2010Prop51ColorIndex
 90
      256
102
RTVSPost2010Prop51ColorRGB
 90
-16777216
102
RTVSPost2010PropOp51
 70
     0
102
RTVSPost2010Prop52
140
1.0
102
RTVSPost2010PropOp52
 70
     0
102
RTVSPost2010Prop53
 90
        2
102
RTVSPost2010PropOp53
 70
     1
102
RTVSPost2010Prop54
  1
strokes_ogs.tif
102
RTVSPost2010PropOp54
 70
     1
102
RTVSPost2010Prop55
280
     0
102
RTVSPost2010PropOp55
 70
     1
102
RTVSPost2010Prop56
140
1.0
102
RTVSPost2010PropOp56
 70
     1
102
RTVSPost2010Prop57
140
1.0
102
RTVSPost2010PropOp57
 70
     1
  0
XRECORD
  5
536
102
{ACAD_REACTORS
330
535
102
}
330
535
100
AcDbXrecord
280
     1
102
RTVSPost2010Prop28
280
     0
102
RTVSPost2010PropOp28
 70
     0
102
RTVSPost2010Prop29
280
     1
102
RTVSPost2010PropOp29
 70
     0
102
RTVSPost2010Prop30
280
     1
102
RTVSPost2010PropOp30
 70
     0
102
RTVSPost2010Prop31
280
     0
102
RTVSPost2010PropOp31
 70
     0
102
RTVSPost2010Prop32
280
     0
102
RTVSPost2010PropOp32
 70
     0
102
RTVSPost2010Prop33
280
     0
102
RTVSPost2010PropOp33
 70
     0
102
RTVSPost2010Prop34
280
     0
102
RTVSPost2010PropOp34
 70
     0
102
RTVSPost2010Prop35
280
     0
102
RTVSPost2010PropOp35
 70
     0
102
RTVSPost2010Prop36
280
     0
102
RTVSPost2010PropOp36
 70
     0
102
RTVSPost2010Prop37
 90
       50
102
RTVSPost2010PropOp37
 70
     0
102
RTVSPost2010Prop38
140
0.0
102
RTVSPost2010PropOp38
 70
     0
102
RTVSPost2010Prop39
140
1.0
102
RTVSPost2010PropOp39
 70
     0
102
RTVSPost2010Prop40
 90
        0
102
RTVSPost2010PropOp40
 70
     0
102
RTVSPost2010Prop41ColorIndex
 90
       18
102
RTVSPost2010Prop41ColorRGB
 90
        0
102
RTVSPost2010PropOp41
 70
     0
102
RTVSPost2010Prop42
 90
       50
102
RTVSPost2010PropOp42
 70
     0
102
RTVSPost2010Prop43
 90
        3
102
RTVSPost2010PropOp43
 70
     0
102
RTVSPost2010Prop44ColorIndex
 90
        5
102
RTVSPost2010Prop44ColorRGB
 90
      255
102
RTVSPost2010PropOp44
 70
     0
102
RTVSPost2010Prop45
280
     0
102
RTVSPost2010PropOp45
 70
     0
102
RTVSPost2010Prop46
 90
       50
102
RTVSPost2010PropOp46
 70
     0
102
RTVSPost2010Prop47
 90
       50
102
RTVSPost2010PropOp47
 70
     0
102
RTVSPost2010Prop48
 90
       50
102
RTVSPost2010PropOp48
 70
     0
102
RTVSPost2010Prop49
280
     0
102
RTVSPost2010PropOp49
 70
     0
102
RTVSPost2010Prop50
 90
       50
102
RTVSPost2010PropOp50
 70
     0
102
RTVSPost2010Prop51ColorIndex
 90
      256
102
RTVSPost2010Prop51ColorRGB
 90
-16777216
102
RTVSPost2010PropOp51
 70
     0
102
RTVSPost2010Prop52
140
1.0
102
RTVSPost2010PropOp52
 70
     0
102
RTVSPost2010Prop53
 90
        2
102
RTVSPost2010PropOp53
 70
     0
102
RTVSPost2010Prop54
  1
strokes_ogs.tif
102
RTVSPost2010PropOp54
 70
     0
102
RTVSPost2010Prop55
280
     0
102
RTVSPost2010PropOp55
 70
     0
102
RTVSPost2010Prop56
140
1.0
102
RTVSPost2010PropOp56
 70
     0
102
RTVSPost2010Prop57
140
1.0
102
RTVSPost2010PropOp57
 70
     0
  0
XRECORD
  5
524
102
{ACAD_REACTORS
330
523
102
}
330
523
100
AcDbXrecord
280
     1
102
RTVSPost2010Prop28
280
     0
102
RTVSPost2010PropOp28
 70
     1
102
RTVSPost2010Prop29
280
     1
102
RTVSPost2010PropOp29
 70
     1
102
RTVSPost2010Prop30
280
     1
102
RTVSPost2010PropOp30
 70
     1
102
RTVSPost2010Prop31
280
     0
102
RTVSPost2010PropOp31
 70
     1
102
RTVSPost2010Prop32
280
     0
102
RTVSPost2010PropOp32
 70
     1
102
RTVSPost2010Prop33
280
     0
102
RTVSPost2010PropOp33
 70
     1
102
RTVSPost2010Prop34
280
     0
102
RTVSPost2010PropOp34
 70
     1
102
RTVSPost2010Prop35
280
     0
102
RTVSPost2010PropOp35
 70
     1
102
RTVSPost2010Prop36
280
     0
102
RTVSPost2010PropOp36
 70
     1
102
RTVSPost2010Prop37
 90
       50
102
RTVSPost2010PropOp37
 70
     1
102
RTVSPost2010Prop38
140
0.0
102
RTVSPost2010PropOp38
 70
     1
102
RTVSPost2010Prop39
140
1.0
102
RTVSPost2010PropOp39
 70
     1
102
RTVSPost2010Prop40
 90
        0
102
RTVSPost2010PropOp40
 70
     1
102
RTVSPost2010Prop41ColorIndex
 90
       18
102
RTVSPost2010Prop41ColorRGB
 90
        0
102
RTVSPost2010PropOp41
 70
     1
102
RTVSPost2010Prop42
 90
       50
102
RTVSPost2010PropOp42
 70
     1
102
RTVSPost2010Prop43
 90
        3
102
RTVSPost2010PropOp43
 70
     1
102
RTVSPost2010Prop44ColorIndex
 90
        5
102
RTVSPost2010Prop44ColorRGB
 90
      255
102
RTVSPost2010PropOp44
 70
     1
102
RTVSPost2010Prop45
280
     0
102
RTVSPost2010PropOp45
 70
     1
102
RTVSPost2010Prop46
 90
       50
102
RTVSPost2010PropOp46
 70
     1
102
RTVSPost2010Prop47
 90
       50
102
RTVSPost2010PropOp47
 70
     1
102
RTVSPost2010Prop48
 90
       50
102
RTVSPost2010PropOp48
 70
     1
102
RTVSPost2010Prop49
280
     0
102
RTVSPost2010PropOp49
 70
     1
102
RTVSPost2010Prop50
 90
       50
102
RTVSPost2010PropOp50
 70
     1
102
RTVSPost2010Prop51ColorIndex
 90
      256
102
RTVSPost2010Prop51ColorRGB
 90
-16777216
102
RTVSPost2010PropOp51
 70
     0
102
RTVSPost2010Prop52
140
1.0
102
RTVSPost2010PropOp52
 70
     0
102
RTVSPost2010Prop53
 90
        2
102
RTVSPost2010PropOp53
 70
     1
102
RTVSPost2010Prop54
  1
strokes_ogs.tif
102
RTVSPost2010PropOp54
 70
     1
102
RTVSPost2010Prop55
280
     0
102
RTVSPost2010PropOp55
 70
     1
102
RTVSPost2010Prop56
140
1.0
102
RTVSPost2010PropOp56
 70
     1
102
RTVSPost2010Prop57
140
1.0
102
RTVSPost2010PropOp57
 70
     1
  0
XRECORD
  5
508
102
{ACAD_REACTORS
330
507
102
}
330
507
100
AcDbXrecord
280
     1
102
RTVSPost2010Prop28
280
     0
102
RTVSPost2010PropOp28
 70
     1
102
RTVSPost2010Prop29
280
     1
102
RTVSPost2010PropOp29
 70
     1
102
RTVSPost2010Prop30
280
     1
102
RTVSPost2010PropOp30
 70
     1
102
RTVSPost2010Prop31
280
     0
102
RTVSPost2010PropOp31
 70
     1
102
RTVSPost2010Prop32
280
     0
102
RTVSPost2010PropOp32
 70
     1
102
RTVSPost2010Prop33
280
     0
102
RTVSPost2010PropOp33
 70
     1
102
RTVSPost2010Prop34
280
     0
102
RTVSPost2010PropOp34
 70
     1
102
RTVSPost2010Prop35
280
     0
102
RTVSPost2010PropOp35
 70
     1
102
RTVSPost2010Prop36
280
     0
102
RTVSPost2010PropOp36
 70
     1
102
RTVSPost2010Prop37
 90
       50
102
RTVSPost2010PropOp37
 70
     1
102
RTVSPost2010Prop38
140
0.0
102
RTVSPost2010PropOp38
 70
     1
102
RTVSPost2010Prop39
140
1.0
102
RTVSPost2010PropOp39
 70
     1
102
RTVSPost2010Prop40
 90
        0
102
RTVSPost2010PropOp40
 70
     1
102
RTVSPost2010Prop41ColorIndex
 90
       18
102
RTVSPost2010Prop41ColorRGB
 90
        0
102
RTVSPost2010PropOp41
 70
     1
102
RTVSPost2010Prop42
 90
       50
102
RTVSPost2010PropOp42
 70
     1
102
RTVSPost2010Prop43
 90
        3
102
RTVSPost2010PropOp43
 70
     1
102
RTVSPost2010Prop44ColorIndex
 90
        5
102
RTVSPost2010Prop44ColorRGB
 90
      255
102
RTVSPost2010PropOp44
 70
     1
102
RTVSPost2010Prop45
280
     0
102
RTVSPost2010PropOp45
 70
     1
102
RTVSPost2010Prop46
 90
       50
102
RTVSPost2010PropOp46
 70
     1
102
RTVSPost2010Prop47
 90
       50
102
RTVSPost2010PropOp47
 70
     1
102
RTVSPost2010Prop48
 90
       50
102
RTVSPost2010PropOp48
 70
     1
102
RTVSPost2010Prop49
280
     0
102
RTVSPost2010PropOp49
 70
     1
102
RTVSPost2010Prop50
 90
       50
102
RTVSPost2010PropOp50
 70
     1
102
RTVSPost2010Prop51ColorIndex
 90
      256
102
RTVSPost2010Prop51ColorRGB
 90
-16777216
102
RTVSPost2010PropOp51
 70
     0
102
RTVSPost2010Prop52
140
1.0
102
RTVSPost2010PropOp52
 70
     0
102
RTVSPost2010Prop53
 90
        2
102
RTVSPost2010PropOp53
 70
     1
102
RTVSPost2010Prop54
  1
strokes_ogs.tif
102
RTVSPost2010PropOp54
 70
     1
102
RTVSPost2010Prop55
280
     0
102
RTVSPost2010PropOp55
 70
     1
102
RTVSPost2010Prop56
140
1.0
102
RTVSPost2010PropOp56
 70
     1
102
RTVSPost2010Prop57
140
1.0
102
RTVSPost2010PropOp57
 70
     1
  0
XRECORD
  5
50A
102
{ACAD_REACTORS
330
509
102
}
330
509
100
AcDbXrecord
280
     1
102
RTVSPost2010Prop28
280
     0
102
RTVSPost2010PropOp28
 70
     1
102
RTVSPost2010Prop29
280
     1
102
RTVSPost2010PropOp29
 70
     1
102
RTVSPost2010Prop30
280
     1
102
RTVSPost2010PropOp30
 70
     1
102
RTVSPost2010Prop31
280
     0
102
RTVSPost2010PropOp31
 70
     1
102
RTVSPost2010Prop32
280
     0
102
RTVSPost2010PropOp32
 70
     1
102
RTVSPost2010Prop33
280
     0
102
RTVSPost2010PropOp33
 70
     1
102
RTVSPost2010Prop34
280
     0
102
RTVSPost2010PropOp34
 70
     1
102
RTVSPost2010Prop35
280
     0
102
RTVSPost2010PropOp35
 70
     1
102
RTVSPost2010Prop36
280
     0
102
RTVSPost2010PropOp36
 70
     1
102
RTVSPost2010Prop37
 90
       50
102
RTVSPost2010PropOp37
 70
     1
102
RTVSPost2010Prop38
140
0.0
102
RTVSPost2010PropOp38
 70
     1
102
RTVSPost2010Prop39
140
1.0
102
RTVSPost2010PropOp39
 70
     1
102
RTVSPost2010Prop40
 90
        0
102
RTVSPost2010PropOp40
 70
     1
102
RTVSPost2010Prop41ColorIndex
 90
       18
102
RTVSPost2010Prop41ColorRGB
 90
        0
102
RTVSPost2010PropOp41
 70
     1
102
RTVSPost2010Prop42
 90
       50
102
RTVSPost2010PropOp42
 70
     1
102
RTVSPost2010Prop43
 90
        3
102
RTVSPost2010PropOp43
 70
     1
102
RTVSPost2010Prop44ColorIndex
 90
        5
102
RTVSPost2010Prop44ColorRGB
 90
      255
102
RTVSPost2010PropOp44
 70
     1
102
RTVSPost2010Prop45
280
     0
102
RTVSPost2010PropOp45
 70
     1
102
RTVSPost2010Prop46
 90
       50
102
RTVSPost2010PropOp46
 70
     1
102
RTVSPost2010Prop47
 90
       50
102
RTVSPost2010PropOp47
 70
     1
102
RTVSPost2010Prop48
 90
       50
102
RTVSPost2010PropOp48
 70
     1
102
RTVSPost2010Prop49
280
     0
102
RTVSPost2010PropOp49
 70
     1
102
RTVSPost2010Prop50
 90
       50
102
RTVSPost2010PropOp50
 70
     1
102
RTVSPost2010Prop51ColorIndex
 90
      256
102
RTVSPost2010Prop51ColorRGB
 90
-16777216
102
RTVSPost2010PropOp51
 70
     0
102
RTVSPost2010Prop52
140
1.0
102
RTVSPost2010PropOp52
 70
     0
102
RTVSPost2010Prop53
 90
        2
102
RTVSPost2010PropOp53
 70
     1
102
RTVSPost2010Prop54
  1
strokes_ogs.tif
102
RTVSPost2010PropOp54
 70
     1
102
RTVSPost2010Prop55
280
     0
102
RTVSPost2010PropOp55
 70
     1
102
RTVSPost2010Prop56
140
1.0
102
RTVSPost2010PropOp56
 70
     1
102
RTVSPost2010Prop57
140
1.0
102
RTVSPost2010PropOp57
 70
     1
  0
XRECORD
  5
50C
102
{ACAD_REACTORS
330
50B
102
}
330
50B
100
AcDbXrecord
280
     1
102
RTVSPost2010Prop28
280
     0
102
RTVSPost2010PropOp28
 70
     1
102
RTVSPost2010Prop29
280
     1
102
RTVSPost2010PropOp29
 70
     1
102
RTVSPost2010Prop30
280
     1
102
RTVSPost2010PropOp30
 70
     1
102
RTVSPost2010Prop31
280
     0
102
RTVSPost2010PropOp31
 70
     1
102
RTVSPost2010Prop32
280
     0
102
RTVSPost2010PropOp32
 70
     1
102
RTVSPost2010Prop33
280
     0
102
RTVSPost2010PropOp33
 70
     1
102
RTVSPost2010Prop34
280
     0
102
RTVSPost2010PropOp34
 70
     1
102
RTVSPost2010Prop35
280
     0
102
RTVSPost2010PropOp35
 70
     1
102
RTVSPost2010Prop36
280
     0
102
RTVSPost2010PropOp36
 70
     1
102
RTVSPost2010Prop37
 90
       50
102
RTVSPost2010PropOp37
 70
     1
102
RTVSPost2010Prop38
140
0.0
102
RTVSPost2010PropOp38
 70
     1
102
RTVSPost2010Prop39
140
1.0
102
RTVSPost2010PropOp39
 70
     1
102
RTVSPost2010Prop40
 90
        0
102
RTVSPost2010PropOp40
 70
     1
102
RTVSPost2010Prop41ColorIndex
 90
       18
102
RTVSPost2010Prop41ColorRGB
 90
        0
102
RTVSPost2010PropOp41
 70
     1
102
RTVSPost2010Prop42
 90
       50
102
RTVSPost2010PropOp42
 70
     1
102
RTVSPost2010Prop43
 90
        3
102
RTVSPost2010PropOp43
 70
     1
102
RTVSPost2010Prop44ColorIndex
 90
        5
102
RTVSPost2010Prop44ColorRGB
 90
      255
102
RTVSPost2010PropOp44
 70
     1
102
RTVSPost2010Prop45
280
     0
102
RTVSPost2010PropOp45
 70
     1
102
RTVSPost2010Prop46
 90
       50
102
RTVSPost2010PropOp46
 70
     1
102
RTVSPost2010Prop47
 90
       50
102
RTVSPost2010PropOp47
 70
     1
102
RTVSPost2010Prop48
 90
       50
102
RTVSPost2010PropOp48
 70
     1
102
RTVSPost2010Prop49
280
     0
102
RTVSPost2010PropOp49
 70
     1
102
RTVSPost2010Prop50
 90
       50
102
RTVSPost2010PropOp50
 70
     1
102
RTVSPost2010Prop51ColorIndex
 90
      256
102
RTVSPost2010Prop51ColorRGB
 90
-16777216
102
RTVSPost2010PropOp51
 70
     0
102
RTVSPost2010Prop52
140
1.0
102
RTVSPost2010PropOp52
 70
     0
102
RTVSPost2010Prop53
 90
        2
102
RTVSPost2010PropOp53
 70
     1
102
RTVSPost2010Prop54
  1
strokes_ogs.tif
102
RTVSPost2010PropOp54
 70
     1
102
RTVSPost2010Prop55
280
     0
102
RTVSPost2010PropOp55
 70
     1
102
RTVSPost2010Prop56
140
1.0
102
RTVSPost2010PropOp56
 70
     1
102
RTVSPost2010Prop57
140
1.0
102
RTVSPost2010PropOp57
 70
     1
  0
XRECORD
  5
50E
102
{ACAD_REACTORS
330
50D
102
}
330
50D
100
AcDbXrecord
280
     1
102
RTVSPost2010Prop28
280
     0
102
RTVSPost2010PropOp28
 70
     1
102
RTVSPost2010Prop29
280
     1
102
RTVSPost2010PropOp29
 70
     1
102
RTVSPost2010Prop30
280
     1
102
RTVSPost2010PropOp30
 70
     1
102
RTVSPost2010Prop31
280
     0
102
RTVSPost2010PropOp31
 70
     1
102
RTVSPost2010Prop32
280
     0
102
RTVSPost2010PropOp32
 70
     1
102
RTVSPost2010Prop33
280
     0
102
RTVSPost2010PropOp33
 70
     1
102
RTVSPost2010Prop34
280
     0
102
RTVSPost2010PropOp34
 70
     1
102
RTVSPost2010Prop35
280
     0
102
RTVSPost2010PropOp35
 70
     1
102
RTVSPost2010Prop36
280
     0
102
RTVSPost2010PropOp36
 70
     1
102
RTVSPost2010Prop37
 90
       50
102
RTVSPost2010PropOp37
 70
     1
102
RTVSPost2010Prop38
140
0.0
102
RTVSPost2010PropOp38
 70
     1
102
RTVSPost2010Prop39
140
1.0
102
RTVSPost2010PropOp39
 70
     1
102
RTVSPost2010Prop40
 90
        0
102
RTVSPost2010PropOp40
 70
     1
102
RTVSPost2010Prop41ColorIndex
 90
       18
102
RTVSPost2010Prop41ColorRGB
 90
        0
102
RTVSPost2010PropOp41
 70
     1
102
RTVSPost2010Prop42
 90
       50
102
RTVSPost2010PropOp42
 70
     1
102
RTVSPost2010Prop43
 90
        3
102
RTVSPost2010PropOp43
 70
     1
102
RTVSPost2010Prop44ColorIndex
 90
        5
102
RTVSPost2010Prop44ColorRGB
 90
      255
102
RTVSPost2010PropOp44
 70
     1
102
RTVSPost2010Prop45
280
     0
102
RTVSPost2010PropOp45
 70
     1
102
RTVSPost2010Prop46
 90
       50
102
RTVSPost2010PropOp46
 70
     1
102
RTVSPost2010Prop47
 90
       50
102
RTVSPost2010PropOp47
 70
     1
102
RTVSPost2010Prop48
 90
       50
102
RTVSPost2010PropOp48
 70
     1
102
RTVSPost2010Prop49
280
     0
102
RTVSPost2010PropOp49
 70
     1
102
RTVSPost2010Prop50
 90
       50
102
RTVSPost2010PropOp50
 70
     1
102
RTVSPost2010Prop51ColorIndex
 90
      256
102
RTVSPost2010Prop51ColorRGB
 90
-16777216
102
RTVSPost2010PropOp51
 70
     0
102
RTVSPost2010Prop52
140
1.0
102
RTVSPost2010PropOp52
 70
     0
102
RTVSPost2010Prop53
 90
        2
102
RTVSPost2010PropOp53
 70
     1
102
RTVSPost2010Prop54
  1
strokes_ogs.tif
102
RTVSPost2010PropOp54
 70
     1
102
RTVSPost2010Prop55
280
     0
102
RTVSPost2010PropOp55
 70
     1
102
RTVSPost2010Prop56
140
1.0
102
RTVSPost2010PropOp56
 70
     1
102
RTVSPost2010Prop57
140
1.0
102
RTVSPost2010PropOp57
 70
     1
  0
XRECORD
  5
516
102
{ACAD_REACTORS
330
515
102
}
330
515
100
AcDbXrecord
280
     1
102
RTVSPost2010Prop28
280
     0
102
RTVSPost2010PropOp28
 70
     1
102
RTVSPost2010Prop29
280
     1
102
RTVSPost2010PropOp29
 70
     1
102
RTVSPost2010Prop30
280
     1
102
RTVSPost2010PropOp30
 70
     1
102
RTVSPost2010Prop31
280
     0
102
RTVSPost2010PropOp31
 70
     1
102
RTVSPost2010Prop32
280
     0
102
RTVSPost2010PropOp32
 70
     1
102
RTVSPost2010Prop33
280
     0
102
RTVSPost2010PropOp33
 70
     1
102
RTVSPost2010Prop34
280
     0
102
RTVSPost2010PropOp34
 70
     1
102
RTVSPost2010Prop35
280
     0
102
RTVSPost2010PropOp35
 70
     1
102
RTVSPost2010Prop36
280
     0
102
RTVSPost2010PropOp36
 70
     1
102
RTVSPost2010Prop37
 90
       50
102
RTVSPost2010PropOp37
 70
     1
102
RTVSPost2010Prop38
140
0.0
102
RTVSPost2010PropOp38
 70
     1
102
RTVSPost2010Prop39
140
1.0
102
RTVSPost2010PropOp39
 70
     1
102
RTVSPost2010Prop40
 90
        0
102
RTVSPost2010PropOp40
 70
     1
102
RTVSPost2010Prop41ColorIndex
 90
       18
102
RTVSPost2010Prop41ColorRGB
 90
        0
102
RTVSPost2010PropOp41
 70
     1
102
RTVSPost2010Prop42
 90
       50
102
RTVSPost2010PropOp42
 70
     1
102
RTVSPost2010Prop43
 90
        3
102
RTVSPost2010PropOp43
 70
     1
102
RTVSPost2010Prop44ColorIndex
 90
        5
102
RTVSPost2010Prop44ColorRGB
 90
      255
102
RTVSPost2010PropOp44
 70
     1
102
RTVSPost2010Prop45
280
     0
102
RTVSPost2010PropOp45
 70
     1
102
RTVSPost2010Prop46
 90
       50
102
RTVSPost2010PropOp46
 70
     1
102
RTVSPost2010Prop47
 90
       50
102
RTVSPost2010PropOp47
 70
     1
102
RTVSPost2010Prop48
 90
       50
102
RTVSPost2010PropOp48
 70
     1
102
RTVSPost2010Prop49
280
     0
102
RTVSPost2010PropOp49
 70
     1
102
RTVSPost2010Prop50
 90
       50
102
RTVSPost2010PropOp50
 70
     1
102
RTVSPost2010Prop51ColorIndex
 90
      256
102
RTVSPost2010Prop51ColorRGB
 90
-16777216
102
RTVSPost2010PropOp51
 70
     0
102
RTVSPost2010Prop52
140
1.0
102
RTVSPost2010PropOp52
 70
     0
102
RTVSPost2010Prop53
 90
        2
102
RTVSPost2010PropOp53
 70
     1
102
RTVSPost2010Prop54
  1
strokes_ogs.tif
102
RTVSPost2010PropOp54
 70
     1
102
RTVSPost2010Prop55
280
     0
102
RTVSPost2010PropOp55
 70
     1
102
RTVSPost2010Prop56
140
1.0
102
RTVSPost2010PropOp56
 70
     1
102
RTVSPost2010Prop57
140
1.0
102
RTVSPost2010PropOp57
 70
     1
  0
XRECORD
  5
532
102
{ACAD_REACTORS
330
531
102
}
330
531
100
AcDbXrecord
280
     1
102
RTVSPost2010Prop28
280
     0
102
RTVSPost2010PropOp28
 70
     0
102
RTVSPost2010Prop29
280
     1
102
RTVSPost2010PropOp29
 70
     0
102
RTVSPost2010Prop30
280
     1
102
RTVSPost2010PropOp30
 70
     0
102
RTVSPost2010Prop31
280
     0
102
RTVSPost2010PropOp31
 70
     0
102
RTVSPost2010Prop32
280
     0
102
RTVSPost2010PropOp32
 70
     0
102
RTVSPost2010Prop33
280
     0
102
RTVSPost2010PropOp33
 70
     0
102
RTVSPost2010Prop34
280
     0
102
RTVSPost2010PropOp34
 70
     0
102
RTVSPost2010Prop35
280
     0
102
RTVSPost2010PropOp35
 70
     0
102
RTVSPost2010Prop36
280
     0
102
RTVSPost2010PropOp36
 70
     0
102
RTVSPost2010Prop37
 90
       50
102
RTVSPost2010PropOp37
 70
     0
102
RTVSPost2010Prop38
140
0.0
102
RTVSPost2010PropOp38
 70
     0
102
RTVSPost2010Prop39
140
1.0
102
RTVSPost2010PropOp39
 70
     0
102
RTVSPost2010Prop40
 90
        0
102
RTVSPost2010PropOp40
 70
     0
102
RTVSPost2010Prop41ColorIndex
 90
       18
102
RTVSPost2010Prop41ColorRGB
 90
        0
102
RTVSPost2010PropOp41
 70
     0
102
RTVSPost2010Prop42
 90
       50
102
RTVSPost2010PropOp42
 70
     0
102
RTVSPost2010Prop43
 90
        3
102
RTVSPost2010PropOp43
 70
     0
102
RTVSPost2010Prop44ColorIndex
 90
        5
102
RTVSPost2010Prop44ColorRGB
 90
      255
102
RTVSPost2010PropOp44
 70
     0
102
RTVSPost2010Prop45
280
     0
102
RTVSPost2010PropOp45
 70
     0
102
RTVSPost2010Prop46
 90
       50
102
RTVSPost2010PropOp46
 70
     0
102
RTVSPost2010Prop47
 90
       50
102
RTVSPost2010PropOp47
 70
     0
102
RTVSPost2010Prop48
 90
       50
102
RTVSPost2010PropOp48
 70
     0
102
RTVSPost2010Prop49
280
     0
102
RTVSPost2010PropOp49
 70
     0
102
RTVSPost2010Prop50
 90
       50
102
RTVSPost2010PropOp50
 70
     0
102
RTVSPost2010Prop51ColorIndex
 90
      256
102
RTVSPost2010Prop51ColorRGB
 90
-16777216
102
RTVSPost2010PropOp51
 70
     0
102
RTVSPost2010Prop52
140
1.0
102
RTVSPost2010PropOp52
 70
     0
102
RTVSPost2010Prop53
 90
        2
102
RTVSPost2010PropOp53
 70
     0
102
RTVSPost2010Prop54
  1
strokes_ogs.tif
102
RTVSPost2010PropOp54
 70
     0
102
RTVSPost2010Prop55
280
     0
102
RTVSPost2010PropOp55
 70
     0
102
RTVSPost2010Prop56
140
1.0
102
RTVSPost2010PropOp56
 70
     0
102
RTVSPost2010Prop57
140
1.0
102
RTVSPost2010PropOp57
 70
     0
  0
XRECORD
  5
522
102
{ACAD_REACTORS
330
521
102
}
330
521
100
AcDbXrecord
280
     1
102
RTVSPost2010Prop28
280
     0
102
RTVSPost2010PropOp28
 70
     1
102
RTVSPost2010Prop29
280
     1
102
RTVSPost2010PropOp29
 70
     1
102
RTVSPost2010Prop30
280
     1
102
RTVSPost2010PropOp30
 70
     1
102
RTVSPost2010Prop31
280
     0
102
RTVSPost2010PropOp31
 70
     1
102
RTVSPost2010Prop32
280
     0
102
RTVSPost2010PropOp32
 70
     1
102
RTVSPost2010Prop33
280
     0
102
RTVSPost2010PropOp33
 70
     1
102
RTVSPost2010Prop34
280
     0
102
RTVSPost2010PropOp34
 70
     1
102
RTVSPost2010Prop35
280
     0
102
RTVSPost2010PropOp35
 70
     1
102
RTVSPost2010Prop36
280
     0
102
RTVSPost2010PropOp36
 70
     1
102
RTVSPost2010Prop37
 90
       50
102
RTVSPost2010PropOp37
 70
     1
102
RTVSPost2010Prop38
140
0.0
102
RTVSPost2010PropOp38
 70
     1
102
RTVSPost2010Prop39
140
1.0
102
RTVSPost2010PropOp39
 70
     1
102
RTVSPost2010Prop40
 90
        0
102
RTVSPost2010PropOp40
 70
     1
102
RTVSPost2010Prop41ColorIndex
 90
       18
102
RTVSPost2010Prop41ColorRGB
 90
        0
102
RTVSPost2010PropOp41
 70
     1
102
RTVSPost2010Prop42
 90
       50
102
RTVSPost2010PropOp42
 70
     1
102
RTVSPost2010Prop43
 90
        3
102
RTVSPost2010PropOp43
 70
     1
102
RTVSPost2010Prop44ColorIndex
 90
        5
102
RTVSPost2010Prop44ColorRGB
 90
      255
102
RTVSPost2010PropOp44
 70
     1
102
RTVSPost2010Prop45
280
     0
102
RTVSPost2010PropOp45
 70
     1
102
RTVSPost2010Prop46
 90
       50
102
RTVSPost2010PropOp46
 70
     1
102
RTVSPost2010Prop47
 90
       50
102
RTVSPost2010PropOp47
 70
     1
102
RTVSPost2010Prop48
 90
       50
102
RTVSPost2010PropOp48
 70
     1
102
RTVSPost2010Prop49
280
     0
102
RTVSPost2010PropOp49
 70
     1
102
RTVSPost2010Prop50
 90
       50
102
RTVSPost2010PropOp50
 70
     1
102
RTVSPost2010Prop51ColorIndex
 90
      256
102
RTVSPost2010Prop51ColorRGB
 90
-16777216
102
RTVSPost2010PropOp51
 70
     0
102
RTVSPost2010Prop52
140
1.0
102
RTVSPost2010PropOp52
 70
     0
102
RTVSPost2010Prop53
 90
        2
102
RTVSPost2010PropOp53
 70
     1
102
RTVSPost2010Prop54
  1
strokes_ogs.tif
102
RTVSPost2010PropOp54
 70
     1
102
RTVSPost2010Prop55
280
     0
102
RTVSPost2010PropOp55
 70
     1
102
RTVSPost2010Prop56
140
1.0
102
RTVSPost2010PropOp56
 70
     1
102
RTVSPost2010Prop57
140
1.0
102
RTVSPost2010PropOp57
 70
     1
  0
XRECORD
  5
534
102
{ACAD_REACTORS
330
533
102
}
330
533
100
AcDbXrecord
280
     1
102
RTVSPost2010Prop28
280
     0
102
RTVSPost2010PropOp28
 70
     0
102
RTVSPost2010Prop29
280
     1
102
RTVSPost2010PropOp29
 70
     0
102
RTVSPost2010Prop30
280
     1
102
RTVSPost2010PropOp30
 70
     0
102
RTVSPost2010Prop31
280
     0
102
RTVSPost2010PropOp31
 70
     0
102
RTVSPost2010Prop32
280
     0
102
RTVSPost2010PropOp32
 70
     0
102
RTVSPost2010Prop33
280
     0
102
RTVSPost2010PropOp33
 70
     0
102
RTVSPost2010Prop34
280
     0
102
RTVSPost2010PropOp34
 70
     0
102
RTVSPost2010Prop35
280
     0
102
RTVSPost2010PropOp35
 70
     0
102
RTVSPost2010Prop36
280
     0
102
RTVSPost2010PropOp36
 70
     0
102
RTVSPost2010Prop37
 90
       50
102
RTVSPost2010PropOp37
 70
     0
102
RTVSPost2010Prop38
140
0.0
102
RTVSPost2010PropOp38
 70
     0
102
RTVSPost2010Prop39
140
1.0
102
RTVSPost2010PropOp39
 70
     0
102
RTVSPost2010Prop40
 90
        0
102
RTVSPost2010PropOp40
 70
     0
102
RTVSPost2010Prop41ColorIndex
 90
       18
102
RTVSPost2010Prop41ColorRGB
 90
        0
102
RTVSPost2010PropOp41
 70
     0
102
RTVSPost2010Prop42
 90
       50
102
RTVSPost2010PropOp42
 70
     0
102
RTVSPost2010Prop43
 90
        3
102
RTVSPost2010PropOp43
 70
     0
102
RTVSPost2010Prop44ColorIndex
 90
        5
102
RTVSPost2010Prop44ColorRGB
 90
      255
102
RTVSPost2010PropOp44
 70
     0
102
RTVSPost2010Prop45
280
     0
102
RTVSPost2010PropOp45
 70
     0
102
RTVSPost2010Prop46
 90
       50
102
RTVSPost2010PropOp46
 70
     0
102
RTVSPost2010Prop47
 90
       50
102
RTVSPost2010PropOp47
 70
     0
102
RTVSPost2010Prop48
 90
       50
102
RTVSPost2010PropOp48
 70
     0
102
RTVSPost2010Prop49
280
     0
102
RTVSPost2010PropOp49
 70
     0
102
RTVSPost2010Prop50
 90
       50
102
RTVSPost2010PropOp50
 70
     0
102
RTVSPost2010Prop51ColorIndex
 90
      256
102
RTVSPost2010Prop51ColorRGB
 90
-16777216
102
RTVSPost2010PropOp51
 70
     0
102
RTVSPost2010Prop52
140
1.0
102
RTVSPost2010PropOp52
 70
     0
102
RTVSPost2010Prop53
 90
        2
102
RTVSPost2010PropOp53
 70
     0
102
RTVSPost2010Prop54
  1
strokes_ogs.tif
102
RTVSPost2010PropOp54
 70
     0
102
RTVSPost2010Prop55
280
     0
102
RTVSPost2010PropOp55
 70
     0
102
RTVSPost2010Prop56
140
1.0
102
RTVSPost2010PropOp56
 70
     0
102
RTVSPost2010Prop57
140
1.0
102
RTVSPost2010PropOp57
 70
     0
  0
XRECORD
  5
51A
102
{ACAD_REACTORS
330
519
102
}
330
519
100
AcDbXrecord
280
     1
102
RTVSPost2010Prop28
280
     0
102
RTVSPost2010PropOp28
 70
     1
102
RTVSPost2010Prop29
280
     1
102
RTVSPost2010PropOp29
 70
     1
102
RTVSPost2010Prop30
280
     1
102
RTVSPost2010PropOp30
 70
     1
102
RTVSPost2010Prop31
280
     0
102
RTVSPost2010PropOp31
 70
     1
102
RTVSPost2010Prop32
280
     0
102
RTVSPost2010PropOp32
 70
     1
102
RTVSPost2010Prop33
280
     0
102
RTVSPost2010PropOp33
 70
     1
102
RTVSPost2010Prop34
280
     0
102
RTVSPost2010PropOp34
 70
     1
102
RTVSPost2010Prop35
280
     0
102
RTVSPost2010PropOp35
 70
     1
102
RTVSPost2010Prop36
280
     0
102
RTVSPost2010PropOp36
 70
     1
102
RTVSPost2010Prop37
 90
       50
102
RTVSPost2010PropOp37
 70
     1
102
RTVSPost2010Prop38
140
0.0
102
RTVSPost2010PropOp38
 70
     1
102
RTVSPost2010Prop39
140
1.0
102
RTVSPost2010PropOp39
 70
     1
102
RTVSPost2010Prop40
 90
        0
102
RTVSPost2010PropOp40
 70
     1
102
RTVSPost2010Prop41ColorIndex
 90
       18
102
RTVSPost2010Prop41ColorRGB
 90
        0
102
RTVSPost2010PropOp41
 70
     1
102
RTVSPost2010Prop42
 90
       50
102
RTVSPost2010PropOp42
 70
     1
102
RTVSPost2010Prop43
 90
        3
102
RTVSPost2010PropOp43
 70
     1
102
RTVSPost2010Prop44ColorIndex
 90
        5
102
RTVSPost2010Prop44ColorRGB
 90
      255
102
RTVSPost2010PropOp44
 70
     1
102
RTVSPost2010Prop45
280
     0
102
RTVSPost2010PropOp45
 70
     1
102
RTVSPost2010Prop46
 90
       50
102
RTVSPost2010PropOp46
 70
     1
102
RTVSPost2010Prop47
 90
       50
102
RTVSPost2010PropOp47
 70
     1
102
RTVSPost2010Prop48
 90
       50
102
RTVSPost2010PropOp48
 70
     1
102
RTVSPost2010Prop49
280
     0
102
RTVSPost2010PropOp49
 70
     1
102
RTVSPost2010Prop50
 90
       50
102
RTVSPost2010PropOp50
 70
     1
102
RTVSPost2010Prop51ColorIndex
 90
      256
102
RTVSPost2010Prop51ColorRGB
 90
-16777216
102
RTVSPost2010PropOp51
 70
     0
102
RTVSPost2010Prop52
140
1.0
102
RTVSPost2010PropOp52
 70
     0
102
RTVSPost2010Prop53
 90
        2
102
RTVSPost2010PropOp53
 70
     1
102
RTVSPost2010Prop54
  1
strokes_ogs.tif
102
RTVSPost2010PropOp54
 70
     1
102
RTVSPost2010Prop55
280
     0
102
RTVSPost2010PropOp55
 70
     1
102
RTVSPost2010Prop56
140
1.0
102
RTVSPost2010PropOp56
 70
     1
102
RTVSPost2010Prop57
140
1.0
102
RTVSPost2010PropOp57
 70
     1
  0
XRECORD
  5
530
102
{ACAD_REACTORS
330
52F
102
}
330
52F
100
AcDbXrecord
280
     1
102
RTVSPost2010Prop28
280
     0
102
RTVSPost2010PropOp28
 70
     1
102
RTVSPost2010Prop29
280
     1
102
RTVSPost2010PropOp29
 70
     1
102
RTVSPost2010Prop30
280
     1
102
RTVSPost2010PropOp30
 70
     1
102
RTVSPost2010Prop31
280
     0
102
RTVSPost2010PropOp31
 70
     1
102
RTVSPost2010Prop32
280
     0
102
RTVSPost2010PropOp32
 70
     1
102
RTVSPost2010Prop33
280
     0
102
RTVSPost2010PropOp33
 70
     1
102
RTVSPost2010Prop34
280
     0
102
RTVSPost2010PropOp34
 70
     1
102
RTVSPost2010Prop35
280
     0
102
RTVSPost2010PropOp35
 70
     1
102
RTVSPost2010Prop36
280
     0
102
RTVSPost2010PropOp36
 70
     1
102
RTVSPost2010Prop37
 90
       50
102
RTVSPost2010PropOp37
 70
     1
102
RTVSPost2010Prop38
140
0.0
102
RTVSPost2010PropOp38
 70
     1
102
RTVSPost2010Prop39
140
1.0
102
RTVSPost2010PropOp39
 70
     1
102
RTVSPost2010Prop40
 90
        0
102
RTVSPost2010PropOp40
 70
     1
102
RTVSPost2010Prop41ColorIndex
 90
       18
102
RTVSPost2010Prop41ColorRGB
 90
        0
102
RTVSPost2010PropOp41
 70
     1
102
RTVSPost2010Prop42
 90
       50
102
RTVSPost2010PropOp42
 70
     1
102
RTVSPost2010Prop43
 90
        3
102
RTVSPost2010PropOp43
 70
     1
102
RTVSPost2010Prop44ColorIndex
 90
        5
102
RTVSPost2010Prop44ColorRGB
 90
      255
102
RTVSPost2010PropOp44
 70
     1
102
RTVSPost2010Prop45
280
     0
102
RTVSPost2010PropOp45
 70
     1
102
RTVSPost2010Prop46
 90
       50
102
RTVSPost2010PropOp46
 70
     1
102
RTVSPost2010Prop47
 90
       50
102
RTVSPost2010PropOp47
 70
     1
102
RTVSPost2010Prop48
 90
       50
102
RTVSPost2010PropOp48
 70
     1
102
RTVSPost2010Prop49
280
     0
102
RTVSPost2010PropOp49
 70
     1
102
RTVSPost2010Prop50
 90
       50
102
RTVSPost2010PropOp50
 70
     1
102
RTVSPost2010Prop51ColorIndex
 90
      256
102
RTVSPost2010Prop51ColorRGB
 90
-16777216
102
RTVSPost2010PropOp51
 70
     0
102
RTVSPost2010Prop52
140
1.0
102
RTVSPost2010PropOp52
 70
     0
102
RTVSPost2010Prop53
 90
        2
102
RTVSPost2010PropOp53
 70
     1
102
RTVSPost2010Prop54
  1
strokes_ogs.tif
102
RTVSPost2010PropOp54
 70
     1
102
RTVSPost2010Prop55
280
     0
102
RTVSPost2010PropOp55
 70
     1
102
RTVSPost2010Prop56
140
1.0
102
RTVSPost2010PropOp56
 70
     1
102
RTVSPost2010Prop57
140
1.0
102
RTVSPost2010PropOp57
 70
     1
  0
XRECORD
  5
52E
102
{ACAD_REACTORS
330
52D
102
}
330
52D
100
AcDbXrecord
280
     1
102
RTVSPost2010Prop28
280
     0
102
RTVSPost2010PropOp28
 70
     1
102
RTVSPost2010Prop29
280
     1
102
RTVSPost2010PropOp29
 70
     1
102
RTVSPost2010Prop30
280
     1
102
RTVSPost2010PropOp30
 70
     1
102
RTVSPost2010Prop31
280
     0
102
RTVSPost2010PropOp31
 70
     1
102
RTVSPost2010Prop32
280
     0
102
RTVSPost2010PropOp32
 70
     1
102
RTVSPost2010Prop33
280
     0
102
RTVSPost2010PropOp33
 70
     1
102
RTVSPost2010Prop34
280
     0
102
RTVSPost2010PropOp34
 70
     1
102
RTVSPost2010Prop35
280
     0
102
RTVSPost2010PropOp35
 70
     1
102
RTVSPost2010Prop36
280
     0
102
RTVSPost2010PropOp36
 70
     1
102
RTVSPost2010Prop37
 90
       50
102
RTVSPost2010PropOp37
 70
     1
102
RTVSPost2010Prop38
140
0.0
102
RTVSPost2010PropOp38
 70
     1
102
RTVSPost2010Prop39
140
1.0
102
RTVSPost2010PropOp39
 70
     1
102
RTVSPost2010Prop40
 90
        0
102
RTVSPost2010PropOp40
 70
     1
102
RTVSPost2010Prop41ColorIndex
 90
       18
102
RTVSPost2010Prop41ColorRGB
 90
        0
102
RTVSPost2010PropOp41
 70
     1
102
RTVSPost2010Prop42
 90
       50
102
RTVSPost2010PropOp42
 70
     1
102
RTVSPost2010Prop43
 90
        3
102
RTVSPost2010PropOp43
 70
     1
102
RTVSPost2010Prop44ColorIndex
 90
        5
102
RTVSPost2010Prop44ColorRGB
 90
      255
102
RTVSPost2010PropOp44
 70
     1
102
RTVSPost2010Prop45
280
     0
102
RTVSPost2010PropOp45
 70
     1
102
RTVSPost2010Prop46
 90
       50
102
RTVSPost2010PropOp46
 70
     1
102
RTVSPost2010Prop47
 90
       50
102
RTVSPost2010PropOp47
 70
     1
102
RTVSPost2010Prop48
 90
       50
102
RTVSPost2010PropOp48
 70
     1
102
RTVSPost2010Prop49
280
     0
102
RTVSPost2010PropOp49
 70
     1
102
RTVSPost2010Prop50
 90
       50
102
RTVSPost2010PropOp50
 70
     1
102
RTVSPost2010Prop51ColorIndex
 90
      256
102
RTVSPost2010Prop51ColorRGB
 90
-16777216
102
RTVSPost2010PropOp51
 70
     0
102
RTVSPost2010Prop52
140
1.0
102
RTVSPost2010PropOp52
 70
     0
102
RTVSPost2010Prop53
 90
        2
102
RTVSPost2010PropOp53
 70
     1
102
RTVSPost2010Prop54
  1
strokes_ogs.tif
102
RTVSPost2010PropOp54
 70
     1
102
RTVSPost2010Prop55
280
     0
102
RTVSPost2010PropOp55
 70
     1
102
RTVSPost2010Prop56
140
1.0
102
RTVSPost2010PropOp56
 70
     1
102
RTVSPost2010Prop57
140
1.0
102
RTVSPost2010PropOp57
 70
     1
  0
XRECORD
  5
528
102
{ACAD_REACTORS
330
527
102
}
330
527
100
AcDbXrecord
280
     1
102
RTVSPost2010Prop28
280
     0
102
RTVSPost2010PropOp28
 70
     1
102
RTVSPost2010Prop29
280
     1
102
RTVSPost2010PropOp29
 70
     1
102
RTVSPost2010Prop30
280
     1
102
RTVSPost2010PropOp30
 70
     1
102
RTVSPost2010Prop31
280
     0
102
RTVSPost2010PropOp31
 70
     1
102
RTVSPost2010Prop32
280
     0
102
RTVSPost2010PropOp32
 70
     1
102
RTVSPost2010Prop33
280
     0
102
RTVSPost2010PropOp33
 70
     1
102
RTVSPost2010Prop34
280
     0
102
RTVSPost2010PropOp34
 70
     1
102
RTVSPost2010Prop35
280
     0
102
RTVSPost2010PropOp35
 70
     1
102
RTVSPost2010Prop36
280
     0
102
RTVSPost2010PropOp36
 70
     1
102
RTVSPost2010Prop37
 90
       50
102
RTVSPost2010PropOp37
 70
     1
102
RTVSPost2010Prop38
140
0.0
102
RTVSPost2010PropOp38
 70
     1
102
RTVSPost2010Prop39
140
1.0
102
RTVSPost2010PropOp39
 70
     1
102
RTVSPost2010Prop40
 90
        0
102
RTVSPost2010PropOp40
 70
     1
102
RTVSPost2010Prop41ColorIndex
 90
       18
102
RTVSPost2010Prop41ColorRGB
 90
        0
102
RTVSPost2010PropOp41
 70
     1
102
RTVSPost2010Prop42
 90
       50
102
RTVSPost2010PropOp42
 70
     1
102
RTVSPost2010Prop43
 90
        3
102
RTVSPost2010PropOp43
 70
     1
102
RTVSPost2010Prop44ColorIndex
 90
        5
102
RTVSPost2010Prop44ColorRGB
 90
      255
102
RTVSPost2010PropOp44
 70
     1
102
RTVSPost2010Prop45
280
     0
102
RTVSPost2010PropOp45
 70
     1
102
RTVSPost2010Prop46
 90
       50
102
RTVSPost2010PropOp46
 70
     1
102
RTVSPost2010Prop47
 90
       50
102
RTVSPost2010PropOp47
 70
     1
102
RTVSPost2010Prop48
 90
       50
102
RTVSPost2010PropOp48
 70
     1
102
RTVSPost2010Prop49
280
     0
102
RTVSPost2010PropOp49
 70
     1
102
RTVSPost2010Prop50
 90
       50
102
RTVSPost2010PropOp50
 70
     1
102
RTVSPost2010Prop51ColorIndex
 90
      256
102
RTVSPost2010Prop51ColorRGB
 90
-16777216
102
RTVSPost2010PropOp51
 70
     0
102
RTVSPost2010Prop52
140
1.0
102
RTVSPost2010PropOp52
 70
     0
102
RTVSPost2010Prop53
 90
        2
102
RTVSPost2010PropOp53
 70
     1
102
RTVSPost2010Prop54
  1
strokes_ogs.tif
102
RTVSPost2010PropOp54
 70
     1
102
RTVSPost2010Prop55
280
     0
102
RTVSPost2010PropOp55
 70
     1
102
RTVSPost2010Prop56
140
1.0
102
RTVSPost2010PropOp56
 70
     1
102
RTVSPost2010Prop57
140
1.0
102
RTVSPost2010PropOp57
 70
     1
  0
XRECORD
  5
52A
102
{ACAD_REACTORS
330
529
102
}
330
529
100
AcDbXrecord
280
     1
102
RTVSPost2010Prop28
280
     0
102
RTVSPost2010PropOp28
 70
     1
102
RTVSPost2010Prop29
280
     1
102
RTVSPost2010PropOp29
 70
     1
102
RTVSPost2010Prop30
280
     1
102
RTVSPost2010PropOp30
 70
     1
102
RTVSPost2010Prop31
280
     0
102
RTVSPost2010PropOp31
 70
     1
102
RTVSPost2010Prop32
280
     0
102
RTVSPost2010PropOp32
 70
     1
102
RTVSPost2010Prop33
280
     0
102
RTVSPost2010PropOp33
 70
     1
102
RTVSPost2010Prop34
280
     0
102
RTVSPost2010PropOp34
 70
     1
102
RTVSPost2010Prop35
280
     0
102
RTVSPost2010PropOp35
 70
     1
102
RTVSPost2010Prop36
280
     0
102
RTVSPost2010PropOp36
 70
     1
102
RTVSPost2010Prop37
 90
       50
102
RTVSPost2010PropOp37
 70
     1
102
RTVSPost2010Prop38
140
0.0
102
RTVSPost2010PropOp38
 70
     1
102
RTVSPost2010Prop39
140
1.0
102
RTVSPost2010PropOp39
 70
     1
102
RTVSPost2010Prop40
 90
        0
102
RTVSPost2010PropOp40
 70
     1
102
RTVSPost2010Prop41ColorIndex
 90
       18
102
RTVSPost2010Prop41ColorRGB
 90
        0
102
RTVSPost2010PropOp41
 70
     1
102
RTVSPost2010Prop42
 90
       50
102
RTVSPost2010PropOp42
 70
     1
102
RTVSPost2010Prop43
 90
        3
102
RTVSPost2010PropOp43
 70
     1
102
RTVSPost2010Prop44ColorIndex
 90
        5
102
RTVSPost2010Prop44ColorRGB
 90
      255
102
RTVSPost2010PropOp44
 70
     1
102
RTVSPost2010Prop45
280
     0
102
RTVSPost2010PropOp45
 70
     1
102
RTVSPost2010Prop46
 90
       50
102
RTVSPost2010PropOp46
 70
     1
102
RTVSPost2010Prop47
 90
       50
102
RTVSPost2010PropOp47
 70
     1
102
RTVSPost2010Prop48
 90
       50
102
RTVSPost2010PropOp48
 70
     1
102
RTVSPost2010Prop49
280
     0
102
RTVSPost2010PropOp49
 70
     1
102
RTVSPost2010Prop50
 90
       50
102
RTVSPost2010PropOp50
 70
     1
102
RTVSPost2010Prop51ColorIndex
 90
      256
102
RTVSPost2010Prop51ColorRGB
 90
-16777216
102
RTVSPost2010PropOp51
 70
     0
102
RTVSPost2010Prop52
140
1.0
102
RTVSPost2010PropOp52
 70
     0
102
RTVSPost2010Prop53
 90
        2
102
RTVSPost2010PropOp53
 70
     1
102
RTVSPost2010Prop54
  1
strokes_ogs.tif
102
RTVSPost2010PropOp54
 70
     1
102
RTVSPost2010Prop55
280
     0
102
RTVSPost2010PropOp55
 70
     1
102
RTVSPost2010Prop56
140
1.0
102
RTVSPost2010PropOp56
 70
     1
102
RTVSPost2010Prop57
140
1.0
102
RTVSPost2010PropOp57
 70
     1
  0
XRECORD
  5
520
102
{ACAD_REACTORS
330
51F
102
}
330
51F
100
AcDbXrecord
280
     1
102
RTVSPost2010Prop28
280
     0
102
RTVSPost2010PropOp28
 70
     1
102
RTVSPost2010Prop29
280
     1
102
RTVSPost2010PropOp29
 70
     1
102
RTVSPost2010Prop30
280
     1
102
RTVSPost2010PropOp30
 70
     1
102
RTVSPost2010Prop31
280
     0
102
RTVSPost2010PropOp31
 70
     1
102
RTVSPost2010Prop32
280
     0
102
RTVSPost2010PropOp32
 70
     1
102
RTVSPost2010Prop33
280
     0
102
RTVSPost2010PropOp33
 70
     1
102
RTVSPost2010Prop34
280
     0
102
RTVSPost2010PropOp34
 70
     1
102
RTVSPost2010Prop35
280
     0
102
RTVSPost2010PropOp35
 70
     1
102
RTVSPost2010Prop36
280
     0
102
RTVSPost2010PropOp36
 70
     1
102
RTVSPost2010Prop37
 90
       50
102
RTVSPost2010PropOp37
 70
     1
102
RTVSPost2010Prop38
140
0.0
102
RTVSPost2010PropOp38
 70
     1
102
RTVSPost2010Prop39
140
1.0
102
RTVSPost2010PropOp39
 70
     1
102
RTVSPost2010Prop40
 90
        0
102
RTVSPost2010PropOp40
 70
     1
102
RTVSPost2010Prop41ColorIndex
 90
       18
102
RTVSPost2010Prop41ColorRGB
 90
        0
102
RTVSPost2010PropOp41
 70
     1
102
RTVSPost2010Prop42
 90
       50
102
RTVSPost2010PropOp42
 70
     1
102
RTVSPost2010Prop43
 90
        3
102
RTVSPost2010PropOp43
 70
     1
102
RTVSPost2010Prop44ColorIndex
 90
        5
102
RTVSPost2010Prop44ColorRGB
 90
      255
102
RTVSPost2010PropOp44
 70
     1
102
RTVSPost2010Prop45
280
     0
102
RTVSPost2010PropOp45
 70
     1
102
RTVSPost2010Prop46
 90
       50
102
RTVSPost2010PropOp46
 70
     1
102
RTVSPost2010Prop47
 90
       50
102
RTVSPost2010PropOp47
 70
     1
102
RTVSPost2010Prop48
 90
       50
102
RTVSPost2010PropOp48
 70
     1
102
RTVSPost2010Prop49
280
     0
102
RTVSPost2010PropOp49
 70
     1
102
RTVSPost2010Prop50
 90
       50
102
RTVSPost2010PropOp50
 70
     1
102
RTVSPost2010Prop51ColorIndex
 90
      256
102
RTVSPost2010Prop51ColorRGB
 90
-16777216
102
RTVSPost2010PropOp51
 70
     0
102
RTVSPost2010Prop52
140
1.0
102
RTVSPost2010PropOp52
 70
     0
102
RTVSPost2010Prop53
 90
        2
102
RTVSPost2010PropOp53
 70
     1
102
RTVSPost2010Prop54
  1
strokes_ogs.tif
102
RTVSPost2010PropOp54
 70
     1
102
RTVSPost2010Prop55
280
     0
102
RTVSPost2010PropOp55
 70
     1
102
RTVSPost2010Prop56
140
1.0
102
RTVSPost2010PropOp56
 70
     1
102
RTVSPost2010Prop57
140
1.0
102
RTVSPost2010PropOp57
 70
     1
  0
XRECORD
  5
514
102
{ACAD_REACTORS
330
513
102
}
330
513
100
AcDbXrecord
280
     1
102
RTVSPost2010Prop28
280
     0
102
RTVSPost2010PropOp28
 70
     1
102
RTVSPost2010Prop29
280
     1
102
RTVSPost2010PropOp29
 70
     1
102
RTVSPost2010Prop30
280
     1
102
RTVSPost2010PropOp30
 70
     1
102
RTVSPost2010Prop31
280
     0
102
RTVSPost2010PropOp31
 70
     1
102
RTVSPost2010Prop32
280
     0
102
RTVSPost2010PropOp32
 70
     1
102
RTVSPost2010Prop33
280
     0
102
RTVSPost2010PropOp33
 70
     1
102
RTVSPost2010Prop34
280
     0
102
RTVSPost2010PropOp34
 70
     1
102
RTVSPost2010Prop35
280
     0
102
RTVSPost2010PropOp35
 70
     1
102
RTVSPost2010Prop36
280
     0
102
RTVSPost2010PropOp36
 70
     1
102
RTVSPost2010Prop37
 90
       50
102
RTVSPost2010PropOp37
 70
     1
102
RTVSPost2010Prop38
140
0.0
102
RTVSPost2010PropOp38
 70
     1
102
RTVSPost2010Prop39
140
1.0
102
RTVSPost2010PropOp39
 70
     1
102
RTVSPost2010Prop40
 90
        0
102
RTVSPost2010PropOp40
 70
     1
102
RTVSPost2010Prop41ColorIndex
 90
       18
102
RTVSPost2010Prop41ColorRGB
 90
        0
102
RTVSPost2010PropOp41
 70
     1
102
RTVSPost2010Prop42
 90
       50
102
RTVSPost2010PropOp42
 70
     1
102
RTVSPost2010Prop43
 90
        3
102
RTVSPost2010PropOp43
 70
     1
102
RTVSPost2010Prop44ColorIndex
 90
        5
102
RTVSPost2010Prop44ColorRGB
 90
      255
102
RTVSPost2010PropOp44
 70
     1
102
RTVSPost2010Prop45
280
     0
102
RTVSPost2010PropOp45
 70
     1
102
RTVSPost2010Prop46
 90
       50
102
RTVSPost2010PropOp46
 70
     1
102
RTVSPost2010Prop47
 90
       50
102
RTVSPost2010PropOp47
 70
     1
102
RTVSPost2010Prop48
 90
       50
102
RTVSPost2010PropOp48
 70
     1
102
RTVSPost2010Prop49
280
     0
102
RTVSPost2010PropOp49
 70
     1
102
RTVSPost2010Prop50
 90
       50
102
RTVSPost2010PropOp50
 70
     1
102
RTVSPost2010Prop51ColorIndex
 90
      256
102
RTVSPost2010Prop51ColorRGB
 90
-16777216
102
RTVSPost2010PropOp51
 70
     0
102
RTVSPost2010Prop52
140
1.0
102
RTVSPost2010PropOp52
 70
     0
102
RTVSPost2010Prop53
 90
        2
102
RTVSPost2010PropOp53
 70
     1
102
RTVSPost2010Prop54
  1
strokes_ogs.tif
102
RTVSPost2010PropOp54
 70
     1
102
RTVSPost2010Prop55
280
     0
102
RTVSPost2010PropOp55
 70
     1
102
RTVSPost2010Prop56
140
1.0
102
RTVSPost2010PropOp56
 70
     1
102
RTVSPost2010Prop57
140
1.0
102
RTVSPost2010PropOp57
 70
     1
  0
XRECORD
  5
52C
102
{ACAD_REACTORS
330
52B
102
}
330
52B
100
AcDbXrecord
280
     1
102
RTVSPost2010Prop28
280
     0
102
RTVSPost2010PropOp28
 70
     1
102
RTVSPost2010Prop29
280
     1
102
RTVSPost2010PropOp29
 70
     1
102
RTVSPost2010Prop30
280
     1
102
RTVSPost2010PropOp30
 70
     1
102
RTVSPost2010Prop31
280
     0
102
RTVSPost2010PropOp31
 70
     1
102
RTVSPost2010Prop32
280
     0
102
RTVSPost2010PropOp32
 70
     1
102
RTVSPost2010Prop33
280
     0
102
RTVSPost2010PropOp33
 70
     1
102
RTVSPost2010Prop34
280
     0
102
RTVSPost2010PropOp34
 70
     1
102
RTVSPost2010Prop35
280
     0
102
RTVSPost2010PropOp35
 70
     1
102
RTVSPost2010Prop36
280
     0
102
RTVSPost2010PropOp36
 70
     1
102
RTVSPost2010Prop37
 90
       50
102
RTVSPost2010PropOp37
 70
     1
102
RTVSPost2010Prop38
140
0.0
102
RTVSPost2010PropOp38
 70
     1
102
RTVSPost2010Prop39
140
1.0
102
RTVSPost2010PropOp39
 70
     1
102
RTVSPost2010Prop40
 90
        0
102
RTVSPost2010PropOp40
 70
     1
102
RTVSPost2010Prop41ColorIndex
 90
       18
102
RTVSPost2010Prop41ColorRGB
 90
        0
102
RTVSPost2010PropOp41
 70
     1
102
RTVSPost2010Prop42
 90
       50
102
RTVSPost2010PropOp42
 70
     1
102
RTVSPost2010Prop43
 90
        3
102
RTVSPost2010PropOp43
 70
     1
102
RTVSPost2010Prop44ColorIndex
 90
        5
102
RTVSPost2010Prop44ColorRGB
 90
      255
102
RTVSPost2010PropOp44
 70
     1
102
RTVSPost2010Prop45
280
     0
102
RTVSPost2010PropOp45
 70
     1
102
RTVSPost2010Prop46
 90
       50
102
RTVSPost2010PropOp46
 70
     1
102
RTVSPost2010Prop47
 90
       50
102
RTVSPost2010PropOp47
 70
     1
102
RTVSPost2010Prop48
 90
       50
102
RTVSPost2010PropOp48
 70
     1
102
RTVSPost2010Prop49
280
     0
102
RTVSPost2010PropOp49
 70
     1
102
RTVSPost2010Prop50
 90
       50
102
RTVSPost2010PropOp50
 70
     1
102
RTVSPost2010Prop51ColorIndex
 90
      256
102
RTVSPost2010Prop51ColorRGB
 90
-16777216
102
RTVSPost2010PropOp51
 70
     0
102
RTVSPost2010Prop52
140
1.0
102
RTVSPost2010PropOp52
 70
     0
102
RTVSPost2010Prop53
 90
        2
102
RTVSPost2010PropOp53
 70
     1
102
RTVSPost2010Prop54
  1
strokes_ogs.tif
102
RTVSPost2010PropOp54
 70
     1
102
RTVSPost2010Prop55
280
     0
102
RTVSPost2010PropOp55
 70
     1
102
RTVSPost2010Prop56
140
1.0
102
RTVSPost2010PropOp56
 70
     1
102
RTVSPost2010Prop57
140
1.0
102
RTVSPost2010PropOp57
 70
     1
  0
ENDSEC
  0
EOF
