  0
SECTION
  2
HEADER
  9
$ACADVER
  1
AC1027
  9
$ACADMAINTVER
 70
   105
  9
$DWGCODEPAGE
  3
ANSI_1252
  9
$LASTSAVEDBY
  1
Ibrahim
  9
$REQUIREDVERSIONS
160
                 0
  9
$INSBASE
 10
0.0
 20
0.0
 30
0.0
  9
$EXTMIN
 10
32.54847398440063
 20
0.1741738209990444
 30
-0.0015258207003583
  9
$EXTMAX
 10
91.59259264438389
 20
83.67113809834462
 30
0.0000000349246037
  9
$LIMMIN
 10
0.0
 20
0.0
  9
$LIMMAX
 10
12.0
 20
9.0
  9
$ORTHOMODE
 70
     1
  9
$REGENMODE
 70
     1
  9
$FILLMODE
 70
     1
  9
$QTEXTMODE
 70
     0
  9
$MIRRTEXT
 70
     0
  9
$LTSCALE
 40
1.0
  9
$ATTMODE
 70
     1
  9
$TEXTSIZE
 40
0.2
  9
$TRACEWID
 40
0.05
  9
$TEXTSTYLE
  7
Standard
  9
$CLAYER
  8
TU105501
  9
$CELTYPE
  6
ByLayer
  9
$CECOLOR
 62
   256
  9
$CELTSCALE
 40
1.0
  9
$DISPSILH
 70
     0
  9
$DIMSCALE
 40
1.0
  9
$DIMASZ
 40
0.18
  9
$DIMEXO
 40
0.0625
  9
$DIMDLI
 40
0.38
  9
$DIMRND
 40
0.0
  9
$DIMDLE
 40
0.0
  9
$DIMEXE
 40
0.18
  9
$DIMTP
 40
0.0
  9
$DIMTM
 40
0.0
  9
$DIMTXT
 40
0.18
  9
$DIMCEN
 40
0.09
  9
$DIMTSZ
 40
0.0
  9
$DIMTOL
 70
     0
  9
$DIMLIM
 70
     0
  9
$DIMTIH
 70
     1
  9
$DIMTOH
 70
     1
  9
$DIMSE1
 70
     0
  9
$DIMSE2
 70
     0
  9
$DIMTAD
 70
     0
  9
$DIMZIN
 70
     0
  9
$DIMBLK
  1

  9
$DIMASO
 70
     1
  9
$DIMSHO
 70
     1
  9
$DIMPOST
  1

  9
$DIMAPOST
  1

  9
$DIMALT
 70
     0
  9
$DIMALTD
 70
     2
  9
$DIMALTF
 40
25.4
  9
$DIMLFAC
 40
1.0
  9
$DIMTOFL
 70
     0
  9
$DIMTVP
 40
0.0
  9
$DIMTIX
 70
     0
  9
$DIMSOXD
 70
     0
  9
$DIMSAH
 70
     0
  9
$DIMBLK1
  1

  9
$DIMBLK2
  1

  9
$DIMSTYLE
  2
Standard
  9
$DIMCLRD
 70
     0
  9
$DIMCLRE
 70
     0
  9
$DIMCLRT
 70
     0
  9
$DIMTFAC
 40
1.0
  9
$DIMGAP
 40
0.09
  9
$DIMJUST
 70
     0
  9
$DIMSD1
 70
     0
  9
$DIMSD2
 70
     0
  9
$DIMTOLJ
 70
     1
  9
$DIMTZIN
 70
     0
  9
$DIMALTZ
 70
     0
  9
$DIMALTTZ
 70
     0
  9
$DIMUPT
 70
     0
  9
$DIMDEC
 70
     4
  9
$DIMTDEC
 70
     4
  9
$DIMALTU
 70
     4
  9
$DIMALTTD
 70
     2
  9
$DIMTXSTY
  7
Standard
  9
$DIMAUNIT
 70
     0
  9
$DIMADEC
 70
     0
  9
$DIMALTRND
 40
0.0
  9
$DIMAZIN
 70
     0
  9
$DIMDSEP
 70
    46
  9
$DIMATFIT
 70
     3
  9
$DIMFRAC
 70
     0
  9
$DIMLDRBLK
  1

  9
$DIMLUNIT
 70
     4
  9
$DIMLWD
 70
    -2
  9
$DIMLWE
 70
    -2
  9
$DIMTMOVE
 70
     0
  9
$DIMFXL
 40
1.0
  9
$DIMFXLON
 70
     0
  9
$DIMJOGANG
 40
0.7853981633974483
  9
$DIMTFILL
 70
     0
  9
$DIMTFILLCLR
 70
     0
  9
$DIMARCSYM
 70
     0
  9
$DIMLTYPE
  6

  9
$DIMLTEX1
  6

  9
$DIMLTEX2
  6

  9
$DIMTXTDIRECTION
 70
     0
  9
$LUNITS
 70
     4
  9
$LUPREC
 70
     4
  9
$SKETCHINC
 40
0.1
  9
$FILLETRAD
 40
0.0
  9
$AUNITS
 70
     0
  9
$AUPREC
 70
     0
  9
$MENU
  1
.
  9
$ELEVATION
 40
0.0
  9
$PELEVATION
 40
0.0
  9
$THICKNESS
 40
0.0
  9
$LIMCHECK
 70
     0
  9
$CHAMFERA
 40
0.0
  9
$CHAMFERB
 40
0.0
  9
$CHAMFERC
 40
0.0
  9
$CHAMFERD
 40
0.0
  9
$SKPOLY
 70
     0
  9
$TDCREATE
 40
2458418.705962813
  9
$TDUCREATE
 40
2458418.872629479
  9
$TDUPDATE
 40
2458421.381372894
  9
$TDUUPDATE
 40
2458421.548039560
  9
$TDINDWG
 40
0.0172379514
  9
$TDUSRTIMER
 40
0.0172379514
  9
$USRTIMER
 70
     1
  9
$ANGBASE
 50
0.0
  9
$ANGDIR
 70
     0
  9
$PDMODE
 70
     0
  9
$PDSIZE
 40
0.0
  9
$PLINEWID
 40
0.0
  9
$SPLFRAME
 70
     0
  9
$SPLINETYPE
 70
     6
  9
$SPLINESEGS
 70
     8
  9
$HANDSEED
  5
4A5
  9
$SURFTAB1
 70
     6
  9
$SURFTAB2
 70
     6
  9
$SURFTYPE
 70
     6
  9
$SURFU
 70
     6
  9
$SURFV
 70
     6
  9
$UCSBASE
  2

  9
$UCSNAME
  2

  9
$UCSORG
 10
0.0
 20
0.0
 30
0.0
  9
$UCSXDIR
 10
1.0
 20
0.0
 30
0.0
  9
$UCSYDIR
 10
0.0
 20
1.0
 30
0.0
  9
$UCSORTHOREF
  2

  9
$UCSORTHOVIEW
 70
     0
  9
$UCSORGTOP
 10
0.0
 20
0.0
 30
0.0
  9
$UCSORGBOTTOM
 10
0.0
 20
0.0
 30
0.0
  9
$UCSORGLEFT
 10
0.0
 20
0.0
 30
0.0
  9
$UCSORGRIGHT
 10
0.0
 20
0.0
 30
0.0
  9
$UCSORGFRONT
 10
0.0
 20
0.0
 30
0.0
  9
$UCSORGBACK
 10
0.0
 20
0.0
 30
0.0
  9
$PUCSBASE
  2

  9
$PUCSNAME
  2

  9
$PUCSORG
 10
0.0
 20
0.0
 30
0.0
  9
$PUCSXDIR
 10
1.0
 20
0.0
 30
0.0
  9
$PUCSYDIR
 10
0.0
 20
1.0
 30
0.0
  9
$PUCSORTHOREF
  2

  9
$PUCSORTHOVIEW
 70
     0
  9
$PUCSORGTOP
 10
0.0
 20
0.0
 30
0.0
  9
$PUCSORGBOTTOM
 10
0.0
 20
0.0
 30
0.0
  9
$PUCSORGLEFT
 10
0.0
 20
0.0
 30
0.0
  9
$PUCSORGRIGHT
 10
0.0
 20
0.0
 30
0.0
  9
$PUCSORGFRONT
 10
0.0
 20
0.0
 30
0.0
  9
$PUCSORGBACK
 10
0.0
 20
0.0
 30
0.0
  9
$USERI1
 70
     0
  9
$USERI2
 70
     0
  9
$USERI3
 70
     0
  9
$USERI4
 70
     0
  9
$USERI5
 70
     0
  9
$USERR1
 40
0.0
  9
$USERR2
 40
0.0
  9
$USERR3
 40
0.0
  9
$USERR4
 40
0.0
  9
$USERR5
 40
0.0
  9
$WORLDVIEW
 70
     1
  9
$SHADEDGE
 70
     3
  9
$SHADEDIF
 70
    70
  9
$TILEMODE
 70
     1
  9
$MAXACTVP
 70
    64
  9
$PINSBASE
 10
0.0
 20
0.0
 30
0.0
  9
$PLIMCHECK
 70
     0
  9
$PEXTMIN
 10
1.000000000000000E+20
 20
1.000000000000000E+20
 30
1.000000000000000E+20
  9
$PEXTMAX
 10
-1.000000000000000E+20
 20
-1.000000000000000E+20
 30
-1.000000000000000E+20
  9
$PLIMMIN
 10
0.0
 20
0.0
  9
$PLIMMAX
 10
12.0
 20
9.0
  9
$UNITMODE
 70
     0
  9
$VISRETAIN
 70
     1
  9
$PLINEGEN
 70
     0
  9
$PSLTSCALE
 70
     1
  9
$TREEDEPTH
 70
  3020
  9
$CMLSTYLE
  2
Standard
  9
$CMLJUST
 70
     0
  9
$CMLSCALE
 40
1.0
  9
$PROXYGRAPHICS
 70
     1
  9
$MEASUREMENT
 70
     0
  9
$CELWEIGHT
370
    -1
  9
$ENDCAPS
280
     0
  9
$JOINSTYLE
280
     0
  9
$LWDISPLAY
290
     0
  9
$INSUNITS
 70
     1
  9
$HYPERLINKBASE
  1

  9
$STYLESHEET
  1

  9
$XEDIT
290
     1
  9
$CEPSNTYPE
380
     0
  9
$PSTYLEMODE
290
     1
  9
$FINGERPRINTGUID
  2
{535CD4D2-FE6C-49A9-9882-9A036C5DD494}
  9
$VERSIONGUID
  2
{53588169-829F-47B1-A8E4-2016D10EB36A}
  9
$EXTNAMES
290
     1
  9
$PSVPSCALE
 40
0.0
  9
$OLESTARTUP
290
     0
  9
$SORTENTS
280
   127
  9
$INDEXCTL
280
     0
  9
$HIDETEXT
280
     1
  9
$XCLIPFRAME
280
     2
  9
$HALOGAP
280
     0
  9
$OBSCOLOR
 70
   257
  9
$OBSLTYPE
280
     0
  9
$INTERSECTIONDISPLAY
280
     0
  9
$INTERSECTIONCOLOR
 70
   257
  9
$DIMASSOC
280
     2
  9
$PROJECTNAME
  1

  9
$CAMERADISPLAY
290
     0
  9
$LENSLENGTH
 40
50.0
  9
$CAMERAHEIGHT
 40
0.0
  9
$STEPSPERSEC
 40
2.0
  9
$STEPSIZE
 40
6.0
  9
$3DDWFPREC
 40
2.0
  9
$PSOLWIDTH
 40
0.25
  9
$PSOLHEIGHT
 40
4.0
  9
$LOFTANG1
 40
1.570796326794896
  9
$LOFTANG2
 40
1.570796326794896
  9
$LOFTMAG1
 40
0.0
  9
$LOFTMAG2
 40
0.0
  9
$LOFTPARAM
 70
     7
  9
$LOFTNORMALS
280
     1
  9
$LATITUDE
 40
0.0
  9
$LONGITUDE
 40
0.0
  9
$NORTHDIRECTION
 40
0.0
  9
$TIMEZONE
 70
     0
  9
$LIGHTGLYPHDISPLAY
280
     1
  9
$TILEMODELIGHTSYNCH
280
     1
  9
$CMATERIAL
347
11
  9
$SOLIDHIST
280
     0
  9
$SHOWHIST
280
     1
  9
$DWFFRAME
280
     2
  9
$DGNFRAME
280
     0
  9
$REALWORLDSCALE
290
     1
  9
$INTERFERECOLOR
 62
     1
  9
$INTERFEREOBJVS
345
33
  9
$INTERFEREVPVS
346
30
  9
$CSHADOW
280
     0
  9
$SHADOWPLANELOCATION
 40
0.0
  0
ENDSEC
  0
SECTION
  2
CLASSES
  0
CLASS
  1
ACDBDICTIONARYWDFLT
  2
AcDbDictionaryWithDefault
  3
ObjectDBX Classes
 90
        0
 91
        1
280
     0
281
     0
  0
CLASS
  1
MATERIAL
  2
AcDbMaterial
  3
ObjectDBX Classes
 90
     1153
 91
        3
280
     0
281
     0
  0
CLASS
  1
VISUALSTYLE
  2
AcDbVisualStyle
  3
ObjectDBX Classes
 90
     4095
 91
       24
280
     0
281
     0
  0
CLASS
  1
SCALE
  2
AcDbScale
  3
ObjectDBX Classes
 90
     1153
 91
       17
280
     0
281
     0
  0
CLASS
  1
TABLESTYLE
  2
AcDbTableStyle
  3
ObjectDBX Classes
 90
     4095
 91
        1
280
     0
281
     0
  0
CLASS
  1
MLEADERSTYLE
  2
AcDbMLeaderStyle
  3
ACDB_MLEADERSTYLE_CLASS
 90
     4095
 91
        1
280
     0
281
     0
  0
CLASS
  1
ACDBSECTIONVIEWSTYLE
  2
AcDbSectionViewStyle
  3
ObjectDBX Classes
 90
     1025
 91
        1
280
     0
281
     0
  0
CLASS
  1
ACDBDETAILVIEWSTYLE
  2
AcDbDetailViewStyle
  3
ObjectDBX Classes
 90
     1025
 91
        1
280
     0
281
     0
  0
CLASS
  1
RASTERVARIABLES
  2
AcDbRasterVariables
  3
ISM
 90
        0
 91
        1
280
     0
281
     0
  0
CLASS
  1
DICTIONARYVAR
  2
AcDbDictionaryVar
  3
ObjectDBX Classes
 90
        0
 91
        5
280
     0
281
     0
  0
CLASS
  1
SORTENTSTABLE
  2
AcDbSortentsTable
  3
ObjectDBX Classes
 90
        0
 91
        1
280
     0
281
     0
  0
CLASS
  1
CELLSTYLEMAP
  2
AcDbCellStyleMap
  3
ObjectDBX Classes
 90
     1152
 91
        1
280
     0
281
     0
  0
ENDSEC
  0
SECTION
  2
TABLES
  0
TABLE
  2
VPORT
  5
8
330
0
100
AcDbSymbolTable
 70
     1
  0
VPORT
  5
57
330
8
100
AcDbSymbolTableRecord
100
AcDbViewportTableRecord
  2
*Active
 70
     0
 10
0.0
 20
0.0
 11
1.0
 21
1.0
 12
45.79629632219194
 22
41.83556904917231
 13
0.0
 23
0.0
 14
1.0
 24
1.0
 15
0.0
 25
0.0
 16
0.0
 26
0.0
 36
1.0
 17
0.0
 27
0.0
 37
0.0
 40
84.3459053410732
 41
1.927321668909824
 42
50.0
 43
0.0
 44
0.0
 50
0.0
 51
0.0
 71
     0
 72
  1000
 73
     1
 74
     1
 75
     0
 76
     0
 77
     0
 78
     0
281
     0
 65
     1
110
0.0
120
0.0
130
0.0
111
1.0
121
0.0
131
0.0
112
0.0
122
1.0
132
0.0
 79
     0
146
0.0
348
2F
 60
     3
 61
     5
292
     1
282
     1
141
0.0
142
0.0
 63
   250
421
  3355443
1001
ACAD_NAV_VCDISPLAY
1070
     3
  0
ENDTAB
  0
TABLE
  2
LTYPE
  5
5
330
0
100
AcDbSymbolTable
 70
     1
  0
LTYPE
  5
5B
330
5
100
AcDbSymbolTableRecord
100
AcDbLinetypeTableRecord
  2
ByBlock
 70
     0
  3

 72
    65
 73
     0
 40
0.0
  0
LTYPE
  5
5C
330
5
100
AcDbSymbolTableRecord
100
AcDbLinetypeTableRecord
  2
ByLayer
 70
     0
  3

 72
    65
 73
     0
 40
0.0
  0
LTYPE
  5
5D
330
5
100
AcDbSymbolTableRecord
100
AcDbLinetypeTableRecord
  2
Continuous
 70
     0
  3
Solid line
 72
    65
 73
     0
 40
0.0
  0
ENDTAB
  0
TABLE
  2
LAYER
  5
2
102
{ACAD_XDICTIONARY
360
1B8
102
}
330
0
100
AcDbSymbolTable
 70
     3
  0
LAYER
  5
54
330
2
100
AcDbSymbolTableRecord
100
AcDbLayerTableRecord
  2
0
 70
     0
 62
     7
  6
Continuous
370
    -3
390
F
347
21
348
0
  0
LAYER
  5
8A
330
2
100
AcDbSymbolTableRecord
100
AcDbLayerTableRecord
  2
TU105501
 70
     0
 62
     7
  6
Continuous
370
     9
390
F
347
21
348
0
  0
ENDTAB
  0
TABLE
  2
STYLE
  5
3
330
0
100
AcDbSymbolTable
 70
     2
  0
STYLE
  5
55
330
3
100
AcDbSymbolTableRecord
100
AcDbTextStyleTableRecord
  2
Standard
 70
     0
 40
0.0
 41
1.0
 50
0.0
 71
     0
 42
0.2
  3
txt
  4

  0
ENDTAB
  0
TABLE
  2
VIEW
  5
6
330
0
100
AcDbSymbolTable
 70
     1
  0
ENDTAB
  0
TABLE
  2
UCS
  5
7
330
0
100
AcDbSymbolTable
 70
     0
  0
ENDTAB
  0
TABLE
  2
APPID
  5
9
330
0
100
AcDbSymbolTable
 70
     5
  0
APPID
  5
56
330
9
100
AcDbSymbolTableRecord
100
AcDbRegAppTableRecord
  2
ACAD
 70
     0
  0
APPID
  5
5E
330
9
100
AcDbSymbolTableRecord
100
AcDbRegAppTableRecord
  2
AcadAnnotative
 70
     0
  0
APPID
  5
78
330
9
100
AcDbSymbolTableRecord
100
AcDbRegAppTableRecord
  2
REVIT
 70
     0
  0
APPID
  5
143
330
9
100
AcDbSymbolTableRecord
100
AcDbRegAppTableRecord
  2
ACAD_NAV_VCDISPLAY
 70
     0
  0
APPID
  5
1AB
330
9
100
AcDbSymbolTableRecord
100
AcDbRegAppTableRecord
  2
ACAD_EXEMPT_FROM_CAD_STANDARDS
 70
     0
  0
ENDTAB
  0
TABLE
  2
DIMSTYLE
  5
A
330
0
100
AcDbSymbolTable
 70
     2
100
AcDbDimStyleTable
 71
     1
340
58
  0
DIMSTYLE
105
58
330
A
100
AcDbSymbolTableRecord
100
AcDbDimStyleTableRecord
  2
Standard
 70
     0
340
55
  0
ENDTAB
  0
TABLE
  2
BLOCK_RECORD
  5
1
330
0
100
AcDbSymbolTable
 70
    10
  0
BLOCK_RECORD
  5
70
102
{ACAD_XDICTIONARY
360
CD
102
}
330
1
100
AcDbSymbolTableRecord
100
AcDbBlockTableRecord
  2
*Model_Space
340
73
 70
     0
280
     1
281
     0
  0
BLOCK_RECORD
  5
6C
330
1
100
AcDbSymbolTableRecord
100
AcDbBlockTableRecord
  2
*Paper_Space
340
6F
 70
     0
280
     1
281
     0
  0
BLOCK_RECORD
  5
74
330
1
100
AcDbSymbolTableRecord
100
AcDbBlockTableRecord
  2
*Paper_Space0
340
77
 70
     0
280
     1
281
     0
  0
BLOCK_RECORD
  5
313
330
1
100
AcDbSymbolTableRecord
100
AcDbBlockTableRecord
  2
TU105501 Top View
340
0
310
28000000200000002000000001002000000000000010000001000000010000000000000000000000302821FF302821FF302821FF302821FF302821FF302821FF302821FF302821FF302821FF302821FF302821FF302821FF302821FF302821FF302821FF302821FF302821FF302821FF302821FF302821FF302821FF302821
310
FF302821FF302821FF302821FF302821FF302821FF302821FF302821FF302821FF302821FF302821FF302821FF302821FF302821FF302821FF302821FF302821FF302821FF302821FF302821FF302821FF302821FF302821FF302821FF302821FF302821FFFFFFFFFFFFFFFFFF302821FF302821FF302821FF302821FF3028
310
21FF302821FF302821FF302821FF302821FF302821FF302821FF302821FF302821FF302821FF302821FF302821FF302821FF302821FF302821FF302821FF302821FF302821FF302821FF302821FF302821FF302821FF302821FFFFFFFFFFFFFFFFFFFFFFFFFF302821FF302821FFFFFFFFFFFFFFFFFFFFFFFFFF302821FF30
310
2821FF302821FF302821FF302821FF302821FF302821FF302821FF302821FF302821FF302821FF302821FF302821FF302821FF302821FF302821FF302821FF302821FF302821FF302821FF302821FF302821FF302821FFFFFFFFFF302821FF302821FF302821FF302821FF302821FF302821FF302821FF302821FFFFFFFFFF
310
302821FF302821FF302821FF302821FF302821FF302821FF302821FF302821FF302821FF302821FF302821FF302821FF302821FF302821FF302821FF302821FF302821FF302821FF302821FF302821FF302821FFFFFFFFFF302821FF302821FF302821FF302821FF302821FF302821FF302821FF302821FF302821FF302821
310
FFFFFFFFFF302821FF302821FF302821FF302821FF302821FF302821FF302821FF302821FF302821FF302821FF302821FF302821FF302821FF302821FF302821FF302821FF302821FF302821FF302821FF302821FFFFFFFFFF302821FF302821FF302821FF302821FF302821FF302821FF302821FF302821FF302821FF3028
310
21FFFFFFFFFF302821FF302821FF302821FF302821FF302821FF302821FF302821FF302821FF302821FF302821FF302821FF302821FF302821FF302821FF302821FF302821FF302821FF302821FF302821FFFFFFFFFF302821FF302821FF302821FF302821FFFFFFFFFFFFFFFFFFFFFFFFFFFFFFFFFF302821FF302821FF30
310
2821FF302821FFFFFFFFFF302821FF302821FF302821FF302821FF302821FF302821FF302821FF302821FF302821FF302821FF302821FF302821FF302821FF302821FF302821FF302821FF302821FF302821FFFFFFFFFF302821FF302821FF302821FF302821FFFFFFFFFFFFFFFFFFFFFFFFFFFFFFFFFF302821FF302821FF
310
302821FF302821FFFFFFFFFF302821FF302821FF302821FF302821FF302821FF302821FF302821FF302821FF302821FF302821FF302821FF302821FF302821FF302821FF302821FF302821FF302821FF302821FFFFFFFFFF302821FF302821FF302821FF302821FFFFFFFFFFFFFFFFFFFFFFFFFFFFFFFFFF302821FF302821
310
FF302821FF302821FFFFFFFFFF302821FF302821FF302821FF302821FF302821FF302821FF302821FF302821FF302821FF302821FF302821FF302821FF302821FF302821FF302821FF302821FF302821FF302821FF302821FFFFFFFFFF302821FF302821FF302821FFFFFFFFFFFFFFFFFFFFFFFFFFFFFFFFFF302821FF3028
310
21FF302821FFFFFFFFFF302821FF302821FF302821FF302821FF302821FF302821FF302821FF302821FF302821FF302821FF302821FF302821FF302821FF302821FF302821FF302821FF302821FF302821FF302821FF302821FFFFFFFFFF302821FF302821FF302821FF302821FFFFFFFFFFFFFFFFFF302821FF302821FF30
310
2821FF302821FFFFFFFFFF302821FF302821FF302821FF302821FF302821FF302821FF302821FF302821FF302821FF302821FF302821FF302821FF302821FF302821FF302821FF302821FF302821FF302821FF302821FF302821FFFFFFFFFF302821FF302821FF302821FF302821FFFFFFFFFFFFFFFFFF302821FF302821FF
310
302821FF302821FFFFFFFFFF302821FF302821FF302821FF302821FF302821FF302821FF302821FF302821FF302821FF302821FF302821FF302821FF302821FF302821FF302821FF302821FF302821FF302821FF302821FF302821FF302821FFFFFFFFFF302821FF302821FF302821FFFFFFFFFFFFFFFFFF302821FF302821
310
FF302821FFFFFFFFFF302821FF302821FF302821FF302821FF302821FF302821FF302821FF302821FF302821FF302821FF302821FF302821FF302821FF302821FF302821FF302821FF302821FF302821FF302821FF302821FF302821FF302821FF302821FFFFFFFFFF302821FF302821FFFFFFFFFFFFFFFFFF302821FF3028
310
21FFFFFFFFFF302821FF302821FF302821FF302821FF302821FF302821FF302821FF302821FF302821FF302821FF302821FF302821FF302821FF302821FF302821FF302821FF302821FF302821FF302821FF302821FF302821FF302821FF302821FF302821FF302821FFFFFFFFFFFFFFFFFFFFFFFFFFFFFFFFFFFFFFFFFFFF
310
FFFFFF302821FF302821FF302821FF302821FF302821FF302821FF302821FF302821FF302821FF302821FF302821FF302821FF302821FF302821FF302821FF302821FF302821FF302821FF302821FF302821FF302821FF302821FF302821FF302821FF302821FF302821FF302821FF302821FFFFFFFFFFFFFFFFFF302821FF
310
302821FF302821FF302821FF302821FF302821FF302821FF302821FF302821FF302821FF302821FF302821FF302821FF302821FF302821FF302821FF302821FF302821FF302821FF302821FF302821FF302821FF302821FF302821FF302821FF302821FF302821FF302821FF302821FF302821FFFFFFFFFFFFFFFFFF302821
310
FF302821FF302821FF302821FF302821FF302821FF302821FF302821FF302821FF302821FF302821FF302821FF302821FF302821FF302821FF302821FF302821FF302821FF302821FF302821FF302821FF302821FF302821FF302821FF302821FF302821FF302821FF302821FF302821FF302821FFFFFFFFFFFFFFFFFF3028
310
21FF302821FF302821FF302821FF302821FF302821FF302821FF302821FF302821FF302821FF302821FF302821FF302821FF302821FF302821FF302821FF302821FF302821FF302821FF302821FF302821FF302821FF302821FF302821FF302821FF302821FF302821FF302821FF302821FF302821FFFFFFFFFFFFFFFFFF30
310
2821FF302821FF302821FF302821FF302821FF302821FF302821FF302821FF302821FF302821FF302821FF302821FF302821FF302821FF302821FF302821FF302821FF302821FF302821FF302821FF302821FF302821FF302821FF302821FF302821FF302821FF302821FF302821FF302821FF302821FFFFFFFFFFFFFFFFFF
310
302821FF302821FF302821FF302821FF302821FF302821FF302821FF302821FF302821FF302821FF302821FF302821FF302821FF302821FF302821FF302821FF302821FF302821FF302821FF302821FF302821FF302821FF302821FF302821FF302821FF302821FF302821FF302821FF302821FF302821FFFFFFFFFFFFFFFF
310
FF302821FF302821FF302821FF302821FF302821FF302821FF302821FF302821FF302821FF302821FF302821FF302821FF302821FF302821FF302821FF302821FF302821FF302821FF302821FF302821FF302821FF302821FF302821FF302821FF302821FF302821FF302821FF302821FF302821FF302821FFFFFFFFFFFFFF
310
FFFF302821FF302821FF302821FF302821FF302821FF302821FF302821FF302821FF302821FF302821FF302821FF302821FF302821FF302821FF302821FF302821FF302821FF302821FF302821FF302821FF302821FF302821FF302821FF302821FF302821FF302821FF302821FF302821FF302821FF302821FFFFFFFFFFFF
310
FFFFFF302821FF302821FF302821FF302821FF302821FF302821FF302821FF302821FF302821FF302821FF302821FF302821FF302821FF302821FF302821FF302821FF302821FF302821FF302821FF302821FF302821FF302821FF302821FF302821FF302821FF302821FF302821FF302821FF302821FF302821FFFFFFFFFF
310
FFFFFFFF302821FF302821FF302821FF302821FF302821FF302821FF302821FF302821FF302821FF302821FF302821FF302821FF302821FF302821FF302821FF302821FF302821FF302821FF302821FF302821FF302821FF302821FF302821FF302821FF302821FF302821FF302821FF302821FF302821FFFFFFFFFFFFFFFF
310
FFFFFFFFFFFFFFFFFF302821FF302821FF302821FF302821FF302821FF302821FF302821FF302821FF302821FF302821FF302821FF302821FF302821FF302821FF302821FF302821FF302821FF302821FF302821FF302821FF302821FF302821FF302821FF302821FF302821FF302821FF302821FF302821FFFFFFFFFFFFFF
310
FFFFFFFFFFFFFFFFFFFF302821FF302821FF302821FF302821FF302821FF302821FF302821FF302821FF302821FF302821FF302821FF302821FF302821FF302821FF302821FF302821FF302821FF302821FF302821FF302821FF302821FF302821FF302821FF302821FF302821FF302821FF302821FFFFFFFFFFFFFFFFFFFF
310
FFFFFFFFFFFFFFFFFFFFFFFFFFFFFF302821FF302821FF302821FF302821FF302821FF302821FF302821FF302821FF302821FF302821FF302821FF302821FF302821FF302821FF302821FF302821FF302821FF302821FF302821FF302821FF302821FF302821FF302821FF302821FF302821FF302821FFFFFFFFFF302821FF
310
FFFFFFFFFFFFFFFF302821FFFFFFFFFF302821FF302821FF302821FF302821FF302821FF302821FF302821FF302821FF302821FF302821FF302821FF302821FF302821FF302821FF302821FF302821FF302821FF302821FF302821FF302821FF302821FF302821FFFFFFFFFFFFFFFFFFFFFFFFFFFFFFFFFFFFFFFFFFFFFFFF
310
FFFFFFFFFFFFFFFFFFFFFFFFFFFFFFFFFFFFFFFFFFFFFFFFFFFFFFFFFFFFFFFFFF302821FF302821FF302821FF302821FF302821FF302821FF302821FF302821FF302821FF302821FF302821FF302821FF302821FF302821FF302821FF302821FF302821FF302821FFFFFFFFFF302821FF302821FF302821FFFFFFFFFFFFFF
310
FFFFFFFFFFFFFFFFFFFFFFFFFFFFFFFFFFFF302821FF302821FF302821FFFFFFFFFF302821FF302821FF302821FF302821FF302821FF302821FF302821FF302821FF302821FF302821FF302821FF302821FF302821FF302821FF302821FF302821FF302821FF302821FFFFFFFFFFFFFFFFFFFFFFFFFFFFFFFFFFFFFFFFFFFF
310
FFFFFFFFFFFFFFFFFFFFFFFFFFFFFFFFFFFFFFFFFFFFFFFFFFFFFFFFFFFFFFFFFFFFFF302821FF302821FF302821FF302821FF302821FF302821FF302821FF302821FF302821FF302821FF302821FF302821FF302821FF302821FF302821FF302821FF302821FF302821FF302821FF302821FF302821FF302821FF302821FF
310
302821FF302821FF302821FF302821FF302821FF302821FF302821FF302821FF302821FF302821FF302821FF302821FF302821FF302821FF302821FF302821FF302821FF302821FF
102
{BLKREFS
331
338
102
}
 70
     1
280
     1
281
     1
  0
BLOCK_RECORD
  5
339
330
1
100
AcDbSymbolTableRecord
100
AcDbBlockTableRecord
  2
TU105501 Front View
340
0
310
28000000200000002000000001002000000000000010000001000000010000000000000000000000302821FF302821FF302821FF302821FF302821FF302821FF302821FF302821FF302821FF302821FF302821FF302821FF302821FF302821FF302821FF302821FF302821FF302821FF302821FF302821FF302821FF302821
310
FF302821FF302821FF302821FF302821FF302821FF302821FF302821FF302821FF302821FF302821FF302821FF302821FF302821FF302821FF302821FF302821FF302821FF302821FF302821FF302821FF302821FF302821FF302821FF302821FF302821FFFFFFFFFFFFFFFFFF302821FF302821FF302821FF302821FF3028
310
21FF302821FF302821FF302821FF302821FF302821FF302821FF302821FF302821FF302821FF302821FF302821FF302821FF302821FF302821FF302821FF302821FF302821FF302821FF302821FF302821FF302821FF302821FF302821FF302821FFFFFFFFFFFFFFFFFFFFFFFFFFFFFFFFFFFFFFFFFF302821FF302821FF30
310
2821FF302821FF302821FF302821FF302821FF302821FF302821FF302821FF302821FF302821FF302821FF302821FF302821FF302821FF302821FF302821FF302821FF302821FF302821FF302821FF302821FF302821FF302821FF302821FFFFFFFFFF302821FFFFFFFFFFFFFFFFFF302821FFFFFFFFFF302821FF302821FF
310
302821FF302821FF302821FF302821FF302821FF302821FF302821FF302821FF302821FF302821FF302821FF302821FF302821FF302821FF302821FF302821FF302821FF302821FF302821FF302821FF302821FF302821FF302821FF302821FFFFFFFFFF302821FFFFFFFFFFFFFFFFFF302821FFFFFFFFFF302821FF302821
310
FF302821FF302821FF302821FF302821FF302821FF302821FF302821FF302821FF302821FF302821FF302821FF302821FF302821FF302821FF302821FF302821FF302821FF302821FF302821FF302821FF302821FF302821FF302821FF302821FFFFFFFFFF302821FFFFFFFFFFFFFFFFFF302821FFFFFFFFFF302821FF3028
310
21FF302821FF302821FF302821FF302821FF302821FF302821FF302821FF302821FF302821FF302821FF302821FF302821FF302821FF302821FF302821FF302821FF302821FF302821FF302821FF302821FF302821FF302821FF302821FF302821FFFFFFFFFFFFFFFFFF302821FF302821FFFFFFFFFFFFFFFFFF302821FF30
310
2821FF302821FF302821FF302821FF302821FF302821FF302821FF302821FF302821FF302821FF302821FF302821FF302821FF302821FF302821FF302821FF302821FF302821FF302821FF302821FF302821FF302821FF302821FF302821FF302821FF302821FFFFFFFFFFFFFFFFFFFFFFFFFF302821FF302821FF302821FF
310
302821FF302821FF302821FF302821FF302821FF302821FF302821FF302821FF302821FF302821FF302821FF302821FF302821FF302821FF302821FF302821FF302821FF302821FF302821FF302821FF302821FF302821FF302821FF302821FF302821FF302821FF302821FF302821FF302821FF302821FF302821FF302821
310
FF302821FF302821FF302821FF302821FF302821FF302821FF302821FF302821FF302821FF302821FF302821FF302821FF302821FF302821FF302821FF302821FF302821FF302821FF302821FF302821FF302821FF302821FF302821FF302821FF302821FF302821FF302821FF302821FF302821FF302821FF302821FF3028
310
21FF302821FF302821FF302821FF302821FF302821FF302821FF302821FF302821FF302821FF302821FF302821FF302821FF302821FF302821FF302821FF302821FF302821FF302821FF302821FF302821FF302821FF302821FF302821FF302821FF302821FF302821FF302821FF302821FF302821FF302821FF302821FF30
310
2821FF302821FF302821FF302821FF302821FF302821FF302821FF302821FF302821FF302821FF302821FF302821FF302821FF302821FF302821FF302821FF302821FF302821FF302821FF302821FF302821FF302821FF302821FF302821FF302821FF302821FF302821FF302821FF302821FF302821FF302821FF302821FF
310
302821FF302821FF302821FF302821FF302821FF302821FF302821FF302821FF302821FF302821FF302821FF302821FF302821FF302821FF302821FF302821FF302821FF302821FF302821FF302821FF302821FF302821FF302821FF302821FF302821FF302821FF302821FF302821FF302821FF302821FF302821FF302821
310
FF302821FF302821FF302821FF302821FF302821FF302821FF302821FF302821FF302821FF302821FF302821FF302821FF302821FF302821FF302821FF302821FF302821FF302821FF302821FF302821FF302821FF302821FF302821FF302821FF302821FF302821FF302821FF302821FF302821FF302821FF302821FF3028
310
21FF302821FF302821FF302821FF302821FF302821FF302821FF302821FF302821FF302821FF302821FF302821FF302821FF302821FF302821FF302821FF302821FF302821FF302821FF302821FF302821FF302821FF302821FF302821FF302821FF302821FF302821FF302821FF302821FF302821FF302821FF302821FF30
310
2821FF302821FF302821FF302821FF302821FF302821FF302821FF302821FF302821FF302821FF302821FF302821FF302821FF302821FF302821FF302821FF302821FF302821FF302821FF302821FF302821FF302821FF302821FF302821FF302821FF302821FF302821FF302821FF302821FF302821FF302821FF302821FF
310
302821FF302821FF302821FF302821FF302821FF302821FF302821FF302821FF302821FF302821FF302821FF302821FF302821FF302821FF302821FF302821FF302821FF302821FF302821FF302821FF302821FF302821FF302821FF302821FF302821FF302821FF302821FF302821FF302821FF302821FF302821FF302821
310
FF302821FF302821FF302821FF302821FF302821FF302821FF302821FF302821FF302821FF302821FF302821FF302821FF302821FF302821FF302821FF302821FF302821FF302821FF302821FF302821FF302821FF302821FF302821FF302821FF302821FF302821FF302821FF302821FF302821FF302821FF302821FF3028
310
21FF302821FF302821FF302821FF302821FF302821FF302821FF302821FF302821FF302821FF302821FF302821FF302821FF302821FF302821FF302821FF302821FF302821FF302821FF302821FF302821FF302821FF302821FF302821FF302821FF302821FF302821FF302821FF302821FF302821FF302821FF302821FF30
310
2821FF302821FF302821FF302821FF302821FF302821FF302821FF302821FF302821FF302821FF302821FF302821FF302821FF302821FF302821FF302821FF302821FF302821FF302821FF302821FF302821FF302821FF302821FF302821FF302821FF302821FF302821FF302821FF302821FF302821FF302821FF302821FF
310
302821FF302821FF302821FF302821FF302821FF302821FF302821FF302821FF302821FF302821FF302821FF302821FF302821FF302821FF302821FF302821FF302821FF302821FF302821FF302821FF302821FF302821FF302821FF302821FF302821FF302821FF302821FF302821FF302821FF302821FF302821FF302821
310
FF302821FF302821FF302821FF302821FF302821FF302821FF302821FF302821FF302821FF302821FF302821FF302821FF302821FF302821FF302821FF302821FF302821FF302821FF302821FF302821FF302821FF302821FF302821FF302821FF302821FF302821FF302821FF302821FF302821FF302821FF302821FF3028
310
21FF302821FF302821FF302821FF302821FF302821FF302821FF302821FF302821FF302821FF302821FF302821FF302821FF302821FF302821FF302821FF302821FF302821FF302821FF302821FF302821FF302821FF302821FF302821FF302821FF302821FF302821FF302821FF302821FF302821FF302821FF302821FF30
310
2821FF302821FF302821FF302821FF302821FF302821FF302821FF302821FF302821FF302821FF302821FF302821FF302821FF302821FF302821FF302821FF302821FF302821FF302821FF302821FF302821FF302821FF302821FF302821FF302821FF302821FF302821FF302821FF302821FF302821FF302821FF302821FF
310
302821FF302821FF302821FF302821FF302821FF302821FF302821FF302821FF302821FF302821FF302821FF302821FF302821FF302821FF302821FF302821FF302821FF302821FF302821FF302821FF302821FF302821FF302821FF302821FF302821FF302821FF302821FF302821FF302821FF302821FF302821FF302821
310
FF302821FF302821FF302821FF302821FF302821FF302821FF302821FF302821FF302821FF302821FF302821FF302821FF302821FF302821FF302821FF302821FF302821FF302821FF302821FF302821FF302821FF302821FF302821FF302821FF302821FF302821FF302821FF302821FF302821FFFFFFFFFFFFFFFFFFFFFF
310
FFFFFFFFFFFFFFFFFFFFFFFFFFFF302821FF302821FF302821FF302821FF302821FF302821FF302821FF302821FF302821FF302821FF302821FF302821FF302821FF302821FF302821FF302821FF302821FF302821FF302821FF302821FF302821FF302821FF302821FF302821FF302821FF302821FF302821FF302821FFFF
310
FFFFFFFFFFFFFF302821FF302821FF302821FF302821FF302821FF302821FF302821FF302821FF302821FF302821FF302821FF302821FF302821FF302821FF302821FF302821FF302821FF302821FF302821FF302821FF302821FF302821FF302821FF302821FF302821FF302821FF302821FF302821FF302821FF302821FF
310
FFFFFFFFFFFFFFFF302821FF302821FF302821FF302821FF302821FF302821FF302821FF302821FF302821FF302821FF302821FF302821FF302821FF302821FF302821FF302821FF302821FF302821FF302821FF302821FF302821FF302821FF302821FF302821FF302821FF302821FF302821FF302821FF302821FF302821
310
FFFFFFFFFFFFFFFFFF302821FF302821FF302821FF302821FF302821FF302821FF302821FF302821FF302821FF302821FF302821FF302821FF302821FF302821FF302821FF302821FF302821FF302821FF302821FF302821FF302821FF302821FF302821FF302821FF302821FF302821FF302821FF302821FF302821FF3028
310
21FFFFFFFFFFFFFFFFFF302821FF302821FF302821FF302821FF302821FF302821FF302821FF302821FF302821FF302821FF302821FF302821FF302821FF302821FF302821FF302821FF302821FF302821FF302821FF302821FF302821FF302821FF302821FF302821FF302821FF302821FF302821FF302821FF302821FF30
310
2821FFFFFFFFFFFFFFFFFF302821FF302821FF302821FF302821FF302821FF302821FF302821FF302821FF302821FF302821FF302821FF302821FF302821FF302821FF302821FF302821FF302821FF302821FF302821FF302821FF302821FF302821FF302821FF302821FF302821FF302821FF302821FF302821FF302821FF
310
302821FF302821FF302821FF302821FF302821FF302821FF302821FF302821FF302821FF302821FF302821FF302821FF302821FF302821FF302821FF302821FF302821FF302821FF
102
{BLKREFS
331
386
102
}
 70
     1
280
     1
281
     1
  0
BLOCK_RECORD
  5
387
330
1
100
AcDbSymbolTableRecord
100
AcDbBlockTableRecord
  2
TU105501 Left View
340
0
310
28000000200000002000000001002000000000000010000001000000010000000000000000000000302821FF302821FF302821FF302821FF302821FF302821FF302821FF302821FF302821FF302821FF302821FF302821FF302821FF302821FF302821FF302821FF302821FF302821FF302821FF302821FF302821FF302821
310
FF302821FF302821FF302821FF302821FF302821FF302821FF302821FF302821FF302821FF302821FF302821FF302821FF302821FF302821FF302821FF302821FF302821FF302821FF302821FF302821FFFFFFFFFF302821FF302821FF302821FF302821FF302821FF302821FF302821FF302821FF302821FF302821FF3028
310
21FF302821FF302821FF302821FF302821FF302821FF302821FF302821FF302821FF302821FF302821FF302821FF302821FF302821FF302821FF302821FF302821FF302821FF302821FF302821FF302821FFFFFFFFFF302821FFFFFFFFFF302821FF302821FF302821FF302821FF302821FF302821FF302821FF302821FF30
310
2821FF302821FF302821FF302821FF302821FF302821FF302821FF302821FF302821FF302821FF302821FF302821FF302821FF302821FF302821FF302821FF302821FF302821FF302821FF302821FF302821FFFFFFFFFFFFFFFFFFFFFFFFFF302821FF302821FF302821FF302821FF302821FF302821FF302821FF302821FF
310
302821FF302821FF302821FF302821FF302821FF302821FF302821FF302821FF302821FF302821FF302821FF302821FF302821FF302821FF302821FF302821FF302821FF302821FF302821FF302821FF302821FFFFFFFFFF302821FFFFFFFFFF302821FF302821FF302821FF302821FF302821FF302821FF302821FF302821
310
FF302821FF302821FF302821FF302821FF302821FF302821FF302821FF302821FF302821FF302821FF302821FF302821FF302821FF302821FF302821FF302821FF302821FF302821FF302821FF302821FF302821FFFFFFFFFFFFFFFFFFFFFFFFFF302821FF302821FF302821FF302821FF302821FF302821FF302821FF3028
310
21FF302821FF302821FF302821FF302821FF302821FF302821FF302821FF302821FF302821FF302821FF302821FF302821FF302821FF302821FF302821FF302821FF302821FF302821FF302821FF302821FF302821FFFFFFFFFF302821FF302821FF302821FF302821FF302821FF302821FF302821FF302821FF302821FF30
310
2821FF302821FF302821FF302821FF302821FF302821FF302821FF302821FF302821FF302821FF302821FF302821FF302821FF302821FF302821FF302821FF302821FF302821FF302821FF302821FF302821FF302821FFFFFFFFFF302821FF302821FF302821FF302821FF302821FF302821FF302821FF302821FF302821FF
310
302821FF302821FF302821FF302821FF302821FF302821FF302821FF302821FF302821FF302821FF302821FF302821FF302821FF302821FF302821FF302821FF302821FF302821FF302821FF302821FF302821FF302821FF302821FF302821FF302821FF302821FF302821FF302821FF302821FF302821FF302821FF302821
310
FF302821FF302821FF302821FF302821FF302821FF302821FF302821FF302821FF302821FF302821FF302821FF302821FF302821FF302821FF302821FF302821FF302821FF302821FF302821FF302821FF302821FF302821FF302821FF302821FF302821FF302821FF302821FF302821FF302821FF302821FF302821FF3028
310
21FF302821FF302821FF302821FF302821FF302821FF302821FF302821FF302821FF302821FF302821FF302821FF302821FF302821FF302821FF302821FF302821FF302821FF302821FF302821FF302821FF302821FF302821FF302821FF302821FF302821FF302821FF302821FF302821FF302821FF302821FF302821FF30
310
2821FF302821FF302821FF302821FF302821FF302821FF302821FF302821FF302821FF302821FF302821FF302821FF302821FF302821FF302821FF302821FF302821FF302821FF302821FF302821FF302821FF302821FF302821FF302821FF302821FF302821FF302821FF302821FF302821FF302821FF302821FF302821FF
310
302821FF302821FF302821FF302821FF302821FF302821FF302821FF302821FF302821FF302821FF302821FF302821FF302821FF302821FF302821FF302821FF302821FF302821FF302821FF302821FF302821FF302821FF302821FF302821FF302821FF302821FF302821FF302821FF302821FF302821FF302821FF302821
310
FF302821FF302821FF302821FF302821FF302821FF302821FF302821FF302821FF302821FF302821FF302821FF302821FF302821FF302821FF302821FF302821FF302821FF302821FF302821FF302821FF302821FF302821FF302821FF302821FF302821FF302821FF302821FF302821FF302821FF302821FF302821FF3028
310
21FF302821FF302821FF302821FF302821FF302821FF302821FF302821FF302821FF302821FF302821FF302821FF302821FF302821FF302821FF302821FF302821FF302821FF302821FF302821FF302821FF302821FF302821FF302821FF302821FF302821FF302821FF302821FF302821FF302821FF302821FF302821FF30
310
2821FF302821FF302821FF302821FF302821FF302821FF302821FF302821FF302821FF302821FF302821FF302821FF302821FF302821FF302821FF302821FF302821FF302821FF302821FF302821FF302821FF302821FF302821FF302821FF302821FF302821FF302821FF302821FF302821FF302821FF302821FF302821FF
310
302821FF302821FF302821FF302821FF302821FF302821FF302821FF302821FF302821FF302821FF302821FF302821FF302821FF302821FF302821FF302821FF302821FF302821FF302821FF302821FF302821FF302821FF302821FF302821FF302821FF302821FF302821FF302821FF302821FF302821FF302821FF302821
310
FF302821FF302821FF302821FF302821FF302821FF302821FF302821FF302821FF302821FF302821FF302821FF302821FF302821FF302821FF302821FF302821FF302821FF302821FF302821FF302821FF302821FF302821FF302821FF302821FF302821FF302821FF302821FF302821FF302821FF302821FF302821FF3028
310
21FF302821FF302821FF302821FF302821FF302821FF302821FF302821FF302821FF302821FF302821FF302821FF302821FF302821FF302821FF302821FF302821FF302821FF302821FF302821FF302821FF302821FF302821FF302821FF302821FF302821FF302821FF302821FF302821FF302821FF302821FF302821FF30
310
2821FF302821FF302821FF302821FF302821FF302821FF302821FF302821FF302821FF302821FF302821FF302821FF302821FF302821FF302821FF302821FF302821FF302821FF302821FF302821FF302821FF302821FF302821FF302821FF302821FF302821FF302821FF302821FF302821FF302821FF302821FF302821FF
310
302821FF302821FF302821FF302821FF302821FF302821FF302821FF302821FF302821FF302821FF302821FF302821FF302821FF302821FF302821FF302821FF302821FF302821FF302821FF302821FF302821FF302821FF302821FF302821FF302821FF302821FF302821FF302821FF302821FF302821FF302821FF302821
310
FF302821FF302821FF302821FF302821FF302821FF302821FF302821FF302821FF302821FF302821FF302821FF302821FF302821FF302821FF302821FF302821FF302821FF302821FF302821FF302821FF302821FF302821FF302821FF302821FF302821FF302821FF302821FF302821FF302821FF302821FF302821FF3028
310
21FF302821FF302821FF302821FF302821FF302821FF302821FF302821FF302821FF302821FF302821FF302821FF302821FF302821FF302821FF302821FF302821FF302821FF302821FF302821FF302821FF302821FF302821FF302821FF302821FF302821FF302821FF302821FF302821FF302821FF302821FF302821FF30
310
2821FF302821FF302821FF302821FF302821FF302821FF302821FF302821FF302821FF302821FF302821FF302821FF302821FF302821FF302821FF302821FF302821FF302821FF302821FF302821FF302821FF302821FF302821FF302821FF302821FF302821FF302821FF302821FF302821FF302821FF302821FF302821FF
310
302821FF302821FF302821FF302821FF302821FF302821FF302821FF302821FF302821FF302821FF302821FF302821FF302821FF302821FF302821FF302821FF302821FF302821FF302821FF302821FF302821FF302821FF302821FF302821FF302821FF302821FF302821FF302821FF302821FF302821FF302821FF302821
310
FF302821FF302821FF302821FF302821FF302821FF302821FF302821FF302821FF302821FF302821FF302821FF302821FF302821FF302821FF302821FF302821FF302821FF302821FF302821FF302821FF302821FF302821FF302821FF302821FF302821FF302821FF302821FF302821FF302821FF302821FF302821FF3028
310
21FFFFFFFFFFFFFFFFFFFFFFFFFFFFFFFFFFFFFFFFFFFFFFFFFF302821FF302821FF302821FF302821FF302821FF302821FF302821FF302821FF302821FF302821FF302821FF302821FF302821FF302821FF302821FF302821FF302821FF302821FF302821FF302821FF302821FF302821FF302821FF302821FF302821FF30
310
2821FF302821FF302821FFFFFFFFFFFFFFFFFF302821FF302821FF302821FF302821FF302821FF302821FF302821FF302821FF302821FF302821FF302821FF302821FF302821FF302821FF302821FF302821FF302821FF302821FF302821FF302821FF302821FF302821FF302821FF302821FF302821FF302821FF302821FF
310
302821FF302821FF302821FFFFFFFFFFFFFFFFFF302821FF302821FF302821FF302821FF302821FF302821FF302821FF302821FF302821FF302821FF302821FF302821FF302821FF302821FF302821FF302821FF302821FF302821FF302821FF302821FF302821FF302821FFFFFFFFFFFFFFFFFFFFFFFFFFFFFFFFFFFFFFFF
310
FFFFFFFFFFFFFFFFFFFFFFFFFFFFFFFFFFFFFFFFFF302821FF302821FF302821FF302821FF302821FF302821FF302821FF302821FF302821FF302821FF302821FF302821FF302821FF302821FF302821FF302821FF302821FF302821FF302821FF302821FF302821FF302821FFFFFFFFFFFFFFFFFFFFFFFFFFFFFFFFFFFFFF
310
FFFFFFFFFFFFFFFFFFFFFFFFFFFFFFFFFFFF302821FF302821FF302821FF302821FF302821FF302821FF302821FF302821FF302821FF302821FF302821FF302821FF302821FF302821FF302821FF302821FF302821FF302821FF302821FF302821FF302821FF302821FF302821FFFFFFFFFF302821FF302821FF302821FF30
310
2821FF302821FF302821FF302821FF302821FF302821FF302821FF302821FF302821FF302821FF302821FF302821FF302821FF302821FF302821FF302821FF302821FF302821FF302821FF302821FF302821FF302821FF302821FF302821FF302821FF302821FF302821FF302821FF302821FF302821FF302821FF302821FF
310
302821FF302821FF302821FF302821FF302821FF302821FF302821FF302821FF302821FF302821FF302821FF302821FF302821FF302821FF302821FF302821FF302821FF302821FF
102
{BLKREFS
331
495
102
}
 70
     1
280
     1
281
     1
  0
ENDTAB
  0
ENDSEC
  0
SECTION
  2
BLOCKS
  0
BLOCK
  5
71
330
70
100
AcDbEntity
  8
0
100
AcDbBlockBegin
  2
*Model_Space
 70
     0
 10
0.0
 20
0.0
 30
0.0
  3
*Model_Space
  1

  0
ENDBLK
  5
72
330
70
100
AcDbEntity
  8
0
100
AcDbBlockEnd
  0
BLOCK
  5
6D
330
6C
100
AcDbEntity
 67
     1
  8
0
100
AcDbBlockBegin
  2
*Paper_Space
 70
     0
 10
0.0
 20
0.0
 30
0.0
  3
*Paper_Space
  1

  0
ENDBLK
  5
6E
330
6C
100
AcDbEntity
 67
     1
  8
0
100
AcDbBlockEnd
  0
BLOCK
  5
75
330
74
100
AcDbEntity
 67
     1
  8
0
100
AcDbBlockBegin
  2
*Paper_Space0
 70
     0
 10
0.0
 20
0.0
 30
0.0
  3
*Paper_Space0
  1

  0
ENDBLK
  5
76
330
74
100
AcDbEntity
 67
     1
  8
0
100
AcDbBlockEnd
  0
BLOCK
  5
314
330
313
100
AcDbEntity
  8
0
100
AcDbBlockBegin
  2
TU105501 Top View
 70
     0
 10
0.0
 20
0.0
 30
0.0
  3
TU105501 Top View
  1

  0
LINE
  5
316
330
313
100
AcDbEntity
  8
TU105501
100
AcDbLine
 10
-0.4999999999999858
 20
-9.770770610132487
 30
0.0
 11
-0.4999999999999858
 21
-0.25
 31
0.0
  0
LINE
  5
317
330
313
100
AcDbEntity
  8
TU105501
100
AcDbLine
 10
0.5000000000000142
 20
-0.2500000000000142
 30
0.0
 11
0.5000000000000142
 21
-9.770770610132487
 31
0.0
  0
LINE
  5
318
330
313
100
AcDbEntity
  8
TU105501
100
AcDbLine
 10
1.187499999999971
 20
0.0
 30
0.0
 11
1.187499999999971
 21
-0.2500000000000142
 31
0.0
  0
LINE
  5
319
330
313
100
AcDbEntity
  8
TU105501
100
AcDbLine
 10
-1.187499999999957
 20
-0.2500000000000142
 30
0.0
 11
-1.187499999999957
 21
0.0
 31
0.0
  0
LWPOLYLINE
  5
31A
330
313
100
AcDbEntity
  8
TU105501
100
AcDbPolyline
 90
       41
 70
   128
 43
0.0
 10
-0.4999999999999716
 20
-11.87499999999893
 10
-0.4999999999999716
 20
-11.87331684092621
 10
-0.4999999999999716
 20
-11.86827005640347
 10
-0.4999999999999716
 20
-11.85986772020941
 10
-0.4999999999999716
 20
-11.84812327428949
 10
-0.4999999999999716
 20
-11.83305550725187
 10
-0.4999999999999716
 20
-11.81468852430949
 10
-0.4999999999999716
 20
-11.793051708717
 10
-0.4999999999999716
 20
-11.76817967476373
 10
-0.4999999999999716
 20
-11.74011221239826
 10
-0.4999999999999716
 20
-11.70889422357297
 10
-0.4999999999999716
 20
-11.67457565041049
 10
-0.4999999999999716
 20
-11.63721139530699
 10
-0.4999999999999858
 20
-11.5968612331
 10
-0.4999999999999858
 20
-11.55358971544149
 10
-0.4999999999999858
 20
-11.50746606752893
 10
-0.4999999999999858
 20
-11.45856407735982
 10
-0.4999999999999858
 20
-11.40696197768656
 10
-0.4999999999999858
 20
-11.35274232086074
 10
-0.4999999999999858
 20
-11.29599184676706
 10
-0.4999999999999858
 20
-11.23680134405795
 10
-0.4999999999999858
 20
-11.17526550491109
 10
-0.4999999999999858
 20
-11.11148277354219
 10
-0.4999999999999858
 20
-11.04555518871517
 10
-0.4999999999999858
 20
-10.97758822050195
 10
-0.4999999999999858
 20
-10.90769060155285
 10
-0.4999999999999858
 20
-10.83597415314747
 10
-0.4999999999999858
 20
-10.76255360630456
 10
-0.4999999999999858
 20
-10.68754641823687
 10
-0.4999999999999858
 20
-10.61107258444462
 10
-0.4999999999999858
 20
-10.53325444674833
 10
-0.4999999999999858
 20
-10.454216497568
 10
-0.4999999999999858
 20
-10.37408518076179
 10
-0.4999999999999858
 20
-10.2929886893428
 10
-0.4999999999999858
 20
-10.21105676039768
 10
-0.4999999999999858
 20
-10.12842046753482
 10
-0.4999999999999858
 20
-10.04521201119469
 10
-0.4999999999999858
 20
-9.961564507157248
 10
-0.4999999999999858
 20
-9.877611773585073
 10
-0.4999999999999858
 20
-9.793488116942953
 10
-0.4999999999999858
 20
-9.770770610132487
  0
LWPOLYLINE
  5
31B
330
313
100
AcDbEntity
  8
TU105501
100
AcDbPolyline
 90
       41
 70
   128
 43
0.0
 10
0.5000000000000142
 20
-9.770770610132487
 10
0.5000000000000142
 20
-9.854917342409194
 10
0.5000000000000142
 20
-9.938929457864603
 10
0.5000000000000142
 20
-10.02267255503561
 10
0.5000000000000142
 20
-10.10601266283099
 10
0.5000000000000142
 20
-10.18881645485655
 10
0.5000000000000142
 20
-10.27095146270891
 10
0.5000000000000142
 20
-10.35228628789669
 10
0.5000000000000142
 20
-10.43269081205012
 10
0.5000000000000142
 20
-10.51203640508259
 10
0.5000000000000142
 20
-10.59019613097142
 10
0.5000000000000142
 20
-10.66704495082835
 10
0.5000000000000142
 20
-10.74245992293517
 10
0.5000000000000142
 20
-10.81632039942417
 10
0.5000000000000142
 20
-10.88850821928902
 10
0.5000000000000142
 20
-10.95890789741719
 10
0.5000000000000142
 20
-11.0274068093415
 10
0.5000000000000142
 20
-11.09389537141514
 10
0.5000000000000142
 20
-11.15826721612229
 10
0.5000000000000142
 20
-11.22041936224337
 10
0.5000000000000142
 20
-11.28025237960297
 10
0.5000000000000142
 20
-11.33767054813701
 10
0.5000000000000142
 20
-11.39258201102441
 10
0.5000000000000142
 20
-11.44489892163835
 10
0.5000000000000142
 20
-11.49453758408222
 10
0.5000000000000142
 20
-11.54141858708512
 10
0.5000000000000285
 20
-11.58546693104297
 10
0.5000000000000285
 20
-11.62661214800194
 10
0.5000000000000285
 20
-11.66478841439206
 10
0.5000000000000285
 20
-11.69993465633097
 10
0.5000000000000285
 20
-11.73199464732897
 10
0.5000000000000285
 20
-11.76091709823963
 10
0.5000000000000285
 20
-11.78665573931126
 10
0.5000000000000285
 20
-11.80916939420875
 10
0.5000000000000285
 20
-11.82842204588695
 10
0.5000000000000285
 20
-11.84438289421015
 10
0.5000000000000285
 20
-11.85702640522588
 10
0.5000000000000285
 20
-11.86633235201361
 10
0.5000000000000285
 20
-11.87228584704365
 10
0.5000000000000285
 20
-11.87487736599399
 10
0.5000000000000285
 20
-11.87499999999893
  0
LWPOLYLINE
  5
31C
330
313
100
AcDbEntity
  8
TU105501
100
AcDbPolyline
 90
       67
 70
   128
 43
0.0
 10
0.4968801378448973
 20
-11.00718082032128
 10
0.5311861979220396
 20
-11.02774488898552
 10
0.564642473396205
 20
-11.04966438508926
 10
0.597195441363553
 20
-11.07290424211464
 10
0.6287930240196289
 20
-11.097427281248
 10
0.6593846719726315
 20
-11.12319427085803
 10
0.688921445111717
 20
-11.15016398925803
 10
0.7173560909006796
 20
-11.17829329065176
 10
0.7446431199720252
 20
-11.20753717415763
 10
0.7707388789001329
 20
-11.23784885580036
 10
0.7956016200375302
 20
-11.26917984335547
 10
0.8191915683021591
 20
-11.30148001392648
 10
0.8414709848090637
 20
-11.33469769413079
 10
0.8624042272444967
 20
-11.36877974276616
 10
0.8819578068861062
 20
-11.4036716358252
 10
0.9001004421776599
 20
-11.43931755372223
 10
0.9168031087729247
 20
-11.47566047059267
 10
0.932039085968384
 20
-11.51264224552227
 10
0.9457839994506969
 20
-11.55020371556017
 10
0.9580158602903878
 20
-11.588284790367
 10
0.9687151001194251
 20
-11.62682454834657
 10
0.9778646024364689
 20
-11.66576133410753
 10
0.9854497299896252
 20
-11.7050328570987
 10
0.9914583481928502
 20
-11.7445762912608
 10
0.9958808445388029
 20
-11.78432837553464
 10
0.9987101439767371
 20
-11.82422551506536
 10
0.9999417202311207
 20
-11.86420388294068
 10
0.9995736030426627
 20
-11.90419952230024
 10
0.9976063813203239
 20
-11.94414844865301
 10
0.9940432021992222
 20
-11.98398675223882
 10
0.9888897660058546
 20
-12.02365070027031
 10
0.9821543171387645
 20
-12.06307683889183
 10
0.973847630879348
 20
-12.10220209469204
 10
0.9639829961536037
 20
-12.14096387560793
 10
0.9525761942727513
 20
-12.17930017105878
 10
0.9396454736864683
 20
-12.21714965114985
 10
0.9252115207893183
 20
-12.2544517647871
 10
0.909297426826825
 20
-12.29114683654609
 10
0.8919286509545258
 20
-12.32717616213986
 10
0.8731329795086679
 20
-12.36248210233332
 10
0.8529404815540289
 20
-12.39700817515366
 10
0.8313834607798327
 20
-12.43069914624956
 10
0.8084964038207402
 20
-12.46350111725429
 10
0.784315925085565
 20
-12.49536161201163
 10
0.7588807081820619
 20
-12.52622966052649
 10
0.7322314440313989
 20
-12.55605588050611
 10
0.7044107657713142
 20
-12.58479255636108
 10
0.6754631805522849
 20
-12.61239371554021
 10
0.6454349983355172
 20
-12.63881520207673
 10
0.6143742578068441
 20
-12.66401474722848
 10
0.5823306495252183
 20
-12.68795203709884
 10
0.5493554364282574
 20
-12.71058877713035
 10
0.5155013718225945
 20
-12.7318887533679
 10
0.4808226149897905
 20
-12.75181789039322
 10
0.4453746445430085
 20
-12.77034430583845
 10
0.4092141696731489
 20
-12.78743836139091
 10
0.3723990394261847
 20
-12.80307271020828
 10
0.3349881501570451
 20
-12.81722234066761
 10
0.2970413513079677
 20
-12.82986461637857
 10
0.25861934966224
 20
-12.84097931239692
 10
0.2197836122262515
 20
-12.85054864758002
 10
0.1805962678953676
 20
-12.85855731303296
 10
0.1411200080609944
 20
-12.8649924965994
 10
0.1014179863177276
 20
-12.8698439033584
 10
0.061553717431039
 20
-12.8731037720941
 10
0.0215909757272215
 20
-12.87476688771187
 10
0.0000000000011369
 20
-12.87499999999895
  0
LWPOLYLINE
  5
31D
330
313
100
AcDbEntity
  8
TU105501
100
AcDbPolyline
 90
       67
 70
   128
 43
0.0
 10
-0.0000004478844176
 20
-12.87499999104004
 10
-0.0399893341855062
 20
-12.87420010665992
 10
-0.0799146939680497
 20
-12.87180170630157
 10
-0.1197122072877903
 20
-12.86780863585281
 10
-0.159318206613122
 20
-12.86222728337456
 10
-0.1986693307939333
 20
-12.85506657784017
 10
-0.2377026264260138
 20
-12.84633797485097
 10
-0.2763556485629834
 20
-12.83605543830971
 10
-0.3145665606149919
 20
-12.82423541808137
 10
-0.3522742332739597
 20
-12.81089682367687
 10
-0.3894183423075219
 20
-12.79606099400182
 10
-0.4259394650648716
 20
-12.7797516632189
 10
-0.4617791755403573
 20
-12.76199492277823
 10
-0.4968801378426094
 20
-12.74281917967658
 10
-0.5311861979197659
 20
-12.72225511101234
 10
-0.5646424733939171
 20
-12.70033561490861
 10
-0.5971954413612651
 20
-12.67709575788322
 10
-0.628793024017341
 20
-12.65257271874986
 10
-0.6593846719703436
 20
-12.62680572913982
 10
-0.688921445109429
 20
-12.59983601073983
 10
-0.7173560908983916
 20
-12.5717067093461
 10
-0.7446431199697372
 20
-12.54246282584023
 10
-0.7707388788978449
 20
-12.5121511441975
 10
-0.7956016200352423
 20
-12.48082015664239
 10
-0.8191915682998711
 20
-12.44851998607137
 10
-0.8414709848067758
 20
-12.41530230586707
 10
-0.8624042272422087
 20
-12.3812202572317
 10
-0.8819578068838183
 20
-12.34632836417266
 10
-0.9001004421753719
 20
-12.31068244627563
 10
-0.9168031087706367
 20
-12.2743395294052
 10
-0.932039085966096
 20
-12.23735775447559
 10
-0.9457839994484089
 20
-12.19979628443769
 10
-0.9580158602880999
 20
-12.16171520963087
 10
-0.9687151001171372
 20
-12.12317545165129
 10
-0.977864602434181
 20
-12.08423866589034
 10
-0.985449729987323
 20
-12.04496714289917
 10
-0.9914583481905481
 20
-12.00542370873707
 10
-0.995880844536515
 20
-11.96567162446322
 10
-0.9987101439744492
 20
-11.9257744849325
 10
-0.9999417202288327
 20
-11.88579611705718
 10
-0.9995736030403747
 20
-11.84580047769762
 10
-0.997606381318036
 20
-11.80585155134486
 10
-0.9940432021969343
 20
-11.76601324775905
 10
-0.9888897660035667
 20
-11.72634929972756
 10
-0.9821543171364766
 20
-11.68692316110603
 10
-0.97384763087706
 20
-11.64779790530582
 10
-0.9639829961513157
 20
-11.60903612438993
 10
-0.9525761942704491
 20
-11.57069982893908
 10
-0.9396454736841803
 20
-11.53285034884801
 10
-0.9252115207870303
 20
-11.49554823521076
 10
-0.909297426824537
 20
-11.45885316345178
 10
-0.8919286509522379
 20
-11.422823837858
 10
-0.8731329795063658
 20
-11.38751789766455
 10
-0.8529404815517267
 20
-11.35299182484421
 10
-0.8313834607775305
 20
-11.3193008537483
 10
-0.8084964038184381
 20
-11.28649888274357
 10
-0.784315925083277
 20
-11.25463838798623
 10
-0.758880708179774
 20
-11.22377033947137
 10
-0.7322314440290967
 20
-11.19394411949176
 10
-0.7044107657690262
 20
-11.16520744363679
 10
-0.6754631805499969
 20
-11.13760628445767
 10
-0.6454349983332151
 20
-11.11118479792114
 10
-0.6143742578045562
 20
-11.08598525276939
 10
-0.5823306495229304
 20
-11.06204796289903
 10
-0.5493554364259694
 20
-11.03941122286751
 10
-0.5155013718203066
 20
-11.01811124662997
 10
-0.496796103545492
 20
-11.00736173054028
  0
LINE
  5
31E
330
313
100
AcDbEntity
  8
TU105501
100
AcDbLine
 10
1.180994750749803
 20
-0.0000000000000142
 30
0.0
 11
0.0
 21
0.0
 31
0.0
  0
LINE
  5
31F
330
313
100
AcDbEntity
  8
TU105501
100
AcDbLine
 10
-0.0000004511756373
 20
0.0
 30
0.0
 11
-1.180994750749789
 21
-0.0000000000000142
 31
0.0
  0
LINE
  5
320
330
313
100
AcDbEntity
  8
TU105501
100
AcDbLine
 10
1.180994750749803
 20
-0.2500000000000142
 30
0.0
 11
0.0
 21
-0.25
 31
0.0
  0
LINE
  5
321
330
313
100
AcDbEntity
  8
TU105501
100
AcDbLine
 10
-0.0000004511756373
 20
-0.25
 30
0.0
 11
-1.180994750749789
 21
-0.2500000000000142
 31
0.0
  0
ARC
  5
322
330
313
100
AcDbEntity
  8
TU105501
100
AcDbCircle
 10
0.0000000000011511
 20
-11.87499999999893
 30
0.0
 40
0.5886644129158368
100
AcDbArc
 50
270.0
 51
31.80387383811869
  0
ARC
  5
323
330
313
100
AcDbEntity
  8
TU105501
100
AcDbCircle
 10
0.0000000000011511
 20
-11.87499999999893
 30
0.0
 40
0.5886644129158363
100
AcDbArc
 50
147.9318635368196
 51
269.999955904496
  0
ARC
  5
324
330
313
100
AcDbEntity
  8
TU105501
100
AcDbCircle
 10
0.0000000000011369
 20
-11.87499999999892
 30
0.0
 40
3.37499999999994
100
AcDbArc
 50
270.0
 51
81.46731828741739
  0
ARC
  5
325
330
313
100
AcDbEntity
  8
TU105501
100
AcDbCircle
 10
0.0000000000011369
 20
-11.87499999999892
 30
0.0
 40
3.374999999999938
100
AcDbArc
 50
98.53268171262293
 51
269.9999923792753
  0
LINE
  5
326
330
313
100
AcDbEntity
  8
TU105501
100
AcDbLine
 10
3.750000000000426
 20
0.0000000000001421
 30
0.0
 11
3.750000000000426
 21
-0.6214285714284245
 31
0.0
  0
LINE
  5
327
330
313
100
AcDbEntity
  8
TU105501
100
AcDbLine
 10
-3.749999999999573
 20
-0.6214285714284245
 30
0.0
 11
-3.749999999999573
 21
0.0000000000001421
 31
0.0
  0
LINE
  5
328
330
313
100
AcDbEntity
  8
TU105501
100
AcDbLine
 10
1.250000000000426
 20
-0.6748535526490258
 30
0.0
 11
1.250000000000412
 21
-2.134211290577198
 31
0.0
  0
LINE
  5
329
330
313
100
AcDbEntity
  8
TU105501
100
AcDbLine
 10
-1.249999999999545
 20
-2.134211290577198
 30
0.0
 11
-1.249999999999545
 21
-0.6748535526490258
 31
0.0
  0
LINE
  5
32A
330
313
100
AcDbEntity
  8
TU105501
100
AcDbLine
 10
0.6250000000004264
 20
-2.134211290577184
 30
0.0
 11
0.6250000000004264
 21
-2.884211290577184
 31
0.0
  0
LINE
  5
32B
330
313
100
AcDbEntity
  8
TU105501
100
AcDbLine
 10
-0.6249999999995453
 20
-2.884211290577198
 30
0.0
 11
-0.6249999999995453
 21
-2.134211290577184
 31
0.0
  0
LINE
  5
32C
330
313
100
AcDbEntity
  8
TU105501
100
AcDbLine
 10
0.7500000000004122
 20
-0.6214285714284387
 30
0.0
 11
0.7500000000004122
 21
-0.6748535526490116
 31
0.0
  0
LINE
  5
32D
330
313
100
AcDbEntity
  8
TU105501
100
AcDbLine
 10
-0.7499999999995453
 20
-0.6748535526490116
 30
0.0
 11
-0.7499999999995453
 21
-0.6214285714284245
 31
0.0
  0
LINE
  5
32E
330
313
100
AcDbEntity
  8
TU105501
100
AcDbLine
 10
1.182378659706671
 20
0.0000000000001563
 30
0.0
 11
3.743655593517686
 21
0.0000000000001421
 31
0.0
  0
LINE
  5
32F
330
313
100
AcDbEntity
  8
TU105501
100
AcDbLine
 10
-3.743655593516834
 20
0.0000000000001421
 30
0.0
 11
-1.182378659706643
 21
0.0000000000001563
 31
0.0
  0
LINE
  5
330
330
313
100
AcDbEntity
  8
TU105501
100
AcDbLine
 10
3.743655593517686
 20
-0.6214285714284245
 30
0.0
 11
0.5005201361070136
 21
-0.6214285714284245
 31
0.0
  0
LINE
  5
331
330
313
100
AcDbEntity
  8
TU105501
100
AcDbLine
 10
-0.4998508773521735
 20
-0.6214285714284245
 30
0.0
 11
-3.743655593516834
 21
-0.6214285714284245
 31
0.0
  0
LINE
  5
332
330
313
100
AcDbEntity
  8
TU105501
100
AcDbLine
 10
0.5003045928767449
 20
-2.134211290577184
 30
0.0
 11
1.243152369210761
 21
-2.134211290577198
 31
0.0
  0
LINE
  5
333
330
313
100
AcDbEntity
  8
TU105501
100
AcDbLine
 10
-1.243152369209894
 20
-2.134211290577198
 30
0.0
 11
-0.5003045928767023
 21
-2.134211290577184
 31
0.0
  0
LINE
  5
334
330
313
100
AcDbEntity
  8
TU105501
100
AcDbLine
 10
0.5003045928767449
 20
-0.6748535526490116
 30
0.0
 11
1.243152369210761
 21
-0.6748535526490258
 31
0.0
  0
LINE
  5
335
330
313
100
AcDbEntity
  8
TU105501
100
AcDbLine
 10
-1.243152369209894
 20
-0.6748535526490258
 30
0.0
 11
-0.5003045928767023
 21
-0.6748535526490116
 31
0.0
  0
LINE
  5
336
330
313
100
AcDbEntity
  8
TU105501
100
AcDbLine
 10
0.6250000000004264
 20
-2.884211290577169
 30
0.0
 11
0.5030596301534445
 21
-2.884211290577169
 31
0.0
  0
LINE
  5
337
330
313
100
AcDbEntity
  8
TU105501
100
AcDbLine
 10
-0.5030596301534445
 20
-2.884211290577184
 30
0.0
 11
-0.6249999999995453
 21
-2.884211290577184
 31
0.0
  0
ENDBLK
  5
315
330
313
100
AcDbEntity
  8
0
100
AcDbBlockEnd
  0
BLOCK
  5
33A
330
339
100
AcDbEntity
  8
0
100
AcDbBlockBegin
  2
TU105501 Front View
 70
     0
 10
0.0
 20
0.0
 30
0.0
  3
TU105501 Front View
  1

  0
LINE
  5
33C
330
339
100
AcDbEntity
  8
TU105501
100
AcDbLine
 10
0.5000000000003979
 20
31.37249773887138
 30
0.0
 11
0.5000000000004122
 21
31.8957706101338
 31
0.0
1001
REVIT
1002
{
1070
     2
1000
-2001160
1002
}
  0
LINE
  5
33D
330
339
100
AcDbEntity
  8
TU105501
100
AcDbLine
 10
-0.4999999999995879
 20
31.89577061013382
 30
0.0
 11
-0.4999999999996021
 21
31.37249773887138
 31
0.0
1001
REVIT
1002
{
1070
     2
1000
-2001160
1002
}
  0
LWPOLYLINE
  5
33E
330
339
100
AcDbEntity
  8
TU105501
100
AcDbPolyline
 90
       41
 70
   128
 43
0.0
 10
0.5000000000004122
 20
31.8957706101338
 10
0.5000000000004122
 20
31.97991734241051
 10
0.5000000000004122
 20
32.06392945786591
 10
0.5000000000004122
 20
32.14767255503693
 10
0.5000000000004122
 20
32.23101266283231
 10
0.5000000000004122
 20
32.31381645485786
 10
0.5000000000004122
 20
32.39595146271021
 10
0.5000000000004122
 20
32.47728628789802
 10
0.5000000000004122
 20
32.55769081205144
 10
0.5000000000004122
 20
32.63703640508391
 10
0.5000000000004122
 20
32.71519613097274
 10
0.5000000000004122
 20
32.79204495082967
 10
0.5000000000004122
 20
32.86745992293649
 10
0.5000000000004122
 20
32.94132039942548
 10
0.5000000000004264
 20
33.01350821929034
 10
0.5000000000004264
 20
33.08390789741852
 10
0.5000000000004264
 20
33.15240680934281
 10
0.5000000000004264
 20
33.21889537141646
 10
0.5000000000004264
 20
33.28326721612363
 10
0.5000000000004264
 20
33.34541936224468
 10
0.5000000000004264
 20
33.40525237960429
 10
0.5000000000004264
 20
33.46267054813834
 10
0.5000000000004264
 20
33.51758201102573
 10
0.5000000000004264
 20
33.56989892163968
 10
0.5000000000004264
 20
33.61953758408355
 10
0.5000000000004264
 20
33.66641858708644
 10
0.5000000000004264
 20
33.7104669310443
 10
0.5000000000004264
 20
33.75161214800327
 10
0.5000000000004264
 20
33.7897884143934
 10
0.5000000000004264
 20
33.82493465633228
 10
0.5000000000004264
 20
33.8569946473303
 10
0.5000000000004264
 20
33.88591709824096
 10
0.5000000000004264
 20
33.91165573931258
 10
0.5000000000004264
 20
33.93416939421008
 10
0.5000000000004264
 20
33.95342204588827
 10
0.5000000000004264
 20
33.96938289421148
 10
0.5000000000004264
 20
33.9820264052272
 10
0.5000000000004264
 20
33.99133235201493
 10
0.5000000000004264
 20
33.99728584704499
 10
0.5000000000004264
 20
33.99987736599532
 10
0.5000000000004264
 20
34.00000000000026
1001
REVIT
1002
{
1070
     2
1000
-2001160
1002
}
  0
LWPOLYLINE
  5
33F
330
339
100
AcDbEntity
  8
TU105501
100
AcDbPolyline
 90
       41
 70
   128
 43
0.0
 10
-0.4999999999995737
 20
34.00000000000027
 10
-0.4999999999995737
 20
33.99831684092754
 10
-0.4999999999995737
 20
33.99327005640482
 10
-0.4999999999995737
 20
33.98486772021075
 10
-0.4999999999995737
 20
33.97312327429084
 10
-0.4999999999995737
 20
33.95805550725319
 10
-0.4999999999995737
 20
33.93968852431082
 10
-0.4999999999995737
 20
33.91805170871832
 10
-0.4999999999995737
 20
33.89317967476506
 10
-0.4999999999995737
 20
33.86511221239959
 10
-0.4999999999995737
 20
33.8338942235743
 10
-0.4999999999995737
 20
33.79957565041183
 10
-0.4999999999995737
 20
33.76221139530832
 10
-0.4999999999995737
 20
33.72186123310133
 10
-0.4999999999995737
 20
33.67858971544281
 10
-0.4999999999995737
 20
33.63246606753027
 10
-0.4999999999995737
 20
33.58356407736116
 10
-0.4999999999995737
 20
33.53196197768788
 10
-0.4999999999995737
 20
33.47774232086208
 10
-0.4999999999995737
 20
33.42099184676839
 10
-0.4999999999995737
 20
33.36180134405927
 10
-0.4999999999995737
 20
33.30026550491242
 10
-0.4999999999995737
 20
33.23648277354352
 10
-0.4999999999995737
 20
33.1705551887165
 10
-0.4999999999995737
 20
33.10258822050329
 10
-0.4999999999995879
 20
33.03269060155418
 10
-0.4999999999995879
 20
32.9609741531488
 10
-0.4999999999995879
 20
32.88755360630589
 10
-0.4999999999995879
 20
32.81254641823821
 10
-0.4999999999995879
 20
32.73607258444595
 10
-0.4999999999995879
 20
32.65825444674967
 10
-0.4999999999995879
 20
32.57921649756933
 10
-0.4999999999995879
 20
32.49908518076311
 10
-0.4999999999995879
 20
32.41798868934413
 10
-0.4999999999995879
 20
32.336056760399
 10
-0.4999999999995879
 20
32.25342046753616
 10
-0.4999999999995879
 20
32.17021201119602
 10
-0.4999999999995879
 20
32.08656450715857
 10
-0.4999999999995879
 20
32.00261177358641
 10
-0.4999999999995879
 20
31.91848811694428
 10
-0.4999999999995879
 20
31.89577061013381
1001
REVIT
1002
{
1070
     2
1000
-2001160
1002
}
  0
LINE
  5
340
330
339
100
AcDbEntity
  8
TU105501
100
AcDbLine
 10
-0.5886644129165575
 20
31.37249773887138
 30
0.0
 11
-0.5886644129165433
 21
30.87249773887137
 31
0.0
1001
REVIT
1002
{
1070
     2
1000
-2001160
1002
}
  0
LINE
  5
341
330
339
100
AcDbEntity
  8
TU105501
100
AcDbLine
 10
0.5886644129151222
 20
30.87249773887137
 30
0.0
 11
0.5886644129151222
 21
31.37249773887138
 31
0.0
1001
REVIT
1002
{
1070
     2
1000
-2001160
1002
}
  0
LINE
  5
342
330
339
100
AcDbEntity
  8
TU105501
100
AcDbLine
 10
-0.5886644129165575
 20
30.87249773887143
 30
0.0
 11
-0.4552079212789267
 21
30.73904124723382
 31
0.0
1001
REVIT
1002
{
1070
     2
1000
-2001160
1002
}
  0
LINE
  5
343
330
339
100
AcDbEntity
  8
TU105501
100
AcDbLine
 10
0.4552079212775056
 20
30.73904124723382
 30
0.0
 11
0.5886644129151364
 21
30.87249773887144
 31
0.0
1001
REVIT
1002
{
1070
     2
1000
-2001160
1002
}
  0
LINE
  5
344
330
339
100
AcDbEntity
  8
TU105501
100
AcDbLine
 10
-0.4552079212789267
 20
30.73904124723374
 30
0.0
 11
-0.4552079212789124
 21
30.47341624723377
 31
0.0
1001
REVIT
1002
{
1070
     2
1000
-2001160
1002
}
  0
LINE
  5
345
330
339
100
AcDbEntity
  8
TU105501
100
AcDbLine
 10
0.4552079212775056
 20
30.47341624723377
 30
0.0
 11
0.4552079212775056
 21
30.73904124723374
 31
0.0
1001
REVIT
1002
{
1070
     2
1000
-2001160
1002
}
  0
LINE
  5
346
330
339
100
AcDbEntity
  8
TU105501
100
AcDbLine
 10
-0.4552079212789267
 20
30.47341624723384
 30
0.0
 11
-0.4093993186104399
 21
30.42760764456535
 31
0.0
1001
REVIT
1002
{
1070
     2
1000
-2001160
1002
}
  0
LINE
  5
347
330
339
100
AcDbEntity
  8
TU105501
100
AcDbLine
 10
0.4093993186090188
 20
30.42760764456536
 30
0.0
 11
0.4552079212775198
 21
30.47341624723385
 31
0.0
1001
REVIT
1002
{
1070
     2
1000
-2001160
1002
}
  0
LINE
  5
348
330
339
100
AcDbEntity
  8
TU105501
100
AcDbLine
 10
-0.4093993186104541
 20
30.42760764456529
 30
0.0
 11
-0.4093993186104541
 21
30.33315062674268
 31
0.0
1001
REVIT
1002
{
1070
     2
1000
-2001160
1002
}
  0
LINE
  5
349
330
339
100
AcDbEntity
  8
TU105501
100
AcDbLine
 10
0.409399318609033
 20
30.33315062674268
 30
0.0
 11
0.409399318609033
 21
30.42760764456529
 31
0.0
1001
REVIT
1002
{
1070
     2
1000
-2001160
1002
}
  0
LWPOLYLINE
  5
34A
330
339
100
AcDbEntity
  8
TU105501
100
AcDbPolyline
 90
       11
 70
   128
 43
0.0
 10
-0.5196764051022314
 20
30.15099452462784
 10
-0.5116566429294665
 20
30.17162393625
 10
-0.5028183392756063
 20
30.19191614159361
 10
-0.4931756335410995
 20
30.21183867745887
 10
-0.482743951998117
 20
30.23135967203832
 10
-0.4715399831118248
 20
30.25044789590488
 10
-0.4595816508423951
 20
30.26907281197229
 10
-0.4468880859704712
 20
30.28720462434798
 10
-0.433479595492031
 20
30.30481432600003
 10
-0.4193776301315211
 20
30.32187374516236
 10
-0.4093993186104399
 20
30.33315062674268
1001
REVIT
1002
{
1070
     2
1000
-2001160
1002
}
  0
LWPOLYLINE
  5
34B
330
339
100
AcDbEntity
  8
TU105501
100
AcDbPolyline
 90
       11
 70
   128
 43
0.0
 10
0.4093993186090188
 20
30.33315062674268
 10
0.4239602205405504
 20
30.31648121331193
 10
0.4378428765592446
 20
30.29924285286055
 10
0.4510250773769258
 20
30.28146312308795
 10
0.4634857342843617
 20
30.26317046776894
 10
0.4752049128886285
 20
30.24439415124983
 10
0.4861638650039169
 20
30.22516421163162
 10
0.4963450586446215
 20
30.20551141271555
 10
0.5057322060727785
 20
30.18546719478752
 10
0.5143102898550183
 20
30.16506362432032
 10
0.5205659630057795
 20
30.14834190937324
1001
REVIT
1002
{
1070
     2
1000
-2001160
1002
}
  0
LWPOLYLINE
  5
34C
330
339
100
AcDbEntity
  8
TU105501
100
AcDbPolyline
 90
       41
 70
   128
 43
0.0
 10
-1.00000000000071
 20
30.07281944441024
 10
-0.9999395900840397
 20
30.07583953750025
 10
-0.9997584569770197
 20
30.07885479908556
 10
-0.9994568904539562
 20
30.08186040539087
 10
-0.9990353729569676
 20
30.08485154808724
 10
-0.9984945788241361
 20
30.08782344198444
 10
-0.9978353732107052
 20
30.09077133268621
 10
-0.9970588107050417
 20
30.09369050419625
 10
-0.9961661336414806
 20
30.09657628646291
 10
-0.9951587701129227
 20
30.09942406285013
 10
-0.9940383316860845
 20
30.1022292775232
 10
-0.9928066108234645
 20
30.10498744273706
 10
-0.9914655780156778
 20
30.10769414601572
 10
-0.9900173786291475
 20
30.11034505721136
 10
-0.9884643294739561
 20
30.11293593543156
 10
-0.9868089150974554
 20
30.11546263582385
 10
-0.985053783809505
 20
30.1179211162066
 10
-0.9832017434457611
 20
30.12030744353565
 10
-0.9812557568757398
 20
30.12261780019634
 10
-0.9792189372628143
 20
30.12484849011086
 10
-0.9770945430838793
 20
30.1269959446512
 10
-0.9748859729164252
 20
30.12905672834819
 10
-0.9725967600015934
 20
30.13102754438751
 10
-0.9702305665917094
 20
30.13290523988394
 10
-0.9677911780914598
 20
30.13468681092525
 10
-0.9652824970020787
 20
30.13636940737778
 10
-0.9627085366781358
 20
30.13795033744617
 10
-0.9600734149071001
 20
30.13942707197955
 10
-0.9573813473216432
 20
30.1407972485177
 10
-0.9546366406556501
 20
30.14205867507043
 10
-0.9518436858542571
 20
30.14320933362436
 10
-0.9490069510493555
 20
30.14424738337123
 10
-0.9461309744115027
 20
30.14517116365293
 10
-0.9432203568898103
 20
30.14597919661805
 10
-0.940279754851403
 20
30.14667018958622
 10
-0.9373138726322594
 20
30.14724303711609
 10
-0.9343274550112425
 20
30.14769682277382
 10
-0.9313252796194575
 20
30.14803082059916
 10
-0.9283121492971275
 20
30.14824449626683
 10
-0.9252928844099841
 20
30.14833750794135
 10
-0.9244775350377238
 20
30.14834190937325
1001
REVIT
1002
{
1070
     2
1000
-2001160
1002
}
  0
LWPOLYLINE
  5
34D
330
339
100
AcDbEntity
  8
TU105501
100
AcDbPolyline
 90
       41
 70
   128
 43
0.0
 10
-0.0000004477157063
 20
30.14834190937324
 10
-0.0369692410973244
 20
30.14834190937324
 10
-0.0738793392945496
 20
30.14834190937324
 10
-0.1106712463089963
 20
30.14834190937324
 10
-0.1472861029379544
 20
30.14834190937324
 10
-0.183665333221569
 20
30.14834190937324
 10
-0.2197507381518733
 20
30.14834190937324
 10
-0.2554845887787991
 20
30.14834190937324
 10
-0.2908097185641623
 20
30.14834190937324
 10
-0.3256696148359026
 20
30.14834190937324
 10
-0.3600085091964047
 20
30.14834190937324
 10
-0.3937714667398921
 20
30.14834190937324
 10
-0.4269044739367161
 20
30.14834190937324
 10
-0.4593545250433238
 20
30.14834190937324
 10
-0.4910697069002766
 20
30.14834190937324
 10
-0.5219992819821471
 20
30.14834190937324
 10
-0.5520937695667385
 20
30.14834190937324
 10
-0.5813050248937657
 20
30.14834190937324
 10
-0.609586316186082
 20
30.14834190937324
 10
-0.6368923994106411
 20
30.14834190937324
 10
-0.6631795906592828
 20
30.14834190937324
 10
-0.6884058360336383
 20
30.14834190937324
 10
-0.7125307789224138
 20
30.14834190937325
 10
-0.7355158245633789
 20
30.14834190937325
 10
-0.7573242017867159
 20
30.14834190937325
 10
-0.7779210218410811
 20
30.14834190937325
 10
-0.7972733342081284
 20
30.14834190937325
 10
-0.8153501793163542
 20
30.14834190937325
 10
-0.8321226380697623
 20
30.14834190937325
 10
-0.8475638781122967
 20
30.14834190937325
 10
-0.8616491967538308
 20
30.14834190937325
 10
-0.8743560604892621
 20
30.14834190937325
 10
-0.8856641410472576
 20
30.14834190937325
 10
-0.8955553479111699
 20
30.14834190937325
 10
-0.904013857260054
 20
30.14834190937325
 10
-0.9110261372833292
 20
30.14834190937325
 10
-0.9165809698288285
 20
30.14834190937325
 10
-0.9206694683494447
 20
30.14834190937325
 10
-0.9232850921197126
 20
30.14834190937325
 10
-0.9244236566995738
 20
30.14834190937325
 10
-0.9244775350377238
 20
30.14834190937325
1001
REVIT
1002
{
1070
     2
1000
-2001160
1002
}
  0
LWPOLYLINE
  5
34E
330
339
100
AcDbEntity
  8
TU105501
100
AcDbPolyline
 90
       22
 70
   128
 43
0.0
 10
-0.9244775350377238
 20
30.14834190937325
 10
-0.9237380516153734
 20
30.14834190937325
 10
-0.9215207843640484
 20
30.14834190937325
 10
-0.9178292804383545
 20
30.14834190937325
 10
-0.912669445457098
 20
30.14834190937325
 10
-0.9060495340555405
 20
30.14834190937325
 10
-0.897980136679763
 20
30.14834190937325
 10
-0.8884741626441723
 20
30.14834190937325
 10
-0.8775468194793916
 20
30.14834190937325
 10
-0.865215588603462
 20
30.14834190937325
 10
-0.8515001973552358
 20
30.14834190937325
 10
-0.8364225874349386
 20
30.14834190937325
 10
-0.820006879802051
 20
30.14834190937325
 10
-0.80227933608694
 20
30.14834190937325
 10
-0.7832683165779031
 20
30.14834190937325
 10
-0.7630042348506692
 20
30.14834190937325
 10
-0.7415195091132177
 20
30.14834190937325
 10
-0.7188485103435909
 20
30.14834190937325
 10
-0.6950275073035926
 20
30.14834190937325
 10
-0.6700946085165214
 20
30.14834190937325
 10
-0.6440897013017235
 20
30.14834190937325
 10
-0.6386340797660779
 20
30.14834190937325
1001
REVIT
1002
{
1070
     2
1000
-2001160
1002
}
  0
LWPOLYLINE
  5
34F
330
339
100
AcDbEntity
  8
TU105501
100
AcDbPolyline
 90
       41
 70
   128
 43
0.0
 10
0.9244775350363028
 20
30.14834190937325
 10
0.9274976281263178
 20
30.14828149945657
 10
0.9305128897116219
 20
30.14810036634954
 10
0.93351849601693
 20
30.14779879982647
 10
0.9365096387133036
 20
30.1473772823295
 10
0.9394815326105003
 20
30.14683648819667
 10
0.9424294233122623
 20
30.14617728258324
 10
0.9453485948223203
 20
30.14540072007757
 10
0.9482343770889656
 20
30.14450804301401
 10
0.951082153476193
 20
30.14350067948544
 10
0.9538873681492674
 20
30.14238024105861
 10
0.9566455333631154
 20
30.14114852019599
 10
0.9593522366417772
 20
30.1398074873882
 10
0.9620031478374215
 20
30.13835928800167
 10
0.9645940260576111
 20
30.13680623884648
 10
0.9671207264499059
 20
30.13515082446998
 10
0.9695792068326625
 20
30.13339569318204
 10
0.9719655341617254
 20
30.1315436528183
 10
0.9742758908224118
 20
30.12959766624828
 10
0.9765065807369239
 20
30.12756084663535
 10
0.978654035277259
 20
30.12543645245641
 10
0.9807148189742491
 20
30.12322788228895
 10
0.9826856350135813
 20
30.12093866937411
 10
0.9845633305100136
 20
30.11857247596423
 10
0.9863449015513054
 20
30.11613308746398
 10
0.988027498003845
 20
30.1136244063746
 10
0.9896084280722305
 20
30.11105044605067
 10
0.9910851626056143
 20
30.10841532427963
 10
0.9924553391437598
 20
30.10572325669418
 10
0.9937167656964902
 20
30.10297855002818
 10
0.9948674242504154
 20
30.10018559522678
 10
0.995905473997297
 20
30.09734886042188
 10
0.9968292542789924
 20
30.09447288378404
 10
0.9976372872441174
 20
30.09156226626234
 10
0.9983282802122914
 20
30.08862166422394
 10
0.9989011277421582
 20
30.08565578200479
 10
0.999354913399884
 20
30.08266936438378
 10
0.9996889112252205
 20
30.07966718899199
 10
0.999902586892901
 20
30.07665405866966
 10
0.9999955985674091
 20
30.07363479378252
 10
0.9999999999993036
 20
30.07281944441024
1001
REVIT
1002
{
1070
     2
1000
-2001160
1002
}
  0
LWPOLYLINE
  5
350
330
339
100
AcDbEntity
  8
TU105501
100
AcDbPolyline
 90
       21
 70
   128
 43
0.0
 10
0.6631795906578617
 20
30.14834190937325
 10
0.6884058360322172
 20
30.14834190937325
 10
0.712530778921007
 20
30.14834190937325
 10
0.7355158245619578
 20
30.14834190937325
 10
0.7573242017853091
 20
30.14834190937325
 10
0.77792102183966
 20
30.14834190937325
 10
0.7972733342067074
 20
30.14834190937325
 10
0.8153501793149331
 20
30.14834190937325
 10
0.8321226380683555
 20
30.14834190937325
 10
0.8475638781108898
 20
30.14834190937325
 10
0.861649196752424
 20
30.14834190937325
 10
0.8743560604878553
 20
30.14834190937325
 10
0.8856641410458365
 20
30.14834190937325
 10
0.895555347909763
 20
30.14834190937325
 10
0.9040138572586471
 20
30.14834190937325
 10
0.9110261372819223
 20
30.14834190937325
 10
0.9165809698274216
 20
30.14834190937325
 10
0.9206694683480378
 20
30.14834190937325
 10
0.9232850921183057
 20
30.14834190937325
 10
0.9244236566981669
 20
30.14834190937325
 10
0.924477535036317
 20
30.14834190937325
1001
REVIT
1002
{
1070
     2
1000
-2001160
1002
}
  0
LWPOLYLINE
  5
351
330
339
100
AcDbEntity
  8
TU105501
100
AcDbPolyline
 90
       41
 70
   128
 43
0.0
 10
0.924477535036317
 20
30.14834190937325
 10
0.9237380516139666
 20
30.14834190937325
 10
0.9215207843626274
 20
30.14834190937325
 10
0.9178292804369334
 20
30.14834190937325
 10
0.9126694454556911
 20
30.14834190937325
 10
0.9060495340541336
 20
30.14834190937325
 10
0.8979801366783419
 20
30.14834190937325
 10
0.8884741626427512
 20
30.14834190937325
 10
0.8775468194779847
 20
30.14834190937325
 10
0.8652155886020409
 20
30.14834190937325
 10
0.8515001973538289
 20
30.14834190937325
 10
0.8364225874335318
 20
30.14834190937325
 10
0.8200068798006441
 20
30.14834190937325
 10
0.8022793360855331
 20
30.14834190937325
 10
0.7832683165764962
 20
30.14834190937325
 10
0.7630042348492623
 20
30.14834190937325
 10
0.7415195091118108
 20
30.14834190937325
 10
0.718848510342184
 20
30.14834190937325
 10
0.6950275073021857
 20
30.14834190937324
 10
0.6700946085151145
 20
30.14834190937324
 10
0.6440897013003167
 20
30.14834190937324
 10
0.6170543879619146
 20
30.14834190937324
 10
0.5890319192340172
 20
30.14834190937324
 10
0.5600671250887928
 20
30.14834190937324
 10
0.5302063430180226
 20
30.14834190937324
 10
0.4994973439030872
 20
30.14834190937324
 10
0.467989255591661
 20
30.14834190937324
 10
0.4357324843036708
 20
30.14834190937324
 10
0.4027786339920852
 20
30.14834190937324
 10
0.3691804237876539
 20
30.14834190937324
 10
0.3349916036594465
 20
30.14834190937324
 10
0.3002668684264478
 20
30.14834190937324
 10
0.2650617702574749
 20
30.14834190937324
 10
0.2294326297995894
 20
30.14834190937324
 10
0.1934364460770297
 20
30.14834190937324
 10
0.1571308053050018
 20
30.14834190937324
 10
0.1205737887639202
 20
30.14834190937324
 10
0.0838238798818623
 20
30.14834190937324
 10
0.0469398706734694
 20
30.14834190937324
 10
0.0099807676852919
 20
30.14834190937324
 10
-0.0000000000006963
 20
30.14834190937324
1001
REVIT
1002
{
1070
     2
1000
-2001160
1002
}
  0
LINE
  5
352
330
339
100
AcDbEntity
  8
TU105501
100
AcDbLine
 10
-1.00000000000071
 20
30.07281944441024
 30
0.0
 11
-1.000000000000696
 21
29.45167360934498
 31
0.0
1001
REVIT
1002
{
1070
     2
1000
-2001160
1002
}
  0
LINE
  5
353
330
339
100
AcDbEntity
  8
TU105501
100
AcDbLine
 10
0.9999999999993036
 20
29.45167360934498
 30
0.0
 11
0.9999999999993036
 21
30.07281944441024
 31
0.0
1001
REVIT
1002
{
1070
     2
1000
-2001160
1002
}
  0
LINE
  5
354
330
339
100
AcDbEntity
  8
TU105501
100
AcDbLine
 10
-3.375000000000639
 20
29.451673609345
 30
0.0
 11
-3.375000000000639
 21
29.00000000000018
 31
0.0
1001
REVIT
1002
{
1070
     2
1000
-2001160
1002
}
  0
LINE
  5
355
330
339
100
AcDbEntity
  8
TU105501
100
AcDbLine
 10
3.374999999999246
 20
29.00000000000018
 30
0.0
 11
3.374999999999246
 21
29.451673609345
 31
0.0
1001
REVIT
1002
{
1070
     2
1000
-2001160
1002
}
  0
ARC
  5
356
330
339
100
AcDbEntity
  8
TU105501
100
AcDbCircle
 10
0.0000000000004263
 20
34.00000000000019
 30
0.0
 40
1.187499999999965
100
AcDbArc
 50
90.00002176063004
 51
245.1354429005497
1001
REVIT
1002
{
1070
     2
1000
-2001160
1002
}
  0
ARC
  5
357
330
339
100
AcDbEntity
  8
TU105501
100
AcDbCircle
 10
0.0000000000004263
 20
34.00000000000019
 30
0.0
 40
1.187499999999967
100
AcDbArc
 50
294.7776288792701
 51
89.9999999999992
1001
REVIT
1002
{
1070
     2
1000
-2001160
1002
}
  0
LINE
  5
358
330
339
100
AcDbEntity
  8
TU105501
100
AcDbLine
 10
-0.5886644129165575
 20
31.37249773887134
 30
0.0
 11
-0.0000004528712196
 21
31.37249773887134
 31
0.0
1001
REVIT
1002
{
1070
     2
1000
-2001160
1002
}
  0
LINE
  5
359
330
339
100
AcDbEntity
  8
TU105501
100
AcDbLine
 10
-0.0000000000007105
 20
31.37249773887134
 30
0.0
 11
0.5886644129151222
 21
31.37249773887134
 31
0.0
1001
REVIT
1002
{
1070
     2
1000
-2001160
1002
}
  0
LINE
  5
35A
330
339
100
AcDbEntity
  8
TU105501
100
AcDbLine
 10
-0.5886644129165575
 20
30.8724977388714
 30
0.0
 11
-0.0000004528712196
 21
30.8724977388714
 31
0.0
1001
REVIT
1002
{
1070
     2
1000
-2001160
1002
}
  0
LINE
  5
35B
330
339
100
AcDbEntity
  8
TU105501
100
AcDbLine
 10
-0.0000000000007105
 20
30.87249773887142
 30
0.0
 11
0.5886644129151364
 21
30.87249773887142
 31
0.0
1001
REVIT
1002
{
1070
     2
1000
-2001160
1002
}
  0
LINE
  5
35C
330
339
100
AcDbEntity
  8
TU105501
100
AcDbLine
 10
-0.4482922901080855
 20
30.73904124723371
 30
0.0
 11
-0.0000004569387499
 21
30.73904124723371
 31
0.0
1001
REVIT
1002
{
1070
     2
1000
-2001160
1002
}
  0
LINE
  5
35D
330
339
100
AcDbEntity
  8
TU105501
100
AcDbLine
 10
-0.0000000000007105
 20
30.73904124723371
 30
0.0
 11
0.4482922901066644
 21
30.73904124723371
 31
0.0
1001
REVIT
1002
{
1070
     2
1000
-2001160
1002
}
  0
LINE
  5
35E
330
339
100
AcDbEntity
  8
TU105501
100
AcDbLine
 10
-0.4482922901080713
 20
30.4734162472338
 30
0.0
 11
-0.0000004569387499
 21
30.47341624723381
 31
0.0
1001
REVIT
1002
{
1070
     2
1000
-2001160
1002
}
  0
LINE
  5
35F
330
339
100
AcDbEntity
  8
TU105501
100
AcDbLine
 10
-0.0000000000007105
 20
30.47341624723382
 30
0.0
 11
0.4482922901066644
 21
30.47341624723382
 31
0.0
1001
REVIT
1002
{
1070
     2
1000
-2001160
1002
}
  0
LINE
  5
360
330
339
100
AcDbEntity
  8
TU105501
100
AcDbLine
 10
-0.403179623045503
 20
30.42760764456526
 30
0.0
 11
-0.0000004569387499
 21
30.42760764456526
 31
0.0
1001
REVIT
1002
{
1070
     2
1000
-2001160
1002
}
  0
LINE
  5
361
330
339
100
AcDbEntity
  8
TU105501
100
AcDbLine
 10
-0.0000000000007105
 20
30.42760764456526
 30
0.0
 11
0.4031796230440819
 21
30.42760764456526
 31
0.0
1001
REVIT
1002
{
1070
     2
1000
-2001160
1002
}
  0
LINE
  5
362
330
339
100
AcDbEntity
  8
TU105501
100
AcDbLine
 10
-0.403179623045503
 20
30.33315062674265
 30
0.0
 11
-0.0000004569387499
 21
30.33315062674265
 31
0.0
1001
REVIT
1002
{
1070
     2
1000
-2001160
1002
}
  0
LINE
  5
363
330
339
100
AcDbEntity
  8
TU105501
100
AcDbLine
 10
-0.0000000000006963
 20
30.33315062674266
 30
0.0
 11
0.4031796230440961
 21
30.33315062674267
 31
0.0
1001
REVIT
1002
{
1070
     2
1000
-2001160
1002
}
  0
LINE
  5
364
330
339
100
AcDbEntity
  8
TU105501
100
AcDbLine
 10
-3.369290034166169
 20
29.45167360934497
 30
0.0
 11
-0.0000004487275476
 21
29.45167360934495
 31
0.0
1001
REVIT
1002
{
1070
     2
1000
-2001160
1002
}
  0
LINE
  5
365
330
339
100
AcDbEntity
  8
TU105501
100
AcDbLine
 10
-0.0000000000006679
 20
29.45167360934495
 30
0.0
 11
3.369290034164777
 21
29.45167360934497
 31
0.0
1001
REVIT
1002
{
1070
     2
1000
-2001160
1002
}
  0
LINE
  5
366
330
339
100
AcDbEntity
  8
TU105501
100
AcDbLine
 10
-3.369290034166169
 20
29.00000000000015
 30
0.0
 11
-0.0000004487275476
 21
29.00000000000014
 31
0.0
1001
REVIT
1002
{
1070
     2
1000
-2001160
1002
}
  0
LINE
  5
367
330
339
100
AcDbEntity
  8
TU105501
100
AcDbLine
 10
-0.0000000000006679
 20
29.00000000000014
 30
0.0
 11
3.369290034164777
 21
29.00000000000015
 31
0.0
1001
REVIT
1002
{
1070
     2
1000
-2001160
1002
}
  0
LWPOLYLINE
  5
368
330
339
100
AcDbEntity
  8
TU105501
100
AcDbPolyline
 90
       41
 70
   128
 43
0.0
 10
-0.0921679750827878
 20
-3.59150967401214
 10
-0.1072272395259119
 20
-3.591208448558813
 10
-0.1222624123583955
 20
-3.5903052540953
 10
-0.1372494405110558
 20
-3.588801535540069
 10
-0.1521643479358801
 20
-3.586699698522027
 10
-0.1669832739626997
 20
-3.584003105532051
 10
-0.1816825114710383
 20
-3.580716070543672
 10
-0.1962385448165804
 20
-3.576843852111666
 10
-0.2106280874510986
 20
-3.572392644959514
 10
-0.2248281191759531
 20
-3.567369570069104
 10
-0.238815922969593
 20
-3.561782663288733
 10
-0.2525691213298273
 20
-3.55564086247744
 10
-0.2660657120731571
 20
-3.548953993206351
 10
-0.279284103533513
 20
-3.541732753039831
 10
-0.2922031491043242
 20
-3.533988694421701
 10
-0.3048021810685952
 20
-3.525734206193765
 10
-0.3170610436628323
 20
-3.51698249377635
 10
-0.32896012532197
 20
-3.507747558042357
 10
-0.340480390053699
 20
-3.498044172918968
 10
-0.3516034078919574
 20
-3.487887861752433
 10
-0.3623113843809875
 20
-3.477294872474047
 10
-0.372587189042676
 20
-3.466282151606954
 10
-0.3824143827815902
 20
-3.45486731715526
 10
-0.3917772441841265
 20
-3.443068630419075
 10
-0.4006607946693351
 20
-3.430904966780248
 10
-0.4090508224514906
 20
-3.418395785505831
 10
-0.4169339052759256
 20
-3.405561098617367
 10
-0.424297431891759
 20
-3.392421438875974
 10
-0.4311296222272035
 20
-3.378997826934252
 10
-0.4374195462351765
 20
-3.365311737707754
 10
-0.4431571413790465
 20
-3.351385066019709
 10
-0.4483332287305473
 20
-3.337240091573937
 10
-0.4529395276540669
 20
-3.322899443312129
 10
-0.4569686690539641
 20
-3.308386063212326
 10
-0.4604142071635096
 20
-3.293723169586669
 10
-0.4632706298567371
 20
-3.278934219937037
 10
-0.4655333674666764
 20
-3.264042873428065
 10
-0.4671988000958294
 20
-3.249072953037511
 10
-0.4682642634072636
 20
-3.234048407444591
 10
-0.4687280528869735
 20
-3.218993272717197
 10
-0.4687500000007958
 20
-3.214927649094139
1001
REVIT
1002
{
1070
     2
1000
-2001160
1002
}
  0
LWPOLYLINE
  5
369
330
339
100
AcDbEntity
  8
TU105501
100
AcDbPolyline
 90
       41
 70
   128
 43
0.0
 10
0.4687499999992042
 20
-3.214927649094139
 10
0.4684487745458768
 20
-3.229986913537265
 10
0.4675455800823727
 20
-3.245022086369754
 10
0.4660418615271312
 20
-3.260009114522405
 10
0.4639400245090997
 20
-3.274924021947235
 10
0.4612434315191223
 20
-3.289742947974051
 10
0.457956396530733
 20
-3.3044421854824
 10
0.4540841780987393
 20
-3.318998218827939
 10
0.4496329709465812
 20
-3.333387761462452
 10
0.4446098960561784
 20
-3.347587793187312
 10
0.4390229892757987
 20
-3.361575596980943
 10
0.4328811884645063
 20
-3.375328795341184
 10
0.4261943191934137
 20
-3.388825386084516
 10
0.4189730790268982
 20
-3.402043777544871
 10
0.4112290204087686
 20
-3.414962823115679
 10
0.4029745321808349
 20
-3.42756185507995
 10
0.3942228197634137
 20
-3.439820717674189
 10
0.3849878840294281
 20
-3.451719799333325
 10
0.3752844989060406
 20
-3.463240064065045
 10
0.3651281877395007
 20
-3.474363081903311
 10
0.3545351984611216
 20
-3.485071058392341
 10
0.3435224775940213
 20
-3.495346863054022
 10
0.3321076431423364
 20
-3.505174056792942
 10
0.3203089564061372
 20
-3.514536918195473
 10
0.3081452927673212
 20
-3.523420468680685
 10
0.2956361114928967
 20
-3.53181049646284
 10
0.2828014246044432
 20
-3.539693579287277
 10
0.269661764863045
 20
-3.547057105903109
 10
0.2562381529213127
 20
-3.553889296238558
 10
0.2425520636948164
 20
-3.56017922024653
 10
0.2286253920067764
 20
-3.5659168153904
 10
0.2144804175610062
 20
-3.571092902741895
 10
0.2001397692991986
 20
-3.575699201665415
 10
0.185626389199399
 20
-3.579728343065321
 10
0.1709634955737442
 20
-3.583173881174866
 10
0.1561745459241024
 20
-3.586030303868096
 10
0.1412831994151276
 20
-3.588293041478022
 10
0.1263132790245862
 20
-3.589958474107172
 10
0.1112887334316639
 20
-3.591023937418611
 10
0.0962335987042593
 20
-3.591487726898328
 10
0.0921679750812104
 20
-3.59150967401214
1001
REVIT
1002
{
1070
     2
1000
-2001160
1002
}
  0
LWPOLYLINE
  5
36A
330
339
100
AcDbEntity
  8
TU105501
100
AcDbPolyline
 90
       80
 70
   128
 43
0.0
 10
0.0921679750812104
 20
-3.59150967401214
 10
0.0920942505318721
 20
-3.59150967401214
 10
0.0918731948274001
 20
-3.59150967401214
 10
0.0915051616097884
 20
-3.59150967401214
 10
0.0909907396536483
 20
-3.59150967401214
 10
0.0903307519243839
 20
-3.59150967401214
 10
0.0895262542615711
 20
-3.59150967401214
 10
0.088578533689855
 20
-3.59150967401214
 10
0.0874891063599819
 20
-3.59150967401214
 10
0.0862597151232763
 20
-3.59150967401214
 10
0.0848923267434714
 20
-3.59150967401214
 10
0.0833891287502695
 20
-3.59150967401214
 10
0.0817525259397911
 20
-3.59150967401214
 10
0.0799851365274265
 20
-3.59150967401214
 10
0.0780897879591862
 20
-3.59150967401214
 10
0.0760695123884858
 20
-3.59150967401214
 10
0.0739275418252703
 20
-3.59150967401214
 10
0.07166730296548
 20
-3.59150967401214
 10
0.0692924117091707
 20
-3.59150967401214
 10
0.0668066673757153
 20
-3.59150967401214
 10
0.0642140466257786
 20
-3.59150967401214
 10
0.0615186970995154
 20
-3.59150967401214
 10
0.0587249307811675
 20
-3.59150967401214
 10
0.0558372171009012
 20
-3.59150967401214
 10
0.0528601757845593
 20
-3.59150967401214
 10
0.0497985694632064
 20
-3.59150967401214
 10
0.0466572960538372
 20
-3.59150967401214
 10
0.0434413809238095
 20
-3.59150967401214
 10
0.0401559688513089
 20
-3.59150967401214
 10
0.0368063157947773
 20
-3.59150967401214
 10
0.0333977804845915
 20
-3.59150967401214
 10
0.0299358158500951
 20
-3.59150967401214
 10
0.0264259602961943
 20
-3.59150967401214
 10
0.0228738288430748
 20
-3.59150967401214
 10
0.0192851041432789
 20
-3.59150967401214
 10
0.0156655273907944
 20
-3.59150967401214
 10
0.012020889136295
 20
-3.59150967401214
 10
0.0083570200234817
 20
-3.59150967401214
 10
0.0046797814613626
 20
-3.59150967401214
 10
0.0009950562472198
 20
-3.59150967401214
 10
-0.0026912608446565
 20
-3.59150967401214
 10
-0.0063732724932919
 20
-3.59150967401214
 10
-0.0100450882654997
 20
-3.59150967401214
 10
-0.0137008340393266
 20
-3.59150967401214
 10
-0.0173346614013639
 20
-3.59150967401214
 10
-0.0209407570030464
 20
-3.59150967401214
 10
-0.0245133518606338
 20
-3.59150967401214
 10
-0.0280467305844781
 20
-3.59150967401214
 10
-0.0315352405223877
 20
-3.59150967401214
 10
-0.034973300802605
 20
-3.59150967401214
 10
-0.038355411262117
 20
-3.59150967401214
 10
-0.0416761612456611
 20
-3.59150967401214
 10
-0.0449302382616566
 20
-3.59150967401214
 10
-0.0481124364810484
 20
-3.59150967401214
 10
-0.0512176650655079
 20
-3.59150967401214
 10
-0.0542409563117019
 20
-3.59150967401214
 10
-0.0571774735985997
 20
-3.59150967401214
 10
-0.0600225191249564
 20
-3.59150967401214
 10
-0.0627715414248229
 20
-3.59150967401214
 10
-0.0654201426489607
 20
-3.59150967401214
 10
-0.0679640856004227
 20
-3.59150967401214
 10
-0.0703993005131451
 20
-3.59150967401214
 10
-0.0727218915627646
 20
-3.59150967401214
 10
-0.074928143099072
 20
-3.59150967401214
 10
-0.0770145255902293
 20
-3.59150967401214
 10
-0.0789777012693378
 20
-3.59150967401214
 10
-0.0808145294740968
 20
-3.59150967401214
 10
-0.0825220716712068
 20
-3.59150967401214
 10
-0.0840975961574202
 20
-3.59150967401214
 10
-0.0855385824296491
 20
-3.59150967401214
 10
-0.0868427252172381
 20
-3.59150967401214
 10
-0.0880079381699517
 20
-3.59150967401214
 10
-0.089032357195606
 20
-3.59150967401214
 10
-0.0899143434423167
 20
-3.59150967401214
 10
-0.0906524859202307
 20
-3.59150967401214
 10
-0.0912456037588214
 20
-3.59150967401214
 10
-0.0916927480961079
 20
-3.59150967401214
 10
-0.0919932035965019
 20
-3.59150967401214
 10
-0.0921464895953221
 20
-3.59150967401214
 10
-0.0921679750827878
 20
-3.59150967401214
1001
REVIT
1002
{
1070
     2
1000
-2001160
1002
}
  0
ARC
  5
36B
330
339
100
AcDbEntity
  8
TU105501
100
AcDbCircle
 10
0.0000000000000142
 20
0.0000000000000782
 30
0.0
 40
3.749999999999999
100
AcDbArc
 50
90.00000685605213
 51
269.9999931439479
1001
REVIT
1002
{
1070
     2
1000
-2001160
1002
}
  0
ARC
  5
36C
330
339
100
AcDbEntity
  8
TU105501
100
AcDbCircle
 10
0.0000000000000142
 20
0.0000000000000782
 30
0.0
 40
3.749999999999999
100
AcDbArc
 50
269.9999999999992
 51
89.9999999999992
1001
REVIT
1002
{
1070
     2
1000
-2001160
1002
}
  0
ARC
  5
36D
330
339
100
AcDbEntity
  8
TU105501
100
AcDbCircle
 10
0.0
 20
0.0
 30
0.0
 40
1.249999999999979
100
AcDbArc
 50
90.00002067257868
 51
247.9154523241505
1001
REVIT
1002
{
1070
     2
1000
-2001160
1002
}
  0
ARC
  5
36E
330
339
100
AcDbEntity
  8
TU105501
100
AcDbCircle
 10
0.0
 20
0.0
 30
0.0
 40
1.249999999999981
100
AcDbArc
 50
292.0845476757714
 51
89.9999999999992
1001
REVIT
1002
{
1070
     2
1000
-2001160
1002
}
  0
ARC
  5
36F
330
339
100
AcDbEntity
  8
TU105501
100
AcDbCircle
 10
0.0
 20
0.0
 30
0.0
 40
0.624999999999986
100
AcDbArc
 50
208.4474901023922
 51
215.3328305158037
1001
REVIT
1002
{
1070
     2
1000
-2001160
1002
}
  0
ARC
  5
370
330
339
100
AcDbEntity
  8
TU105501
100
AcDbCircle
 10
0.0
 20
0.0
 30
0.0
 40
0.6249999999999859
100
AcDbArc
 50
193.6591188469148
 51
200.498134591506
1001
REVIT
1002
{
1070
     2
1000
-2001160
1002
}
  0
ARC
  5
371
330
339
100
AcDbEntity
  8
TU105501
100
AcDbCircle
 10
0.0
 20
0.0
 30
0.0
 40
0.6249999999999857
100
AcDbArc
 50
178.8636478051085
 51
185.6401062078816
1001
REVIT
1002
{
1070
     2
1000
-2001160
1002
}
  0
ARC
  5
372
330
339
100
AcDbEntity
  8
TU105501
100
AcDbCircle
 10
0.0
 20
0.0
 30
0.0
 40
0.6249999999999855
100
AcDbArc
 50
164.058397165166
 51
170.759039171209
1001
REVIT
1002
{
1070
     2
1000
-2001160
1002
}
  0
ARC
  5
373
330
339
100
AcDbEntity
  8
TU105501
100
AcDbCircle
 10
0.0
 20
0.0
 30
0.0
 40
0.624999999999985
100
AcDbArc
 50
148.4043557236062
 51
155.8273525734434
1001
REVIT
1002
{
1070
     2
1000
-2001160
1002
}
  0
ARC
  5
374
330
339
100
AcDbEntity
  8
TU105501
100
AcDbCircle
 10
0.0
 20
0.0
 30
0.0
 40
0.6249999999999849
100
AcDbArc
 50
133.9735120646691
 51
134.9999999999994
1001
REVIT
1002
{
1070
     2
1000
-2001160
1002
}
  0
ARC
  5
375
330
339
100
AcDbEntity
  8
TU105501
100
AcDbCircle
 10
0.0
 20
0.0
 30
0.0
 40
0.6249999999999849
100
AcDbArc
 50
119.286354891255
 51
120.0
1001
REVIT
1002
{
1070
     2
1000
-2001160
1002
}
  0
ARC
  5
376
330
339
100
AcDbEntity
  8
TU105501
100
AcDbCircle
 10
0.0
 20
0.0
 30
0.0
 40
0.6249999999999851
100
AcDbArc
 50
104.6311122599857
 51
104.9999999999995
1001
REVIT
1002
{
1070
     2
1000
-2001160
1002
}
  0
ARC
  5
377
330
339
100
AcDbEntity
  8
TU105501
100
AcDbCircle
 10
0.0
 20
0.0
 30
0.0
 40
0.6249999999999857
100
AcDbArc
 50
74.99999999999963
 51
75.36888773999153
1001
REVIT
1002
{
1070
     2
1000
-2001160
1002
}
  0
ARC
  5
378
330
339
100
AcDbEntity
  8
TU105501
100
AcDbCircle
 10
0.0
 20
0.0
 30
0.0
 40
0.6249999999999859
100
AcDbArc
 50
59.99999999999907
 51
60.71364510870012
1001
REVIT
1002
{
1070
     2
1000
-2001160
1002
}
  0
ARC
  5
379
330
339
100
AcDbEntity
  8
TU105501
100
AcDbCircle
 10
0.0
 20
0.0
 30
0.0
 40
0.624999999999986
100
AcDbArc
 50
44.99999999999953
 51
46.02648793526743
1001
REVIT
1002
{
1070
     2
1000
-2001160
1002
}
  0
ARC
  5
37A
330
339
100
AcDbEntity
  8
TU105501
100
AcDbCircle
 10
0.0
 20
0.0
 30
0.0
 40
0.6249999999999859
100
AcDbArc
 50
24.17264742649748
 51
31.5956442763942
1001
REVIT
1002
{
1070
     2
1000
-2001160
1002
}
  0
ARC
  5
37B
330
339
100
AcDbEntity
  8
TU105501
100
AcDbCircle
 10
0.0
 20
0.0
 30
0.0
 40
0.6249999999999857
100
AcDbArc
 50
9.240960828727947
 51
15.94160283477795
1001
REVIT
1002
{
1070
     2
1000
-2001160
1002
}
  0
ARC
  5
37C
330
339
100
AcDbEntity
  8
TU105501
100
AcDbCircle
 10
0.0
 20
0.0
 30
0.0
 40
0.6249999999999855
100
AcDbArc
 50
354.3598937920435
 51
1.136352194822651
1001
REVIT
1002
{
1070
     2
1000
-2001160
1002
}
  0
ARC
  5
37D
330
339
100
AcDbEntity
  8
TU105501
100
AcDbCircle
 10
0.0
 20
0.0
 30
0.0
 40
0.6249999999999851
100
AcDbArc
 50
339.5018654084028
 51
346.3408811530039
1001
REVIT
1002
{
1070
     2
1000
-2001160
1002
}
  0
ARC
  5
37E
330
339
100
AcDbEntity
  8
TU105501
100
AcDbCircle
 10
0.0
 20
0.0
 30
0.0
 40
0.6249999999999849
100
AcDbArc
 50
324.6671694840935
 51
331.552509897514
1001
REVIT
1002
{
1070
     2
1000
-2001160
1002
}
  0
ARC
  5
37F
330
339
100
AcDbEntity
  8
TU105501
100
AcDbCircle
 10
0.0
 20
0.0000000000000084
 30
0.0
 40
0.6249999999999859
100
AcDbArc
 50
90.00004143092752
 51
221.4096221091599
1001
REVIT
1002
{
1070
     2
1000
-2001160
1002
}
  0
LINE
  5
380
330
339
100
AcDbEntity
  8
TU105501
100
AcDbLine
 10
-0.4687500000007816
 20
-0.4133986423529135
 30
0.0
 11
-0.4687500000007958
 21
-3.214927649094135
 31
0.0
1001
REVIT
1002
{
1070
     2
1000
-2001160
1002
}
  0
ARC
  5
381
330
339
100
AcDbEntity
  8
TU105501
100
AcDbCircle
 10
-0.0921679750827878
 20
-3.214927649094135
 30
0.0
 40
0.3765820249180031
100
AcDbArc
 50
179.9999999999999
 51
284.1669165960368
1001
REVIT
1002
{
1070
     2
1000
-2001160
1002
}
  0
ARC
  5
382
330
339
100
AcDbEntity
  8
TU105501
100
AcDbCircle
 10
0.0921679750812104
 20
-3.214927649094135
 30
0.0
 40
0.3765820249180027
100
AcDbArc
 50
255.8330146255984
 51
359.9999999999992
1001
REVIT
1002
{
1070
     2
1000
-2001160
1002
}
  0
LINE
  5
383
330
339
100
AcDbEntity
  8
TU105501
100
AcDbLine
 10
0.4687499999992042
 20
-3.214927649094135
 30
0.0
 11
0.4687499999992042
 21
-0.4133986423547121
 31
0.0
1001
REVIT
1002
{
1070
     2
1000
-2001160
1002
}
  0
ARC
  5
384
330
339
100
AcDbEntity
  8
TU105501
100
AcDbCircle
 10
0.0
 20
0.0000000000000084
 30
0.0
 40
0.6249999999999859
100
AcDbArc
 50
318.5903778906198
 51
89.9999999999992
1001
REVIT
1002
{
1070
     2
1000
-2001160
1002
}
  0
ARC
  5
385
330
339
100
AcDbEntity
  8
TU105501
100
AcDbCircle
 10
0.0000000000004263
 20
34.00000000000027
 30
0.0
 40
0.5
100
AcDbArc
 50
0.0
 51
180.0
  0
ENDBLK
  5
33B
330
339
100
AcDbEntity
  8
0
100
AcDbBlockEnd
  0
BLOCK
  5
388
330
387
100
AcDbEntity
  8
0
100
AcDbBlockBegin
  2
TU105501 Left View
 70
     0
 10
0.0
 20
0.0
 30
0.0
  3
TU105501 Left View
  1

  0
LINE
  5
38A
330
387
100
AcDbEntity
  8
TU105501
100
AcDbLine
 10
9.770770610132636
 20
34.50000000000019
 30
0.0
 11
0.2500000000001634
 21
34.50000000000013
 31
0.0
1001
REVIT
1002
{
1070
     2
1000
-2001160
1002
}
  0
LINE
  5
38B
330
387
100
AcDbEntity
  8
TU105501
100
AcDbLine
 10
0.2500000000001634
 20
33.50000000000014
 30
0.0
 11
9.77077061013265
 21
33.50000000000019
 31
0.0
1001
REVIT
1002
{
1070
     2
1000
-2001160
1002
}
  0
LINE
  5
38C
330
387
100
AcDbEntity
  8
TU105501
100
AcDbLine
 10
0.0000000000001634
 20
32.81250000000018
 30
0.0
 11
0.2500000000001634
 21
32.81250000000018
 31
0.0
1001
REVIT
1002
{
1070
     2
1000
-2001160
1002
}
  0
LINE
  5
38D
330
387
100
AcDbEntity
  8
TU105501
100
AcDbLine
 10
0.2500000000001634
 20
35.18750000000011
 30
0.0
 11
0.0000000000001634
 21
35.18750000000011
 31
0.0
1001
REVIT
1002
{
1070
     2
1000
-2001160
1002
}
  0
LINE
  5
38E
330
387
100
AcDbEntity
  8
TU105501
100
AcDbLine
 10
12.37499999999908
 20
31.3724977388713
 30
0.0
 11
12.3749999999991
 21
31.89577061013373
 31
0.0
1001
REVIT
1002
{
1070
     2
1000
-2001160
1002
}
  0
LINE
  5
38F
330
387
100
AcDbEntity
  8
TU105501
100
AcDbLine
 10
11.37499999999908
 20
31.89577061013373
 30
0.0
 11
11.37499999999908
 21
31.3724977388713
 31
0.0
1001
REVIT
1002
{
1070
     2
1000
-2001160
1002
}
  0
LINE
  5
390
330
387
100
AcDbEntity
  8
TU105501
100
AcDbLine
 10
12.37499999999908
 20
31.89577061013373
 30
0.0
 11
12.37291689425685
 21
31.99991200950375
 31
0.0
1001
REVIT
1002
{
1070
     2
1000
-2001160
1002
}
  0
LINE
  5
391
330
387
100
AcDbEntity
  8
TU105501
100
AcDbLine
 10
12.37291689425685
 20
31.99991200950375
 30
0.0
 11
12.36667090955495
 21
32.10388680485043
 31
0.0
1001
REVIT
1002
{
1070
     2
1000
-2001160
1002
}
  0
LINE
  5
392
330
387
100
AcDbEntity
  8
TU105501
100
AcDbLine
 10
12.36667090955495
 20
32.10388680485043
 30
0.0
 11
12.3562720381365
 21
32.20752865868132
 31
0.0
1001
REVIT
1002
{
1070
     2
1000
-2001160
1002
}
  0
LINE
  5
393
330
387
100
AcDbEntity
  8
TU105501
100
AcDbLine
 10
12.3562720381365
 20
32.20752865868132
 30
0.0
 11
12.34173691597747
 21
32.31067176613936
 31
0.0
1001
REVIT
1002
{
1070
     2
1000
-2001160
1002
}
  0
LINE
  5
394
330
387
100
AcDbEntity
  8
TU105501
100
AcDbLine
 10
12.34173691597747
 20
32.31067176613936
 30
0.0
 11
12.32308879617263
 21
32.41315112025533
 31
0.0
1001
REVIT
1002
{
1070
     2
1000
-2001160
1002
}
  0
LINE
  5
395
330
387
100
AcDbEntity
  8
TU105501
100
AcDbLine
 10
12.32308879617263
 20
32.41315112025533
 30
0.0
 11
12.30035751173566
 21
32.51480277592372
 31
0.0
1001
REVIT
1002
{
1070
     2
1000
-2001160
1002
}
  0
LINE
  5
396
330
387
100
AcDbEntity
  8
TU105501
100
AcDbLine
 10
12.30035751173566
 20
32.51480277592372
 30
0.0
 11
12.27357942787254
 21
32.61546411218
 31
0.0
1001
REVIT
1002
{
1070
     2
1000
-2001160
1002
}
  0
LINE
  5
397
330
387
100
AcDbEntity
  8
TU105501
100
AcDbLine
 10
12.27357942787254
 20
32.61546411218
 30
0.0
 11
12.2427973838051
 21
32.71497409235943
 31
0.0
1001
REVIT
1002
{
1070
     2
1000
-2001160
1002
}
  0
LINE
  5
398
330
387
100
AcDbEntity
  8
TU105501
100
AcDbLine
 10
12.2427973838051
 20
32.71497409235943
 30
0.0
 11
12.20806062423738
 21
32.81317352172139
 31
0.0
1001
REVIT
1002
{
1070
     2
1000
-2001160
1002
}
  0
LINE
  5
399
330
387
100
AcDbEntity
  8
TU105501
100
AcDbLine
 10
12.20806062423738
 20
32.81317352172139
 30
0.0
 11
12.16942472057457
 21
32.90990530212699
 31
0.0
1001
REVIT
1002
{
1070
     2
1000
-2001160
1002
}
  0
LINE
  5
39A
330
387
100
AcDbEntity
  8
TU105501
100
AcDbLine
 10
12.16942472057457
 20
32.90990530212699
 30
0.0
 11
12.12695148202062
 21
33.00501468336261
 31
0.0
1001
REVIT
1002
{
1070
     2
1000
-2001160
1002
}
  0
LINE
  5
39B
330
387
100
AcDbEntity
  8
TU105501
100
AcDbLine
 10
12.12695148202062
 20
33.00501468336261
 30
0.0
 11
12.08070885669678
 21
33.09834951070716
 31
0.0
1001
REVIT
1002
{
1070
     2
1000
-2001160
1002
}
  0
LINE
  5
39C
330
387
100
AcDbEntity
  8
TU105501
100
AcDbLine
 10
12.08070885669678
 20
33.09834951070716
 30
0.0
 11
12.03077082293898
 21
33.18976046834728
 31
0.0
1001
REVIT
1002
{
1070
     2
1000
-2001160
1002
}
  0
LINE
  5
39D
330
387
100
AcDbEntity
  8
TU105501
100
AcDbLine
 10
12.03077082293898
 20
33.18976046834728
 30
0.0
 11
11.97721727094835
 21
33.27910131825071
 31
0.0
1001
REVIT
1002
{
1070
     2
1000
-2001160
1002
}
  0
LINE
  5
39E
330
387
100
AcDbEntity
  8
TU105501
100
AcDbLine
 10
11.97721727094835
 20
33.27910131825071
 30
0.0
 11
11.92013387498394
 21
33.36622913411596
 31
0.0
1001
REVIT
1002
{
1070
     2
1000
-2001160
1002
}
  0
LINE
  5
39F
330
387
100
AcDbEntity
  8
TU105501
100
AcDbLine
 10
11.92013387498394
 20
33.36622913411596
 30
0.0
 11
11.85961195630212
 21
33.45100453002393
 31
0.0
1001
REVIT
1002
{
1070
     2
1000
-2001160
1002
}
  0
LINE
  5
3A0
330
387
100
AcDbEntity
  8
TU105501
100
AcDbLine
 10
11.85961195630212
 20
33.45100453002393
 30
0.0
 11
11.79574833706218
 21
33.53329188342563
 31
0.0
1001
REVIT
1002
{
1070
     2
1000
-2001160
1002
}
  0
LINE
  5
3A1
330
387
100
AcDbEntity
  8
TU105501
100
AcDbLine
 10
11.79574833706218
 20
33.53329188342563
 30
0.0
 11
11.72864518543135
 21
33.61295955210928
 31
0.0
1001
REVIT
1002
{
1070
     2
1000
-2001160
1002
}
  0
LINE
  5
3A2
330
387
100
AcDbEntity
  8
TU105501
100
AcDbLine
 10
11.72864518543135
 20
33.61295955210928
 30
0.0
 11
11.65840985213767
 21
33.6898800847999
 31
0.0
1001
REVIT
1002
{
1070
     2
1000
-2001160
1002
}
  0
LINE
  5
3A3
330
387
100
AcDbEntity
  8
TU105501
100
AcDbLine
 10
11.65840985213767
 20
33.6898800847999
 30
0.0
 11
11.58515469873168
 21
33.76393042505398
 31
0.0
1001
REVIT
1002
{
1070
     2
1000
-2001160
1002
}
  0
LINE
  5
3A4
330
387
100
AcDbEntity
  8
TU105501
100
AcDbLine
 10
11.58515469873168
 20
33.76393042505398
 30
0.0
 11
11.5089969178319
 21
33.83499210812369
 31
0.0
1001
REVIT
1002
{
1070
     2
1000
-2001160
1002
}
  0
LINE
  5
3A5
330
387
100
AcDbEntity
  8
TU105501
100
AcDbLine
 10
11.5089969178319
 20
33.83499210812369
 30
0.0
 11
11.43005834564163
 21
33.90295145047515
 31
0.0
1001
REVIT
1002
{
1070
     2
1000
-2001160
1002
}
  0
LINE
  5
3A6
330
387
100
AcDbEntity
  8
TU105501
100
AcDbLine
 10
11.43005834564163
 20
33.90295145047515
 30
0.0
 11
11.34846526703706
 21
33.9676997316578
 31
0.0
1001
REVIT
1002
{
1070
     2
1000
-2001160
1002
}
  0
LINE
  5
3A7
330
387
100
AcDbEntity
  8
TU105501
100
AcDbLine
 10
11.34846526703706
 20
33.9676997316578
 30
0.0
 11
11.26434821353835
 21
34.02913336823398
 31
0.0
1001
REVIT
1002
{
1070
     2
1000
-2001160
1002
}
  0
LINE
  5
3A8
330
387
100
AcDbEntity
  8
TU105501
100
AcDbLine
 10
11.26434821353835
 20
34.02913336823398
 30
0.0
 11
11.17784175448708
 21
34.08715407949031
 31
0.0
1001
REVIT
1002
{
1070
     2
1000
-2001160
1002
}
  0
LINE
  5
3A9
330
387
100
AcDbEntity
  8
TU105501
100
AcDbLine
 10
11.17784175448708
 20
34.08715407949031
 30
0.0
 11
11.08908428176401
 21
34.1416690446659
 31
0.0
1001
REVIT
1002
{
1070
     2
1000
-2001160
1002
}
  0
LINE
  5
3AA
330
387
100
AcDbEntity
  8
TU105501
100
AcDbLine
 10
11.08908428176401
 20
34.1416690446659
 30
0.0
 11
10.99821778839159
 21
34.19259105144567
 31
0.0
1001
REVIT
1002
{
1070
     2
1000
-2001160
1002
}
  0
LINE
  5
3AB
330
387
100
AcDbEntity
  8
TU105501
100
AcDbLine
 10
10.99821778839159
 20
34.19259105144567
 30
0.0
 11
10.90538764137537
 21
34.23983863548157
 31
0.0
1001
REVIT
1002
{
1070
     2
1000
-2001160
1002
}
  0
LINE
  5
3AC
330
387
100
AcDbEntity
  8
TU105501
100
AcDbLine
 10
10.90538764137537
 20
34.23983863548157
 30
0.0
 11
10.81074234914792
 21
34.2833362107181
 31
0.0
1001
REVIT
1002
{
1070
     2
1000
-2001160
1002
}
  0
LINE
  5
3AD
330
387
100
AcDbEntity
  8
TU105501
100
AcDbLine
 10
10.81074234914792
 20
34.2833362107181
 30
0.0
 11
10.71443332398682
 21
34.32301419031385
 31
0.0
1001
REVIT
1002
{
1070
     2
1000
-2001160
1002
}
  0
LINE
  5
3AE
330
387
100
AcDbEntity
  8
TU105501
100
AcDbLine
 10
10.71443332398682
 20
34.32301419031385
 30
0.0
 11
10.61661463978755
 21
34.35880909796566
 31
0.0
1001
REVIT
1002
{
1070
     2
1000
-2001160
1002
}
  0
LINE
  5
3AF
330
387
100
AcDbEntity
  8
TU105501
100
AcDbLine
 10
10.61661463978755
 20
34.35880909796566
 30
0.0
 11
10.51744278557792
 21
34.39066366945712
 31
0.0
1001
REVIT
1002
{
1070
     2
1000
-2001160
1002
}
  0
LINE
  5
3B0
330
387
100
AcDbEntity
  8
TU105501
100
AcDbLine
 10
10.51744278557792
 20
34.39066366945712
 30
0.0
 11
10.41707641516915
 21
34.41852694426914
 31
0.0
1001
REVIT
1002
{
1070
     2
1000
-2001160
1002
}
  0
LINE
  5
3B1
330
387
100
AcDbEntity
  8
TU105501
100
AcDbLine
 10
10.41707641516915
 20
34.41852694426914
 30
0.0
 11
10.31567609334355
 21
34.44235434710586
 31
0.0
1001
REVIT
1002
{
1070
     2
1000
-2001160
1002
}
  0
LINE
  5
3B2
330
387
100
AcDbEntity
  8
TU105501
100
AcDbLine
 10
10.31567609334355
 20
34.44235434710586
 30
0.0
 11
10.21340403898509
 21
34.46210775920564
 31
0.0
1001
REVIT
1002
{
1070
     2
1000
-2001160
1002
}
  0
LINE
  5
3B3
330
387
100
AcDbEntity
  8
TU105501
100
AcDbLine
 10
10.21340403898509
 20
34.46210775920564
 30
0.0
 11
10.11042386556392
 21
34.47775557932297
 31
0.0
1001
REVIT
1002
{
1070
     2
1000
-2001160
1002
}
  0
LINE
  5
3B4
330
387
100
AcDbEntity
  8
TU105501
100
AcDbLine
 10
10.11042386556392
 20
34.47775557932297
 30
0.0
 11
10.00690031938955
 21
34.48927277428369
 31
0.0
1001
REVIT
1002
{
1070
     2
1000
-2001160
1002
}
  0
LINE
  5
3B5
330
387
100
AcDbEntity
  8
TU105501
100
AcDbLine
 10
10.00690031938955
 20
34.48927277428369
 30
0.0
 11
9.902999016052028
 21
34.49664091903271
 31
0.0
1001
REVIT
1002
{
1070
     2
1000
-2001160
1002
}
  0
LINE
  5
3B6
330
387
100
AcDbEntity
  8
TU105501
100
AcDbLine
 10
9.902999016052028
 20
34.49664091903271
 30
0.0
 11
9.79888617547224
 21
34.49984822611024
 31
0.0
1001
REVIT
1002
{
1070
     2
1000
-2001160
1002
}
  0
LINE
  5
3B7
330
387
100
AcDbEntity
  8
TU105501
100
AcDbLine
 10
9.79888617547224
 20
34.49984822611024
 30
0.0
 11
9.770770610132636
 21
34.50000000000019
 31
0.0
1001
REVIT
1002
{
1070
     2
1000
-2001160
1002
}
  0
LINE
  5
3B8
330
387
100
AcDbEntity
  8
TU105501
100
AcDbLine
 10
9.77077061013265
 20
33.50000000000019
 30
0.0
 11
9.834922675316029
 21
33.49871678759697
 31
0.0
1001
REVIT
1002
{
1070
     2
1000
-2001160
1002
}
  0
LINE
  5
3B9
330
387
100
AcDbEntity
  8
TU105501
100
AcDbLine
 10
9.834922675316029
 20
33.49871678759697
 30
0.0
 11
9.898972110880173
 21
33.49486920325342
 31
0.0
1001
REVIT
1002
{
1070
     2
1000
-2001160
1002
}
  0
LINE
  5
3BA
330
387
100
AcDbEntity
  8
TU105501
100
AcDbLine
 10
9.898972110880173
 20
33.49486920325342
 30
0.0
 11
9.962816451391312
 21
33.48846340228372
 31
0.0
1001
REVIT
1002
{
1070
     2
1000
-2001160
1002
}
  0
LINE
  5
3BB
330
387
100
AcDbEntity
  8
TU105501
100
AcDbLine
 10
9.962816451391312
 20
33.48846340228372
 30
0.0
 11
10.02635355952403
 21
33.47950963260294
 31
0.0
1001
REVIT
1002
{
1070
     2
1000
-2001160
1002
}
  0
LINE
  5
3BC
330
387
100
AcDbEntity
  8
TU105501
100
AcDbLine
 10
10.02635355952403
 20
33.47950963260294
 30
0.0
 11
10.08948178945918
 21
33.46802221833249
 31
0.0
1001
REVIT
1002
{
1070
     2
1000
-2001160
1002
}
  0
LINE
  5
3BD
330
387
100
AcDbEntity
  8
TU105501
100
AcDbLine
 10
10.08948178945918
 20
33.46802221833249
 30
0.0
 11
10.15210014949549
 21
33.45401953688472
 31
0.0
1001
REVIT
1002
{
1070
     2
1000
-2001160
1002
}
  0
LINE
  5
3BE
330
387
100
AcDbEntity
  8
TU105501
100
AcDbLine
 10
10.15210014949549
 20
33.45401953688472
 30
0.0
 11
10.2141084636148
 21
33.43752398956286
 31
0.0
1001
REVIT
1002
{
1070
     2
1000
-2001160
1002
}
  0
LINE
  5
3BF
330
387
100
AcDbEntity
  8
TU105501
100
AcDbLine
 10
10.2141084636148
 20
33.43752398956286
 30
0.0
 11
10.27540753174222
 21
33.41856196572376
 31
0.0
1001
REVIT
1002
{
1070
     2
1000
-2001160
1002
}
  0
LINE
  5
3C0
330
387
100
AcDbEntity
  8
TU105501
100
AcDbLine
 10
10.27540753174222
 20
33.41856196572376
 30
0.0
 11
10.33589928844521
 21
33.39716380056054
 31
0.0
1001
REVIT
1002
{
1070
     2
1000
-2001160
1002
}
  0
LINE
  5
3C1
330
387
100
AcDbEntity
  8
TU105501
100
AcDbLine
 10
10.33589928844521
 20
33.39716380056054
 30
0.0
 11
10.39548695981725
 21
33.37336372657277
 31
0.0
1001
REVIT
1002
{
1070
     2
1000
-2001160
1002
}
  0
LINE
  5
3C2
330
387
100
AcDbEntity
  8
TU105501
100
AcDbLine
 10
10.39548695981725
 20
33.37336372657277
 30
0.0
 11
10.45407521829551
 21
33.34719981880176
 31
0.0
1001
REVIT
1002
{
1070
     2
1000
-2001160
1002
}
  0
LINE
  5
3C3
330
387
100
AcDbEntity
  8
TU105501
100
AcDbLine
 10
10.45407521829551
 20
33.34719981880176
 30
0.0
 11
10.51157033516458
 21
33.3187139339186
 31
0.0
1001
REVIT
1002
{
1070
     2
1000
-2001160
1002
}
  0
LINE
  5
3C4
330
387
100
AcDbEntity
  8
TU105501
100
AcDbLine
 10
10.51157033516458
 20
33.3187139339186
 30
0.0
 11
10.56788033050245
 21
33.28795164326243
 31
0.0
1001
REVIT
1002
{
1070
     2
1000
-2001160
1002
}
  0
LINE
  5
3C5
330
387
100
AcDbEntity
  8
TU105501
100
AcDbLine
 10
10.56788033050245
 20
33.28795164326243
 30
0.0
 11
10.62291512032873
 21
33.25496215993602
 31
0.0
1001
REVIT
1002
{
1070
     2
1000
-2001160
1002
}
  0
LINE
  5
3C6
330
387
100
AcDbEntity
  8
TU105501
100
AcDbLine
 10
10.62291512032873
 20
33.25496215993602
 30
0.0
 11
10.67658666071984
 21
33.21979826007535
 31
0.0
1001
REVIT
1002
{
1070
     2
1000
-2001160
1002
}
  0
LINE
  5
3C7
330
387
100
AcDbEntity
  8
TU105501
100
AcDbLine
 10
10.67658666071984
 20
33.21979826007535
 30
0.0
 11
10.72880908866045
 21
33.18251619841893
 31
0.0
1001
REVIT
1002
{
1070
     2
1000
-2001160
1002
}
  0
LINE
  5
3C8
330
387
100
AcDbEntity
  8
TU105501
100
AcDbLine
 10
10.72880908866045
 20
33.18251619841893
 30
0.0
 11
10.77949885940607
 21
33.14317561831235
 31
0.0
1001
REVIT
1002
{
1070
     2
1000
-2001160
1002
}
  0
LINE
  5
3C9
330
387
100
AcDbEntity
  8
TU105501
100
AcDbLine
 10
10.77949885940607
 20
33.14317561831235
 30
0.0
 11
10.82857488013672
 21
33.10183945629155
 31
0.0
1001
REVIT
1002
{
1070
     2
1000
-2001160
1002
}
  0
LINE
  5
3CA
330
387
100
AcDbEntity
  8
TU105501
100
AcDbLine
 10
10.82857488013672
 20
33.10183945629155
 30
0.0
 11
10.87595863968824
 21
33.05857384139787
 31
0.0
1001
REVIT
1002
{
1070
     2
1000
-2001160
1002
}
  0
LINE
  5
3CB
330
387
100
AcDbEntity
  8
TU105501
100
AcDbLine
 10
10.87595863968824
 20
33.05857384139787
 30
0.0
 11
10.92157433415335
 21
33.01344798938562
 31
0.0
1001
REVIT
1002
{
1070
     2
1000
-2001160
1002
}
  0
LINE
  5
3CC
330
387
100
AcDbEntity
  8
TU105501
100
AcDbLine
 10
10.92157433415335
 20
33.01344798938562
 30
0.0
 11
10.96534898815174
 21
32.96653409199168
 31
0.0
1001
REVIT
1002
{
1070
     2
1000
-2001160
1002
}
  0
LINE
  5
3CD
330
387
100
AcDbEntity
  8
TU105501
100
AcDbLine
 10
10.96534898815174
 20
32.96653409199168
 30
0.0
 11
11.00721257157509
 21
32.91790720144414
 31
0.0
1001
REVIT
1002
{
1070
     2
1000
-2001160
1002
}
  0
LINE
  5
3CE
330
387
100
AcDbEntity
  8
TU105501
100
AcDbLine
 10
11.00721257157509
 20
32.91790720144414
 30
0.0
 11
11.04709811162033
 21
32.86764511039468
 31
0.0
1001
REVIT
1002
{
1070
     2
1000
-2001160
1002
}
  0
LINE
  5
3CF
330
387
100
AcDbEntity
  8
TU105501
100
AcDbLine
 10
11.04709811162033
 20
32.86764511039468
 30
0.0
 11
11.08494179993189
 21
32.81582822746698
 31
0.0
1001
REVIT
1002
{
1070
     2
1000
-2001160
1002
}
  0
LINE
  5
3D0
330
387
100
AcDbEntity
  8
TU105501
100
AcDbLine
 10
11.08494179993189
 20
32.81582822746698
 30
0.0
 11
11.12068309468133
 21
32.76253944862002
 31
0.0
1001
REVIT
1002
{
1070
     2
1000
-2001160
1002
}
  0
LINE
  5
3D1
330
387
100
AcDbEntity
  8
TU105501
100
AcDbLine
 10
11.12068309468133
 20
32.76253944862002
 30
0.0
 11
11.15426481742145
 21
32.70786402453234
 31
0.0
1001
REVIT
1002
{
1070
     2
1000
-2001160
1002
}
  0
LINE
  5
3D2
330
387
100
AcDbEntity
  8
TU105501
100
AcDbLine
 10
11.15426481742145
 20
32.70786402453234
 30
0.0
 11
11.18563324455963
 21
32.65188942421894
 31
0.0
1001
REVIT
1002
{
1070
     2
1000
-2001160
1002
}
  0
LINE
  5
3D3
330
387
100
AcDbEntity
  8
TU105501
100
AcDbLine
 10
11.18563324455963
 20
32.65188942421894
 30
0.0
 11
11.21473819330396
 21
32.59470519509976
 31
0.0
1001
REVIT
1002
{
1070
     2
1000
-2001160
1002
}
  0
LINE
  5
3D4
330
387
100
AcDbEntity
  8
TU105501
100
AcDbLine
 10
11.21473819330396
 20
32.59470519509976
 30
0.0
 11
11.24153310194523
 21
32.53640281974273
 31
0.0
1001
REVIT
1002
{
1070
     2
1000
-2001160
1002
}
  0
LINE
  5
3D5
330
387
100
AcDbEntity
  8
TU105501
100
AcDbLine
 10
11.24153310194523
 20
32.53640281974273
 30
0.0
 11
11.26597510434552
 21
32.47707556951124
 31
0.0
1001
REVIT
1002
{
1070
     2
1000
-2001160
1002
}
  0
LINE
  5
3D6
330
387
100
AcDbEntity
  8
TU105501
100
AcDbLine
 10
11.26597510434552
 20
32.47707556951124
 30
0.0
 11
11.28802509851501
 21
32.41681835534985
 31
0.0
1001
REVIT
1002
{
1070
     2
1000
-2001160
1002
}
  0
LINE
  5
3D7
330
387
100
AcDbEntity
  8
TU105501
100
AcDbLine
 10
11.28802509851501
 20
32.41681835534985
 30
0.0
 11
11.3076478091668
 21
32.35572757594705
 31
0.0
1001
REVIT
1002
{
1070
     2
1000
-2001160
1002
}
  0
LINE
  5
3D8
330
387
100
AcDbEntity
  8
TU105501
100
AcDbLine
 10
11.3076478091668
 20
32.35572757594705
 30
0.0
 11
11.32481184414977
 21
32.29390096351786
 31
0.0
1001
REVIT
1002
{
1070
     2
1000
-2001160
1002
}
  0
LINE
  5
3D9
330
387
100
AcDbEntity
  8
TU105501
100
AcDbLine
 10
11.32481184414977
 20
32.29390096351786
 30
0.0
 11
11.33948974466944
 21
32.23143742745321
 31
0.0
1001
REVIT
1002
{
1070
     2
1000
-2001160
1002
}
  0
LINE
  5
3DA
330
387
100
AcDbEntity
  8
TU105501
100
AcDbLine
 10
11.33948974466944
 20
32.23143742745321
 30
0.0
 11
11.35165802921609
 21
32.16843689608595
 31
0.0
1001
REVIT
1002
{
1070
     2
1000
-2001160
1002
}
  0
LINE
  5
3DB
330
387
100
AcDbEntity
  8
TU105501
100
AcDbLine
 10
11.35165802921609
 20
32.16843689608595
 30
0.0
 11
11.36129723113018
 21
32.10500015682687
 31
0.0
1001
REVIT
1002
{
1070
     2
1000
-2001160
1002
}
  0
LINE
  5
3DC
330
387
100
AcDbEntity
  8
TU105501
100
AcDbLine
 10
11.36129723113018
 20
32.10500015682687
 30
0.0
 11
11.36839192974494
 21
32.04122869492634
 31
0.0
1001
REVIT
1002
{
1070
     2
1000
-2001160
1002
}
  0
LINE
  5
3DD
330
387
100
AcDbEntity
  8
TU105501
100
AcDbLine
 10
11.36839192974494
 20
32.04122869492634
 30
0.0
 11
11.37293077505602
 21
31.97722453111953
 31
0.0
1001
REVIT
1002
{
1070
     2
1000
-2001160
1002
}
  0
LINE
  5
3DE
330
387
100
AcDbEntity
  8
TU105501
100
AcDbLine
 10
11.37293077505602
 20
31.97722453111953
 30
0.0
 11
11.37490650587916
 21
31.91309005841507
 31
0.0
1001
REVIT
1002
{
1070
     2
1000
-2001160
1002
}
  0
LINE
  5
3DF
330
387
100
AcDbEntity
  8
TU105501
100
AcDbLine
 10
11.37490650587916
 20
31.91309005841507
 30
0.0
 11
11.37499999999908
 21
31.89577061013373
 31
0.0
1001
REVIT
1002
{
1070
     2
1000
-2001160
1002
}
  0
LINE
  5
3E0
330
387
100
AcDbEntity
  8
TU105501
100
AcDbLine
 10
11.28633558708326
 20
31.3724977388713
 30
0.0
 11
11.28633558708325
 21
30.8724977388713
 31
0.0
1001
REVIT
1002
{
1070
     2
1000
-2001160
1002
}
  0
LINE
  5
3E1
330
387
100
AcDbEntity
  8
TU105501
100
AcDbLine
 10
12.46366441291493
 20
30.8724977388713
 30
0.0
 11
12.46366441291493
 21
31.3724977388713
 31
0.0
1001
REVIT
1002
{
1070
     2
1000
-2001160
1002
}
  0
LINE
  5
3E2
330
387
100
AcDbEntity
  8
TU105501
100
AcDbLine
 10
11.28633558708325
 20
30.87249773887136
 30
0.0
 11
11.41979207872086
 21
30.73904124723374
 31
0.0
1001
REVIT
1002
{
1070
     2
1000
-2001160
1002
}
  0
LINE
  5
3E3
330
387
100
AcDbEntity
  8
TU105501
100
AcDbLine
 10
12.33020792127731
 20
30.73904124723374
 30
0.0
 11
12.46366441291494
 21
30.87249773887136
 31
0.0
1001
REVIT
1002
{
1070
     2
1000
-2001160
1002
}
  0
LINE
  5
3E4
330
387
100
AcDbEntity
  8
TU105501
100
AcDbLine
 10
11.41979207872088
 20
30.73904124723366
 30
0.0
 11
11.41979207872088
 21
30.4734162472337
 31
0.0
1001
REVIT
1002
{
1070
     2
1000
-2001160
1002
}
  0
LINE
  5
3E5
330
387
100
AcDbEntity
  8
TU105501
100
AcDbLine
 10
12.3302079212773
 20
30.47341624723369
 30
0.0
 11
12.3302079212773
 21
30.73904124723366
 31
0.0
1001
REVIT
1002
{
1070
     2
1000
-2001160
1002
}
  0
LINE
  5
3E6
330
387
100
AcDbEntity
  8
TU105501
100
AcDbLine
 10
11.41979207872086
 20
30.47341624723376
 30
0.0
 11
11.46560068138937
 21
30.42760764456527
 31
0.0
1001
REVIT
1002
{
1070
     2
1000
-2001160
1002
}
  0
LINE
  5
3E7
330
387
100
AcDbEntity
  8
TU105501
100
AcDbLine
 10
12.28439931860882
 20
30.42760764456527
 30
0.0
 11
12.33020792127731
 21
30.47341624723376
 31
0.0
1001
REVIT
1002
{
1070
     2
1000
-2001160
1002
}
  0
LINE
  5
3E8
330
387
100
AcDbEntity
  8
TU105501
100
AcDbLine
 10
11.46560068138934
 20
30.42760764456521
 30
0.0
 11
11.46560068138934
 21
30.3331506267426
 31
0.0
1001
REVIT
1002
{
1070
     2
1000
-2001160
1002
}
  0
LINE
  5
3E9
330
387
100
AcDbEntity
  8
TU105501
100
AcDbLine
 10
12.28439931860882
 20
30.3331506267426
 30
0.0
 11
12.28439931860882
 21
30.42760764456521
 31
0.0
1001
REVIT
1002
{
1070
     2
1000
-2001160
1002
}
  0
LINE
  5
3EA
330
387
100
AcDbEntity
  8
TU105501
100
AcDbLine
 10
12.28439931860882
 20
30.3331506267426
 30
0.0
 11
12.29896022054036
 21
30.31648121331186
 31
0.0
1001
REVIT
1002
{
1070
     2
1000
-2001160
1002
}
  0
LINE
  5
3EB
330
387
100
AcDbEntity
  8
TU105501
100
AcDbLine
 10
12.29896022054036
 20
30.31648121331186
 30
0.0
 11
12.31284287655904
 21
30.29924285286047
 31
0.0
1001
REVIT
1002
{
1070
     2
1000
-2001160
1002
}
  0
LINE
  5
3EC
330
387
100
AcDbEntity
  8
TU105501
100
AcDbLine
 10
12.31284287655904
 20
30.29924285286047
 30
0.0
 11
12.32602507737673
 21
30.28146312308787
 31
0.0
1001
REVIT
1002
{
1070
     2
1000
-2001160
1002
}
  0
LINE
  5
3ED
330
387
100
AcDbEntity
  8
TU105501
100
AcDbLine
 10
12.32602507737673
 20
30.28146312308787
 30
0.0
 11
12.33848573428417
 21
30.26317046776887
 31
0.0
1001
REVIT
1002
{
1070
     2
1000
-2001160
1002
}
  0
LINE
  5
3EE
330
387
100
AcDbEntity
  8
TU105501
100
AcDbLine
 10
12.33848573428417
 20
30.26317046776887
 30
0.0
 11
12.35020491288842
 21
30.24439415124974
 31
0.0
1001
REVIT
1002
{
1070
     2
1000
-2001160
1002
}
  0
LINE
  5
3EF
330
387
100
AcDbEntity
  8
TU105501
100
AcDbLine
 10
12.35020491288842
 20
30.24439415124974
 30
0.0
 11
12.36116386500371
 21
30.22516421163154
 31
0.0
1001
REVIT
1002
{
1070
     2
1000
-2001160
1002
}
  0
LINE
  5
3F0
330
387
100
AcDbEntity
  8
TU105501
100
AcDbLine
 10
12.36116386500371
 20
30.22516421163154
 30
0.0
 11
12.37134505864441
 21
30.20551141271548
 31
0.0
1001
REVIT
1002
{
1070
     2
1000
-2001160
1002
}
  0
LINE
  5
3F1
330
387
100
AcDbEntity
  8
TU105501
100
AcDbLine
 10
12.37134505864441
 20
30.20551141271548
 30
0.0
 11
12.38073220607258
 21
30.18546719478744
 31
0.0
1001
REVIT
1002
{
1070
     2
1000
-2001160
1002
}
  0
LINE
  5
3F2
330
387
100
AcDbEntity
  8
TU105501
100
AcDbLine
 10
12.38073220607258
 20
30.18546719478744
 30
0.0
 11
12.38931028985481
 21
30.16506362432025
 31
0.0
1001
REVIT
1002
{
1070
     2
1000
-2001160
1002
}
  0
LINE
  5
3F3
330
387
100
AcDbEntity
  8
TU105501
100
AcDbLine
 10
12.38931028985481
 20
30.16506362432025
 30
0.0
 11
12.39556596300557
 21
30.14834190937317
 31
0.0
1001
REVIT
1002
{
1070
     2
1000
-2001160
1002
}
  0
LINE
  5
3F4
330
387
100
AcDbEntity
  8
TU105501
100
AcDbLine
 10
11.35532359489756
 20
30.15099452462776
 30
0.0
 11
11.36334335707033
 21
30.17162393624994
 31
0.0
1001
REVIT
1002
{
1070
     2
1000
-2001160
1002
}
  0
LINE
  5
3F5
330
387
100
AcDbEntity
  8
TU105501
100
AcDbLine
 10
11.36334335707033
 20
30.17162393624994
 30
0.0
 11
11.37218166072418
 21
30.19191614159355
 31
0.0
1001
REVIT
1002
{
1070
     2
1000
-2001160
1002
}
  0
LINE
  5
3F6
330
387
100
AcDbEntity
  8
TU105501
100
AcDbLine
 10
11.37218166072418
 20
30.19191614159355
 30
0.0
 11
11.38182436645869
 21
30.2118386774588
 31
0.0
1001
REVIT
1002
{
1070
     2
1000
-2001160
1002
}
  0
LINE
  5
3F7
330
387
100
AcDbEntity
  8
TU105501
100
AcDbLine
 10
11.38182436645869
 20
30.2118386774588
 30
0.0
 11
11.39225604800167
 21
30.23135967203824
 31
0.0
1001
REVIT
1002
{
1070
     2
1000
-2001160
1002
}
  0
LINE
  5
3F8
330
387
100
AcDbEntity
  8
TU105501
100
AcDbLine
 10
11.39225604800167
 20
30.23135967203824
 30
0.0
 11
11.40346001688797
 21
30.2504478959048
 31
0.0
1001
REVIT
1002
{
1070
     2
1000
-2001160
1002
}
  0
LINE
  5
3F9
330
387
100
AcDbEntity
  8
TU105501
100
AcDbLine
 10
11.40346001688797
 20
30.2504478959048
 30
0.0
 11
11.4154183491574
 21
30.26907281197221
 31
0.0
1001
REVIT
1002
{
1070
     2
1000
-2001160
1002
}
  0
LINE
  5
3FA
330
387
100
AcDbEntity
  8
TU105501
100
AcDbLine
 10
11.4154183491574
 20
30.26907281197221
 30
0.0
 11
11.42811191402933
 21
30.2872046243479
 31
0.0
1001
REVIT
1002
{
1070
     2
1000
-2001160
1002
}
  0
LINE
  5
3FB
330
387
100
AcDbEntity
  8
TU105501
100
AcDbLine
 10
11.42811191402933
 20
30.2872046243479
 30
0.0
 11
11.44152040450777
 21
30.30481432599995
 31
0.0
1001
REVIT
1002
{
1070
     2
1000
-2001160
1002
}
  0
LINE
  5
3FC
330
387
100
AcDbEntity
  8
TU105501
100
AcDbLine
 10
11.44152040450777
 20
30.30481432599995
 30
0.0
 11
11.45562236986829
 21
30.32187374516228
 31
0.0
1001
REVIT
1002
{
1070
     2
1000
-2001160
1002
}
  0
LINE
  5
3FD
330
387
100
AcDbEntity
  8
TU105501
100
AcDbLine
 10
11.45562236986829
 20
30.32187374516228
 30
0.0
 11
11.46560068138935
 21
30.33315062674262
 31
0.0
1001
REVIT
1002
{
1070
     2
1000
-2001160
1002
}
  0
LINE
  5
3FE
330
387
100
AcDbEntity
  8
TU105501
100
AcDbLine
 10
12.79652078436243
 20
30.14834190937316
 30
0.0
 11
10.95227548506143
 21
30.14834190937317
 31
0.0
1001
REVIT
1002
{
1070
     2
1000
-2001160
1002
}
  0
LINE
  5
3FF
330
387
100
AcDbEntity
  8
TU105501
100
AcDbLine
 10
12.79947753503609
 20
30.14834190937316
 30
0.0
 11
12.80249762812611
 21
30.1482814994565
 31
0.0
1001
REVIT
1002
{
1070
     2
1000
-2001160
1002
}
  0
LINE
  5
400
330
387
100
AcDbEntity
  8
TU105501
100
AcDbLine
 10
12.80249762812611
 20
30.1482814994565
 30
0.0
 11
12.80551288971141
 21
30.14810036634946
 31
0.0
1001
REVIT
1002
{
1070
     2
1000
-2001160
1002
}
  0
LINE
  5
401
330
387
100
AcDbEntity
  8
TU105501
100
AcDbLine
 10
12.80551288971141
 20
30.14810036634946
 30
0.0
 11
12.80851849601672
 21
30.1477987998264
 31
0.0
1001
REVIT
1002
{
1070
     2
1000
-2001160
1002
}
  0
LINE
  5
402
330
387
100
AcDbEntity
  8
TU105501
100
AcDbLine
 10
12.80851849601672
 20
30.1477987998264
 30
0.0
 11
12.8115096387131
 21
30.14737728232941
 31
0.0
1001
REVIT
1002
{
1070
     2
1000
-2001160
1002
}
  0
LINE
  5
403
330
387
100
AcDbEntity
  8
TU105501
100
AcDbLine
 10
12.8115096387131
 20
30.14737728232941
 30
0.0
 11
12.81448153261029
 21
30.14683648819659
 31
0.0
1001
REVIT
1002
{
1070
     2
1000
-2001160
1002
}
  0
LINE
  5
404
330
387
100
AcDbEntity
  8
TU105501
100
AcDbLine
 10
12.81448153261029
 20
30.14683648819659
 30
0.0
 11
12.81742942331205
 21
30.14617728258315
 31
0.0
1001
REVIT
1002
{
1070
     2
1000
-2001160
1002
}
  0
LINE
  5
405
330
387
100
AcDbEntity
  8
TU105501
100
AcDbLine
 10
12.81742942331205
 20
30.14617728258315
 30
0.0
 11
12.82034859482211
 21
30.14540072007749
 31
0.0
1001
REVIT
1002
{
1070
     2
1000
-2001160
1002
}
  0
LINE
  5
406
330
387
100
AcDbEntity
  8
TU105501
100
AcDbLine
 10
12.82034859482211
 20
30.14540072007749
 30
0.0
 11
12.82323437708876
 21
30.14450804301392
 31
0.0
1001
REVIT
1002
{
1070
     2
1000
-2001160
1002
}
  0
LINE
  5
407
330
387
100
AcDbEntity
  8
TU105501
100
AcDbLine
 10
12.82323437708876
 20
30.14450804301392
 30
0.0
 11
12.82608215347599
 21
30.14350067948536
 31
0.0
1001
REVIT
1002
{
1070
     2
1000
-2001160
1002
}
  0
LINE
  5
408
330
387
100
AcDbEntity
  8
TU105501
100
AcDbLine
 10
12.82608215347599
 20
30.14350067948536
 30
0.0
 11
12.82888736814905
 21
30.14238024105853
 31
0.0
1001
REVIT
1002
{
1070
     2
1000
-2001160
1002
}
  0
LINE
  5
409
330
387
100
AcDbEntity
  8
TU105501
100
AcDbLine
 10
12.82888736814905
 20
30.14238024105853
 30
0.0
 11
12.83164553336291
 21
30.14114852019591
 31
0.0
1001
REVIT
1002
{
1070
     2
1000
-2001160
1002
}
  0
LINE
  5
40A
330
387
100
AcDbEntity
  8
TU105501
100
AcDbLine
 10
12.83164553336291
 20
30.14114852019591
 30
0.0
 11
12.83435223664157
 21
30.13980748738812
 31
0.0
1001
REVIT
1002
{
1070
     2
1000
-2001160
1002
}
  0
LINE
  5
40B
330
387
100
AcDbEntity
  8
TU105501
100
AcDbLine
 10
12.83435223664157
 20
30.13980748738812
 30
0.0
 11
12.83700314783721
 21
30.13835928800159
 31
0.0
1001
REVIT
1002
{
1070
     2
1000
-2001160
1002
}
  0
LINE
  5
40C
330
387
100
AcDbEntity
  8
TU105501
100
AcDbLine
 10
12.83700314783721
 20
30.13835928800159
 30
0.0
 11
12.8395940260574
 21
30.1368062388464
 31
0.0
1001
REVIT
1002
{
1070
     2
1000
-2001160
1002
}
  0
LINE
  5
40D
330
387
100
AcDbEntity
  8
TU105501
100
AcDbLine
 10
12.8395940260574
 20
30.1368062388464
 30
0.0
 11
12.8421207264497
 21
30.1351508244699
 31
0.0
1001
REVIT
1002
{
1070
     2
1000
-2001160
1002
}
  0
LINE
  5
40E
330
387
100
AcDbEntity
  8
TU105501
100
AcDbLine
 10
12.8421207264497
 20
30.1351508244699
 30
0.0
 11
12.84457920683246
 21
30.13339569318195
 31
0.0
1001
REVIT
1002
{
1070
     2
1000
-2001160
1002
}
  0
LINE
  5
40F
330
387
100
AcDbEntity
  8
TU105501
100
AcDbLine
 10
12.84457920683246
 20
30.13339569318195
 30
0.0
 11
12.84696553416152
 21
30.13154365281821
 31
0.0
1001
REVIT
1002
{
1070
     2
1000
-2001160
1002
}
  0
LINE
  5
410
330
387
100
AcDbEntity
  8
TU105501
100
AcDbLine
 10
12.84696553416152
 20
30.13154365281821
 30
0.0
 11
12.8492758908222
 21
30.1295976662482
 31
0.0
1001
REVIT
1002
{
1070
     2
1000
-2001160
1002
}
  0
LINE
  5
411
330
387
100
AcDbEntity
  8
TU105501
100
AcDbLine
 10
12.8492758908222
 20
30.1295976662482
 30
0.0
 11
12.85150658073672
 21
30.12756084663527
 31
0.0
1001
REVIT
1002
{
1070
     2
1000
-2001160
1002
}
  0
LINE
  5
412
330
387
100
AcDbEntity
  8
TU105501
100
AcDbLine
 10
12.85150658073672
 20
30.12756084663527
 30
0.0
 11
12.85365403527705
 21
30.12543645245632
 31
0.0
1001
REVIT
1002
{
1070
     2
1000
-2001160
1002
}
  0
LINE
  5
413
330
387
100
AcDbEntity
  8
TU105501
100
AcDbLine
 10
12.85365403527705
 20
30.12543645245632
 30
0.0
 11
12.85571481897404
 21
30.12322788228887
 31
0.0
1001
REVIT
1002
{
1070
     2
1000
-2001160
1002
}
  0
LINE
  5
414
330
387
100
AcDbEntity
  8
TU105501
100
AcDbLine
 10
12.85571481897404
 20
30.12322788228887
 30
0.0
 11
12.85768563501336
 21
30.12093866937404
 31
0.0
1001
REVIT
1002
{
1070
     2
1000
-2001160
1002
}
  0
LINE
  5
415
330
387
100
AcDbEntity
  8
TU105501
100
AcDbLine
 10
12.85768563501336
 20
30.12093866937404
 30
0.0
 11
12.85956333050979
 21
30.11857247596415
 31
0.0
1001
REVIT
1002
{
1070
     2
1000
-2001160
1002
}
  0
LINE
  5
416
330
387
100
AcDbEntity
  8
TU105501
100
AcDbLine
 10
12.85956333050979
 20
30.11857247596415
 30
0.0
 11
12.8613449015511
 21
30.1161330874639
 31
0.0
1001
REVIT
1002
{
1070
     2
1000
-2001160
1002
}
  0
LINE
  5
417
330
387
100
AcDbEntity
  8
TU105501
100
AcDbLine
 10
12.8613449015511
 20
30.1161330874639
 30
0.0
 11
12.86302749800364
 21
30.11362440637452
 31
0.0
1001
REVIT
1002
{
1070
     2
1000
-2001160
1002
}
  0
LINE
  5
418
330
387
100
AcDbEntity
  8
TU105501
100
AcDbLine
 10
12.86302749800364
 20
30.11362440637452
 30
0.0
 11
12.86460842807202
 21
30.11105044605059
 31
0.0
1001
REVIT
1002
{
1070
     2
1000
-2001160
1002
}
  0
LINE
  5
419
330
387
100
AcDbEntity
  8
TU105501
100
AcDbLine
 10
12.86460842807202
 20
30.11105044605059
 30
0.0
 11
12.86608516260541
 21
30.10841532427955
 31
0.0
1001
REVIT
1002
{
1070
     2
1000
-2001160
1002
}
  0
LINE
  5
41A
330
387
100
AcDbEntity
  8
TU105501
100
AcDbLine
 10
12.86608516260541
 20
30.10841532427955
 30
0.0
 11
12.86745533914355
 21
30.10572325669409
 31
0.0
1001
REVIT
1002
{
1070
     2
1000
-2001160
1002
}
  0
LINE
  5
41B
330
387
100
AcDbEntity
  8
TU105501
100
AcDbLine
 10
12.86745533914355
 20
30.10572325669409
 30
0.0
 11
12.86871676569628
 21
30.10297855002809
 31
0.0
1001
REVIT
1002
{
1070
     2
1000
-2001160
1002
}
  0
LINE
  5
41C
330
387
100
AcDbEntity
  8
TU105501
100
AcDbLine
 10
12.86871676569628
 20
30.10297855002809
 30
0.0
 11
12.86986742425021
 21
30.1001855952267
 31
0.0
1001
REVIT
1002
{
1070
     2
1000
-2001160
1002
}
  0
LINE
  5
41D
330
387
100
AcDbEntity
  8
TU105501
100
AcDbLine
 10
12.86986742425021
 20
30.1001855952267
 30
0.0
 11
12.87090547399709
 21
30.0973488604218
 31
0.0
1001
REVIT
1002
{
1070
     2
1000
-2001160
1002
}
  0
LINE
  5
41E
330
387
100
AcDbEntity
  8
TU105501
100
AcDbLine
 10
12.87090547399709
 20
30.0973488604218
 30
0.0
 11
12.87182925427879
 21
30.09447288378396
 31
0.0
1001
REVIT
1002
{
1070
     2
1000
-2001160
1002
}
  0
LINE
  5
41F
330
387
100
AcDbEntity
  8
TU105501
100
AcDbLine
 10
12.87182925427879
 20
30.09447288378396
 30
0.0
 11
12.87263728724391
 21
30.09156226626226
 31
0.0
1001
REVIT
1002
{
1070
     2
1000
-2001160
1002
}
  0
LINE
  5
420
330
387
100
AcDbEntity
  8
TU105501
100
AcDbLine
 10
12.87263728724391
 20
30.09156226626226
 30
0.0
 11
12.87332828021207
 21
30.08862166422386
 31
0.0
1001
REVIT
1002
{
1070
     2
1000
-2001160
1002
}
  0
LINE
  5
421
330
387
100
AcDbEntity
  8
TU105501
100
AcDbLine
 10
12.87332828021207
 20
30.08862166422386
 30
0.0
 11
12.87390112774195
 21
30.08565578200471
 31
0.0
1001
REVIT
1002
{
1070
     2
1000
-2001160
1002
}
  0
LINE
  5
422
330
387
100
AcDbEntity
  8
TU105501
100
AcDbLine
 10
12.87390112774195
 20
30.08565578200471
 30
0.0
 11
12.87435491339968
 21
30.08266936438369
 31
0.0
1001
REVIT
1002
{
1070
     2
1000
-2001160
1002
}
  0
LINE
  5
423
330
387
100
AcDbEntity
  8
TU105501
100
AcDbLine
 10
12.87435491339968
 20
30.08266936438369
 30
0.0
 11
12.87468891122501
 21
30.0796671889919
 31
0.0
1001
REVIT
1002
{
1070
     2
1000
-2001160
1002
}
  0
LINE
  5
424
330
387
100
AcDbEntity
  8
TU105501
100
AcDbLine
 10
12.87468891122501
 20
30.0796671889919
 30
0.0
 11
12.87490258689269
 21
30.07665405866958
 31
0.0
1001
REVIT
1002
{
1070
     2
1000
-2001160
1002
}
  0
LINE
  5
425
330
387
100
AcDbEntity
  8
TU105501
100
AcDbLine
 10
12.87490258689269
 20
30.07665405866958
 30
0.0
 11
12.87499559856722
 21
30.07363479378244
 31
0.0
1001
REVIT
1002
{
1070
     2
1000
-2001160
1002
}
  0
LINE
  5
426
330
387
100
AcDbEntity
  8
TU105501
100
AcDbLine
 10
12.87499559856722
 20
30.07363479378244
 30
0.0
 11
12.8749999999991
 21
30.07281944441017
 31
0.0
1001
REVIT
1002
{
1070
     2
1000
-2001160
1002
}
  0
LINE
  5
427
330
387
100
AcDbEntity
  8
TU105501
100
AcDbLine
 10
10.87499999999908
 20
30.07281944441018
 30
0.0
 11
10.87506040991575
 21
30.07583953750018
 31
0.0
1001
REVIT
1002
{
1070
     2
1000
-2001160
1002
}
  0
LINE
  5
428
330
387
100
AcDbEntity
  8
TU105501
100
AcDbLine
 10
10.87506040991575
 20
30.07583953750018
 30
0.0
 11
10.87524154302277
 21
30.07885479908549
 31
0.0
1001
REVIT
1002
{
1070
     2
1000
-2001160
1002
}
  0
LINE
  5
429
330
387
100
AcDbEntity
  8
TU105501
100
AcDbLine
 10
10.87524154302277
 20
30.07885479908549
 30
0.0
 11
10.87554310954583
 21
30.08186040539079
 31
0.0
1001
REVIT
1002
{
1070
     2
1000
-2001160
1002
}
  0
LINE
  5
42A
330
387
100
AcDbEntity
  8
TU105501
100
AcDbLine
 10
10.87554310954583
 20
30.08186040539079
 30
0.0
 11
10.87596462704282
 21
30.08485154808717
 31
0.0
1001
REVIT
1002
{
1070
     2
1000
-2001160
1002
}
  0
LINE
  5
42B
330
387
100
AcDbEntity
  8
TU105501
100
AcDbLine
 10
10.87596462704282
 20
30.08485154808717
 30
0.0
 11
10.87650542117565
 21
30.08782344198437
 31
0.0
1001
REVIT
1002
{
1070
     2
1000
-2001160
1002
}
  0
LINE
  5
42C
330
387
100
AcDbEntity
  8
TU105501
100
AcDbLine
 10
10.87650542117565
 20
30.08782344198437
 30
0.0
 11
10.87716462678909
 21
30.09077133268613
 31
0.0
1001
REVIT
1002
{
1070
     2
1000
-2001160
1002
}
  0
LINE
  5
42D
330
387
100
AcDbEntity
  8
TU105501
100
AcDbLine
 10
10.87716462678909
 20
30.09077133268613
 30
0.0
 11
10.87794118929475
 21
30.09369050419618
 31
0.0
1001
REVIT
1002
{
1070
     2
1000
-2001160
1002
}
  0
LINE
  5
42E
330
387
100
AcDbEntity
  8
TU105501
100
AcDbLine
 10
10.87794118929475
 20
30.09369050419618
 30
0.0
 11
10.87883386635831
 21
30.09657628646284
 31
0.0
1001
REVIT
1002
{
1070
     2
1000
-2001160
1002
}
  0
LINE
  5
42F
330
387
100
AcDbEntity
  8
TU105501
100
AcDbLine
 10
10.87883386635831
 20
30.09657628646284
 30
0.0
 11
10.87984122988688
 21
30.09942406285006
 31
0.0
1001
REVIT
1002
{
1070
     2
1000
-2001160
1002
}
  0
LINE
  5
430
330
387
100
AcDbEntity
  8
TU105501
100
AcDbLine
 10
10.87984122988688
 20
30.09942406285006
 30
0.0
 11
10.88096166831371
 21
30.10222927752313
 31
0.0
1001
REVIT
1002
{
1070
     2
1000
-2001160
1002
}
  0
LINE
  5
431
330
387
100
AcDbEntity
  8
TU105501
100
AcDbLine
 10
10.88096166831371
 20
30.10222927752313
 30
0.0
 11
10.88219338917633
 21
30.10498744273698
 31
0.0
1001
REVIT
1002
{
1070
     2
1000
-2001160
1002
}
  0
LINE
  5
432
330
387
100
AcDbEntity
  8
TU105501
100
AcDbLine
 10
10.88219338917633
 20
30.10498744273698
 30
0.0
 11
10.88353442198411
 21
30.10769414601565
 31
0.0
1001
REVIT
1002
{
1070
     2
1000
-2001160
1002
}
  0
LINE
  5
433
330
387
100
AcDbEntity
  8
TU105501
100
AcDbLine
 10
10.88353442198411
 20
30.10769414601565
 30
0.0
 11
10.88498262137066
 21
30.11034505721128
 31
0.0
1001
REVIT
1002
{
1070
     2
1000
-2001160
1002
}
  0
LINE
  5
434
330
387
100
AcDbEntity
  8
TU105501
100
AcDbLine
 10
10.88498262137066
 20
30.11034505721128
 30
0.0
 11
10.88653567052584
 21
30.11293593543148
 31
0.0
1001
REVIT
1002
{
1070
     2
1000
-2001160
1002
}
  0
LINE
  5
435
330
387
100
AcDbEntity
  8
TU105501
100
AcDbLine
 10
10.88653567052584
 20
30.11293593543148
 30
0.0
 11
10.88819108490235
 21
30.11546263582377
 31
0.0
1001
REVIT
1002
{
1070
     2
1000
-2001160
1002
}
  0
LINE
  5
436
330
387
100
AcDbEntity
  8
TU105501
100
AcDbLine
 10
10.88819108490235
 20
30.11546263582377
 30
0.0
 11
10.88994621619029
 21
30.11792111620652
 31
0.0
1001
REVIT
1002
{
1070
     2
1000
-2001160
1002
}
  0
LINE
  5
437
330
387
100
AcDbEntity
  8
TU105501
100
AcDbLine
 10
10.88994621619029
 20
30.11792111620652
 30
0.0
 11
10.89179825655402
 21
30.12030744353559
 31
0.0
1001
REVIT
1002
{
1070
     2
1000
-2001160
1002
}
  0
LINE
  5
438
330
387
100
AcDbEntity
  8
TU105501
100
AcDbLine
 10
10.89179825655402
 20
30.12030744353559
 30
0.0
 11
10.89374424312405
 21
30.12261780019628
 31
0.0
1001
REVIT
1002
{
1070
     2
1000
-2001160
1002
}
  0
LINE
  5
439
330
387
100
AcDbEntity
  8
TU105501
100
AcDbLine
 10
10.89374424312405
 20
30.12261780019628
 30
0.0
 11
10.89578106273698
 21
30.12484849011079
 31
0.0
1001
REVIT
1002
{
1070
     2
1000
-2001160
1002
}
  0
LINE
  5
43A
330
387
100
AcDbEntity
  8
TU105501
100
AcDbLine
 10
10.89578106273698
 20
30.12484849011079
 30
0.0
 11
10.89790545691591
 21
30.12699594465112
 31
0.0
1001
REVIT
1002
{
1070
     2
1000
-2001160
1002
}
  0
LINE
  5
43B
330
387
100
AcDbEntity
  8
TU105501
100
AcDbLine
 10
10.89790545691591
 20
30.12699594465112
 30
0.0
 11
10.90011402708337
 21
30.12905672834811
 31
0.0
1001
REVIT
1002
{
1070
     2
1000
-2001160
1002
}
  0
LINE
  5
43C
330
387
100
AcDbEntity
  8
TU105501
100
AcDbLine
 10
10.90011402708337
 20
30.12905672834811
 30
0.0
 11
10.9024032399982
 21
30.13102754438743
 31
0.0
1001
REVIT
1002
{
1070
     2
1000
-2001160
1002
}
  0
LINE
  5
43D
330
387
100
AcDbEntity
  8
TU105501
100
AcDbLine
 10
10.9024032399982
 20
30.13102754438743
 30
0.0
 11
10.9047694334081
 21
30.13290523988388
 31
0.0
1001
REVIT
1002
{
1070
     2
1000
-2001160
1002
}
  0
LINE
  5
43E
330
387
100
AcDbEntity
  8
TU105501
100
AcDbLine
 10
10.9047694334081
 20
30.13290523988388
 30
0.0
 11
10.90720882190833
 21
30.13468681092517
 31
0.0
1001
REVIT
1002
{
1070
     2
1000
-2001160
1002
}
  0
LINE
  5
43F
330
387
100
AcDbEntity
  8
TU105501
100
AcDbLine
 10
10.90720882190833
 20
30.13468681092517
 30
0.0
 11
10.90971750299773
 21
30.13636940737771
 31
0.0
1001
REVIT
1002
{
1070
     2
1000
-2001160
1002
}
  0
LINE
  5
440
330
387
100
AcDbEntity
  8
TU105501
100
AcDbLine
 10
10.90971750299773
 20
30.13636940737771
 30
0.0
 11
10.91229146332166
 21
30.1379503374461
 31
0.0
1001
REVIT
1002
{
1070
     2
1000
-2001160
1002
}
  0
LINE
  5
441
330
387
100
AcDbEntity
  8
TU105501
100
AcDbLine
 10
10.91229146332166
 20
30.1379503374461
 30
0.0
 11
10.91492658509269
 21
30.13942707197948
 31
0.0
1001
REVIT
1002
{
1070
     2
1000
-2001160
1002
}
  0
LINE
  5
442
330
387
100
AcDbEntity
  8
TU105501
100
AcDbLine
 10
10.91492658509269
 20
30.13942707197948
 30
0.0
 11
10.91761865267815
 21
30.14079724851762
 31
0.0
1001
REVIT
1002
{
1070
     2
1000
-2001160
1002
}
  0
LINE
  5
443
330
387
100
AcDbEntity
  8
TU105501
100
AcDbLine
 10
10.91761865267815
 20
30.14079724851762
 30
0.0
 11
10.92036335934416
 21
30.14205867507036
 31
0.0
1001
REVIT
1002
{
1070
     2
1000
-2001160
1002
}
  0
LINE
  5
444
330
387
100
AcDbEntity
  8
TU105501
100
AcDbLine
 10
10.92036335934416
 20
30.14205867507036
 30
0.0
 11
10.92315631414553
 21
30.14320933362428
 31
0.0
1001
REVIT
1002
{
1070
     2
1000
-2001160
1002
}
  0
LINE
  5
445
330
387
100
AcDbEntity
  8
TU105501
100
AcDbLine
 10
10.92315631414553
 20
30.14320933362428
 30
0.0
 11
10.92599304895044
 21
30.14424738337116
 31
0.0
1001
REVIT
1002
{
1070
     2
1000
-2001160
1002
}
  0
LINE
  5
446
330
387
100
AcDbEntity
  8
TU105501
100
AcDbLine
 10
10.92599304895044
 20
30.14424738337116
 30
0.0
 11
10.92886902558829
 21
30.14517116365286
 31
0.0
1001
REVIT
1002
{
1070
     2
1000
-2001160
1002
}
  0
LINE
  5
447
330
387
100
AcDbEntity
  8
TU105501
100
AcDbLine
 10
10.92886902558829
 20
30.14517116365286
 30
0.0
 11
10.93177964310998
 21
30.14597919661798
 31
0.0
1001
REVIT
1002
{
1070
     2
1000
-2001160
1002
}
  0
LINE
  5
448
330
387
100
AcDbEntity
  8
TU105501
100
AcDbLine
 10
10.93177964310998
 20
30.14597919661798
 30
0.0
 11
10.93472024514839
 21
30.14667018958615
 31
0.0
1001
REVIT
1002
{
1070
     2
1000
-2001160
1002
}
  0
LINE
  5
449
330
387
100
AcDbEntity
  8
TU105501
100
AcDbLine
 10
10.93472024514839
 20
30.14667018958615
 30
0.0
 11
10.93768612736753
 21
30.14724303711602
 31
0.0
1001
REVIT
1002
{
1070
     2
1000
-2001160
1002
}
  0
LINE
  5
44A
330
387
100
AcDbEntity
  8
TU105501
100
AcDbLine
 10
10.93768612736753
 20
30.14724303711602
 30
0.0
 11
10.94067254498855
 21
30.14769682277375
 31
0.0
1001
REVIT
1002
{
1070
     2
1000
-2001160
1002
}
  0
LINE
  5
44B
330
387
100
AcDbEntity
  8
TU105501
100
AcDbLine
 10
10.94067254498855
 20
30.14769682277375
 30
0.0
 11
10.94367472038033
 21
30.14803082059908
 31
0.0
1001
REVIT
1002
{
1070
     2
1000
-2001160
1002
}
  0
LINE
  5
44C
330
387
100
AcDbEntity
  8
TU105501
100
AcDbLine
 10
10.94367472038033
 20
30.14803082059908
 30
0.0
 11
10.94668785070266
 21
30.14824449626676
 31
0.0
1001
REVIT
1002
{
1070
     2
1000
-2001160
1002
}
  0
LINE
  5
44D
330
387
100
AcDbEntity
  8
TU105501
100
AcDbLine
 10
10.94668785070266
 20
30.14824449626676
 30
0.0
 11
10.94970711558981
 21
30.14833750794127
 31
0.0
1001
REVIT
1002
{
1070
     2
1000
-2001160
1002
}
  0
LINE
  5
44E
330
387
100
AcDbEntity
  8
TU105501
100
AcDbLine
 10
10.94970711558981
 20
30.14833750794127
 30
0.0
 11
10.95052246496207
 21
30.14834190937317
 31
0.0
1001
REVIT
1002
{
1070
     2
1000
-2001160
1002
}
  0
LINE
  5
44F
330
387
100
AcDbEntity
  8
TU105501
100
AcDbLine
 10
10.87499999999908
 20
30.07281944441018
 30
0.0
 11
10.87499999999908
 21
29.45167360934492
 31
0.0
1001
REVIT
1002
{
1070
     2
1000
-2001160
1002
}
  0
LINE
  5
450
330
387
100
AcDbEntity
  8
TU105501
100
AcDbLine
 10
12.87499999999908
 20
29.45167360934492
 30
0.0
 11
12.8749999999991
 21
30.07281944441017
 31
0.0
1001
REVIT
1002
{
1070
     2
1000
-2001160
1002
}
  0
LINE
  5
451
330
387
100
AcDbEntity
  8
TU105501
100
AcDbLine
 10
8.49999999999914
 20
29.45167360934493
 30
0.0
 11
8.49999999999914
 21
29.00000000000011
 31
0.0
1001
REVIT
1002
{
1070
     2
1000
-2001160
1002
}
  0
LINE
  5
452
330
387
100
AcDbEntity
  8
TU105501
100
AcDbLine
 10
15.24999999999902
 20
29.00000000000009
 30
0.0
 11
15.24999999999902
 21
29.4516736093449
 31
0.0
1001
REVIT
1002
{
1070
     2
1000
-2001160
1002
}
  0
LINE
  5
453
330
387
100
AcDbEntity
  8
TU105501
100
AcDbLine
 10
0.0000000000001634
 20
32.81250000000015
 30
0.0
 11
0.0000000000001634
 21
35.18750000000008
 31
0.0
1001
REVIT
1002
{
1070
     2
1000
-2001160
1002
}
  0
LINE
  5
454
330
387
100
AcDbEntity
  8
TU105501
100
AcDbLine
 10
0.2500000000001634
 20
32.81250000000015
 30
0.0
 11
0.2500000000001634
 21
35.18750000000008
 31
0.0
1001
REVIT
1002
{
1070
     2
1000
-2001160
1002
}
  0
LINE
  5
455
330
387
100
AcDbEntity
  8
TU105501
100
AcDbLine
 10
11.28633558708325
 20
31.37249773887127
 30
0.0
 11
12.46366441291491
 21
31.37249773887127
 31
0.0
1001
REVIT
1002
{
1070
     2
1000
-2001160
1002
}
  0
LINE
  5
456
330
387
100
AcDbEntity
  8
TU105501
100
AcDbLine
 10
11.28633558708323
 20
30.87249773887132
 30
0.0
 11
12.46366441291493
 21
30.87249773887132
 31
0.0
1001
REVIT
1002
{
1070
     2
1000
-2001160
1002
}
  0
LINE
  5
457
330
387
100
AcDbEntity
  8
TU105501
100
AcDbLine
 10
11.41979207872086
 20
30.73904124723363
 30
0.0
 11
12.33020792127728
 21
30.73904124723363
 31
0.0
1001
REVIT
1002
{
1070
     2
1000
-2001160
1002
}
  0
LINE
  5
458
330
387
100
AcDbEntity
  8
TU105501
100
AcDbLine
 10
11.41979207872085
 20
30.47341624723373
 30
0.0
 11
12.3302079212773
 21
30.47341624723373
 31
0.0
1001
REVIT
1002
{
1070
     2
1000
-2001160
1002
}
  0
LINE
  5
459
330
387
100
AcDbEntity
  8
TU105501
100
AcDbLine
 10
11.46560068138934
 20
30.42760764456518
 30
0.0
 11
12.28439931860882
 21
30.42760764456518
 31
0.0
1001
REVIT
1002
{
1070
     2
1000
-2001160
1002
}
  0
LINE
  5
45A
330
387
100
AcDbEntity
  8
TU105501
100
AcDbLine
 10
11.46560068138934
 20
30.33315062674257
 30
0.0
 11
12.28439931860881
 21
30.33315062674257
 31
0.0
1001
REVIT
1002
{
1070
     2
1000
-2001160
1002
}
  0
LINE
  5
45B
330
387
100
AcDbEntity
  8
TU105501
100
AcDbLine
 10
8.49999999999914
 20
29.4516736093449
 30
0.0
 11
15.24999999999901
 21
29.45167360934487
 31
0.0
1001
REVIT
1002
{
1070
     2
1000
-2001160
1002
}
  0
LINE
  5
45C
330
387
100
AcDbEntity
  8
TU105501
100
AcDbLine
 10
8.499999999999126
 20
29.00000000000009
 30
0.0
 11
15.24999999999901
 21
29.00000000000006
 31
0.0
1001
REVIT
1002
{
1070
     2
1000
-2001160
1002
}
  0
LINE
  5
45D
330
387
100
AcDbEntity
  8
TU105501
100
AcDbLine
 10
0.0000000000000071
 20
-3.749999999999996
 30
0.0
 11
0.6214285714285879
 21
-3.749999999999996
 31
0.0
1001
REVIT
1002
{
1070
     2
1000
-2001160
1002
}
  0
LINE
  5
45E
330
387
100
AcDbEntity
  8
TU105501
100
AcDbLine
 10
0.6214285714285737
 20
3.750000000000007
 30
0.0
 11
-0.0000000000000071
 21
3.75
 31
0.0
1001
REVIT
1002
{
1070
     2
1000
-2001160
1002
}
  0
LINE
  5
45F
330
387
100
AcDbEntity
  8
TU105501
100
AcDbLine
 10
0.6748535526491893
 20
-1.250000000000071
 30
0.0
 11
2.134211290577361
 21
-1.25000000000006
 31
0.0
1001
REVIT
1002
{
1070
     2
1000
-2001160
1002
}
  0
LINE
  5
460
330
387
100
AcDbEntity
  8
TU105501
100
AcDbLine
 10
2.134211290577333
 20
1.249999999999907
 30
0.0
 11
0.6748535526491608
 21
1.249999999999886
 31
0.0
1001
REVIT
1002
{
1070
     2
1000
-2001160
1002
}
  0
LINE
  5
461
330
387
100
AcDbEntity
  8
TU105501
100
AcDbLine
 10
2.134211290577347
 20
-0.625000000000064
 30
0.0
 11
2.415461290577333
 21
-0.6250000000000604
 31
0.0
1001
REVIT
1002
{
1070
     2
1000
-2001160
1002
}
  0
LINE
  5
462
330
387
100
AcDbEntity
  8
TU105501
100
AcDbLine
 10
2.884211290577319
 20
0.6249999999999183
 30
0.0
 11
2.134211290577333
 21
0.6249999999999112
 31
0.0
1001
REVIT
1002
{
1070
     2
1000
-2001160
1002
}
  0
LINE
  5
463
330
387
100
AcDbEntity
  8
TU105501
100
AcDbLine
 10
2.415461290577333
 20
-0.6250000000000604
 30
0.0
 11
2.415461290577347
 21
-3.214927649094217
 31
0.0
1001
REVIT
1002
{
1070
     2
1000
-2001160
1002
}
  0
LINE
  5
464
330
387
100
AcDbEntity
  8
TU105501
100
AcDbLine
 10
2.792043315495355
 20
-3.591509674012218
 30
0.0
 11
2.776984051052231
 21
-3.591208448558891
 31
0.0
1001
REVIT
1002
{
1070
     2
1000
-2001160
1002
}
  0
LINE
  5
465
330
387
100
AcDbEntity
  8
TU105501
100
AcDbLine
 10
2.776984051052231
 20
-3.591208448558891
 30
0.0
 11
2.761948878219733
 21
-3.590305254095376
 31
0.0
1001
REVIT
1002
{
1070
     2
1000
-2001160
1002
}
  0
LINE
  5
466
330
387
100
AcDbEntity
  8
TU105501
100
AcDbLine
 10
2.761948878219733
 20
-3.590305254095376
 30
0.0
 11
2.746961850067087
 21
-3.588801535540145
 31
0.0
1001
REVIT
1002
{
1070
     2
1000
-2001160
1002
}
  0
LINE
  5
467
330
387
100
AcDbEntity
  8
TU105501
100
AcDbLine
 10
2.746961850067087
 20
-3.588801535540145
 30
0.0
 11
2.732046942642263
 21
-3.586699698522103
 31
0.0
1001
REVIT
1002
{
1070
     2
1000
-2001160
1002
}
  0
LINE
  5
468
330
387
100
AcDbEntity
  8
TU105501
100
AcDbLine
 10
2.732046942642263
 20
-3.586699698522103
 30
0.0
 11
2.717228016615443
 21
-3.584003105532129
 31
0.0
1001
REVIT
1002
{
1070
     2
1000
-2001160
1002
}
  0
LINE
  5
469
330
387
100
AcDbEntity
  8
TU105501
100
AcDbLine
 10
2.717228016615443
 20
-3.584003105532129
 30
0.0
 11
2.70252877910709
 21
-3.580716070543747
 31
0.0
1001
REVIT
1002
{
1070
     2
1000
-2001160
1002
}
  0
LINE
  5
46A
330
387
100
AcDbEntity
  8
TU105501
100
AcDbLine
 10
2.70252877910709
 20
-3.580716070543747
 30
0.0
 11
2.687972745761548
 21
-3.576843852111743
 31
0.0
1001
REVIT
1002
{
1070
     2
1000
-2001160
1002
}
  0
LINE
  5
46B
330
387
100
AcDbEntity
  8
TU105501
100
AcDbLine
 10
2.687972745761548
 20
-3.576843852111743
 30
0.0
 11
2.673583203127044
 21
-3.572392644959588
 31
0.0
1001
REVIT
1002
{
1070
     2
1000
-2001160
1002
}
  0
LINE
  5
46C
330
387
100
AcDbEntity
  8
TU105501
100
AcDbLine
 10
2.673583203127044
 20
-3.572392644959588
 30
0.0
 11
2.659383171402176
 21
-3.567369570069178
 31
0.0
1001
REVIT
1002
{
1070
     2
1000
-2001160
1002
}
  0
LINE
  5
46D
330
387
100
AcDbEntity
  8
TU105501
100
AcDbLine
 10
2.659383171402176
 20
-3.567369570069178
 30
0.0
 11
2.64539536760855
 21
-3.561782663288809
 31
0.0
1001
REVIT
1002
{
1070
     2
1000
-2001160
1002
}
  0
LINE
  5
46E
330
387
100
AcDbEntity
  8
TU105501
100
AcDbLine
 10
2.64539536760855
 20
-3.561782663288809
 30
0.0
 11
2.631642169248301
 21
-3.555640862477517
 31
0.0
1001
REVIT
1002
{
1070
     2
1000
-2001160
1002
}
  0
LINE
  5
46F
330
387
100
AcDbEntity
  8
TU105501
100
AcDbLine
 10
2.631642169248301
 20
-3.555640862477517
 30
0.0
 11
2.618145578504972
 21
-3.548953993206428
 31
0.0
1001
REVIT
1002
{
1070
     2
1000
-2001160
1002
}
  0
LINE
  5
470
330
387
100
AcDbEntity
  8
TU105501
100
AcDbLine
 10
2.618145578504972
 20
-3.548953993206428
 30
0.0
 11
2.604927187044616
 21
-3.541732753039905
 31
0.0
1001
REVIT
1002
{
1070
     2
1000
-2001160
1002
}
  0
LINE
  5
471
330
387
100
AcDbEntity
  8
TU105501
100
AcDbLine
 10
2.604927187044616
 20
-3.541732753039905
 30
0.0
 11
2.592008141473804
 21
-3.533988694421775
 31
0.0
1001
REVIT
1002
{
1070
     2
1000
-2001160
1002
}
  0
LINE
  5
472
330
387
100
AcDbEntity
  8
TU105501
100
AcDbLine
 10
2.592008141473804
 20
-3.533988694421775
 30
0.0
 11
2.579409109509533
 21
-3.525734206193849
 31
0.0
1001
REVIT
1002
{
1070
     2
1000
-2001160
1002
}
  0
LINE
  5
473
330
387
100
AcDbEntity
  8
TU105501
100
AcDbLine
 10
2.579409109509533
 20
-3.525734206193849
 30
0.0
 11
2.567150246915296
 21
-3.516982493776428
 31
0.0
1001
REVIT
1002
{
1070
     2
1000
-2001160
1002
}
  0
LINE
  5
474
330
387
100
AcDbEntity
  8
TU105501
100
AcDbLine
 10
2.567150246915296
 20
-3.516982493776428
 30
0.0
 11
2.555251165256159
 21
-3.507747558042435
 31
0.0
1001
REVIT
1002
{
1070
     2
1000
-2001160
1002
}
  0
LINE
  5
475
330
387
100
AcDbEntity
  8
TU105501
100
AcDbLine
 10
2.555251165256159
 20
-3.507747558042435
 30
0.0
 11
2.543730900524444
 21
-3.498044172919055
 31
0.0
1001
REVIT
1002
{
1070
     2
1000
-2001160
1002
}
  0
LINE
  5
476
330
387
100
AcDbEntity
  8
TU105501
100
AcDbLine
 10
2.543730900524444
 20
-3.498044172919055
 30
0.0
 11
2.532607882686185
 21
-3.487887861752515
 31
0.0
1001
REVIT
1002
{
1070
     2
1000
-2001160
1002
}
  0
LINE
  5
477
330
387
100
AcDbEntity
  8
TU105501
100
AcDbLine
 10
2.532607882686185
 20
-3.487887861752515
 30
0.0
 11
2.521899906197141
 21
-3.477294872474136
 31
0.0
1001
REVIT
1002
{
1070
     2
1000
-2001160
1002
}
  0
LINE
  5
478
330
387
100
AcDbEntity
  8
TU105501
100
AcDbLine
 10
2.521899906197141
 20
-3.477294872474136
 30
0.0
 11
2.511624101535467
 21
-3.466282151607028
 31
0.0
1001
REVIT
1002
{
1070
     2
1000
-2001160
1002
}
  0
LINE
  5
479
330
387
100
AcDbEntity
  8
TU105501
100
AcDbLine
 10
2.511624101535467
 20
-3.466282151607028
 30
0.0
 11
2.501796907796553
 21
-3.454867317155343
 31
0.0
1001
REVIT
1002
{
1070
     2
1000
-2001160
1002
}
  0
LINE
  5
47A
330
387
100
AcDbEntity
  8
TU105501
100
AcDbLine
 10
2.501796907796553
 20
-3.454867317155343
 30
0.0
 11
2.492434046394016
 21
-3.443068630419151
 31
0.0
1001
REVIT
1002
{
1070
     2
1000
-2001160
1002
}
  0
LINE
  5
47B
330
387
100
AcDbEntity
  8
TU105501
100
AcDbLine
 10
2.492434046394016
 20
-3.443068630419151
 30
0.0
 11
2.483550495908808
 21
-3.430904966780325
 31
0.0
1001
REVIT
1002
{
1070
     2
1000
-2001160
1002
}
  0
LINE
  5
47C
330
387
100
AcDbEntity
  8
TU105501
100
AcDbLine
 10
2.483550495908808
 20
-3.430904966780325
 30
0.0
 11
2.475160468126652
 21
-3.418395785505907
 31
0.0
1001
REVIT
1002
{
1070
     2
1000
-2001160
1002
}
  0
LINE
  5
47D
330
387
100
AcDbEntity
  8
TU105501
100
AcDbLine
 10
2.475160468126652
 20
-3.418395785505907
 30
0.0
 11
2.467277385302203
 21
-3.405561098617443
 31
0.0
1001
REVIT
1002
{
1070
     2
1000
-2001160
1002
}
  0
LINE
  5
47E
330
387
100
AcDbEntity
  8
TU105501
100
AcDbLine
 10
2.467277385302203
 20
-3.405561098617443
 30
0.0
 11
2.459913858686384
 21
-3.392421438876056
 31
0.0
1001
REVIT
1002
{
1070
     2
1000
-2001160
1002
}
  0
LINE
  5
47F
330
387
100
AcDbEntity
  8
TU105501
100
AcDbLine
 10
2.459913858686384
 20
-3.392421438876056
 30
0.0
 11
2.453081668350939
 21
-3.378997826934327
 31
0.0
1001
REVIT
1002
{
1070
     2
1000
-2001160
1002
}
  0
LINE
  5
480
330
387
100
AcDbEntity
  8
TU105501
100
AcDbLine
 10
2.453081668350939
 20
-3.378997826934327
 30
0.0
 11
2.446791744342952
 21
-3.36531173770783
 31
0.0
1001
REVIT
1002
{
1070
     2
1000
-2001160
1002
}
  0
LINE
  5
481
330
387
100
AcDbEntity
  8
TU105501
100
AcDbLine
 10
2.446791744342952
 20
-3.36531173770783
 30
0.0
 11
2.441054149199082
 21
-3.351385066019783
 31
0.0
1001
REVIT
1002
{
1070
     2
1000
-2001160
1002
}
  0
LINE
  5
482
330
387
100
AcDbEntity
  8
TU105501
100
AcDbLine
 10
2.441054149199082
 20
-3.351385066019783
 30
0.0
 11
2.435878061847596
 21
-3.337240091574013
 31
0.0
1001
REVIT
1002
{
1070
     2
1000
-2001160
1002
}
  0
LINE
  5
483
330
387
100
AcDbEntity
  8
TU105501
100
AcDbLine
 10
2.435878061847596
 20
-3.337240091574013
 30
0.0
 11
2.431271762924076
 21
-3.322899443312206
 31
0.0
1001
REVIT
1002
{
1070
     2
1000
-2001160
1002
}
  0
LINE
  5
484
330
387
100
AcDbEntity
  8
TU105501
100
AcDbLine
 10
2.431271762924076
 20
-3.322899443312206
 30
0.0
 11
2.427242621524165
 21
-3.308386063212402
 31
0.0
1001
REVIT
1002
{
1070
     2
1000
-2001160
1002
}
  0
LINE
  5
485
330
387
100
AcDbEntity
  8
TU105501
100
AcDbLine
 10
2.427242621524165
 20
-3.308386063212402
 30
0.0
 11
2.423797083414619
 21
-3.293723169586751
 31
0.0
1001
REVIT
1002
{
1070
     2
1000
-2001160
1002
}
  0
LINE
  5
486
330
387
100
AcDbEntity
  8
TU105501
100
AcDbLine
 10
2.423797083414619
 20
-3.293723169586751
 30
0.0
 11
2.420940660721392
 21
-3.278934219937116
 31
0.0
1001
REVIT
1002
{
1070
     2
1000
-2001160
1002
}
  0
LINE
  5
487
330
387
100
AcDbEntity
  8
TU105501
100
AcDbLine
 10
2.420940660721392
 20
-3.278934219937116
 30
0.0
 11
2.418677923111467
 21
-3.264042873428142
 31
0.0
1001
REVIT
1002
{
1070
     2
1000
-2001160
1002
}
  0
LINE
  5
488
330
387
100
AcDbEntity
  8
TU105501
100
AcDbLine
 10
2.418677923111467
 20
-3.264042873428142
 30
0.0
 11
2.417012490482314
 21
-3.249072953037586
 31
0.0
1001
REVIT
1002
{
1070
     2
1000
-2001160
1002
}
  0
LINE
  5
489
330
387
100
AcDbEntity
  8
TU105501
100
AcDbLine
 10
2.417012490482314
 20
-3.249072953037586
 30
0.0
 11
2.415947027170879
 21
-3.234048407444671
 31
0.0
1001
REVIT
1002
{
1070
     2
1000
-2001160
1002
}
  0
LINE
  5
48A
330
387
100
AcDbEntity
  8
TU105501
100
AcDbLine
 10
2.415947027170879
 20
-3.234048407444671
 30
0.0
 11
2.415483237691155
 21
-3.218993272717273
 31
0.0
1001
REVIT
1002
{
1070
     2
1000
-2001160
1002
}
  0
LINE
  5
48B
330
387
100
AcDbEntity
  8
TU105501
100
AcDbLine
 10
2.415483237691155
 20
-3.218993272717273
 30
0.0
 11
2.415461290577347
 21
-3.214927649094221
 31
0.0
1001
REVIT
1002
{
1070
     2
1000
-2001160
1002
}
  0
LINE
  5
48C
330
387
100
AcDbEntity
  8
TU105501
100
AcDbLine
 10
2.876845715054919
 20
-3.591509674012218
 30
0.0
 11
2.794926781368097
 21
-3.591509674012218
 31
0.0
1001
REVIT
1002
{
1070
     2
1000
-2001160
1002
}
  0
LINE
  5
48D
330
387
100
AcDbEntity
  8
TU105501
100
AcDbLine
 10
0.6214285714285879
 20
-0.7500000000000746
 30
0.0
 11
0.6748535526491751
 21
-0.7500000000000746
 31
0.0
1001
REVIT
1002
{
1070
     2
1000
-2001160
1002
}
  0
LINE
  5
48E
330
387
100
AcDbEntity
  8
TU105501
100
AcDbLine
 10
0.6748535526491608
 20
0.7499999999998899
 30
0.0
 11
0.6214285714285737
 21
0.7499999999998899
 31
0.0
1001
REVIT
1002
{
1070
     2
1000
-2001160
1002
}
  0
LINE
  5
48F
330
387
100
AcDbEntity
  8
TU105501
100
AcDbLine
 10
-0.0000000000000071
 20
3.749999999999996
 30
0.0
 11
0.0000000000000071
 21
-3.749999999999996
 31
0.0
1001
REVIT
1002
{
1070
     2
1000
-2001160
1002
}
  0
LINE
  5
490
330
387
100
AcDbEntity
  8
TU105501
100
AcDbLine
 10
0.6214285714285879
 20
-3.749999999999996
 30
0.0
 11
0.6214285714285737
 21
3.75
 31
0.0
1001
REVIT
1002
{
1070
     2
1000
-2001160
1002
}
  0
LINE
  5
491
330
387
100
AcDbEntity
  8
TU105501
100
AcDbLine
 10
2.134211290577333
 20
1.249999999999904
 30
0.0
 11
2.134211290577361
 21
-1.250000000000056
 31
0.0
1001
REVIT
1002
{
1070
     2
1000
-2001160
1002
}
  0
LINE
  5
492
330
387
100
AcDbEntity
  8
TU105501
100
AcDbLine
 10
0.6748535526491608
 20
1.249999999999889
 30
0.0
 11
0.6748535526491893
 21
-1.250000000000074
 31
0.0
1001
REVIT
1002
{
1070
     2
1000
-2001160
1002
}
  0
SPLINE
  5
493
330
387
100
AcDbEntity
  8
TU105501
100
AcDbSpline
210
0.0
220
0.0
230
1.0
 70
     8
 71
     3
 72
    23
 73
    19
 74
     0
 42
0.000000001
 43
0.0000000001
 40
0.0
 40
0.0
 40
0.0
 40
0.0
 40
0.1428571428571428
 40
0.2142857142857143
 40
0.2857142857142857
 40
0.4285714285714286
 40
0.5714285714285714
 40
0.625
 40
0.6785714285714287
 40
0.7053571428571429
 40
0.71875
 40
0.7321428571428572
 40
0.7857142857142857
 40
0.8392857142857142
 40
0.8660714285714284
 40
0.8928571428571427
 40
0.9464285714285713
 40
1.0
 40
1.0
 40
1.0
 40
1.0
 10
2.415461290577333
 20
-0.6250000000000569
 30
0.0
 10
2.415792485394909
 20
-0.6250000000000569
 30
0.0
 10
2.421984534002497
 20
-0.6199947606618573
 30
0.0
 10
2.442972185100053
 20
-0.6046476062634696
 30
0.0
 10
2.470993395559595
 20
-0.5843120926987382
 30
0.0
 10
2.518177642951933
 20
-0.5514814753031878
 30
0.0
 10
2.575154004220756
 20
-0.5154690550043562
 30
0.0
 10
2.622445627086797
 20
-0.4890549118507579
 30
0.0
 10
2.64940944504206
 20
-0.4751077948618026
 30
0.0
 10
2.669068044852316
 20
-0.4658981530000048
 30
0.0
 10
2.680513264401788
 20
-0.4608698722875673
 30
0.0
 10
2.697953430807253
 20
-0.4533890201477746
 30
0.0
 10
2.725088717380465
 20
-0.4425083395584864
 30
0.0
 10
2.756597402441009
 20
-0.4321355602629282
 30
0.0
 10
2.782350102480783
 20
-0.4256951836379735
 30
0.0
 10
2.808556957874721
 20
-0.4202955815507253
 30
0.0
 10
2.842200089727889
 20
-0.4154600422815165
 30
0.0
 10
2.870051084113235
 20
-0.413725885352406
 30
0.0
 10
2.884211290577333
 20
-0.4133986423529912
 30
0.0
1001
REVIT
1002
{
1070
     2
1000
-2001160
1002
}
  0
LINE
  5
494
330
387
100
AcDbEntity
  8
TU105501
100
AcDbLine
 10
2.884211290577333
 20
-3.591480433136201
 30
0.0
 11
2.884211290577319
 21
0.6249999999999183
 31
0.0
1001
REVIT
1002
{
1070
     2
1000
-2001160
1002
}
  0
ENDBLK
  5
389
330
387
100
AcDbEntity
  8
0
100
AcDbBlockEnd
  0
ENDSEC
  0
SECTION
  2
ENTITIES
  0
INSERT
  5
338
330
70
100
AcDbEntity
  8
TU105501
100
AcDbBlockReference
  2
TU105501 Top View
 10
87.8362193444793
 20
83.66389444831645
 30
0.0
  0
INSERT
  5
386
330
70
100
AcDbEntity
  8
TU105501
100
AcDbBlockReference
  2
TU105501 Front View
 10
87.83621889330367
 20
3.934835726415413
 30
0.0
  0
INSERT
  5
495
330
70
100
AcDbEntity
  8
TU105501
100
AcDbBlockReference
  2
TU105501 Left View
 10
32.55653214656422
 20
3.934835726415421
 30
0.0
  0
ENDSEC
  0
SECTION
  2
OBJECTS
  0
DICTIONARY
  5
C
330
0
100
AcDbDictionary
281
     1
  3
ACAD_CIP_PREVIOUS_PRODUCT_INFO
350
79
  3
ACAD_COLOR
350
63
  3
ACAD_DETAILVIEWSTYLE
350
6A
  3
ACAD_GROUP
350
D
  3
ACAD_IMAGE_VARS
350
7A
  3
ACAD_LAYOUT
350
62
  3
ACAD_MATERIAL
350
10
  3
ACAD_MLEADERSTYLE
350
66
  3
ACAD_MLINESTYLE
350
5F
  3
ACAD_PLOTSETTINGS
350
61
  3
ACAD_PLOTSTYLENAME
350
E
  3
ACAD_SCALELIST
350
42
  3
ACAD_SECTIONVIEWSTYLE
350
68
  3
ACAD_TABLESTYLE
350
64
  3
ACAD_VISUALSTYLE
350
29
  3
ACDB_RECOMPOSE_DATA
350
4A4
  3
AcDbVariableDictionary
350
D4
  3
REVIT_DICTIONARY
350
CA
  0
DICTIONARY
  5
1B8
330
2
100
AcDbDictionary
280
     1
281
     1
  3
ACAD_LAYERSTATES
360
1B9
  0
DICTIONARY
  5
CD
330
70
100
AcDbDictionary
280
     1
281
     1
  3
ACAD_SORTENTS
360
CE
  0
XRECORD
  5
79
102
{ACAD_REACTORS
330
C
102
}
330
C
100
AcDbXrecord
280
     1
300
ACD
300
2016
300
86445ACD_2016_0F
  0
DICTIONARY
  5
63
102
{ACAD_REACTORS
330
C
102
}
330
C
100
AcDbDictionary
281
     1
  0
DICTIONARY
  5
6A
102
{ACAD_REACTORS
330
C
102
}
330
C
100
AcDbDictionary
281
     1
  3
Imperial24
350
6B
  0
DICTIONARY
  5
D
102
{ACAD_REACTORS
330
C
102
}
330
C
100
AcDbDictionary
281
     1
  0
RASTERVARIABLES
  5
7A
102
{ACAD_REACTORS
330
C
102
}
330
C
100
AcDbRasterVariables
 90
        0
 70
     0
 71
     1
 72
     5
  0
DICTIONARY
  5
62
102
{ACAD_REACTORS
330
C
102
}
330
C
100
AcDbDictionary
281
     1
  3
Layout1
350
6F
  3
Layout2
350
77
  3
Model
350
73
  0
DICTIONARY
  5
10
102
{ACAD_REACTORS
330
C
102
}
330
C
100
AcDbDictionary
281
     1
  3
ByBlock
350
19
  3
ByLayer
350
11
  3
Global
350
21
  0
DICTIONARY
  5
66
102
{ACAD_REACTORS
330
C
102
}
330
C
100
AcDbDictionary
281
     1
  3
Standard
350
67
  0
DICTIONARY
  5
5F
102
{ACAD_REACTORS
330
C
102
}
330
C
100
AcDbDictionary
281
     1
  3
Standard
350
60
  0
DICTIONARY
  5
61
102
{ACAD_REACTORS
330
C
102
}
330
C
100
AcDbDictionary
281
     1
  0
ACDBDICTIONARYWDFLT
  5
E
102
{ACAD_REACTORS
330
C
102
}
330
C
100
AcDbDictionary
281
     1
  3
Normal
350
F
100
AcDbDictionaryWithDefault
340
F
  0
DICTIONARY
  5
42
102
{ACAD_REACTORS
330
C
102
}
330
C
100
AcDbDictionary
281
     1
  3
A0
350
43
  3
A1
350
44
  3
A2
350
45
  3
A3
350
46
  3
A4
350
47
  3
A5
350
48
  3
A6
350
49
  3
A7
350
4A
  3
A8
350
4B
  3
A9
350
4C
  3
B0
350
4D
  3
B1
350
4E
  3
B2
350
4F
  3
B3
350
50
  3
B4
350
51
  3
B5
350
52
  3
B6
350
53
  0
DICTIONARY
  5
68
102
{ACAD_REACTORS
330
C
102
}
330
C
100
AcDbDictionary
281
     1
  3
Imperial24
350
69
  0
DICTIONARY
  5
64
102
{ACAD_REACTORS
330
C
102
}
330
C
100
AcDbDictionary
281
     1
  3
Standard
350
65
  0
DICTIONARY
  5
29
102
{ACAD_REACTORS
330
C
102
}
330
C
100
AcDbDictionary
281
     1
  3
2dWireframe
350
2F
  3
Basic
350
2E
  3
Brighten
350
35
  3
ColorChange
350
39
  3
Conceptual
350
32
  3
Dim
350
34
  3
EdgeColorOff
350
41
  3
Facepattern
350
38
  3
Flat
350
2A
  3
FlatWithEdges
350
2B
  3
Gouraud
350
2C
  3
GouraudWithEdges
350
2D
  3
Hidden
350
31
  3
JitterOff
350
3F
  3
Linepattern
350
37
  3
OverhangOff
350
40
  3
Realistic
350
33
  3
Shaded
350
3E
  3
Shaded with edges
350
3D
  3
Shades of Gray
350
3A
  3
Sketchy
350
3B
  3
Thicken
350
36
  3
Wireframe
350
30
  3
X-Ray
350
3C
  0
XRECORD
  5
4A4
102
{ACAD_REACTORS
330
C
102
}
330
C
100
AcDbXrecord
280
     1
 90
        1
330
65
330
69
330
6B
  0
DICTIONARY
  5
D4
102
{ACAD_REACTORS
330
C
102
}
330
C
100
AcDbDictionary
281
     1
  3
CANNOSCALE
350
D9
  3
CMLEADERSTYLE
350
D6
  3
CTABLESTYLE
350
D5
  3
CVIEWDETAILSTYLE
350
D7
  3
CVIEWSECTIONSTYLE
350
D8
  0
DICTIONARY
  5
CA
102
{ACAD_REACTORS
330
C
102
}
330
C
100
AcDbDictionary
281
     1
  3
DRAWING_TOOL
350
CC
  3
REVIT_CATEGORY_MAPPING
350
CB
  0
DICTIONARY
  5
1B9
102
{ACAD_REACTORS
330
1B8
102
}
330
1B8
100
AcDbDictionary
281
     1
  0
SORTENTSTABLE
  5
CE
102
{ACAD_REACTORS
330
CD
102
}
330
CD
100
AcDbSortentsTable
330
70
  0
ACDBDETAILVIEWSTYLE
  5
6B
102
{ACAD_XDICTIONARY
360
D1
102
}
102
{ACAD_REACTORS
330
6A
102
}
330
6A
100
AcDbModelDocViewStyle
 70
     0
  3
Imperial24
290
     0
100
AcDbDetailViewStyle
 70
     0
 71
     0
 90
        3
 71
     1
340
55
 62
   256
 40
0.24
340
0
 62
   256
 40
0.24
300

 40
0.36
280
     3
 71
     2
340
5D
 90
       25
 62
   256
 71
     3
340
55
 62
   256
 40
0.24
 90
        1
 40
0.75
 90
        1
300
%<\AcVar ViewType \f "%tc1">% %<\AcVar ViewDetailId>%\PSCALE %<\AcVar ViewScale \f "%sn">%
 71
     4
340
5D
 90
       25
 62
   256
340
5D
 90
       25
 62
   256
280
     0
  0
LAYOUT
  5
6F
102
{ACAD_REACTORS
330
62
102
}
330
62
100
AcDbPlotSettings
  1

  2

  4

  6

 40
0.0
 41
0.0
 42
0.0
 43
0.0
 44
0.0
 45
0.0
 46
0.0
 47
0.0
 48
0.0
 49
0.0
140
0.0
141
0.0
142
1.0
143
1.0
 70
   688
 72
     0
 73
     0
 74
     5
  7

 75
    16
147
1.0
 76
     0
 77
     2
 78
   300
148
0.0
149
0.0
100
AcDbLayout
  1
Layout1
 70
     1
 71
     1
 10
0.0
 20
0.0
 11
12.0
 21
9.0
 12
0.0
 22
0.0
 32
0.0
 14
1.000000000000000E+20
 24
1.000000000000000E+20
 34
1.000000000000000E+20
 15
-1.000000000000000E+20
 25
-1.000000000000000E+20
 35
-1.000000000000000E+20
146
0.0
 13
0.0
 23
0.0
 33
0.0
 16
1.0
 26
0.0
 36
0.0
 17
0.0
 27
1.0
 37
0.0
 76
     0
330
6C
  0
LAYOUT
  5
77
102
{ACAD_REACTORS
330
62
102
}
330
62
100
AcDbPlotSettings
  1

  2

  4

  6

 40
0.0
 41
0.0
 42
0.0
 43
0.0
 44
0.0
 45
0.0
 46
0.0
 47
0.0
 48
0.0
 49
0.0
140
0.0
141
0.0
142
1.0
143
1.0
 70
   688
 72
     0
 73
     0
 74
     5
  7

 75
    16
147
1.0
 76
     0
 77
     2
 78
   300
148
0.0
149
0.0
100
AcDbLayout
  1
Layout2
 70
     1
 71
     2
 10
0.0
 20
0.0
 11
12.0
 21
9.0
 12
0.0
 22
0.0
 32
0.0
 14
0.0
 24
0.0
 34
0.0
 15
0.0
 25
0.0
 35
0.0
146
0.0
 13
0.0
 23
0.0
 33
0.0
 16
1.0
 26
0.0
 36
0.0
 17
0.0
 27
1.0
 37
0.0
 76
     0
330
74
  0
LAYOUT
  5
73
102
{ACAD_REACTORS
330
62
102
}
330
62
100
AcDbPlotSettings
  1

  2

  4

  6

 40
0.0
 41
0.0
 42
0.0
 43
0.0
 44
0.0
 45
0.0
 46
0.0
 47
0.0
 48
0.0
 49
0.0
140
0.0
141
0.0
142
1.0
143
1.0
 70
  1712
 72
     0
 73
     0
 74
     0
  7

 75
     0
147
1.0
 76
     0
 77
     2
 78
   300
148
0.0
149
0.0
100
AcDbLayout
  1
Model
 70
     1
 71
     0
 10
0.0
 20
0.0
 11
12.0
 21
9.0
 12
0.0
 22
0.0
 32
0.0
 14
0.0
 24
0.0
 34
0.0
 15
0.0
 25
0.0
 35
0.0
146
0.0
 13
0.0
 23
0.0
 33
0.0
 16
1.0
 26
0.0
 36
0.0
 17
0.0
 27
1.0
 37
0.0
 76
     0
330
70
331
57
  0
MATERIAL
  5
19
102
{ACAD_XDICTIONARY
360
1A
102
}
102
{ACAD_REACTORS
330
10
102
}
330
10
100
AcDbMaterial
  1
ByBlock
 72
     0
 43
0.0208333333333333
 43
0.0
 43
0.0
 43
0.0
 43
0.0
 43
0.0208333333333333
 43
0.0
 43
0.0
 43
0.0
 43
0.0
 43
1.0
 43
0.0
 43
0.0
 43
0.0
 43
0.0
 43
1.0
 77
     0
 47
0.0208333333333333
 47
0.0
 47
0.0
 47
0.0
 47
0.0
 47
0.0208333333333333
 47
0.0
 47
0.0
 47
0.0
 47
0.0
 47
1.0
 47
0.0
 47
0.0
 47
0.0
 47
0.0
 47
1.0
171
     0
 49
0.0208333333333333
 49
0.0
 49
0.0
 49
0.0
 49
0.0
 49
0.0208333333333333
 49
0.0
 49
0.0
 49
0.0
 49
0.0
 49
1.0
 49
0.0
 49
0.0
 49
0.0
 49
0.0
 49
1.0
175
     0
142
0.0208333333333333
142
0.0
142
0.0
142
0.0
142
0.0
142
0.0208333333333333
142
0.0
142
0.0
142
0.0
142
0.0
142
1.0
142
0.0
142
0.0
142
0.0
142
0.0
142
1.0
179
     0
144
0.0208333333333333
144
0.0
144
0.0
144
0.0
144
0.0
144
0.0208333333333333
144
0.0
144
0.0
144
0.0
144
0.0
144
1.0
144
0.0
144
0.0
144
0.0
144
0.0
144
1.0
147
0.0208333333333333
147
0.0
147
0.0
147
0.0
147
0.0
147
0.0208333333333333
147
0.0
147
0.0
147
0.0
147
0.0
147
1.0
147
0.0
147
0.0
147
0.0
147
0.0
147
1.0
  0
MATERIAL
  5
11
102
{ACAD_XDICTIONARY
360
12
102
}
102
{ACAD_REACTORS
330
10
102
}
330
10
100
AcDbMaterial
  1
ByLayer
 72
     0
 43
0.0208333333333333
 43
0.0
 43
0.0
 43
0.0
 43
0.0
 43
0.0208333333333333
 43
0.0
 43
0.0
 43
0.0
 43
0.0
 43
1.0
 43
0.0
 43
0.0
 43
0.0
 43
0.0
 43
1.0
 77
     0
 47
0.0208333333333333
 47
0.0
 47
0.0
 47
0.0
 47
0.0
 47
0.0208333333333333
 47
0.0
 47
0.0
 47
0.0
 47
0.0
 47
1.0
 47
0.0
 47
0.0
 47
0.0
 47
0.0
 47
1.0
171
     0
 49
0.0208333333333333
 49
0.0
 49
0.0
 49
0.0
 49
0.0
 49
0.0208333333333333
 49
0.0
 49
0.0
 49
0.0
 49
0.0
 49
1.0
 49
0.0
 49
0.0
 49
0.0
 49
0.0
 49
1.0
175
     0
142
0.0208333333333333
142
0.0
142
0.0
142
0.0
142
0.0
142
0.0208333333333333
142
0.0
142
0.0
142
0.0
142
0.0
142
1.0
142
0.0
142
0.0
142
0.0
142
0.0
142
1.0
179
     0
144
0.0208333333333333
144
0.0
144
0.0
144
0.0
144
0.0
144
0.0208333333333333
144
0.0
144
0.0
144
0.0
144
0.0
144
1.0
144
0.0
144
0.0
144
0.0
144
0.0
144
1.0
147
0.0208333333333333
147
0.0
147
0.0
147
0.0
147
0.0
147
0.0208333333333333
147
0.0
147
0.0
147
0.0
147
0.0
147
1.0
147
0.0
147
0.0
147
0.0
147
0.0
147
1.0
  0
MATERIAL
  5
21
102
{ACAD_XDICTIONARY
360
22
102
}
102
{ACAD_REACTORS
330
10
102
}
330
10
100
AcDbMaterial
  1
Global
 72
     0
 43
0.0208333333333333
 43
0.0
 43
0.0
 43
0.0
 43
0.0
 43
0.0208333333333333
 43
0.0
 43
0.0
 43
0.0
 43
0.0
 43
1.0
 43
0.0
 43
0.0
 43
0.0
 43
0.0
 43
1.0
 77
     0
 47
0.0208333333333333
 47
0.0
 47
0.0
 47
0.0
 47
0.0
 47
0.0208333333333333
 47
0.0
 47
0.0
 47
0.0
 47
0.0
 47
1.0
 47
0.0
 47
0.0
 47
0.0
 47
0.0
 47
1.0
171
     0
 49
0.0208333333333333
 49
0.0
 49
0.0
 49
0.0
 49
0.0
 49
0.0208333333333333
 49
0.0
 49
0.0
 49
0.0
 49
0.0
 49
1.0
 49
0.0
 49
0.0
 49
0.0
 49
0.0
 49
1.0
175
     0
142
0.0208333333333333
142
0.0
142
0.0
142
0.0
142
0.0
142
0.0208333333333333
142
0.0
142
0.0
142
0.0
142
0.0
142
1.0
142
0.0
142
0.0
142
0.0
142
0.0
142
1.0
179
     0
144
0.0208333333333333
144
0.0
144
0.0
144
0.0
144
0.0
144
0.0208333333333333
144
0.0
144
0.0
144
0.0
144
0.0
144
1.0
144
0.0
144
0.0
144
0.0
144
0.0
144
1.0
147
0.0208333333333333
147
0.0
147
0.0
147
0.0
147
0.0
147
0.0208333333333333
147
0.0
147
0.0
147
0.0
147
0.0
147
1.0
147
0.0
147
0.0
147
0.0
147
0.0
147
1.0
  0
MLEADERSTYLE
  5
67
102
{ACAD_REACTORS
330
66
102
}
330
66
100
AcDbMLeaderStyle
179
     2
170
     2
171
     1
172
     0
 90
        2
 40
0.0
 41
0.0
173
     1
 91
-1056964608
340
5B
 92
       -2
290
     1
 42
0.09
291
     1
 43
0.36
  3
Standard
 44
0.18
300

342
55
174
     1
178
     6
175
     1
176
     0
 93
-1056964608
 45
0.18
292
     0
297
     0
 46
0.18
 94
-1056964608
 47
1.0
 49
1.0
140
1.0
293
     1
141
0.0
294
     1
177
     0
142
1.0
295
     1
296
     0
143
0.125
271
     0
272
     9
273
     9
298
     1
  0
MLINESTYLE
  5
60
102
{ACAD_REACTORS
330
5F
102
}
330
5F
100
AcDbMlineStyle
  2
STANDARD
 70
     0
  3

 62
   256
 51
90.0
 52
90.0
 71
     2
 49
0.5
 62
   256
  6
BYLAYER
 49
-0.5
 62
   256
  6
BYLAYER
  0
ACDBPLACEHOLDER
  5
F
102
{ACAD_REACTORS
330
E
102
}
330
E
  0
SCALE
  5
43
102
{ACAD_REACTORS
330
42
102
}
330
42
100
AcDbScale
 70
     0
300
1:1
140
1.0
141
1.0
290
     1
  0
SCALE
  5
44
102
{ACAD_REACTORS
330
42
102
}
330
42
100
AcDbScale
 70
     0
300
1/128" = 1'-0"
140
0.0078125
141
12.0
290
     0
  0
SCALE
  5
45
102
{ACAD_REACTORS
330
42
102
}
330
42
100
AcDbScale
 70
     0
300
1/64" = 1'-0"
140
0.015625
141
12.0
290
     0
  0
SCALE
  5
46
102
{ACAD_REACTORS
330
42
102
}
330
42
100
AcDbScale
 70
     0
300
1/32" = 1'-0"
140
0.03125
141
12.0
290
     0
  0
SCALE
  5
47
102
{ACAD_REACTORS
330
42
102
}
330
42
100
AcDbScale
 70
     0
300
1/16" = 1'-0"
140
0.0625
141
12.0
290
     0
  0
SCALE
  5
48
102
{ACAD_REACTORS
330
42
102
}
330
42
100
AcDbScale
 70
     0
300
3/32" = 1'-0"
140
0.09375
141
12.0
290
     0
  0
SCALE
  5
49
102
{ACAD_REACTORS
330
42
102
}
330
42
100
AcDbScale
 70
     0
300
1/8" = 1'-0"
140
0.125
141
12.0
290
     0
  0
SCALE
  5
4A
102
{ACAD_REACTORS
330
42
102
}
330
42
100
AcDbScale
 70
     0
300
3/16" = 1'-0"
140
0.1875
141
12.0
290
     0
  0
SCALE
  5
4B
102
{ACAD_REACTORS
330
42
102
}
330
42
100
AcDbScale
 70
     0
300
1/4" = 1'-0"
140
0.25
141
12.0
290
     0
  0
SCALE
  5
4C
102
{ACAD_REACTORS
330
42
102
}
330
42
100
AcDbScale
 70
     0
300
3/8" = 1'-0"
140
0.375
141
12.0
290
     0
  0
SCALE
  5
4D
102
{ACAD_REACTORS
330
42
102
}
330
42
100
AcDbScale
 70
     0
300
1/2" = 1'-0"
140
0.5
141
12.0
290
     0
  0
SCALE
  5
4E
102
{ACAD_REACTORS
330
42
102
}
330
42
100
AcDbScale
 70
     0
300
3/4" = 1'-0"
140
0.75
141
12.0
290
     0
  0
SCALE
  5
4F
102
{ACAD_REACTORS
330
42
102
}
330
42
100
AcDbScale
 70
     0
300
1" = 1'-0"
140
1.0
141
12.0
290
     0
  0
SCALE
  5
50
102
{ACAD_REACTORS
330
42
102
}
330
42
100
AcDbScale
 70
     0
300
1-1/2" = 1'-0"
140
1.5
141
12.0
290
     0
  0
SCALE
  5
51
102
{ACAD_REACTORS
330
42
102
}
330
42
100
AcDbScale
 70
     0
300
3" = 1'-0"
140
3.0
141
12.0
290
     0
  0
SCALE
  5
52
102
{ACAD_REACTORS
330
42
102
}
330
42
100
AcDbScale
 70
     0
300
6" = 1'-0"
140
6.0
141
12.0
290
     0
  0
SCALE
  5
53
102
{ACAD_REACTORS
330
42
102
}
330
42
100
AcDbScale
 70
     0
300
1'-0" = 1'-0"
140
12.0
141
12.0
290
     0
  0
ACDBSECTIONVIEWSTYLE
  5
69
102
{ACAD_XDICTIONARY
360
CF
102
}
102
{ACAD_REACTORS
330
68
102
}
330
68
100
AcDbModelDocViewStyle
 70
     0
  3
Imperial24
290
     0
100
AcDbSectionViewStyle
 70
     0
 71
     0
 90
       78
 71
     1
340
55
 62
   256
 40
0.24
340
0
340
0
 62
   256
 40
0.24
300
I, O, Q, S, X, Z
 40
0.48
 90
        3
 40
0.18
 90
        1
 71
     2
340
5D
 90
       25
 62
   256
340
5D
 90
       50
 62
   256
 40
0.24
 40
0.0
 40
0.24
 71
     3
340
55
 62
   256
 40
0.24
 90
        1
 40
0.75
 90
        1
300
%<\AcVar ViewType \f "%tc1">% %<\AcVar ViewSectionStartId>%-%<\AcVar ViewSectionEndId>%\PSCALE %<\AcVar ViewScale \f "%sn">%
 71
     4
 62
   256
 62
   257
300
ANSI31
 40
1.0
 90
        0
290
     0
290
     0
 90
        6
 40
0.0
 40
1.570796326794896
 40
0.2617993877991494
 40
1.308996938995747
 40
-0.2617993877991494
 40
1.832595714594046
  0
TABLESTYLE
  5
65
102
{ACAD_XDICTIONARY
360
4A0
102
}
102
{ACAD_REACTORS
330
64
102
}
330
64
100
AcDbTableStyle
280
     0
  3
Standard
 70
     0
 71
     0
 40
0.06
 41
0.06
280
     0
281
     0
  7
Standard
140
0.18
170
     2
 62
     0
 63
     7
283
     0
 90
      512
 91
        0
  1

274
    -2
284
     1
 64
     0
275
    -2
285
     1
 65
     0
276
    -2
286
     1
 66
     0
277
    -2
287
     1
 67
     0
278
    -2
288
     1
 68
     0
279
    -2
289
     1
 69
     0
  7
Standard
140
0.25
170
     5
 62
     0
 63
     7
283
     0
 90
      512
 91
        0
  1

274
    -2
284
     1
 64
     0
275
    -2
285
     1
 65
     0
276
    -2
286
     1
 66
     0
277
    -2
287
     1
 67
     0
278
    -2
288
     1
 68
     0
279
    -2
289
     1
 69
     0
  7
Standard
140
0.18
170
     5
 62
     0
 63
     7
283
     0
 90
      512
 91
        0
  1

274
    -2
284
     1
 64
     0
275
    -2
285
     1
 65
     0
276
    -2
286
     1
 66
     0
277
    -2
287
     1
 67
     0
278
    -2
288
     1
 68
     0
279
    -2
289
     1
 69
     0
  0
VISUALSTYLE
  5
2F
102
{ACAD_REACTORS
330
29
102
}
330
29
100
AcDbVisualStyle
  2
2dWireframe
 70
     4
177
     3
291
     0
 70
    58
 90
        0
176
     1
 90
        2
176
     1
 90
        0
176
     1
 90
        0
176
     1
 40
0.6
176
     1
 40
30.0
176
     1
 62
     7
420
 16777215
176
     1
 90
        1
176
     1
 90
        4
176
     1
 62
     7
176
     1
 62
   257
176
     1
 90
        1
176
     1
 90
        1
176
     1
 40
1.0
176
     1
 90
        0
176
     1
 62
   257
176
     1
 40
1.0
176
     1
 90
        1
176
     1
 90
        6
176
     1
 90
        2
176
     1
 62
     7
176
     1
 90
        5
176
     1
 90
        0
176
     1
 90
        0
176
     1
290
     0
176
     1
 90
        1
176
     1
 40
0.0
176
     1
 90
        0
176
     1
290
     1
176
     1
290
     1
176
     1
290
     0
176
     1
290
     0
176
     1
290
     0
176
     1
290
     0
176
     1
290
     0
176
     1
290
     0
176
     1
290
     0
176
     1
 90
       50
176
     1
 40
0.0
176
     1
 40
1.0
176
     1
 90
        0
176
     1
 62
    18
420
        0
176
     1
 90
       50
176
     1
 90
        3
176
     1
 62
     5
420
      255
176
     1
290
     0
176
     1
 90
       50
176
     1
 90
       50
176
     1
 90
       50
176
     1
290
     0
176
     1
 90
       50
176
     1
 62
   256
176
     0
 40
1.0
176
     0
 90
        2
176
     1
  1
strokes_ogs.tif
176
     1
290
     0
176
     1
 40
1.0
176
     1
 40
1.0
176
     1
  0
VISUALSTYLE
  5
2E
102
{ACAD_REACTORS
330
29
102
}
330
29
100
AcDbVisualStyle
  2
Basic
 70
     7
177
     3
291
     1
 70
    58
 90
        1
176
     1
 90
        0
176
     1
 90
        1
176
     1
 90
        0
176
     1
 40
0.6
176
     1
 40
30.0
176
     1
 62
     7
420
 16777215
176
     1
 90
        0
176
     1
 90
        4
176
     1
 62
     7
176
     1
 62
   257
176
     1
 90
        1
176
     1
 90
        1
176
     1
 40
1.0
176
     1
 90
        8
176
     1
 62
     7
176
     1
 40
1.0
176
     1
 90
        1
176
     1
 90
        6
176
     1
 90
        2
176
     1
 62
     7
176
     1
 90
        5
176
     1
 90
        0
176
     1
 90
        0
176
     1
290
     0
176
     1
 90
        1
176
     1
 40
0.0
176
     1
 90
        0
176
     1
290
     0
176
     1
290
     1
176
     1
290
     1
176
     1
290
     0
176
     1
290
     0
176
     1
290
     0
176
     1
290
     0
176
     1
290
     0
176
     1
290
     0
176
     1
 90
       50
176
     1
 40
0.0
176
     1
 40
1.0
176
     1
 90
        0
176
     1
 62
    18
420
        0
176
     1
 90
       50
176
     1
 90
        3
176
     1
 62
     5
420
      255
176
     1
290
     0
176
     1
 90
       50
176
     1
 90
       50
176
     1
 90
       50
176
     1
290
     0
176
     1
 90
       50
176
     1
 62
   256
176
     0
 40
1.0
176
     0
 90
        2
176
     1
  1
strokes_ogs.tif
176
     1
290
     0
176
     1
 40
1.0
176
     1
 40
1.0
176
     1
  0
VISUALSTYLE
  5
35
102
{ACAD_REACTORS
330
29
102
}
330
29
100
AcDbVisualStyle
  2
Brighten
 70
    12
177
     3
291
     1
 70
    58
 90
        2
176
     1
 90
        2
176
     1
 90
        0
176
     1
 90
        0
176
     1
 40
0.6
176
     1
 40
30.0
176
     1
 62
     7
420
 16777215
176
     1
 90
        1
176
     1
 90
        4
176
     1
 62
     7
176
     1
 62
   257
176
     1
 90
        1
176
     1
 90
        1
176
     1
 40
1.0
176
     1
 90
        8
176
     1
 62
     7
176
     1
 40
1.0
176
     1
 90
        1
176
     1
 90
        6
176
     1
 90
        2
176
     1
 62
     7
176
     1
 90
        5
176
     1
 90
        0
176
     1
 90
        0
176
     1
290
     0
176
     1
 90
        1
176
     1
 40
50.0
176
     1
 90
        0
176
     1
290
     0
176
     1
290
     1
176
     1
290
     1
176
     1
290
     0
176
     1
290
     0
176
     1
290
     0
176
     1
290
     0
176
     1
290
     0
176
     1
290
     0
176
     1
 90
       50
176
     1
 40
0.0
176
     1
 40
1.0
176
     1
 90
        0
176
     1
 62
    18
420
        0
176
     1
 90
       50
176
     1
 90
        3
176
     1
 62
     5
420
      255
176
     1
290
     0
176
     1
 90
       50
176
     1
 90
       50
176
     1
 90
       50
176
     1
290
     0
176
     1
 90
       50
176
     1
 62
   256
176
     0
 40
1.0
176
     0
 90
        2
176
     1
  1
strokes_ogs.tif
176
     1
290
     0
176
     1
 40
1.0
176
     1
 40
1.0
176
     1
  0
VISUALSTYLE
  5
39
102
{ACAD_REACTORS
330
29
102
}
330
29
100
AcDbVisualStyle
  2
ColorChange
 70
    16
177
     3
291
     1
 70
    58
 90
        2
176
     1
 90
        2
176
     1
 90
        3
176
     1
 90
        0
176
     1
 40
0.6
176
     1
 40
30.0
176
     1
 62
     8
420
  8421504
176
     1
 90
        1
176
     1
 90
        4
176
     1
 62
     7
176
     1
 62
   257
176
     1
 90
        1
176
     1
 90
        1
176
     1
 40
1.0
176
     1
 90
        8
176
     1
 62
     8
420
  8421504
176
     1
 40
1.0
176
     1
 90
        1
176
     1
 90
        6
176
     1
 90
        2
176
     1
 62
     7
176
     1
 90
        5
176
     1
 90
        0
176
     1
 90
        0
176
     1
290
     0
176
     1
 90
        1
176
     1
 40
0.0
176
     1
 90
        0
176
     1
290
     0
176
     1
290
     1
176
     1
290
     1
176
     1
290
     0
176
     1
290
     0
176
     1
290
     0
176
     1
290
     0
176
     1
290
     0
176
     1
290
     0
176
     1
 90
       50
176
     1
 40
0.0
176
     1
 40
1.0
176
     1
 90
        0
176
     1
 62
    18
420
        0
176
     1
 90
       50
176
     1
 90
        3
176
     1
 62
     5
420
      255
176
     1
290
     0
176
     1
 90
       50
176
     1
 90
       50
176
     1
 90
       50
176
     1
290
     0
176
     1
 90
       50
176
     1
 62
   256
176
     0
 40
1.0
176
     0
 90
        2
176
     1
  1
strokes_ogs.tif
176
     1
290
     0
176
     1
 40
1.0
176
     1
 40
1.0
176
     1
  0
VISUALSTYLE
  5
32
102
{ACAD_REACTORS
330
29
102
}
330
29
100
AcDbVisualStyle
  2
Conceptual
 70
     9
177
     3
291
     0
 70
    58
 90
        3
176
     1
 90
        2
176
     1
 90
        0
176
     1
 90
        0
176
     1
 40
0.6
176
     1
 40
30.0
176
     1
 62
     7
420
 16777215
176
     1
 90
        2
176
     1
 90
        2
176
     1
 62
     7
176
     1
 62
   257
176
     1
 90
        1
176
     1
 90
        1
176
     1
 40
179.0
176
     1
 90
        8
176
     1
 62
     7
176
     1
 40
1.0
176
     1
 90
        1
176
     1
 90
        6
176
     1
 90
        2
176
     1
 62
     7
176
     1
 90
        3
176
     1
 90
        0
176
     1
 90
        0
176
     1
290
     0
176
     1
 90
        1
176
     1
 40
0.0
176
     1
 90
        0
176
     1
290
     0
176
     1
290
     1
176
     1
290
     1
176
     1
290
     0
176
     1
290
     0
176
     1
290
     0
176
     1
290
     0
176
     1
290
     0
176
     1
290
     0
176
     1
 90
       50
176
     1
 40
0.0
176
     1
 40
1.0
176
     1
 90
        0
176
     1
 62
    18
420
        0
176
     1
 90
       50
176
     1
 90
        3
176
     1
 62
     5
420
      255
176
     1
290
     0
176
     1
 90
       50
176
     1
 90
       50
176
     1
 90
       50
176
     1
290
     0
176
     1
 90
       50
176
     1
 62
   256
176
     0
 40
1.0
176
     0
 90
        2
176
     1
  1
strokes_ogs.tif
176
     1
290
     0
176
     1
 40
1.0
176
     1
 40
1.0
176
     1
  0
VISUALSTYLE
  5
34
102
{ACAD_REACTORS
330
29
102
}
330
29
100
AcDbVisualStyle
  2
Dim
 70
    11
177
     3
291
     1
 70
    58
 90
        2
176
     1
 90
        2
176
     1
 90
        0
176
     1
 90
        0
176
     1
 40
0.6
176
     1
 40
30.0
176
     1
 62
     7
420
 16777215
176
     1
 90
        1
176
     1
 90
        4
176
     1
 62
     7
176
     1
 62
   257
176
     1
 90
        1
176
     1
 90
        1
176
     1
 40
1.0
176
     1
 90
        8
176
     1
 62
     7
176
     1
 40
1.0
176
     1
 90
        1
176
     1
 90
        6
176
     1
 90
        2
176
     1
 62
     7
176
     1
 90
        5
176
     1
 90
        0
176
     1
 90
        0
176
     1
290
     0
176
     1
 90
        1
176
     1
 40
-50.0
176
     1
 90
        0
176
     1
290
     0
176
     1
290
     1
176
     1
290
     1
176
     1
290
     0
176
     1
290
     0
176
     1
290
     0
176
     1
290
     0
176
     1
290
     0
176
     1
290
     0
176
     1
 90
       50
176
     1
 40
0.0
176
     1
 40
1.0
176
     1
 90
        0
176
     1
 62
    18
420
        0
176
     1
 90
       50
176
     1
 90
        3
176
     1
 62
     5
420
      255
176
     1
290
     0
176
     1
 90
       50
176
     1
 90
       50
176
     1
 90
       50
176
     1
290
     0
176
     1
 90
       50
176
     1
 62
   256
176
     0
 40
1.0
176
     0
 90
        2
176
     1
  1
strokes_ogs.tif
176
     1
290
     0
176
     1
 40
1.0
176
     1
 40
1.0
176
     1
  0
VISUALSTYLE
  5
41
102
{ACAD_REACTORS
330
29
102
}
330
29
100
AcDbVisualStyle
  2
EdgeColorOff
 70
    22
177
     3
291
     1
 70
    58
 90
        2
176
     0
 90
        2
176
     0
 90
        0
176
     0
 90
        0
176
     0
 40
0.6
176
     0
 40
30.0
176
     0
 62
     7
420
 16777215
176
     0
 90
        1
176
     0
 90
        4
176
     0
 62
     7
176
     0
 62
   257
176
     0
 90
        1
176
     0
 90
        1
176
     0
 40
1.0
176
     0
 90
        8
176
     2
 62
     7
176
     0
 40
1.0
176
     0
 90
        1
176
     0
 90
        6
176
     0
 90
        2
176
     0
 62
     7
176
     0
 90
        5
176
     0
 90
        0
176
     0
 90
        0
176
     0
290
     0
176
     0
 90
        1
176
     0
 40
0.0
176
     0
 90
        0
176
     0
290
     0
176
     0
290
     1
176
     0
290
     1
176
     0
290
     0
176
     0
290
     0
176
     0
290
     0
176
     0
290
     0
176
     0
290
     0
176
     0
290
     0
176
     0
 90
       50
176
     0
 40
0.0
176
     0
 40
1.0
176
     0
 90
        0
176
     0
 62
    18
420
        0
176
     0
 90
       50
176
     0
 90
        3
176
     0
 62
     5
420
      255
176
     0
290
     0
176
     0
 90
       50
176
     0
 90
       50
176
     0
 90
       50
176
     0
290
     0
176
     0
 90
       50
176
     0
 62
   256
176
     0
 40
1.0
176
     0
 90
        2
176
     0
  1
strokes_ogs.tif
176
     0
290
     0
176
     0
 40
1.0
176
     0
 40
1.0
176
     0
  0
VISUALSTYLE
  5
38
102
{ACAD_REACTORS
330
29
102
}
330
29
100
AcDbVisualStyle
  2
Facepattern
 70
    15
177
     3
291
     1
 70
    58
 90
        2
176
     1
 90
        2
176
     1
 90
        0
176
     1
 90
        0
176
     1
 40
0.6
176
     1
 40
30.0
176
     1
 62
     7
420
 16777215
176
     1
 90
        1
176
     1
 90
        4
176
     1
 62
     7
176
     1
 62
   257
176
     1
 90
        1
176
     1
 90
        1
176
     1
 40
1.0
176
     1
 90
        8
176
     1
 62
     7
176
     1
 40
1.0
176
     1
 90
        1
176
     1
 90
        6
176
     1
 90
        2
176
     1
 62
     7
176
     1
 90
        5
176
     1
 90
        0
176
     1
 90
        0
176
     1
290
     0
176
     1
 90
        1
176
     1
 40
0.0
176
     1
 90
        0
176
     1
290
     0
176
     1
290
     1
176
     1
290
     1
176
     1
290
     0
176
     1
290
     0
176
     1
290
     0
176
     1
290
     0
176
     1
290
     0
176
     1
290
     0
176
     1
 90
       50
176
     1
 40
0.0
176
     1
 40
1.0
176
     1
 90
        0
176
     1
 62
    18
420
        0
176
     1
 90
       50
176
     1
 90
        3
176
     1
 62
     5
420
      255
176
     1
290
     0
176
     1
 90
       50
176
     1
 90
       50
176
     1
 90
       50
176
     1
290
     0
176
     1
 90
       50
176
     1
 62
   256
176
     0
 40
1.0
176
     0
 90
        2
176
     1
  1
strokes_ogs.tif
176
     1
290
     0
176
     1
 40
1.0
176
     1
 40
1.0
176
     1
  0
VISUALSTYLE
  5
2A
102
{ACAD_REACTORS
330
29
102
}
330
29
100
AcDbVisualStyle
  2
Flat
 70
     0
177
     3
291
     1
 70
    58
 90
        2
176
     1
 90
        1
176
     1
 90
        1
176
     1
 90
        2
176
     1
 40
0.6
176
     1
 40
30.0
176
     1
 62
     7
420
 16777215
176
     1
 90
        0
176
     1
 90
        0
176
     1
 62
     7
176
     1
 62
   257
176
     1
 90
        1
176
     1
 90
        1
176
     1
 40
1.0
176
     1
 90
        8
176
     1
 62
     7
176
     1
 40
1.0
176
     1
 90
        1
176
     1
 90
        6
176
     1
 90
        2
176
     1
 62
     7
176
     1
 90
        5
176
     1
 90
        0
176
     1
 90
        0
176
     1
290
     0
176
     1
 90
       13
176
     1
 40
0.0
176
     1
 90
        0
176
     1
290
     0
176
     1
290
     1
176
     1
290
     1
176
     1
290
     0
176
     1
290
     0
176
     1
290
     0
176
     1
290
     0
176
     1
290
     0
176
     1
290
     0
176
     1
 90
       50
176
     1
 40
0.0
176
     1
 40
1.0
176
     1
 90
        0
176
     1
 62
    18
420
        0
176
     1
 90
       50
176
     1
 90
        3
176
     1
 62
     5
420
      255
176
     1
290
     0
176
     1
 90
       50
176
     1
 90
       50
176
     1
 90
       50
176
     1
290
     0
176
     1
 90
       50
176
     1
 62
   256
176
     0
 40
1.0
176
     0
 90
        2
176
     1
  1
strokes_ogs.tif
176
     1
290
     0
176
     1
 40
1.0
176
     1
 40
1.0
176
     1
  0
VISUALSTYLE
  5
2B
102
{ACAD_REACTORS
330
29
102
}
330
29
100
AcDbVisualStyle
  2
FlatWithEdges
 70
     1
177
     3
291
     1
 70
    58
 90
        2
176
     1
 90
        1
176
     1
 90
        1
176
     1
 90
        2
176
     1
 40
0.6
176
     1
 40
30.0
176
     1
 62
     7
420
 16777215
176
     1
 90
        1
176
     1
 90
        0
176
     1
 62
     7
176
     1
 62
   257
176
     1
 90
        1
176
     1
 90
        1
176
     1
 40
1.0
176
     1
 90
        0
176
     1
 62
   257
176
     1
 40
1.0
176
     1
 90
        1
176
     1
 90
        6
176
     1
 90
        2
176
     1
 62
     7
176
     1
 90
        5
176
     1
 90
        0
176
     1
 90
        0
176
     1
290
     0
176
     1
 90
       13
176
     1
 40
0.0
176
     1
 90
        0
176
     1
290
     0
176
     1
290
     1
176
     1
290
     1
176
     1
290
     0
176
     1
290
     0
176
     1
290
     0
176
     1
290
     0
176
     1
290
     0
176
     1
290
     0
176
     1
 90
       50
176
     1
 40
0.0
176
     1
 40
1.0
176
     1
 90
        0
176
     1
 62
    18
420
        0
176
     1
 90
       50
176
     1
 90
        3
176
     1
 62
     5
420
      255
176
     1
290
     0
176
     1
 90
       50
176
     1
 90
       50
176
     1
 90
       50
176
     1
290
     0
176
     1
 90
       50
176
     1
 62
   256
176
     0
 40
1.0
176
     0
 90
        2
176
     1
  1
strokes_ogs.tif
176
     1
290
     0
176
     1
 40
1.0
176
     1
 40
1.0
176
     1
  0
VISUALSTYLE
  5
2C
102
{ACAD_REACTORS
330
29
102
}
330
29
100
AcDbVisualStyle
  2
Gouraud
 70
     2
177
     3
291
     1
 70
    58
 90
        2
176
     1
 90
        2
176
     1
 90
        1
176
     1
 90
        2
176
     1
 40
0.6
176
     1
 40
30.0
176
     1
 62
     7
420
 16777215
176
     1
 90
        0
176
     1
 90
        0
176
     1
 62
     7
176
     1
 62
   257
176
     1
 90
        1
176
     1
 90
        1
176
     1
 40
1.0
176
     1
 90
        0
176
     1
 62
     7
176
     1
 40
1.0
176
     1
 90
        1
176
     1
 90
        6
176
     1
 90
        2
176
     1
 62
     7
176
     1
 90
        5
176
     1
 90
        0
176
     1
 90
        0
176
     1
290
     0
176
     1
 90
       13
176
     1
 40
0.0
176
     1
 90
        0
176
     1
290
     0
176
     1
290
     1
176
     1
290
     1
176
     1
290
     0
176
     1
290
     0
176
     1
290
     0
176
     1
290
     0
176
     1
290
     0
176
     1
290
     0
176
     1
 90
       50
176
     1
 40
0.0
176
     1
 40
1.0
176
     1
 90
        0
176
     1
 62
    18
420
        0
176
     1
 90
       50
176
     1
 90
        3
176
     1
 62
     5
420
      255
176
     1
290
     0
176
     1
 90
       50
176
     1
 90
       50
176
     1
 90
       50
176
     1
290
     0
176
     1
 90
       50
176
     1
 62
   256
176
     0
 40
1.0
176
     0
 90
        2
176
     1
  1
strokes_ogs.tif
176
     1
290
     0
176
     1
 40
1.0
176
     1
 40
1.0
176
     1
  0
VISUALSTYLE
  5
2D
102
{ACAD_REACTORS
330
29
102
}
330
29
100
AcDbVisualStyle
  2
GouraudWithEdges
 70
     3
177
     3
291
     1
 70
    58
 90
        2
176
     1
 90
        2
176
     1
 90
        1
176
     1
 90
        2
176
     1
 40
0.6
176
     1
 40
30.0
176
     1
 62
     7
420
 16777215
176
     1
 90
        1
176
     1
 90
        0
176
     1
 62
     7
176
     1
 62
   257
176
     1
 90
        1
176
     1
 90
        1
176
     1
 40
1.0
176
     1
 90
        0
176
     1
 62
   257
176
     1
 40
1.0
176
     1
 90
        1
176
     1
 90
        6
176
     1
 90
        2
176
     1
 62
     7
176
     1
 90
        5
176
     1
 90
        0
176
     1
 90
        0
176
     1
290
     0
176
     1
 90
       13
176
     1
 40
0.0
176
     1
 90
        0
176
     1
290
     0
176
     1
290
     1
176
     1
290
     1
176
     1
290
     0
176
     1
290
     0
176
     1
290
     0
176
     1
290
     0
176
     1
290
     0
176
     1
290
     0
176
     1
 90
       50
176
     1
 40
0.0
176
     1
 40
1.0
176
     1
 90
        0
176
     1
 62
    18
420
        0
176
     1
 90
       50
176
     1
 90
        3
176
     1
 62
     5
420
      255
176
     1
290
     0
176
     1
 90
       50
176
     1
 90
       50
176
     1
 90
       50
176
     1
290
     0
176
     1
 90
       50
176
     1
 62
   256
176
     0
 40
1.0
176
     0
 90
        2
176
     1
  1
strokes_ogs.tif
176
     1
290
     0
176
     1
 40
1.0
176
     1
 40
1.0
176
     1
  0
VISUALSTYLE
  5
31
102
{ACAD_REACTORS
330
29
102
}
330
29
100
AcDbVisualStyle
  2
Hidden
 70
     6
177
     3
291
     0
 70
    58
 90
        1
176
     1
 90
        2
176
     1
 90
        2
176
     1
 90
        0
176
     1
 40
0.6
176
     1
 40
30.0
176
     1
 62
     7
420
 16777215
176
     1
 90
        2
176
     1
 90
        2
176
     1
 62
     7
176
     1
 62
   257
176
     1
 90
        2
176
     1
 90
        1
176
     1
 40
40.0
176
     1
 90
        0
176
     1
 62
   257
176
     1
 40
1.0
176
     1
 90
        1
176
     1
 90
        6
176
     1
 90
        2
176
     1
 62
     7
176
     1
 90
        3
176
     1
 90
        0
176
     1
 90
        0
176
     1
290
     0
176
     1
 90
        1
176
     1
 40
0.0
176
     1
 90
        0
176
     1
290
     0
176
     1
290
     1
176
     1
290
     1
176
     1
290
     0
176
     1
290
     0
176
     1
290
     0
176
     1
290
     0
176
     1
290
     0
176
     1
290
     0
176
     1
 90
       50
176
     1
 40
0.0
176
     1
 40
1.0
176
     1
 90
        0
176
     1
 62
    18
420
        0
176
     1
 90
       50
176
     1
 90
        3
176
     1
 62
     5
420
      255
176
     1
290
     0
176
     1
 90
       50
176
     1
 90
       50
176
     1
 90
       50
176
     1
290
     0
176
     1
 90
       50
176
     1
 62
   256
176
     0
 40
1.0
176
     0
 90
        2
176
     1
  1
strokes_ogs.tif
176
     1
290
     0
176
     1
 40
1.0
176
     1
 40
1.0
176
     1
  0
VISUALSTYLE
  5
3F
102
{ACAD_REACTORS
330
29
102
}
330
29
100
AcDbVisualStyle
  2
JitterOff
 70
    20
177
     3
291
     1
 70
    58
 90
        2
176
     0
 90
        2
176
     0
 90
        0
176
     0
 90
        0
176
     0
 40
0.6
176
     0
 40
30.0
176
     0
 62
     7
420
 16777215
176
     0
 90
        1
176
     0
 90
        4
176
     0
 62
     7
176
     0
 62
   257
176
     0
 90
        1
176
     0
 90
        1
176
     0
 40
1.0
176
     0
 90
       10
176
     2
 62
     7
176
     0
 40
1.0
176
     0
 90
        1
176
     0
 90
        6
176
     0
 90
        2
176
     0
 62
     7
176
     0
 90
        5
176
     0
 90
        0
176
     0
 90
        0
176
     0
290
     0
176
     0
 90
        1
176
     0
 40
0.0
176
     0
 90
        0
176
     0
290
     0
176
     0
290
     1
176
     0
290
     1
176
     0
290
     0
176
     0
290
     0
176
     0
290
     0
176
     0
290
     0
176
     0
290
     0
176
     0
290
     0
176
     0
 90
       50
176
     0
 40
0.0
176
     0
 40
1.0
176
     0
 90
        0
176
     0
 62
    18
420
        0
176
     0
 90
       50
176
     0
 90
        3
176
     0
 62
     5
420
      255
176
     0
290
     0
176
     0
 90
       50
176
     0
 90
       50
176
     0
 90
       50
176
     0
290
     0
176
     0
 90
       50
176
     0
 62
   256
176
     0
 40
1.0
176
     0
 90
        2
176
     0
  1
strokes_ogs.tif
176
     0
290
     0
176
     0
 40
1.0
176
     0
 40
1.0
176
     0
  0
VISUALSTYLE
  5
37
102
{ACAD_REACTORS
330
29
102
}
330
29
100
AcDbVisualStyle
  2
Linepattern
 70
    14
177
     3
291
     1
 70
    58
 90
        2
176
     1
 90
        2
176
     1
 90
        0
176
     1
 90
        0
176
     1
 40
0.6
176
     1
 40
30.0
176
     1
 62
     7
420
 16777215
176
     1
 90
        1
176
     1
 90
        4
176
     1
 62
     7
176
     1
 62
   257
176
     1
 90
        7
176
     1
 90
        7
176
     1
 40
1.0
176
     1
 90
        8
176
     1
 62
     7
176
     1
 40
1.0
176
     1
 90
        1
176
     1
 90
        6
176
     1
 90
        2
176
     1
 62
     7
176
     1
 90
        5
176
     1
 90
        0
176
     1
 90
        0
176
     1
290
     0
176
     1
 90
        1
176
     1
 40
0.0
176
     1
 90
        0
176
     1
290
     0
176
     1
290
     1
176
     1
290
     1
176
     1
290
     0
176
     1
290
     0
176
     1
290
     0
176
     1
290
     0
176
     1
290
     0
176
     1
290
     0
176
     1
 90
       50
176
     1
 40
0.0
176
     1
 40
1.0
176
     1
 90
        0
176
     1
 62
    18
420
        0
176
     1
 90
       50
176
     1
 90
        3
176
     1
 62
     5
420
      255
176
     1
290
     0
176
     1
 90
       50
176
     1
 90
       50
176
     1
 90
       50
176
     1
290
     0
176
     1
 90
       50
176
     1
 62
   256
176
     0
 40
1.0
176
     0
 90
        2
176
     1
  1
strokes_ogs.tif
176
     1
290
     0
176
     1
 40
1.0
176
     1
 40
1.0
176
     1
  0
VISUALSTYLE
  5
40
102
{ACAD_REACTORS
330
29
102
}
330
29
100
AcDbVisualStyle
  2
OverhangOff
 70
    21
177
     3
291
     1
 70
    58
 90
        2
176
     0
 90
        2
176
     0
 90
        0
176
     0
 90
        0
176
     0
 40
0.6
176
     0
 40
30.0
176
     0
 62
     7
420
 16777215
176
     0
 90
        1
176
     0
 90
        4
176
     0
 62
     7
176
     0
 62
   257
176
     0
 90
        1
176
     0
 90
        1
176
     0
 40
1.0
176
     0
 90
        9
176
     2
 62
     7
176
     0
 40
1.0
176
     0
 90
        1
176
     0
 90
        6
176
     0
 90
        2
176
     0
 62
     7
176
     0
 90
        5
176
     0
 90
        0
176
     0
 90
        0
176
     0
290
     0
176
     0
 90
        1
176
     0
 40
0.0
176
     0
 90
        0
176
     0
290
     0
176
     0
290
     1
176
     0
290
     1
176
     0
290
     0
176
     0
290
     0
176
     0
290
     0
176
     0
290
     0
176
     0
290
     0
176
     0
290
     0
176
     0
 90
       50
176
     0
 40
0.0
176
     0
 40
1.0
176
     0
 90
        0
176
     0
 62
    18
420
        0
176
     0
 90
       50
176
     0
 90
        3
176
     0
 62
     5
420
      255
176
     0
290
     0
176
     0
 90
       50
176
     0
 90
       50
176
     0
 90
       50
176
     0
290
     0
176
     0
 90
       50
176
     0
 62
   256
176
     0
 40
1.0
176
     0
 90
        2
176
     0
  1
strokes_ogs.tif
176
     0
290
     0
176
     0
 40
1.0
176
     0
 40
1.0
176
     0
  0
VISUALSTYLE
  5
33
102
{ACAD_REACTORS
330
29
102
}
330
29
100
AcDbVisualStyle
  2
Realistic
 70
     8
177
     3
291
     0
 70
    58
 90
        2
176
     1
 90
        3
176
     1
 90
        0
176
     1
 90
        2
176
     1
 40
0.6
176
     1
 40
30.0
176
     1
 62
     7
420
 16777215
176
     1
 90
        0
176
     1
 90
        0
176
     1
 62
     7
176
     1
 62
   257
176
     1
 90
        1
176
     1
 90
        1
176
     1
 40
1.0
176
     1
 90
        8
176
     1
 62
   257
176
     1
 40
1.0
176
     1
 90
        1
176
     1
 90
        6
176
     1
 90
        2
176
     1
 62
     7
176
     1
 90
        3
176
     1
 90
        0
176
     1
 90
        0
176
     1
290
     0
176
     1
 90
       13
176
     1
 40
0.0
176
     1
 90
        0
176
     1
290
     0
176
     1
290
     1
176
     1
290
     1
176
     1
290
     0
176
     1
290
     0
176
     1
290
     0
176
     1
290
     0
176
     1
290
     0
176
     1
290
     0
176
     1
 90
       50
176
     1
 40
0.0
176
     1
 40
1.0
176
     1
 90
        0
176
     1
 62
    18
420
        0
176
     1
 90
       50
176
     1
 90
        3
176
     1
 62
     5
420
      255
176
     1
290
     0
176
     1
 90
       50
176
     1
 90
       50
176
     1
 90
       50
176
     1
290
     0
176
     1
 90
       50
176
     1
 62
   256
176
     0
 40
1.0
176
     0
 90
        2
176
     1
  1
strokes_ogs.tif
176
     1
290
     0
176
     1
 40
1.0
176
     1
 40
1.0
176
     1
  0
VISUALSTYLE
  5
3E
102
{ACAD_REACTORS
330
29
102
}
330
29
100
AcDbVisualStyle
  2
Shaded
 70
    27
177
     3
291
     0
 70
    58
 90
        2
176
     1
 90
        2
176
     1
 90
        1
176
     1
 90
        2
176
     1
 40
0.6
176
     1
 40
30.0
176
     1
 62
     7
420
 16777215
176
     1
 90
        0
176
     1
 90
        4
176
     1
 62
     7
176
     1
 62
   257
176
     1
 90
        1
176
     1
 90
        1
176
     1
 40
1.0
176
     1
 90
        8
176
     1
 62
   257
176
     1
 40
1.0
176
     1
 90
        1
176
     1
 90
        6
176
     1
 90
        2
176
     1
 62
     8
420
  7895160
176
     1
 90
        3
176
     1
 90
        0
176
     1
 90
        0
176
     1
290
     0
176
     1
 90
        5
176
     1
 40
0.0
176
     1
 90
        0
176
     1
290
     0
176
     1
290
     1
176
     1
290
     1
176
     1
290
     0
176
     1
290
     0
176
     1
290
     0
176
     1
290
     0
176
     1
290
     0
176
     1
290
     0
176
     1
 90
       50
176
     1
 40
0.0
176
     1
 40
1.0
176
     1
 90
        0
176
     1
 62
    18
420
        0
176
     1
 90
       50
176
     1
 90
        3
176
     1
 62
     5
420
      255
176
     1
290
     0
176
     1
 90
       50
176
     1
 90
       50
176
     1
 90
       50
176
     1
290
     0
176
     1
 90
       50
176
     1
 62
   256
176
     0
 40
1.0
176
     0
 90
        2
176
     1
  1
strokes_ogs.tif
176
     1
290
     0
176
     1
 40
1.0
176
     1
 40
1.0
176
     1
  0
VISUALSTYLE
  5
3D
102
{ACAD_REACTORS
330
29
102
}
330
29
100
AcDbVisualStyle
  2
Shaded with edges
 70
    26
177
     3
291
     0
 70
    58
 90
        2
176
     1
 90
        2
176
     1
 90
        1
176
     1
 90
        2
176
     1
 40
0.6
176
     1
 40
30.0
176
     1
 62
     7
420
 16777215
176
     1
 90
        1
176
     1
 90
       10
176
     1
 62
     7
176
     1
 62
   257
176
     1
 90
        2
176
     1
 90
        1
176
     1
 40
1.0
176
     1
 90
        8
176
     1
 62
   257
176
     1
 40
1.0
176
     1
 90
        1
176
     1
 90
        6
176
     1
 90
        2
176
     1
 62
     7
176
     1
 90
        3
176
     1
 90
        0
176
     1
 90
        0
176
     1
290
     0
176
     1
 90
        5
176
     1
 40
0.0
176
     1
 90
        0
176
     1
290
     0
176
     1
290
     1
176
     1
290
     1
176
     1
290
     0
176
     1
290
     0
176
     1
290
     0
176
     1
290
     0
176
     1
290
     0
176
     1
290
     0
176
     1
 90
       50
176
     1
 40
0.0
176
     1
 40
1.0
176
     1
 90
        0
176
     1
 62
    18
420
        0
176
     1
 90
       50
176
     1
 90
        3
176
     1
 62
     5
420
      255
176
     1
290
     0
176
     1
 90
       50
176
     1
 90
       50
176
     1
 90
       50
176
     1
290
     0
176
     1
 90
       50
176
     1
 62
   256
176
     0
 40
1.0
176
     0
 90
        2
176
     1
  1
strokes_ogs.tif
176
     1
290
     0
176
     1
 40
1.0
176
     1
 40
1.0
176
     1
  0
VISUALSTYLE
  5
3A
102
{ACAD_REACTORS
330
29
102
}
330
29
100
AcDbVisualStyle
  2
Shades of Gray
 70
    23
177
     3
291
     0
 70
    58
 90
        2
176
     1
 90
        2
176
     1
 90
        3
176
     1
 90
        0
176
     1
 40
0.6
176
     1
 40
30.0
176
     1
 62
     7
420
 16777215
176
     1
 90
        2
176
     1
 90
        2
176
     1
 62
     7
176
     1
 62
     7
176
     1
 90
        1
176
     1
 90
        1
176
     1
 40
40.0
176
     1
 90
        8
176
     1
 62
     7
176
     1
 40
1.0
176
     1
 90
        1
176
     1
 90
        6
176
     1
 90
        2
176
     1
 62
     7
176
     1
 90
        3
176
     1
 90
        0
176
     1
 90
        0
176
     1
290
     0
176
     1
 90
        1
176
     1
 40
0.0
176
     1
 90
        0
176
     1
290
     0
176
     1
290
     1
176
     1
290
     1
176
     1
290
     0
176
     1
290
     0
176
     1
290
     0
176
     1
290
     0
176
     1
290
     0
176
     1
290
     0
176
     1
 90
       50
176
     1
 40
0.0
176
     1
 40
1.0
176
     1
 90
        0
176
     1
 62
    18
420
        0
176
     1
 90
       50
176
     1
 90
        3
176
     1
 62
     5
420
      255
176
     1
290
     0
176
     1
 90
       50
176
     1
 90
       50
176
     1
 90
       50
176
     1
290
     0
176
     1
 90
       50
176
     1
 62
   256
176
     0
 40
1.0
176
     0
 90
        2
176
     1
  1
strokes_ogs.tif
176
     1
290
     0
176
     1
 40
1.0
176
     1
 40
1.0
176
     1
  0
VISUALSTYLE
  5
3B
102
{ACAD_REACTORS
330
29
102
}
330
29
100
AcDbVisualStyle
  2
Sketchy
 70
    24
177
     3
291
     0
 70
    58
 90
        1
176
     1
 90
        2
176
     1
 90
        2
176
     1
 90
        0
176
     1
 40
0.6
176
     1
 40
30.0
176
     1
 62
     7
420
 16777215
176
     1
 90
        2
176
     1
 90
        2
176
     1
 62
     7
176
     1
 62
     7
176
     1
 90
        1
176
     1
 90
        1
176
     1
 40
40.0
176
     1
 90
       11
176
     1
 62
     7
176
     1
 40
1.0
176
     1
 90
        1
176
     1
 90
        6
176
     1
 90
        2
176
     1
 62
     7
176
     1
 90
        6
176
     1
 90
        0
176
     1
 90
        0
176
     1
290
     0
176
     1
 90
        1
176
     1
 40
0.0
176
     1
 90
        0
176
     1
290
     0
176
     1
290
     1
176
     1
290
     1
176
     1
290
     0
176
     1
290
     0
176
     1
290
     0
176
     1
290
     0
176
     1
290
     0
176
     1
290
     0
176
     1
 90
       50
176
     1
 40
0.0
176
     1
 40
1.0
176
     1
 90
        0
176
     1
 62
    18
420
        0
176
     1
 90
       50
176
     1
 90
        3
176
     1
 62
     5
420
      255
176
     1
290
     0
176
     1
 90
       50
176
     1
 90
       50
176
     1
 90
       50
176
     1
290
     0
176
     1
 90
       50
176
     1
 62
   256
176
     0
 40
1.0
176
     0
 90
        2
176
     1
  1
strokes_ogs.tif
176
     1
290
     0
176
     1
 40
1.0
176
     1
 40
1.0
176
     1
  0
VISUALSTYLE
  5
36
102
{ACAD_REACTORS
330
29
102
}
330
29
100
AcDbVisualStyle
  2
Thicken
 70
    13
177
     3
291
     1
 70
    58
 90
        2
176
     1
 90
        2
176
     1
 90
        0
176
     1
 90
        0
176
     1
 40
0.6
176
     1
 40
30.0
176
     1
 62
     7
420
 16777215
176
     1
 90
        1
176
     1
 90
        4
176
     1
 62
     7
176
     1
 62
   257
176
     1
 90
        1
176
     1
 90
        1
176
     1
 40
1.0
176
     1
 90
       12
176
     1
 62
     7
176
     1
 40
1.0
176
     1
 90
        1
176
     1
 90
        6
176
     1
 90
        2
176
     1
 62
     7
176
     1
 90
        5
176
     1
 90
        0
176
     1
 90
        0
176
     1
290
     0
176
     1
 90
        1
176
     1
 40
0.0
176
     1
 90
        0
176
     1
290
     0
176
     1
290
     1
176
     1
290
     1
176
     1
290
     0
176
     1
290
     0
176
     1
290
     0
176
     1
290
     0
176
     1
290
     0
176
     1
290
     0
176
     1
 90
       50
176
     1
 40
0.0
176
     1
 40
1.0
176
     1
 90
        0
176
     1
 62
    18
420
        0
176
     1
 90
       50
176
     1
 90
        3
176
     1
 62
     5
420
      255
176
     1
290
     0
176
     1
 90
       50
176
     1
 90
       50
176
     1
 90
       50
176
     1
290
     0
176
     1
 90
       50
176
     1
 62
   256
176
     0
 40
1.0
176
     0
 90
        2
176
     1
  1
strokes_ogs.tif
176
     1
290
     0
176
     1
 40
1.0
176
     1
 40
1.0
176
     1
  0
VISUALSTYLE
  5
30
102
{ACAD_REACTORS
330
29
102
}
330
29
100
AcDbVisualStyle
  2
Wireframe
 70
     5
177
     3
291
     0
 70
    58
 90
        0
176
     1
 90
        2
176
     1
 90
        0
176
     1
 90
        0
176
     1
 40
0.6
176
     1
 40
30.0
176
     1
 62
     7
420
 16777215
176
     1
 90
        1
176
     1
 90
        4
176
     1
 62
     7
176
     1
 62
   257
176
     1
 90
        1
176
     1
 90
        1
176
     1
 40
1.0
176
     1
 90
        0
176
     1
 62
   257
176
     1
 40
1.0
176
     1
 90
        1
176
     1
 90
        6
176
     1
 90
        2
176
     1
 62
     7
176
     1
 90
        3
176
     1
 90
        0
176
     1
 90
        0
176
     1
290
     0
176
     1
 90
        1
176
     1
 40
0.0
176
     1
 90
        0
176
     1
290
     0
176
     1
290
     1
176
     1
290
     1
176
     1
290
     0
176
     1
290
     0
176
     1
290
     0
176
     1
290
     0
176
     1
290
     0
176
     1
290
     0
176
     1
 90
       50
176
     1
 40
0.0
176
     1
 40
1.0
176
     1
 90
        0
176
     1
 62
    18
420
        0
176
     1
 90
       50
176
     1
 90
        3
176
     1
 62
     5
420
      255
176
     1
290
     0
176
     1
 90
       50
176
     1
 90
       50
176
     1
 90
       50
176
     1
290
     0
176
     1
 90
       50
176
     1
 62
   256
176
     0
 40
1.0
176
     0
 90
        2
176
     1
  1
strokes_ogs.tif
176
     1
290
     0
176
     1
 40
1.0
176
     1
 40
1.0
176
     1
  0
VISUALSTYLE
  5
3C
102
{ACAD_REACTORS
330
29
102
}
330
29
100
AcDbVisualStyle
  2
X-Ray
 70
    25
177
     3
291
     0
 70
    58
 90
        2
176
     1
 90
        2
176
     1
 90
        1
176
     1
 90
        1
176
     1
 40
0.5
176
     1
 40
30.0
176
     1
 62
     7
420
 16777215
176
     1
 90
        1
176
     1
 90
        0
176
     1
 62
     7
176
     1
 62
   257
176
     1
 90
        1
176
     1
 90
        1
176
     1
 40
1.0
176
     1
 90
        8
176
     1
 62
     7
176
     1
 40
1.0
176
     1
 90
        1
176
     1
 90
        6
176
     1
 90
        2
176
     1
 62
     7
176
     1
 90
        3
176
     1
 90
        0
176
     1
 90
        0
176
     1
290
     0
176
     1
 90
       13
176
     1
 40
0.0
176
     1
 90
        0
176
     1
290
     0
176
     1
290
     1
176
     1
290
     1
176
     1
290
     0
176
     1
290
     0
176
     1
290
     0
176
     1
290
     0
176
     1
290
     0
176
     1
290
     0
176
     1
 90
       50
176
     1
 40
0.0
176
     1
 40
1.0
176
     1
 90
        0
176
     1
 62
    18
420
        0
176
     1
 90
       50
176
     1
 90
        3
176
     1
 62
     5
420
      255
176
     1
290
     0
176
     1
 90
       50
176
     1
 90
       50
176
     1
 90
       50
176
     1
290
     0
176
     1
 90
       50
176
     1
 62
   256
176
     0
 40
1.0
176
     0
 90
        2
176
     1
  1
strokes_ogs.tif
176
     1
290
     0
176
     1
 40
1.0
176
     1
 40
1.0
176
     1
  0
DICTIONARYVAR
  5
D9
102
{ACAD_REACTORS
330
D4
102
}
330
D4
100
DictionaryVariables
280
     0
  1
1:1
  0
DICTIONARYVAR
  5
D6
102
{ACAD_REACTORS
330
D4
102
}
330
D4
100
DictionaryVariables
280
     0
  1
STANDARD
  0
DICTIONARYVAR
  5
D5
102
{ACAD_REACTORS
330
D4
102
}
330
D4
100
DictionaryVariables
280
     0
  1
STANDARD
  0
DICTIONARYVAR
  5
D7
102
{ACAD_REACTORS
330
D4
102
}
330
D4
100
DictionaryVariables
280
     0
  1
Imperial24
  0
DICTIONARYVAR
  5
D8
102
{ACAD_REACTORS
330
D4
102
}
330
D4
100
DictionaryVariables
280
     0
  1
Imperial24
  0
XRECORD
  5
CC
102
{ACAD_REACTORS
330
CA
102
}
330
CA
100
AcDbXrecord
280
     1
  1
BUILDING_ID
  1
Shower-Bath-American_Standard-Studio-S-TU10550X_Series
  1
FLOOR_ID
  1
1900
  0
XRECORD
  5
CB
102
{ACAD_REACTORS
330
CA
102
}
330
CA
100
AcDbXrecord
280
     1
  1
-2001160
  1
Plumbing Fixtures
  0
DICTIONARY
  5
D1
330
6B
100
AcDbDictionary
280
     1
281
     1
  3
ACAD_XREC_ROUNDTRIP
360
4A3
  0
DICTIONARY
  5
1A
330
19
100
AcDbDictionary
280
     1
281
     1
  3
BUMPTILE
360
1C
  3
DIFFUSETILE
360
1B
  3
OPACITYTILE
360
1F
  3
REFLECTIONTILE
360
1E
  3
REFRACTIONTILE
360
20
  3
SPECULARTILE
360
1D
  0
DICTIONARY
  5
12
330
11
100
AcDbDictionary
280
     1
281
     1
  3
BUMPTILE
360
14
  3
DIFFUSETILE
360
13
  3
OPACITYTILE
360
17
  3
REFLECTIONTILE
360
16
  3
REFRACTIONTILE
360
18
  3
SPECULARTILE
360
15
  0
DICTIONARY
  5
22
330
21
100
AcDbDictionary
280
     1
281
     1
  3
BUMPTILE
360
24
  3
DIFFUSETILE
360
23
  3
OPACITYTILE
360
27
  3
REFLECTIONTILE
360
26
  3
REFRACTIONTILE
360
28
  3
SPECULARTILE
360
25
  0
DICTIONARY
  5
CF
330
69
100
AcDbDictionary
280
     1
281
     1
  3
ACAD_XREC_ROUNDTRIP
360
4A2
  0
DICTIONARY
  5
4A0
330
65
100
AcDbDictionary
280
     1
281
     1
  3
ACAD_ROUNDTRIP_2008_TABLESTYLE_CELLSTYLEMAP
360
4A1
  0
XRECORD
  5
4A3
102
{ACAD_REACTORS
330
D1
102
}
330
D1
100
AcDbXrecord
280
     1
102
DISPLAYNAME
  1
Imperial24
102
FLAGS
 90
        0
  0
XRECORD
  5
1C
102
{ACAD_REACTORS
330
1A
102
}
330
1A
100
AcDbXrecord
280
     1
270
     1
271
     1
  0
XRECORD
  5
1B
102
{ACAD_REACTORS
330
1A
102
}
330
1A
100
AcDbXrecord
280
     1
270
     1
271
     1
  0
XRECORD
  5
1F
102
{ACAD_REACTORS
330
1A
102
}
330
1A
100
AcDbXrecord
280
     1
270
     1
271
     1
  0
XRECORD
  5
1E
102
{ACAD_REACTORS
330
1A
102
}
330
1A
100
AcDbXrecord
280
     1
270
     1
271
     1
  0
XRECORD
  5
20
102
{ACAD_REACTORS
330
1A
102
}
330
1A
100
AcDbXrecord
280
     1
270
     1
271
     1
  0
XRECORD
  5
1D
102
{ACAD_REACTORS
330
1A
102
}
330
1A
100
AcDbXrecord
280
     1
270
     1
271
     1
  0
XRECORD
  5
14
102
{ACAD_REACTORS
330
12
102
}
330
12
100
AcDbXrecord
280
     1
270
     1
271
     1
  0
XRECORD
  5
13
102
{ACAD_REACTORS
330
12
102
}
330
12
100
AcDbXrecord
280
     1
270
     1
271
     1
  0
XRECORD
  5
17
102
{ACAD_REACTORS
330
12
102
}
330
12
100
AcDbXrecord
280
     1
270
     1
271
     1
  0
XRECORD
  5
16
102
{ACAD_REACTORS
330
12
102
}
330
12
100
AcDbXrecord
280
     1
270
     1
271
     1
  0
XRECORD
  5
18
102
{ACAD_REACTORS
330
12
102
}
330
12
100
AcDbXrecord
280
     1
270
     1
271
     1
  0
XRECORD
  5
15
102
{ACAD_REACTORS
330
12
102
}
330
12
100
AcDbXrecord
280
     1
270
     1
271
     1
  0
XRECORD
  5
24
102
{ACAD_REACTORS
330
22
102
}
330
22
100
AcDbXrecord
280
     1
270
     1
271
     1
  0
XRECORD
  5
23
102
{ACAD_REACTORS
330
22
102
}
330
22
100
AcDbXrecord
280
     1
270
     1
271
     1
  0
XRECORD
  5
27
102
{ACAD_REACTORS
330
22
102
}
330
22
100
AcDbXrecord
280
     1
270
     1
271
     1
  0
XRECORD
  5
26
102
{ACAD_REACTORS
330
22
102
}
330
22
100
AcDbXrecord
280
     1
270
     1
271
     1
  0
XRECORD
  5
28
102
{ACAD_REACTORS
330
22
102
}
330
22
100
AcDbXrecord
280
     1
270
     1
271
     1
  0
XRECORD
  5
25
102
{ACAD_REACTORS
330
22
102
}
330
22
100
AcDbXrecord
280
     1
270
     1
271
     1
  0
XRECORD
  5
4A2
102
{ACAD_REACTORS
330
CF
102
}
330
CF
100
AcDbXrecord
280
     1
102
DISPLAYNAME
  1
Imperial24
102
FLAGS
 90
        0
  0
CELLSTYLEMAP
  5
4A1
102
{ACAD_REACTORS
330
4A0
102
}
330
4A0
100
AcDbCellStyleMap
 90
        3
300
CELLSTYLE
  1
TABLEFORMAT_BEGIN
 90
        5
170
     1
 91
        0
 92
    32768
 62
   257
 93
        1
300
CONTENTFORMAT
  1
CONTENTFORMAT_BEGIN
 90
        0
 91
        0
 92
      512
 93
        0
300

 40
0.0
140
1.0
 94
        5
 62
     0
340
55
144
0.25
309
CONTENTFORMAT_END
171
     0
 94
        0
309
TABLEFORMAT_END
  1
CELLSTYLE_BEGIN
 90
        1
 91
        1
300
_TITLE
309
CELLSTYLE_END
300
CELLSTYLE
  1
TABLEFORMAT_BEGIN
 90
        5
170
     1
 91
        0
 92
        0
 62
   257
 93
        1
300
CONTENTFORMAT
  1
CONTENTFORMAT_BEGIN
 90
        0
 91
        0
 92
      512
 93
        0
300

 40
0.0
140
1.0
 94
        5
 62
     0
340
55
144
0.18
309
CONTENTFORMAT_END
171
     0
 94
        0
309
TABLEFORMAT_END
  1
CELLSTYLE_BEGIN
 90
        2
 91
        1
300
_HEADER
309
CELLSTYLE_END
300
CELLSTYLE
  1
TABLEFORMAT_BEGIN
 90
        5
170
     1
 91
        0
 92
        0
 62
   257
 93
        1
300
CONTENTFORMAT
  1
CONTENTFORMAT_BEGIN
 90
        0
 91
        0
 92
      512
 93
        0
300

 40
0.0
140
1.0
 94
        2
 62
     0
340
55
144
0.18
309
CONTENTFORMAT_END
171
     0
 94
        0
309
TABLEFORMAT_END
  1
CELLSTYLE_BEGIN
 90
        3
 91
        2
300
_DATA
309
CELLSTYLE_END
  0
ENDSEC
  0
SECTION
  2
ACDSDATA
 70
     2
 71
     8
  0
ACDSSCHEMA
 90
        0
  1
AcDb_Thumbnail_Schema
  2
AcDbDs::ID
280
    10
 91
        8
  2
Thumbnail_Data
280
    15
 91
        0
101
ACDSRECORD
 95
        0
 90
        1
  2
AcDbDs::TreatedAsObjectData
280
     1
291
     1
101
ACDSRECORD
 95
        0
 90
        2
  2
AcDbDs::Legacy
280
     1
291
     1
101
ACDSRECORD
  1
AcDbDs::ID
 90
        3
  2
AcDs:Indexable
280
     1
291
     1
101
ACDSRECORD
  1
AcDbDs::ID
 90
        4
  2
AcDbDs::HandleAttribute
280
     7
282
     1
  0
ACDSSCHEMA
 90
        1
  1
AcDbDs::TreatedAsObjectDataSchema
  2
AcDbDs::TreatedAsObjectData
280
     1
 91
        0
  0
ACDSSCHEMA
 90
        2
  1
AcDbDs::LegacySchema
  2
AcDbDs::Legacy
280
     1
 91
        0
  0
ACDSSCHEMA
 90
        3
  1
AcDbDs::IndexedPropertySchema
  2
AcDs:Indexable
280
     1
 91
        0
  0
ACDSSCHEMA
 90
        4
  1
AcDbDs::HandleAttributeSchema
  2
AcDbDs::HandleAttribute
280
     7
 91
        1
284
     1
  0
ACDSRECORD
 90
        0
  2
AcDbDs::ID
280
    10
320
73
  2
Thumbnail_Data
280
    15
 94
     1073
310
89504E470D0A1A0A0000000D494844520000010000000084080300000048FA052E00000300504C5445212830000000C8C8C80000000000000000000000000000000000000000000000000000330000660000990000CC0000FF0033000033330033660033990033CC0033FF0066000066330066660066990066CC0066FF0099
310
000099330099660099990099CC0099FF00CC0000CC3300CC6600CC9900CCCC00CCFF00FF0000FF3300FF6600FF9900FFCC00FFFF3300003300333300663300993300CC3300FF3333003333333333663333993333CC3333FF3366003366333366663366993366CC3366FF3399003399333399663399993399CC3399FF33CC00
310
33CC3333CC6633CC9933CCCC33CCFF33FF0033FF3333FF6633FF9933FFCC33FFFF6600006600336600666600996600CC6600FF6633006633336633666633996633CC6633FF6666006666336666666666996666CC6666FF6699006699336699666699996699CC6699FF66CC0066CC3366CC6666CC9966CCCC66CCFF66FF0066
310
FF3366FF6666FF9966FFCC66FFFF9900009900339900669900999900CC9900FF9933009933339933669933999933CC9933FF9966009966339966669966999966CC9966FF9999009999339999669999999999CC9999FF99CC0099CC3399CC6699CC9999CCCC99CCFF99FF0099FF3399FF6699FF9999FFCC99FFFFCC0000CC00
310
33CC0066CC0099CC00CCCC00FFCC3300CC3333CC3366CC3399CC33CCCC33FFCC6600CC6633CC6666CC6699CC66CCCC66FFCC9900CC9933CC9966CC9999CC99CCCC99FFCCCC00CCCC33CCCC66CCCC99CCCCCCCCCCFFCCFF00CCFF33CCFF66CCFF99CCFFCCCCFFFFFF0000FF0033FF0066FF0099FF00CCFF00FFFF3300FF3333
310
FF3366FF3399FF33CCFF33FFFF6600FF6633FF6666FF6699FF66CCFF66FFFF9900FF9933FF9966FF9999FF99CCFF99FFFFCC00FFCC33FFCC66FFCC99FFCCCCFFCCFFFFFF00FFFF33FFFF66FFFF99FFFFCCFFFFFF0000000D0D0D1A1A1A2828283535354343435050505D5D5D6B6B6B787878868686939393A1A1A1AEAEAEBB
310
BBBBC9C9C9D6D6D6E4E4E4F1F1F1FFFFFF000000000000000000000000000000000000000000000000000000000000B21171F6000000EC4944415478DAEDDD410E82401045C1B9FF7D7B6F543446DDD913ECFCAA8D3BC23C1B2406C25ACC552F04481D8215BCF8E710A49F07E2CF840208208000020820800BA1D0AF3FFA5A
310
B88E43A004485E7F7081F800D775C707C83E093E561E1CA0E2AF05FD25060000000000000000000070B2F8DBBAEB4358D6DA5160D2F302F525484781D1C744768065024C40FC04D43F6CE3F4DFC433B701000000000000000000B4D87133DFA87B04FBF7F4D8E294041B02BC7DFE7D80EE04B54615B8BD18AC7DFD151EE03E
310
55D113302940F749A0A605E8DED3616F9ADA10E078E1626C8035EB91993DC3EA6999DF5C00606410D1EDBF14CB0000000049454E44AE426082
  0
ENDSEC
  0
EOF
