  0
SECTION
  2
HEADER
  9
$ACADVER
  1
AC1027
  9
$ACADMAINTVER
 70
    55
  9
$DWGCODEPAGE
  3
ANSI_1252
  9
$LASTSAVEDBY
  1
danica
  9
$REQUIREDVERSIONS
160
                 0
  9
$INSBASE
 10
0.0
 20
0.0
 30
0.0
  9
$EXTMIN
 10
-84.39534457876135
 20
-48.16143267219136
 30
0.0
  9
$EXTMAX
 10
34.35287656550467
 20
26.85629883113432
 30
0.0
  9
$LIMMIN
 10
0.0
 20
0.0
  9
$LIMMAX
 10
12.0
 20
9.0
  9
$ORTHOMODE
 70
     0
  9
$REGENMODE
 70
     1
  9
$FILLMODE
 70
     1
  9
$QTEXTMODE
 70
     0
  9
$MIRRTEXT
 70
     0
  9
$LTSCALE
 40
1.0
  9
$ATTMODE
 70
     1
  9
$TEXTSIZE
 40
0.2
  9
$TRACEWID
 40
0.05
  9
$TEXTSTYLE
  7
Standard
  9
$CLAYER
  8
0
  9
$CELTYPE
  6
ByLayer
  9
$CECOLOR
 62
   256
  9
$CELTSCALE
 40
1.0
  9
$DISPSILH
 70
     0
  9
$DIMSCALE
 40
1.0
  9
$DIMASZ
 40
0.18
  9
$DIMEXO
 40
0.0625
  9
$DIMDLI
 40
0.38
  9
$DIMRND
 40
0.0
  9
$DIMDLE
 40
0.0
  9
$DIMEXE
 40
0.18
  9
$DIMTP
 40
0.0
  9
$DIMTM
 40
0.0
  9
$DIMTXT
 40
0.18
  9
$DIMCEN
 40
0.09
  9
$DIMTSZ
 40
0.0
  9
$DIMTOL
 70
     0
  9
$DIMLIM
 70
     0
  9
$DIMTIH
 70
     1
  9
$DIMTOH
 70
     1
  9
$DIMSE1
 70
     0
  9
$DIMSE2
 70
     0
  9
$DIMTAD
 70
     0
  9
$DIMZIN
 70
     0
  9
$DIMBLK
  1

  9
$DIMASO
 70
     1
  9
$DIMSHO
 70
     1
  9
$DIMPOST
  1

  9
$DIMAPOST
  1

  9
$DIMALT
 70
     0
  9
$DIMALTD
 70
     2
  9
$DIMALTF
 40
25.4
  9
$DIMLFAC
 40
1.0
  9
$DIMTOFL
 70
     0
  9
$DIMTVP
 40
0.0
  9
$DIMTIX
 70
     0
  9
$DIMSOXD
 70
     0
  9
$DIMSAH
 70
     0
  9
$DIMBLK1
  1

  9
$DIMBLK2
  1

  9
$DIMSTYLE
  2
Standard
  9
$DIMCLRD
 70
     0
  9
$DIMCLRE
 70
     0
  9
$DIMCLRT
 70
     0
  9
$DIMTFAC
 40
1.0
  9
$DIMGAP
 40
0.09
  9
$DIMJUST
 70
     0
  9
$DIMSD1
 70
     0
  9
$DIMSD2
 70
     0
  9
$DIMTOLJ
 70
     1
  9
$DIMTZIN
 70
     0
  9
$DIMALTZ
 70
     0
  9
$DIMALTTZ
 70
     0
  9
$DIMUPT
 70
     0
  9
$DIMDEC
 70
     4
  9
$DIMTDEC
 70
     4
  9
$DIMALTU
 70
     4
  9
$DIMALTTD
 70
     2
  9
$DIMTXSTY
  7
Standard
  9
$DIMAUNIT
 70
     0
  9
$DIMADEC
 70
     0
  9
$DIMALTRND
 40
0.0
  9
$DIMAZIN
 70
     0
  9
$DIMDSEP
 70
    46
  9
$DIMATFIT
 70
     3
  9
$DIMFRAC
 70
     0
  9
$DIMLDRBLK
  1

  9
$DIMLUNIT
 70
     4
  9
$DIMLWD
 70
    -2
  9
$DIMLWE
 70
    -2
  9
$DIMTMOVE
 70
     0
  9
$DIMFXL
 40
1.0
  9
$DIMFXLON
 70
     0
  9
$DIMJOGANG
 40
0.7853981633974483
  9
$DIMTFILL
 70
     0
  9
$DIMTFILLCLR
 70
     0
  9
$DIMARCSYM
 70
     0
  9
$DIMLTYPE
  6

  9
$DIMLTEX1
  6

  9
$DIMLTEX2
  6

  9
$DIMTXTDIRECTION
 70
     0
  9
$LUNITS
 70
     4
  9
$LUPREC
 70
     4
  9
$SKETCHINC
 40
0.1
  9
$FILLETRAD
 40
0.0
  9
$AUNITS
 70
     0
  9
$AUPREC
 70
     2
  9
$MENU
  1
.
  9
$ELEVATION
 40
0.0
  9
$PELEVATION
 40
0.0
  9
$THICKNESS
 40
0.0
  9
$LIMCHECK
 70
     0
  9
$CHAMFERA
 40
0.0
  9
$CHAMFERB
 40
0.0
  9
$CHAMFERC
 40
0.0
  9
$CHAMFERD
 40
0.0
  9
$SKPOLY
 70
     0
  9
$TDCREATE
 40
2458267.516007882
  9
$TDUCREATE
 40
2458267.682674549
  9
$TDUPDATE
 40
2458267.531978808
  9
$TDUUPDATE
 40
2458267.698645475
  9
$TDINDWG
 40
0.0112684838
  9
$TDUSRTIMER
 40
0.0112684838
  9
$USRTIMER
 70
     1
  9
$ANGBASE
 50
0.0
  9
$ANGDIR
 70
     0
  9
$PDMODE
 70
     0
  9
$PDSIZE
 40
0.0
  9
$PLINEWID
 40
0.0
  9
$SPLFRAME
 70
     0
  9
$SPLINETYPE
 70
     6
  9
$SPLINESEGS
 70
     8
  9
$HANDSEED
  5
473
  9
$SURFTAB1
 70
     6
  9
$SURFTAB2
 70
     6
  9
$SURFTYPE
 70
     6
  9
$SURFU
 70
     6
  9
$SURFV
 70
     6
  9
$UCSBASE
  2

  9
$UCSNAME
  2

  9
$UCSORG
 10
0.0
 20
0.0
 30
0.0
  9
$UCSXDIR
 10
1.0
 20
0.0
 30
0.0
  9
$UCSYDIR
 10
0.0
 20
1.0
 30
0.0
  9
$UCSORTHOREF
  2

  9
$UCSORTHOVIEW
 70
     0
  9
$UCSORGTOP
 10
0.0
 20
0.0
 30
0.0
  9
$UCSORGBOTTOM
 10
0.0
 20
0.0
 30
0.0
  9
$UCSORGLEFT
 10
0.0
 20
0.0
 30
0.0
  9
$UCSORGRIGHT
 10
0.0
 20
0.0
 30
0.0
  9
$UCSORGFRONT
 10
0.0
 20
0.0
 30
0.0
  9
$UCSORGBACK
 10
0.0
 20
0.0
 30
0.0
  9
$PUCSBASE
  2

  9
$PUCSNAME
  2

  9
$PUCSORG
 10
0.0
 20
0.0
 30
0.0
  9
$PUCSXDIR
 10
1.0
 20
0.0
 30
0.0
  9
$PUCSYDIR
 10
0.0
 20
1.0
 30
0.0
  9
$PUCSORTHOREF
  2

  9
$PUCSORTHOVIEW
 70
     0
  9
$PUCSORGTOP
 10
0.0
 20
0.0
 30
0.0
  9
$PUCSORGBOTTOM
 10
0.0
 20
0.0
 30
0.0
  9
$PUCSORGLEFT
 10
0.0
 20
0.0
 30
0.0
  9
$PUCSORGRIGHT
 10
0.0
 20
0.0
 30
0.0
  9
$PUCSORGFRONT
 10
0.0
 20
0.0
 30
0.0
  9
$PUCSORGBACK
 10
0.0
 20
0.0
 30
0.0
  9
$USERI1
 70
     0
  9
$USERI2
 70
     0
  9
$USERI3
 70
     0
  9
$USERI4
 70
     0
  9
$USERI5
 70
     0
  9
$USERR1
 40
0.0
  9
$USERR2
 40
0.0
  9
$USERR3
 40
0.0
  9
$USERR4
 40
0.0
  9
$USERR5
 40
0.0
  9
$WORLDVIEW
 70
     1
  9
$SHADEDGE
 70
     3
  9
$SHADEDIF
 70
    70
  9
$TILEMODE
 70
     1
  9
$MAXACTVP
 70
    64
  9
$PINSBASE
 10
0.0
 20
0.0
 30
0.0
  9
$PLIMCHECK
 70
     0
  9
$PEXTMIN
 10
1.000000000000000E+20
 20
1.000000000000000E+20
 30
1.000000000000000E+20
  9
$PEXTMAX
 10
-1.000000000000000E+20
 20
-1.000000000000000E+20
 30
-1.000000000000000E+20
  9
$PLIMMIN
 10
0.0
 20
0.0
  9
$PLIMMAX
 10
12.0
 20
9.0
  9
$UNITMODE
 70
     0
  9
$VISRETAIN
 70
     1
  9
$PLINEGEN
 70
     0
  9
$PSLTSCALE
 70
     1
  9
$TREEDEPTH
 70
  3020
  9
$CMLSTYLE
  2
Standard
  9
$CMLJUST
 70
     0
  9
$CMLSCALE
 40
1.0
  9
$PROXYGRAPHICS
 70
     1
  9
$MEASUREMENT
 70
     0
  9
$CELWEIGHT
370
    -1
  9
$ENDCAPS
280
     0
  9
$JOINSTYLE
280
     0
  9
$LWDISPLAY
290
     0
  9
$INSUNITS
 70
     1
  9
$HYPERLINKBASE
  1

  9
$STYLESHEET
  1

  9
$XEDIT
290
     1
  9
$CEPSNTYPE
380
     0
  9
$PSTYLEMODE
290
     1
  9
$FINGERPRINTGUID
  2
{1D2F1A7E-E0E3-49A2-92F3-593C69A91458}
  9
$VERSIONGUID
  2
{6D60981B-01EE-4D50-AF0C-45B030E18958}
  9
$EXTNAMES
290
     1
  9
$PSVPSCALE
 40
0.0
  9
$OLESTARTUP
290
     0
  9
$SORTENTS
280
   127
  9
$INDEXCTL
280
     0
  9
$HIDETEXT
280
     1
  9
$XCLIPFRAME
280
     2
  9
$HALOGAP
280
     0
  9
$OBSCOLOR
 70
   257
  9
$OBSLTYPE
280
     0
  9
$INTERSECTIONDISPLAY
280
     0
  9
$INTERSECTIONCOLOR
 70
   257
  9
$DIMASSOC
280
     2
  9
$PROJECTNAME
  1

  9
$CAMERADISPLAY
290
     0
  9
$LENSLENGTH
 40
50.0
  9
$CAMERAHEIGHT
 40
0.0
  9
$STEPSPERSEC
 40
2.0
  9
$STEPSIZE
 40
6.0
  9
$3DDWFPREC
 40
2.0
  9
$PSOLWIDTH
 40
0.25
  9
$PSOLHEIGHT
 40
4.0
  9
$LOFTANG1
 40
1.570796326794896
  9
$LOFTANG2
 40
1.570796326794896
  9
$LOFTMAG1
 40
0.0
  9
$LOFTMAG2
 40
0.0
  9
$LOFTPARAM
 70
     7
  9
$LOFTNORMALS
280
     1
  9
$LATITUDE
 40
0.0
  9
$LONGITUDE
 40
0.0
  9
$NORTHDIRECTION
 40
0.0
  9
$TIMEZONE
 70
     0
  9
$LIGHTGLYPHDISPLAY
280
     1
  9
$TILEMODELIGHTSYNCH
280
     1
  9
$CMATERIAL
347
11
  9
$SOLIDHIST
280
     0
  9
$SHOWHIST
280
     1
  9
$DWFFRAME
280
     2
  9
$DGNFRAME
280
     0
  9
$REALWORLDSCALE
290
     1
  9
$INTERFERECOLOR
 62
     1
  9
$INTERFEREOBJVS
345
33
  9
$INTERFEREVPVS
346
30
  9
$CSHADOW
280
     0
  9
$SHADOWPLANELOCATION
 40
0.0
  0
ENDSEC
  0
SECTION
  2
CLASSES
  0
CLASS
  1
ACDBDICTIONARYWDFLT
  2
AcDbDictionaryWithDefault
  3
ObjectDBX Classes
 90
        0
 91
        1
280
     0
281
     0
  0
CLASS
  1
MATERIAL
  2
AcDbMaterial
  3
ObjectDBX Classes
 90
     1153
 91
        3
280
     0
281
     0
  0
CLASS
  1
VISUALSTYLE
  2
AcDbVisualStyle
  3
ObjectDBX Classes
 90
     4095
 91
       24
280
     0
281
     0
  0
CLASS
  1
SCALE
  2
AcDbScale
  3
ObjectDBX Classes
 90
     1153
 91
       17
280
     0
281
     0
  0
CLASS
  1
TABLESTYLE
  2
AcDbTableStyle
  3
ObjectDBX Classes
 90
     4095
 91
        1
280
     0
281
     0
  0
CLASS
  1
MLEADERSTYLE
  2
AcDbMLeaderStyle
  3
ACDB_MLEADERSTYLE_CLASS
 90
     4095
 91
        1
280
     0
281
     0
  0
CLASS
  1
ACDBSECTIONVIEWSTYLE
  2
AcDbSectionViewStyle
  3
ObjectDBX Classes
 90
     1025
 91
        1
280
     0
281
     0
  0
CLASS
  1
ACDBDETAILVIEWSTYLE
  2
AcDbDetailViewStyle
  3
ObjectDBX Classes
 90
     1025
 91
        1
280
     0
281
     0
  0
CLASS
  1
RASTERVARIABLES
  2
AcDbRasterVariables
  3
ISM
 90
        0
 91
        1
280
     0
281
     0
  0
CLASS
  1
DICTIONARYVAR
  2
AcDbDictionaryVar
  3
ObjectDBX Classes
 90
        0
 91
        5
280
     0
281
     0
  0
CLASS
  1
SORTENTSTABLE
  2
AcDbSortentsTable
  3
ObjectDBX Classes
 90
        0
 91
        7
280
     0
281
     0
  0
CLASS
  1
ACAD_EVALUATION_GRAPH
  2
AcDbEvalGraph
  3
ObjectDBX Classes
 90
     1153
 91
        1
280
     0
281
     0
  0
CLASS
  1
ACAECUSTOBJ
  2
AcAeEditorObj
  3
AcAeEditorObj
 90
     1024
 91
        1
280
     0
281
     0
  0
CLASS
  1
AEC_REFEDIT_STATUS_TRACKER
  2
AecDbRefEditStatusTracker
  3
AecArchBase70|Product Desc: Autodesk Architectural Desktop 2007 |Company: Autodesk,Inc. |WEB Address: www.autodesk.com
 90
      129
 91
        1
280
     0
281
     0
  0
CLASS
  1
AEC_VARS_DWG_SETUP
  2
AecDbVarsDwgSetup
  3
AecBase70|Product Desc: Autodesk Architectural Desktop 2007 |Company: Autodesk,Inc. |WEB Address: www.autodesk.com
 90
      129
 91
        1
280
     0
281
     0
  0
CLASS
  1
AEC_DISP_REP_CONFIG
  2
AecDbDispRepConfig
  3
AecBase70|Product Desc: Autodesk Architectural Desktop 2007 |Company: Autodesk,Inc. |WEB Address: www.autodesk.com
 90
      129
 91
        1
280
     0
281
     0
  0
CLASS
  1
AEC_DISP_REP_SET
  2
AecDbDispRepSet
  3
AecBase70|Product Desc: Autodesk Architectural Desktop 2007 |Company: Autodesk,Inc. |WEB Address: www.autodesk.com
 90
      129
 91
        9
280
     0
281
     0
  0
CLASS
  1
AEC_DISP_REP_2D_SECTION
  2
AecDbDispRep2dSection
  3
AecBase70|Product Desc: Autodesk Architectural Desktop 2007 |Company: Autodesk,Inc. |WEB Address: www.autodesk.com
 90
      129
 91
        1
280
     0
281
     0
  0
CLASS
  1
AEC_DISP_REP_ANCHOR_BUB_TO_GRID
  2
AecDbDispRepAnchorBubToGrid
  3
AecArchBase70|Product Desc: Autodesk Architectural Desktop 2007 |Company: Autodesk,Inc. |WEB Address: www.autodesk.com
 90
      129
 91
        1
280
     0
281
     0
  0
CLASS
  1
AEC_DISP_REP_ANCHOR_BUB_TO_GRID_MODEL
  2
AecDbDispRepAnchorBubToGridMdl
  3
AecArchBase70|Product Desc: Autodesk Architectural Desktop 2007 |Company: Autodesk,Inc. |WEB Address: www.autodesk.com
 90
      129
 91
        1
280
     0
281
     0
  0
CLASS
  1
AEC_DISP_REP_ANCHOR_ENT_TO_NODE
  2
AecDbDispRepAnchorEntToNode
  3
AecBase70|Product Desc: Autodesk Architectural Desktop 2007 |Company: Autodesk,Inc. |WEB Address: www.autodesk.com
 90
      129
 91
        1
280
     0
281
     0
  0
CLASS
  1
AEC_DISP_REP_ANCHOR_EXT_TAG_TO_ENT
  2
AecDbDispRepAnchorExtendedTagToEnt
  3
AecBase70|Product Desc: Autodesk Architectural Desktop 2007 |Company: Autodesk,Inc. |WEB Address: www.autodesk.com
 90
      129
 91
        1
280
     0
281
     0
  0
CLASS
  1
AEC_DISP_REP_ANCHOR_TAG_TO_ENT
  2
AecDbDispRepAnchorTagToEnt
  3
AecBase70|Product Desc: Autodesk Architectural Desktop 2007 |Company: Autodesk,Inc. |WEB Address: www.autodesk.com
 90
      129
 91
        1
280
     0
281
     0
  0
CLASS
  1
AEC_DISP_REP_BDG_ELEVLINE_MODEL
  2
AecDbDispRepBdgElevLineModel
  3
AecArchBase70|Product Desc: Autodesk Architectural Desktop 2007 |Company: Autodesk,Inc. |WEB Address: www.autodesk.com
 90
      129
 91
        1
280
     0
281
     0
  0
CLASS
  1
AEC_DISP_REP_BDG_SECTIONLINE_PLAN
  2
AecDbDispRepBdgElevLinePlan
  3
AecArchBase70|Product Desc: Autodesk Architectural Desktop 2007 |Company: Autodesk,Inc. |WEB Address: www.autodesk.com
 90
      129
 91
        1
280
     0
281
     0
  0
CLASS
  1
AEC_DISP_REP_BDG_SECTIONLINE_MODEL
  2
AecDbDispRepBdgSectionLineModel
  3
AecArchBase70|Product Desc: Autodesk Architectural Desktop 2007 |Company: Autodesk,Inc. |WEB Address: www.autodesk.com
 90
      129
 91
        1
280
     0
281
     0
  0
CLASS
  1
AEC_DISP_REP_BDG_SECTIONLINE_PLAN
  2
AecDbDispRepBdgSectionLinePlan
  3
AecArchBase70|Product Desc: Autodesk Architectural Desktop 2007 |Company: Autodesk,Inc. |WEB Address: www.autodesk.com
 90
      129
 91
        1
280
     0
281
     0
  0
CLASS
  1
AEC_DISP_REP_BDG_SECTION_SUBDIV
  2
AecDbDispRepBdgSectionSubDiv
  3
AecArchBase70|Product Desc: Autodesk Architectural Desktop 2007 |Company: Autodesk,Inc. |WEB Address: www.autodesk.com
 90
      129
 91
        1
280
     0
281
     0
  0
CLASS
  1
AEC_DISP_REP_CEILING_GRID_MODEL
  2
AecDbDispRepCeilingGridModel
  3
AecArchBase70|Product Desc: Autodesk Architectural Desktop 2007 |Company: Autodesk,Inc. |WEB Address: www.autodesk.com
 90
      129
 91
        1
280
     0
281
     0
  0
CLASS
  1
AEC_DISP_REP_CLIP_VOLUME_MODEL
  2
AecDbDispRepClipVolModel
  3
AecBase70|Product Desc: Autodesk Architectural Desktop 2007 |Company: Autodesk,Inc. |WEB Address: www.autodesk.com
 90
      129
 91
        1
280
     0
281
     0
  0
CLASS
  1
AEC_DISP_REP_CLIP_VOLUME_PLAN
  2
AecDbDispRepClipVolPlan
  3
AecBase70|Product Desc: Autodesk Architectural Desktop 2007 |Company: Autodesk,Inc. |WEB Address: www.autodesk.com
 90
      129
 91
        1
280
     0
281
     0
  0
CLASS
  1
AEC_DISP_REP_CLIP_VOLUME_RESULT_SUBDIV
  2
AecDbDispRepClipVolResSubDiv
  3
AecBase70|Product Desc: Autodesk Architectural Desktop 2007 |Company: Autodesk,Inc. |WEB Address: www.autodesk.com
 90
      129
 91
        1
280
     0
281
     0
  0
CLASS
  1
AEC_DISP_REP_COLUMN_GRID
  2
AecDbDispRepColumnGrid
  3
AecArchBase70|Product Desc: Autodesk Architectural Desktop 2007 |Company: Autodesk,Inc. |WEB Address: www.autodesk.com
 90
      129
 91
        1
280
     0
281
     0
  0
CLASS
  1
AEC_DISP_REP_COLUMN_GRID_MODEL
  2
AecDbDispRepColumnGridModel
  3
AecArchBase70|Product Desc: Autodesk Architectural Desktop 2007 |Company: Autodesk,Inc. |WEB Address: www.autodesk.com
 90
      129
 91
        1
280
     0
281
     0
  0
CLASS
  1
AEC_DISP_REP_CURTAIN_WALL_LAYOUT_MODEL
  2
AecDbDispRepCurtainWallLayoutModel
  3
AecArchBase70|Product Desc: Autodesk Architectural Desktop 2007 |Company: Autodesk,Inc. |WEB Address: www.autodesk.com
 90
      129
 91
        1
280
     0
281
     0
  0
CLASS
  1
AEC_DISP_REP_CURTAIN_WALL_LAYOUT_PLAN
  2
AecDbDispRepCurtainWallLayoutPlan
  3
AecArchBase70|Product Desc: Autodesk Architectural Desktop 2007 |Company: Autodesk,Inc. |WEB Address: www.autodesk.com
 90
      129
 91
        1
280
     0
281
     0
  0
CLASS
  1
AEC_DISP_REP_CURTAIN_WALL_UNIT_MODEL
  2
AecDbDispRepCurtainWallUnitModel
  3
AecArchBase70|Product Desc: Autodesk Architectural Desktop 2007 |Company: Autodesk,Inc. |WEB Address: www.autodesk.com
 90
      129
 91
        1
280
     0
281
     0
  0
CLASS
  1
AEC_DISP_REP_CURTAIN_WALL_UNIT_PLAN
  2
AecDbDispRepCurtainWallUnitPlan
  3
AecArchBase70|Product Desc: Autodesk Architectural Desktop 2007 |Company: Autodesk,Inc. |WEB Address: www.autodesk.com
 90
      129
 91
        1
280
     0
281
     0
  0
CLASS
  1
AEC_DB_DISP_REP_DIM_GROUP_PLAN
  2
AecDbDispRepDimGroupPlan
  3
AecArchBase70|Product Desc: Autodesk Architectural Desktop 2007 |Company: Autodesk,Inc. |WEB Address: www.autodesk.com
 90
      129
 91
        1
280
     0
281
     0
  0
CLASS
  1
AEC_DISP_REP_DISPLAYTHEME
  2
AecDbDispRepDisplayTheme
  3
AecBase70|Product Desc: Autodesk Architectural Desktop 2007 |Company: Autodesk,Inc. |WEB Address: www.autodesk.com
 90
      129
 91
        1
280
     0
281
     0
  0
CLASS
  1
AEC_DISP_REP_DOOR_ELEV
  2
AecDbDispRepDoorElev
  3
AecArchBase70|Product Desc: Autodesk Architectural Desktop 2007 |Company: Autodesk,Inc. |WEB Address: www.autodesk.com
 90
      129
 91
        1
280
     0
281
     0
  0
CLASS
  1
AEC_DISP_REP_DOOR_MODEL
  2
AecDbDispRepDoorModel
  3
AecArchBase70|Product Desc: Autodesk Architectural Desktop 2007 |Company: Autodesk,Inc. |WEB Address: www.autodesk.com
 90
      129
 91
        1
280
     0
281
     0
  0
CLASS
  1
AEC_DISP_REP_DOOR_NOMINAL
  2
AecDbDispRepDoorNominal
  3
AecArchBase70|Product Desc: Autodesk Architectural Desktop 2007 |Company: Autodesk,Inc. |WEB Address: www.autodesk.com
 90
      129
 91
        1
280
     0
281
     0
  0
CLASS
  1
AEC_DISP_REP_DOOR_PLAN
  2
AecDbDispRepDoorPlan
  3
AecArchBase70|Product Desc: Autodesk Architectural Desktop 2007 |Company: Autodesk,Inc. |WEB Address: www.autodesk.com
 90
      129
 91
        1
280
     0
281
     0
  0
CLASS
  1
AEC_DISP_REP_DOOR_THRESHOLD_PLAN
  2
AecDbDispRepDoorThresholdPlan
  3
AecArchBase70|Product Desc: Autodesk Architectural Desktop 2007 |Company: Autodesk,Inc. |WEB Address: www.autodesk.com
 90
      129
 91
        1
280
     0
281
     0
  0
CLASS
  1
AEC_DISP_REP_EDITINPLACEPROFILE
  2
AecDbDispRepEditInPlaceProfile
  3
AecBase70|Product Desc: Autodesk Architectural Desktop 2007 |Company: Autodesk,Inc. |WEB Address: www.autodesk.com
 90
      129
 91
        1
280
     0
281
     0
  0
CLASS
  1
AEC_DISP_REP_ENT_REF
  2
AecDbDispRepEntRef
  3
AecBase70|Product Desc: Autodesk Architectural Desktop 2007 |Company: Autodesk,Inc. |WEB Address: www.autodesk.com
 90
      129
 91
        1
280
     0
281
     0
  0
CLASS
  1
AEC_DISP_REP_LAYOUT_CURVE
  2
AecDbDispRepLayoutCurve
  3
AecBase70|Product Desc: Autodesk Architectural Desktop 2007 |Company: Autodesk,Inc. |WEB Address: www.autodesk.com
 90
      129
 91
        1
280
     0
281
     0
  0
CLASS
  1
AEC_DISP_REP_LAYOUT_GRID2D
  2
AecDbDispRepLayoutGrid2d
  3
AecBase70|Product Desc: Autodesk Architectural Desktop 2007 |Company: Autodesk,Inc. |WEB Address: www.autodesk.com
 90
      129
 91
        1
280
     0
281
     0
  0
CLASS
  1
AEC_DISP_REP_LAYOUT_GRID3D
  2
AecDbDispRepLayoutGrid3d
  3
AecBase70|Product Desc: Autodesk Architectural Desktop 2007 |Company: Autodesk,Inc. |WEB Address: www.autodesk.com
 90
      129
 91
        1
280
     0
281
     0
  0
CLASS
  1
AEC_DISP_REP_MASKBLOCK_REF
  2
AecDbDispRepMaskBlockRef
  3
AecBase70|Product Desc: Autodesk Architectural Desktop 2007 |Company: Autodesk,Inc. |WEB Address: www.autodesk.com
 90
      129
 91
        1
280
     0
281
     0
  0
CLASS
  1
AEC_DISP_REP_MASKBLOCK_REF_RCP
  2
AecDbDispRepMaskBlockRefRcp
  3
AecArchBase70|Product Desc: Autodesk Architectural Desktop 2007 |Company: Autodesk,Inc. |WEB Address: www.autodesk.com
 90
      129
 91
        1
280
     0
281
     0
  0
CLASS
  1
AEC_DISP_REP_MASS_ELEM_MODEL
  2
AecDbDispRepMassElemModel
  3
AecBaseEx70|Product Desc: Autodesk Architectural Desktop 2007 |Company: Autodesk,Inc. |WEB Address: www.autodesk.com
 90
      129
 91
        1
280
     0
281
     0
  0
CLASS
  1
AEC_DISPREPAECDBDISPREPMASSELEMPLAN50
  2
AecDbDispRepMassElemPlan50
  3
AecArchBase70|Product Desc: Autodesk Architectural Desktop 2007 |Company: Autodesk,Inc. |WEB Address: www.autodesk.com
 90
      129
 91
        1
280
     0
281
     0
  0
CLASS
  1
AEC_DISP_REP_MASS_ELEM_SCHEM
  2
AecDbDispRepMassElemSchem
  3
AecBaseEx70|Product Desc: Autodesk Architectural Desktop 2007 |Company: Autodesk,Inc. |WEB Address: www.autodesk.com
 90
      129
 91
        1
280
     0
281
     0
  0
CLASS
  1
AEC_DISP_REP_MASS_GROUP_MODEL
  2
AecDbDispRepMassGroupModel
  3
AecBaseEx70|Product Desc: Autodesk Architectural Desktop 2007 |Company: Autodesk,Inc. |WEB Address: www.autodesk.com
 90
      129
 91
        1
280
     0
281
     0
  0
CLASS
  1
AEC_DISP_REP_MASS_GROUP_PLAN
  2
AecDbDispRepMassGroupPlan
  3
AecBaseEx70|Product Desc: Autodesk Architectural Desktop 2007 |Company: Autodesk,Inc. |WEB Address: www.autodesk.com
 90
      129
 91
        1
280
     0
281
     0
  0
CLASS
  1
AEC_DISP_REP_MATERIAL
  2
AecDbDispRepMaterial
  3
AecBase70|Product Desc: Autodesk Architectural Desktop 2007 |Company: Autodesk,Inc. |WEB Address: www.autodesk.com
 90
      129
 91
        2
280
     0
281
     0
  0
CLASS
  1
AEC_DISP_REP_MVBLOCK_REF
  2
AecDbDispRepMvBlockRef
  3
AecBase70|Product Desc: Autodesk Architectural Desktop 2007 |Company: Autodesk,Inc. |WEB Address: www.autodesk.com
 90
      129
 91
        2
280
     0
281
     0
  0
CLASS
  1
AEC_DISP_REP_MVBLOCK_REF_MODEL
  2
AecDbDispRepMvBlockRefModel
  3
AecBase70|Product Desc: Autodesk Architectural Desktop 2007 |Company: Autodesk,Inc. |WEB Address: www.autodesk.com
 90
      129
 91
        1
280
     0
281
     0
  0
CLASS
  1
AEC_DISP_REP_OPENING
  2
AecDbDispRepOpening
  3
AecArchBase70|Product Desc: Autodesk Architectural Desktop 2007 |Company: Autodesk,Inc. |WEB Address: www.autodesk.com
 90
      129
 91
        1
280
     0
281
     0
  0
CLASS
  1
AEC_DISP_REP_OPENING_MODEL
  2
AecDbDispRepOpeningModel
  3
AecArchBase70|Product Desc: Autodesk Architectural Desktop 2007 |Company: Autodesk,Inc. |WEB Address: www.autodesk.com
 90
      129
 91
        1
280
     0
281
     0
  0
CLASS
  1
AEC_DISPREPAECDBDISPREPOPENINGPLAN50
  2
AecDbDispRepOpeningPlan50
  3
AecArchBase70|Product Desc: Autodesk Architectural Desktop 2007 |Company: Autodesk,Inc. |WEB Address: www.autodesk.com
 90
      129
 91
        1
280
     0
281
     0
  0
CLASS
  1
AEC_DISPREPAECDBDISPREPOPENINGSILLPLAN
  2
AecDbDispRepOpeningSillPlan
  3
AecArchBase70|Product Desc: Autodesk Architectural Desktop 2007 |Company: Autodesk,Inc. |WEB Address: www.autodesk.com
 90
      129
 91
        1
280
     0
281
     0
  0
CLASS
  1
AEC_DISP_REP_POLYGON_MODEL
  2
AecDbDispRepPolygonModel
  3
AecBase70|Product Desc: Autodesk Architectural Desktop 2007 |Company: Autodesk,Inc. |WEB Address: www.autodesk.com
 90
      129
 91
        1
280
     0
281
     0
  0
CLASS
  1
AEC_DISP_REP_RAILING_MODEL
  2
AecDbDispRepRailingModel
  3
AecArchBase70|Product Desc: Autodesk Architectural Desktop 2007 |Company: Autodesk,Inc. |WEB Address: www.autodesk.com
 90
      129
 91
        1
280
     0
281
     0
  0
CLASS
  1
AEC_DISP_REP_RAILING_PLAN
  2
AecDbDispRepRailingPlan
  3
AecArchBase70|Product Desc: Autodesk Architectural Desktop 2007 |Company: Autodesk,Inc. |WEB Address: www.autodesk.com
 90
      129
 91
        1
280
     0
281
     0
  0
CLASS
  1
AEC_DISP_REP_ROOF_MODEL
  2
AecDbDispRepRoofModel
  3
AecArchBase70|Product Desc: Autodesk Architectural Desktop 2007 |Company: Autodesk,Inc. |WEB Address: www.autodesk.com
 90
      129
 91
        1
280
     0
281
     0
  0
CLASS
  1
AEC_DISP_REP_ROOF_PLAN
  2
AecDbDispRepRoofPlan
  3
AecArchBase70|Product Desc: Autodesk Architectural Desktop 2007 |Company: Autodesk,Inc. |WEB Address: www.autodesk.com
 90
      129
 91
        1
280
     0
281
     0
  0
CLASS
  1
AEC_DISP_REP_ROOFSLAB_MODEL
  2
AecDbDispRepRoofSlabModel
  3
AecArchBase70|Product Desc: Autodesk Architectural Desktop 2007 |Company: Autodesk,Inc. |WEB Address: www.autodesk.com
 90
      129
 91
        1
280
     0
281
     0
  0
CLASS
  1
AEC_DISP_REP_ROOFSLAB_PLAN
  2
AecDbDispRepRoofSlabPlan
  3
AecArchBase70|Product Desc: Autodesk Architectural Desktop 2007 |Company: Autodesk,Inc. |WEB Address: www.autodesk.com
 90
      129
 91
        1
280
     0
281
     0
  0
CLASS
  1
AEC_DISP_REP_SCHEDULE_TABLE
  2
AecDbDispRepScheduleTable
  3
AecSchedule70|Product Desc: Autodesk Architectural Desktop 2007 |Company: Autodesk,Inc. |WEB Address: www.autodesk.com
 90
      129
 91
        1
280
     0
281
     0
  0
CLASS
  1
AEC_DISP_REP_SLAB_MODEL
  2
AecDbDispRepSlabModel
  3
AecArchBase70|Product Desc: Autodesk Architectural Desktop 2007 |Company: Autodesk,Inc. |WEB Address: www.autodesk.com
 90
      129
 91
        1
280
     0
281
     0
  0
CLASS
  1
AEC_DISP_REP_SLAB_PLAN
  2
AecDbDispRepSlabPlan
  3
AecArchBase70|Product Desc: Autodesk Architectural Desktop 2007 |Company: Autodesk,Inc. |WEB Address: www.autodesk.com
 90
      129
 91
        1
280
     0
281
     0
  0
CLASS
  1
AEC_DISP_REP_SLICE
  2
AecDbDispRepSlice
  3
AecBase70|Product Desc: Autodesk Architectural Desktop 2007 |Company: Autodesk,Inc. |WEB Address: www.autodesk.com
 90
      129
 91
        1
280
     0
281
     0
  0
CLASS
  1
AEC_DISP_REP_SPACE_DECOMPOSED
  2
AecDbDispRepSpaceDecomposed
  3
AecArchBase70|Product Desc: Autodesk Architectural Desktop 2007 |Company: Autodesk,Inc. |WEB Address: www.autodesk.com
 90
      129
 91
        1
280
     0
281
     0
  0
CLASS
  1
AEC_DISP_REP_SPACE_MODEL
  2
AecDbDispRepSpaceModel
  3
AecArchBase70|Product Desc: Autodesk Architectural Desktop 2007 |Company: Autodesk,Inc. |WEB Address: www.autodesk.com
 90
      129
 91
        1
280
     0
281
     0
  0
CLASS
  1
AEC_DISP_REP_SPACE_PLAN
  2
AecDbDispRepSpacePlan
  3
AecArchBase70|Product Desc: Autodesk Architectural Desktop 2007 |Company: Autodesk,Inc. |WEB Address: www.autodesk.com
 90
      129
 91
        1
280
     0
281
     0
  0
CLASS
  1
AEC_DISP_REP_SPACE_VOLUME
  2
AecDbDispRepSpaceVolume
  3
AecArchBase70|Product Desc: Autodesk Architectural Desktop 2007 |Company: Autodesk,Inc. |WEB Address: www.autodesk.com
 90
      129
 91
        1
280
     0
281
     0
  0
CLASS
  1
AEC_DISP_REP_STAIR_MODEL
  2
AecDbDispRepStairModel
  3
AecArchBase70|Product Desc: Autodesk Architectural Desktop 2007 |Company: Autodesk,Inc. |WEB Address: www.autodesk.com
 90
      129
 91
        1
280
     0
281
     0
  0
CLASS
  1
AEC_DISP_REP_STAIR_PLAN
  2
AecDbDispRepStairPlan
  3
AecArchBase70|Product Desc: Autodesk Architectural Desktop 2007 |Company: Autodesk,Inc. |WEB Address: www.autodesk.com
 90
      129
 91
        1
280
     0
281
     0
  0
CLASS
  1
AEC_DISP_REP_WALL_GRAPH
  2
AecDbDispRepWallGraph
  3
AecArchBase70|Product Desc: Autodesk Architectural Desktop 2007 |Company: Autodesk,Inc. |WEB Address: www.autodesk.com
 90
      129
 91
        1
280
     0
281
     0
  0
CLASS
  1
AEC_DISP_REP_WALL_MODEL
  2
AecDbDispRepWallModel
  3
AecArchBase70|Product Desc: Autodesk Architectural Desktop 2007 |Company: Autodesk,Inc. |WEB Address: www.autodesk.com
 90
      129
 91
        1
280
     0
281
     0
  0
CLASS
  1
AEC_DISP_REP_WALL_PLAN
  2
AecDbDispRepWallPlan
  3
AecArchBase70|Product Desc: Autodesk Architectural Desktop 2007 |Company: Autodesk,Inc. |WEB Address: www.autodesk.com
 90
      129
 91
        1
280
     0
281
     0
  0
CLASS
  1
AEC_DISP_REP_WALL_SCHEM
  2
AecDbDispRepWallSchem
  3
AecArchBase70|Product Desc: Autodesk Architectural Desktop 2007 |Company: Autodesk,Inc. |WEB Address: www.autodesk.com
 90
      129
 91
        1
280
     0
281
     0
  0
CLASS
  1
AEC_DISP_REP_WINDOW_ASSEMBLY_MODEL
  2
AecDbDispRepWindowAssemblyModel
  3
AecArchBase70|Product Desc: Autodesk Architectural Desktop 2007 |Company: Autodesk,Inc. |WEB Address: www.autodesk.com
 90
      129
 91
        1
280
     0
281
     0
  0
CLASS
  1
AEC_DISP_REP_WINDOW_ASSEMBLY_PLAN
  2
AecDbDispRepWindowAssemblyPlan
  3
AecArchBase70|Product Desc: Autodesk Architectural Desktop 2007 |Company: Autodesk,Inc. |WEB Address: www.autodesk.com
 90
      129
 91
        1
280
     0
281
     0
  0
CLASS
  1
AEC_AECDBDISPREPWINDOWASSEMBLYPLAN100
  2
AecDbDispRepWindowAssemblyPlan100
  3
AecArchBase70|Product Desc: Autodesk Architectural Desktop 2007 |Company: Autodesk,Inc. |WEB Address: www.autodesk.com
 90
      129
 91
        1
280
     0
281
     0
  0
CLASS
  1
AEC_DISP_REP_WINDOWASSEMBLY_SILL_PLAN
  2
AecDbDispRepWindowAssemblySillPlan
  3
AecArchBase70|Product Desc: Autodesk Architectural Desktop 2007 |Company: Autodesk,Inc. |WEB Address: www.autodesk.com
 90
      129
 91
        1
280
     0
281
     0
  0
CLASS
  1
AEC_DISP_REP_WINDOW_ELEV
  2
AecDbDispRepWindowElev
  3
AecArchBase70|Product Desc: Autodesk Architectural Desktop 2007 |Company: Autodesk,Inc. |WEB Address: www.autodesk.com
 90
      129
 91
        1
280
     0
281
     0
  0
CLASS
  1
AEC_DISP_REP_WINDOW_MODEL
  2
AecDbDispRepWindowModel
  3
AecArchBase70|Product Desc: Autodesk Architectural Desktop 2007 |Company: Autodesk,Inc. |WEB Address: www.autodesk.com
 90
      129
 91
        1
280
     0
281
     0
  0
CLASS
  1
AEC_DISP_REP_WINDOW_NOMINAL
  2
AecDbDispRepWindowNominal
  3
AecArchBase70|Product Desc: Autodesk Architectural Desktop 2007 |Company: Autodesk,Inc. |WEB Address: www.autodesk.com
 90
      129
 91
        1
280
     0
281
     0
  0
CLASS
  1
AEC_DISP_REP_WINDOW_PLAN
  2
AecDbDispRepWindowPlan
  3
AecArchBase70|Product Desc: Autodesk Architectural Desktop 2007 |Company: Autodesk,Inc. |WEB Address: www.autodesk.com
 90
      129
 91
        1
280
     0
281
     0
  0
CLASS
  1
AEC_DISP_REP_WINDOW_SILL_PLAN
  2
AecDbDispRepWindowSillPlan
  3
AecArchBase70|Product Desc: Autodesk Architectural Desktop 2007 |Company: Autodesk,Inc. |WEB Address: www.autodesk.com
 90
      129
 91
        1
280
     0
281
     0
  0
CLASS
  1
AEC_DISP_REP_ZONE
  2
AecDbDispRepZone
  3
AecArchBase70|Product Desc: Autodesk Architectural Desktop 2007 |Company: Autodesk,Inc. |WEB Address: www.autodesk.com
 90
      129
 91
        1
280
     0
281
     0
  0
CLASS
  1
AECS_DISP_REP_MEMBER_LOGICAL
  2
AecsDbDispRepMemberLogical
  3
AecArchBase70|Product Desc: Autodesk Architectural Desktop 2007 |Company: Autodesk,Inc. |WEB Address: www.autodesk.com
 90
      129
 91
        1
280
     0
281
     0
  0
CLASS
  1
AECS_DISP_REP_MEMBER_MODEL_DESIGN
  2
AecsDbDispRepMemberModelDesign
  3
AecArchBase70|Product Desc: Autodesk Architectural Desktop 2007 |Company: Autodesk,Inc. |WEB Address: www.autodesk.com
 90
      129
 91
        1
280
     0
281
     0
  0
CLASS
  1
AECS_DISP_REP_MEMBER_PLAN_DESIGN
  2
AecsDbDispRepMemberPlanDesign
  3
AecArchBase70|Product Desc: Autodesk Architectural Desktop 2007 |Company: Autodesk,Inc. |WEB Address: www.autodesk.com
 90
      129
 91
        1
280
     0
281
     0
  0
CLASS
  1
AEC_DISP_PROPS_CLIP_VOLUME
  2
AecDbDispPropsClipVol
  3
AecBase70|Product Desc: Autodesk Architectural Desktop 2007 |Company: Autodesk,Inc. |WEB Address: www.autodesk.com
 90
      129
 91
       12
280
     0
281
     0
  0
CLASS
  1
AEC_DISP_PROPS_EDITINPLACEPROFILE_MODEL
  2
AecDbDispPropsEditInPlaceProfile
  3
AecBase70|Product Desc: Autodesk Architectural Desktop 2007 |Company: Autodesk,Inc. |WEB Address: www.autodesk.com
 90
      129
 91
        1
280
     0
281
     0
  0
CLASS
  1
AEC_DISP_PROPS_ROOFSLAB_PLAN
  2
AecDbDispPropsRoofSlabPlan
  3
AecArchBase70|Product Desc: Autodesk Architectural Desktop 2007 |Company: Autodesk,Inc. |WEB Address: www.autodesk.com
 90
      129
 91
        3
280
     0
281
     0
  0
CLASS
  1
AEC_DISP_PROPS_OPENING
  2
AecDbDispPropsOpening
  3
AecArchBase70|Product Desc: Autodesk Architectural Desktop 2007 |Company: Autodesk,Inc. |WEB Address: www.autodesk.com
 90
      129
 91
        2
280
     0
281
     0
  0
CLASS
  1
AEC_DISP_PROPS_ROOF
  2
AecDbDispPropsRoof
  3
AecArchBase70|Product Desc: Autodesk Architectural Desktop 2007 |Company: Autodesk,Inc. |WEB Address: www.autodesk.com
 90
      129
 91
        5
280
     0
281
     0
  0
CLASS
  1
AEC_DISP_PROPS_ENT
  2
AecDbDispPropsEnt
  3
AecBase70|Product Desc: Autodesk Architectural Desktop 2007 |Company: Autodesk,Inc. |WEB Address: www.autodesk.com
 90
      129
 91
        7
280
     0
281
     0
  0
CLASS
  1
AEC_DISP_PROPS_LAYOUT_GRID2D
  2
AecDbDispPropsLayoutGrid2d
  3
AecBase70|Product Desc: Autodesk Architectural Desktop 2007 |Company: Autodesk,Inc. |WEB Address: www.autodesk.com
 90
      129
 91
       11
280
     0
281
     0
  0
CLASS
  1
AEC_DISP_PROPS_MATERIAL
  2
AecDbDispPropsMaterial
  3
AecBase70|Product Desc: Autodesk Architectural Desktop 2007 |Company: Autodesk,Inc. |WEB Address: www.autodesk.com
 90
      129
 91
        2
280
     0
281
     0
  0
CLASS
  1
AEC_DISP_PROPS_LAYOUT_CURVE
  2
AecDbDispPropsLayoutCurve
  3
AecBase70|Product Desc: Autodesk Architectural Desktop 2007 |Company: Autodesk,Inc. |WEB Address: www.autodesk.com
 90
      129
 91
        1
280
     0
281
     0
  0
CLASS
  1
AEC_DISP_PROPS_DOOR
  2
AecDbDispPropsDoor
  3
AecArchBase70|Product Desc: Autodesk Architectural Desktop 2007 |Company: Autodesk,Inc. |WEB Address: www.autodesk.com
 90
      129
 91
        4
280
     0
281
     0
  0
CLASS
  1
AEC_DISP_PROPS_STAIR_PLAN
  2
AecDbDispPropsStairPlan
  3
AecArchBase70|Product Desc: Autodesk Architectural Desktop 2007 |Company: Autodesk,Inc. |WEB Address: www.autodesk.com
 90
      129
 91
        2
280
     0
281
     0
  0
CLASS
  1
AEC_DISP_PROPS_ZONE
  2
AecDbDispPropsZone
  3
AecArchBase70|Product Desc: Autodesk Architectural Desktop 2007 |Company: Autodesk,Inc. |WEB Address: www.autodesk.com
 90
      129
 91
        3
280
     0
281
     0
  0
CLASS
  1
AEC_DISP_PROPS_ROOFSLAB
  2
AecDbDispPropsRoofSlab
  3
AecArchBase70|Product Desc: Autodesk Architectural Desktop 2007 |Company: Autodesk,Inc. |WEB Address: www.autodesk.com
 90
      129
 91
        1
280
     0
281
     0
  0
CLASS
  1
AEC_DISP_PROPS_WALL_PLAN
  2
AecDbDispPropsWallPlan
  3
AecArchBase70|Product Desc: Autodesk Architectural Desktop 2007 |Company: Autodesk,Inc. |WEB Address: www.autodesk.com
 90
      129
 91
        4
280
     0
281
     0
  0
CLASS
  1
AEC_DISP_PROPS_MASS_GROUP
  2
AecDbDispPropsMassGroup
  3
AecBaseEx70|Product Desc: Autodesk Architectural Desktop 2007 |Company: Autodesk,Inc. |WEB Address: www.autodesk.com
 90
      129
 91
        3
280
     0
281
     0
  0
CLASS
  1
AEC_DISP_PROPS_DOOR_NOMINAL
  2
AecDbDispPropsDoorNominal
  3
AecArchBase70|Product Desc: Autodesk Architectural Desktop 2007 |Company: Autodesk,Inc. |WEB Address: www.autodesk.com
 90
      129
 91
        1
280
     0
281
     0
  0
CLASS
  1
AEC_DISP_PROPS_WINDOW
  2
AecDbDispPropsWindow
  3
AecArchBase70|Product Desc: Autodesk Architectural Desktop 2007 |Company: Autodesk,Inc. |WEB Address: www.autodesk.com
 90
      129
 91
        4
280
     0
281
     0
  0
CLASS
  1
AEC_DISP_PROPS_WALL_MODEL
  2
AecDbDispPropsWallModel
  3
AecArchBase70|Product Desc: Autodesk Architectural Desktop 2007 |Company: Autodesk,Inc. |WEB Address: www.autodesk.com
 90
      129
 91
        1
280
     0
281
     0
  0
CLASS
  1
AEC_DISP_PROPS_GRID_ASSEMBLY_PLAN
  2
AecDbDispPropsGridAssemblyPlan
  3
AecArchBase70|Product Desc: Autodesk Architectural Desktop 2007 |Company: Autodesk,Inc. |WEB Address: www.autodesk.com
 90
      129
 91
        9
280
     0
281
     0
  0
CLASS
  1
AEC_DISP_PROPS_WALL_GRAPH
  2
AecDbDispPropsWallGraph
  3
AecArchBase70|Product Desc: Autodesk Architectural Desktop 2007 |Company: Autodesk,Inc. |WEB Address: www.autodesk.com
 90
      129
 91
        1
280
     0
281
     0
  0
CLASS
  1
AEC_DISPROPSOPENINGSILLPLAN
  2
AecDbDispPropsOpeningSillPlan
  3
AecArchBase70|Product Desc: Autodesk Architectural Desktop 2007 |Company: Autodesk,Inc. |WEB Address: www.autodesk.com
 90
      129
 91
        1
280
     0
281
     0
  0
CLASS
  1
AEC_DISP_PROPS_SLAB_PLAN
  2
AecDbDispPropsSlabPlan
  3
AecArchBase70|Product Desc: Autodesk Architectural Desktop 2007 |Company: Autodesk,Inc. |WEB Address: www.autodesk.com
 90
      129
 91
        3
280
     0
281
     0
  0
CLASS
  1
AEC_DISP_PROPS_SPACE_PLAN
  2
AecDbDispPropsSpacePlan
  3
AecArchBase70|Product Desc: Autodesk Architectural Desktop 2007 |Company: Autodesk,Inc. |WEB Address: www.autodesk.com
 90
      129
 91
        4
280
     0
281
     0
  0
CLASS
  1
AEC_DISPROPSMASSELEMPLANCOMMON
  2
AecDbDispPropsMassElemPlanCommon
  3
AecArchBase70|Product Desc: Autodesk Architectural Desktop 2007 |Company: Autodesk,Inc. |WEB Address: www.autodesk.com
 90
      129
 91
        2
280
     0
281
     0
  0
CLASS
  1
AEC_DISP_PROPS_SLICE
  2
AecDbDispPropsSlice
  3
AecBase70|Product Desc: Autodesk Architectural Desktop 2007 |Company: Autodesk,Inc. |WEB Address: www.autodesk.com
 90
      129
 91
        1
280
     0
281
     0
  0
CLASS
  1
AEC_DISP_PROPS_2D_SECTION
  2
AecDbDispProps2dSection
  3
AecBase70|Product Desc: Autodesk Architectural Desktop 2007 |Company: Autodesk,Inc. |WEB Address: www.autodesk.com
 90
      129
 91
        1
280
     0
281
     0
  0
CLASS
  1
AEC_DISP_PROPS_POLYGON_MODEL
  2
AecDbDispPropsPolygonModel
  3
AecBase70|Product Desc: Autodesk Architectural Desktop 2007 |Company: Autodesk,Inc. |WEB Address: www.autodesk.com
 90
      129
 91
        1
280
     0
281
     0
  0
CLASS
  1
AEC_DISP_PROPS_SLAB
  2
AecDbDispPropsSlab
  3
AecArchBase70|Product Desc: Autodesk Architectural Desktop 2007 |Company: Autodesk,Inc. |WEB Address: www.autodesk.com
 90
      129
 91
        1
280
     0
281
     0
  0
CLASS
  1
AEC_DISP_PROPS_RAILING_PLAN
  2
AecDbDispPropsRailingPlan
  3
AecArchBase70|Product Desc: Autodesk Architectural Desktop 2007 |Company: Autodesk,Inc. |WEB Address: www.autodesk.com
 90
      129
 91
        1
280
     0
281
     0
  0
CLASS
  1
AEC_DISP_PROPS_WALL_SCHEM
  2
AecDbDispPropsWallSchem
  3
AecArchBase70|Product Desc: Autodesk Architectural Desktop 2007 |Company: Autodesk,Inc. |WEB Address: www.autodesk.com
 90
      129
 91
        1
280
     0
281
     0
  0
CLASS
  1
AEC_DISP_PROPS_WINDOW_SILL_PLAN
  2
AecDbDispPropsWindowSillPlan
  3
AecArchBase70|Product Desc: Autodesk Architectural Desktop 2007 |Company: Autodesk,Inc. |WEB Address: www.autodesk.com
 90
      129
 91
        1
280
     0
281
     0
  0
CLASS
  1
AEC_DISP_PROPS_CLIP_VOLUME_RESULT
  2
AecDbDispPropsClipVolResSubDiv
  3
AecBase70|Product Desc: Autodesk Architectural Desktop 2007 |Company: Autodesk,Inc. |WEB Address: www.autodesk.com
 90
      129
 91
        2
280
     0
281
     0
  0
CLASS
  1
AEC_DISP_PROPS_MASS_ELEM_MODEL
  2
AecDbDispPropsMassElem
  3
AecBaseEx70|Product Desc: Autodesk Architectural Desktop 2007 |Company: Autodesk,Inc. |WEB Address: www.autodesk.com
 90
      129
 91
        3
280
     0
281
     0
  0
CLASS
  1
AECS_DISP_PROPS_MEMBER_LOGICAL
  2
AecsDbDispPropsMemberLogical
  3
AecArchBase70|Product Desc: Autodesk Architectural Desktop 2007 |Company: Autodesk,Inc. |WEB Address: www.autodesk.com
 90
      129
 91
        1
280
     0
281
     0
  0
CLASS
  1
AEC_DISP_PROPS_DISPLAYTHEME
  2
AecDbDispPropsDisplayTheme
  3
AecBase70|Product Desc: Autodesk Architectural Desktop 2007 |Company: Autodesk,Inc. |WEB Address: www.autodesk.com
 90
      129
 91
        1
280
     0
281
     0
  0
CLASS
  1
AEC_DISP_PROPS_DOOR_THRESHOLD_PLAN
  2
AecDbDispPropsDoorThresholdPlan
  3
AecArchBase70|Product Desc: Autodesk Architectural Desktop 2007 |Company: Autodesk,Inc. |WEB Address: www.autodesk.com
 90
      129
 91
        1
280
     0
281
     0
  0
CLASS
  1
AEC_DISP_PROPS_SPACE_DECOMPOSED
  2
AecDbDispPropsSpaceDecomposed
  3
AecArchBase70|Product Desc: Autodesk Architectural Desktop 2007 |Company: Autodesk,Inc. |WEB Address: www.autodesk.com
 90
      129
 91
        1
280
     0
281
     0
  0
CLASS
  1
AECS_DISP_PROPS_MEMBER_PLAN
  2
AecsDbDispPropsMemberPlan
  3
AecArchBase70|Product Desc: Autodesk Architectural Desktop 2007 |Company: Autodesk,Inc. |WEB Address: www.autodesk.com
 90
      129
 91
        2
280
     0
281
     0
  0
CLASS
  1
AEC_DISP_PROPS_GRID_ASSEMBLY_MODEL
  2
AecDbDispPropsGridAssemblyModel
  3
AecArchBase70|Product Desc: Autodesk Architectural Desktop 2007 |Company: Autodesk,Inc. |WEB Address: www.autodesk.com
 90
      129
 91
        3
280
     0
281
     0
  0
CLASS
  1
AEC_DISP_PROPS_MASKBLOCK
  2
AecDbDispPropsMaskBlock
  3
AecBase70|Product Desc: Autodesk Architectural Desktop 2007 |Company: Autodesk,Inc. |WEB Address: www.autodesk.com
 90
      129
 91
        2
280
     0
281
     0
  0
CLASS
  1
AEC_DISP_PROPS_LAYOUT_GRID3D
  2
AecDbDispPropsLayoutGrid3d
  3
AecBase70|Product Desc: Autodesk Architectural Desktop 2007 |Company: Autodesk,Inc. |WEB Address: www.autodesk.com
 90
      129
 91
        1
280
     0
281
     0
  0
CLASS
  1
AEC_DISPROPSOPENINGPLANCOMMONHATCHED
  2
AecDbDispPropsOpeningPlanCommonHatched
  3
AecArchBase70|Product Desc: Autodesk Architectural Desktop 2007 |Company: Autodesk,Inc. |WEB Address: www.autodesk.com
 90
      129
 91
        2
280
     0
281
     0
  0
CLASS
  1
AEC_DISP_PROPS_ENT_REF
  2
AecDbDispPropsEntRef
  3
AecBase70|Product Desc: Autodesk Architectural Desktop 2007 |Company: Autodesk,Inc. |WEB Address: www.autodesk.com
 90
      129
 91
        1
280
     0
281
     0
  0
CLASS
  1
AECS_DISP_PROPS_MEMBER
  2
AecsDbDispPropsMember
  3
AecArchBase70|Product Desc: Autodesk Architectural Desktop 2007 |Company: Autodesk,Inc. |WEB Address: www.autodesk.com
 90
      129
 91
        2
280
     0
281
     0
  0
CLASS
  1
AEC_DISP_PROPS_SCHEDULE_TABLE
  2
AecDbDispPropsScheduleTable
  3
AecSchedule70|Product Desc: Autodesk Architectural Desktop 2007 |Company: Autodesk,Inc. |WEB Address: www.autodesk.com
 90
      129
 91
        1
280
     0
281
     0
  0
CLASS
  1
AEC_DISP_PROPS_SPACE_MODEL
  2
AecDbDispPropsSpaceModel
  3
AecArchBase70|Product Desc: Autodesk Architectural Desktop 2007 |Company: Autodesk,Inc. |WEB Address: www.autodesk.com
 90
      129
 91
        1
280
     0
281
     0
  0
CLASS
  1
AEC_DISP_PROPS_WINDOW_ASSEMBLY_SILL_PLAN
  2
AecDbDispPropsWindowAssemblySillPlan
  3
AecArchBase70|Product Desc: Autodesk Architectural Desktop 2007 |Company: Autodesk,Inc. |WEB Address: www.autodesk.com
 90
      129
 91
        1
280
     0
281
     0
  0
CLASS
  1
AEC_DISP_PROPS_WINDOW_NOMINAL
  2
AecDbDispPropsWindowNominal
  3
AecArchBase70|Product Desc: Autodesk Architectural Desktop 2007 |Company: Autodesk,Inc. |WEB Address: www.autodesk.com
 90
      129
 91
        1
280
     0
281
     0
  0
CLASS
  1
AEC_DISP_PROPS_RAILING_MODEL
  2
AecDbDispPropsRailingModel
  3
AecArchBase70|Product Desc: Autodesk Architectural Desktop 2007 |Company: Autodesk,Inc. |WEB Address: www.autodesk.com
 90
      129
 91
        1
280
     0
281
     0
  0
CLASS
  1
AEC_DISP_PROPS_STAIR_MODEL
  2
AecDbDispPropsStairModel
  3
AecArchBase70|Product Desc: Autodesk Architectural Desktop 2007 |Company: Autodesk,Inc. |WEB Address: www.autodesk.com
 90
      129
 91
        1
280
     0
281
     0
  0
CLASS
  1
AEC_DISP_PROPS_DIM
  2
AecDbDispPropsDimGroup
  3
AecArchBase70|Product Desc: Autodesk Architectural Desktop 2007 |Company: Autodesk,Inc. |WEB Address: www.autodesk.com
 90
      129
 91
        3
280
     0
281
     0
  0
CLASS
  1
AEC_LAYERKEY_STYLE
  2
AecDbLayerKeyStyle
  3
AecBase70|Product Desc: Autodesk Architectural Desktop 2007 |Company: Autodesk,Inc. |WEB Address: www.autodesk.com
 90
      129
 91
        1
280
     0
281
     0
  0
CLASS
  1
AEC_VARS_ARCHBASE
  2
AecDbVarsArchBase
  3
AecArchBase70|Product Desc: Autodesk Architectural Desktop 2007 |Company: Autodesk,Inc. |WEB Address: www.autodesk.com
 90
      129
 91
        1
280
     0
281
     0
  0
CLASS
  1
AEC_VARS_STRUCTUREBASE
  2
AecsDbVarsStructureBase
  3
AecArchBase70|Product Desc: Autodesk Architectural Desktop 2007 |Company: Autodesk,Inc. |WEB Address: www.autodesk.com
 90
      129
 91
        1
280
     0
281
     0
  0
CLASS
  1
AEC_VARS_MUNICH
  2
AecDbVarsMunich
  3
AecArchBase70|Product Desc: Autodesk Architectural Desktop 2007 |Company: Autodesk,Inc. |WEB Address: www.autodesk.com
 90
      129
 91
        1
280
     0
281
     0
  0
CLASS
  1
AEC_NOTIFICATION_TRACKER
  2
AecDbNotificationTracker
  3
AecBase70|Product Desc: Autodesk Architectural Desktop 2007 |Company: Autodesk,Inc. |WEB Address: www.autodesk.com
 90
      129
 91
        1
280
     0
281
     0
  0
CLASS
  1
NPOCOLLECTION
  2
AcDbImpNonPersistentObjectsCollection
  3
ObjectDBX Classes
 90
     1153
 91
        1
280
     0
281
     0
  0
CLASS
  1
AEC_DISP_REP_ANCHOR
  2
AecDbDispRepAnchor
  3
AecBase70|Product Desc: Autodesk Architectural Desktop 2007 |Company: Autodesk,Inc. |WEB Address: www.autodesk.com
 90
      129
 91
        1
280
     0
281
     0
  0
CLASS
  1
AEC_DISP_REP_CLIP_VOLUME_RESULT
  2
AecDbDispRepClipVolResult
  3
AecBase70|Product Desc: Autodesk Architectural Desktop 2007 |Company: Autodesk,Inc. |WEB Address: www.autodesk.com
 90
      129
 91
        1
280
     0
281
     0
  0
CLASS
  1
AEC_DISP_REP_POLYGON_TRUECOLOUR
  2
AecDbDispRepPolygonTrueColour
  3
AecBase70|Product Desc: Autodesk Architectural Desktop 2007 |Company: Autodesk,Inc. |WEB Address: www.autodesk.com
 90
      129
 91
        1
280
     0
281
     0
  0
CLASS
  1
AEC_DISP_PROPS_POLYGON_TRUECOLOUR
  2
AecDbDispPropsPolygonTrueColour
  3
AecBase70|Product Desc: Autodesk Architectural Desktop 2007 |Company: Autodesk,Inc. |WEB Address: www.autodesk.com
 90
      129
 91
        1
280
     0
281
     0
  0
CLASS
  1
AEC_AECDBDISPREPBDGELEVLINEPLAN100
  2
AecDbDispRepBdgElevLinePlan100
  3
AecArchBase70|Product Desc: Autodesk Architectural Desktop 2007 |Company: Autodesk,Inc. |WEB Address: www.autodesk.com
 90
      129
 91
        1
280
     0
281
     0
  0
CLASS
  1
AEC_AECDBDISPREPBDGSECTIONLINEPLAN100
  2
AecDbDispRepBdgSectionLinePlan100
  3
AecArchBase70|Product Desc: Autodesk Architectural Desktop 2007 |Company: Autodesk,Inc. |WEB Address: www.autodesk.com
 90
      129
 91
        1
280
     0
281
     0
  0
CLASS
  1
AEC_DISP_REP_CEILING_GRID
  2
AecDbDispRepCeilingGrid
  3
AecArchBase70|Product Desc: Autodesk Architectural Desktop 2007 |Company: Autodesk,Inc. |WEB Address: www.autodesk.com
 90
      893
 91
        1
280
     0
281
     0
  0
CLASS
  1
AEC_AECDBDISPREPCEILINGGRIDPLAN100
  2
AecDbDispRepCeilingGridPlan100
  3
AecArchBase70|Product Desc: Autodesk Architectural Desktop 2007 |Company: Autodesk,Inc. |WEB Address: www.autodesk.com
 90
      129
 91
        1
280
     0
281
     0
  0
CLASS
  1
AEC_AECDBDISPREPCOLUMNGRIDPLAN100
  2
AecDbDispRepColumnGridPlan100
  3
AecArchBase70|Product Desc: Autodesk Architectural Desktop 2007 |Company: Autodesk,Inc. |WEB Address: www.autodesk.com
 90
      129
 91
        1
280
     0
281
     0
  0
CLASS
  1
AEC_AECDBDISPREPCURTAINWALLLAYOUTPLAN100
  2
AecDbDispRepCurtainWallLayoutPlan100
  3
AecArchBase70|Product Desc: Autodesk Architectural Desktop 2007 |Company: Autodesk,Inc. |WEB Address: www.autodesk.com
 90
      129
 91
        1
280
     0
281
     0
  0
CLASS
  1
AEC_AECDBDISPREPCURTAINWALLUNITPLAN100
  2
AecDbDispRepCurtainWallUnitPlan100
  3
AecArchBase70|Product Desc: Autodesk Architectural Desktop 2007 |Company: Autodesk,Inc. |WEB Address: www.autodesk.com
 90
      129
 91
        1
280
     0
281
     0
  0
CLASS
  1
AEC_AECDBDISPREPMVBLOCKREFPLAN100
  2
AecDbDispRepMvBlockRefPlan100
  3
AecArchBase70|Product Desc: Autodesk Architectural Desktop 2007 |Company: Autodesk,Inc. |WEB Address: www.autodesk.com
 90
      129
 91
        1
280
     0
281
     0
  0
CLASS
  1
AEC_AECDBDISPREPROOFPLAN100
  2
AecDbDispRepRoofPlan100
  3
AecArchBase70|Product Desc: Autodesk Architectural Desktop 2007 |Company: Autodesk,Inc. |WEB Address: www.autodesk.com
 90
      129
 91
        1
280
     0
281
     0
  0
CLASS
  1
AEC_AECDBDISPREPROOFSLABPLAN100
  2
AecDbDispRepRoofSlabPlan100
  3
AecArchBase70|Product Desc: Autodesk Architectural Desktop 2007 |Company: Autodesk,Inc. |WEB Address: www.autodesk.com
 90
      129
 91
        1
280
     0
281
     0
  0
CLASS
  1
AEC_AECDBDISPREPSLABPLAN100
  2
AecDbDispRepSlabPlan100
  3
AecArchBase70|Product Desc: Autodesk Architectural Desktop 2007 |Company: Autodesk,Inc. |WEB Address: www.autodesk.com
 90
      129
 91
        1
280
     0
281
     0
  0
CLASS
  1
AEC_AECDBDISPREPSPACEPLAN100
  2
AecDbDispRepSpacePlan100
  3
AecArchBase70|Product Desc: Autodesk Architectural Desktop 2007 |Company: Autodesk,Inc. |WEB Address: www.autodesk.com
 90
      129
 91
        1
280
     0
281
     0
  0
CLASS
  1
AEC_AECDBDISPREPWALLPLAN100
  2
AecDbDispRepWallPlan100
  3
AecArchBase70|Product Desc: Autodesk Architectural Desktop 2007 |Company: Autodesk,Inc. |WEB Address: www.autodesk.com
 90
      129
 91
        1
280
     0
281
     0
  0
CLASS
  1
AEC_AECDBDISPREPZONE100
  2
AecDbDispRepZonePlan100
  3
AecArchBase70|Product Desc: Autodesk Architectural Desktop 2007 |Company: Autodesk,Inc. |WEB Address: www.autodesk.com
 90
      129
 91
        1
280
     0
281
     0
  0
CLASS
  1
AEC_AECDBDISPREPBDGELEVLINEPLAN50
  2
AecDbDispRepBdgElevLinePlan50
  3
AecArchBase70|Product Desc: Autodesk Architectural Desktop 2007 |Company: Autodesk,Inc. |WEB Address: www.autodesk.com
 90
      129
 91
        1
280
     0
281
     0
  0
CLASS
  1
AEC_AECDBDISPREPBDGSECTIONLINEPLAN50
  2
AecDbDispRepBdgSectionLinePlan50
  3
AecArchBase70|Product Desc: Autodesk Architectural Desktop 2007 |Company: Autodesk,Inc. |WEB Address: www.autodesk.com
 90
      129
 91
        1
280
     0
281
     0
  0
CLASS
  1
AEC_AECDBDISPREPCEILINGGRIDPLAN50
  2
AecDbDispRepCeilingGridPlan50
  3
AecArchBase70|Product Desc: Autodesk Architectural Desktop 2007 |Company: Autodesk,Inc. |WEB Address: www.autodesk.com
 90
      129
 91
        1
280
     0
281
     0
  0
CLASS
  1
AEC_AECDBDISPREPCOLUMNGRIDPLAN50
  2
AecDbDispRepColumnGridPlan50
  3
AecArchBase70|Product Desc: Autodesk Architectural Desktop 2007 |Company: Autodesk,Inc. |WEB Address: www.autodesk.com
 90
      129
 91
        1
280
     0
281
     0
  0
CLASS
  1
AEC_AECDBDISPREPCURTAINWALLLAYOUTPLAN50
  2
AecDbDispRepCurtainWallLayoutPlan50
  3
AecArchBase70|Product Desc: Autodesk Architectural Desktop 2007 |Company: Autodesk,Inc. |WEB Address: www.autodesk.com
 90
      129
 91
        1
280
     0
281
     0
  0
CLASS
  1
AEC_AECDBDISPREPCURTAINWALLUNITPLAN50
  2
AecDbDispRepCurtainWallUnitPlan50
  3
AecArchBase70|Product Desc: Autodesk Architectural Desktop 2007 |Company: Autodesk,Inc. |WEB Address: www.autodesk.com
 90
      129
 91
        1
280
     0
281
     0
  0
CLASS
  1
AEC_AECDBDISPREPMVBLOCKREFPLAN50
  2
AecDbDispRepMvBlockRefPlan50
  3
AecArchBase70|Product Desc: Autodesk Architectural Desktop 2007 |Company: Autodesk,Inc. |WEB Address: www.autodesk.com
 90
      129
 91
        1
280
     0
281
     0
  0
CLASS
  1
AEC_AECDBDISPREPROOFPLAN50
  2
AecDbDispRepRoofPlan50
  3
AecArchBase70|Product Desc: Autodesk Architectural Desktop 2007 |Company: Autodesk,Inc. |WEB Address: www.autodesk.com
 90
      129
 91
        1
280
     0
281
     0
  0
CLASS
  1
AEC_AECDBDISPREPROOFSLABPLAN50
  2
AecDbDispRepRoofSlabPlan50
  3
AecArchBase70|Product Desc: Autodesk Architectural Desktop 2007 |Company: Autodesk,Inc. |WEB Address: www.autodesk.com
 90
      129
 91
        1
280
     0
281
     0
  0
CLASS
  1
AEC_AECDBDISPREPSLABPLAN50
  2
AecDbDispRepSlabPlan50
  3
AecArchBase70|Product Desc: Autodesk Architectural Desktop 2007 |Company: Autodesk,Inc. |WEB Address: www.autodesk.com
 90
      129
 91
        1
280
     0
281
     0
  0
CLASS
  1
AEC_AECDBDISPREPSPACEPLAN50
  2
AecDbDispRepSpacePlan50
  3
AecArchBase70|Product Desc: Autodesk Architectural Desktop 2007 |Company: Autodesk,Inc. |WEB Address: www.autodesk.com
 90
      129
 91
        1
280
     0
281
     0
  0
CLASS
  1
AEC_AECDBDISPREPWALLPLAN50
  2
AecDbDispRepWallPlan50
  3
AecArchBase70|Product Desc: Autodesk Architectural Desktop 2007 |Company: Autodesk,Inc. |WEB Address: www.autodesk.com
 90
      129
 91
        1
280
     0
281
     0
  0
CLASS
  1
AEC_AECDBDISPREPWINDOWASSEMBLYPLAN50
  2
AecDbDispRepWindowAssemblyPlan50
  3
AecArchBase70|Product Desc: Autodesk Architectural Desktop 2007 |Company: Autodesk,Inc. |WEB Address: www.autodesk.com
 90
      129
 91
        1
280
     0
281
     0
  0
CLASS
  1
AEC_AECDBDISPREPZONE50
  2
AecDbDispRepZonePlan50
  3
AecArchBase70|Product Desc: Autodesk Architectural Desktop 2007 |Company: Autodesk,Inc. |WEB Address: www.autodesk.com
 90
      129
 91
        1
280
     0
281
     0
  0
CLASS
  1
AEC_DISP_REP_ANCHOR_BUB_TO_GRID_RCP
  2
AecDbDispRepAnchorBubToGridRcp
  3
AecArchBase70|Product Desc: Autodesk Architectural Desktop 2007 |Company: Autodesk,Inc. |WEB Address: www.autodesk.com
 90
      129
 91
        1
280
     0
281
     0
  0
CLASS
  1
AEC_DISP_REP_BDG_ELEVLINE_RCP
  2
AecDbDispRepBdgElevLineRcp
  3
AecArchBase70|Product Desc: Autodesk Architectural Desktop 2007 |Company: Autodesk,Inc. |WEB Address: www.autodesk.com
 90
      129
 91
        1
280
     0
281
     0
  0
CLASS
  1
AEC_DISP_REP_BDG_SECTIONLINE_RCP
  2
AecDbDispRepBdgSectionLineRcp
  3
AecArchBase70|Product Desc: Autodesk Architectural Desktop 2007 |Company: Autodesk,Inc. |WEB Address: www.autodesk.com
 90
      129
 91
        1
280
     0
281
     0
  0
CLASS
  1
AEC_DISP_REP_BDG_SECTION_MODEL
  2
AecDbDispRepBdgSectionModel
  3
AecArchBase70|Product Desc: Autodesk Architectural Desktop 2007 |Company: Autodesk,Inc. |WEB Address: www.autodesk.com
 90
      129
 91
        1
280
     0
281
     0
  0
CLASS
  1
AEC_DISP_REP_CEILING_GRID_RCP
  2
AecDbDispRepCeilingGridRcp
  3
AecArchBase70|Product Desc: Autodesk Architectural Desktop 2007 |Company: Autodesk,Inc. |WEB Address: www.autodesk.com
 90
      129
 91
        1
280
     0
281
     0
  0
CLASS
  1
AEC_DISP_REP_COLUMN_GRID_RCP
  2
AecDbDispRepColumnGridRcp
  3
AecArchBase70|Product Desc: Autodesk Architectural Desktop 2007 |Company: Autodesk,Inc. |WEB Address: www.autodesk.com
 90
      129
 91
        1
280
     0
281
     0
  0
CLASS
  1
AEC_DB_DISP_REP_DIM_GROUP_PLAN100
  2
AecDbDispRepDimGroupPlan100
  3
AecArchBase70|Product Desc: Autodesk Architectural Desktop 2007 |Company: Autodesk,Inc. |WEB Address: www.autodesk.com
 90
      129
 91
        1
280
     0
281
     0
  0
CLASS
  1
AEC_DB_DISP_REP_DIM_GROUP_PLAN50
  2
AecDbDispRepDimGroupPlan50
  3
AecArchBase70|Product Desc: Autodesk Architectural Desktop 2007 |Company: Autodesk,Inc. |WEB Address: www.autodesk.com
 90
      129
 91
        1
280
     0
281
     0
  0
CLASS
  1
AEC_DISP_REP_DOOR_PLAN_50
  2
AecDbDispRepDoorPlan50
  3
AecArchBase70|Product Desc: Autodesk Architectural Desktop 2007 |Company: Autodesk,Inc. |WEB Address: www.autodesk.com
 90
      129
 91
        1
280
     0
281
     0
  0
CLASS
  1
AEC_DISP_PROPS_DOOR_PLAN_50
  2
AecDbDispPropsDoorPlan50
  3
AecArchBase70|Product Desc: Autodesk Architectural Desktop 2007 |Company: Autodesk,Inc. |WEB Address: www.autodesk.com
 90
      129
 91
        1
280
     0
281
     0
  0
CLASS
  1
AEC_DISP_REP_DOOR_PLAN_HEKTO
  2
AecDbDispRepDoorPlanHekto
  3
AecArchBase70|Product Desc: Autodesk Architectural Desktop 2007 |Company: Autodesk,Inc. |WEB Address: www.autodesk.com
 90
      129
 91
        1
280
     0
281
     0
  0
CLASS
  1
AEC_DISP_PROPS_DOOR_PLAN_100
  2
AecDbDispPropsDoorPlan100
  3
AecArchBase70|Product Desc: Autodesk Architectural Desktop 2007 |Company: Autodesk,Inc. |WEB Address: www.autodesk.com
 90
      129
 91
        1
280
     0
281
     0
  0
CLASS
  1
AEC_DISP_REP_DOOR_RCP
  2
AecDbDispRepDoorRcp
  3
AecArchBase70|Product Desc: Autodesk Architectural Desktop 2007 |Company: Autodesk,Inc. |WEB Address: www.autodesk.com
 90
      129
 91
        1
280
     0
281
     0
  0
CLASS
  1
AEC_DISP_REP_DOOR_THRESHOLD_SYMBOL_PLAN
  2
AecDbDispRepDoorThresholdSymbolPlan
  3
AecArchBase70|Product Desc: Autodesk Architectural Desktop 2007 |Company: Autodesk,Inc. |WEB Address: www.autodesk.com
 90
      129
 91
        1
280
     0
281
     0
  0
CLASS
  1
AEC_DISP_PROPS_DOOR_THRESHOLD_SYMBOL_PLAN
  2
AecDbDispPropsDoorThresholdSymbolPlan
  3
AecArchBase70|Product Desc: Autodesk Architectural Desktop 2007 |Company: Autodesk,Inc. |WEB Address: www.autodesk.com
 90
      129
 91
        1
280
     0
281
     0
  0
CLASS
  1
AEC_DISPREPAECDBDISPREPMASSELEMPLAN100
  2
AecDbDispRepMassElemPlan100
  3
AecArchBase70|Product Desc: Autodesk Architectural Desktop 2007 |Company: Autodesk,Inc. |WEB Address: www.autodesk.com
 90
      129
 91
        1
280
     0
281
     0
  0
CLASS
  1
AEC_DISP_REP_MASS_ELEM_RCP
  2
AecDbDispRepMassElemRcp
  3
AecArchBase70|Product Desc: Autodesk Architectural Desktop 2007 |Company: Autodesk,Inc. |WEB Address: www.autodesk.com
 90
      129
 91
        1
280
     0
281
     0
  0
CLASS
  1
AEC_DISPREPAECDBDISPREPMASSGROUPPLAN100
  2
AecDbDispRepMassGroupPlan100
  3
AecArchBase70|Product Desc: Autodesk Architectural Desktop 2007 |Company: Autodesk,Inc. |WEB Address: www.autodesk.com
 90
      129
 91
        1
280
     0
281
     0
  0
CLASS
  1
AEC_DISPROPSMASSGROUPPLANCOMMON
  2
AecDbDispPropsMassGroupPlanCommon
  3
AecArchBase70|Product Desc: Autodesk Architectural Desktop 2007 |Company: Autodesk,Inc. |WEB Address: www.autodesk.com
 90
      129
 91
        2
280
     0
281
     0
  0
CLASS
  1
AEC_DISPREPAECDBDISPREPMASSGROUPPLAN50
  2
AecDbDispRepMassGroupPlan50
  3
AecArchBase70|Product Desc: Autodesk Architectural Desktop 2007 |Company: Autodesk,Inc. |WEB Address: www.autodesk.com
 90
      129
 91
        1
280
     0
281
     0
  0
CLASS
  1
AEC_DISP_REP_MASS_GROUP_RCP
  2
AecDbDispRepMassGroupRcp
  3
AecArchBase70|Product Desc: Autodesk Architectural Desktop 2007 |Company: Autodesk,Inc. |WEB Address: www.autodesk.com
 90
      129
 91
        1
280
     0
281
     0
  0
CLASS
  1
AEC_DISP_REP_MVBLOCK_REF_RCP
  2
AecDbDispRepMvBlockRefRcp
  3
AecArchBase70|Product Desc: Autodesk Architectural Desktop 2007 |Company: Autodesk,Inc. |WEB Address: www.autodesk.com
 90
      129
 91
        1
280
     0
281
     0
  0
CLASS
  1
AEC_DISPREPAECDBDISPREPOPENINGPLAN100
  2
AecDbDispRepOpeningPlan100
  3
AecArchBase70|Product Desc: Autodesk Architectural Desktop 2007 |Company: Autodesk,Inc. |WEB Address: www.autodesk.com
 90
      129
 91
        1
280
     0
281
     0
  0
CLASS
  1
AEC_DISPREPAECDBDISPREPOPENINGPLANREFLECTED
  2
AecDbDispRepOpeningPlanReflected
  3
AecArchBase70|Product Desc: Autodesk Architectural Desktop 2007 |Company: Autodesk,Inc. |WEB Address: www.autodesk.com
 90
      129
 91
        1
280
     0
281
     0
  0
CLASS
  1
AEC_DISPROPSOPENINGPLANCOMMON
  2
AecDbDispPropsOpeningPlanCommon
  3
AecArchBase70|Product Desc: Autodesk Architectural Desktop 2007 |Company: Autodesk,Inc. |WEB Address: www.autodesk.com
 90
      129
 91
        1
280
     0
281
     0
  0
CLASS
  1
AEC_DISP_REP_RAILING_PLAN_100
  2
AecDbDispRepRailingPlan100
  3
AecArchBase70|Product Desc: Autodesk Architectural Desktop 2007 |Company: Autodesk,Inc. |WEB Address: www.autodesk.com
 90
      129
 91
        1
280
     0
281
     0
  0
CLASS
  1
AEC_DISP_ROPS_RAILING_PLAN_100
  2
AecDbDispPropsRailingPlan100
  3
AecArchBase70|Product Desc: Autodesk Architectural Desktop 2007 |Company: Autodesk,Inc. |WEB Address: www.autodesk.com
 90
      129
 91
        1
280
     0
281
     0
  0
CLASS
  1
AEC_DISP_REP_RAILING_PLAN_50
  2
AecDbDispRepRailingPlan50
  3
AecArchBase70|Product Desc: Autodesk Architectural Desktop 2007 |Company: Autodesk,Inc. |WEB Address: www.autodesk.com
 90
      129
 91
        1
280
     0
281
     0
  0
CLASS
  1
AEC_DISP_ROPS_RAILING_PLAN_50
  2
AecDbDispPropsRailingPlan50
  3
AecArchBase70|Product Desc: Autodesk Architectural Desktop 2007 |Company: Autodesk,Inc. |WEB Address: www.autodesk.com
 90
      129
 91
        1
280
     0
281
     0
  0
CLASS
  1
AEC_DISP_REP_ROOF_RCP
  2
AecDbDispRepRoofRcp
  3
AecArchBase70|Product Desc: Autodesk Architectural Desktop 2007 |Company: Autodesk,Inc. |WEB Address: www.autodesk.com
 90
      129
 91
        1
280
     0
281
     0
  0
CLASS
  1
AEC_DISP_REP_SPACE_RCP
  2
AecDbDispRepSpaceRcp
  3
AecArchBase70|Product Desc: Autodesk Architectural Desktop 2007 |Company: Autodesk,Inc. |WEB Address: www.autodesk.com
 90
      129
 91
        1
280
     0
281
     0
  0
CLASS
  1
AEC_DISP_REP_STAIR_PLAN_100
  2
AecDbDispRepStairPlan100
  3
AecArchBase70|Product Desc: Autodesk Architectural Desktop 2007 |Company: Autodesk,Inc. |WEB Address: www.autodesk.com
 90
      129
 91
        1
280
     0
281
     0
  0
CLASS
  1
AEC_DISP_ROPS_STAIR_PLAN_100
  2
AecDbDispPropsStairPlan100
  3
AecArchBase70|Product Desc: Autodesk Architectural Desktop 2007 |Company: Autodesk,Inc. |WEB Address: www.autodesk.com
 90
      129
 91
        1
280
     0
281
     0
  0
CLASS
  1
AEC_DISP_REP_STAIR_PLAN_50
  2
AecDbDispRepStairPlan50
  3
AecArchBase70|Product Desc: Autodesk Architectural Desktop 2007 |Company: Autodesk,Inc. |WEB Address: www.autodesk.com
 90
      129
 91
        1
280
     0
281
     0
  0
CLASS
  1
AEC_DISP_ROPS_STAIR_PLAN_50
  2
AecDbDispPropsStairPlan50
  3
AecArchBase70|Product Desc: Autodesk Architectural Desktop 2007 |Company: Autodesk,Inc. |WEB Address: www.autodesk.com
 90
      129
 91
        1
280
     0
281
     0
  0
CLASS
  1
AEC_DISP_REP_STAIR_PLAN_OVERLAPPING
  2
AecDbDispRepStairPlanOverlapping
  3
AecArchBase70|Product Desc: Autodesk Architectural Desktop 2007 |Company: Autodesk,Inc. |WEB Address: www.autodesk.com
 90
      129
 91
        1
280
     0
281
     0
  0
CLASS
  1
AEC_DISP_PROPS_STAIR_PLAN_OVERLAPPING
  2
AecDbDispPropsStairPlanOverlapping
  3
AecArchBase70|Product Desc: Autodesk Architectural Desktop 2007 |Company: Autodesk,Inc. |WEB Address: www.autodesk.com
 90
      129
 91
        1
280
     0
281
     0
  0
CLASS
  1
AEC_DISP_REP_STAIR_RCP
  2
AecDbDispRepStairRcp
  3
AecArchBase70|Product Desc: Autodesk Architectural Desktop 2007 |Company: Autodesk,Inc. |WEB Address: www.autodesk.com
 90
      129
 91
        1
280
     0
281
     0
  0
CLASS
  1
AEC_DISP_REP_WALL_RCP
  2
AecDbDispRepWallRcp
  3
AecArchBase70|Product Desc: Autodesk Architectural Desktop 2007 |Company: Autodesk,Inc. |WEB Address: www.autodesk.com
 90
      129
 91
        1
280
     0
281
     0
  0
CLASS
  1
AEC_DISP_REP_WINDOW_PLAN_100
  2
AecDbDispRepWindowPlan100
  3
AecArchBase70|Product Desc: Autodesk Architectural Desktop 2007 |Company: Autodesk,Inc. |WEB Address: www.autodesk.com
 90
      129
 91
        1
280
     0
281
     0
  0
CLASS
  1
AEC_DISP_PROPS_WINDOW_PLAN_100
  2
AecDbDispPropsWindowPlan100
  3
AecArchBase70|Product Desc: Autodesk Architectural Desktop 2007 |Company: Autodesk,Inc. |WEB Address: www.autodesk.com
 90
      129
 91
        1
280
     0
281
     0
  0
CLASS
  1
AEC_DISP_REP_WINDOW_PLAN_50
  2
AecDbDispRepWindowPlan50
  3
AecArchBase70|Product Desc: Autodesk Architectural Desktop 2007 |Company: Autodesk,Inc. |WEB Address: www.autodesk.com
 90
      129
 91
        1
280
     0
281
     0
  0
CLASS
  1
AEC_DISP_PROPS_WINDOW_PLAN_50
  2
AecDbDispPropsWindowPlan50
  3
AecArchBase70|Product Desc: Autodesk Architectural Desktop 2007 |Company: Autodesk,Inc. |WEB Address: www.autodesk.com
 90
      129
 91
        1
280
     0
281
     0
  0
CLASS
  1
AEC_DISP_REP_WINDOW_RCP
  2
AecDbDispRepWindowRcp
  3
AecArchBase70|Product Desc: Autodesk Architectural Desktop 2007 |Company: Autodesk,Inc. |WEB Address: www.autodesk.com
 90
      129
 91
        1
280
     0
281
     0
  0
CLASS
  1
AECS_DISP_REP_MEMBER_ELEVATION_DESIGN
  2
AecsDbDispRepMemberElevationDesign
  3
AecArchBase70|Product Desc: Autodesk Architectural Desktop 2007 |Company: Autodesk,Inc. |WEB Address: www.autodesk.com
 90
      129
 91
        1
280
     0
281
     0
  0
CLASS
  1
AECS_DISP_PROPS_MEMBER_PROJECTED
  2
AecsDbDispPropsMemberProjected
  3
AecArchBase70|Product Desc: Autodesk Architectural Desktop 2007 |Company: Autodesk,Inc. |WEB Address: www.autodesk.com
 90
      129
 91
        2
280
     0
281
     0
  0
CLASS
  1
AECS_DISP_REP_MEMBER_ELEVATION_DETAIL
  2
AecsDbDispRepMemberElevationDetail
  3
AecArchBase70|Product Desc: Autodesk Architectural Desktop 2007 |Company: Autodesk,Inc. |WEB Address: www.autodesk.com
 90
      129
 91
        1
280
     0
281
     0
  0
CLASS
  1
AECS_DISP_REP_MEMBER_MODEL_DETAIL
  2
AecsDbDispRepMemberModelDetail
  3
AecArchBase70|Product Desc: Autodesk Architectural Desktop 2007 |Company: Autodesk,Inc. |WEB Address: www.autodesk.com
 90
      129
 91
        1
280
     0
281
     0
  0
CLASS
  1
AECS_DISP_REP_MEMBER_PLAN_DETAIL
  2
AecsDbDispRepMemberPlanDetail
  3
AecArchBase70|Product Desc: Autodesk Architectural Desktop 2007 |Company: Autodesk,Inc. |WEB Address: www.autodesk.com
 90
      129
 91
        1
280
     0
281
     0
  0
CLASS
  1
AECS_DISP_REP_MEMBER_PLAN_SKETCH
  2
AecsDbDispRepMemberPlanSketch
  3
AecArchBase70|Product Desc: Autodesk Architectural Desktop 2007 |Company: Autodesk,Inc. |WEB Address: www.autodesk.com
 90
      129
 91
        1
280
     0
281
     0
  0
CLASS
  1
AECS_DISP_PROPS_MEMBER_PLAN_SKETCH
  2
AecsDbDispPropsMemberPlanSketch
  3
AecArchBase70|Product Desc: Autodesk Architectural Desktop 2007 |Company: Autodesk,Inc. |WEB Address: www.autodesk.com
 90
      129
 91
        1
280
     0
281
     0
  0
CLASS
  1
BINRECORD
  2
AcAecBinRecord
  3
AecBase70|Product Desc: Autodesk Architectural Desktop 2007 |Company: Autodesk,Inc. |WEB Address: www.autodesk.com
 90
      129
 91
        1
280
     0
281
     0
  0
CLASS
  1
CELLSTYLEMAP
  2
AcDbCellStyleMap
  3
ObjectDBX Classes
 90
     1152
 91
        1
280
     0
281
     0
  0
ENDSEC
  0
SECTION
  2
TABLES
  0
TABLE
  2
VPORT
  5
8
330
0
100
AcDbSymbolTable
 70
     1
  0
VPORT
  5
57
330
8
100
AcDbSymbolTableRecord
100
AcDbViewportTableRecord
  2
*Active
 70
     0
 10
0.0
 20
0.0
 11
1.0
 21
1.0
 12
-25.02216326076794
 22
-10.65362923872834
 13
0.0
 23
0.0
 14
1.0
 24
1.0
 15
0.0
 25
0.0
 16
0.0
 26
0.0
 36
1.0
 17
0.0
 27
0.0
 37
0.0
 40
88.09622378525778
 41
2.409698996655518
 42
50.0
 43
0.0
 44
0.0
 50
0.0
 51
0.0
 71
     0
 72
  1000
 73
     1
 74
     1
 75
     0
 76
     0
 77
     0
 78
     0
281
     0
 65
     1
110
0.0
120
0.0
130
0.0
111
1.0
121
0.0
131
0.0
112
0.0
122
1.0
132
0.0
 79
     0
146
0.0
348
2F
 60
     3
 61
     5
292
     1
282
     1
141
0.0
142
0.0
 63
   250
421
  3355443
1001
ACAD_NAV_VCDISPLAY
1070
     3
  0
ENDTAB
  0
TABLE
  2
LTYPE
  5
5
330
0
100
AcDbSymbolTable
 70
     5
  0
LTYPE
  5
5B
330
5
100
AcDbSymbolTableRecord
100
AcDbLinetypeTableRecord
  2
ByBlock
 70
     0
  3

 72
    65
 73
     0
 40
0.0
  0
LTYPE
  5
5C
330
5
100
AcDbSymbolTableRecord
100
AcDbLinetypeTableRecord
  2
ByLayer
 70
     0
  3

 72
    65
 73
     0
 40
0.0
  0
LTYPE
  5
5D
330
5
100
AcDbSymbolTableRecord
100
AcDbLinetypeTableRecord
  2
Continuous
 70
     0
  3
Solid line
 72
    65
 73
     0
 40
0.0
  0
LTYPE
  5
26B
330
5
100
AcDbSymbolTableRecord
100
AcDbLinetypeTableRecord
  2
HIDDEN2
 70
     0
  3
Hidden (.5x) _ _ _ _ _ _ _ _ _ _ _ _ _ _ _ _ _
 72
    65
 73
     2
 40
0.1875
 49
0.125
 74
     0
 49
-0.0625
 74
     0
  0
LTYPE
  5
26C
330
5
100
AcDbSymbolTableRecord
100
AcDbLinetypeTableRecord
  2
PHANTOM2
 70
     0
  3
Phantom (.5x) ___ _ _ ___ _ _ ___ _ _ ___ _ _
 72
    65
 73
     6
 40
1.25
 49
0.625
 74
     0
 49
-0.125
 74
     0
 49
0.125
 74
     0
 49
-0.125
 74
     0
 49
0.125
 74
     0
 49
-0.125
 74
     0
  0
LTYPE
  5
26D
330
5
100
AcDbSymbolTableRecord
100
AcDbLinetypeTableRecord
  2
CENTER2
 70
     0
  3
Center (.5x) ___ _ ___ _ ___ _ ___ _ ___ _ ___
 72
    65
 73
     4
 40
1.125
 49
0.75
 74
     0
 49
-0.125
 74
     0
 49
0.125
 74
     0
 49
-0.125
 74
     0
  0
LTYPE
  5
26E
330
5
100
AcDbSymbolTableRecord
100
AcDbLinetypeTableRecord
  2
DASHED
 70
     0
  3
Dashed __ __ __ __ __ __ __ __ __ __ __ __ __ _
 72
    65
 73
     2
 40
0.75
 49
0.5
 74
     0
 49
-0.25
 74
     0
  0
ENDTAB
  0
TABLE
  2
LAYER
  5
2
102
{ACAD_XDICTIONARY
360
27B
102
}
330
0
100
AcDbSymbolTable
 70
     4
  0
LAYER
  5
54
330
2
100
AcDbSymbolTableRecord
100
AcDbLayerTableRecord
  2
0
 70
     0
 62
     7
  6
Continuous
370
    -3
390
F
347
21
348
0
  0
LAYER
  5
86
330
2
100
AcDbSymbolTableRecord
100
AcDbLayerTableRecord
  2
D12015328.415
 70
     0
 62
     7
  6
Continuous
370
     9
390
F
347
21
348
0
  0
LAYER
  5
26F
330
2
100
AcDbSymbolTableRecord
100
AcDbLayerTableRecord
  2
DEFPOINTS
 70
     0
 62
   140
  6
Continuous
290
     0
370
    -3
390
27A
347
21
348
0
  0
ENDTAB
  0
TABLE
  2
STYLE
  5
3
330
0
100
AcDbSymbolTable
 70
     5
  0
STYLE
  5
55
330
3
100
AcDbSymbolTableRecord
100
AcDbTextStyleTableRecord
  2
Standard
 70
     0
 40
0.0
 41
1.0
 50
0.0
 71
     0
 42
0.2
  3
txt
  4

  0
STYLE
  5
270
330
3
100
AcDbSymbolTableRecord
100
AcDbTextStyleTableRecord
  2
Arch-Dim
 70
     0
 40
0.0
 41
0.75
 50
0.0
 71
     0
 42
0.2
  3
romans.shx
  4

  0
STYLE
  5
271
330
3
100
AcDbSymbolTableRecord
100
AcDbTextStyleTableRecord
  2
RomanS
 70
     0
 40
0.0
 41
1.0
 50
0.0
 71
     0
 42
0.09375
  3
romans.shx
  4

  0
ENDTAB
  0
TABLE
  2
VIEW
  5
6
330
0
100
AcDbSymbolTable
 70
     0
  0
ENDTAB
  0
TABLE
  2
UCS
  5
7
330
0
100
AcDbSymbolTable
 70
     0
  0
ENDTAB
  0
TABLE
  2
APPID
  5
9
330
0
100
AcDbSymbolTable
 70
    13
  0
APPID
  5
56
330
9
100
AcDbSymbolTableRecord
100
AcDbRegAppTableRecord
  2
ACAD
 70
     0
  0
APPID
  5
5E
330
9
100
AcDbSymbolTableRecord
100
AcDbRegAppTableRecord
  2
AcadAnnotative
 70
     0
  0
APPID
  5
78
330
9
100
AcDbSymbolTableRecord
100
AcDbRegAppTableRecord
  2
REVIT
 70
     0
  0
APPID
  5
FD
330
9
100
AcDbSymbolTableRecord
100
AcDbRegAppTableRecord
  2
ACAD_EXEMPT_FROM_CAD_STANDARDS
 70
     0
  0
APPID
  5
FF
330
9
100
AcDbSymbolTableRecord
100
AcDbRegAppTableRecord
  2
AEC_XDATA_BOUND_SPACE
 70
     0
  0
APPID
  5
17A
330
9
100
AcDbSymbolTableRecord
100
AcDbRegAppTableRecord
  2
ACAD_NAV_VCDISPLAY
 70
     0
  0
APPID
  5
1F4
330
9
100
AcDbSymbolTableRecord
100
AcDbRegAppTableRecord
  2
ACAUTHENVIRON
 70
     0
  0
APPID
  5
274
330
9
100
AcDbSymbolTableRecord
100
AcDbRegAppTableRecord
  2
AECBASE
 70
     0
  0
APPID
  5
275
330
9
100
AcDbSymbolTableRecord
100
AcDbRegAppTableRecord
  2
ACAD_PSEXT
 70
     0
  0
APPID
  5
276
330
9
100
AcDbSymbolTableRecord
100
AcDbRegAppTableRecord
  2
AEC_OBJVER_INFO
 70
     0
  0
APPID
  5
277
330
9
100
AcDbSymbolTableRecord
100
AcDbRegAppTableRecord
  2
AcadAnnoAV
 70
     0
  0
APPID
  5
278
330
9
100
AcDbSymbolTableRecord
100
AcDbRegAppTableRecord
  2
ACAD_DSTYLE_DIMJAG
 70
     0
  0
APPID
  5
279
330
9
100
AcDbSymbolTableRecord
100
AcDbRegAppTableRecord
  2
ACAD_DSTYLE_DIMTALN
 70
     0
  0
ENDTAB
  0
TABLE
  2
DIMSTYLE
  5
A
330
0
100
AcDbSymbolTable
 70
     5
100
AcDbDimStyleTable
 71
     0
  0
DIMSTYLE
105
58
330
A
100
AcDbSymbolTableRecord
100
AcDbDimStyleTableRecord
  2
Standard
 70
     0
340
55
  0
DIMSTYLE
105
272
330
A
100
AcDbSymbolTableRecord
100
AcDbDimStyleTableRecord
  2
Stairs_I
 70
     0
 40
96.0
 41
0.09375
 43
0.375
 44
0.0625
 73
     0
 77
     1
 78
     3
 79
     2
140
0.09375
141
0.09375
146
0.75
147
0.03125
172
     1
173
     1
174
     1
179
     2
277
     4
279
     2
289
     2
340
270
341
261
343
267
344
261
  0
DIMSTYLE
105
273
330
A
100
AcDbSymbolTableRecord
100
AcDbDimStyleTableRecord
  2
Annotative
 70
     0
 40
0.0
 41
0.03125
 43
0.375
 44
0.0625
 73
     0
 74
     0
 77
     1
 78
     3
 79
     2
140
0.09375
141
0.09375
146
0.75
147
0.03125
174
     1
179
     2
277
     4
279
     2
289
     2
340
270
342
25D
1001
AcadAnnotative
1000
AnnotativeData
1002
{
1070
     1
1070
     1
1002
}
1001
ACAD_DSTYLE_DIMJAG
1070
   388
1040
1.5
1001
ACAD_DSTYLE_DIMTALN
1070
   392
1070
     0
  0
ENDTAB
  0
TABLE
  2
BLOCK_RECORD
  5
1
330
0
100
AcDbSymbolTable
 70
    13
  0
BLOCK_RECORD
  5
70
102
{ACAD_XDICTIONARY
360
E9
102
}
330
1
100
AcDbSymbolTableRecord
100
AcDbBlockTableRecord
  2
*Model_Space
340
73
 70
     0
280
     1
281
     0
  0
BLOCK_RECORD
  5
6C
330
1
100
AcDbSymbolTableRecord
100
AcDbBlockTableRecord
  2
*Paper_Space
340
6F
 70
     0
280
     1
281
     0
  0
BLOCK_RECORD
  5
74
330
1
100
AcDbSymbolTableRecord
100
AcDbBlockTableRecord
  2
*Paper_Space0
340
77
 70
     0
280
     1
281
     0
  0
BLOCK_RECORD
  5
87
330
1
100
AcDbSymbolTableRecord
100
AcDbBlockTableRecord
  2
FamilyGeomCombination_37622-Ref_ Level
340
0
102
{BLKREFS
331
107
102
}
 70
     0
280
     1
281
     0
  0
BLOCK_RECORD
  5
8F
330
1
100
AcDbSymbolTableRecord
100
AcDbBlockTableRecord
  2
FamilyGeomCombination_41641-Ref_ Level
340
0
102
{BLKREFS
331
10C
102
}
 70
     0
280
     1
281
     0
  0
BLOCK_RECORD
  5
104
330
1
100
AcDbSymbolTableRecord
100
AcDbBlockTableRecord
  2
DXV_Aqua Moment_D12015328.415_Plan VIew
340
0
310
2800000020000000200000000100080000000000000400000000000000000000000000000000000000000000000080000080000000808000800000008000800080800000C0C0C000C0DCC000F0CAA6000020400000206000002080000020A0000020C0000020E00000400000004020000040400000406000004080000040A0
310
000040C0000040E00000600000006020000060400000606000006080000060A0000060C0000060E00000800000008020000080400000806000008080000080A0000080C0000080E00000A0000000A0200000A0400000A0600000A0800000A0A00000A0C00000A0E00000C0000000C0200000C0400000C0600000C0800000C0
310
A00000C0C00000C0E00000E0000000E0200000E0400000E0600000E0800000E0A00000E0C00000E0E00040000000400020004000400040006000400080004000A0004000C0004000E00040200000402020004020400040206000402080004020A0004020C0004020E000404000004040200040404000404060004040800040
310
40A0004040C0004040E00040600000406020004060400040606000406080004060A0004060C0004060E00040800000408020004080400040806000408080004080A0004080C0004080E00040A0000040A0200040A0400040A0600040A0800040A0A00040A0C00040A0E00040C0000040C0200040C0400040C0600040C08000
310
40C0A00040C0C00040C0E00040E0000040E0200040E0400040E0600040E0800040E0A00040E0C00040E0E00080000000800020008000400080006000800080008000A0008000C0008000E00080200000802020008020400080206000802080008020A0008020C0008020E00080400000804020008040400080406000804080
310
008040A0008040C0008040E00080600000806020008060400080606000806080008060A0008060C0008060E00080800000808020008080400080806000808080008080A0008080C0008080E00080A0000080A0200080A0400080A0600080A0800080A0A00080A0C00080A0E00080C0000080C0200080C0400080C0600080C0
310
800080C0A00080C0C00080C0E00080E0000080E0200080E0400080E0600080E0800080E0A00080E0C00080E0E000C0000000C0002000C0004000C0006000C0008000C000A000C000C000C000E000C0200000C0202000C0204000C0206000C0208000C020A000C020C000C020E000C0400000C0402000C0404000C0406000C0
310
408000C040A000C040C000C040E000C0600000C0602000C0604000C0606000C0608000C060A000C060C000C060E000C0800000C0802000C0804000C0806000C0808000C080A000C080C000C080E000C0A00000C0A02000C0A04000C0A06000C0A08000C0A0A000C0A0C000C0A0E000C0C00000C0C02000C0C04000C0C06000
310
C0C08000C0C0A000F0FBFF00A4A0A000808080000000FF0000FF000000FFFF00FF000000FF00FF00FFFF0000FFFFFF0049494949494949494949494949494949494949494949494949494949494949494949494949494949494949494949494949494949494949494949494949494949494949494949494949494949494949
310
49494949494949494949494949494949494949494949494949494949494949494949494949494949494949494949494949494949494949494949494949494949494949494949494949494949494949494949494949494949494949494949494949494949494949494949494949494949494949494949494949494949494949
310
4949494949494949494949494949494949494949494949494949494949494949494949494949494949494949494949494949494949494949494949494949494949494949494949494949494949494949494949FDFDFDFDFDFDFDFDFDFDFDFDFDFDFDFDFDFDFDFDFDFDFDFDFDFDFDFDFDFD4949FD49FDFDFDFDFDFDFDFDFDFD
310
FDFDFDFDFDFDFDFDFDFDFDFDFDFDFD4949FD4949FD49FDFDFDFDFDFDFDFDFDFDFDFDFDFDFDFDFDFDFDFDFD494949FDFDFDFD4949FD49FDFD494949494949494949494949494949494949FDFD494949FDFDFD4949FD49FDFD49494949494949494949494949494949494949FD494949FDFDFD4949FD49FDFD49494949494949
310
494949494949494949494949FD494949FD49FD4949FD49FDFDFDFD4949494949494949494949494949494949FD494949FD49FD4949FD49FDFDFDFD4949494949494949494949494949494949FD494949FD49FD4949FD49FDFD49494949494949494949494949494949494949FD494949FD49FD4949FD49FDFD494949494949
310
49494949494949494949494949FD494949FDFDFD4949FD49FDFD494949494949494949494949494949494949FDFD494949FDFDFD4949FD49FDFDFDFDFDFDFDFDFDFDFDFDFDFDFDFDFDFDFDFDFD494949FDFDFDFD4949FD49FDFDFDFDFDFDFDFDFDFDFDFDFDFDFDFDFDFDFDFDFDFDFDFDFD4949FD4949FDFDFDFDFDFDFDFDFD
310
FDFDFDFDFDFDFDFDFDFDFDFDFDFDFDFDFDFDFDFDFD49494949494949494949494949494949494949494949494949494949494949494949494949494949494949494949494949494949494949494949494949494949494949494949494949494949494949494949494949494949494949494949494949494949494949494949
310
49494949494949494949494949494949494949494949494949494949494949494949494949494949494949494949494949494949494949494949494949494949494949494949494949494949494949494949494949494949494949494949494949494949494949494949494949494949494949494949494949494949494949
310
4949494949494949494949494949494949494949494949494949494949494949494949494949494949494949494949494949494949494949
102
{BLKREFS
331
14F
102
}
 70
     1
280
     1
281
     1
  0
BLOCK_RECORD
  5
150
330
1
100
AcDbSymbolTableRecord
100
AcDbBlockTableRecord
  2
DXV_Aqua Moment_D12015328.415_Front View
340
0
310
2800000020000000200000000100080000000000000400000000000000000000000000000000000000000000000080000080000000808000800000008000800080800000C0C0C000C0DCC000F0CAA6000020400000206000002080000020A0000020C0000020E00000400000004020000040400000406000004080000040A0
310
000040C0000040E00000600000006020000060400000606000006080000060A0000060C0000060E00000800000008020000080400000806000008080000080A0000080C0000080E00000A0000000A0200000A0400000A0600000A0800000A0A00000A0C00000A0E00000C0000000C0200000C0400000C0600000C0800000C0
310
A00000C0C00000C0E00000E0000000E0200000E0400000E0600000E0800000E0A00000E0C00000E0E00040000000400020004000400040006000400080004000A0004000C0004000E00040200000402020004020400040206000402080004020A0004020C0004020E000404000004040200040404000404060004040800040
310
40A0004040C0004040E00040600000406020004060400040606000406080004060A0004060C0004060E00040800000408020004080400040806000408080004080A0004080C0004080E00040A0000040A0200040A0400040A0600040A0800040A0A00040A0C00040A0E00040C0000040C0200040C0400040C0600040C08000
310
40C0A00040C0C00040C0E00040E0000040E0200040E0400040E0600040E0800040E0A00040E0C00040E0E00080000000800020008000400080006000800080008000A0008000C0008000E00080200000802020008020400080206000802080008020A0008020C0008020E00080400000804020008040400080406000804080
310
008040A0008040C0008040E00080600000806020008060400080606000806080008060A0008060C0008060E00080800000808020008080400080806000808080008080A0008080C0008080E00080A0000080A0200080A0400080A0600080A0800080A0A00080A0C00080A0E00080C0000080C0200080C0400080C0600080C0
310
800080C0A00080C0C00080C0E00080E0000080E0200080E0400080E0600080E0800080E0A00080E0C00080E0E000C0000000C0002000C0004000C0006000C0008000C000A000C000C000C000E000C0200000C0202000C0204000C0206000C0208000C020A000C020C000C020E000C0400000C0402000C0404000C0406000C0
310
408000C040A000C040C000C040E000C0600000C0602000C0604000C0606000C0608000C060A000C060C000C060E000C0800000C0802000C0804000C0806000C0808000C080A000C080C000C080E000C0A00000C0A02000C0A04000C0A06000C0A08000C0A0A000C0A0C000C0A0E000C0C00000C0C02000C0C04000C0C06000
310
C0C08000C0C0A000F0FBFF00A4A0A000808080000000FF0000FF000000FFFF00FF000000FF00FF00FFFF0000FFFFFF0049494949494949494949494949494949494949494949494949494949494949494949494949494949494949494949494949494949494949494949494949494949494949494949494949494949494949
310
49494949494949494949494949494949494949494949494949494949494949494949494949494949494949494949494949494949494949494949494949494949494949494949494949494949494949494949494949494949494949494949494949494949494949494949494949494949494949494949494949494949494949
310
49494949494949494949494949494949494949494949494949494949494949494949494949494949494949494949494949494949494949494949494949494949494949494949494949494949494949494949494949494949494949494949494949494949494949494949494949494949494949494949494949494949494949
310
4949494949494949494949494949494949494949494949FDFDFDFDFDFDFDFDFDFDFDFDFDFDFDFDFDFDFDFDFD4949494949494949494949FD49494949494949494949494949494949494949FD4949494949494949494949FD4949494949494949494949494949494949494949FD494949494949494949FD4949494949494949
310
49494949494949494949494949FD494949494949494949FD49494949494949494949494949494949494949494949FD4949494949494949FD49494949494949494949494949494949494949494949FD4949494949494949FD49494949494949494949494949494949494949494949FDFD49494949494949FD49494949494949
310
49494949494949494949494949494949FDFD49494949FDFDFDFDFDFDFDFDFDFDFDFDFDFDFDFDFDFDFDFDFDFDFDFDFDFDFDFDFDFD4949494949494949494949494949494949494949494949494949494949FDFDFD49494949494949494949494949494949494949494949494949494949494949494949494949494949494949
310
49494949494949494949494949494949494949494949494949494949494949494949494949494949494949494949494949494949494949494949494949494949494949494949494949494949494949494949494949494949494949494949494949494949494949494949494949494949494949494949494949494949494949
310
49494949494949494949494949494949494949494949494949494949494949494949494949494949494949494949494949494949494949494949494949494949494949494949494949494949494949494949494949494949494949494949494949494949494949494949494949494949494949494949494949494949494949
310
4949494949494949494949494949494949494949494949494949494949494949494949494949494949494949494949494949494949494949
102
{BLKREFS
331
183
102
}
 70
     1
280
     1
281
     1
  0
BLOCK_RECORD
  5
184
102
{ACAD_XDICTIONARY
360
185
102
}
330
1
100
AcDbSymbolTableRecord
100
AcDbBlockTableRecord
  2
DXV_Aqua Moment_D12015328.415_Side View
340
0
310
2800000020000000200000000100080000000000000400000000000000000000000000000000000000000000000080000080000000808000800000008000800080800000C0C0C000C0DCC000F0CAA6000020400000206000002080000020A0000020C0000020E00000400000004020000040400000406000004080000040A0
310
000040C0000040E00000600000006020000060400000606000006080000060A0000060C0000060E00000800000008020000080400000806000008080000080A0000080C0000080E00000A0000000A0200000A0400000A0600000A0800000A0A00000A0C00000A0E00000C0000000C0200000C0400000C0600000C0800000C0
310
A00000C0C00000C0E00000E0000000E0200000E0400000E0600000E0800000E0A00000E0C00000E0E00040000000400020004000400040006000400080004000A0004000C0004000E00040200000402020004020400040206000402080004020A0004020C0004020E000404000004040200040404000404060004040800040
310
40A0004040C0004040E00040600000406020004060400040606000406080004060A0004060C0004060E00040800000408020004080400040806000408080004080A0004080C0004080E00040A0000040A0200040A0400040A0600040A0800040A0A00040A0C00040A0E00040C0000040C0200040C0400040C0600040C08000
310
40C0A00040C0C00040C0E00040E0000040E0200040E0400040E0600040E0800040E0A00040E0C00040E0E00080000000800020008000400080006000800080008000A0008000C0008000E00080200000802020008020400080206000802080008020A0008020C0008020E00080400000804020008040400080406000804080
310
008040A0008040C0008040E00080600000806020008060400080606000806080008060A0008060C0008060E00080800000808020008080400080806000808080008080A0008080C0008080E00080A0000080A0200080A0400080A0600080A0800080A0A00080A0C00080A0E00080C0000080C0200080C0400080C0600080C0
310
800080C0A00080C0C00080C0E00080E0000080E0200080E0400080E0600080E0800080E0A00080E0C00080E0E000C0000000C0002000C0004000C0006000C0008000C000A000C000C000C000E000C0200000C0202000C0204000C0206000C0208000C020A000C020C000C020E000C0400000C0402000C0404000C0406000C0
310
408000C040A000C040C000C040E000C0600000C0602000C0604000C0606000C0608000C060A000C060C000C060E000C0800000C0802000C0804000C0806000C0808000C080A000C080C000C080E000C0A00000C0A02000C0A04000C0A06000C0A08000C0A0A000C0A0C000C0A0E000C0C00000C0C02000C0C04000C0C06000
310
C0C08000C0C0A000F0FBFF00A4A0A000808080000000FF0000FF000000FFFF00FF000000FF00FF00FFFF0000FFFFFF0049494949494949494949494949494949494949494949494949494949494949494949494949494949494949494949494949494949494949494949494949494949494949494949494949494949494949
310
4949494949494949494949494949494949494949494949494949494949494949494949494949494949494949494949494949494949494949494949494949494949494949494949494949494949494949494949494949494949494949494949494949494949494949494949494949494949494949494949FDFDFDFDFDFDFDFD
310
FDF9F9FDFDFDFDFDFDFDFDFD494949494949494949494949FD494949494949494949494949494949494949FD494949494949494949494949FD494949494949494949494949494949494949FD494949494949494949494949FD494949494949494949494949494949494949FD494949494949494949494949FD494949494949
310
494949494949494949494949FDFD49494949494949494949FDFD494949494949494949494949494949494949FDFD49494949494949494949FDFD494949494949494949494949494949494949FDFD49494949494949494949FDFD49494949494949494949494949494949494949FD49494949494949494949FD494949494949
310
4949494949494949494949494949FD49494949494949494949FD4949494949494949494949494949494949494949FD49494949494949494949FD4949494949494949494949494949494949494949FD49494949494949494949FD4949494949494949494949494949494949494949FD49494949494949494949FD4949494949
310
494949494949494949494949494949FDFD4949494949494949FDFD4949494949494949494949494949494949494949FDFD4949494949494949FDFD4949494949494949494949494949494949494949FDFD4949494949494949FDFD4949494949494949494949494949494949494949FDFD4949494949FDFDFDFDFDFDFDFDFD
310
FDFDFDFDFDFDFDFDFDFDFDFDFDFDFDFDFDFDFDFDFD49494949494949FD49FDFDFDFDFDFDFDFDFDFDFDFDFDFDFDFD49FD494949494949494949494949FD494949494949494949494949494949494949FD494949494949494949494949FDFDFDFDFDFDFDFDFDFDFDFDFDFDFDFDFDFDFDFD494949494949494949494949494949
310
49494949494949494949494949494949494949494949494949494949494949494949494949494949494949494949494949494949494949494949494949494949494949494949494949494949494949494949494949494949494949494949494949494949494949494949494949494949494949494949494949494949494949
310
4949494949494949494949494949494949494949494949494949494949494949494949494949494949494949494949494949494949494949
102
{BLKREFS
331
1BF
102
}
 70
     1
280
     1
281
     1
  0
BLOCK_RECORD
  5
25D
330
1
100
AcDbSymbolTableRecord
100
AcDbBlockTableRecord
  2
_ArchTick
340
0
 70
     0
280
     1
281
     0
  0
BLOCK_RECORD
  5
261
330
1
100
AcDbSymbolTableRecord
100
AcDbBlockTableRecord
  2
_Open90
340
0
 70
     0
280
     1
281
     0
  0
BLOCK_RECORD
  5
267
330
1
100
AcDbSymbolTableRecord
100
AcDbBlockTableRecord
  2
_Small
340
0
 70
     0
280
     1
281
     0
  0
ENDTAB
  0
ENDSEC
  0
SECTION
  2
BLOCKS
  0
BLOCK
  5
71
330
70
100
AcDbEntity
  8
0
100
AcDbBlockBegin
  2
*Model_Space
 70
     0
 10
0.0
 20
0.0
 30
0.0
  3
*Model_Space
  1

  0
ENDBLK
  5
72
330
70
100
AcDbEntity
  8
0
100
AcDbBlockEnd
  0
BLOCK
  5
6D
330
6C
100
AcDbEntity
 67
     1
  8
0
100
AcDbBlockBegin
  2
*Paper_Space
 70
     0
 10
0.0
 20
0.0
 30
0.0
  3
*Paper_Space
  1

  0
ENDBLK
  5
6E
330
6C
100
AcDbEntity
 67
     1
  8
0
100
AcDbBlockEnd
  0
BLOCK
  5
75
330
74
100
AcDbEntity
 67
     1
  8
0
100
AcDbBlockBegin
  2
*Paper_Space0
 70
     0
 10
0.0
 20
0.0
 30
0.0
  3
*Paper_Space0
  1

  0
ENDBLK
  5
76
330
74
100
AcDbEntity
 67
     1
  8
0
100
AcDbBlockEnd
  0
BLOCK
  5
88
330
87
100
AcDbEntity
  8
0
100
AcDbBlockBegin
  2
FamilyGeomCombination_37622-Ref_ Level
 70
     0
 10
0.0
 20
0.0
 30
0.0
  3
FamilyGeomCombination_37622-Ref_ Level
  1

  0
ENDBLK
  5
89
330
87
100
AcDbEntity
  8
0
100
AcDbBlockEnd
  0
BLOCK
  5
90
330
8F
100
AcDbEntity
  8
0
100
AcDbBlockBegin
  2
FamilyGeomCombination_41641-Ref_ Level
 70
     0
 10
0.0
 20
0.0
 30
0.0
  3
FamilyGeomCombination_41641-Ref_ Level
  1

  0
ENDBLK
  5
91
330
8F
100
AcDbEntity
  8
0
100
AcDbBlockEnd
  0
BLOCK
  5
105
330
104
100
AcDbEntity
  8
0
100
AcDbBlockBegin
  2
DXV_Aqua Moment_D12015328.415_Plan VIew
 70
     0
 10
0.0
 20
0.0
 30
0.0
  3
DXV_Aqua Moment_D12015328.415_Plan VIew
  1

  0
INSERT
  5
107
330
104
100
AcDbEntity
  8
D12015328.415
100
AcDbBlockReference
  2
FamilyGeomCombination_37622-Ref_ Level
 10
25.01308132261698
 20
0.0008191520746035
 30
0.0
1001
REVIT
1002
{
1070
     1
1000
37622
1002
}
1001
AEC_XDATA_BOUND_SPACE
1070
   100
1070
     1
  0
LWPOLYLINE
  5
108
330
104
100
AcDbEntity
  8
0
 62
     8
370
    18
100
AcDbPolyline
 90
       41
 70
   128
 43
0.0
 10
60.76308132261758
 20
16.88363165207439
 10
60.76238766511266
 20
16.91830990281438
 10
60.7603078023019
 20
16.95293267575081
 10
60.75684506152213
 20
16.98744458183279
 10
60.75200498241989
 20
17.02179040937273
 10
60.74579530808929
 20
17.05591521237329
 10
60.73822597268456
 20
17.08976439842925
 10
60.7293090855277
 20
17.12328381606367
 10
60.71905891173593
 20
17.15641984135878
 10
60.70749184940077
 20
17.18911946374275
 10
60.69462640335443
 20
17.2213303707953
 10
60.68048315556612
 20
17.25300103193645
 10
60.66508473221521
 20
17.28408078086442
 10
60.64845576749425
 20
17.31451989661092
 10
60.6306228641995
 20
17.34426968308407
 10
60.61161455117202
 20
17.37328254697183
 10
60.59146123765783
 20
17.40151207388103
 10
60.57019516465933
 20
17.42891310259061
 10
60.54785035335688
 20
17.45544179729986
 10
60.52446255068188
 20
17.48105571775642
 10
60.50006917212949
 20
17.50571388715155
 10
60.47470924190174
 20
17.52937685767436
 10
60.44842333047718
 20
17.55200677361984
 10
60.42125348970671
 20
17.57356743194993
 10
60.39324318553966
 20
17.59402434021067
 10
60.36443722848748
 20
17.61334477171276
 10
60.33488170193648
 20
17.63149781788725
 10
60.30462388842433
 20
17.64845443773271
 10
60.273712193998
 20
17.66418750427462
 10
60.24219607077439
 20
17.6786718479627
 10
60.21012593782763
 20
17.69188429693689
 10
60.17755310052913
 20
17.70380371409734
 10
60.14452966847008
 20
17.71441103091926
 10
60.11110847209714
 20
17.72368927795851
 10
60.07734297819506
 20
17.73162361199907
 10
60.04328720435113
 20
17.73820133979907
 10
60.00899563253867
 20
17.74341193839719
 10
59.97452312195743
 20
17.74724707194719
 10
59.93992482127063
 20
17.74970060505354
 10
59.90525608037874
 20
17.75076861258663
 10
59.89589382261726
 20
17.75081915207471
  0
LWPOLYLINE
  5
109
330
104
100
AcDbEntity
  8
0
 62
     8
370
    18
100
AcDbPolyline
 90
       41
 70
   128
 43
0.0
 10
59.89589382261726
 20
-17.74918084792595
 10
59.93057207335725
 20
-17.74848719042102
 10
59.96519484629368
 20
-17.74640732761025
 10
59.99970675237566
 20
-17.74294458683047
 10
60.03405257991562
 20
-17.73810450772824
 10
60.06817738291617
 20
-17.73189483339765
 10
60.10202656897213
 20
-17.72432549799293
 10
60.13554598660655
 20
-17.71540861083606
 10
60.16868201190166
 20
-17.7051584370443
 10
60.20138163428562
 20
-17.69359137470914
 10
60.23359254133818
 20
-17.6807259286628
 10
60.26526320247931
 20
-17.66658268087448
 10
60.2963429514073
 20
-17.65118425752357
 10
60.3267820671538
 20
-17.63455529280262
 10
60.35653185362697
 20
-17.61672238950785
 10
60.38554471751471
 20
-17.59771407648038
 10
60.4137742444239
 20
-17.57756076296617
 10
60.44117527313348
 20
-17.5562946899677
 10
60.46770396784275
 20
-17.53394987866524
 10
60.49331788829928
 20
-17.51056207599024
 10
60.51797605769444
 20
-17.48616869743784
 10
60.54163902821724
 20
-17.4608087672101
 10
60.56426894416272
 20
-17.43452285578554
 10
60.58582960249281
 20
-17.40735301501507
 10
60.60628651075355
 20
-17.37934271084802
 10
60.62560694225563
 20
-17.35053675379583
 10
60.64375998843014
 20
-17.32098122724484
 10
60.6607166082756
 20
-17.2907234137327
 10
60.67644967481749
 20
-17.25981171930636
 10
60.69093401850558
 20
-17.22829559608276
 10
60.70414646747977
 20
-17.19622546313599
 10
60.71606588464021
 20
-17.16365262583749
 10
60.72667320146213
 20
-17.13062919377843
 10
60.73595144850139
 20
-17.0972079974055
 10
60.74388578254197
 20
-17.06344250350342
 10
60.75046351034195
 20
-17.02938672965949
 10
60.75567410894006
 20
-16.99509515784704
 10
60.75950924249008
 20
-16.96062264726581
 10
60.76196277559642
 20
-16.92602434657899
 10
60.76303078312951
 20
-16.89135560568711
 10
60.76308132261758
 20
-16.88199334792563
  0
LWPOLYLINE
  5
10A
330
104
100
AcDbEntity
  8
0
 62
     8
370
    18
100
AcDbPolyline
 90
       41
 70
   128
 43
0.0
 10
-10.73691867738308
 20
-16.88199334792563
 10
-10.73622501987815
 20
-16.91667159866561
 10
-10.73414515706738
 20
-16.95129437160205
 10
-10.7306824162876
 20
-16.98580627768403
 10
-10.72584233718537
 20
-17.02015210522397
 10
-10.71963266285478
 20
-17.05427690822454
 10
-10.71206332745006
 20
-17.08812609428048
 10
-10.70314644029319
 20
-17.12164551191491
 10
-10.69289626650143
 20
-17.15478153721002
 10
-10.68132920416627
 20
-17.18748115959399
 10
-10.66846375811993
 20
-17.21969206664654
 10
-10.65432051033161
 20
-17.25136272778769
 10
-10.6389220869807
 20
-17.28244247671566
 10
-10.62229312225975
 20
-17.31288159246215
 10
-10.60446021896498
 20
-17.34263137893531
 10
-10.5854519059375
 20
-17.37164424282306
 10
-10.5652985924233
 20
-17.39987376973227
 10
-10.54403251942483
 20
-17.42727479844184
 10
-10.52168770812237
 20
-17.4538034931511
 10
-10.49829990544737
 20
-17.47941741360766
 10
-10.47390652689497
 20
-17.50407558300278
 10
-10.44854659666722
 20
-17.52773855352559
 10
-10.42226068524267
 20
-17.55036846947108
 10
-10.39509084447221
 20
-17.57192912780117
 10
-10.36708054030515
 20
-17.59238603606191
 10
-10.33827458325295
 20
-17.611706467564
 10
-10.30871905670196
 20
-17.62985951373849
 10
-10.27846124318982
 20
-17.64681613358395
 10
-10.24754954876349
 20
-17.66254920012586
 10
-10.21603342553989
 20
-17.67703354381394
 10
-10.18396329259311
 20
-17.69024599278813
 10
-10.15139045529461
 20
-17.70216540994857
 10
-10.11836702323556
 20
-17.7127727267705
 10
-10.08494582686263
 20
-17.72205097380975
 10
-10.05118033296054
 20
-17.72998530785032
 10
-10.01712455911661
 20
-17.73656303565031
 10
-9.982832987304163
 20
-17.74177363424842
 10
-9.948360476722939
 20
-17.74560876779843
 10
-9.913762176036115
 20
-17.74806230090478
 10
-9.879093435144234
 20
-17.74913030843787
 10
-9.869731177382767
 20
-17.74918084792595
  0
LWPOLYLINE
  5
10B
330
104
100
AcDbEntity
  8
0
 62
     8
370
    18
100
AcDbPolyline
 90
       41
 70
   128
 43
0.0
 10
-9.869539985676439
 20
17.75081915207471
 10
-9.904225882045466
 20
17.7501253416368
 10
-9.938856288379554
 20
17.74804502027178
 10
-9.973375803416011
 20
17.74458151605005
 10
-10.00772920329455
 20
17.73974036983952
 10
-10.04186152990369
 20
17.7335293264414
 10
-10.07571817880203
 20
17.7259583222002
 10
-10.10924498657372
 20
17.71703946910761
 10
-10.14238831747831
 20
17.70678703542602
 10
-10.17509514925655
 20
17.69521742286223
 10
-10.20731315795469
 20
17.6823491403283
 10
-10.23899080163161
 20
17.6682027743312
 10
-10.27007740281498
 20
17.65280095603879
 10
-10.30052322957436
 20
17.63616832507479
 10
-10.33027957508168
 20
17.61833149010065
 10
-10.35929883553183
 20
17.59931898624731
 10
-10.38753458629852
 20
17.57916122946519
 10
-10.41494165620384
 20
17.55789046786501
 10
-10.44147619978247
 20
17.53554073012784
 10
-10.46709576742508
 20
17.51214777106637
 10
-10.49175937328866
 20
17.48774901442484
 10
-10.51542756086512
 20
17.4623834930091
 10
-10.53806246610327
 20
17.43609178624241
 10
-10.55962787798327
 20
17.40891595524697
 10
-10.58008929644646
 20
17.38089947555519
 10
-10.59941398758821
 20
17.35208716755804
 10
-10.61757103602505
 20
17.32252512480202
 10
-10.63453139435276
 20
17.29226064024931
 10
-10.65026792961607
 20
17.2613421306191
 10
-10.66475546671547
 20
17.22981905893121
 10
-10.67797082868215
 20
17.19774185537578
 10
-10.68989287375605
 20
17.16516183663573
 10
-10.70050252920831
 20
17.13213112379101
 10
-10.70978282185349
 20
17.09870255893599
 10
-10.71771890520302
 20
17.06492962064339
 10
-10.72429808321649
 20
17.03086633840998
 10
-10.72950983061257
 20
16.99656720622087
 10
-10.7333458097072
 20
16.96208709537082
 10
-10.73579988375212
 20
16.92748116668182
 10
-10.7368681267524
 20
16.89280478225756
 10
-10.73691867738308
 20
16.88344046036807
  0
INSERT
  5
10C
330
104
100
AcDbEntity
  8
0
 62
     8
100
AcDbBlockReference
  2
FamilyGeomCombination_41641-Ref_ Level
 10
25.01308132261698
 20
0.0008191520746035
 30
0.0
1001
REVIT
1002
{
1070
     1
1000
41641
1002
}
1001
AEC_XDATA_BOUND_SPACE
1070
   100
1070
     1
  0
ARC
  5
10D
330
104
100
AcDbEntity
  8
D12015328.415
100
AcDbCircle
 10
-9.869539985676404
 20
16.88344046036805
 30
0.0
 40
0.8673786917063335
100
AcDbArc
 50
89.9999999999998
 51
179.9999999999994
1001
REVIT
1002
{
1070
     1
1000
46632
1002
}
1002
{
1070
     2
1000
-2001160
1002
}
  0
LINE
  5
10E
330
104
100
AcDbEntity
  8
D12015328.415
100
AcDbLine
 10
-10.73691867738274
 20
16.88344046036806
 30
0.0
 11
-10.73691867738274
 21
-16.88199334792562
 31
0.0
1001
REVIT
1002
{
1070
     1
1000
46632
1002
}
1002
{
1070
     2
1000
-2001160
1002
}
  0
ARC
  5
10F
330
104
100
AcDbEntity
  8
D12015328.415
100
AcDbCircle
 10
-9.869731177382746
 20
-16.88199334792563
 30
0.0
 40
0.8671874999999936
100
AcDbArc
 50
179.9999999999987
 51
269.9999999999998
1001
REVIT
1002
{
1070
     1
1000
46632
1002
}
1002
{
1070
     2
1000
-2001160
1002
}
  0
LINE
  5
110
330
104
100
AcDbEntity
  8
D12015328.415
100
AcDbLine
 10
-9.869731177382739
 20
-17.74918084792562
 30
0.0
 11
59.89589382261724
 21
-17.74918084792562
 31
0.0
1001
REVIT
1002
{
1070
     1
1000
46632
1002
}
1002
{
1070
     2
1000
-2001160
1002
}
  0
ARC
  5
111
330
104
100
AcDbEntity
  8
D12015328.415
100
AcDbCircle
 10
59.89589382261724
 20
-16.88199334792562
 30
0.0
 40
0.8671874999999992
100
AcDbArc
 50
269.9999999999994
 51
359.9999999999996
1001
REVIT
1002
{
1070
     1
1000
46632
1002
}
1002
{
1070
     2
1000
-2001160
1002
}
  0
LINE
  5
112
330
104
100
AcDbEntity
  8
D12015328.415
100
AcDbLine
 10
60.76308132261725
 20
-16.88199334792562
 30
0.0
 11
60.76308132261725
 21
16.88363165207438
 31
0.0
1001
REVIT
1002
{
1070
     1
1000
46632
1002
}
1002
{
1070
     2
1000
-2001160
1002
}
  0
ARC
  5
113
330
104
100
AcDbEntity
  8
D12015328.415
100
AcDbCircle
 10
59.89589382261726
 20
16.88363165207439
 30
0.0
 40
0.8671874999999861
100
AcDbArc
 50
359.9999999999984
 51
90.00000000000103
1001
REVIT
1002
{
1070
     1
1000
46632
1002
}
1002
{
1070
     2
1000
-2001160
1002
}
  0
LINE
  5
114
330
104
100
AcDbEntity
  8
D12015328.415
100
AcDbLine
 10
59.89589382261724
 20
17.75081915207438
 30
0.0
 11
-9.869539985676404
 21
17.75081915207438
 31
0.0
1001
REVIT
1002
{
1070
     1
1000
46632
1002
}
1002
{
1070
     2
1000
-2001160
1002
}
  0
LINE
  5
115
330
104
100
AcDbEntity
  8
D12015328.415
100
AcDbLine
 10
-4.359280598323934
 20
13.43377819487619
 30
0.0
 11
53.70149948699235
 21
13.43377819487619
 31
0.0
1001
REVIT
1002
{
1070
     1
1000
43084
1002
}
1002
{
1070
     2
1000
-2001160
1002
}
  0
ARC
  5
116
330
104
100
AcDbEntity
  8
D12015328.415
100
AcDbCircle
 10
53.70149948699235
 20
11.31357898393094
 30
0.0
 40
2.120199210945253
100
AcDbArc
 50
359.9999999999996
 51
90.0
1001
REVIT
1002
{
1070
     1
1000
43085
1002
}
1002
{
1070
     2
1000
-2001160
1002
}
  0
LINE
  5
117
330
104
100
AcDbEntity
  8
D12015328.415
100
AcDbLine
 10
55.8216986979376
 20
11.31357898393094
 30
0.0
 11
55.8216986979376
 21
-11.31200133588594
 31
0.0
1001
REVIT
1002
{
1070
     1
1000
43086
1002
}
1002
{
1070
     2
1000
-2001160
1002
}
  0
ARC
  5
118
330
104
100
AcDbEntity
  8
D12015328.415
100
AcDbCircle
 10
53.70156014309593
 20
-11.31200133588594
 30
0.0
 40
2.120138554841665
100
AcDbArc
 50
269.9999999999996
 51
359.9999999999996
1001
REVIT
1002
{
1070
     1
1000
43087
1002
}
1002
{
1070
     2
1000
-2001160
1002
}
  0
LINE
  5
119
330
104
100
AcDbEntity
  8
D12015328.415
100
AcDbLine
 10
53.70156014309593
 20
-13.43213989072761
 30
0.0
 11
-4.359396180514654
 21
-13.43213989072761
 31
0.0
1001
REVIT
1002
{
1070
     1
1000
43088
1002
}
1002
{
1070
     2
1000
-2001160
1002
}
  0
ARC
  5
11A
330
104
100
AcDbEntity
  8
D12015328.415
100
AcDbCircle
 10
-4.359396180514654
 20
-11.31194067978237
 30
0.0
 40
2.120199210945245
100
AcDbArc
 50
180.0
 51
269.9999999999996
1001
REVIT
1002
{
1070
     1
1000
43089
1002
}
1002
{
1070
     2
1000
-2001160
1002
}
  0
LINE
  5
11B
330
104
100
AcDbEntity
  8
D12015328.415
100
AcDbLine
 10
-6.479595391459898
 20
-11.31194067978237
 30
0.0
 11
-6.479595391459898
 21
11.31346340174023
 31
0.0
1001
REVIT
1002
{
1070
     1
1000
43090
1002
}
1002
{
1070
     2
1000
-2001160
1002
}
  0
ARC
  5
11C
330
104
100
AcDbEntity
  8
D12015328.415
100
AcDbCircle
 10
-4.359280598323934
 20
11.31346340174022
 30
0.0
 40
2.12031479313597
100
AcDbArc
 50
90.0
 51
179.9999999999997
1001
REVIT
1002
{
1070
     1
1000
43091
1002
}
1002
{
1070
     2
1000
-2001160
1002
}
  0
LINE
  5
11D
330
104
100
AcDbEntity
  8
D12015328.415
100
AcDbLine
 10
45.31389414896026
 20
-9.76499080410689
 30
0.0
 11
45.31389414896026
 21
9.765769346509086
 31
0.0
1001
REVIT
1002
{
1070
     1
1000
43117
1002
}
1002
{
1070
     2
1000
-2001160
1002
}
  0
ARC
  5
11E
330
104
100
AcDbEntity
  8
D12015328.415
100
AcDbCircle
 10
44.90459766070665
 20
-9.76499080410689
 30
0.0
 40
0.4092964882536127
100
AcDbArc
 50
270.0
 51
0.0000000000001209
1001
REVIT
1002
{
1070
     1
1000
43122
1002
}
1002
{
1070
     2
1000
-2001160
1002
}
  0
LINE
  5
11F
330
104
100
AcDbEntity
  8
D12015328.415
100
AcDbLine
 10
-3.025949601039592
 20
-10.1742872923605
 30
0.0
 11
44.90459766070665
 21
-10.1742872923605
 31
0.0
1001
REVIT
1002
{
1070
     1
1000
43132
1002
}
1002
{
1070
     2
1000
-2001160
1002
}
  0
ARC
  5
120
330
104
100
AcDbEntity
  8
D12015328.415
100
AcDbCircle
 10
-3.025949601039592
 20
-9.764131042360503
 30
0.0
 40
0.41015625
100
AcDbArc
 50
180.0
 51
269.9999999999996
1001
REVIT
1002
{
1070
     1
1000
43138
1002
}
1002
{
1070
     2
1000
-2001160
1002
}
  0
LINE
  5
121
330
104
100
AcDbEntity
  8
D12015328.415
100
AcDbLine
 10
-3.436105851039592
 20
9.764131042360503
 30
0.0
 11
-3.436105851039592
 21
-9.764131042360503
 31
0.0
1001
REVIT
1002
{
1070
     1
1000
43145
1002
}
1002
{
1070
     2
1000
-2001160
1002
}
  0
ARC
  5
122
330
104
100
AcDbEntity
  8
D12015328.415
100
AcDbCircle
 10
-3.02431129689101
 20
9.764131042360503
 30
0.0
 40
0.4117945541485815
100
AcDbArc
 50
89.9999999999998
 51
180.0000000000001
1001
REVIT
1002
{
1070
     1
1000
43151
1002
}
1002
{
1070
     2
1000
-2001160
1002
}
  0
LINE
  5
123
330
104
100
AcDbEntity
  8
D12015328.415
100
AcDbLine
 10
44.90373789896027
 20
10.17592559650909
 30
0.0
 11
-3.02431129689101
 21
10.17592559650909
 31
0.0
1001
REVIT
1002
{
1070
     1
1000
43158
1002
}
1002
{
1070
     2
1000
-2001160
1002
}
  0
ARC
  5
124
330
104
100
AcDbEntity
  8
D12015328.415
100
AcDbCircle
 10
44.90373789896027
 20
9.765769346509086
 30
0.0
 40
0.4101562500000009
100
AcDbArc
 50
0.0000000000001272
 51
90.00000000000019
1001
REVIT
1002
{
1070
     1
1000
43164
1002
}
1002
{
1070
     2
1000
-2001160
1002
}
  0
ARC
  5
125
330
104
100
AcDbEntity
  8
D12015328.415
100
AcDbCircle
 10
54.14608304535744
 20
2.47159659521892
 30
0.0
 40
9.420571357031706
100
AcDbArc
 50
49.32587669386068
 51
74.61589264411594
1001
REVIT
1002
{
1070
     1
1000
43180
1002
}
1002
{
1070
     2
1000
-2001160
1002
}
  0
ARC
  5
126
330
104
100
AcDbEntity
  8
D12015328.415
100
AcDbCircle
 10
54.14608304535744
 20
-2.469958291070376
 30
0.0
 40
9.420571357031695
100
AcDbArc
 50
285.3841073558838
 51
310.7294567827624
1001
REVIT
1002
{
1070
     1
1000
43186
1002
}
1002
{
1070
     2
1000
-2001160
1002
}
  0
SPLINE
  5
127
330
104
100
AcDbEntity
  8
D12015328.415
100
AcDbSpline
210
0.0
220
0.0
230
1.0
 70
     8
 71
     3
 72
    11
 73
     7
 74
     0
 42
0.000000001
 43
0.0000000001
 40
-1.0
 40
-1.0
 40
-1.0
 40
-1.0
 40
-0.6666666666666666
 40
-0.5
 40
-0.3333333333333333
 40
0.0
 40
0.0
 40
0.0
 40
0.0
 10
56.17793395785901
 20
-11.44236982735552
 30
0.0
 10
56.17866986798859
 20
-11.44303284007177
 30
0.0
 10
56.18740849034788
 20
-11.45131994972783
 30
0.0
 10
56.21891223205738
 20
-11.47607011788662
 30
0.0
 10
56.26299556441328
 20
-11.50572928798107
 30
0.0
 10
56.30885741473656
 20
-11.52926741565736
 30
0.0
 10
56.34681221273137
 20
-11.54260781202855
 30
0.0
1001
REVIT
1002
{
1070
     1
1000
43192
1002
}
1002
{
1070
     2
1000
-2001160
1002
}
  0
ARC
  5
128
330
104
100
AcDbEntity
  8
D12015328.415
100
AcDbCircle
 10
56.51260971230223
 20
11.07253519926288
 30
0.0
 40
0.5000000000000004
100
AcDbArc
 50
74.61589264411573
 51
133.1167624621809
1001
REVIT
1002
{
1070
     1
1000
43199
1002
}
1002
{
1070
     2
1000
-2001160
1002
}
  0
ARC
  5
129
330
104
100
AcDbEntity
  8
D12015328.415
100
AcDbCircle
 10
-58.23279023797283
 20
-0.0377687541615943
 30
0.0
 40
114.9777314815937
100
AcDbArc
 50
354.3074910921379
 51
5.727907887696841
1001
REVIT
1002
{
1070
     1
1000
43288
1002
}
1002
{
1070
     2
1000
-2001160
1002
}
  0
ARC
  5
12A
330
104
100
AcDbEntity
  8
D12015328.415
100
AcDbCircle
 10
-39.76174476436475
 20
-0.0321087498180347
 30
0.0
 40
100.5119136500605
100
AcDbArc
 50
354.5325792808309
 51
5.508531604987407
1001
REVIT
1002
{
1070
     1
1000
43390
1002
}
1002
{
1070
     2
1000
-2001160
1002
}
  0
ELLIPSE
  5
12B
330
104
100
AcDbEntity
  8
D12015328.415
100
AcDbEllipse
 10
21.10053858196062
 20
-10.97890943729539
 30
0.0
 11
1.116576239025024
 21
0.0
 31
0.0
210
0.0
220
0.0
230
1.0
 40
0.1685393258426985
 41
0.0
 42
6.28318530717958
1001
REVIT
1002
{
1070
     1
1000
43457
1002
}
1002
{
1070
     2
1000
-2001160
1002
}
  0
LINE
  5
12C
330
104
100
AcDbEntity
  8
D12015328.415
100
AcDbLine
 10
19.9839623429356
 20
-10.97890943729539
 30
0.0
 11
19.9839623429356
 21
-11.12778284028856
 31
0.0
1001
REVIT
1002
{
1070
     1
1000
43540
1002
}
1002
{
1070
     2
1000
-2001160
1002
}
  0
LINE
  5
12D
330
104
100
AcDbEntity
  8
D12015328.415
100
AcDbLine
 10
22.21711482098565
 20
-10.97890943729539
 30
0.0
 11
22.21711482098565
 21
-11.09035795966631
 31
0.0
1001
REVIT
1002
{
1070
     1
1000
43609
1002
}
1002
{
1070
     2
1000
-2001160
1002
}
  0
ARC
  5
12E
330
104
100
AcDbEntity
  8
D12015328.415
100
AcDbCircle
 10
20.31951788343452
 20
-10.5713271198153
 30
0.0
 40
0.6498003459578494
100
AcDbArc
 50
238.9090609178853
 51
261.0909390821134
1001
REVIT
1002
{
1070
     1
1000
43707
1002
}
1002
{
1070
     2
1000
-2001160
1002
}
  0
ARC
  5
12F
330
104
100
AcDbEntity
  8
D12015328.415
100
AcDbCircle
 10
21.07644703674305
 20
-5.742674690811915
 30
0.0
 40
5.537420014390394
100
AcDbArc
 50
261.0909390821134
 51
266.9090609178406
1001
REVIT
1002
{
1070
     1
1000
43771
1002
}
1002
{
1070
     2
1000
-2001160
1002
}
  0
ARC
  5
130
330
104
100
AcDbEntity
  8
D12015328.415
100
AcDbCircle
 10
22.03712103188787
 20
-10.96861088469934
 30
0.0
 40
0.2173018968550179
100
AcDbArc
 50
304.0742623925015
 51
325.9257376074975
1001
REVIT
1002
{
1070
     1
1000
43862
1002
}
1002
{
1070
     2
1000
-2001160
1002
}
  0
ARC
  5
131
330
104
100
AcDbEntity
  8
D12015328.415
100
AcDbCircle
 10
21.44716866112352
 20
-9.002755618696493
 30
0.0
 40
2.260792840649163
100
AcDbArc
 50
275.6512099476432
 51
288.3487900523536
1001
REVIT
1002
{
1070
     1
1000
43932
1002
}
1002
{
1070
     2
1000
-2001160
1002
}
  0
ARC
  5
132
330
104
100
AcDbEntity
  8
D12015328.415
100
AcDbCircle
 10
21.09726160675826
 20
-5.466673311801458
 30
0.0
 40
5.814145205364869
100
AcDbArc
 50
266.8508989037841
 51
275.6512099476432
1001
REVIT
1002
{
1070
     1
1000
44028
1002
}
1002
{
1070
     2
1000
-2001160
1002
}
  0
CIRCLE
  5
133
330
104
100
AcDbEntity
  8
D12015328.415
100
AcDbCircle
 10
-0.0014188130106163
 20
0.0008191520736079
 30
0.0
 40
1.6724556579403
1001
REVIT
1002
{
1070
     1
1000
44108
1002
}
1002
{
1070
     2
1000
-2001160
1002
}
  0
ELLIPSE
  5
134
330
104
100
AcDbEntity
  8
D12015328.415
100
AcDbEllipse
 10
-5.753032891459895
 20
0.0008191520736111
 30
0.0
 11
0.0000000000000072
 21
0.9999999999999998
 31
0.0
210
0.0
220
0.0
230
1.0
 40
0.1923831217669232
 41
0.0
 42
6.28318530717958
1001
REVIT
1002
{
1070
     1
1000
44183
1002
}
1002
{
1070
     2
1000
-2001160
1002
}
  0
ELLIPSE
  5
135
330
104
100
AcDbEntity
  8
D12015328.415
100
AcDbEllipse
 10
21.10053858196062
 20
10.98054774144394
 30
0.0
 11
1.116576239025024
 21
0.0
 31
0.0
210
0.0
220
0.0
230
1.0
 40
0.1685393258426969
 41
0.0
 42
6.28318530717958
1001
REVIT
1002
{
1070
     1
1000
44494
1002
}
1002
{
1070
     2
1000
-2001160
1002
}
  0
LINE
  5
136
330
104
100
AcDbEntity
  8
D12015328.415
100
AcDbLine
 10
19.9839623429356
 20
10.98054774144394
 30
0.0
 11
19.9839623429356
 21
11.12942114443711
 31
0.0
1001
REVIT
1002
{
1070
     1
1000
44495
1002
}
1002
{
1070
     2
1000
-2001160
1002
}
  0
LINE
  5
137
330
104
100
AcDbEntity
  8
D12015328.415
100
AcDbLine
 10
22.21711482098565
 20
10.98054774144394
 30
0.0
 11
22.21711482098565
 21
11.09199626381485
 31
0.0
1001
REVIT
1002
{
1070
     1
1000
44496
1002
}
1002
{
1070
     2
1000
-2001160
1002
}
  0
ARC
  5
138
330
104
100
AcDbEntity
  8
D12015328.415
100
AcDbCircle
 10
20.31951788343452
 20
10.57296542396384
 30
0.0
 40
0.6498003459578494
100
AcDbArc
 50
98.9090609178862
 51
121.0909390821144
1001
REVIT
1002
{
1070
     1
1000
44497
1002
}
1002
{
1070
     2
1000
-2001160
1002
}
  0
ARC
  5
139
330
104
100
AcDbEntity
  8
D12015328.415
100
AcDbCircle
 10
21.07644703674305
 20
5.744312994960458
 30
0.0
 40
5.537420014390394
100
AcDbArc
 50
93.09093908215899
 51
98.9090609178862
1001
REVIT
1002
{
1070
     1
1000
44498
1002
}
1002
{
1070
     2
1000
-2001160
1002
}
  0
ARC
  5
13A
330
104
100
AcDbEntity
  8
D12015328.415
100
AcDbCircle
 10
22.03712103188787
 20
10.97024918884788
 30
0.0
 40
0.2173018968550179
100
AcDbArc
 50
34.07426239250223
 51
55.92573760749833
1001
REVIT
1002
{
1070
     1
1000
44499
1002
}
1002
{
1070
     2
1000
-2001160
1002
}
  0
ARC
  5
13B
330
104
100
AcDbEntity
  8
D12015328.415
100
AcDbCircle
 10
21.44716866112352
 20
9.004393922845038
 30
0.0
 40
2.260792840649163
100
AcDbArc
 50
71.65120994764598
 51
84.34879005235641
1001
REVIT
1002
{
1070
     1
1000
44500
1002
}
1002
{
1070
     2
1000
-2001160
1002
}
  0
ARC
  5
13C
330
104
100
AcDbEntity
  8
D12015328.415
100
AcDbCircle
 10
21.09726160675826
 20
5.468311615950002
 30
0.0
 40
5.814145205364869
100
AcDbArc
 50
84.34879005235641
 51
93.14910109621569
1001
REVIT
1002
{
1070
     1
1000
44501
1002
}
1002
{
1070
     2
1000
-2001160
1002
}
  0
ELLIPSE
  5
13D
330
104
100
AcDbEntity
  8
D12015328.415
100
AcDbEllipse
 10
1.413038581960631
 20
10.48054774144401
 30
0.0
 11
1.116576239025025
 21
0.0
 31
0.0
210
0.0
220
0.0
230
1.0
 40
0.1685393258426968
 41
0.0
 42
6.28318530717958
1001
REVIT
1002
{
1070
     1
1000
44773
1002
}
1002
{
1070
     2
1000
-2001160
1002
}
  0
LINE
  5
13E
330
104
100
AcDbEntity
  8
D12015328.415
100
AcDbLine
 10
0.2964623429355981
 20
10.48054774144401
 30
0.0
 11
0.2964623429355981
 21
10.62942114443718
 31
0.0
1001
REVIT
1002
{
1070
     1
1000
44774
1002
}
1002
{
1070
     2
1000
-2001160
1002
}
  0
LINE
  5
13F
330
104
100
AcDbEntity
  8
D12015328.415
100
AcDbLine
 10
2.529614820985653
 20
10.48054774144401
 30
0.0
 11
2.529614820985653
 21
10.59199626381493
 31
0.0
1001
REVIT
1002
{
1070
     1
1000
44775
1002
}
1002
{
1070
     2
1000
-2001160
1002
}
  0
ARC
  5
140
330
104
100
AcDbEntity
  8
D12015328.415
100
AcDbCircle
 10
0.6320178834345179
 20
10.07296542396391
 30
0.0
 40
0.649800345957849
100
AcDbArc
 50
98.90906091788597
 51
121.0909390821146
1001
REVIT
1002
{
1070
     1
1000
44776
1002
}
1002
{
1070
     2
1000
-2001160
1002
}
  0
ARC
  5
141
330
104
100
AcDbEntity
  8
D12015328.415
100
AcDbCircle
 10
1.388947036743051
 20
5.244312994960519
 30
0.0
 40
5.537420014390392
100
AcDbArc
 50
93.09093908216063
 51
98.9090609178862
1001
REVIT
1002
{
1070
     1
1000
44777
1002
}
1002
{
1070
     2
1000
-2001160
1002
}
  0
ARC
  5
142
330
104
100
AcDbEntity
  8
D12015328.415
100
AcDbCircle
 10
2.349621031887874
 20
10.47024918884796
 30
0.0
 40
0.2173018968550168
100
AcDbArc
 50
34.07426239250227
 51
55.92573760749663
1001
REVIT
1002
{
1070
     1
1000
44778
1002
}
1002
{
1070
     2
1000
-2001160
1002
}
  0
ARC
  5
143
330
104
100
AcDbEntity
  8
D12015328.415
100
AcDbCircle
 10
1.759668661123527
 20
8.504393922845109
 30
0.0
 40
2.260792840649164
100
AcDbArc
 50
71.65120994764598
 51
84.34879005235661
1001
REVIT
1002
{
1070
     1
1000
44779
1002
}
1002
{
1070
     2
1000
-2001160
1002
}
  0
ARC
  5
144
330
104
100
AcDbEntity
  8
D12015328.415
100
AcDbCircle
 10
1.409761606758266
 20
4.968311615950062
 30
0.0
 40
5.814145205364868
100
AcDbArc
 50
84.34879005235641
 51
93.14910109621733
1001
REVIT
1002
{
1070
     1
1000
44780
1002
}
1002
{
1070
     2
1000
-2001160
1002
}
  0
LINE
  5
145
330
104
100
AcDbEntity
  8
D12015328.415
100
AcDbLine
 10
-5.753032891459888
 20
1.00081915207361
 30
0.0
 11
-5.934145724848949
 21
1.000819152073611
 31
0.0
1001
REVIT
1002
{
1070
     1
1000
45080
1002
}
1002
{
1070
     2
1000
-2001160
1002
}
  0
ARC
  5
146
330
104
100
AcDbEntity
  8
D12015328.415
100
AcDbCircle
 10
-4.110283112039144
 20
0.3944030247230482
 30
0.0
 40
1.922034169809752
100
AcDbArc
 50
161.6085483348353
 51
174.3914516651628
1001
REVIT
1002
{
1070
     1
1000
45222
1002
}
1002
{
1070
     2
1000
-2001160
1002
}
  0
ARC
  5
147
330
104
100
AcDbEntity
  8
D12015328.415
100
AcDbCircle
 10
-0.3843117411000882
 20
0.0285070827332538
 30
0.0
 40
5.665928198414469
100
AcDbArc
 50
174.3914516651628
 51
185.608548334832
1001
REVIT
1002
{
1070
     1
1000
45381
1002
}
1002
{
1070
     2
1000
-2001160
1002
}
  0
LINE
  5
148
330
104
100
AcDbEntity
  8
D12015328.415
100
AcDbLine
 10
-5.753032891459895
 20
-0.9991808479263886
 30
0.0
 11
-5.928119464428721
 21
-0.999180847926388
 31
0.0
1001
REVIT
1002
{
1070
     1
1000
45550
1002
}
1002
{
1070
     2
1000
-2001160
1002
}
  0
ARC
  5
149
330
104
100
AcDbEntity
  8
D12015328.415
100
AcDbCircle
 10
-3.612057271622227
 20
-0.2884623391480359
 30
0.0
 40
2.422656574850789
100
AcDbArc
 50
185.6085483348315
 51
197.0594191318657
1001
REVIT
1002
{
1070
     1
1000
45691
1002
}
1002
{
1070
     2
1000
-2001160
1002
}
  0
LINE
  5
14A
330
104
100
AcDbEntity
  8
D12015328.415
100
AcDbLine
 10
33.26112072833254
 20
12.87231185132032
 30
0.0
 11
28.01112072833255
 21
12.87231185132032
 31
0.0
1001
REVIT
1002
{
1070
     1
1000
45840
1002
}
1002
{
1070
     2
1000
-2001160
1002
}
  0
LINE
  5
14B
330
104
100
AcDbEntity
  8
D12015328.415
100
AcDbLine
 10
33.26112072833254
 20
13.13371237738351
 30
0.0
 11
33.26112072833254
 21
12.87231185132032
 31
0.0
1001
REVIT
1002
{
1070
     1
1000
45841
1002
}
1002
{
1070
     2
1000
-2001160
1002
}
  0
LINE
  5
14C
330
104
100
AcDbEntity
  8
D12015328.415
100
AcDbLine
 10
28.01112072833255
 20
13.13371237738351
 30
0.0
 11
33.26112072833254
 21
13.13371237738351
 31
0.0
1001
REVIT
1002
{
1070
     1
1000
45842
1002
}
1002
{
1070
     2
1000
-2001160
1002
}
  0
LINE
  5
14D
330
104
100
AcDbEntity
  8
D12015328.415
100
AcDbLine
 10
28.01112072833255
 20
12.87231185132032
 30
0.0
 11
28.01112072833255
 21
13.13371237738351
 31
0.0
1001
REVIT
1002
{
1070
     1
1000
45843
1002
}
1002
{
1070
     2
1000
-2001160
1002
}
  0
LINE
  5
14E
330
104
100
AcDbEntity
  8
D12015328.415
100
AcDbLine
 10
28.01112072833255
 20
13.08937207340397
 30
0.0
 11
33.26112072833254
 21
13.08937207340395
 31
0.0
1001
REVIT
1002
{
1070
     1
1000
46480
1002
}
1002
{
1070
     2
1000
-2001160
1002
}
  0
ENDBLK
  5
106
330
104
100
AcDbEntity
  8
0
100
AcDbBlockEnd
  0
BLOCK
  5
151
330
150
100
AcDbEntity
  8
0
100
AcDbBlockBegin
  2
DXV_Aqua Moment_D12015328.415_Front View
 70
     0
 10
0.0
 20
0.0
 30
0.0
  3
DXV_Aqua Moment_D12015328.415_Front View
  1

  0
LINE
  5
152
330
150
100
AcDbEntity
  8
D12015328.415
100
AcDbLine
 10
60.76033266219244
 20
21.00720193111541
 30
0.0
 11
60.76033266219244
 21
23.3001389716603
 31
0.0
1001
REVIT
1002
{
1070
     2
1000
-2001160
1002
}
  0
LWPOLYLINE
  5
153
330
150
100
AcDbEntity
  8
D12015328.415
100
AcDbPolyline
 90
       34
 70
   128
 43
0.0
 10
59.77103428229225
 20
24.52034544169898
 10
59.77333264818312
 20
24.48017572148566
 10
59.77723553599219
 20
24.44013004288567
 10
59.78273670193162
 20
24.40027247044215
 10
59.7898273453093
 20
24.36066676776848
 10
59.79849612260852
 20
24.32137629554022
 10
59.8087291656348
 20
24.28246391013137
 10
59.82051010370224
 20
24.24399186305775
 10
59.83382008982307
 20
24.20602170138772
 10
59.84863783085883
 20
24.16861416928012
 10
59.86493962158473
 20
24.13182911080643
 10
59.88269938261323
 20
24.09572537421318
 10
59.90188870211518
 20
24.06036071777719
 10
59.92247688127291
 20
24.02579171740469
 10
59.94443098339163
 20
23.99207367612196
 10
59.9677158865913
 20
23.95926053560224
 10
59.99229433999395
 20
23.92740478987062
 10
60.01812702331725
 20
23.89655740132473
 10
60.04517260977859
 20
23.86676771920582
 10
60.07338783220903
 20
23.83808340065048
 10
60.10272755227165
 20
23.8105503344494
 10
60.13314483267309
 20
23.78421256763512
 10
60.16459101225343
 20
23.75911223501609
 10
60.19701578383344
 20
23.73528949177006
 10
60.23036727469563
 20
23.71278244920432
 10
60.26459212956908
 20
23.6916271137857
 10
60.29963559598702
 20
23.671857329538
 10
60.3354416118786
 20
23.65350472389868
 10
60.37195289525673
 20
23.63659865712174
 10
60.4091110358566
 20
23.6211661753076
 10
60.44685658857993
 20
23.60723196713507
 10
60.48512916859427
 20
23.59481832436475
 10
60.52386754793603
 20
23.58394510617698
 10
60.54011581494123
 20
23.57987720054573
1001
REVIT
1002
{
1070
     2
1000
-2001160
1002
}
  0
LWPOLYLINE
  5
154
330
150
100
AcDbEntity
  8
D12015328.415
100
AcDbPolyline
 90
       40
 70
   128
 43
0.0
 10
59.66891865103149
 20
24.61873583757928
 10
59.67300500726421
 20
24.61865409955594
 10
59.67708482619869
 20
24.61840901624929
 10
59.68115158099493
 20
24.61800097974036
 10
59.68519876571277
 20
24.61743064280052
 10
59.68921990572003
 20
24.61669891784719
 10
59.69320856805045
 20
24.61580697548422
 10
59.69715837169524
 20
24.61475624262912
 10
59.70106299781115
 20
24.6135484002303
 10
59.70491619982929
 20
24.61218538057795
 10
59.7087118134484
 20
24.61066936421275
 10
59.71244376649642
 20
24.60900277643748
 10
59.71610608864457
 20
24.60718828343707
 10
59.71969292095862
 20
24.60522878801324
 10
59.72319852527207
 20
24.60312742494067
 10
59.72661729336585
 20
24.60088755595201
 10
59.72994375594024
 20
24.59851276435983
 10
59.73317259136482
 20
24.59600684932408
 10
59.7362986341916
 20
24.59337381977424
 10
59.73931688341894
 20
24.59061788799591
 10
59.742222510492
 20
24.58774346289205
 10
59.74501086702721
 20
24.58475514292965
 10
59.74767749224895
 20
24.58165770878315
 10
59.75021812012576
 20
24.57845611568645
 10
59.75262868619498
 20
24.57515548550553
 10
59.75490533406516
 20
24.57176109854459
 10
59.75704442158531
 20
24.56827838509866
 10
59.75904252667174
 20
24.56471291676633
 10
59.76089645278248
 20
24.56107039753633
 10
59.76260323403136
 20
24.55735665466238
 10
59.76416013993243
 20
24.55357762934089
 10
59.76556467976834
 20
24.5497393672062
 10
59.766814606575
 20
24.54584800865895
 10
59.76790792073614
 20
24.5419097790427
 10
59.76884287318234
 20
24.53793097868473
 10
59.76961796818914
 20
24.53391797281684
 10
59.77023196576985
 20
24.52987718139236
 10
59.77068388365932
 20
24.52581506881558
 10
59.77097299888534
 20
24.52173813360009
 10
59.77103428229226
 20
24.52034544169898
1001
REVIT
1002
{
1070
     2
1000
-2001160
1002
}
  0
LWPOLYLINE
  5
155
330
150
100
AcDbEntity
  8
D12015328.415
100
AcDbPolyline
 90
        4
 70
   128
 43
0.0
 10
59.11574547036571
 20
24.61873583757928
 10
59.44814635438289
 20
24.61873583757928
 10
59.63311098028523
 20
24.61873583757928
 10
59.66891865103149
 20
24.61873583757928
1001
REVIT
1002
{
1070
     2
1000
-2001160
1002
}
  0
LWPOLYLINE
  5
156
330
150
100
AcDbEntity
  8
D12015328.415
100
AcDbPolyline
 90
        4
 70
   128
 43
0.0
 10
59.66891865103149
 20
24.61873583757928
 10
59.59012709713086
 20
24.61873583757928
 10
59.35387848510725
 20
24.61873583757928
 10
59.11342332304347
 20
24.61873583757928
1001
REVIT
1002
{
1070
     2
1000
-2001160
1002
}
  0
LWPOLYLINE
  5
157
330
150
100
AcDbEntity
  8
D12015328.415
100
AcDbPolyline
 90
       35
 70
   128
 43
0.0
 10
60.54011581494123
 20
23.57987720054573
 10
60.55124831545986
 20
23.57695155005594
 10
60.56225491635029
 20
23.57358305849093
 10
60.57311800939912
 20
23.5697771147186
 10
60.58382021597473
 20
23.56553980743712
 10
60.59434441482971
 20
23.56087791543422
 10
60.60467376949081
 20
23.55579889674262
 10
60.61479175519417
 20
23.55031087670877
 10
60.62468218532101
 20
23.54442263499401
 10
60.63432923729294
 20
23.53814359152897
 10
60.64371747788479
 20
23.53148379144376
 10
60.65283188791432
 20
23.52445388899782
 10
60.66165788626971
 20
23.51706513053544
 10
60.67018135323646
 20
23.50932933649398
 10
60.67838865308562
 20
23.50125888249367
 10
60.68626665588825
 20
23.49286667953932
 10
60.69380275852044
 20
23.48416615336543
 10
60.70098490482553
 20
23.47517122295784
 10
60.70780160490157
 20
23.4658962782864
 10
60.71424195348264
 20
23.45635615728403
 10
60.72029564738475
 20
23.44656612210921
 10
60.7259530019892
 20
23.4365418347298
 10
60.73120496673538
 20
23.42629933186721
 10
60.73604313960007
 20
23.41585499934105
 10
60.74045978053873
 20
23.4052255458554
 10
60.74444782386805
 20
23.39442797626829
 10
60.74800088956949
 20
23.38347956438772
 10
60.75111329349588
 20
23.37239782533716
 10
60.75378005646475
 20
23.36120048753514
 10
60.7559969122244
 20
23.34990546433346
 10
60.75776031427839
 20
23.3385308253598
 10
60.75906744155965
 20
23.32709476761005
 10
60.75991620294338
 20
23.31561558633703
 10
60.76030524059243
 20
23.30411164578204
 10
60.7603326621924
 20
23.3001389716603
1001
REVIT
1002
{
1070
     2
1000
-2001160
1002
}
  0
LINE
  5
158
330
150
100
AcDbEntity
  8
D12015328.415
100
AcDbLine
 10
60.76033266219241
 20
21.0072019311154
 30
0.0
 11
60.34620288952818
 21
21.0072019311154
 31
0.0
1001
REVIT
1002
{
1070
     2
1000
-2001160
1002
}
  0
LINE
  5
159
330
150
100
AcDbEntity
  8
D12015328.415
100
AcDbLine
 10
60.29879137023836
 20
23.30013897166028
 30
0.0
 11
60.29879137023836
 21
21.0072019311154
 31
0.0
1001
REVIT
1002
{
1070
     2
1000
-2001160
1002
}
  0
SPLINE
  5
15A
330
150
100
AcDbEntity
  8
D12015328.415
100
AcDbSpline
210
0.0
220
0.0
230
1.0
 70
     8
 71
     3
 72
    22
 73
    18
 74
     0
 42
0.000000001
 43
0.0000000001
 40
-1.0
 40
-1.0
 40
-1.0
 40
-1.0
 40
-0.925
 40
-0.85
 40
-0.8125
 40
-0.775
 40
-0.7
 40
-0.625
 40
-0.60625
 40
-0.5875
 40
-0.55
 40
-0.475
 40
-0.4
 40
-0.35
 40
-0.3
 40
-0.2
 40
0.0
 40
0.0
 40
0.0
 40
0.0
 10
59.22346915385014
 20
24.52034544169896
 30
0.0
 10
59.22580412907821
 20
24.48131813738998
 30
0.0
 10
59.23425207602921
 20
24.40521094556975
 30
0.0
 10
59.25425344523436
 20
24.31492854173495
 30
0.0
 10
59.27584049660879
 20
24.24564409112833
 30
0.0
 10
59.30128696297246
 20
24.17821888583953
 30
0.0
 10
59.34173457879597
 20
24.09644438365947
 30
0.0
 10
59.3849668650738
 20
24.02819128659242
 30
0.0
 10
59.41539996880468
 20
23.98572682776641
 30
0.0
 10
59.43606571160497
 20
23.95827850330762
 30
0.0
 10
59.47452204568673
 20
23.91195102083227
 30
0.0
 10
59.53449531768376
 20
23.85092965785082
 30
0.0
 10
59.60187801951118
 20
23.79326857604297
 30
0.0
 10
59.66269895679574
 20
23.74856230727507
 30
0.0
 10
59.73533941663031
 20
23.70266092739181
 30
0.0
 10
59.8657061257121
 20
23.63462770424196
 30
0.0
 10
59.97979537100373
 20
23.59619897863906
 30
0.0
 10
60.05792716703175
 20
23.57987720054572
 30
0.0
1001
REVIT
1002
{
1070
     2
1000
-2001160
1002
}
  0
SPLINE
  5
15B
330
150
100
AcDbEntity
  8
D12015328.415
100
AcDbSpline
210
0.0
220
0.0
230
1.0
 70
     8
 71
     3
 72
    10
 73
     6
 74
     0
 42
0.000000001
 43
0.0000000001
 40
-1.0
 40
-1.0
 40
-1.0
 40
-1.0
 40
-0.6666666666666666
 40
-0.3333333333333333
 40
0.0
 40
0.0
 40
0.0
 40
0.0
 10
56.35270994476055
 20
22.88769856683259
 30
0.0
 10
56.38233646733707
 20
22.93022673425054
 30
0.0
 10
56.44501352542443
 20
23.01403708077165
 30
0.0
 10
56.54501493294938
 20
23.13740170736975
 30
0.0
 10
56.61583719591263
 20
23.21530338612461
 30
0.0
 10
56.65115178807513
 20
23.25340005271788
 30
0.0
1001
REVIT
1002
{
1070
     2
1000
-2001160
1002
}
  0
SPLINE
  5
15C
330
150
100
AcDbEntity
  8
D12015328.415
100
AcDbSpline
210
0.0
220
0.0
230
1.0
 70
     8
 71
     3
 72
    11
 73
     7
 74
     0
 42
0.000000001
 43
0.0000000001
 40
-1.0
 40
-1.0
 40
-1.0
 40
-1.0
 40
-0.75
 40
-0.5
 40
-0.25
 40
0.0
 40
0.0
 40
0.0
 40
0.0
 10
56.65115178807512
 20
23.25340005271788
 30
0.0
 10
56.82415180514396
 20
23.43562264600029
 30
0.0
 10
57.19051020014946
 20
23.76556832383241
 30
0.0
 10
57.80386308085619
 20
24.1593943912879
 30
0.0
 10
58.44624299355689
 20
24.44490977873435
 30
0.0
 10
58.8741307735427
 20
24.57018599545938
 30
0.0
 10
59.0879651253885
 20
24.61596228133707
 30
0.0
1001
REVIT
1002
{
1070
     2
1000
-2001160
1002
}
  0
SPLINE
  5
15D
330
150
100
AcDbEntity
  8
D12015328.415
100
AcDbSpline
210
0.0
220
0.0
230
1.0
 70
     8
 71
     3
 72
    11
 73
     7
 74
     0
 42
0.000000001
 43
0.0000000001
 40
-1.0
 40
-1.0
 40
-1.0
 40
-1.0
 40
-0.6666666666666666
 40
-0.5
 40
-0.3333333333333333
 40
0.0
 40
0.0
 40
0.0
 40
0.0
 10
56.18383168988819
 20
22.33699142164394
 30
0.0
 10
56.18456760001778
 20
22.4040565891283
 30
0.0
 10
56.19330622237706
 20
22.5017532844788
 30
0.0
 10
56.22480996408656
 20
22.62819450240019
 30
0.0
 10
56.26889329644244
 20
22.75010728941817
 30
0.0
 10
56.31475514676573
 20
22.83421869205848
 30
0.0
 10
56.35270994476056
 20
22.88769856683259
 30
0.0
1001
REVIT
1002
{
1070
     2
1000
-2001160
1002
}
  0
LINE
  5
15E
330
150
100
AcDbEntity
  8
D12015328.415
100
AcDbLine
 10
56.18383168988846
 20
22.1536775399346
 30
0.0
 11
56.18383168988846
 21
22.33699142164394
 31
0.0
1001
REVIT
1002
{
1070
     2
1000
-2001160
1002
}
  0
SPLINE
  5
15F
330
150
100
AcDbEntity
  8
D12015328.415
100
AcDbSpline
210
0.0
220
0.0
230
1.0
 70
     8
 71
     3
 72
    10
 73
     6
 74
     0
 42
0.000000001
 43
0.0000000001
 40
-1.0
 40
-1.0
 40
-1.0
 40
-1.0
 40
-0.6666666666666666
 40
-0.3333333333333333
 40
0.0
 40
0.0
 40
0.0
 40
0.0
 10
56.27511017999462
 20
21.84150802741663
 30
0.0
 10
56.25495484504409
 20
21.87161917603314
 30
0.0
 10
56.22229511305761
 20
21.93491764936743
 30
0.0
 10
56.19076262174017
 20
22.04124910205849
 30
0.0
 10
56.18418006437212
 20
22.11541547020724
 30
0.0
 10
56.18383168988814
 20
22.1536775399346
 30
0.0
1001
REVIT
1002
{
1070
     2
1000
-2001160
1002
}
  0
SPLINE
  5
160
330
150
100
AcDbEntity
  8
D12015328.415
100
AcDbSpline
210
0.0
220
0.0
230
1.0
 70
     8
 71
     3
 72
     9
 73
     5
 74
     0
 42
0.000000001
 43
0.0000000001
 40
-1.0
 40
-1.0
 40
-1.0
 40
-1.0
 40
-0.5
 40
0.0
 40
0.0
 40
0.0
 40
0.0
 10
56.65115178807506
 20
21.28939326464781
 30
0.0
 10
56.68552773283451
 20
21.24228154770661
 30
0.0
 10
56.7542734727656
 20
21.14813794184334
 30
0.0
 10
56.8229960858995
 20
21.05415399201832
 30
0.0
 10
56.8573488704445
 20
21.00720193111538
 30
0.0
1001
REVIT
1002
{
1070
     2
1000
-2001160
1002
}
  0
SPLINE
  5
161
330
150
100
AcDbEntity
  8
D12015328.415
100
AcDbSpline
210
0.0
220
0.0
230
1.0
 70
     8
 71
     3
 72
     9
 73
     5
 74
     0
 42
0.000000001
 43
0.0000000001
 40
-1.0
 40
-1.0
 40
-1.0
 40
-1.0
 40
-0.5
 40
0.0
 40
0.0
 40
0.0
 40
0.0
 10
56.8654718808242
 20
21.00720193111538
 30
0.0
 10
56.82976668634516
 20
21.05601169454279
 30
0.0
 10
56.75833737721911
 20
21.15371742726299
 30
0.0
 10
56.68688254481264
 20
21.25159557171387
 30
0.0
 10
56.65115178807512
 20
21.300577746872
 30
0.0
1001
REVIT
1002
{
1070
     2
1000
-2001160
1002
}
  0
SPLINE
  5
162
330
150
100
AcDbEntity
  8
D12015328.415
100
AcDbSpline
210
0.0
220
0.0
230
1.0
 70
     8
 71
     3
 72
    11
 73
     7
 74
     0
 42
0.000000001
 43
0.0000000001
 40
-1.0
 40
-1.0
 40
-1.0
 40
-1.0
 40
-0.75
 40
-0.5
 40
-0.25
 40
0.0
 40
0.0
 40
0.0
 40
0.0
 10
56.65115178807512
 20
21.300577746872
 30
0.0
 10
56.61914467747364
 20
21.3450794295673
 30
0.0
 10
56.55406422946994
 20
21.43457446562972
 30
0.0
 10
56.45832000830996
 20
21.57101525831011
 30
0.0
 10
56.36471824587502
 20
21.7074846098634
 30
0.0
 10
56.30410913563772
 20
21.79699566520312
 30
0.0
 10
56.27511017999462
 20
21.84150802741664
 30
0.0
1001
REVIT
1002
{
1070
     2
1000
-2001160
1002
}
  0
SPLINE
  5
163
330
150
100
AcDbEntity
  8
D12015328.415
100
AcDbSpline
210
0.0
220
0.0
230
1.0
 70
     8
 71
     3
 72
    20
 73
    16
 74
     0
 42
0.000000001
 43
0.0000000001
 40
0.0
 40
0.0
 40
0.0
 40
0.0
 40
0.0714285714285714
 40
0.1071428571428571
 40
0.1428571428571428
 40
0.2142857142857143
 40
0.25
 40
0.2857142857142857
 40
0.3214285714285714
 40
0.3571428571428571
 40
0.3928571428571428
 40
0.4285714285714286
 40
0.5
 40
0.5714285714285714
 40
1.0
 40
1.0
 40
1.0
 40
1.0
 10
59.22346915385014
 20
24.52034544169896
 30
0.0
 10
59.22316145656197
 20
24.52549908590335
 30
0.0
 10
59.22221494608226
 20
24.53298547038427
 30
0.0
 10
59.21996735210537
 20
24.54248940742911
 30
0.0
 10
59.21710292887627
 20
24.5516473925967
 30
0.0
 10
59.21306974134974
 20
24.56045052549285
 30
0.0
 10
59.2081591599192
 20
24.5686983599025
 30
0.0
 10
59.20421676754592
 20
24.57449710273737
 30
0.0
 10
59.1999446468899
 20
24.57991270262333
 30
0.0
 10
59.19526690472768
 20
24.58500566326515
 30
0.0
 10
59.19031260607575
 20
24.58974234322365
 30
0.0
 10
59.18351907372021
 20
24.59556832138093
 30
0.0
 10
59.17443742983387
 20
24.60191361912392
 30
0.0
 10
59.14360848798864
 20
24.61843069308378
 30
0.0
 10
59.11326676863824
 20
24.6214646262457
 30
0.0
 10
59.0879651253885
 20
24.61596228133707
 30
0.0
1001
REVIT
1002
{
1070
     2
1000
-2001160
1002
}
  0
SPLINE
  5
164
330
150
100
AcDbEntity
  8
D12015328.415
100
AcDbSpline
210
0.0
220
0.0
230
1.0
 70
     8
 71
     3
 72
    24
 73
    20
 74
     0
 42
0.000000001
 43
0.0000000001
 40
0.0
 40
0.0
 40
0.0
 40
0.0
 40
0.0833333333333333
 40
0.125
 40
0.1666666666666666
 40
0.2083333333333333
 40
0.25
 40
0.2916666666666666
 40
0.3333333333333333
 40
0.375
 40
0.4166666666666666
 40
0.4583333333333333
 40
0.5
 40
0.5416666666666666
 40
0.5833333333333333
 40
0.625
 40
0.6666666666666666
 40
0.8333333333333332
 40
1.0
 40
1.0
 40
1.0
 40
1.0
 10
60.29879137023863
 20
23.30013897166028
 30
0.0
 10
60.29852517299416
 20
23.31325290291955
 30
0.0
 10
60.29699755073938
 20
23.33236471368868
 30
0.0
 10
60.29267167030986
 20
23.35674670887513
 30
0.0
 10
60.28834083087711
 20
23.37444748954451
 30
0.0
 10
60.28268374508976
 20
23.39170457903057
 30
0.0
 10
60.2757489341257
 20
23.40848946388019
 30
0.0
 10
60.26784747346272
 20
23.42460614718165
 30
0.0
 10
60.25935522251181
 20
23.43985897291239
 30
0.0
 10
60.25013031895636
 20
23.45421840495163
 30
0.0
 10
60.23997073414604
 20
23.46782804746928
 30
0.0
 10
60.22918718138639
 20
23.48064782185057
 30
0.0
 10
60.21805067730553
 20
23.49269877868237
 30
0.0
 10
60.20648400673485
 20
23.50394113452964
 30
0.0
 10
60.19432194700982
 20
23.51438356016549
 30
0.0
 10
60.18176366820135
 20
23.52407236437134
 30
0.0
 10
60.15623510518814
 20
23.54207546117787
 30
0.0
 10
60.11539311758263
 20
23.56353943963032
 30
0.0
 10
60.07747091681372
 20
23.57564400834473
 30
0.0
 10
60.05792716703175
 20
23.57987720054572
 30
0.0
1001
REVIT
1002
{
1070
     2
1000
-2001160
1002
}
  0
LWPOLYLINE
  5
165
330
150
100
AcDbEntity
  8
D12015328.415
100
AcDbPolyline
 90
       41
 70
   128
 43
0.0
 10
60.33528822082412
 20
21.00720193111563
 10
60.35263122851154
 20
21.00685502470647
 10
60.36994649108629
 20
21.00581486045521
 10
60.38720630782201
 20
21.00408310240278
 10
60.40438306669378
 20
21.00166252099263
 10
60.42144928855163
 20
20.99855698863867
 10
60.43837767108112
 20
20.99477147353017
 10
60.45514113248149
 20
20.99031203168378
 10
60.47171285479046
 20
20.98518579725515
 10
60.48806632678743
 20
20.97940097112584
 10
60.50417538640579
 20
20.97296680778362
 10
60.52001426258657
 20
20.96589360051728
 10
60.53555761650664
 20
20.95819266494959
 10
60.55078058211549
 20
20.94987632093467
 10
60.56565880591551
 20
20.94095787284889
 10
60.5801684859225
 20
20.93145158830669
 10
60.59428640974367
 20
20.92137267533544
 10
60.60798999171256
 20
20.91073725804582
 10
60.6212573090213
 20
20.89956235083675
 10
60.63406713679243
 20
20.8878658311759
 10
60.6463989820341
 20
20.87566641099959
 10
60.65823311642459
 20
20.86298360677773
 10
60.66955060787335
 20
20.84983770829152
 10
60.68033335080833
 20
20.83624974617426
 10
60.69056409514107
 20
20.82224145826671
 10
60.70022647386303
 20
20.80783525484124
 10
60.70930502922947
 20
20.79305418275019
 10
60.71778523748844
 20
20.77792188855577
 10
60.72565353211579
 20
20.76246258070063
 10
60.73289732551856
 20
20.74670099077954
 10
60.73950502917255
 20
20.73066233397408
 10
60.74546607216152
 20
20.71437226871374
 10
60.75077091808829
 20
20.69785685562791
 10
60.75541108033101
 20
20.68114251585442
 10
60.75937913561997
 20
20.66425598877138
 10
60.76266873591313
 20
20.64722428921985
 10
60.7652746185518
 20
20.63007466428588
 10
60.76719261467966
 20
20.61283454971097
 10
60.76841965591203
 20
20.59553152600075
 10
60.76895377924472
 20
20.57819327430204
 10
60.76897905464677
 20
20.57351109729299
1001
REVIT
1002
{
1070
     2
1000
-2001160
1002
}
  0
LWPOLYLINE
  5
166
330
150
100
AcDbEntity
  8
D12015328.415
100
AcDbPolyline
 90
       41
 70
   128
 43
0.0
 10
60.33528822082412
 20
21.00720193111563
 10
60.33494146972836
 20
21.00720193111563
 10
60.33390177116885
 20
21.00720193111563
 10
60.33217078844151
 20
21.00720193111563
 10
60.32975129074944
 20
21.00720193111563
 10
60.32664714877279
 20
21.00720193111563
 10
60.32286332847657
 20
21.00720193111563
 10
60.31840588316608
 20
21.00720193111563
 10
60.31328194380296
 20
21.00720193111563
 10
60.3074997075971
 20
21.00720193111563
 10
60.30106842489299
 20
21.00720193111563
 10
60.29399838437102
 20
21.00720193111563
 10
60.2863008965878
 20
21.00720193111563
 10
60.27798827588177
 20
21.00720193111563
 10
60.26907382067277
 20
21.00720193111563
 10
60.2595717921875
 20
21.00720193111563
 10
60.24949739164456
 20
21.00720193111563
 10
60.23886673593569
 20
21.00720193111563
 10
60.22769683184231
 20
21.00720193111563
 10
60.21600554882816
 20
21.00720193111563
 10
60.20381159045206
 20
21.00720193111563
 10
60.1911344644462
 20
21.00720193111563
 10
60.17799445150782
 20
21.00720193111563
 10
60.16441257285464
 20
21.00720193111563
 10
60.15041055659513
 20
21.00720193111563
 10
60.13601080296841
 20
21.00720193111563
 10
60.12123634850846
 20
21.00720193111563
 10
60.10611082919075
 20
21.00720193111563
 10
60.09065844261954
 20
21.00720193111563
 10
60.07490390931703
 20
21.00720193111563
 10
60.05887243317571
 20
21.00720193111563
 10
60.04258966113756
 20
21.00720193111563
 10
60.02608164216434
 20
21.00720193111563
 10
60.00937478556489
 20
21.00720193111563
 10
59.99249581874586
 20
21.00720193111563
 10
59.97547174445345
 20
21.00720193111563
 10
59.95832979757498
 20
21.00720193111563
 10
59.94109740156865
 20
21.00720193111563
 10
59.92380212459206
 20
21.00720193111563
 10
59.9064716353989
 20
21.00720193111563
 10
59.90179155464645
 20
21.00720193111563
1001
REVIT
1002
{
1070
     2
1000
-2001160
1002
}
  0
LINE
  5
167
330
150
100
AcDbEntity
  8
D12015328.415
100
AcDbLine
 10
60.76897905464647
 20
20.17862665515713
 30
0.0
 11
60.76897905464647
 21
20.57351109729299
 31
0.0
1001
REVIT
1002
{
1070
     2
1000
-2001160
1002
}
  0
LINE
  5
168
330
150
100
AcDbEntity
  8
D12015328.415
100
AcDbLine
 10
59.90179155464645
 20
21.00720193111563
 30
0.0
 11
-9.863833445353577
 21
21.00720193111563
 31
0.0
1001
REVIT
1002
{
1070
     2
1000
-2001160
1002
}
  0
LWPOLYLINE
  5
169
330
150
100
AcDbEntity
  8
D12015328.415
100
AcDbPolyline
 90
       41
 70
   128
 43
0.0
 10
-9.863833445353584
 20
21.00720193111563
 10
-9.881168688406148
 20
21.00720193111563
 10
-9.898476198767824
 20
21.00720193111563
 10
-9.915728288114102
 20
21.00720193111563
 10
-9.932897356782255
 20
21.00720193111563
 10
-9.949955937924983
 20
21.00720193111563
 10
-9.966876741451415
 20
21.00720193111563
 10
-9.983632697685493
 20
21.00720193111563
 10
-10.00019700067164
 20
21.00720193111563
 10
-10.01654315105862
 20
21.00720193111563
 10
-10.03264499849282
 20
21.00720193111563
 10
-10.04847678345319
 20
21.00720193111563
 10
-10.06401317846108
 20
21.00720193111563
 10
-10.07922932859874
 20
21.00720193111563
 10
-10.09410089127187
 20
21.00720193111563
 10
-10.10860407515264
 20
21.00720193111563
 10
-10.12271567824067
 20
21.00720193111563
 10
-10.13641312498136
 20
21.00720193111563
 10
-10.14967450238187
 20
21.00720193111563
 10
-10.16247859506731
 20
21.00720193111563
 10
-10.17480491922077
 20
21.00720193111563
 10
-10.18663375535308
 20
21.00720193111563
 10
-10.1979461798498
 20
21.00720193111563
 10
-10.20872409524489
 20
21.00720193111563
 10
-10.21895025917291
 20
21.00720193111563
 10
-10.22860831195304
 20
21.00720193111563
 10
-10.23768280276109
 20
21.00720193111563
 10
-10.24615921434757
 20
21.00720193111563
 10
-10.25402398626215
 20
21.00720193111563
 10
-10.26126453654746
 20
21.00720193111563
 10
-10.26786928186765
 20
21.00720193111563
 10
-10.27382765603914
 20
21.00720193111563
 10
-10.27913012693429
 20
21.00720193111563
 10
-10.28376821173081
 20
21.00720193111563
 10
-10.28773449048243
 20
21.00720193111563
 10
-10.29102261798925
 20
21.00720193111563
 10
-10.2936273339487
 20
21.00720193111563
 10
-10.29554447137084
 20
21.00720193111563
 10
-10.29677096324481
 20
21.00720193111563
 10
-10.29730484744522
 20
21.00720193111563
 10
-10.29733011153124
 20
21.00720193111563
1001
REVIT
1002
{
1070
     2
1000
-2001160
1002
}
  0
LINE
  5
16A
330
150
100
AcDbEntity
  8
D12015328.415
100
AcDbLine
 10
-10.73102094535358
 20
20.57351109729299
 30
0.0
 11
-10.73102094535358
 21
20.17862665515713
 31
0.0
1001
REVIT
1002
{
1070
     2
1000
-2001160
1002
}
  0
LWPOLYLINE
  5
16B
330
150
100
AcDbEntity
  8
D12015328.415
100
AcDbPolyline
 90
       41
 70
   128
 43
0.0
 10
-10.73102094535389
 20
20.57351109729299
 10
-10.73067403894472
 20
20.5908541049804
 10
-10.72963387469347
 20
20.60816936755516
 10
-10.72790211664103
 20
20.62542918429087
 10
-10.72548153523089
 20
20.64260594316265
 10
-10.72237600287692
 20
20.65967216502048
 10
-10.71859048776842
 20
20.67660054755001
 10
-10.71413104592203
 20
20.69336400895036
 10
-10.70900481149341
 20
20.70993573125932
 10
-10.7032199853641
 20
20.7262892032563
 10
-10.69678582202188
 20
20.74239826287466
 10
-10.68971261475553
 20
20.75823713905544
 10
-10.68201167918785
 20
20.77378049297551
 10
-10.67369533517293
 20
20.78900345858435
 10
-10.66477688708715
 20
20.80388168238438
 10
-10.65527060254495
 20
20.81839136239136
 10
-10.64519168957369
 20
20.83250928621253
 10
-10.63455627228408
 20
20.84621286818142
 10
-10.62338136507499
 20
20.85948018549017
 10
-10.61168484541414
 20
20.87229001326129
 10
-10.59948542523785
 20
20.88462185850296
 10
-10.58680262101598
 20
20.89645599289345
 10
-10.57365672252978
 20
20.90777348434222
 10
-10.56006876041251
 20
20.91855622727721
 10
-10.54606047250495
 20
20.92878697160993
 10
-10.53165426907949
 20
20.93844935033189
 10
-10.51687319698844
 20
20.94752790569833
 10
-10.50174090279401
 20
20.95600811395732
 10
-10.48628159493888
 20
20.96387640858465
 10
-10.47052000501779
 20
20.97112020198741
 10
-10.45448134821232
 20
20.97772790564141
 10
-10.43819128295199
 20
20.98368894863038
 10
-10.42167586986615
 20
20.98899379455714
 10
-10.40496153009268
 20
20.99363395679987
 10
-10.38807500300963
 20
20.99760201208882
 10
-10.3710433034581
 20
21.00089161238199
 10
-10.35389367852413
 20
21.00349749502067
 10
-10.33665356394922
 20
21.00541549114852
 10
-10.31935054023899
 20
21.0066425323809
 10
-10.30201228854029
 20
21.00717665571357
 10
-10.29733011153124
 20
21.00720193111563
1001
REVIT
1002
{
1070
     2
1000
-2001160
1002
}
  0
LINE
  5
16C
330
150
100
AcDbEntity
  8
D12015328.415
100
AcDbLine
 10
59.90179155464643
 20
20.17862665515711
 30
0.0
 11
60.76897905464644
 21
20.17862665515711
 31
0.0
1001
REVIT
1002
{
1070
     2
1000
-2001160
1002
}
  0
LINE
  5
16D
330
150
100
AcDbEntity
  8
D12015328.415
100
AcDbLine
 10
59.90179155464645
 20
20.17862665515711
 30
0.0
 11
-9.863833445353556
 21
20.17862665515711
 31
0.0
1001
REVIT
1002
{
1070
     2
1000
-2001160
1002
}
  0
LINE
  5
16E
330
150
100
AcDbEntity
  8
D12015328.415
100
AcDbLine
 10
-10.73102094535355
 20
20.17862665515711
 30
0.0
 11
-9.863833445353563
 21
20.17862665515711
 31
0.0
1001
REVIT
1002
{
1070
     2
1000
-2001160
1002
}
  0
SPLINE
  5
16F
330
150
100
AcDbEntity
  8
D12015328.415
100
AcDbSpline
210
0.0
220
0.0
230
1.0
 70
     8
 71
     3
 72
    10
 73
     6
 74
     0
 42
0.000000001
 43
0.0000000001
 40
0.0
 40
0.0
 40
0.0
 40
0.0
 40
0.3333333333333333
 40
0.6666666666666666
 40
1.0
 40
1.0
 40
1.0
 40
1.0
 10
-4.987642946177313
 20
2.657427887451023
 30
0.0
 10
-5.173615779196321
 20
4.60357229693538
 30
0.0
 10
-5.559895465002039
 20
8.496648887895409
 30
0.0
 10
-6.182337791877916
 20
14.33750188132049
 30
0.0
 10
-6.625987809429283
 20
18.23157278068535
 30
0.0
 10
-6.855000479603827
 20
20.17862665515712
 30
0.0
1001
REVIT
1002
{
1070
     2
1000
-2001160
1002
}
  0
SPLINE
  5
170
330
150
100
AcDbEntity
  8
D12015328.415
100
AcDbSpline
210
0.0
220
0.0
230
1.0
 70
     8
 71
     3
 72
    32
 73
    28
 74
     0
 42
0.000000001
 43
0.0000000001
 40
0.0
 40
0.0
 40
0.0
 40
0.0
 40
0.1428571428571428
 40
0.2142857142857143
 40
0.25
 40
0.2857142857142857
 40
0.3214285714285714
 40
0.3571428571428571
 40
0.3928571428571428
 40
0.4285714285714286
 40
0.4642857142857144
 40
0.5
 40
0.5357142857142857
 40
0.5714285714285714
 40
0.6071428571428572
 40
0.6428571428571428
 40
0.6785714285714287
 40
0.6964285714285714
 40
0.7142857142857144
 40
0.7321428571428572
 40
0.75
 40
0.7857142857142857
 40
0.8214285714285713
 40
0.8571428571428571
 40
0.8928571428571427
 40
0.9285714285714286
 40
1.0
 40
1.0
 40
1.0
 40
1.0
 10
-2.781161844911505
 20
0.4112199748289303
 30
0.0
 10
-2.946517103277088
 20
0.4300041223217824
 30
0.0
 10
-3.189843909512447
 20
0.48280396601823
 30
0.0
 10
-3.457868688264028
 20
0.5839383377938377
 30
0.0
 10
-3.605399668515318
 20
0.6523052910399972
 30
0.0
 10
-3.712956755187811
 20
0.7086602703679006
 30
0.0
 10
-3.817055362137232
 20
0.7698006347488171
 30
0.0
 10
-3.917578588328442
 20
0.8355434438298491
 30
0.0
 10
-4.014504663867171
 20
0.9057823517232925
 30
0.0
 10
-4.107892906515235
 20
0.9805224812997067
 30
0.0
 10
-4.19732218663632
 20
1.059392200374481
 30
0.0
 10
-4.282558498606633
 20
1.14209233574046
 30
0.0
 10
-4.363772926702189
 20
1.228731114357665
 30
0.0
 10
-4.441093097492657
 20
1.319505004762599
 30
0.0
 10
-4.514164058755959
 20
1.414097717040093
 30
0.0
 10
-4.582642550728216
 20
1.512085649830811
 30
0.0
 10
-4.635956442219217
 20
1.596724658997632
 30
0.0
 10
-4.676314275408049
 20
1.666247625408014
 30
0.0
 10
-4.705427725344126
 20
1.71931221880778
 30
0.0
 10
-4.733367560459619
 20
1.773304010861421
 30
0.0
 10
-4.768986706488913
 20
1.846447939577744
 30
0.0
 10
-4.810334008006307
 20
1.939901218247632
 30
0.0
 10
-4.854555445210841
 20
2.054811686637748
 30
0.0
 10
-4.893108198589796
 20
2.171906393138624
 30
0.0
 10
-4.925873305873114
 20
2.290864099520437
 30
0.0
 10
-4.961776130492292
 20
2.451886273292819
 30
0.0
 10
-4.979752322994777
 20
2.574855116231177
 30
0.0
 10
-4.987642946177285
 20
2.657427887451026
 30
0.0
1001
REVIT
1002
{
1070
     2
1000
-2001160
1002
}
  0
LWPOLYLINE
  5
171
330
150
100
AcDbEntity
  8
D12015328.415
100
AcDbPolyline
 90
        3
 70
   128
 43
0.0
 10
-2.411731172174782
 20
0.3967665299200977
 10
-2.596714056290373
 20
0.3971547204626007
 10
-2.781161844911512
 20
0.4112199748289301
1001
REVIT
1002
{
1070
     2
1000
-2001160
1002
}
  0
LINE
  5
172
330
150
100
AcDbEntity
  8
D12015328.415
100
AcDbLine
 10
45.16156522022
 20
2.058062647201503
 30
0.0
 11
-2.411731172174771
 21
0.3967665299200904
 31
0.0
1001
REVIT
1002
{
1070
     2
1000
-2001160
1002
}
  0
LWPOLYLINE
  5
173
330
150
100
AcDbEntity
  8
D12015328.415
100
AcDbPolyline
 90
        6
 70
   128
 43
0.0
 10
46.88768738646127
 20
3.2807046088047
 10
46.67762160375398
 20
2.886308210447189
 10
46.38231733253411
 20
2.550940442912625
 10
46.01767288982244
 20
2.292656524517954
 10
45.6033196643765
 20
2.12536170491986
 10
45.16156522022
 20
2.058062647201511
1001
REVIT
1002
{
1070
     2
1000
-2001160
1002
}
  0
LWPOLYLINE
  5
174
330
150
100
AcDbEntity
  8
D12015328.415
100
AcDbPolyline
 90
        3
 70
   128
 43
0.0
 10
51.76115542907074
 20
13.48048975864436
 10
49.1392121886397
 20
8.469090342879258
 10
46.88768738646129
 20
3.280704608804701
1001
REVIT
1002
{
1070
     2
1000
-2001160
1002
}
  0
SPLINE
  5
175
330
150
100
AcDbEntity
  8
D12015328.415
100
AcDbSpline
210
0.0
220
0.0
230
1.0
 70
     8
 71
     3
 72
    16
 73
    12
 74
     0
 42
0.000000001
 43
0.0000000001
 40
0.0
 40
0.0
 40
0.0
 40
0.0
 40
0.125
 40
0.25
 40
0.375
 40
0.4375
 40
0.5
 40
0.5625
 40
0.625
 40
0.75
 40
1.0
 40
1.0
 40
1.0
 40
1.0
 10
56.04864785372839
 20
20.17862665515711
 30
0.0
 10
55.85633542841492
 20
19.90949738828939
 30
0.0
 10
55.47484699394566
 20
19.36837967951162
 30
0.0
 10
54.9124004710849
 20
18.54858947543677
 30
0.0
 10
54.45135896972479
 20
17.8578510128093
 30
0.0
 10
54.08765253707601
 20
17.30144148703344
 30
0.0
 10
53.81777281973819
 20
16.88274745524319
 30
0.0
 10
53.5507961883043
 20
16.46268791250548
 30
0.0
 10
53.19847837165355
 20
15.90045327699585
 30
0.0
 10
52.59179671330423
 20
14.91136627785067
 30
0.0
 10
52.08884210056464
 20
14.05502681920342
 30
0.0
 10
51.76115542907073
 20
13.48048975864434
 30
0.0
1001
REVIT
1002
{
1070
     2
1000
-2001160
1002
}
  0
LINE
  5
176
330
150
100
AcDbEntity
  8
D12015328.415
100
AcDbLine
 10
-1.497505439290943
 20
0.4286919960015519
 30
0.0
 11
-1.250000000000017
 21
-0.0000000000000002
 31
0.0
1001
REVIT
1002
{
1070
     2
1000
-2001160
1002
}
  0
LINE
  5
177
330
150
100
AcDbEntity
  8
D12015328.415
100
AcDbLine
 10
1.249999999999982
 20
-0.0000000000000002
 30
0.0
 11
1.559131880500299
 21
0.5354321232658559
 31
0.0
1001
REVIT
1002
{
1070
     2
1000
-2001160
1002
}
  0
LINE
  5
178
330
150
100
AcDbEntity
  8
D12015328.415
100
AcDbLine
 10
-1.249999999999996
 20
0.0
 30
0.0
 11
1.25
 21
0.0
 31
0.0
1001
REVIT
1002
{
1070
     2
1000
-2001160
1002
}
  0
ENDBLK
  5
179
330
150
100
AcDbEntity
  8
0
100
AcDbBlockEnd
  0
BLOCK
  5
187
330
184
100
AcDbEntity
  8
0
100
AcDbBlockBegin
  2
DXV_Aqua Moment_D12015328.415_Side View
 70
     0
 10
0.0
 20
0.0
 30
0.0
  3
DXV_Aqua Moment_D12015328.415_Side View
  1

  0
LINE
  5
188
330
184
100
AcDbEntity
  8
D12015328.415
100
AcDbLine
 10
-11.57171604718863
 20
23.11326670412516
 30
0.0
 11
-11.57171604718863
 21
21.47428170999047
 31
0.0
1001
REVIT
1002
{
1070
     2
1000
-2001160
1002
}
  0
LINE
  5
189
330
184
100
AcDbEntity
  8
D12015328.415
100
AcDbLine
 10
11.57171604718861
 20
21.48551175254985
 30
0.0
 11
11.57171604718861
 21
23.10379415921794
 31
0.0
1001
REVIT
1002
{
1070
     2
1000
-2001160
1002
}
  0
LWPOLYLINE
  5
18A
330
184
100
AcDbEntity
  8
D12015328.415
100
AcDbPolyline
 90
        7
 70
   128
 43
0.0
 10
-10.48360167855728
 20
24.61873583757929
 10
-6.558650106411164
 20
24.61873583757929
 10
-2.623153944861755
 20
24.61873583757929
 10
1.316590851760196
 20
24.61873583757929
 10
5.254281532214157
 20
24.61873583757929
 10
9.183618631407291
 20
24.61873583757929
 10
10.47897756608569
 20
24.61873583757929
1001
REVIT
1002
{
1070
     2
1000
-2001160
1002
}
  0
SPLINE
  5
18B
330
184
100
AcDbEntity
  8
D12015328.415
100
AcDbSpline
210
0.0
220
0.0
230
1.0
 70
     8
 71
     3
 72
    11
 73
     7
 74
     0
 42
0.000000001
 43
0.0000000001
 40
-1.0
 40
-1.0
 40
-1.0
 40
-1.0
 40
-0.75
 40
-0.5
 40
-0.25
 40
0.0
 40
0.0
 40
0.0
 40
0.0
 10
-10.49929085128407
 20
24.61596228133707
 30
0.0
 10
-10.63009235212601
 20
24.57035580195364
 30
0.0
 10
-10.86863215603639
 20
24.44569663606578
 30
0.0
 10
-11.16493886440999
 20
24.16191215592825
 30
0.0
 10
-11.39526508998293
 20
23.77070327431297
 30
0.0
 10
-11.50627147080244
 20
23.44300347631297
 30
0.0
 10
-11.5538005606018
 20
23.26203657552146
 30
0.0
1001
REVIT
1002
{
1070
     2
1000
-2001160
1002
}
  0
SPLINE
  5
18C
330
184
100
AcDbEntity
  8
D12015328.415
100
AcDbSpline
210
0.0
220
0.0
230
1.0
 70
     8
 71
     3
 72
    10
 73
     6
 74
     0
 42
0.000000001
 43
0.0000000001
 40
-1.0
 40
-1.0
 40
-1.0
 40
-1.0
 40
-0.6666666666666666
 40
-0.3333333333333333
 40
0.0
 40
0.0
 40
0.0
 40
0.0
 10
-11.5538005606018
 20
23.26203657552146
 30
0.0
 10
-11.56378106980675
 20
23.22308761870607
 30
0.0
 10
-11.57489466855178
 20
23.14340830013063
 30
0.0
 10
-11.56883535031467
 20
23.01703569101854
 30
0.0
 10
-11.55187535205269
 20
22.93123703027445
 30
0.0
 10
-11.54069597847164
 20
22.8876985668326
 30
0.0
1001
REVIT
1002
{
1070
     2
1000
-2001160
1002
}
  0
SPLINE
  5
18D
330
184
100
AcDbEntity
  8
D12015328.415
100
AcDbSpline
210
0.0
220
0.0
230
1.0
 70
     8
 71
     3
 72
    10
 73
     6
 74
     0
 42
0.000000001
 43
0.0000000001
 40
-1.0
 40
-1.0
 40
-1.0
 40
-1.0
 40
-0.6666666666666666
 40
-0.3333333333333333
 40
0.0
 40
0.0
 40
0.0
 40
0.0
 10
11.54342696410281
 20
22.88769856683259
 30
0.0
 10
11.55384012858138
 20
22.93022673425054
 30
0.0
 10
11.56950719806581
 20
23.01403708077165
 30
0.0
 10
11.57455913112738
 20
23.13740170736975
 30
0.0
 10
11.56351728198905
 20
23.21530338612461
 30
0.0
 10
11.55380056060175
 20
23.25340005271788
 30
0.0
1001
REVIT
1002
{
1070
     2
1000
-2001160
1002
}
  0
SPLINE
  5
18E
330
184
100
AcDbEntity
  8
D12015328.415
100
AcDbSpline
210
0.0
220
0.0
230
1.0
 70
     8
 71
     3
 72
    11
 73
     7
 74
     0
 42
0.000000001
 43
0.0000000001
 40
-1.0
 40
-1.0
 40
-1.0
 40
-1.0
 40
-0.75
 40
-0.5
 40
-0.25
 40
0.0
 40
0.0
 40
0.0
 40
0.0
 10
11.55380056060175
 20
23.25340005271788
 30
0.0
 10
11.50620004016753
 20
23.43562264600029
 30
0.0
 10
11.39495451824585
 20
23.76556832383241
 30
0.0
 10
11.16377923077364
 20
24.1593943912879
 30
0.0
 10
10.86605364839875
 20
24.44490977873435
 30
0.0
 10
10.62623528255528
 20
24.57018599545938
 30
0.0
 10
10.49469314616686
 20
24.61596228133707
 30
0.0
1001
REVIT
1002
{
1070
     2
1000
-2001160
1002
}
  0
SPLINE
  5
18F
330
184
100
AcDbEntity
  8
D12015328.415
100
AcDbSpline
210
0.0
220
0.0
230
1.0
 70
     8
 71
     3
 72
    12
 73
     8
 74
     0
 42
0.000000001
 43
0.0000000001
 40
-1.0
 40
-1.0
 40
-1.0
 40
-1.0
 40
-0.6666666666666666
 40
-0.5
 40
-0.3333333333333333
 40
-0.1666666666666666
 40
0.0
 40
0.0
 40
0.0
 40
0.0
 10
-11.54069597847164
 20
22.88769856683259
 30
0.0
 10
-11.52669474944576
 20
22.83426170628344
 30
0.0
 10
-11.50228961261217
 20
22.75018765105757
 30
0.0
 10
-11.47159665359865
 20
22.62834548447171
 30
0.0
 10
-11.45235602581863
 20
22.53347392206327
 30
0.0
 10
-11.44036355537082
 20
22.4368753773552
 30
0.0
 10
-11.43705702062641
 20
22.37056266702456
 30
0.0
 10
-11.4366972205359
 20
22.33699142164394
 30
0.0
1001
REVIT
1002
{
1070
     2
1000
-2001160
1002
}
  0
SPLINE
  5
190
330
184
100
AcDbEntity
  8
D12015328.415
100
AcDbSpline
210
0.0
220
0.0
230
1.0
 70
     8
 71
     3
 72
    11
 73
     7
 74
     0
 42
0.000000001
 43
0.0000000001
 40
-1.0
 40
-1.0
 40
-1.0
 40
-1.0
 40
-0.6666666666666666
 40
-0.5
 40
-0.3333333333333333
 40
0.0
 40
0.0
 40
0.0
 40
0.0
 10
11.44318897942977
 20
22.33699142164394
 30
0.0
 10
11.44385199214603
 20
22.4040565891283
 30
0.0
 10
11.45213910180209
 20
22.5017532844788
 30
0.0
 10
11.47688926996088
 20
22.62819450240019
 30
0.0
 10
11.50654844005533
 20
22.75010728941817
 30
0.0
 10
11.53008656773161
 20
22.83421869205848
 30
0.0
 10
11.54342696410281
 20
22.88769856683259
 30
0.0
1001
REVIT
1002
{
1070
     2
1000
-2001160
1002
}
  0
LINE
  5
191
330
184
100
AcDbEntity
  8
D12015328.415
100
AcDbLine
 10
-11.43669722053565
 20
22.33699142164394
 30
0.0
 11
-11.43669722053565
 21
22.1536775399346
 31
0.0
1001
REVIT
1002
{
1070
     2
1000
-2001160
1002
}
  0
LINE
  5
192
330
184
100
AcDbEntity
  8
D12015328.415
100
AcDbLine
 10
11.44318897942999
 20
22.1536775399346
 30
0.0
 11
11.44318897942999
 21
22.33699142164394
 31
0.0
1001
REVIT
1002
{
1070
     2
1000
-2001160
1002
}
  0
SPLINE
  5
193
330
184
100
AcDbEntity
  8
D12015328.415
100
AcDbSpline
210
0.0
220
0.0
230
1.0
 70
     8
 71
     3
 72
    10
 73
     6
 74
     0
 42
0.000000001
 43
0.0000000001
 40
-1.0
 40
-1.0
 40
-1.0
 40
-1.0
 40
-0.6666666666666666
 40
-0.3333333333333333
 40
0.0
 40
0.0
 40
0.0
 40
0.0
 10
-11.43669722053589
 20
22.1536775399346
 30
0.0
 10
-11.4370382223135
 20
22.11535126759631
 30
0.0
 10
-11.44338498424174
 20
22.04109970044798
 30
0.0
 10
-11.4702190942603
 20
21.93480283093906
 30
0.0
 10
-11.492634221524
 20
21.87157014148455
 30
0.0
 10
-11.50427906083484
 20
21.84150802741663
 30
0.0
1001
REVIT
1002
{
1070
     2
1000
-2001160
1002
}
  0
SPLINE
  5
194
330
184
100
AcDbEntity
  8
D12015328.415
100
AcDbSpline
210
0.0
220
0.0
230
1.0
 70
     8
 71
     3
 72
    10
 73
     6
 74
     0
 42
0.000000001
 43
0.0000000001
 40
-1.0
 40
-1.0
 40
-1.0
 40
-1.0
 40
-0.6666666666666666
 40
-0.3333333333333333
 40
0.0
 40
0.0
 40
0.0
 40
0.0
 10
11.50847430036003
 20
21.84150802741663
 30
0.0
 10
11.49724210645613
 20
21.87161917603314
 30
0.0
 10
11.47554721809956
 20
21.93491764936743
 30
0.0
 10
11.44963604932452
 20
22.04124910205849
 30
0.0
 10
11.44350284481032
 20
22.11541547020724
 30
0.0
 10
11.44318897942973
 20
22.1536775399346
 30
0.0
1001
REVIT
1002
{
1070
     2
1000
-2001160
1002
}
  0
SPLINE
  5
195
330
184
100
AcDbEntity
  8
D12015328.415
100
AcDbSpline
210
0.0
220
0.0
230
1.0
 70
     8
 71
     3
 72
    11
 73
     7
 74
     0
 42
0.000000001
 43
0.0000000001
 40
-1.0
 40
-1.0
 40
-1.0
 40
-1.0
 40
-0.75
 40
-0.5
 40
-0.25
 40
0.0
 40
0.0
 40
0.0
 40
0.0
 10
-11.50427906083484
 20
21.84150802741663
 30
0.0
 10
-11.52134630825898
 20
21.79615408269258
 30
0.0
 10
-11.54899931198726
 20
21.70489871377035
 30
0.0
 10
-11.57072149258965
 20
21.56556864640587
 30
0.0
 10
-11.57386106480018
 20
21.42620529173673
 30
0.0
 10
-11.56278939423033
 20
21.33482829474893
 30
0.0
 10
-11.5538005606018
 20
21.28939326464781
 30
0.0
1001
REVIT
1002
{
1070
     2
1000
-2001160
1002
}
  0
SPLINE
  5
196
330
184
100
AcDbEntity
  8
D12015328.415
100
AcDbSpline
210
0.0
220
0.0
230
1.0
 70
     8
 71
     3
 72
     9
 73
     5
 74
     0
 42
0.000000001
 43
0.0000000001
 40
-1.0
 40
-1.0
 40
-1.0
 40
-1.0
 40
-0.5
 40
0.0
 40
0.0
 40
0.0
 40
0.0
 10
-11.5538005606018
 20
21.28939326464781
 30
0.0
 10
-11.54434210569125
 20
21.24228154770661
 30
0.0
 10
-11.52500703466325
 20
21.14813794184334
 30
0.0
 10
-11.50483124532783
 20
21.05415399201832
 30
0.0
 10
-11.49453210370534
 20
21.00720193111538
 30
0.0
1001
REVIT
1002
{
1070
     2
1000
-2001160
1002
}
  0
LINE
  5
197
330
184
100
AcDbEntity
  8
D12015328.415
100
AcDbLine
 10
-9.750000000000994
 20
21.00720193111418
 30
0.0
 11
-9.298675166472918
 21
21.45852676464226
 31
0.0
1001
REVIT
1002
{
1070
     2
1000
-2001160
1002
}
  0
SPLINE
  5
198
330
184
100
AcDbEntity
  8
D12015328.415
100
AcDbSpline
210
0.0
220
0.0
230
1.0
 70
     8
 71
     3
 72
    11
 73
     7
 74
     0
 42
0.000000001
 43
0.0000000001
 40
-1.0
 40
-1.0
 40
-1.0
 40
-1.0
 40
-0.75
 40
-0.5
 40
-0.25
 40
0.0
 40
0.0
 40
0.0
 40
0.0
 10
-9.298675166471753
 20
21.45852676464343
 30
0.0
 10
-9.269567470679334
 20
21.48763446043585
 30
0.0
 10
-9.204960496501229
 20
21.54140851016871
 30
0.0
 10
-9.090542127282603
 20
21.60422380084669
 30
0.0
 10
-8.962609879596215
 20
21.64417970814691
 30
0.0
 10
-8.873448660066486
 20
21.65322418008513
 30
0.0
 10
-8.828634025553441
 20
21.65322418008512
 30
0.0
1001
REVIT
1002
{
1070
     2
1000
-2001160
1002
}
  0
LINE
  5
199
330
184
100
AcDbEntity
  8
D12015328.415
100
AcDbLine
 10
-8.828634025554634
 20
21.65322418008511
 30
0.0
 11
8.828914057264725
 21
21.65322418008511
 31
0.0
1001
REVIT
1002
{
1070
     2
1000
-2001160
1002
}
  0
SPLINE
  5
19A
330
184
100
AcDbEntity
  8
D12015328.415
100
AcDbSpline
210
0.0
220
0.0
230
1.0
 70
     8
 71
     3
 72
    11
 73
     7
 74
     0
 42
0.000000001
 43
0.0000000001
 40
-1.0
 40
-1.0
 40
-1.0
 40
-1.0
 40
-0.75
 40
-0.5
 40
-0.25
 40
0.0
 40
0.0
 40
0.0
 40
0.0
 10
8.828914057265926
 20
21.65322418008519
 30
0.0
 10
8.873750125968854
 20
21.65322418008519
 30
0.0
 10
8.962926737098364
 20
21.64416308980019
 30
0.0
 10
9.090815490663175
 20
21.60416659211258
 30
0.0
 10
9.205055585844014
 20
21.54137774354501
 30
0.0
 10
9.269469419899891
 20
21.4877325112146
 30
0.0
 10
9.298477154147626
 20
21.45872477696687
 30
0.0
1001
REVIT
1002
{
1070
     2
1000
-2001160
1002
}
  0
LINE
  5
19B
330
184
100
AcDbEntity
  8
D12015328.415
100
AcDbLine
 10
9.298477154146432
 20
21.45872477696805
 30
0.0
 11
9.749999999997903
 21
21.00720193111658
 31
0.0
1001
REVIT
1002
{
1070
     2
1000
-2001160
1002
}
  0
SPLINE
  5
19C
330
184
100
AcDbEntity
  8
D12015328.415
100
AcDbSpline
210
0.0
220
0.0
230
1.0
 70
     8
 71
     3
 72
     9
 73
     5
 74
     0
 42
0.000000001
 43
0.0000000001
 40
-1.0
 40
-1.0
 40
-1.0
 40
-1.0
 40
-0.5
 40
0.0
 40
0.0
 40
0.0
 40
0.0
 10
11.49209279759774
 20
21.00720193111538
 30
0.0
 10
11.50283244295528
 20
21.05601169454279
 30
0.0
 10
11.52385511488795
 20
21.15371742726299
 30
0.0
 10
11.54396933257628
 20
21.25159557171387
 30
0.0
 10
11.55380056060175
 20
21.300577746872
 30
0.0
1001
REVIT
1002
{
1070
     2
1000
-2001160
1002
}
  0
SPLINE
  5
19D
330
184
100
AcDbEntity
  8
D12015328.415
100
AcDbSpline
210
0.0
220
0.0
230
1.0
 70
     8
 71
     3
 72
    11
 73
     7
 74
     0
 42
0.000000001
 43
0.0000000001
 40
-1.0
 40
-1.0
 40
-1.0
 40
-1.0
 40
-0.75
 40
-0.5
 40
-0.25
 40
0.0
 40
0.0
 40
0.0
 40
0.0
 10
11.55380056060175
 20
21.300577746872
 30
0.0
 10
11.56260723673993
 20
21.3450794295673
 30
0.0
 10
11.57358836653842
 20
21.43457446562972
 30
0.0
 10
11.57109644932424
 20
21.57101525831011
 30
0.0
 10
11.5507666480168
 20
21.7074846098634
 30
0.0
 10
11.52463487985888
 20
21.79699566520312
 30
0.0
 10
11.50847430036003
 20
21.84150802741664
 30
0.0
1001
REVIT
1002
{
1070
     2
1000
-2001160
1002
}
  0
SPLINE
  5
19E
330
184
100
AcDbEntity
  8
D12015328.415
100
AcDbSpline
210
0.0
220
0.0
230
1.0
 70
     8
 71
     3
 72
     8
 73
     4
 74
     0
 42
0.000000001
 43
0.0000000001
 40
0.8561471077847681
 40
0.8561471077847681
 40
0.8561471077847681
 40
0.8561471077847681
 40
1.0
 40
1.0
 40
1.0
 40
1.0
 10
10.47888872165993
 20
24.61875341707914
 30
0.0
 10
10.48417531764401
 20
24.61874316745565
 30
0.0
 10
10.48946880502949
 20
24.61780918053817
 30
0.0
 10
10.49469314616686
 20
24.61596228133707
 30
0.0
1001
REVIT
1002
{
1070
     2
1000
-2001160
1002
}
  0
SPLINE
  5
19F
330
184
100
AcDbEntity
  8
D12015328.415
100
AcDbSpline
210
0.0
220
0.0
230
1.0
 70
     8
 71
     3
 72
     8
 73
     4
 74
     0
 42
0.000000001
 43
0.0000000001
 40
0.0
 40
0.0
 40
0.0
 40
0.0
 40
0.1438450196100319
 40
0.1438450196100319
 40
0.1438450196100319
 40
0.1438450196100319
 10
-10.49929085128407
 20
24.61596228133707
 30
0.0
 10
-10.49407530996919
 20
24.6178091820183
 30
0.0
 10
-10.48881091915872
 20
24.61873355856609
 30
0.0
 10
-10.48354997530882
 20
24.61873564794107
 30
0.0
1001
REVIT
1002
{
1070
     2
1000
-2001160
1002
}
  0
LWPOLYLINE
  5
1A0
330
184
100
AcDbEntity
  8
D12015328.415
100
AcDbPolyline
 90
       41
 70
   128
 43
0.0
 10
-17.75000000000045
 20
20.573511097293
 10
-17.74965309359129
 20
20.5908541049804
 10
-17.74861292934003
 20
20.60816936755516
 10
-17.7468811712876
 20
20.62542918429087
 10
-17.74446058987746
 20
20.64260594316265
 10
-17.74135505752349
 20
20.65967216502049
 10
-17.737569542415
 20
20.67660054755001
 10
-17.73311010056859
 20
20.69336400895036
 10
-17.72798386613996
 20
20.70993573125932
 10
-17.72219904001066
 20
20.7262892032563
 10
-17.71576487666843
 20
20.74239826287467
 10
-17.7086916694021
 20
20.75823713905544
 10
-17.70099073383441
 20
20.77378049297551
 10
-17.6926743898195
 20
20.78900345858436
 10
-17.68375594173372
 20
20.80388168238438
 10
-17.67424965719152
 20
20.81839136239136
 10
-17.66417074422026
 20
20.83250928621253
 10
-17.65353532693064
 20
20.84621286818142
 10
-17.64236041972157
 20
20.85948018549017
 10
-17.63066390006071
 20
20.87229001326129
 10
-17.61846447988441
 20
20.88462185850296
 10
-17.60578167566254
 20
20.89645599289346
 10
-17.59263577717635
 20
20.90777348434222
 10
-17.57904781505908
 20
20.91855622727722
 10
-17.56503952715152
 20
20.92878697160994
 10
-17.55063332372606
 20
20.93844935033189
 10
-17.535852251635
 20
20.94752790569833
 10
-17.52071995744057
 20
20.95600811395732
 10
-17.50526064958544
 20
20.96387640858465
 10
-17.48949905966435
 20
20.97112020198741
 10
-17.4734604028589
 20
20.97772790564142
 10
-17.45717033759855
 20
20.98368894863039
 10
-17.44065492451273
 20
20.98899379455715
 10
-17.42394058473923
 20
20.99363395679987
 10
-17.40705405765619
 20
20.99760201208882
 10
-17.39002235810466
 20
21.00089161238199
 10
-17.37287273317069
 20
21.00349749502067
 10
-17.35563261859579
 20
21.00541549114852
 10
-17.33832959488556
 20
21.0066425323809
 10
-17.32099134318685
 20
21.00717665571358
 10
-17.3163091661778
 20
21.00720193111564
1001
REVIT
1002
{
1070
     2
1000
-2001160
1002
}
  0
LWPOLYLINE
  5
1A1
330
184
100
AcDbEntity
  8
D12015328.415
100
AcDbPolyline
 90
       41
 70
   128
 43
0.0
 10
17.31630916617756
 20
21.00720193111564
 10
17.33365217386498
 20
21.00685502470647
 10
17.35096743643973
 20
21.00581486045522
 10
17.36822725317544
 20
21.00408310240278
 10
17.38540401204722
 20
21.00166252099263
 10
17.40247023390505
 20
20.99855698863867
 10
17.41939861643458
 20
20.99477147353017
 10
17.43616207783492
 20
20.99031203168378
 10
17.45273380014389
 20
20.98518579725515
 10
17.46908727214087
 20
20.97940097112584
 10
17.48519633175924
 20
20.97296680778362
 10
17.50103520794
 20
20.96589360051729
 10
17.51657856186008
 20
20.95819266494959
 10
17.53180152746893
 20
20.94987632093468
 10
17.54667975126895
 20
20.9409578728489
 10
17.56118943127593
 20
20.9314515883067
 10
17.5753073550971
 20
20.92137267533544
 10
17.58901093706599
 20
20.91073725804582
 10
17.60227825437474
 20
20.89956235083676
 10
17.61508808214586
 20
20.8878658311759
 10
17.62741992738753
 20
20.8756664109996
 10
17.63925406177802
 20
20.86298360677773
 10
17.65057155322679
 20
20.84983770829152
 10
17.66135429616177
 20
20.83624974617427
 10
17.6715850404945
 20
20.82224145826671
 10
17.68124741921646
 20
20.80783525484124
 10
17.6903259745829
 20
20.79305418275019
 10
17.69880618284188
 20
20.77792188855577
 10
17.70667447746922
 20
20.76246258070063
 10
17.71391827087198
 20
20.74670099077954
 10
17.72052597452598
 20
20.73066233397408
 10
17.72648701751495
 20
20.71437226871374
 10
17.73179186344171
 20
20.69785685562791
 10
17.73643202568443
 20
20.68114251585442
 10
17.74040008097339
 20
20.66425598877138
 10
17.74368968126656
 20
20.64722428921985
 10
17.74629556390525
 20
20.63007466428588
 10
17.7482135600331
 20
20.61283454971097
 10
17.74944060126547
 20
20.59553152600075
 10
17.74997472459815
 20
20.57819327430204
 10
17.75000000000021
 20
20.573511097293
1001
REVIT
1002
{
1070
     2
1000
-2001160
1002
}
  0
LWPOLYLINE
  5
1A2
330
184
100
AcDbEntity
  8
D12015328.415
100
AcDbPolyline
 90
       41
 70
   128
 43
0.0
 10
17.31630916617756
 20
21.00720193111564
 10
17.3159624150818
 20
21.00720193111564
 10
17.31492271652229
 20
21.00720193111564
 10
17.31319173379494
 20
21.00720193111564
 10
17.31077223610286
 20
21.00720193111564
 10
17.30766809412623
 20
21.00720193111564
 10
17.30388427383001
 20
21.00720193111564
 10
17.29942682851953
 20
21.00720193111564
 10
17.2943028891564
 20
21.00720193111564
 10
17.28852065295054
 20
21.00720193111564
 10
17.28208937024642
 20
21.00720193111564
 10
17.27501932972444
 20
21.00720193111564
 10
17.26732184194122
 20
21.00720193111564
 10
17.25900922123519
 20
21.00720193111564
 10
17.25009476602619
 20
21.00720193111564
 10
17.24059273754093
 20
21.00720193111564
 10
17.23051833699799
 20
21.00720193111564
 10
17.21988768128912
 20
21.00720193111564
 10
17.20871777719574
 20
21.00720193111564
 10
17.19702649418159
 20
21.00720193111564
 10
17.1848325358055
 20
21.00720193111564
 10
17.17215540979963
 20
21.00720193111564
 10
17.15901539686126
 20
21.00720193111564
 10
17.14543351820806
 20
21.00720193111564
 10
17.13143150194856
 20
21.00720193111564
 10
17.11703174832183
 20
21.00720193111564
 10
17.1022572938619
 20
21.00720193111564
 10
17.08713177454418
 20
21.00720193111564
 10
17.07167938797297
 20
21.00720193111564
 10
17.05592485467046
 20
21.00720193111564
 10
17.03989337852916
 20
21.00720193111564
 10
17.02361060649099
 20
21.00720193111564
 10
17.00710258751778
 20
21.00720193111564
 10
16.99039573091833
 20
21.00720193111564
 10
16.97351676409929
 20
21.00720193111564
 10
16.95649268980688
 20
21.00720193111564
 10
16.9393507429284
 20
21.00720193111564
 10
16.92211834692208
 20
21.00720193111564
 10
16.90482306994548
 20
21.00720193111564
 10
16.88749258075231
 20
21.00720193111564
 10
16.88281249999988
 20
21.00720193111564
1001
REVIT
1002
{
1070
     2
1000
-2001160
1002
}
  0
LINE
  5
1A3
330
184
100
AcDbEntity
  8
D12015328.415
100
AcDbLine
 10
17.7499999999999
 20
20.17862665515713
 30
0.0
 11
17.7499999999999
 21
20.573511097293
 31
0.0
1001
REVIT
1002
{
1070
     2
1000
-2001160
1002
}
  0
LINE
  5
1A4
330
184
100
AcDbEntity
  8
D12015328.415
100
AcDbLine
 10
16.88281249999988
 20
21.00720193111564
 30
0.0
 11
-16.88262130829381
 21
21.00720193111564
 31
0.0
1001
REVIT
1002
{
1070
     2
1000
-2001160
1002
}
  0
LWPOLYLINE
  5
1A5
330
184
100
AcDbEntity
  8
D12015328.415
100
AcDbPolyline
 90
       41
 70
   128
 43
0.0
 10
-16.88262130829381
 20
21.00720193111564
 10
-16.89996419697542
 20
21.00720193111564
 10
-16.91727934073475
 20
21.00720193111564
 10
-16.93453903903551
 20
21.00720193111564
 10
-16.95171568004227
 20
21.00720193111564
 10
-16.96878178479358
 20
21.00720193111564
 10
-16.9857100511624
 20
21.00720193111564
 10
-17.00247339753373
 20
21.00720193111564
 10
-17.01904500612936
 20
21.00720193111564
 10
-17.03539836591062
 20
21.00720193111564
 10
-17.05150731499039
 20
21.00720193111564
 10
-17.06734608248655
 20
21.00720193111564
 10
-17.08288932974983
 20
21.00720193111564
 10
-17.09811219090036
 20
21.00720193111564
 10
-17.11299031260766
 20
21.00720193111564
 10
-17.12749989305082
 20
21.00720193111564
 10
-17.14161771999636
 20
21.00720193111564
 10
-17.15532120793278
 20
21.00720193111564
 10
-17.16858843420266
 20
21.00720193111564
 10
-17.18139817407416
 20
21.00720193111564
 10
-17.19372993469606
 20
21.00720193111564
 10
-17.20556398788203
 20
21.00720193111564
 10
-17.21688140167143
 20
21.00720193111564
 10
-17.22766407061641
 20
21.00720193111564
 10
-17.23789474474691
 20
21.00720193111564
 10
-17.24755705716669
 20
21.00720193111564
 10
-17.25663555023708
 20
21.00720193111564
 10
-17.26511570030581
 20
21.00720193111564
 10
-17.27298394094178
 20
21.00720193111564
 10
-17.28022768463843
 20
21.00720193111564
 10
-17.28683534295109
 20
21.00720193111564
 10
-17.29279634503604
 20
21.00720193111564
 10
-17.29810115456155
 20
21.00720193111564
 10
-17.30274128496398
 20
21.00720193111564
 10
-17.30670931302457
 20
21.00720193111564
 10
-17.30999889074488
 20
21.00720193111564
 10
-17.31260475550228
 20
21.00720193111564
 10
-17.31452273846905
 20
21.00720193111564
 10
-17.3157497712816
 20
21.00720193111564
 10
-17.31628389094919
 20
21.00720193111564
 10
-17.3163091661778
 20
21.00720193111564
1001
REVIT
1002
{
1070
     2
1000
-2001160
1002
}
  0
LINE
  5
1A6
330
184
100
AcDbEntity
  8
D12015328.415
100
AcDbLine
 10
-17.75000000000014
 20
20.573511097293
 30
0.0
 11
-17.75000000000014
 21
20.17862665515713
 31
0.0
1001
REVIT
1002
{
1070
     2
1000
-2001160
1002
}
  0
LINE
  5
1A7
330
184
100
AcDbEntity
  8
D12015328.415
100
AcDbLine
 10
-12.16965993488256
 20
0.3952435974681734
 30
0.0
 11
12.16965993488246
 21
0.3952435974678394
 31
0.0
1001
REVIT
1002
{
1070
     2
1000
-2001160
1002
}
  0
LINE
  5
1A8
330
184
100
AcDbEntity
  8
D12015328.415
100
AcDbLine
 10
-14.35794112195317
 20
20.17862665515713
 30
0.0
 11
-12.17142690681719
 21
0.4112199748292725
 31
0.0
1001
REVIT
1002
{
1070
     2
1000
-2001160
1002
}
  0
LINE
  5
1A9
330
184
100
AcDbEntity
  8
D12015328.415
100
AcDbLine
 10
12.17142690681709
 20
0.4112199748289314
 30
0.0
 11
14.35794112195315
 21
20.17862665515713
 31
0.0
1001
REVIT
1002
{
1070
     2
1000
-2001160
1002
}
  0
LINE
  5
1AA
330
184
100
AcDbEntity
  8
D12015328.415
100
AcDbLine
 10
16.88281249999987
 20
20.17862665515711
 30
0.0
 11
17.74999999999988
 21
20.17862665515711
 31
0.0
1001
REVIT
1002
{
1070
     2
1000
-2001160
1002
}
  0
LINE
  5
1AB
330
184
100
AcDbEntity
  8
D12015328.415
100
AcDbLine
 10
-16.88262130829381
 20
20.17862665515711
 30
0.0
 11
16.88281249999987
 21
20.17862665515711
 31
0.0
1001
REVIT
1002
{
1070
     2
1000
-2001160
1002
}
  0
LINE
  5
1AC
330
184
100
AcDbEntity
  8
D12015328.415
100
AcDbLine
 10
-17.75000000000012
 20
20.17862665515711
 30
0.0
 11
-16.88262130829381
 21
20.17862665515711
 31
0.0
1001
REVIT
1002
{
1070
     2
1000
-2001160
1002
}
  0
LWPOLYLINE
  5
1AD
330
184
100
AcDbEntity
  8
D12015328.415
100
AcDbPolyline
 90
        3
 70
   128
 43
0.0
 10
-12.17142690681724
 20
0.4112199748292725
 10
-12.169871119601
 20
0.397154720462936
 10
-12.16982818103282
 20
0.3967665299204341
1001
REVIT
1002
{
1070
     2
1000
-2001160
1002
}
  0
SPLINE
  5
1AE
330
184
100
AcDbEntity
  8
D12015328.415
100
AcDbSpline
210
0.0
220
0.0
230
1.0
 70
     8
 71
     3
 72
    31
 73
    27
 74
     0
 42
0.000000001
 43
0.0000000001
 40
0.0
 40
0.0
 40
0.0
 40
0.0
 40
0.0714285714285714
 40
0.1071428571428571
 40
0.1428571428571428
 40
0.1785714285714286
 40
0.2142857142857143
 40
0.25
 40
0.2857142857142857
 40
0.3035714285714286
 40
0.3214285714285714
 40
0.3571428571428571
 40
0.3928571428571428
 40
0.4285714285714286
 40
0.4642857142857144
 40
0.5
 40
0.5357142857142857
 40
0.5714285714285714
 40
0.6071428571428572
 40
0.6428571428571428
 40
0.6785714285714287
 40
0.7142857142857144
 40
0.75
 40
0.7857142857142857
 40
0.8571428571428571
 40
1.0
 40
1.0
 40
1.0
 40
1.0
 10
-11.59071136136836
 20
2.657427887451348
 30
0.0
 10
-11.58090209566175
 20
2.574855116231496
 30
0.0
 10
-11.57178569785127
 20
2.451886272055922
 30
0.0
 10
-11.57101699651551
 20
2.290864101582791
 30
0.0
 10
-11.57575072989406
 20
2.171906385303245
 30
0.0
 10
-11.5873266766213
 20
2.054811715918866
 30
0.0
 10
-11.60542870139913
 20
1.939901108960498
 30
0.0
 10
-11.62797982742398
 20
1.827757691713117
 30
0.0
 10
-11.64861889877227
 20
1.73700062836113
 30
0.0
 10
-11.66631451527394
 20
1.666247586358593
 30
0.0
 10
-11.68584178128336
 20
1.596724681543342
 30
0.0
 10
-11.71249391440047
 20
1.512085642171442
 30
0.0
 10
-11.74673295797247
 20
1.414097719092836
 30
0.0
 10
-11.78074724586169
 20
1.319505004212992
 30
0.0
 10
-11.8154292443979
 20
1.228731114505357
 30
0.0
 10
-11.8519871118185
 20
1.142092335701306
 30
0.0
 10
-11.88853677143642
 20
1.059392200385389
 30
0.0
 10
-11.9233578407233
 20
0.980522481297207
 30
0.0
 10
-11.95716739544059
 20
0.9057823517243832
 30
0.0
 10
-11.99090144692221
 20
0.8355434438299766
 30
0.0
 10
-12.0229813550269
 20
0.7698006347492097
 30
0.0
 10
-12.05193496160317
 20
0.7086602703682275
 30
0.0
 10
-12.07837883201566
 20
0.6523052910403351
 30
0.0
 10
-12.11150449822673
 20
0.583938337794173
 30
0.0
 10
-12.15741121437149
 20
0.4828039660185724
 30
0.0
 10
-12.17144914944714
 20
0.4300041223221243
 30
0.0
 10
-12.17142690681724
 20
0.4112199748292725
 30
0.0
1001
REVIT
1002
{
1070
     2
1000
-2001160
1002
}
  0
SPLINE
  5
1AF
330
184
100
AcDbEntity
  8
D12015328.415
100
AcDbSpline
210
0.0
220
0.0
230
1.0
 70
     8
 71
     3
 72
    10
 73
     6
 74
     0
 42
0.000000001
 43
0.0000000001
 40
0.0
 40
0.0
 40
0.0
 40
0.0
 40
0.3333333333333333
 40
0.6666666666666666
 40
1.0
 40
1.0
 40
1.0
 40
1.0
 10
-13.74339519365108
 20
20.17862665515711
 30
0.0
 10
-13.52619115242734
 20
18.23157278068541
 30
0.0
 10
-13.07662778180263
 20
14.33750188132061
 30
0.0
 10
-12.36001768793518
 20
8.496648887895617
 30
0.0
 10
-11.85261193547191
 20
4.603572296935666
 30
0.0
 10
-11.59071136136836
 20
2.657427887451348
 30
0.0
1001
REVIT
1002
{
1070
     2
1000
-2001160
1002
}
  0
SPLINE
  5
1B0
330
184
100
AcDbEntity
  8
D12015328.415
100
AcDbSpline
210
0.0
220
0.0
230
1.0
 70
     8
 71
     3
 72
    10
 73
     6
 74
     0
 42
0.000000001
 43
0.0000000001
 40
0.0
 40
0.0
 40
0.0
 40
0.0
 40
0.3333333333333333
 40
0.6666666666666666
 40
1.0
 40
1.0
 40
1.0
 40
1.0
 10
11.59071136136824
 20
2.657427887451021
 30
0.0
 10
11.8526119354718
 20
4.603572296935382
 30
0.0
 10
12.36001768793505
 20
8.49664888789541
 30
0.0
 10
13.0766277818027
 20
14.33750188132049
 30
0.0
 10
13.52619115242712
 20
18.23157278068535
 30
0.0
 10
13.74339519365092
 20
20.17862665515712
 30
0.0
1001
REVIT
1002
{
1070
     2
1000
-2001160
1002
}
  0
SPLINE
  5
1B1
330
184
100
AcDbEntity
  8
D12015328.415
100
AcDbSpline
210
0.0
220
0.0
230
1.0
 70
     8
 71
     3
 72
    32
 73
    28
 74
     0
 42
0.000000001
 43
0.0000000001
 40
0.0
 40
0.0
 40
0.0
 40
0.0
 40
0.1428571428571428
 40
0.2142857142857143
 40
0.25
 40
0.2857142857142857
 40
0.3214285714285714
 40
0.3571428571428571
 40
0.3928571428571428
 40
0.4285714285714286
 40
0.4642857142857144
 40
0.5
 40
0.5357142857142857
 40
0.5714285714285714
 40
0.6071428571428572
 40
0.6428571428571428
 40
0.6785714285714287
 40
0.6964285714285714
 40
0.7142857142857144
 40
0.7321428571428572
 40
0.75
 40
0.7857142857142857
 40
0.8214285714285713
 40
0.8571428571428571
 40
0.8928571428571427
 40
0.9285714285714286
 40
1.0
 40
1.0
 40
1.0
 40
1.0
 10
12.17142690681707
 20
0.4112199748289314
 30
0.0
 10
12.171449149447
 20
0.4300041223217832
 30
0.0
 10
12.15741121437102
 20
0.4828039660182313
 30
0.0
 10
12.11150449822713
 20
0.583938337793839
 30
0.0
 10
12.0783788320147
 20
0.6523052910399941
 30
0.0
 10
12.05193496160628
 20
0.7086602703679006
 30
0.0
 10
12.02298135501472
 20
0.7698006347488189
 30
0.0
 10
11.99090144696715
 20
0.8355434438298487
 30
0.0
 10
11.95716739527238
 20
0.905782351723289
 30
0.0
 10
11.92335784135056
 20
0.9805224812997082
 30
0.0
 10
11.88853676909496
 20
1.059392200374482
 30
0.0
 10
11.85198712055642
 20
1.142092335740457
 30
0.0
 10
11.81542921178695
 20
1.228731114357664
 30
0.0
 10
11.78074736756687
 20
1.319505004762596
 30
0.0
 10
11.74673250376194
 20
1.414097717040093
 30
0.0
 10
11.71249560953669
 20
1.512085649830808
 30
0.0
 10
11.68583679186021
 20
1.596724658997629
 30
0.0
 10
11.66632315720801
 20
1.666247625408011
 30
0.0
 10
11.65300981674455
 20
1.719312218807779
 30
0.0
 10
11.64048657291071
 20
1.773304010861423
 30
0.0
 10
11.62415011760496
 20
1.846447939577743
 30
0.0
 10
11.6054528873425
 20
1.939901218247634
 30
0.0
 10
11.58732019661369
 20
2.054811686637748
 30
0.0
 10
11.57575246398045
 20
2.171906393138627
 30
0.0
 10
11.57101654017683
 20
2.29086409952044
 30
0.0
 10
11.57178597165428
 20
2.451886273292821
 30
0.0
 10
11.58090209566162
 20
2.574855116231177
 30
0.0
 10
11.59071136136824
 20
2.657427887451028
 30
0.0
1001
REVIT
1002
{
1070
     2
1000
-2001160
1002
}
  0
LWPOLYLINE
  5
1B2
330
184
100
AcDbEntity
  8
D12015328.415
100
AcDbPolyline
 90
        3
 70
   128
 43
0.0
 10
12.16982818103273
 20
0.3967665299201002
 10
12.1698711196009
 20
0.397154720462602
 10
12.17142690681714
 20
0.4112199748289314
1001
REVIT
1002
{
1070
     2
1000
-2001160
1002
}
  0
LINE
  5
1B3
330
184
100
AcDbEntity
  8
D12015328.415
100
AcDbLine
 10
-1.479297384769097
 20
0.3971547204627868
 30
0.0
 11
-1.25
 21
0.0000000000000142
 31
0.0
1001
REVIT
1002
{
1070
     2
1000
-2001160
1002
}
  0
LINE
  5
1B4
330
184
100
AcDbEntity
  8
D12015328.415
100
AcDbLine
 10
1.250000000000014
 20
-0.0000000000000142
 30
0.0
 11
1.479297384769125
 21
0.3971547204627512
 31
0.0
1001
REVIT
1002
{
1070
     2
1000
-2001160
1002
}
  0
LINE
  5
1B5
330
184
100
AcDbEntity
  8
D12015328.415
100
AcDbLine
 10
-1.243152369210335
 20
0.0000000000000142
 30
0.0
 11
0.0
 21
0.0
 31
0.0
1001
REVIT
1002
{
1070
     2
1000
-2001160
1002
}
  0
LINE
  5
1B6
330
184
100
AcDbEntity
  8
D12015328.415
100
AcDbLine
 10
0.0000000000000142
 20
0.0
 30
0.0
 11
1.243152369210349
 21
-0.0000000000000142
 31
0.0
1001
REVIT
1002
{
1070
     2
1000
-2001160
1002
}
  0
ENDBLK
  5
1B7
330
184
100
AcDbEntity
  8
0
100
AcDbBlockEnd
  0
BLOCK
  5
25E
330
25D
100
AcDbEntity
  8
0
100
AcDbBlockBegin
  2
_ArchTick
 70
     0
 10
0.0
 20
0.0
 30
0.0
  3
_ArchTick
  1

  0
LWPOLYLINE
  5
25F
330
25D
100
AcDbEntity
  8
0
  6
ByBlock
 62
     0
380
     1
100
AcDbPolyline
 90
        2
 70
     0
 43
0.15
 10
-0.5
 20
-0.5
 10
0.5
 20
0.5
  0
ENDBLK
  5
260
330
25D
100
AcDbEntity
  8
0
100
AcDbBlockEnd
  0
BLOCK
  5
262
330
261
100
AcDbEntity
  8
0
100
AcDbBlockBegin
  2
_Open90
 70
     0
 10
0.0
 20
0.0
 30
0.0
  3
_Open90
  1

  0
LINE
  5
263
330
261
100
AcDbEntity
  8
0
  6
ByBlock
 62
     0
370
    -2
100
AcDbLine
 10
-0.5
 20
0.5
 30
0.0
 11
0.0
 21
0.0
 31
0.0
  0
LINE
  5
264
330
261
100
AcDbEntity
  8
0
  6
ByBlock
 62
     0
370
    -2
100
AcDbLine
 10
0.0
 20
0.0
 30
0.0
 11
-0.5
 21
-0.5
 31
0.0
  0
LINE
  5
265
330
261
100
AcDbEntity
  8
0
  6
ByBlock
 62
     0
370
    -2
100
AcDbLine
 10
0.0
 20
0.0
 30
0.0
 11
-1.0
 21
0.0
 31
0.0
  0
ENDBLK
  5
266
330
261
100
AcDbEntity
  8
0
100
AcDbBlockEnd
  0
BLOCK
  5
268
330
267
100
AcDbEntity
  8
0
100
AcDbBlockBegin
  2
_Small
 70
     0
 10
0.0
 20
0.0
 30
0.0
  3
_Small
  1

  0
CIRCLE
  5
269
330
267
100
AcDbEntity
  8
0
  6
ByBlock
 62
     0
370
    -2
100
AcDbCircle
 10
0.0
 20
0.0
 30
0.0
 40
0.25
  0
ENDBLK
  5
26A
330
267
100
AcDbEntity
  8
0
100
AcDbBlockEnd
  0
ENDSEC
  0
SECTION
  2
ENTITIES
  0
INSERT
  5
14F
330
70
100
AcDbEntity
  8
D12015328.415
100
AcDbBlockReference
  2
DXV_Aqua Moment_D12015328.415_Plan VIew
 10
-26.4161024891421
 20
9.105479679059612
 30
0.0
  0
INSERT
  5
183
330
70
100
AcDbEntity
  8
D12015328.415
100
AcDbBlockReference
  2
DXV_Aqua Moment_D12015328.415_Front View
 10
-26.41610248914211
 20
-48.16143267219135
 30
0.0
  0
INSERT
  5
1BF
330
70
100
AcDbEntity
  8
D12015328.415
100
AcDbBlockReference
  2
DXV_Aqua Moment_D12015328.415_Side View
 10
-66.6453445787609
 20
-48.16143267219135
 30
0.0
  0
ENDSEC
  0
SECTION
  2
OBJECTS
  0
DICTIONARY
  5
C
330
0
100
AcDbDictionary
281
     1
  3
ACAD_CIP_PREVIOUS_PRODUCT_INFO
350
79
  3
ACAD_COLOR
350
63
  3
ACAD_DETAILVIEWSTYLE
350
6A
  3
ACAD_GROUP
350
D
  3
ACAD_IMAGE_VARS
350
7A
  3
ACAD_LAYOUT
350
62
  3
ACAD_MATERIAL
350
10
  3
ACAD_MLEADERSTYLE
350
66
  3
ACAD_MLINESTYLE
350
5F
  3
ACAD_PLOTSETTINGS
350
61
  3
ACAD_PLOTSTYLENAME
350
E
  3
ACAD_SCALELIST
350
42
  3
ACAD_SECTIONVIEWSTYLE
350
68
  3
ACAD_TABLESTYLE
350
64
  3
ACAD_VISUALSTYLE
350
29
  3
AcAec
350
468
  3
ACDB_RECOMPOSE_DATA
350
472
  3
AcDbVariableDictionary
350
F1
  3
AEC_DISP_REP_CONFIGURATIONS
350
27D
  3
AEC_DISP_REP_SETS
350
281
  3
AEC_DISP_REPS
350
28E
  3
AEC_DISPLAY_PROPS_DEFAULTS
350
388
  3
AEC_LAYERKEY_STYLES
350
25C
  3
AEC_PROPERTY_SET_DEFS
350
181
  3
AEC_VARS
350
25A
  3
REVIT_DICTIONARY
350
E6
  0
DICTIONARY
  5
27B
330
2
100
AcDbDictionary
280
     1
281
     1
  3
ACAD_LAYERSTATES
360
27C
  0
DICTIONARY
  5
E9
330
70
100
AcDbDictionary
280
     1
281
     1
  3
ACAD_SORTENTS
360
EA
  0
DICTIONARY
  5
185
330
184
100
AcDbDictionary
280
     1
281
     1
  3
ACAD_SORTENTS
360
259
  0
XRECORD
  5
79
102
{ACAD_REACTORS
330
C
102
}
330
C
100
AcDbXrecord
280
     1
300
ARCHDESK
300
2014
300
86137ARCHDESK_2014_0F
  0
DICTIONARY
  5
63
102
{ACAD_REACTORS
330
C
102
}
330
C
100
AcDbDictionary
281
     1
  0
DICTIONARY
  5
6A
102
{ACAD_REACTORS
330
C
102
}
330
C
100
AcDbDictionary
281
     1
  3
Imperial24
350
6B
  0
DICTIONARY
  5
D
102
{ACAD_REACTORS
330
C
102
}
330
C
100
AcDbDictionary
281
     1
  0
RASTERVARIABLES
  5
7A
102
{ACAD_REACTORS
330
C
102
}
330
C
100
AcDbRasterVariables
 90
        0
 70
     0
 71
     1
 72
     5
  0
DICTIONARY
  5
62
102
{ACAD_REACTORS
330
C
102
}
330
C
100
AcDbDictionary
281
     1
  3
Layout1
350
6F
  3
Layout2
350
77
  3
Model
350
73
  0
DICTIONARY
  5
10
102
{ACAD_REACTORS
330
C
102
}
330
C
100
AcDbDictionary
281
     1
  3
ByBlock
350
19
  3
ByLayer
350
11
  3
Global
350
21
  0
DICTIONARY
  5
66
102
{ACAD_REACTORS
330
C
102
}
330
C
100
AcDbDictionary
281
     1
  3
Standard
350
67
  0
DICTIONARY
  5
5F
102
{ACAD_REACTORS
330
C
102
}
330
C
100
AcDbDictionary
281
     1
  3
Standard
350
60
  0
DICTIONARY
  5
61
102
{ACAD_REACTORS
330
C
102
}
330
C
100
AcDbDictionary
281
     1
  0
ACDBDICTIONARYWDFLT
  5
E
102
{ACAD_REACTORS
330
C
102
}
330
C
100
AcDbDictionary
281
     1
  3
Full Saturation
350
27A
  3
Normal
350
F
100
AcDbDictionaryWithDefault
340
F
  0
DICTIONARY
  5
42
102
{ACAD_REACTORS
330
C
102
}
330
C
100
AcDbDictionary
281
     1
  3
A0
350
43
  3
A1
350
44
  3
A2
350
45
  3
A3
350
46
  3
A4
350
47
  3
A5
350
48
  3
A6
350
49
  3
A7
350
4A
  3
A8
350
4B
  3
A9
350
4C
  3
B0
350
4D
  3
B1
350
4E
  3
B2
350
4F
  3
B3
350
50
  3
B4
350
51
  3
B5
350
52
  3
B6
350
53
  0
DICTIONARY
  5
68
102
{ACAD_REACTORS
330
C
102
}
330
C
100
AcDbDictionary
281
     1
  3
Imperial24
350
69
  0
DICTIONARY
  5
64
102
{ACAD_REACTORS
330
C
102
}
330
C
100
AcDbDictionary
281
     1
  3
Standard
350
65
  0
DICTIONARY
  5
29
102
{ACAD_REACTORS
330
C
102
}
330
C
100
AcDbDictionary
281
     1
  3
2dWireframe
350
2F
  3
Basic
350
2E
  3
Brighten
350
35
  3
ColorChange
350
39
  3
Conceptual
350
32
  3
Dim
350
34
  3
EdgeColorOff
350
41
  3
Facepattern
350
38
  3
Flat
350
2A
  3
FlatWithEdges
350
2B
  3
Gouraud
350
2C
  3
GouraudWithEdges
350
2D
  3
Hidden
350
31
  3
JitterOff
350
3F
  3
Linepattern
350
37
  3
OverhangOff
350
40
  3
Realistic
350
33
  3
Shaded
350
3E
  3
Shaded with edges
350
3D
  3
Shades of Gray
350
3A
  3
Sketchy
350
3B
  3
Thicken
350
36
  3
Wireframe
350
30
  3
X-Ray
350
3C
  0
DICTIONARY
  5
468
102
{ACAD_REACTORS
330
C
102
}
330
C
100
AcDbDictionary
281
     1
  3
AcAecLayerManager
350
469
  0
XRECORD
  5
472
102
{ACAD_REACTORS
330
C
102
}
330
C
100
AcDbXrecord
280
     1
 90
        1
330
65
330
69
330
6B
  0
DICTIONARY
  5
F1
102
{ACAD_REACTORS
330
C
102
}
330
C
100
AcDbDictionary
281
     1
  3
CANNOSCALE
350
F6
  3
CMLEADERSTYLE
350
F3
  3
CTABLESTYLE
350
F2
  3
CVIEWDETAILSTYLE
350
F4
  3
CVIEWSECTIONSTYLE
350
F5
  0
DICTIONARY
  5
27D
102
{ACAD_REACTORS
330
C
102
}
330
C
100
AcDbDictionary
281
     1
  3
Medium Detail
350
27E
1001
AECBASE
1070
 10000
1005
27E
  0
DICTIONARY
  5
281
102
{ACAD_REACTORS
330
C
102
}
330
C
100
AcDbDictionary
281
     1
  3
Model
350
282
  3
Model High Detail
350
467
  3
Model Low Detail
350
466
  3
Plan
350
285
  3
Plan Diagnostic
350
288
  3
Plan High Detail
350
465
  3
Plan Low Detail
350
464
  3
Reflected
350
463
  3
Section_Elev
350
28B
  0
DICTIONARY
  5
28E
102
{ACAD_REACTORS
330
C
102
}
330
C
100
AcDbDictionary
281
     1
  3
AecDbDispRep2dSection
350
28F
  3
AecDbDispRepAnchor
350
3E1
  3
AecDbDispRepAnchorBubToGrid
350
292
  3
AecDbDispRepAnchorBubToGridMdl
350
295
  3
AecDbDispRepAnchorBubToGridRcp
350
41B
  3
AecDbDispRepAnchorEntToNode
350
298
  3
AecDbDispRepAnchorExtendedTagToEnt
350
29B
  3
AecDbDispRepAnchorTagToEnt
350
29E
  3
AecDbDispRepBdgElevLineModel
350
2A1
  3
AecDbDispRepBdgElevLinePlan
350
2A4
  3
AecDbDispRepBdgElevLinePlan100
350
3E5
  3
AecDbDispRepBdgElevLinePlan50
350
400
  3
AecDbDispRepBdgElevLineRcp
350
41D
  3
AecDbDispRepBdgSectionLineModel
350
2A7
  3
AecDbDispRepBdgSectionLinePlan
350
2AA
  3
AecDbDispRepBdgSectionLinePlan100
350
3E7
  3
AecDbDispRepBdgSectionLinePlan50
350
402
  3
AecDbDispRepBdgSectionLineRcp
350
41F
  3
AecDbDispRepBdgSectionModel
350
421
  3
AecDbDispRepBdgSectionSubDiv
350
2AD
  3
AecDbDispRepCeilingGrid
350
3E9
  3
AecDbDispRepCeilingGridModel
350
2B0
  3
AecDbDispRepCeilingGridPlan100
350
3EB
  3
AecDbDispRepCeilingGridPlan50
350
404
  3
AecDbDispRepCeilingGridRcp
350
422
  3
AecDbDispRepClipVolModel
350
2B3
  3
AecDbDispRepClipVolPlan
350
2B6
  3
AecDbDispRepClipVolResSubDiv
350
2B9
  3
AecDbDispRepClipVolResult
350
3E2
  3
AecDbDispRepColumnGrid
350
2BC
  3
AecDbDispRepColumnGridModel
350
2BF
  3
AecDbDispRepColumnGridPlan100
350
3ED
  3
AecDbDispRepColumnGridPlan50
350
406
  3
AecDbDispRepColumnGridRcp
350
424
  3
AecDbDispRepCurtainWallLayoutModel
350
2C2
  3
AecDbDispRepCurtainWallLayoutPlan
350
2C5
  3
AecDbDispRepCurtainWallLayoutPlan100
350
3EF
  3
AecDbDispRepCurtainWallLayoutPlan50
350
408
  3
AecDbDispRepCurtainWallUnitModel
350
2C8
  3
AecDbDispRepCurtainWallUnitPlan
350
2CB
  3
AecDbDispRepCurtainWallUnitPlan100
350
3F1
  3
AecDbDispRepCurtainWallUnitPlan50
350
40A
  3
AecDbDispRepDimGroupPlan
350
2CE
  3
AecDbDispRepDimGroupPlan100
350
426
  3
AecDbDispRepDimGroupPlan50
350
428
  3
AecDbDispRepDisplayTheme
350
2D1
  3
AecDbDispRepDoorElev
350
2D4
  3
AecDbDispRepDoorModel
350
2D7
  3
AecDbDispRepDoorNominal
350
2DA
  3
AecDbDispRepDoorPlan
350
2DD
  3
AecDbDispRepDoorPlan50
350
42A
  3
AecDbDispRepDoorPlanHekto
350
42C
  3
AecDbDispRepDoorRcp
350
42E
  3
AecDbDispRepDoorThresholdPlan
350
2E0
  3
AecDbDispRepDoorThresholdSymbolPlan
350
430
  3
AecDbDispRepEditInPlaceProfile
350
2E3
  3
AecDbDispRepEntRef
350
2E6
  3
AecDbDispRepLayoutCurve
350
2E9
  3
AecDbDispRepLayoutGrid2d
350
2EC
  3
AecDbDispRepLayoutGrid3d
350
2EF
  3
AecDbDispRepMaskBlockRef
350
2F2
  3
AecDbDispRepMaskBlockRefRcp
350
2F5
  3
AecDbDispRepMassElemModel
350
2F8
  3
AecDbDispRepMassElemPlan100
350
432
  3
AecDbDispRepMassElemPlan50
350
2FB
  3
AecDbDispRepMassElemRcp
350
434
  3
AecDbDispRepMassElemSchem
350
2FE
  3
AecDbDispRepMassGroupModel
350
301
  3
AecDbDispRepMassGroupPlan
350
304
  3
AecDbDispRepMassGroupPlan100
350
436
  3
AecDbDispRepMassGroupPlan50
350
438
  3
AecDbDispRepMassGroupRcp
350
43A
  3
AecDbDispRepMaterial
350
307
  3
AecDbDispRepMaterial$General Medium Detail
350
30A
  3
AecDbDispRepMvBlockRef
350
30D
  3
AecDbDispRepMvBlockRef$Plan
350
310
  3
AecDbDispRepMvBlockRefModel
350
313
  3
AecDbDispRepMvBlockRefPlan100
350
3F3
  3
AecDbDispRepMvBlockRefPlan50
350
40C
  3
AecDbDispRepMvBlockRefRcp
350
43C
  3
AecDbDispRepOpening
350
316
  3
AecDbDispRepOpeningModel
350
319
  3
AecDbDispRepOpeningPlan100
350
43D
  3
AecDbDispRepOpeningPlan50
350
31C
  3
AecDbDispRepOpeningPlanReflected
350
43F
  3
AecDbDispRepOpeningSillPlan
350
31F
  3
AecDbDispRepPolygonModel
350
322
  3
AecDbDispRepPolygonTrueColour
350
3E3
  3
AecDbDispRepRailingModel
350
325
  3
AecDbDispRepRailingPlan
350
328
  3
AecDbDispRepRailingPlan100
350
441
  3
AecDbDispRepRailingPlan50
350
443
  3
AecDbDispRepRoofModel
350
32B
  3
AecDbDispRepRoofPlan
350
32E
  3
AecDbDispRepRoofPlan100
350
3F4
  3
AecDbDispRepRoofPlan50
350
40D
  3
AecDbDispRepRoofRcp
350
445
  3
AecDbDispRepRoofSlabModel
350
331
  3
AecDbDispRepRoofSlabPlan
350
334
  3
AecDbDispRepRoofSlabPlan100
350
3F6
  3
AecDbDispRepRoofSlabPlan50
350
40F
  3
AecDbDispRepScheduleTable
350
337
  3
AecDbDispRepSlabModel
350
33A
  3
AecDbDispRepSlabPlan
350
33D
  3
AecDbDispRepSlabPlan100
350
3F8
  3
AecDbDispRepSlabPlan50
350
411
  3
AecDbDispRepSlice
350
340
  3
AecDbDispRepSpaceDecomposed
350
343
  3
AecDbDispRepSpaceModel
350
346
  3
AecDbDispRepSpacePlan
350
349
  3
AecDbDispRepSpacePlan100
350
3FA
  3
AecDbDispRepSpacePlan50
350
413
  3
AecDbDispRepSpaceRcp
350
447
  3
AecDbDispRepSpaceVolume
350
34C
  3
AecDbDispRepStairModel
350
34F
  3
AecDbDispRepStairPlan
350
352
  3
AecDbDispRepStairPlan100
350
449
  3
AecDbDispRepStairPlan50
350
44B
  3
AecDbDispRepStairPlanOverlapping
350
44D
  3
AecDbDispRepStairRcp
350
44F
  3
AecDbDispRepWallGraph
350
355
  3
AecDbDispRepWallModel
350
358
  3
AecDbDispRepWallPlan
350
35B
  3
AecDbDispRepWallPlan100
350
3FC
  3
AecDbDispRepWallPlan50
350
415
  3
AecDbDispRepWallRcp
350
451
  3
AecDbDispRepWallSchem
350
35E
  3
AecDbDispRepWindowAssemblyModel
350
361
  3
AecDbDispRepWindowAssemblyPlan
350
364
  3
AecDbDispRepWindowAssemblyPlan100
350
367
  3
AecDbDispRepWindowAssemblyPlan50
350
417
  3
AecDbDispRepWindowAssemblySillPlan
350
36A
  3
AecDbDispRepWindowElev
350
36D
  3
AecDbDispRepWindowModel
350
370
  3
AecDbDispRepWindowNominal
350
373
  3
AecDbDispRepWindowPlan
350
376
  3
AecDbDispRepWindowPlan100
350
453
  3
AecDbDispRepWindowPlan50
350
455
  3
AecDbDispRepWindowRcp
350
457
  3
AecDbDispRepWindowSillPlan
350
379
  3
AecDbDispRepZone
350
37C
  3
AecDbDispRepZonePlan100
350
3FE
  3
AecDbDispRepZonePlan50
350
419
  3
AecsDbDispRepMemberElevationDesign
350
459
  3
AecsDbDispRepMemberElevationDetail
350
45B
  3
AecsDbDispRepMemberLogical
350
37F
  3
AecsDbDispRepMemberModelDesign
350
382
  3
AecsDbDispRepMemberModelDetail
350
45D
  3
AecsDbDispRepMemberPlanDesign
350
385
  3
AecsDbDispRepMemberPlanDetail
350
45F
  3
AecsDbDispRepMemberPlanSketch
350
461
  0
DICTIONARY
  5
388
102
{ACAD_REACTORS
330
C
102
}
330
C
100
AcDbDictionary
281
     1
  3
*A108
350
389
  3
*A113
350
38A
  3
*A117
350
38B
  3
*A122
350
38C
  3
*A125
350
38D
  3
*A13
350
38E
  3
*A130
350
38F
  3
*A133
350
390
  3
*A136
350
391
  3
*A140
350
392
  3
*A142
350
393
  3
*A143
350
394
  3
*A145
350
395
  3
*A148
350
396
  3
*A150
350
397
  3
*A152
350
398
  3
*A167
350
399
  3
*A169
350
39A
  3
*A17
350
39B
  3
*A172
350
39C
  3
*A178
350
39D
  3
*A179
350
39E
  3
*A180
350
39F
  3
*A182
350
3A0
  3
*A184
350
3A1
  3
*A187
350
3A2
  3
*A189
350
3A3
  3
*A19
350
3A4
  3
*A190
350
3A5
  3
*A192
350
3A6
  3
*A196
350
3A7
  3
*A198
350
3A8
  3
*A199
350
3A9
  3
*A20
350
3AA
  3
*A202
350
3AB
  3
*A205
350
3AC
  3
*A211
350
3AD
  3
*A212
350
3AE
  3
*A213
350
3AF
  3
*A221
350
3B0
  3
*A222
350
3B1
  3
*A225
350
3B2
  3
*A227
350
3B3
  3
*A229
350
3B4
  3
*A23
350
3B5
  3
*A230
350
3B6
  3
*A233
350
3B7
  3
*A235
350
3B8
  3
*A238
350
3B9
  3
*A239
350
3BA
  3
*A240
350
3BB
  3
*A241
350
3BC
  3
*A242
350
3BD
  3
*A248
350
3BE
  3
*A253
350
3BF
  3
*A26
350
3C0
  3
*A263
350
3C1
  3
*A268
350
3C2
  3
*A269
350
3E4
  3
*A270
350
3E6
  3
*A271
350
3E8
  3
*A272
350
3EA
  3
*A273
350
3EC
  3
*A274
350
3EE
  3
*A275
350
3F0
  3
*A276
350
3F2
  3
*A277
350
3F5
  3
*A278
350
3F7
  3
*A279
350
3F9
  3
*A280
350
3FB
  3
*A281
350
3FD
  3
*A282
350
3FF
  3
*A283
350
401
  3
*A284
350
403
  3
*A285
350
405
  3
*A286
350
407
  3
*A287
350
409
  3
*A288
350
40B
  3
*A289
350
40E
  3
*A290
350
410
  3
*A291
350
412
  3
*A292
350
414
  3
*A293
350
416
  3
*A294
350
418
  3
*A295
350
41A
  3
*A296
350
41C
  3
*A297
350
41E
  3
*A298
350
420
  3
*A299
350
423
  3
*A30
350
3C3
  3
*A300
350
425
  3
*A301
350
427
  3
*A302
350
429
  3
*A303
350
42B
  3
*A304
350
42D
  3
*A305
350
42F
  3
*A306
350
431
  3
*A307
350
433
  3
*A308
350
435
  3
*A309
350
437
  3
*A310
350
439
  3
*A311
350
43B
  3
*A312
350
43E
  3
*A313
350
440
  3
*A314
350
442
  3
*A315
350
444
  3
*A316
350
446
  3
*A317
350
448
  3
*A318
350
44A
  3
*A319
350
44C
  3
*A320
350
44E
  3
*A321
350
450
  3
*A322
350
452
  3
*A323
350
454
  3
*A324
350
456
  3
*A325
350
458
  3
*A326
350
45A
  3
*A327
350
45C
  3
*A328
350
45E
  3
*A329
350
460
  3
*A330
350
462
  3
*A38
350
3C4
  3
*A42
350
3C5
  3
*A44
350
3C6
  3
*A46
350
3C7
  3
*A48
350
3C8
  3
*A5
350
3C9
  3
*A55
350
3CA
  3
*A57
350
3CB
  3
*A58
350
3CC
  3
*A6
350
3CD
  3
*A60
350
3CE
  3
*A63
350
3CF
  3
*A67
350
3D0
  3
*A68
350
3D1
  3
*A69
350
3D2
  3
*A72
350
3D3
  3
*A78
350
3D4
  3
*A80
350
3D5
  3
*A82
350
3D6
  3
*A85
350
3D7
  3
*A91
350
3D8
  0
DICTIONARY
  5
25C
102
{ACAD_REACTORS
330
C
102
}
330
C
100
AcDbDictionary
281
     1
  3
AIA (256 Color)
350
3D9
  0
DICTIONARY
  5
181
102
{ACAD_REACTORS
330
C
102
}
330
C
100
AcDbDictionary
281
     1
  0
DICTIONARY
  5
25A
102
{ACAD_REACTORS
330
C
102
}
330
C
100
AcDbDictionary
281
     1
  3
AEC_VARS_ARCHBASE
350
3DC
  3
AEC_VARS_DWG_SETUP
350
25B
  3
AEC_VARS_STRUCTUREBASE
350
3DD
  3
AECMX_VARS_MUNICH
350
3DE
  0
DICTIONARY
  5
E6
102
{ACAD_REACTORS
330
C
102
}
330
C
100
AcDbDictionary
281
     1
  3
DRAWING_TOOL
350
E8
  3
REVIT_CATEGORY_MAPPING
350
E7
  0
DICTIONARY
  5
27C
102
{ACAD_REACTORS
330
27B
102
}
330
27B
100
AcDbDictionary
281
     1
  0
SORTENTSTABLE
  5
EA
102
{ACAD_REACTORS
330
E9
102
}
330
E9
100
AcDbSortentsTable
330
70
  0
SORTENTSTABLE
  5
259
102
{ACAD_REACTORS
330
185
102
}
330
185
100
AcDbSortentsTable
330
184
  0
ACDBDETAILVIEWSTYLE
  5
6B
102
{ACAD_XDICTIONARY
360
EE
102
}
102
{ACAD_REACTORS
330
6A
102
}
330
6A
100
AcDbModelDocViewStyle
 70
     0
  3
Imperial24
290
     0
100
AcDbDetailViewStyle
 70
     0
 71
     0
 90
        3
 71
     1
340
55
 62
   256
 40
0.24
340
0
 62
   256
 40
0.24
300

 40
0.36
280
     3
 71
     2
340
5D
 90
       25
 62
   256
 71
     3
340
55
 62
   256
 40
0.24
 90
        1
 40
0.75
 90
        1
300
%<\AcVar ViewType \f "%tc1">% %<\AcVar ViewDetailId>%\PSCALE %<\AcVar ViewScale \f "%sn">%
 71
     4
340
5D
 90
       25
 62
   256
340
5D
 90
       25
 62
   256
280
     0
  0
LAYOUT
  5
6F
102
{ACAD_REACTORS
330
62
102
}
330
62
100
AcDbPlotSettings
  1

  2

  4

  6

 40
0.0
 41
0.0
 42
0.0
 43
0.0
 44
0.0
 45
0.0
 46
0.0
 47
0.0
 48
0.0
 49
0.0
140
0.0
141
0.0
142
1.0
143
1.0
 70
   688
 72
     0
 73
     0
 74
     5
  7

 75
    16
147
1.0
 76
     0
 77
     2
 78
   300
148
0.0
149
0.0
100
AcDbLayout
  1
Layout1
 70
     1
 71
     1
 10
0.0
 20
0.0
 11
12.0
 21
9.0
 12
0.0
 22
0.0
 32
0.0
 14
1.000000000000000E+20
 24
1.000000000000000E+20
 34
1.000000000000000E+20
 15
-1.000000000000000E+20
 25
-1.000000000000000E+20
 35
-1.000000000000000E+20
146
0.0
 13
0.0
 23
0.0
 33
0.0
 16
1.0
 26
0.0
 36
0.0
 17
0.0
 27
1.0
 37
0.0
 76
     0
330
6C
  0
LAYOUT
  5
77
102
{ACAD_REACTORS
330
62
102
}
330
62
100
AcDbPlotSettings
  1

  2

  4

  6

 40
0.0
 41
0.0
 42
0.0
 43
0.0
 44
0.0
 45
0.0
 46
0.0
 47
0.0
 48
0.0
 49
0.0
140
0.0
141
0.0
142
1.0
143
1.0
 70
   688
 72
     0
 73
     0
 74
     5
  7

 75
    16
147
1.0
 76
     0
 77
     2
 78
   300
148
0.0
149
0.0
100
AcDbLayout
  1
Layout2
 70
     1
 71
     2
 10
0.0
 20
0.0
 11
12.0
 21
9.0
 12
0.0
 22
0.0
 32
0.0
 14
0.0
 24
0.0
 34
0.0
 15
0.0
 25
0.0
 35
0.0
146
0.0
 13
0.0
 23
0.0
 33
0.0
 16
1.0
 26
0.0
 36
0.0
 17
0.0
 27
1.0
 37
0.0
 76
     0
330
74
  0
LAYOUT
  5
73
102
{ACAD_REACTORS
330
62
102
}
330
62
100
AcDbPlotSettings
  1

  2

  4

  6

 40
0.0
 41
0.0
 42
0.0
 43
0.0
 44
0.0
 45
0.0
 46
0.0
 47
0.0
 48
0.0
 49
0.0
140
0.0
141
0.0
142
1.0
143
1.0
 70
  1712
 72
     0
 73
     0
 74
     0
  7

 75
     0
147
1.0
 76
     0
 77
     2
 78
   300
148
0.0
149
0.0
100
AcDbLayout
  1
Model
 70
     1
 71
     0
 10
0.0
 20
0.0
 11
12.0
 21
9.0
 12
0.0
 22
0.0
 32
0.0
 14
0.0
 24
0.0
 34
0.0
 15
0.0
 25
0.0
 35
0.0
146
0.0
 13
0.0
 23
0.0
 33
0.0
 16
1.0
 26
0.0
 36
0.0
 17
0.0
 27
1.0
 37
0.0
 76
     0
330
70
331
57
  0
MATERIAL
  5
19
102
{ACAD_XDICTIONARY
360
1A
102
}
102
{ACAD_REACTORS
330
10
102
}
330
10
100
AcDbMaterial
  1
ByBlock
 72
     0
 43
0.0208333333333333
 43
0.0
 43
0.0
 43
0.0
 43
0.0
 43
0.0208333333333333
 43
0.0
 43
0.0
 43
0.0
 43
0.0
 43
1.0
 43
0.0
 43
0.0
 43
0.0
 43
0.0
 43
1.0
 77
     0
 47
0.0208333333333333
 47
0.0
 47
0.0
 47
0.0
 47
0.0
 47
0.0208333333333333
 47
0.0
 47
0.0
 47
0.0
 47
0.0
 47
1.0
 47
0.0
 47
0.0
 47
0.0
 47
0.0
 47
1.0
171
     0
 49
0.0208333333333333
 49
0.0
 49
0.0
 49
0.0
 49
0.0
 49
0.0208333333333333
 49
0.0
 49
0.0
 49
0.0
 49
0.0
 49
1.0
 49
0.0
 49
0.0
 49
0.0
 49
0.0
 49
1.0
175
     0
142
0.0208333333333333
142
0.0
142
0.0
142
0.0
142
0.0
142
0.0208333333333333
142
0.0
142
0.0
142
0.0
142
0.0
142
1.0
142
0.0
142
0.0
142
0.0
142
0.0
142
1.0
179
     0
144
0.0208333333333333
144
0.0
144
0.0
144
0.0
144
0.0
144
0.0208333333333333
144
0.0
144
0.0
144
0.0
144
0.0
144
1.0
144
0.0
144
0.0
144
0.0
144
0.0
144
1.0
147
0.0208333333333333
147
0.0
147
0.0
147
0.0
147
0.0
147
0.0208333333333333
147
0.0
147
0.0
147
0.0
147
0.0
147
1.0
147
0.0
147
0.0
147
0.0
147
0.0
147
1.0
  0
MATERIAL
  5
11
102
{ACAD_XDICTIONARY
360
12
102
}
102
{ACAD_REACTORS
330
10
102
}
330
10
100
AcDbMaterial
  1
ByLayer
 72
     0
 43
0.0208333333333333
 43
0.0
 43
0.0
 43
0.0
 43
0.0
 43
0.0208333333333333
 43
0.0
 43
0.0
 43
0.0
 43
0.0
 43
1.0
 43
0.0
 43
0.0
 43
0.0
 43
0.0
 43
1.0
 77
     0
 47
0.0208333333333333
 47
0.0
 47
0.0
 47
0.0
 47
0.0
 47
0.0208333333333333
 47
0.0
 47
0.0
 47
0.0
 47
0.0
 47
1.0
 47
0.0
 47
0.0
 47
0.0
 47
0.0
 47
1.0
171
     0
 49
0.0208333333333333
 49
0.0
 49
0.0
 49
0.0
 49
0.0
 49
0.0208333333333333
 49
0.0
 49
0.0
 49
0.0
 49
0.0
 49
1.0
 49
0.0
 49
0.0
 49
0.0
 49
0.0
 49
1.0
175
     0
142
0.0208333333333333
142
0.0
142
0.0
142
0.0
142
0.0
142
0.0208333333333333
142
0.0
142
0.0
142
0.0
142
0.0
142
1.0
142
0.0
142
0.0
142
0.0
142
0.0
142
1.0
179
     0
144
0.0208333333333333
144
0.0
144
0.0
144
0.0
144
0.0
144
0.0208333333333333
144
0.0
144
0.0
144
0.0
144
0.0
144
1.0
144
0.0
144
0.0
144
0.0
144
0.0
144
1.0
147
0.0208333333333333
147
0.0
147
0.0
147
0.0
147
0.0
147
0.0208333333333333
147
0.0
147
0.0
147
0.0
147
0.0
147
1.0
147
0.0
147
0.0
147
0.0
147
0.0
147
1.0
  0
MATERIAL
  5
21
102
{ACAD_XDICTIONARY
360
22
102
}
102
{ACAD_REACTORS
330
10
102
}
330
10
100
AcDbMaterial
  1
Global
 72
     0
 43
0.0208333333333333
 43
0.0
 43
0.0
 43
0.0
 43
0.0
 43
0.0208333333333333
 43
0.0
 43
0.0
 43
0.0
 43
0.0
 43
1.0
 43
0.0
 43
0.0
 43
0.0
 43
0.0
 43
1.0
 77
     0
 47
0.0208333333333333
 47
0.0
 47
0.0
 47
0.0
 47
0.0
 47
0.0208333333333333
 47
0.0
 47
0.0
 47
0.0
 47
0.0
 47
1.0
 47
0.0
 47
0.0
 47
0.0
 47
0.0
 47
1.0
171
     0
 49
0.0208333333333333
 49
0.0
 49
0.0
 49
0.0
 49
0.0
 49
0.0208333333333333
 49
0.0
 49
0.0
 49
0.0
 49
0.0
 49
1.0
 49
0.0
 49
0.0
 49
0.0
 49
0.0
 49
1.0
175
     0
142
0.0208333333333333
142
0.0
142
0.0
142
0.0
142
0.0
142
0.0208333333333333
142
0.0
142
0.0
142
0.0
142
0.0
142
1.0
142
0.0
142
0.0
142
0.0
142
0.0
142
1.0
179
     0
144
0.0208333333333333
144
0.0
144
0.0
144
0.0
144
0.0
144
0.0208333333333333
144
0.0
144
0.0
144
0.0
144
0.0
144
1.0
144
0.0
144
0.0
144
0.0
144
0.0
144
1.0
147
0.0208333333333333
147
0.0
147
0.0
147
0.0
147
0.0
147
0.0208333333333333
147
0.0
147
0.0
147
0.0
147
0.0
147
1.0
147
0.0
147
0.0
147
0.0
147
0.0
147
1.0
  0
MLEADERSTYLE
  5
67
102
{ACAD_REACTORS
330
66
102
}
330
66
100
AcDbMLeaderStyle
179
     2
170
     2
171
     1
172
     0
 90
        2
 40
0.0
 41
0.0
173
     1
 91
-1056964608
340
5B
 92
       -2
290
     1
 42
0.09
291
     1
 43
0.36
  3
Standard
 44
0.18
300

342
55
174
     1
178
     6
175
     1
176
     0
 93
-1056964608
 45
0.18
292
     0
297
     0
 46
0.18
 94
-1056964608
 47
1.0
 49
1.0
140
1.0
293
     1
141
0.0
294
     1
177
     0
142
1.0
295
     1
296
     0
143
0.125
271
     0
272
     9
273
     9
298
     1
  0
MLINESTYLE
  5
60
102
{ACAD_REACTORS
330
5F
102
}
330
5F
100
AcDbMlineStyle
  2
STANDARD
 70
     0
  3

 62
   256
 51
90.0
 52
90.0
 71
     2
 49
0.5
 62
   256
  6
BYLAYER
 49
-0.5
 62
   256
  6
BYLAYER
  0
ACDBPLACEHOLDER
  5
27A
102
{ACAD_REACTORS
330
E
102
}
330
E
  0
ACDBPLACEHOLDER
  5
F
102
{ACAD_REACTORS
330
E
102
}
330
E
  0
SCALE
  5
43
102
{ACAD_REACTORS
330
42
102
}
330
42
100
AcDbScale
 70
     0
300
1:1
140
1.0
141
1.0
290
     1
  0
SCALE
  5
44
102
{ACAD_REACTORS
330
42
102
}
330
42
100
AcDbScale
 70
     0
300
1/128" = 1'-0"
140
0.0078125
141
12.0
290
     0
  0
SCALE
  5
45
102
{ACAD_REACTORS
330
42
102
}
330
42
100
AcDbScale
 70
     0
300
1/64" = 1'-0"
140
0.015625
141
12.0
290
     0
  0
SCALE
  5
46
102
{ACAD_REACTORS
330
42
102
}
330
42
100
AcDbScale
 70
     0
300
1/32" = 1'-0"
140
0.03125
141
12.0
290
     0
  0
SCALE
  5
47
102
{ACAD_REACTORS
330
42
102
}
330
42
100
AcDbScale
 70
     0
300
1/16" = 1'-0"
140
0.0625
141
12.0
290
     0
  0
SCALE
  5
48
102
{ACAD_REACTORS
330
42
102
}
330
42
100
AcDbScale
 70
     0
300
3/32" = 1'-0"
140
0.09375
141
12.0
290
     0
  0
SCALE
  5
49
102
{ACAD_REACTORS
330
42
102
}
330
42
100
AcDbScale
 70
     0
300
1/8" = 1'-0"
140
0.125
141
12.0
290
     0
  0
SCALE
  5
4A
102
{ACAD_REACTORS
330
42
102
}
330
42
100
AcDbScale
 70
     0
300
3/16" = 1'-0"
140
0.1875
141
12.0
290
     0
  0
SCALE
  5
4B
102
{ACAD_REACTORS
330
42
102
}
330
42
100
AcDbScale
 70
     0
300
1/4" = 1'-0"
140
0.25
141
12.0
290
     0
  0
SCALE
  5
4C
102
{ACAD_REACTORS
330
42
102
}
330
42
100
AcDbScale
 70
     0
300
3/8" = 1'-0"
140
0.375
141
12.0
290
     0
  0
SCALE
  5
4D
102
{ACAD_REACTORS
330
42
102
}
330
42
100
AcDbScale
 70
     0
300
1/2" = 1'-0"
140
0.5
141
12.0
290
     0
  0
SCALE
  5
4E
102
{ACAD_REACTORS
330
42
102
}
330
42
100
AcDbScale
 70
     0
300
3/4" = 1'-0"
140
0.75
141
12.0
290
     0
  0
SCALE
  5
4F
102
{ACAD_REACTORS
330
42
102
}
330
42
100
AcDbScale
 70
     0
300
1" = 1'-0"
140
1.0
141
12.0
290
     0
  0
SCALE
  5
50
102
{ACAD_REACTORS
330
42
102
}
330
42
100
AcDbScale
 70
     0
300
1-1/2" = 1'-0"
140
1.5
141
12.0
290
     0
  0
SCALE
  5
51
102
{ACAD_REACTORS
330
42
102
}
330
42
100
AcDbScale
 70
     0
300
3" = 1'-0"
140
3.0
141
12.0
290
     0
  0
SCALE
  5
52
102
{ACAD_REACTORS
330
42
102
}
330
42
100
AcDbScale
 70
     0
300
6" = 1'-0"
140
6.0
141
12.0
290
     0
  0
SCALE
  5
53
102
{ACAD_REACTORS
330
42
102
}
330
42
100
AcDbScale
 70
     0
300
1'-0" = 1'-0"
140
12.0
141
12.0
290
     0
  0
ACDBSECTIONVIEWSTYLE
  5
69
102
{ACAD_XDICTIONARY
360
EC
102
}
102
{ACAD_REACTORS
330
68
102
}
330
68
100
AcDbModelDocViewStyle
 70
     0
  3
Imperial24
290
     0
100
AcDbSectionViewStyle
 70
     0
 71
     0
 90
       78
 71
     1
340
55
 62
   256
 40
0.24
340
0
340
0
 62
   256
 40
0.24
300
I, O, Q, S, X, Z
 40
0.48
 90
        3
 40
0.18
 90
        1
 71
     2
340
5D
 90
       25
 62
   256
340
5D
 90
       50
 62
   256
 40
0.24
 40
0.0
 40
0.24
 71
     3
340
55
 62
   256
 40
0.24
 90
        1
 40
0.75
 90
        1
300
%<\AcVar ViewType \f "%tc1">% %<\AcVar ViewSectionStartId>%-%<\AcVar ViewSectionEndId>%\PSCALE %<\AcVar ViewScale \f "%sn">%
 71
     4
 62
   256
 62
   257
300
ANSI31
 40
1.0
 90
        0
290
     0
290
     0
 90
        6
 40
0.0
 40
1.570796326794896
 40
0.2617993877991494
 40
1.308996938995747
 40
-0.2617993877991494
 40
1.832595714594046
  0
TABLESTYLE
  5
65
102
{ACAD_XDICTIONARY
360
46E
102
}
102
{ACAD_REACTORS
330
64
102
}
330
64
100
AcDbTableStyle
280
     0
  3
Standard
 70
     0
 71
     0
 40
0.06
 41
0.06
280
     0
281
     0
  7
Standard
140
0.18
170
     2
 62
     0
 63
     7
283
     0
 90
      512
 91
        0
  1

274
    -2
284
     1
 64
     0
275
    -2
285
     1
 65
     0
276
    -2
286
     1
 66
     0
277
    -2
287
     1
 67
     0
278
    -2
288
     1
 68
     0
279
    -2
289
     1
 69
     0
  7
Standard
140
0.25
170
     5
 62
     0
 63
     7
283
     0
 90
      512
 91
        0
  1

274
    -2
284
     1
 64
     0
275
    -2
285
     1
 65
     0
276
    -2
286
     1
 66
     0
277
    -2
287
     1
 67
     0
278
    -2
288
     1
 68
     0
279
    -2
289
     1
 69
     0
  7
Standard
140
0.18
170
     5
 62
     0
 63
     7
283
     0
 90
      512
 91
        0
  1

274
    -2
284
     1
 64
     0
275
    -2
285
     1
 65
     0
276
    -2
286
     1
 66
     0
277
    -2
287
     1
 67
     0
278
    -2
288
     1
 68
     0
279
    -2
289
     1
 69
     0
  0
VISUALSTYLE
  5
2F
102
{ACAD_REACTORS
330
29
102
}
330
29
100
AcDbVisualStyle
  2
2dWireframe
 70
     4
177
     3
291
     0
 70
    58
 90
        0
176
     1
 90
        2
176
     1
 90
        0
176
     1
 90
        0
176
     1
 40
0.6
176
     1
 40
30.0
176
     1
 62
     7
420
 16777215
176
     1
 90
        1
176
     1
 90
        4
176
     1
 62
     7
176
     1
 62
   257
176
     1
 90
        1
176
     1
 90
        1
176
     1
 40
1.0
176
     1
 90
        0
176
     1
 62
   257
176
     1
 40
1.0
176
     1
 90
        1
176
     1
 90
        6
176
     1
 90
        2
176
     1
 62
     7
176
     1
 90
        5
176
     1
 90
        0
176
     1
 90
        0
176
     1
290
     0
176
     1
 90
        1
176
     1
 40
0.0
176
     1
 90
        0
176
     1
290
     1
176
     1
290
     1
176
     1
290
     0
176
     1
290
     0
176
     1
290
     0
176
     1
290
     0
176
     1
290
     0
176
     1
290
     0
176
     1
290
     0
176
     1
 90
       50
176
     1
 40
0.0
176
     1
 40
1.0
176
     1
 90
        0
176
     1
 62
    18
420
        0
176
     1
 90
       50
176
     1
 90
        3
176
     1
 62
     5
420
      255
176
     1
290
     0
176
     1
 90
       50
176
     1
 90
       50
176
     1
 90
       50
176
     1
290
     0
176
     1
 90
       50
176
     1
 62
   256
176
     0
 40
1.0
176
     0
 90
        2
176
     1
  1
strokes_ogs.tif
176
     1
290
     0
176
     1
 40
1.0
176
     1
 40
1.0
176
     1
  0
VISUALSTYLE
  5
2E
102
{ACAD_REACTORS
330
29
102
}
330
29
100
AcDbVisualStyle
  2
Basic
 70
     7
177
     3
291
     1
 70
    58
 90
        1
176
     1
 90
        0
176
     1
 90
        1
176
     1
 90
        0
176
     1
 40
0.6
176
     1
 40
30.0
176
     1
 62
     7
420
 16777215
176
     1
 90
        0
176
     1
 90
        4
176
     1
 62
     7
176
     1
 62
   257
176
     1
 90
        1
176
     1
 90
        1
176
     1
 40
1.0
176
     1
 90
        8
176
     1
 62
     7
176
     1
 40
1.0
176
     1
 90
        1
176
     1
 90
        6
176
     1
 90
        2
176
     1
 62
     7
176
     1
 90
        5
176
     1
 90
        0
176
     1
 90
        0
176
     1
290
     0
176
     1
 90
        1
176
     1
 40
0.0
176
     1
 90
        0
176
     1
290
     0
176
     1
290
     1
176
     1
290
     1
176
     1
290
     0
176
     1
290
     0
176
     1
290
     0
176
     1
290
     0
176
     1
290
     0
176
     1
290
     0
176
     1
 90
       50
176
     1
 40
0.0
176
     1
 40
1.0
176
     1
 90
        0
176
     1
 62
    18
420
        0
176
     1
 90
       50
176
     1
 90
        3
176
     1
 62
     5
420
      255
176
     1
290
     0
176
     1
 90
       50
176
     1
 90
       50
176
     1
 90
       50
176
     1
290
     0
176
     1
 90
       50
176
     1
 62
   256
176
     0
 40
1.0
176
     0
 90
        2
176
     1
  1
strokes_ogs.tif
176
     1
290
     0
176
     1
 40
1.0
176
     1
 40
1.0
176
     1
  0
VISUALSTYLE
  5
35
102
{ACAD_REACTORS
330
29
102
}
330
29
100
AcDbVisualStyle
  2
Brighten
 70
    12
177
     3
291
     1
 70
    58
 90
        2
176
     1
 90
        2
176
     1
 90
        0
176
     1
 90
        0
176
     1
 40
0.6
176
     1
 40
30.0
176
     1
 62
     7
420
 16777215
176
     1
 90
        1
176
     1
 90
        4
176
     1
 62
     7
176
     1
 62
   257
176
     1
 90
        1
176
     1
 90
        1
176
     1
 40
1.0
176
     1
 90
        8
176
     1
 62
     7
176
     1
 40
1.0
176
     1
 90
        1
176
     1
 90
        6
176
     1
 90
        2
176
     1
 62
     7
176
     1
 90
        5
176
     1
 90
        0
176
     1
 90
        0
176
     1
290
     0
176
     1
 90
        1
176
     1
 40
50.0
176
     1
 90
        0
176
     1
290
     0
176
     1
290
     1
176
     1
290
     1
176
     1
290
     0
176
     1
290
     0
176
     1
290
     0
176
     1
290
     0
176
     1
290
     0
176
     1
290
     0
176
     1
 90
       50
176
     1
 40
0.0
176
     1
 40
1.0
176
     1
 90
        0
176
     1
 62
    18
420
        0
176
     1
 90
       50
176
     1
 90
        3
176
     1
 62
     5
420
      255
176
     1
290
     0
176
     1
 90
       50
176
     1
 90
       50
176
     1
 90
       50
176
     1
290
     0
176
     1
 90
       50
176
     1
 62
   256
176
     0
 40
1.0
176
     0
 90
        2
176
     1
  1
strokes_ogs.tif
176
     1
290
     0
176
     1
 40
1.0
176
     1
 40
1.0
176
     1
  0
VISUALSTYLE
  5
39
102
{ACAD_REACTORS
330
29
102
}
330
29
100
AcDbVisualStyle
  2
ColorChange
 70
    16
177
     3
291
     1
 70
    58
 90
        2
176
     1
 90
        2
176
     1
 90
        3
176
     1
 90
        0
176
     1
 40
0.6
176
     1
 40
30.0
176
     1
 62
     8
420
  8421504
176
     1
 90
        1
176
     1
 90
        4
176
     1
 62
     7
176
     1
 62
   257
176
     1
 90
        1
176
     1
 90
        1
176
     1
 40
1.0
176
     1
 90
        8
176
     1
 62
     8
420
  8421504
176
     1
 40
1.0
176
     1
 90
        1
176
     1
 90
        6
176
     1
 90
        2
176
     1
 62
     7
176
     1
 90
        5
176
     1
 90
        0
176
     1
 90
        0
176
     1
290
     0
176
     1
 90
        1
176
     1
 40
0.0
176
     1
 90
        0
176
     1
290
     0
176
     1
290
     1
176
     1
290
     1
176
     1
290
     0
176
     1
290
     0
176
     1
290
     0
176
     1
290
     0
176
     1
290
     0
176
     1
290
     0
176
     1
 90
       50
176
     1
 40
0.0
176
     1
 40
1.0
176
     1
 90
        0
176
     1
 62
    18
420
        0
176
     1
 90
       50
176
     1
 90
        3
176
     1
 62
     5
420
      255
176
     1
290
     0
176
     1
 90
       50
176
     1
 90
       50
176
     1
 90
       50
176
     1
290
     0
176
     1
 90
       50
176
     1
 62
   256
176
     0
 40
1.0
176
     0
 90
        2
176
     1
  1
strokes_ogs.tif
176
     1
290
     0
176
     1
 40
1.0
176
     1
 40
1.0
176
     1
  0
VISUALSTYLE
  5
32
102
{ACAD_REACTORS
330
29
102
}
330
29
100
AcDbVisualStyle
  2
Conceptual
 70
     9
177
     3
291
     0
 70
    58
 90
        3
176
     1
 90
        2
176
     1
 90
        0
176
     1
 90
        0
176
     1
 40
0.6
176
     1
 40
30.0
176
     1
 62
     7
420
 16777215
176
     1
 90
        2
176
     1
 90
        2
176
     1
 62
     7
176
     1
 62
   257
176
     1
 90
        1
176
     1
 90
        1
176
     1
 40
179.0
176
     1
 90
        8
176
     1
 62
     7
176
     1
 40
1.0
176
     1
 90
        1
176
     1
 90
        6
176
     1
 90
        2
176
     1
 62
     7
176
     1
 90
        3
176
     1
 90
        0
176
     1
 90
        0
176
     1
290
     0
176
     1
 90
        1
176
     1
 40
0.0
176
     1
 90
        0
176
     1
290
     0
176
     1
290
     1
176
     1
290
     1
176
     1
290
     0
176
     1
290
     0
176
     1
290
     0
176
     1
290
     0
176
     1
290
     0
176
     1
290
     0
176
     1
 90
       50
176
     1
 40
0.0
176
     1
 40
1.0
176
     1
 90
        0
176
     1
 62
    18
420
        0
176
     1
 90
       50
176
     1
 90
        3
176
     1
 62
     5
420
      255
176
     1
290
     0
176
     1
 90
       50
176
     1
 90
       50
176
     1
 90
       50
176
     1
290
     0
176
     1
 90
       50
176
     1
 62
   256
176
     0
 40
1.0
176
     0
 90
        2
176
     1
  1
strokes_ogs.tif
176
     1
290
     0
176
     1
 40
1.0
176
     1
 40
1.0
176
     1
  0
VISUALSTYLE
  5
34
102
{ACAD_REACTORS
330
29
102
}
330
29
100
AcDbVisualStyle
  2
Dim
 70
    11
177
     3
291
     1
 70
    58
 90
        2
176
     1
 90
        2
176
     1
 90
        0
176
     1
 90
        0
176
     1
 40
0.6
176
     1
 40
30.0
176
     1
 62
     7
420
 16777215
176
     1
 90
        1
176
     1
 90
        4
176
     1
 62
     7
176
     1
 62
   257
176
     1
 90
        1
176
     1
 90
        1
176
     1
 40
1.0
176
     1
 90
        8
176
     1
 62
     7
176
     1
 40
1.0
176
     1
 90
        1
176
     1
 90
        6
176
     1
 90
        2
176
     1
 62
     7
176
     1
 90
        5
176
     1
 90
        0
176
     1
 90
        0
176
     1
290
     0
176
     1
 90
        1
176
     1
 40
-50.0
176
     1
 90
        0
176
     1
290
     0
176
     1
290
     1
176
     1
290
     1
176
     1
290
     0
176
     1
290
     0
176
     1
290
     0
176
     1
290
     0
176
     1
290
     0
176
     1
290
     0
176
     1
 90
       50
176
     1
 40
0.0
176
     1
 40
1.0
176
     1
 90
        0
176
     1
 62
    18
420
        0
176
     1
 90
       50
176
     1
 90
        3
176
     1
 62
     5
420
      255
176
     1
290
     0
176
     1
 90
       50
176
     1
 90
       50
176
     1
 90
       50
176
     1
290
     0
176
     1
 90
       50
176
     1
 62
   256
176
     0
 40
1.0
176
     0
 90
        2
176
     1
  1
strokes_ogs.tif
176
     1
290
     0
176
     1
 40
1.0
176
     1
 40
1.0
176
     1
  0
VISUALSTYLE
  5
41
102
{ACAD_REACTORS
330
29
102
}
330
29
100
AcDbVisualStyle
  2
EdgeColorOff
 70
    22
177
     3
291
     1
 70
    58
 90
        2
176
     0
 90
        2
176
     0
 90
        0
176
     0
 90
        0
176
     0
 40
0.6
176
     0
 40
30.0
176
     0
 62
     7
420
 16777215
176
     0
 90
        1
176
     0
 90
        4
176
     0
 62
     7
176
     0
 62
   257
176
     0
 90
        1
176
     0
 90
        1
176
     0
 40
1.0
176
     0
 90
        8
176
     2
 62
     7
176
     0
 40
1.0
176
     0
 90
        1
176
     0
 90
        6
176
     0
 90
        2
176
     0
 62
     7
176
     0
 90
        5
176
     0
 90
        0
176
     0
 90
        0
176
     0
290
     0
176
     0
 90
        1
176
     0
 40
0.0
176
     0
 90
        0
176
     0
290
     0
176
     0
290
     1
176
     0
290
     1
176
     0
290
     0
176
     0
290
     0
176
     0
290
     0
176
     0
290
     0
176
     0
290
     0
176
     0
290
     0
176
     0
 90
       50
176
     0
 40
0.0
176
     0
 40
1.0
176
     0
 90
        0
176
     0
 62
    18
420
        0
176
     0
 90
       50
176
     0
 90
        3
176
     0
 62
     5
420
      255
176
     0
290
     0
176
     0
 90
       50
176
     0
 90
       50
176
     0
 90
       50
176
     0
290
     0
176
     0
 90
       50
176
     0
 62
   256
176
     0
 40
1.0
176
     0
 90
        2
176
     0
  1
strokes_ogs.tif
176
     0
290
     0
176
     0
 40
1.0
176
     0
 40
1.0
176
     0
  0
VISUALSTYLE
  5
38
102
{ACAD_REACTORS
330
29
102
}
330
29
100
AcDbVisualStyle
  2
Facepattern
 70
    15
177
     3
291
     1
 70
    58
 90
        2
176
     1
 90
        2
176
     1
 90
        0
176
     1
 90
        0
176
     1
 40
0.6
176
     1
 40
30.0
176
     1
 62
     7
420
 16777215
176
     1
 90
        1
176
     1
 90
        4
176
     1
 62
     7
176
     1
 62
   257
176
     1
 90
        1
176
     1
 90
        1
176
     1
 40
1.0
176
     1
 90
        8
176
     1
 62
     7
176
     1
 40
1.0
176
     1
 90
        1
176
     1
 90
        6
176
     1
 90
        2
176
     1
 62
     7
176
     1
 90
        5
176
     1
 90
        0
176
     1
 90
        0
176
     1
290
     0
176
     1
 90
        1
176
     1
 40
0.0
176
     1
 90
        0
176
     1
290
     0
176
     1
290
     1
176
     1
290
     1
176
     1
290
     0
176
     1
290
     0
176
     1
290
     0
176
     1
290
     0
176
     1
290
     0
176
     1
290
     0
176
     1
 90
       50
176
     1
 40
0.0
176
     1
 40
1.0
176
     1
 90
        0
176
     1
 62
    18
420
        0
176
     1
 90
       50
176
     1
 90
        3
176
     1
 62
     5
420
      255
176
     1
290
     0
176
     1
 90
       50
176
     1
 90
       50
176
     1
 90
       50
176
     1
290
     0
176
     1
 90
       50
176
     1
 62
   256
176
     0
 40
1.0
176
     0
 90
        2
176
     1
  1
strokes_ogs.tif
176
     1
290
     0
176
     1
 40
1.0
176
     1
 40
1.0
176
     1
  0
VISUALSTYLE
  5
2A
102
{ACAD_REACTORS
330
29
102
}
330
29
100
AcDbVisualStyle
  2
Flat
 70
     0
177
     3
291
     1
 70
    58
 90
        2
176
     1
 90
        1
176
     1
 90
        1
176
     1
 90
        2
176
     1
 40
0.6
176
     1
 40
30.0
176
     1
 62
     7
420
 16777215
176
     1
 90
        0
176
     1
 90
        0
176
     1
 62
     7
176
     1
 62
   257
176
     1
 90
        1
176
     1
 90
        1
176
     1
 40
1.0
176
     1
 90
        8
176
     1
 62
     7
176
     1
 40
1.0
176
     1
 90
        1
176
     1
 90
        6
176
     1
 90
        2
176
     1
 62
     7
176
     1
 90
        5
176
     1
 90
        0
176
     1
 90
        0
176
     1
290
     0
176
     1
 90
       13
176
     1
 40
0.0
176
     1
 90
        0
176
     1
290
     0
176
     1
290
     1
176
     1
290
     1
176
     1
290
     0
176
     1
290
     0
176
     1
290
     0
176
     1
290
     0
176
     1
290
     0
176
     1
290
     0
176
     1
 90
       50
176
     1
 40
0.0
176
     1
 40
1.0
176
     1
 90
        0
176
     1
 62
    18
420
        0
176
     1
 90
       50
176
     1
 90
        3
176
     1
 62
     5
420
      255
176
     1
290
     0
176
     1
 90
       50
176
     1
 90
       50
176
     1
 90
       50
176
     1
290
     0
176
     1
 90
       50
176
     1
 62
   256
176
     0
 40
1.0
176
     0
 90
        2
176
     1
  1
strokes_ogs.tif
176
     1
290
     0
176
     1
 40
1.0
176
     1
 40
1.0
176
     1
  0
VISUALSTYLE
  5
2B
102
{ACAD_REACTORS
330
29
102
}
330
29
100
AcDbVisualStyle
  2
FlatWithEdges
 70
     1
177
     3
291
     1
 70
    58
 90
        2
176
     1
 90
        1
176
     1
 90
        1
176
     1
 90
        2
176
     1
 40
0.6
176
     1
 40
30.0
176
     1
 62
     7
420
 16777215
176
     1
 90
        1
176
     1
 90
        0
176
     1
 62
     7
176
     1
 62
   257
176
     1
 90
        1
176
     1
 90
        1
176
     1
 40
1.0
176
     1
 90
        0
176
     1
 62
   257
176
     1
 40
1.0
176
     1
 90
        1
176
     1
 90
        6
176
     1
 90
        2
176
     1
 62
     7
176
     1
 90
        5
176
     1
 90
        0
176
     1
 90
        0
176
     1
290
     0
176
     1
 90
       13
176
     1
 40
0.0
176
     1
 90
        0
176
     1
290
     0
176
     1
290
     1
176
     1
290
     1
176
     1
290
     0
176
     1
290
     0
176
     1
290
     0
176
     1
290
     0
176
     1
290
     0
176
     1
290
     0
176
     1
 90
       50
176
     1
 40
0.0
176
     1
 40
1.0
176
     1
 90
        0
176
     1
 62
    18
420
        0
176
     1
 90
       50
176
     1
 90
        3
176
     1
 62
     5
420
      255
176
     1
290
     0
176
     1
 90
       50
176
     1
 90
       50
176
     1
 90
       50
176
     1
290
     0
176
     1
 90
       50
176
     1
 62
   256
176
     0
 40
1.0
176
     0
 90
        2
176
     1
  1
strokes_ogs.tif
176
     1
290
     0
176
     1
 40
1.0
176
     1
 40
1.0
176
     1
  0
VISUALSTYLE
  5
2C
102
{ACAD_REACTORS
330
29
102
}
330
29
100
AcDbVisualStyle
  2
Gouraud
 70
     2
177
     3
291
     1
 70
    58
 90
        2
176
     1
 90
        2
176
     1
 90
        1
176
     1
 90
        2
176
     1
 40
0.6
176
     1
 40
30.0
176
     1
 62
     7
420
 16777215
176
     1
 90
        0
176
     1
 90
        0
176
     1
 62
     7
176
     1
 62
   257
176
     1
 90
        1
176
     1
 90
        1
176
     1
 40
1.0
176
     1
 90
        0
176
     1
 62
     7
176
     1
 40
1.0
176
     1
 90
        1
176
     1
 90
        6
176
     1
 90
        2
176
     1
 62
     7
176
     1
 90
        5
176
     1
 90
        0
176
     1
 90
        0
176
     1
290
     0
176
     1
 90
       13
176
     1
 40
0.0
176
     1
 90
        0
176
     1
290
     0
176
     1
290
     1
176
     1
290
     1
176
     1
290
     0
176
     1
290
     0
176
     1
290
     0
176
     1
290
     0
176
     1
290
     0
176
     1
290
     0
176
     1
 90
       50
176
     1
 40
0.0
176
     1
 40
1.0
176
     1
 90
        0
176
     1
 62
    18
420
        0
176
     1
 90
       50
176
     1
 90
        3
176
     1
 62
     5
420
      255
176
     1
290
     0
176
     1
 90
       50
176
     1
 90
       50
176
     1
 90
       50
176
     1
290
     0
176
     1
 90
       50
176
     1
 62
   256
176
     0
 40
1.0
176
     0
 90
        2
176
     1
  1
strokes_ogs.tif
176
     1
290
     0
176
     1
 40
1.0
176
     1
 40
1.0
176
     1
  0
VISUALSTYLE
  5
2D
102
{ACAD_REACTORS
330
29
102
}
330
29
100
AcDbVisualStyle
  2
GouraudWithEdges
 70
     3
177
     3
291
     1
 70
    58
 90
        2
176
     1
 90
        2
176
     1
 90
        1
176
     1
 90
        2
176
     1
 40
0.6
176
     1
 40
30.0
176
     1
 62
     7
420
 16777215
176
     1
 90
        1
176
     1
 90
        0
176
     1
 62
     7
176
     1
 62
   257
176
     1
 90
        1
176
     1
 90
        1
176
     1
 40
1.0
176
     1
 90
        0
176
     1
 62
   257
176
     1
 40
1.0
176
     1
 90
        1
176
     1
 90
        6
176
     1
 90
        2
176
     1
 62
     7
176
     1
 90
        5
176
     1
 90
        0
176
     1
 90
        0
176
     1
290
     0
176
     1
 90
       13
176
     1
 40
0.0
176
     1
 90
        0
176
     1
290
     0
176
     1
290
     1
176
     1
290
     1
176
     1
290
     0
176
     1
290
     0
176
     1
290
     0
176
     1
290
     0
176
     1
290
     0
176
     1
290
     0
176
     1
 90
       50
176
     1
 40
0.0
176
     1
 40
1.0
176
     1
 90
        0
176
     1
 62
    18
420
        0
176
     1
 90
       50
176
     1
 90
        3
176
     1
 62
     5
420
      255
176
     1
290
     0
176
     1
 90
       50
176
     1
 90
       50
176
     1
 90
       50
176
     1
290
     0
176
     1
 90
       50
176
     1
 62
   256
176
     0
 40
1.0
176
     0
 90
        2
176
     1
  1
strokes_ogs.tif
176
     1
290
     0
176
     1
 40
1.0
176
     1
 40
1.0
176
     1
  0
VISUALSTYLE
  5
31
102
{ACAD_REACTORS
330
29
102
}
330
29
100
AcDbVisualStyle
  2
Hidden
 70
     6
177
     3
291
     0
 70
    58
 90
        1
176
     1
 90
        2
176
     1
 90
        2
176
     1
 90
        0
176
     1
 40
0.6
176
     1
 40
30.0
176
     1
 62
     7
420
 16777215
176
     1
 90
        2
176
     1
 90
        2
176
     1
 62
     7
176
     1
 62
   257
176
     1
 90
        2
176
     1
 90
        1
176
     1
 40
40.0
176
     1
 90
        0
176
     1
 62
   257
176
     1
 40
1.0
176
     1
 90
        1
176
     1
 90
        6
176
     1
 90
        2
176
     1
 62
     7
176
     1
 90
        3
176
     1
 90
        0
176
     1
 90
        0
176
     1
290
     0
176
     1
 90
        1
176
     1
 40
0.0
176
     1
 90
        0
176
     1
290
     0
176
     1
290
     1
176
     1
290
     1
176
     1
290
     0
176
     1
290
     0
176
     1
290
     0
176
     1
290
     0
176
     1
290
     0
176
     1
290
     0
176
     1
 90
       50
176
     1
 40
0.0
176
     1
 40
1.0
176
     1
 90
        0
176
     1
 62
    18
420
        0
176
     1
 90
       50
176
     1
 90
        3
176
     1
 62
     5
420
      255
176
     1
290
     0
176
     1
 90
       50
176
     1
 90
       50
176
     1
 90
       50
176
     1
290
     0
176
     1
 90
       50
176
     1
 62
   256
176
     0
 40
1.0
176
     0
 90
        2
176
     1
  1
strokes_ogs.tif
176
     1
290
     0
176
     1
 40
1.0
176
     1
 40
1.0
176
     1
  0
VISUALSTYLE
  5
3F
102
{ACAD_REACTORS
330
29
102
}
330
29
100
AcDbVisualStyle
  2
JitterOff
 70
    20
177
     3
291
     1
 70
    58
 90
        2
176
     0
 90
        2
176
     0
 90
        0
176
     0
 90
        0
176
     0
 40
0.6
176
     0
 40
30.0
176
     0
 62
     7
420
 16777215
176
     0
 90
        1
176
     0
 90
        4
176
     0
 62
     7
176
     0
 62
   257
176
     0
 90
        1
176
     0
 90
        1
176
     0
 40
1.0
176
     0
 90
       10
176
     2
 62
     7
176
     0
 40
1.0
176
     0
 90
        1
176
     0
 90
        6
176
     0
 90
        2
176
     0
 62
     7
176
     0
 90
        5
176
     0
 90
        0
176
     0
 90
        0
176
     0
290
     0
176
     0
 90
        1
176
     0
 40
0.0
176
     0
 90
        0
176
     0
290
     0
176
     0
290
     1
176
     0
290
     1
176
     0
290
     0
176
     0
290
     0
176
     0
290
     0
176
     0
290
     0
176
     0
290
     0
176
     0
290
     0
176
     0
 90
       50
176
     0
 40
0.0
176
     0
 40
1.0
176
     0
 90
        0
176
     0
 62
    18
420
        0
176
     0
 90
       50
176
     0
 90
        3
176
     0
 62
     5
420
      255
176
     0
290
     0
176
     0
 90
       50
176
     0
 90
       50
176
     0
 90
       50
176
     0
290
     0
176
     0
 90
       50
176
     0
 62
   256
176
     0
 40
1.0
176
     0
 90
        2
176
     0
  1
strokes_ogs.tif
176
     0
290
     0
176
     0
 40
1.0
176
     0
 40
1.0
176
     0
  0
VISUALSTYLE
  5
37
102
{ACAD_REACTORS
330
29
102
}
330
29
100
AcDbVisualStyle
  2
Linepattern
 70
    14
177
     3
291
     1
 70
    58
 90
        2
176
     1
 90
        2
176
     1
 90
        0
176
     1
 90
        0
176
     1
 40
0.6
176
     1
 40
30.0
176
     1
 62
     7
420
 16777215
176
     1
 90
        1
176
     1
 90
        4
176
     1
 62
     7
176
     1
 62
   257
176
     1
 90
        7
176
     1
 90
        7
176
     1
 40
1.0
176
     1
 90
        8
176
     1
 62
     7
176
     1
 40
1.0
176
     1
 90
        1
176
     1
 90
        6
176
     1
 90
        2
176
     1
 62
     7
176
     1
 90
        5
176
     1
 90
        0
176
     1
 90
        0
176
     1
290
     0
176
     1
 90
        1
176
     1
 40
0.0
176
     1
 90
        0
176
     1
290
     0
176
     1
290
     1
176
     1
290
     1
176
     1
290
     0
176
     1
290
     0
176
     1
290
     0
176
     1
290
     0
176
     1
290
     0
176
     1
290
     0
176
     1
 90
       50
176
     1
 40
0.0
176
     1
 40
1.0
176
     1
 90
        0
176
     1
 62
    18
420
        0
176
     1
 90
       50
176
     1
 90
        3
176
     1
 62
     5
420
      255
176
     1
290
     0
176
     1
 90
       50
176
     1
 90
       50
176
     1
 90
       50
176
     1
290
     0
176
     1
 90
       50
176
     1
 62
   256
176
     0
 40
1.0
176
     0
 90
        2
176
     1
  1
strokes_ogs.tif
176
     1
290
     0
176
     1
 40
1.0
176
     1
 40
1.0
176
     1
  0
VISUALSTYLE
  5
40
102
{ACAD_REACTORS
330
29
102
}
330
29
100
AcDbVisualStyle
  2
OverhangOff
 70
    21
177
     3
291
     1
 70
    58
 90
        2
176
     0
 90
        2
176
     0
 90
        0
176
     0
 90
        0
176
     0
 40
0.6
176
     0
 40
30.0
176
     0
 62
     7
420
 16777215
176
     0
 90
        1
176
     0
 90
        4
176
     0
 62
     7
176
     0
 62
   257
176
     0
 90
        1
176
     0
 90
        1
176
     0
 40
1.0
176
     0
 90
        9
176
     2
 62
     7
176
     0
 40
1.0
176
     0
 90
        1
176
     0
 90
        6
176
     0
 90
        2
176
     0
 62
     7
176
     0
 90
        5
176
     0
 90
        0
176
     0
 90
        0
176
     0
290
     0
176
     0
 90
        1
176
     0
 40
0.0
176
     0
 90
        0
176
     0
290
     0
176
     0
290
     1
176
     0
290
     1
176
     0
290
     0
176
     0
290
     0
176
     0
290
     0
176
     0
290
     0
176
     0
290
     0
176
     0
290
     0
176
     0
 90
       50
176
     0
 40
0.0
176
     0
 40
1.0
176
     0
 90
        0
176
     0
 62
    18
420
        0
176
     0
 90
       50
176
     0
 90
        3
176
     0
 62
     5
420
      255
176
     0
290
     0
176
     0
 90
       50
176
     0
 90
       50
176
     0
 90
       50
176
     0
290
     0
176
     0
 90
       50
176
     0
 62
   256
176
     0
 40
1.0
176
     0
 90
        2
176
     0
  1
strokes_ogs.tif
176
     0
290
     0
176
     0
 40
1.0
176
     0
 40
1.0
176
     0
  0
VISUALSTYLE
  5
33
102
{ACAD_REACTORS
330
29
102
}
330
29
100
AcDbVisualStyle
  2
Realistic
 70
     8
177
     3
291
     0
 70
    58
 90
        2
176
     1
 90
        3
176
     1
 90
        0
176
     1
 90
        2
176
     1
 40
0.6
176
     1
 40
30.0
176
     1
 62
     7
420
 16777215
176
     1
 90
        0
176
     1
 90
        0
176
     1
 62
     7
176
     1
 62
   257
176
     1
 90
        1
176
     1
 90
        1
176
     1
 40
1.0
176
     1
 90
        8
176
     1
 62
   257
176
     1
 40
1.0
176
     1
 90
        1
176
     1
 90
        6
176
     1
 90
        2
176
     1
 62
     7
176
     1
 90
        3
176
     1
 90
        0
176
     1
 90
        0
176
     1
290
     0
176
     1
 90
       13
176
     1
 40
0.0
176
     1
 90
        0
176
     1
290
     0
176
     1
290
     1
176
     1
290
     1
176
     1
290
     0
176
     1
290
     0
176
     1
290
     0
176
     1
290
     0
176
     1
290
     0
176
     1
290
     0
176
     1
 90
       50
176
     1
 40
0.0
176
     1
 40
1.0
176
     1
 90
        0
176
     1
 62
    18
420
        0
176
     1
 90
       50
176
     1
 90
        3
176
     1
 62
     5
420
      255
176
     1
290
     0
176
     1
 90
       50
176
     1
 90
       50
176
     1
 90
       50
176
     1
290
     0
176
     1
 90
       50
176
     1
 62
   256
176
     0
 40
1.0
176
     0
 90
        2
176
     1
  1
strokes_ogs.tif
176
     1
290
     0
176
     1
 40
1.0
176
     1
 40
1.0
176
     1
  0
VISUALSTYLE
  5
3E
102
{ACAD_REACTORS
330
29
102
}
330
29
100
AcDbVisualStyle
  2
Shaded
 70
    27
177
     3
291
     0
 70
    58
 90
        2
176
     1
 90
        2
176
     1
 90
        1
176
     1
 90
        2
176
     1
 40
0.6
176
     1
 40
30.0
176
     1
 62
     7
420
 16777215
176
     1
 90
        0
176
     1
 90
        4
176
     1
 62
     7
176
     1
 62
   257
176
     1
 90
        1
176
     1
 90
        1
176
     1
 40
1.0
176
     1
 90
        8
176
     1
 62
   257
176
     1
 40
1.0
176
     1
 90
        1
176
     1
 90
        6
176
     1
 90
        2
176
     1
 62
     8
420
  7895160
176
     1
 90
        3
176
     1
 90
        0
176
     1
 90
        0
176
     1
290
     0
176
     1
 90
        5
176
     1
 40
0.0
176
     1
 90
        0
176
     1
290
     0
176
     1
290
     1
176
     1
290
     1
176
     1
290
     0
176
     1
290
     0
176
     1
290
     0
176
     1
290
     0
176
     1
290
     0
176
     1
290
     0
176
     1
 90
       50
176
     1
 40
0.0
176
     1
 40
1.0
176
     1
 90
        0
176
     1
 62
    18
420
        0
176
     1
 90
       50
176
     1
 90
        3
176
     1
 62
     5
420
      255
176
     1
290
     0
176
     1
 90
       50
176
     1
 90
       50
176
     1
 90
       50
176
     1
290
     0
176
     1
 90
       50
176
     1
 62
   256
176
     0
 40
1.0
176
     0
 90
        2
176
     1
  1
strokes_ogs.tif
176
     1
290
     0
176
     1
 40
1.0
176
     1
 40
1.0
176
     1
  0
VISUALSTYLE
  5
3D
102
{ACAD_REACTORS
330
29
102
}
330
29
100
AcDbVisualStyle
  2
Shaded with edges
 70
    26
177
     3
291
     0
 70
    58
 90
        2
176
     1
 90
        2
176
     1
 90
        1
176
     1
 90
        2
176
     1
 40
0.6
176
     1
 40
30.0
176
     1
 62
     7
420
 16777215
176
     1
 90
        1
176
     1
 90
       10
176
     1
 62
     7
176
     1
 62
   257
176
     1
 90
        2
176
     1
 90
        1
176
     1
 40
1.0
176
     1
 90
        8
176
     1
 62
   257
176
     1
 40
1.0
176
     1
 90
        1
176
     1
 90
        6
176
     1
 90
        2
176
     1
 62
     7
176
     1
 90
        3
176
     1
 90
        0
176
     1
 90
        0
176
     1
290
     0
176
     1
 90
        5
176
     1
 40
0.0
176
     1
 90
        0
176
     1
290
     0
176
     1
290
     1
176
     1
290
     1
176
     1
290
     0
176
     1
290
     0
176
     1
290
     0
176
     1
290
     0
176
     1
290
     0
176
     1
290
     0
176
     1
 90
       50
176
     1
 40
0.0
176
     1
 40
1.0
176
     1
 90
        0
176
     1
 62
    18
420
        0
176
     1
 90
       50
176
     1
 90
        3
176
     1
 62
     5
420
      255
176
     1
290
     0
176
     1
 90
       50
176
     1
 90
       50
176
     1
 90
       50
176
     1
290
     0
176
     1
 90
       50
176
     1
 62
   256
176
     0
 40
1.0
176
     0
 90
        2
176
     1
  1
strokes_ogs.tif
176
     1
290
     0
176
     1
 40
1.0
176
     1
 40
1.0
176
     1
  0
VISUALSTYLE
  5
3A
102
{ACAD_REACTORS
330
29
102
}
330
29
100
AcDbVisualStyle
  2
Shades of Gray
 70
    23
177
     3
291
     0
 70
    58
 90
        2
176
     1
 90
        2
176
     1
 90
        3
176
     1
 90
        0
176
     1
 40
0.6
176
     1
 40
30.0
176
     1
 62
     7
420
 16777215
176
     1
 90
        2
176
     1
 90
        2
176
     1
 62
     7
176
     1
 62
     7
176
     1
 90
        1
176
     1
 90
        1
176
     1
 40
40.0
176
     1
 90
        8
176
     1
 62
     7
176
     1
 40
1.0
176
     1
 90
        1
176
     1
 90
        6
176
     1
 90
        2
176
     1
 62
     7
176
     1
 90
        3
176
     1
 90
        0
176
     1
 90
        0
176
     1
290
     0
176
     1
 90
        1
176
     1
 40
0.0
176
     1
 90
        0
176
     1
290
     0
176
     1
290
     1
176
     1
290
     1
176
     1
290
     0
176
     1
290
     0
176
     1
290
     0
176
     1
290
     0
176
     1
290
     0
176
     1
290
     0
176
     1
 90
       50
176
     1
 40
0.0
176
     1
 40
1.0
176
     1
 90
        0
176
     1
 62
    18
420
        0
176
     1
 90
       50
176
     1
 90
        3
176
     1
 62
     5
420
      255
176
     1
290
     0
176
     1
 90
       50
176
     1
 90
       50
176
     1
 90
       50
176
     1
290
     0
176
     1
 90
       50
176
     1
 62
   256
176
     0
 40
1.0
176
     0
 90
        2
176
     1
  1
strokes_ogs.tif
176
     1
290
     0
176
     1
 40
1.0
176
     1
 40
1.0
176
     1
  0
VISUALSTYLE
  5
3B
102
{ACAD_REACTORS
330
29
102
}
330
29
100
AcDbVisualStyle
  2
Sketchy
 70
    24
177
     3
291
     0
 70
    58
 90
        1
176
     1
 90
        2
176
     1
 90
        2
176
     1
 90
        0
176
     1
 40
0.6
176
     1
 40
30.0
176
     1
 62
     7
420
 16777215
176
     1
 90
        2
176
     1
 90
        2
176
     1
 62
     7
176
     1
 62
     7
176
     1
 90
        1
176
     1
 90
        1
176
     1
 40
40.0
176
     1
 90
       11
176
     1
 62
     7
176
     1
 40
1.0
176
     1
 90
        1
176
     1
 90
        6
176
     1
 90
        2
176
     1
 62
     7
176
     1
 90
        6
176
     1
 90
        0
176
     1
 90
        0
176
     1
290
     0
176
     1
 90
        1
176
     1
 40
0.0
176
     1
 90
        0
176
     1
290
     0
176
     1
290
     1
176
     1
290
     1
176
     1
290
     0
176
     1
290
     0
176
     1
290
     0
176
     1
290
     0
176
     1
290
     0
176
     1
290
     0
176
     1
 90
       50
176
     1
 40
0.0
176
     1
 40
1.0
176
     1
 90
        0
176
     1
 62
    18
420
        0
176
     1
 90
       50
176
     1
 90
        3
176
     1
 62
     5
420
      255
176
     1
290
     0
176
     1
 90
       50
176
     1
 90
       50
176
     1
 90
       50
176
     1
290
     0
176
     1
 90
       50
176
     1
 62
   256
176
     0
 40
1.0
176
     0
 90
        2
176
     1
  1
strokes_ogs.tif
176
     1
290
     0
176
     1
 40
1.0
176
     1
 40
1.0
176
     1
  0
VISUALSTYLE
  5
36
102
{ACAD_REACTORS
330
29
102
}
330
29
100
AcDbVisualStyle
  2
Thicken
 70
    13
177
     3
291
     1
 70
    58
 90
        2
176
     1
 90
        2
176
     1
 90
        0
176
     1
 90
        0
176
     1
 40
0.6
176
     1
 40
30.0
176
     1
 62
     7
420
 16777215
176
     1
 90
        1
176
     1
 90
        4
176
     1
 62
     7
176
     1
 62
   257
176
     1
 90
        1
176
     1
 90
        1
176
     1
 40
1.0
176
     1
 90
       12
176
     1
 62
     7
176
     1
 40
1.0
176
     1
 90
        1
176
     1
 90
        6
176
     1
 90
        2
176
     1
 62
     7
176
     1
 90
        5
176
     1
 90
        0
176
     1
 90
        0
176
     1
290
     0
176
     1
 90
        1
176
     1
 40
0.0
176
     1
 90
        0
176
     1
290
     0
176
     1
290
     1
176
     1
290
     1
176
     1
290
     0
176
     1
290
     0
176
     1
290
     0
176
     1
290
     0
176
     1
290
     0
176
     1
290
     0
176
     1
 90
       50
176
     1
 40
0.0
176
     1
 40
1.0
176
     1
 90
        0
176
     1
 62
    18
420
        0
176
     1
 90
       50
176
     1
 90
        3
176
     1
 62
     5
420
      255
176
     1
290
     0
176
     1
 90
       50
176
     1
 90
       50
176
     1
 90
       50
176
     1
290
     0
176
     1
 90
       50
176
     1
 62
   256
176
     0
 40
1.0
176
     0
 90
        2
176
     1
  1
strokes_ogs.tif
176
     1
290
     0
176
     1
 40
1.0
176
     1
 40
1.0
176
     1
  0
VISUALSTYLE
  5
30
102
{ACAD_REACTORS
330
29
102
}
330
29
100
AcDbVisualStyle
  2
Wireframe
 70
     5
177
     3
291
     0
 70
    58
 90
        0
176
     1
 90
        2
176
     1
 90
        0
176
     1
 90
        0
176
     1
 40
0.6
176
     1
 40
30.0
176
     1
 62
     7
420
 16777215
176
     1
 90
        1
176
     1
 90
        4
176
     1
 62
     7
176
     1
 62
   257
176
     1
 90
        1
176
     1
 90
        1
176
     1
 40
1.0
176
     1
 90
        0
176
     1
 62
   257
176
     1
 40
1.0
176
     1
 90
        1
176
     1
 90
        6
176
     1
 90
        2
176
     1
 62
     7
176
     1
 90
        3
176
     1
 90
        0
176
     1
 90
        0
176
     1
290
     0
176
     1
 90
        1
176
     1
 40
0.0
176
     1
 90
        0
176
     1
290
     0
176
     1
290
     1
176
     1
290
     1
176
     1
290
     0
176
     1
290
     0
176
     1
290
     0
176
     1
290
     0
176
     1
290
     0
176
     1
290
     0
176
     1
 90
       50
176
     1
 40
0.0
176
     1
 40
1.0
176
     1
 90
        0
176
     1
 62
    18
420
        0
176
     1
 90
       50
176
     1
 90
        3
176
     1
 62
     5
420
      255
176
     1
290
     0
176
     1
 90
       50
176
     1
 90
       50
176
     1
 90
       50
176
     1
290
     0
176
     1
 90
       50
176
     1
 62
   256
176
     0
 40
1.0
176
     0
 90
        2
176
     1
  1
strokes_ogs.tif
176
     1
290
     0
176
     1
 40
1.0
176
     1
 40
1.0
176
     1
  0
VISUALSTYLE
  5
3C
102
{ACAD_REACTORS
330
29
102
}
330
29
100
AcDbVisualStyle
  2
X-Ray
 70
    25
177
     3
291
     0
 70
    58
 90
        2
176
     1
 90
        2
176
     1
 90
        1
176
     1
 90
        1
176
     1
 40
0.5
176
     1
 40
30.0
176
     1
 62
     7
420
 16777215
176
     1
 90
        1
176
     1
 90
        0
176
     1
 62
     7
176
     1
 62
   257
176
     1
 90
        1
176
     1
 90
        1
176
     1
 40
1.0
176
     1
 90
        8
176
     1
 62
     7
176
     1
 40
1.0
176
     1
 90
        1
176
     1
 90
        6
176
     1
 90
        2
176
     1
 62
     7
176
     1
 90
        3
176
     1
 90
        0
176
     1
 90
        0
176
     1
290
     0
176
     1
 90
       13
176
     1
 40
0.0
176
     1
 90
        0
176
     1
290
     0
176
     1
290
     1
176
     1
290
     1
176
     1
290
     0
176
     1
290
     0
176
     1
290
     0
176
     1
290
     0
176
     1
290
     0
176
     1
290
     0
176
     1
 90
       50
176
     1
 40
0.0
176
     1
 40
1.0
176
     1
 90
        0
176
     1
 62
    18
420
        0
176
     1
 90
       50
176
     1
 90
        3
176
     1
 62
     5
420
      255
176
     1
290
     0
176
     1
 90
       50
176
     1
 90
       50
176
     1
 90
       50
176
     1
290
     0
176
     1
 90
       50
176
     1
 62
   256
176
     0
 40
1.0
176
     0
 90
        2
176
     1
  1
strokes_ogs.tif
176
     1
290
     0
176
     1
 40
1.0
176
     1
 40
1.0
176
     1
  0
DICTIONARY
  5
469
102
{ACAD_REACTORS
330
468
102
}
330
468
100
AcDbDictionary
280
     1
281
     1
  3
Standards
360
46A
  0
DICTIONARYVAR
  5
F6
102
{ACAD_REACTORS
330
F1
102
}
330
F1
100
DictionaryVariables
280
     0
  1
1:1
  0
DICTIONARYVAR
  5
F3
102
{ACAD_REACTORS
330
F1
102
}
330
F1
100
DictionaryVariables
280
     0
  1
STANDARD
  0
DICTIONARYVAR
  5
F2
102
{ACAD_REACTORS
330
F1
102
}
330
F1
100
DictionaryVariables
280
     0
  1
STANDARD
  0
DICTIONARYVAR
  5
F4
102
{ACAD_REACTORS
330
F1
102
}
330
F1
100
DictionaryVariables
280
     0
  1
Imperial24
  0
DICTIONARYVAR
  5
F5
102
{ACAD_REACTORS
330
F1
102
}
330
F1
100
DictionaryVariables
280
     0
  1
Imperial24
  0
XRECORD
  5
E8
102
{ACAD_REACTORS
330
E6
102
}
330
E6
100
AcDbXrecord
280
     1
  1
BUILDING_ID
  1
Bathtub-Drop_In-DXV-Aqua_Moment-D12015328
  1
FLOOR_ID
  1
23
  0
XRECORD
  5
E7
102
{ACAD_REACTORS
330
E6
102
}
330
E6
100
AcDbXrecord
280
     1
  1
-2001160
  1
Plumbing Fixtures
  1
-2007000
  1
Connector Element
  0
DICTIONARY
  5
EE
330
6B
100
AcDbDictionary
280
     1
281
     1
  3
ACAD_XREC_ROUNDTRIP
360
471
  0
DICTIONARY
  5
1A
330
19
100
AcDbDictionary
280
     1
281
     1
  3
BUMPTILE
360
1C
  3
DIFFUSETILE
360
1B
  3
OPACITYTILE
360
1F
  3
REFLECTIONTILE
360
1E
  3
REFRACTIONTILE
360
20
  3
SPECULARTILE
360
1D
  0
DICTIONARY
  5
12
330
11
100
AcDbDictionary
280
     1
281
     1
  3
BUMPTILE
360
14
  3
DIFFUSETILE
360
13
  3
OPACITYTILE
360
17
  3
REFLECTIONTILE
360
16
  3
REFRACTIONTILE
360
18
  3
SPECULARTILE
360
15
  0
DICTIONARY
  5
22
330
21
100
AcDbDictionary
280
     1
281
     1
  3
BUMPTILE
360
24
  3
DIFFUSETILE
360
23
  3
OPACITYTILE
360
27
  3
REFLECTIONTILE
360
26
  3
REFRACTIONTILE
360
28
  3
SPECULARTILE
360
25
  0
DICTIONARY
  5
EC
330
69
100
AcDbDictionary
280
     1
281
     1
  3
ACAD_XREC_ROUNDTRIP
360
470
  0
DICTIONARY
  5
46E
330
65
100
AcDbDictionary
280
     1
281
     1
  3
ACAD_ROUNDTRIP_2008_TABLESTYLE_CELLSTYLEMAP
360
46F
  0
BINRECORD
  5
46A
102
{ACAD_REACTORS
330
469
102
}
330
469
100
AcAecBinRecord
 90
        0
 91
    19403
 70
     0
310
0100FFFEFF0D4100490041002000560065007200730069006F006E00200033000500FFFF01001C004163416563556B4C6179657244657363726970746976654669656C64FFFEFF154400690073006300690070006C0069006E0065002000440065007300690067006E00610074006F0072000102000000007B333637354541
310
46100100002100000070BA406CD0EA76040B00FFFEFF001500FFFEFF01520002000000FFFEFF085200650073006F0075007200630065000700FFFEFF01410002000000FFFEFF165200650073006F00750072006300650020004100720063006800690074006500630074007500720061006C00000000000000FFFEFF014D00
310
02000000FFFEFF135200650073006F00750072006300650020004D0065006300680061006E006900630061006C00000000000000FFFEFF014B0002000000FFFEFF175200650073006F007500720063006500200028005500730065007200200044006500660069006E00650064002900000000000000FFFEFF014A00020000
310
00FFFEFF175200650073006F007500720063006500200028005500730065007200200044006500660069006E00650064002900000000000000FFFEFF01450002000000FFFEFF135200650073006F007500720063006500200045006C0065006300740072006900630061006C00000000000000FFFEFF01430002000000FFFE
310
FF0E5200650073006F007500720063006500200043006900760069006C00000000000000FFFEFF01530002000000FFFEFF135200650073006F00750072006300650020005300740072007500630074007500720061006C0000000000000000000000FFFEFF01410002000000FFFEFF0D410072006300680069007400650063
310
0074007500720061006C000A00FFFEFF01500002000000FFFEFF144100720063006800690074006500630074007500720061006C00200050006100760069006E006700000000000000FFFEFF014B0002000000FFFEFF1C4100720063006800690074006500630074007500720061006C002000280055007300650072002000
310
44006500660069006E00650064002900000000000000FFFEFF014A0002000000FFFEFF1C4100720063006800690074006500630074007500720061006C00200028005500730065007200200044006500660069006E00650064002900000000000000FFFEFF01490002000000FFFEFF16410072006300680069007400650063
310
0074007500720061006C00200049006E0074006500720069006F007200000000000000FFFEFF01470002000000FFFEFF164100720063006800690074006500630074007500720061006C00200047007200610070006800690063007300000000000000FFFEFF01460002000000FFFEFF164100720063006800690074006500
310
630074007500720061006C002000460069006E0069007300680065007300000000000000FFFEFF01450002000000FFFEFF164100720063006800690074006500630074007500720061006C00200045006C0065006D0065006E0074007300000000000000FFFEFF01440002000000FFFEFF1841007200630068006900740065
310
00630074007500720061006C002000440065006D006F006C006900740069006F006E00000000000000FFFEFF01540002000000FFFEFF1C4100720063006800690074006500630074007500720061006C0020005400720061006E00730070006F00720074006100740069006F006E00000000000000FFFEFF01530002000000
310
FFFEFF124100720063006800690074006500630074007500720061006C002000530069007400650000000000000001000000FFFEFF01510002000000FFFEFF09450071007500690070006D0065006E0074001100FFFEFF01410002000000FFFEFF124100740068006C0065007400690063002000450071007500690070006D
310
0065006E007400000000000000FFFEFF01520002000000FFFEFF10520065007400610069006C002000450071007500690070006D0065006E007400000000000000FFFEFF01500002000000FFFEFF155000610072006B0069006E00670020004C006F0074002000450071007500690070006D0065006E007400000000000000
310
FFFEFF014D0002000000FFFEFF154D00610069006E00740065006E0061006E00630065002000450071007500690070006D0065006E007400000000000000FFFEFF014C0002000000FFFEFF144C00610062006F007200610074006F00720079002000450071007500690070006D0065006E007400000000000000FFFEFF014B
310
0002000000FFFEFF18450071007500690070006D0065006E007400200028005500730065007200200044006500660069006E00650064002900000000000000FFFEFF014A0002000000FFFEFF18450071007500690070006D0065006E007400200028005500730065007200200044006500660069006E006500640029000000
310
00000000FFFEFF01480002000000FFFEFF1248006F00730070006900740061006C002000450071007500690070006D0065006E007400000000000000FFFEFF01590002000000FFFEFF12530065006300750072006900740079002000450071007500690070006D0065006E007400000000000000FFFEFF01460002000000FF
310
FEFF1646006F006F006400200053006500720076006900630065002000450071007500690070006D0065006E007400000000000000FFFEFF01450002000000FFFEFF1545006400750063006100740069006F006E0061006C002000450071007500690070006D0065006E007400000000000000FFFEFF01560002000000FFFE
310
FF1C56006900640065006F002F00500068006F0074006F0067007200610070006800690063002000450071007500690070006D0065006E007400000000000000FFFEFF01440002000000FFFEFF1344006500740065006E00740069006F006E002000450071007500690070006D0065006E007400000000000000FFFEFF0143
310
0002000000FFFEFF16440072007900200043006C00650061006E0069006E0067002000450071007500690070006D0065006E007400000000000000FFFEFF01540002000000FFFEFF145400680065006100740072006900630061006C002000450071007500690070006D0065006E007400000000000000FFFEFF0142000200
310
0000FFFEFF0E420061006E006B002000450071007500690070006D0065006E007400000000000000FFFEFF01530002000000FFFEFF0E53006900740065002000450071007500690070006D0065006E00740000000000000000000000FFFEFF01500002000000FFFEFF0850006C0075006D00620069006E0067000600FFFEFF
310
01510002000000FFFEFF1250006C0075006D00620069006E0067002000450071007500690070006D0065006E007400000000000000FFFEFF01500002000000FFFEFF0F50006C0075006D00620069006E006700200050006900700069006E006700000000000000FFFEFF014B0002000000FFFEFF1750006C0075006D006200
310
69006E006700200028005500730065007200200044006500660069006E00650064002900000000000000FFFEFF014A0002000000FFFEFF1750006C0075006D00620069006E006700200028005500730065007200200044006500660069006E00650064002900000000000000FFFEFF01440002000000FFFEFF1350006C0075
310
006D00620069006E0067002000440065006D006F006C006900740069006F006E00000000000000FFFEFF01530002000000FFFEFF0D50006C0075006D00620069006E0067002000530069007400650000000000000000000000FFFEFF014F0002000000FFFEFF0A4F007000650072006100740069006F006E0073000200FFFE
310
FF014B0002000000FFFEFF194F007000650072006100740069006F006E007300200028005500730065007200200044006500660069006E00650064002900000000000000FFFEFF014A0002000000FFFEFF194F007000650072006100740069006F006E007300200028005500730065007200200044006500660069006E0065
310
006400290000000000000000000000FFFEFF014D0002000000FFFEFF0A4D0065006300680061006E006900630061006C000700FFFEFF01500002000000FFFEFF114D0065006300680061006E006900630061006C00200050006900700069006E006700000000000000FFFEFF014B0002000000FFFEFF194D00650063006800
310
61006E006900630061006C00200028005500730065007200200044006500660069006E00650064002900000000000000FFFEFF014A0002000000FFFEFF194D0065006300680061006E006900630061006C00200028005500730065007200200044006500660069006E00650064002900000000000000FFFEFF014900020000
310
00FFFEFF1A4D0065006300680061006E006900630061006C00200049006E0073007400720075006D0065006E0074006100740069006F006E00000000000000FFFEFF01480002000000FFFEFF0F4D0065006300680061006E006900630061006C0020004800560041004300000000000000FFFEFF01440002000000FFFEFF15
310
4D0065006300680061006E006900630061006C002000440065006D006F006C006900740069006F006E00000000000000FFFEFF01530002000000FFFEFF0F4D0065006300680061006E006900630061006C002000530069007400650000000000000000000000FFFEFF014C0002000000FFFEFF094C0061006E006400730063
310
006100700065000500FFFEFF01500002000000FFFEFF124C0061006E00640073006300610070006500200050006C0061006E00740069006E006700000000000000FFFEFF014B0002000000FFFEFF184C0061006E00640073006300610070006500200028005500730065007200200044006500660069006E00650064002900
310
000000000000FFFEFF014A0002000000FFFEFF184C0061006E00640073006300610070006500200028005500730065007200200044006500660069006E00650064002900000000000000FFFEFF01490002000000FFFEFF144C0061006E006400730063006100700065002000490072007200690067006100740069006F006E
310
00000000000000FFFEFF01440002000000FFFEFF144C0061006E006400730063006100700065002000440065006D006F006C006900740069006F006E0000000000000000000000FFFEFF015A0002000000FFFEFF1A43006F006E00740072006100630074006F00720020002F002000530068006F0070002000440072006100
310
770069006E00670073000200FFFEFF014B0002000000FFFEFF2943006F006E00740072006100630074006F00720020002F002000530068006F0070002000440072006100770069006E0067007300200028005500730065007200200044006500660069006E00650064002900000000000000FFFEFF014A0002000000FFFEFF
310
2943006F006E00740072006100630074006F00720020002F002000530068006F0070002000440072006100770069006E0067007300200028005500730065007200200044006500660069006E0065006400290000000000000000000000FFFEFF01490002000000FFFEFF0949006E0074006500720069006F00720073000600
310
FFFEFF014E0002000000FFFEFF0F49006E0074006500720069006F0072002000440065007300690067006E00000000000000FFFEFF014B0002000000FFFEFF1849006E0074006500720069006F0072007300200028005500730065007200200044006500660069006E00650064002900000000000000FFFEFF014A00020000
310
00FFFEFF1849006E0074006500720069006F0072007300200028005500730065007200200044006500660069006E00650064002900000000000000FFFEFF01470002000000FFFEFF1249006E0074006500720069006F0072007300200047007200610070006800690063007300000000000000FFFEFF01460002000000FFFE
310
FF1149006E0074006500720069006F0072002000460069006E0069007300680065007300000000000000FFFEFF01440002000000FFFEFF1349006E0074006500720069006F0072002000440065006D006F006C006900740069006F006E0000000000000000000000FFFEFF01480002000000FFFEFF13480061007A00610072
310
0064006F007500730020004D006100740065007200690061006C0073000700FFFEFF01410002000000FFFEFF084100730062006500730074006F007300000000000000FFFEFF01520002000000FFFEFF0C5200650066007200690067006500720061006E0074007300000000000000FFFEFF01500002000000FFFEFF035000
310
43004200000000000000FFFEFF014C0002000000FFFEFF044C00650061006400000000000000FFFEFF014B0002000000FFFEFF22480061007A006100720064006F007500730020004D006100740065007200690061006C007300200028005500730065007200200044006500660069006E00650064002900000000000000FF
310
FEFF014A0002000000FFFEFF22480061007A006100720064006F007500730020004D006100740065007200690061006C007300200028005500730065007200200044006500660069006E00650064002900000000000000FFFEFF01430002000000FFFEFF094300680065006D006900630061006C0073000000000000000000
310
0000FFFEFF01580002000000FFFEFF114F00740068006500720020004400690073006300690070006C0069006E00650073000200FFFEFF014B0002000000FFFEFF204F00740068006500720020004400690073006300690070006C0069006E0065007300200028005500730065007200200044006500660069006E00650064
310
002900000000000000FFFEFF014A0002000000FFFEFF204F00740068006500720020004400690073006300690070006C0069006E0065007300200028005500730065007200200044006500660069006E0065006400290000000000000000000000FFFEFF01470002000000FFFEFF07470065006E006500720061006C000500
310
FFFEFF01520002000000FFFEFF10470065006E006500720061006C0020005200650073006F007500720063006500000000000000FFFEFF014B0002000000FFFEFF16470065006E006500720061006C00200028005500730065007200200044006500660069006E00650064002900000000000000FFFEFF014A0002000000FF
310
FEFF16470065006E006500720061006C00200028005500730065007200200044006500660069006E00650064002900000000000000FFFEFF01490002000000FFFEFF13470065006E006500720061006C00200049006E0066006F0072006D006100740069006F006E00000000000000FFFEFF01430002000000FFFEFF134700
310
65006E006500720061006C00200043006F006E0074007200610063007400750061006C0000000000000000000000FFFEFF01460002000000FFFEFF0F46006900720065002000500072006F00740065006300740069006F006E000400FFFEFF01410002000000FFFEFF18460069007200650020004400650074006500630074
310
0069006F006E00200061006E006400200041006C00610072006D00000000000000FFFEFF014B0002000000FFFEFF134600690072006500200028005500730065007200200044006500660069006E00650064002900000000000000FFFEFF014A0002000000FFFEFF1346006900720065002000280055007300650072002000
310
44006500660069006E00650064002900000000000000FFFEFF01530002000000FFFEFF10460069007200650020005300750070007000720065007300730069006F006E0000000000000000000000FFFEFF01570002000000FFFEFF0B43006900760069006C00200057006F0072006B0073000200FFFEFF014B0002000000FF
310
FEFF1A43006900760069006C00200057006F0072006B007300200028005500730065007200200044006500660069006E00650064002900000000000000FFFEFF014A0002000000FFFEFF1A43006900760069006C00200057006F0072006B007300200028005500730065007200200044006500660069006E00650064002900
310
00000000000000000000FFFEFF01450002000000FFFEFF0A45006C0065006300740072006900630061006C000900FFFEFF01500002000000FFFEFF1045006C0065006300740072006900630061006C00200050006F00770065007200000000000000FFFEFF014C0002000000FFFEFF1345006C006500630074007200690063
310
0061006C0020004C00690067006800740069006E006700000000000000FFFEFF014B0002000000FFFEFF1945006C0065006300740072006900630061006C00200028005500730065007200200044006500660069006E00650064002900000000000000FFFEFF014A0002000000FFFEFF1945006C0065006300740072006900
310
630061006C00200028005500730065007200200044006500660069006E00650064002900000000000000FFFEFF01490002000000FFFEFF1A45006C0065006300740072006900630061006C00200049006E0073007400720075006D0065006E0074006100740069006F006E00000000000000FFFEFF01590002000000FFFEFF
310
1C45006C0065006300740072006900630061006C00200041007500780069006C0069006100720079002000530079007300740065006D007300000000000000FFFEFF01440002000000FFFEFF1545006C0065006300740072006900630061006C002000440065006D006F006C006900740069006F006E00000000000000FFFE
310
FF01540002000000FFFEFF1D45006C0065006300740072006900630061006C002000540065006C00650063006F006D006D0075006E00690063006100740069006F006E007300000000000000FFFEFF01530002000000FFFEFF0F45006C0065006300740072006900630061006C002000530069007400650000000000000000
310
000000FFFEFF01560002000000FFFEFF1053007500720076006500790020002F0020004D0061007000700069006E0067000500FFFEFF01410002000000FFFEFF0D410065007200690061006C002000530075007200760065007900000000000000FFFEFF014B0002000000FFFEFF1F53007500720076006500790020002F00
310
20004D0061007000700069006E006700200028005500730065007200200044006500660069006E00650064002900000000000000FFFEFF014A0002000000FFFEFF1F53007500720076006500790020002F0020004D0061007000700069006E006700200028005500730065007200200044006500660069006E006500640029
310
00000000000000FFFEFF01490002000000FFFEFF0E4400690067006900740061006C002000530075007200760065007900000000000000FFFEFF01460002000000FFFEFF0C4600690065006C006400200053007500720076006500790000000000000000000000FFFEFF01440002000000FFFEFF07500072006F0063006500
310
730073000E00FFFEFF01410002000000FFFEFF0C500072006F00630065007300730020004100690072007300000000000000FFFEFF01520002000000FFFEFF19500072006F006300650073007300200044007200610069006E0073002000260020005200650063006C00610069006D007300000000000000FFFEFF01510002
310
000000FFFEFF11500072006F0063006500730073002000450071007500690070006D0065006E007400000000000000FFFEFF01500002000000FFFEFF0E500072006F006300650073007300200050006900700069006E006700000000000000FFFEFF014F0002000000FFFEFF0B500072006F00630065007300730020004F00
310
69006C00000000000000FFFEFF01470002000000FFFEFF0D500072006F006300650073007300200047006100730065007300000000000000FFFEFF01580002000000FFFEFF0F500072006F00630065007300730020004500780068006100750073007400000000000000FFFEFF01570002000000FFFEFF0E500072006F0063
310
006500730073002000570061007400650072007300000000000000FFFEFF01450002000000FFFEFF12500072006F006300650073007300200045006C0065006300740072006900630061006C00000000000000FFFEFF01560002000000FFFEFF0E500072006F0063006500730073002000560061006300750075006D000000
310
00000000FFFEFF01440002000000FFFEFF12500072006F0063006500730073002000440065006D006F006C006900740069006F006E00000000000000FFFEFF01430002000000FFFEFF11500072006F00630065007300730020004300680065006D006900630061006C007300000000000000FFFEFF01540002000000FFFEFF
310
18500072006F006300650073007300200045006E0074007200610069006E0065006400200053006F006C00690064007300000000000000FFFEFF01530002000000FFFEFF0C500072006F0063006500730073002000530069007400650000000000000000000000FFFEFF01540002000000FFFEFF12540065006C0065006300
310
6F006D006D0075006E00690063006100740069006F006E0073000900FFFEFF01410002000000FFFEFF0E41007500640069006F0020002F002000560069007300750061006C00000000000000FFFEFF014E0002000000FFFEFF0D440061007400610020004E006500740077006F0072006B007300000000000000FFFEFF014D
310
0002000000FFFEFF0A4D006F006E00690074006F00720069006E006700000000000000FFFEFF014B0002000000FFFEFF21540065006C00650063006F006D006D0075006E00690063006100740069006F006E007300200028005500730065007200200044006500660069006E00650064002900000000000000FFFEFF014A00
310
02000000FFFEFF21540065006C00650063006F006D006D0075006E00690063006100740069006F006E007300200028005500730065007200200044006500660069006E00650064002900000000000000FFFEFF01490002000000FFFEFF0849006E0074006500720063006F006D00000000000000FFFEFF01590002000000FF
310
FEFF0853006500630075007200690074007900000000000000FFFEFF01430002000000FFFEFF1143006C006F0063006B00200061006E0064002000500072006F006700720061006D00000000000000FFFEFF01540002000000FFFEFF09540065006C006500700068006F006E00650000000000000000000000FFFEFF014300
310
02000000FFFEFF0543006900760069006C000900FFFEFF01500002000000FFFEFF0C43006900760069006C00200050006100760069006E006700000000000000FFFEFF014B0002000000FFFEFF1443006900760069006C00200028005500730065007200200044006500660069006E00650064002900000000000000FFFEFF
310
014A0002000000FFFEFF1443006900760069006C00200028005500730065007200200044006500660069006E00650064002900000000000000FFFEFF01490002000000FFFEFF1243006900760069006C00200049006D00700072006F00760065006D0065006E0074007300000000000000FFFEFF01470002000000FFFEFF0D
310
43006900760069006C002000470072006100640069006E006700000000000000FFFEFF01550002000000FFFEFF0F43006900760069006C0020005500740069006C0069007400690065007300000000000000FFFEFF01440002000000FFFEFF1043006900760069006C002000440065006D006F006C006900740069006F006E
310
00000000000000FFFEFF01540002000000FFFEFF1443006900760069006C0020005400720061006E00730070006F00720074006100740069006F006E00000000000000FFFEFF01530002000000FFFEFF0A43006900760069006C002000530069007400650000000000000000000000FFFEFF01530002000000FFFEFF0A5300
310
740072007500630074007500720061006C000600FFFEFF014B0002000000FFFEFF195300740072007500630074007500720061006C00200028005500730065007200200044006500660069006E00650064002900000000000000FFFEFF014A0002000000FFFEFF195300740072007500630074007500720061006C00200028
310
005500730065007200200044006500660069006E00650064002900000000000000FFFEFF01460002000000FFFEFF125300740072007500630074007500720061006C0020004600720061006D0069006E006700000000000000FFFEFF01440002000000FFFEFF155300740072007500630074007500720061006C0020004400
310
65006D006F006C006900740069006F006E00000000000000FFFEFF01420002000000FFFEFF175300740072007500630074007500720061006C002000530075006200730074007200750063007400750072006500000000000000FFFEFF01530002000000FFFEFF0F5300740072007500630074007500720061006C00200053
310
0069007400650000000000000000000000FFFEFF01420002000000FFFEFF0C470065006F0074006500630068006E006900630061006C000200FFFEFF014B0002000000FFFEFF1B470065006F0074006500630068006E006900630061006C00200028005500730065007200200044006500660069006E006500640029000000
310
00000000FFFEFF014A0002000000FFFEFF1B470065006F0074006500630068006E006900630061006C00200028005500730065007200200044006500660069006E00650064002900000000000000000000000180FFFEFF054D0061006A006F0072000300000000000000000000000000000000000000000000000000000000
310
000000FFFEFF002300FFFEFF052D004400650074006C0002000000FFFEFF06440065007400610069006C00000000000000FFFEFF052D0043006C006E00670002000000FFFEFF074300650069006C0069006E006700000000000000FFFEFF052D0052006F006F00660002000000FFFEFF0452006F006F006600000000000000
310
FFFEFF052D00470072006900640002000000FFFEFF0A470072006900640020006C0069006E0065007300000000000000FFFEFF052D00460069007200650002000000FFFEFF1446006900720065002000700072006F00740065006300740069006F006E00200070006C0061006E00000000000000FFFEFF052D00500072006F
310
00740002000000FFFEFF1646006900720065002000700072006F00740065006300740069006F006E002000730079007300740065006D00000000000000FFFEFF052D0043006F006C00730002000000FFFEFF0743006F006C0075006D006E007300000000000000FFFEFF052D004300740072006C0002000000FFFEFF0E4300
310
6F006E00740072006F006C00200050006F0069006E0074007300000000000000FFFEFF052D004500710070006D0002000000FFFEFF09450071007500690070006D0065006E007400000000000000FFFEFF052D00570061006C006C0002000000FFFEFF05570061006C006C007300000000000000FFFEFF052D00500072006F
310
00700002000000FFFEFF08500072006F0070006500720074007900000000000000FFFEFF052D00530065006300740002000000FFFEFF07530065006300740069006F006E00000000000000FFFEFF052D0050006F006C00790002000000FFFEFF0850006F006C00790067006F006E007300000000000000FFFEFF052D004C00
310
69007400650002000000FFFEFF114C00690067006800740069006E006700200066006900780074007500720065007300000000000000FFFEFF052D00410063006300730002000000FFFEFF0B410063006300650073007300200070006C0061006E00000000000000FFFEFF052D00480056004100430002000000FFFEFF0448
310
00560041004300000000000000FFFEFF052D0045006C006500630002000000FFFEFF0A45006C0065006300740072006900630061006C00000000000000FFFEFF052D0054006F0070006F0002000000FFFEFF0A54006F0070006F00670072006100700068007900000000000000FFFEFF052D0043006F006400650002000000
310
FFFEFF1443006F0064006500200063006F006D0070006C00690061006E0063006500200070006C0061006E00000000000000FFFEFF052D0047006C0061007A0002000000FFFEFF0747006C0061007A0069006E006700000000000000FFFEFF052D00540069006E006E0002000000FFFEFF1E54007200690061006E00670075
310
006C00610074006500640020006900720072006500670075006C006100720020006E006500740077006F0072006B00000000000000FFFEFF052D0050006C0061006E0002000000FFFEFF154B0065007900200070006C0061006E002000280066006C006F006F007200200070006C0061006E002900000000000000FFFEFF05
310
2D0046006C006F00720002000000FFFEFF0546006C006F006F007200000000000000FFFEFF052D004600750072006E0002000000FFFEFF0B4600750072006E0069007300680069006E0067007300000000000000FFFEFF052D004200650061006D0002000000FFFEFF054200650061006D007300000000000000FFFEFF052D
310
0044006F006F00720002000000FFFEFF0544006F006F0072007300000000000000FFFEFF052D0041006E006E006F0002000000FFFEFF0A41006E006E006F0074006100740069006F006E00000000000000FFFEFF052D00450076006100630002000000FFFEFF0F450076006100630075006100740069006F006E0020007000
310
6C0061006E00000000000000FFFEFF052D00530069007400650002000000FFFEFF095300690074006500200070006C0061006E00000000000000FFFEFF052D0043006F006E00760002000000FFFEFF1143006F006E0076006500790069006E0067002000730079007300740065006D007300000000000000FFFEFF052D0053
310
006C006100620002000000FFFEFF0553006C00610062007300000000000000FFFEFF052D0043006F006D006D0002000000FFFEFF12540065006C00650063006F006D006D0075006E00690063006100740069006F006E007300000000000000FFFEFF052D005300740072006D0002000000FFFEFF0844007200610069006E00
310
610067006500000000000000FFFEFF052D00410072006500610002000000FFFEFF044100720065006100000000000000FFFEFF052D0045006C006500760002000000FFFEFF0945006C00650076006100740069006F006E000000000000000180FFFEFF074D0069006E006F00720020003100040000000000000000F00E7704
310
00000000000000000000000000000000F00000FFFEFF006A00FFFEFF052D004F00700065006E0002000000FFFEFF084F00700065006E0069006E0067007300000000000000FFFEFF052D005300690067006E0002000000FFFEFF055300690067006E007300000000000000FFFEFF052D0043006C006E00670002000000FFFE
310
FF074300650069006C0069006E006700000000000000FFFEFF052D00570069006400650002000000FFFEFF19570069006400650020007700650069006700680074002000670072006100700068006900630020006C0069006E0065007300000000000000FFFEFF052D00530044004600460002000000FFFEFF105300750070
310
0070006C0079002000640069006600660075007300650072007300000000000000FFFEFF052D004D0063007500740002000000FFFEFF164D00610069006E00200063007500740020006C0069006E006500200065006C0065006D0065006E0074007300000000000000FFFEFF052D00470072006900640002000000FFFEFF04
310
4700720069006400000000000000FFFEFF052D00460069007200650002000000FFFEFF0A46006900720065002000770061006C006C007300000000000000FFFEFF052D00410062006F00760002000000FFFEFF0E45006C0065006D0065006E00740073002000610062006F0076006500000000000000FFFEFF052D00500072
310
006F00660002000000FFFEFF08500072006F00660069006C0065007300000000000000FFFEFF052D00530079006D00620002000000FFFEFF07530079006D0062006F006C007300000000000000FFFEFF052D00480065007600790002000000FFFEFF1A48006500610076007900200077006500690067006800740020006700
310
72006100700068006900630020006C0069006E0065007300000000000000FFFEFF052D00430061007600690002000000FFFEFF06430061007600690074007900000000000000FFFEFF052D005500740069006C0002000000FFFEFF095500740069006C0069007400690065007300000000000000FFFEFF052D004E006F0074
310
00650002000000FFFEFF054E006F00740065007300000000000000FFFEFF052D00530065006100740002000000FFFEFF07530065006100740069006E006700000000000000FFFEFF052D00460072006500650002000000FFFEFF0C46007200650065007300740061006E00640069006E006700000000000000FFFEFF052D00
310
460061007300630002000000FFFEFF074600610073006300690061007300000000000000FFFEFF052D00500072006800740002000000FFFEFF0E5000610072007400690061006C002000680065006900670068007400000000000000FFFEFF052D004D00610072006B0002000000FFFEFF1D4D00610072006B006500720073
310
002C00200062007200650061006B0020006D00610072006B0073002C0020006C00650061006400650072007300000000000000FFFEFF052D00530070006300650002000000FFFEFF0553007000610063006500000000000000FFFEFF052D004900640065006E0002000000FFFEFF134900640065006E007400690066006900
310
63006100740069006F006E0020005400610067007300000000000000FFFEFF052D0057006B007300660002000000FFFEFF1E530079007300740065006D00200077006F0072006B0020007300750072006600610063006500200063006F006D0070006F006E0065006E0074007300000000000000FFFEFF052D005200610069
310
00730002000000FFFEFF06520061006900730065006400000000000000FFFEFF052D004A0061006D00620002000000FFFEFF1544006F006F007200200061006E0064002000770069006E0064006F00770020006A0061006D0062007300000000000000FFFEFF052D00450076007400720002000000FFFEFF1B45006C006500
310
7600610074006F00720020006300610072007300200061006E0064002000650071007500690070006D0065006E007400000000000000FFFEFF052D00540065007800740002000000FFFEFF045400650078007400000000000000FFFEFF052D004500710070006D0002000000FFFEFF09450071007500690070006D0065006E
310
007400000000000000FFFEFF052D00570061006C006C0002000000FFFEFF05570061006C006C007300000000000000FFFEFF052D00460069006C00650002000000FFFEFF0D460069006C006500200063006100620069006E00650074007300000000000000FFFEFF052D004100730073006D0002000000FFFEFF0A41007300
310
730065006D0062006C00690065007300000000000000FFFEFF052D0046006E007300680002000000FFFEFF08460069006E0069007300680065007300000000000000FFFEFF052D004D00610073006B0002000000FFFEFF1241004400540020004D00610073006B0069006E00670020004F0062006A00650063007400000000
310
000000FFFEFF052D005400690074006C0002000000FFFEFF18440072006100770069006E00670020006F0072002000640065007400610069006C0020007400690074006C0065007300000000000000FFFEFF052D004C0069007400650002000000FFFEFF084C00690067006800740069006E006700000000000000FFFEFF05
310
2D00410063006300730002000000FFFEFF06410063006300650073007300000000000000FFFEFF052D004C00610062006C0002000000FFFEFF064C006100620065006C007300000000000000FFFEFF052D00520065006600720002000000FFFEFF195200650066006500720065006E00630065002C00200065007800740065
310
0072006E0061006C002000660069006C0065007300000000000000FFFEFF052D004D00650064006D0002000000FFFEFF1B4D0065006400690075006D0020007700650069006700680074002000670072006100700068006900630020006C0069006E0065007300000000000000FFFEFF052D00530074007200730002000000
310
FFFEFF215300740061006900720020007400720065006100640073002C00200065007300630061006C00610074006F00720073002C0020006C00610064006400650072007300000000000000FFFEFF052D00430075007200740002000000FFFEFF0C4300750072007400610069006E002000570061006C006C000000000000
310
00FFFEFF052D00440065006D006F0002000000FFFEFF0A440065006D006F006C006900740069006F006E00000000000000FFFEFF052D00560069006500770002000000FFFEFF13560069006500770070006F0072007400200044006500660069006E006900740069006F006E00000000000000FFFEFF052D00440069006D00
310
730002000000FFFEFF0A440069006D0065006E00730069006F006E007300000000000000FFFEFF052D0053006C006300650002000000FFFEFF0653006C006900630065007300000000000000FFFEFF052D0043006F006E006E0002000000FFFEFF0B43006F006E006E0065006300740069006F006E007300000000000000FF
310
FEFF052D0042006C006F00770002000000FFFEFF0E45006C0065006D0065006E00740073002000620065006C006F007700000000000000FFFEFF052D00460069006E00650002000000FFFEFF19460069006E00650020007700650069006700680074002000670072006100700068006900630020006C0069006E0065007300
310
000000000000FFFEFF052D00530075007300700002000000FFFEFF12530075007300700065006E00640065006400200065006C0065006D0065006E0074007300000000000000FFFEFF052D004C00650076006C0002000000FFFEFF274C006500760065006C0020006300680061006E006700650073002C002000720061006D
310
00700073002C00200070006900740073002C002000640065007000720065007300730069006F006E007300000000000000FFFEFF052D00460069007800640002000000FFFEFF0F460069007800650064002000650071007500690070006D0065006E007400000000000000FFFEFF052D004F0063006300700002000000FFFE
310
FF1A4F00630063007500700061006E00740020006F007200200065006D0070006C006F0079006500650020006E0061006D0065007300000000000000FFFEFF052D00480069006400650002000000FFFEFF0E480069006400640065006E0020006F0062006A006500630074007300000000000000FFFEFF052D004100640074
310
00760002000000FFFEFF1141006400640069007400690076006500200065006C0065006D0065006E0074007300000000000000FFFEFF052D00520064006D00650002000000FFFEFF1B52006500610064002D006D00650020006C006100790065007200200028006E006F007400200070006C006F0074007400650064002900
310
000000000000FFFEFF052D005300630072006E0002000000FFFEFF14530063007200650065006E006500640020004200610063006B00670072006F0075006E0064007300000000000000FFFEFF052D00460069007800740002000000FFFEFF1170006C0075006D00620069006E006700200066006900780074007500720065
310
007300000000000000FFFEFF052D004C00650067006E0002000000FFFEFF144C006500670065006E00640073002C002000530079006D0062006F006C0020006B00650079007300000000000000FFFEFF052D0043006E007400720002000000FFFEFF0A430065006E007400650072006C0069006E006500000000000000FFFE
310
FF052D00420064007200790002000000FFFEFF0842006F0075006E006400610072007900000000000000FFFEFF052D0050006F007700720002000000FFFEFF0550006F00770065007200000000000000FFFEFF052D00470072007000730002000000FFFEFF06470072006F00750070007300000000000000FFFEFF052D004B
310
00650079006E0002000000FFFEFF084B00650079006E006F00740065007300000000000000FFFEFF052D00420072006300650002000000FFFEFF06420072006100630065007300000000000000FFFEFF052D005300700063006C0002000000FFFEFF0B5300700065006300690061006C007400690065007300000000000000
310
FFFEFF052D004F0074006C006E0002000000FFFEFF074F00750074006C0069006E006500000000000000FFFEFF052D005400700074006E0002000000FFFEFF1154006F0069006C0065007400200070006100720074006900740069006F006E007300000000000000FFFEFF052D005200650066006C0002000000FFFEFF0E52
310
00650066006C0065006300740065006400200050006C0061006E00000000000000FFFEFF052D005400680069006E0002000000FFFEFF195400680069006E0020007700650069006700680074002000670072006100700068006900630020006C0069006E0065007300000000000000FFFEFF052D005000650070006C000200
310
0000FFFEFF06500065006F0070006C006500000000000000FFFEFF052D004F0076006800640002000000FFFEFF084F007600650072006800650061006400000000000000FFFEFF052D004800720061006C0002000000FFFEFF16480061006E0064007200610069006C0073002C002000670075006100720064002000720061
310
0069006C007300000000000000FFFEFF052D004D0061007400630002000000FFFEFF0B4D00610074006300680020006C0069006E0065007300000000000000FFFEFF052D00520044004600460002000000FFFEFF14520065007400750072006E00200061006900720020006400690066006600750073006500720073000000
310
00000000FFFEFF052D00540074006C00620002000000FFFEFF1642006F007200640065007200200061006E00640020007400690074006C006500200062006C006F0063006B00000000000000FFFEFF052D00530077006300680002000000FFFEFF0853007700690074006300680065007300000000000000FFFEFF052D0041
310
00700070006C0002000000FFFEFF0A4100700070006C00690061006E00630065007300000000000000FFFEFF052D00540065006500730002000000FFFEFF094D00610069006E0020007400650065007300000000000000FFFEFF052D005700640077006B0002000000FFFEFF16410072006300680069007400650063007400
310
7500720061006C00200077006F006F00640077006F0072006B00000000000000FFFEFF052D004C0069006E00650002000000FFFEFF0D44006500660069006E0069006E00670020004C0069006E006500000000000000FFFEFF052D004D0061007300730002000000FFFEFF104D0061007300730069006E006700200045006C
310
0065006D0065006E0074007300000000000000FFFEFF052D005400610062006C0002000000FFFEFF0B440061007400610020007400610062006C0065007300000000000000FFFEFF052D00540068006C00640002000000FFFEFF0A5400680072006500730068006F006C0064007300000000000000FFFEFF052D0053006300
310
6800640002000000FFFEFF095300630068006500640075006C0065007300000000000000FFFEFF052D00460075006C006C0002000000FFFEFF0B460075006C006C002D00680065006900670068007400000000000000FFFEFF052D00480065006100640002000000FFFEFF1744006F006F007200200061006E006400200077
310
0069006E0064006F00770020006800650061006400650072007300000000000000FFFEFF052D004D006F007600650002000000FFFEFF124D006F0076006500610062006C0065002000650071007500690070006D0065006E007400000000000000FFFEFF052D00420072006E00670002000000FFFEFF1A4200650061007200
310
69006E0067007300200026002000640069007300740061006E006300650020006C006100620065006C007300000000000000FFFEFF052D0043006F006D00700002000000FFFEFF1349006E007400650072006E0061006C00200063006F006D0070006F006E0065006E0074007300000000000000FFFEFF052D00530074006F
310
00720002000000FFFEFF19530079007300740065006D002000730074006F007200610067006500200063006F006D0070006F006E0065006E0074007300000000000000FFFEFF052D0050006B006E00670002000000FFFEFF075000610072006B0069006E006700000000000000FFFEFF052D004E00690063006E0002000000
310
FFFEFF0F4E006F007400200069006E00200063006F006E0074007200610063007400000000000000FFFEFF052D00430068006100730002000000FFFEFF0543006800610073006500000000000000FFFEFF052D004E0070006C00740002000000FFFEFF204E006F006E002D0070006C006F007400740069006E006700200067
310
00720061007000680069006300200069006E0066006F0072006D006100740069006F006E00000000000000FFFEFF052D005600680063006C0002000000FFFEFF08560065006800690063006C0065007300000000000000FFFEFF052D00520065007600730002000000FFFEFF095200650076006900730069006F006E007300
310
000000000000FFFEFF052D00500061007400740002000000FFFEFF19540065007800740075007200650020006F00720020006800610074006300680020007000610074007400650072006E007300000000000000FFFEFF052D0053006C006100620002000000FFFEFF0553006C00610062007300000000000000FFFEFF052D
310
0043006F006D006D0002000000FFFEFF1A540065006C006500700068006F006E0065002C00200063006F006D006D0075006E00690063006100740069006F006E0073002000000000000000FFFEFF052D00430061007300650002000000FFFEFF08430061007300650077006F0072006B00000000000000FFFEFF052D005200
310
65007600630002000000FFFEFF0F5200650076006900730069006F006E00200063006C006F00750064007300000000000000FFFEFF052D0050006C006E00740002000000FFFEFF0650006C0061006E0074007300000000000000FFFEFF052D00530075006200740002000000FFFEFF14530075006200740072006100630074
310
00690076006500200065006C0065006D0065006E0074007300000000000000FFFEFF052D0050006E006C00730002000000FFFEFF0D530079007300740065006D002000700061006E0065006C007300000000000000FFFEFF052D00520069007300720002000000FFFEFF0C5300740061006900720020007200690073006500
310
72007300000000000000FFFEFF052D00530069006C006C0002000000FFFEFF0C570069006E0064006F0077002000730069006C006C0073000000000000000180FFFEFF074D0069006E006F0072002000320005000000004164642062656C6F77207468652073656C6563746564206974656DFFFEFF001600FFFEFF052D0041
310
0062006F00760002000000FFFEFF0E45006C0065006D0065006E00740073002000610062006F0076006500000000000000FFFEFF052D004E006F007400650002000000FFFEFF16470065006E006500720061006C0020005400650078007400200061006E00640020004E006F00740065007300000000000000FFFEFF052D00
310
460061007300630002000000FFFEFF06460061007300630069006100000000000000FFFEFF052D004900640065006E0002000000FFFEFF0A4900640065006E00740069006600690065007200000000000000FFFEFF052D0055006E006900740002000000FFFEFF0455006E0069007400000000000000FFFEFF052D00540069
310
0074006C0002000000FFFEFF065400690074006C0065007300000000000000FFFEFF052D00440069006D00730002000000FFFEFF0A440069006D0065006E00730069006F006E007300000000000000FFFEFF052D0053006C006300650002000000FFFEFF0653006C006900630065007300000000000000FFFEFF052D004700
310
6C0061007A0002000000FFFEFF0747006C0061007A0069006E006700000000000000FFFEFF052D00480069006400650002000000FFFEFF0F480069006400640065006E00200065006C0065006D0065006E0074007300000000000000FFFEFF052D00420064007200790002000000FFFEFF0D4500640067006500200062006F
310
0075006E006400610072007900000000000000FFFEFF052D00470072007000730002000000FFFEFF06470072006F00750070007300000000000000FFFEFF052D004F0074006C006E0002000000FFFEFF074F00750074006C0069006E006500000000000000FFFEFF052D005200650066006C0002000000FFFEFF0F52006500
310
66006C0065006300740065006400200050006C0061006E007300000000000000FFFEFF052D005400680069006E0002000000FFFEFF0E4D0069006E006F00720020006C0069006E00650077006F0072006B00000000000000FFFEFF052D004C0069006E00650002000000FFFEFF10470065006E006500720061006C0020006C
310
0069006E00650077006F0072006B00000000000000FFFEFF052D004E0070006C00740002000000FFFEFF154E006F006E002D0070006C006F007400740069006E006700200065006C0065006D0065006E0074007300000000000000FFFEFF052D00530066006900740002000000FFFEFF0653006F0066006600690074000000
310
00000000FFFEFF052D00500061007400740002000000FFFEFF0E4800610074006300680020007000610074007400650072006E007300000000000000FFFEFF052D005300630061006C0002000000FFFEFF10470072006100700068006900630061006C0020005300630061006C0065007300000000000000FFFEFF052D0052
310
0069007300720002000000FFFEFF06520069007300650072007300000000000000FFFEFF052D00530069006C006C0002000000FFFEFF05530069006C006C0073000000000000000180FFFEFF06530074006100740075007300060000000000000000A434770470040000B10000005073770400000000050000FFFEFF000F00
310
FFFEFF022D00540002000000FFFEFF0E540065006D0070006F007200610072007900200077006F0072006B00000000000000FFFEFF022D00450002000000FFFEFF124500780069007300740069006E006700200074006F002000720065006D00610069006E00000000000000FFFEFF022D00380002000000FFFEFF07500068
310
0061007300650020003800000000000000FFFEFF022D00390002000000FFFEFF075000680061007300650020003900000000000000FFFEFF022D00360002000000FFFEFF075000680061007300650020003600000000000000FFFEFF022D00370002000000FFFEFF075000680061007300650020003700000000000000FFFE
310
FF022D004E0002000000FFFEFF084E0065007700200077006F0072006B00000000000000FFFEFF022D00340002000000FFFEFF075000680061007300650020003400000000000000FFFEFF022D00350002000000FFFEFF075000680061007300650020003500000000000000FFFEFF022D00320002000000FFFEFF07500068
310
0061007300650020003200000000000000FFFEFF022D004D0002000000FFFEFF114900740065006D007300200074006F0020006200650020006D006F00760065006400000000000000FFFEFF022D00330002000000FFFEFF075000680061007300650020003300000000000000FFFEFF022D00310002000000FFFEFF075000
310
680061007300650020003100000000000000FFFEFF022D00460002000000FFFEFF0B460075007400750072006500200077006F0072006B00000000000000FFFEFF022D00440002000000FFFEFF144500780069007300740069006E006700200074006F002000640065006D006F006C006900730068000000000000000600FF
310
FF04001A004163416563556B4C61796572436F6D706F6E656E744669656C64FFFEFF174400690073006300690070006C0069006E0065002000440065007300690067006E00610074006F0072002000310001000000FFFEFF0440002C0040004000000000000100000000FFFEFF014100000000000780FFFEFF174400690073
310
006300690070006C0069006E0065002000440065007300690067006E00610074006F0072002000320001000000FFFEFF0440002C0040004000010000000100000000FFFEFF014400000000000780FFFEFF054D0061006A006F00720005000000FFFEFF052D00400040004000400000000000010000002DFFFEFF052D005700
310
61006C006C00000000000780FFFEFF064D0069006E006F007200310005000000FFFEFF022D002A0001000000010000002DFFFEFF052D004900640065006E00000000000780FFFEFF064D0069006E006F007200320005000000FFFEFF022D002A0001000000010000002DFFFEFF052D005400650078007400000000000780FF
310
FEFF0653007400610074007500730002000000FFFEFF022D002A0001000000010000002DFFFEFF022D004E0000000000050000010203040500FFFEFF00FFFEFF0320002D002000FFFEFF022C002000FFFEFF012000FFFEFF0320002D002000FFFEFF00
  0
XRECORD
  5
471
102
{ACAD_REACTORS
330
EE
102
}
330
EE
100
AcDbXrecord
280
     1
102
DISPLAYNAME
  1
Imperial24
102
FLAGS
 90
        0
  0
XRECORD
  5
1C
102
{ACAD_REACTORS
330
1A
102
}
330
1A
100
AcDbXrecord
280
     1
270
     1
271
     1
  0
XRECORD
  5
1B
102
{ACAD_REACTORS
330
1A
102
}
330
1A
100
AcDbXrecord
280
     1
270
     1
271
     1
  0
XRECORD
  5
1F
102
{ACAD_REACTORS
330
1A
102
}
330
1A
100
AcDbXrecord
280
     1
270
     1
271
     1
  0
XRECORD
  5
1E
102
{ACAD_REACTORS
330
1A
102
}
330
1A
100
AcDbXrecord
280
     1
270
     1
271
     1
  0
XRECORD
  5
20
102
{ACAD_REACTORS
330
1A
102
}
330
1A
100
AcDbXrecord
280
     1
270
     1
271
     1
  0
XRECORD
  5
1D
102
{ACAD_REACTORS
330
1A
102
}
330
1A
100
AcDbXrecord
280
     1
270
     1
271
     1
  0
XRECORD
  5
14
102
{ACAD_REACTORS
330
12
102
}
330
12
100
AcDbXrecord
280
     1
270
     1
271
     1
  0
XRECORD
  5
13
102
{ACAD_REACTORS
330
12
102
}
330
12
100
AcDbXrecord
280
     1
270
     1
271
     1
  0
XRECORD
  5
17
102
{ACAD_REACTORS
330
12
102
}
330
12
100
AcDbXrecord
280
     1
270
     1
271
     1
  0
XRECORD
  5
16
102
{ACAD_REACTORS
330
12
102
}
330
12
100
AcDbXrecord
280
     1
270
     1
271
     1
  0
XRECORD
  5
18
102
{ACAD_REACTORS
330
12
102
}
330
12
100
AcDbXrecord
280
     1
270
     1
271
     1
  0
XRECORD
  5
15
102
{ACAD_REACTORS
330
12
102
}
330
12
100
AcDbXrecord
280
     1
270
     1
271
     1
  0
XRECORD
  5
24
102
{ACAD_REACTORS
330
22
102
}
330
22
100
AcDbXrecord
280
     1
270
     1
271
     1
  0
XRECORD
  5
23
102
{ACAD_REACTORS
330
22
102
}
330
22
100
AcDbXrecord
280
     1
270
     1
271
     1
  0
XRECORD
  5
27
102
{ACAD_REACTORS
330
22
102
}
330
22
100
AcDbXrecord
280
     1
270
     1
271
     1
  0
XRECORD
  5
26
102
{ACAD_REACTORS
330
22
102
}
330
22
100
AcDbXrecord
280
     1
270
     1
271
     1
  0
XRECORD
  5
28
102
{ACAD_REACTORS
330
22
102
}
330
22
100
AcDbXrecord
280
     1
270
     1
271
     1
  0
XRECORD
  5
25
102
{ACAD_REACTORS
330
22
102
}
330
22
100
AcDbXrecord
280
     1
270
     1
271
     1
  0
XRECORD
  5
470
102
{ACAD_REACTORS
330
EC
102
}
330
EC
100
AcDbXrecord
280
     1
102
DISPLAYNAME
  1
Imperial24
102
FLAGS
 90
        0
  0
CELLSTYLEMAP
  5
46F
102
{ACAD_REACTORS
330
46E
102
}
330
46E
100
AcDbCellStyleMap
 90
        3
300
CELLSTYLE
  1
TABLEFORMAT_BEGIN
 90
        5
170
     1
 91
        0
 92
    32768
 62
   257
 93
        1
300
CONTENTFORMAT
  1
CONTENTFORMAT_BEGIN
 90
        0
 91
        0
 92
      512
 93
        0
300

 40
0.0
140
1.0
 94
        5
 62
     0
340
55
144
0.25
309
CONTENTFORMAT_END
171
     0
 94
        0
309
TABLEFORMAT_END
  1
CELLSTYLE_BEGIN
 90
        1
 91
        1
300
_TITLE
309
CELLSTYLE_END
300
CELLSTYLE
  1
TABLEFORMAT_BEGIN
 90
        5
170
     1
 91
        0
 92
        0
 62
   257
 93
        1
300
CONTENTFORMAT
  1
CONTENTFORMAT_BEGIN
 90
        0
 91
        0
 92
      512
 93
        0
300

 40
0.0
140
1.0
 94
        5
 62
     0
340
55
144
0.18
309
CONTENTFORMAT_END
171
     0
 94
        0
309
TABLEFORMAT_END
  1
CELLSTYLE_BEGIN
 90
        2
 91
        1
300
_HEADER
309
CELLSTYLE_END
300
CELLSTYLE
  1
TABLEFORMAT_BEGIN
 90
        5
170
     1
 91
        0
 92
        0
 62
   257
 93
        1
300
CONTENTFORMAT
  1
CONTENTFORMAT_BEGIN
 90
        0
 91
        0
 92
      512
 93
        0
300

 40
0.0
140
1.0
 94
        2
 62
     0
340
55
144
0.18
309
CONTENTFORMAT_END
171
     0
 94
        0
309
TABLEFORMAT_END
  1
CELLSTYLE_BEGIN
 90
        3
 91
        2
300
_DATA
309
CELLSTYLE_END
  0
ENDSEC
  0
EOF
