  0
SECTION
  2
HEADER
  9
$ACADVER
  1
AC1027
  9
$ACADMAINTVER
 70
   105
  9
$DWGCODEPAGE
  3
ANSI_1252
  9
$LASTSAVEDBY
  1
Ibrahim
  9
$REQUIREDVERSIONS
160
                 0
  9
$INSBASE
 10
0.0
 20
0.0
 30
0.0
  9
$EXTMIN
 10
-22.06425503657719
 20
0.000000000002342
 30
0.0
  9
$EXTMAX
 10
1.312685995480008
 20
25.40683275599568
 30
0.0
  9
$LIMMIN
 10
0.0
 20
0.0
  9
$LIMMAX
 10
12.0
 20
9.0
  9
$ORTHOMODE
 70
     1
  9
$REGENMODE
 70
     1
  9
$FILLMODE
 70
     1
  9
$QTEXTMODE
 70
     0
  9
$MIRRTEXT
 70
     0
  9
$LTSCALE
 40
1.0
  9
$ATTMODE
 70
     1
  9
$TEXTSIZE
 40
0.2
  9
$TRACEWID
 40
0.05
  9
$TEXTSTYLE
  7
Standard
  9
$CLAYER
  8
D35160102
  9
$CELTYPE
  6
ByLayer
  9
$CECOLOR
 62
   256
  9
$CELTSCALE
 40
1.0
  9
$DISPSILH
 70
     0
  9
$DIMSCALE
 40
1.0
  9
$DIMASZ
 40
0.18
  9
$DIMEXO
 40
0.0625
  9
$DIMDLI
 40
0.38
  9
$DIMRND
 40
0.0
  9
$DIMDLE
 40
0.0
  9
$DIMEXE
 40
0.18
  9
$DIMTP
 40
0.0
  9
$DIMTM
 40
0.0
  9
$DIMTXT
 40
0.18
  9
$DIMCEN
 40
0.09
  9
$DIMTSZ
 40
0.0
  9
$DIMTOL
 70
     0
  9
$DIMLIM
 70
     0
  9
$DIMTIH
 70
     1
  9
$DIMTOH
 70
     1
  9
$DIMSE1
 70
     0
  9
$DIMSE2
 70
     0
  9
$DIMTAD
 70
     0
  9
$DIMZIN
 70
     0
  9
$DIMBLK
  1

  9
$DIMASO
 70
     1
  9
$DIMSHO
 70
     1
  9
$DIMPOST
  1

  9
$DIMAPOST
  1

  9
$DIMALT
 70
     0
  9
$DIMALTD
 70
     2
  9
$DIMALTF
 40
25.4
  9
$DIMLFAC
 40
1.0
  9
$DIMTOFL
 70
     0
  9
$DIMTVP
 40
0.0
  9
$DIMTIX
 70
     0
  9
$DIMSOXD
 70
     0
  9
$DIMSAH
 70
     0
  9
$DIMBLK1
  1

  9
$DIMBLK2
  1

  9
$DIMSTYLE
  2
Standard
  9
$DIMCLRD
 70
     0
  9
$DIMCLRE
 70
     0
  9
$DIMCLRT
 70
     0
  9
$DIMTFAC
 40
1.0
  9
$DIMGAP
 40
0.09
  9
$DIMJUST
 70
     0
  9
$DIMSD1
 70
     0
  9
$DIMSD2
 70
     0
  9
$DIMTOLJ
 70
     1
  9
$DIMTZIN
 70
     0
  9
$DIMALTZ
 70
     0
  9
$DIMALTTZ
 70
     0
  9
$DIMUPT
 70
     0
  9
$DIMDEC
 70
     4
  9
$DIMTDEC
 70
     4
  9
$DIMALTU
 70
     4
  9
$DIMALTTD
 70
     2
  9
$DIMTXSTY
  7
Standard
  9
$DIMAUNIT
 70
     0
  9
$DIMADEC
 70
     0
  9
$DIMALTRND
 40
0.0
  9
$DIMAZIN
 70
     0
  9
$DIMDSEP
 70
    46
  9
$DIMATFIT
 70
     3
  9
$DIMFRAC
 70
     0
  9
$DIMLDRBLK
  1

  9
$DIMLUNIT
 70
     4
  9
$DIMLWD
 70
    -2
  9
$DIMLWE
 70
    -2
  9
$DIMTMOVE
 70
     0
  9
$DIMFXL
 40
1.0
  9
$DIMFXLON
 70
     0
  9
$DIMJOGANG
 40
0.7853981633974483
  9
$DIMTFILL
 70
     0
  9
$DIMTFILLCLR
 70
     0
  9
$DIMARCSYM
 70
     0
  9
$DIMLTYPE
  6

  9
$DIMLTEX1
  6

  9
$DIMLTEX2
  6

  9
$DIMTXTDIRECTION
 70
     0
  9
$LUNITS
 70
     4
  9
$LUPREC
 70
     4
  9
$SKETCHINC
 40
0.1
  9
$FILLETRAD
 40
0.0
  9
$AUNITS
 70
     0
  9
$AUPREC
 70
     0
  9
$MENU
  1
.
  9
$ELEVATION
 40
0.0
  9
$PELEVATION
 40
0.0
  9
$THICKNESS
 40
0.0
  9
$LIMCHECK
 70
     0
  9
$CHAMFERA
 40
0.0
  9
$CHAMFERB
 40
0.0
  9
$CHAMFERC
 40
0.0
  9
$CHAMFERD
 40
0.0
  9
$SKPOLY
 70
     0
  9
$TDCREATE
 40
2458417.494509178
  9
$TDUCREATE
 40
2458417.661175845
  9
$TDUPDATE
 40
2458424.690420359
  9
$TDUUPDATE
 40
2458424.857087026
  9
$TDINDWG
 40
0.0048872917
  9
$TDUSRTIMER
 40
0.0048872917
  9
$USRTIMER
 70
     1
  9
$ANGBASE
 50
0.0
  9
$ANGDIR
 70
     0
  9
$PDMODE
 70
     0
  9
$PDSIZE
 40
0.0
  9
$PLINEWID
 40
0.0
  9
$SPLFRAME
 70
     0
  9
$SPLINETYPE
 70
     6
  9
$SPLINESEGS
 70
     8
  9
$HANDSEED
  5
4E9
  9
$SURFTAB1
 70
     6
  9
$SURFTAB2
 70
     6
  9
$SURFTYPE
 70
     6
  9
$SURFU
 70
     6
  9
$SURFV
 70
     6
  9
$UCSBASE
  2

  9
$UCSNAME
  2

  9
$UCSORG
 10
0.0
 20
0.0
 30
0.0
  9
$UCSXDIR
 10
1.0
 20
0.0
 30
0.0
  9
$UCSYDIR
 10
0.0
 20
1.0
 30
0.0
  9
$UCSORTHOREF
  2

  9
$UCSORTHOVIEW
 70
     0
  9
$UCSORGTOP
 10
0.0
 20
0.0
 30
0.0
  9
$UCSORGBOTTOM
 10
0.0
 20
0.0
 30
0.0
  9
$UCSORGLEFT
 10
0.0
 20
0.0
 30
0.0
  9
$UCSORGRIGHT
 10
0.0
 20
0.0
 30
0.0
  9
$UCSORGFRONT
 10
0.0
 20
0.0
 30
0.0
  9
$UCSORGBACK
 10
0.0
 20
0.0
 30
0.0
  9
$PUCSBASE
  2

  9
$PUCSNAME
  2

  9
$PUCSORG
 10
0.0
 20
0.0
 30
0.0
  9
$PUCSXDIR
 10
1.0
 20
0.0
 30
0.0
  9
$PUCSYDIR
 10
0.0
 20
1.0
 30
0.0
  9
$PUCSORTHOREF
  2

  9
$PUCSORTHOVIEW
 70
     0
  9
$PUCSORGTOP
 10
0.0
 20
0.0
 30
0.0
  9
$PUCSORGBOTTOM
 10
0.0
 20
0.0
 30
0.0
  9
$PUCSORGLEFT
 10
0.0
 20
0.0
 30
0.0
  9
$PUCSORGRIGHT
 10
0.0
 20
0.0
 30
0.0
  9
$PUCSORGFRONT
 10
0.0
 20
0.0
 30
0.0
  9
$PUCSORGBACK
 10
0.0
 20
0.0
 30
0.0
  9
$USERI1
 70
     0
  9
$USERI2
 70
     0
  9
$USERI3
 70
     0
  9
$USERI4
 70
     0
  9
$USERI5
 70
     0
  9
$USERR1
 40
0.0
  9
$USERR2
 40
0.0
  9
$USERR3
 40
0.0
  9
$USERR4
 40
0.0
  9
$USERR5
 40
0.0
  9
$WORLDVIEW
 70
     1
  9
$SHADEDGE
 70
     3
  9
$SHADEDIF
 70
    70
  9
$TILEMODE
 70
     1
  9
$MAXACTVP
 70
    64
  9
$PINSBASE
 10
0.0
 20
0.0
 30
0.0
  9
$PLIMCHECK
 70
     0
  9
$PEXTMIN
 10
1.000000000000000E+20
 20
1.000000000000000E+20
 30
1.000000000000000E+20
  9
$PEXTMAX
 10
-1.000000000000000E+20
 20
-1.000000000000000E+20
 30
-1.000000000000000E+20
  9
$PLIMMIN
 10
0.0
 20
0.0
  9
$PLIMMAX
 10
12.0
 20
9.0
  9
$UNITMODE
 70
     0
  9
$VISRETAIN
 70
     1
  9
$PLINEGEN
 70
     0
  9
$PSLTSCALE
 70
     1
  9
$TREEDEPTH
 70
  3020
  9
$CMLSTYLE
  2
Standard
  9
$CMLJUST
 70
     0
  9
$CMLSCALE
 40
1.0
  9
$PROXYGRAPHICS
 70
     1
  9
$MEASUREMENT
 70
     0
  9
$CELWEIGHT
370
    -1
  9
$ENDCAPS
280
     0
  9
$JOINSTYLE
280
     0
  9
$LWDISPLAY
290
     0
  9
$INSUNITS
 70
     1
  9
$HYPERLINKBASE
  1

  9
$STYLESHEET
  1

  9
$XEDIT
290
     1
  9
$CEPSNTYPE
380
     0
  9
$PSTYLEMODE
290
     1
  9
$FINGERPRINTGUID
  2
{4D99B70C-EEA2-4C92-99C4-1C909F752CD0}
  9
$VERSIONGUID
  2
{753CEB94-D57E-4B70-B24C-DF2CE7BB9530}
  9
$EXTNAMES
290
     1
  9
$PSVPSCALE
 40
0.0
  9
$OLESTARTUP
290
     0
  9
$SORTENTS
280
   127
  9
$INDEXCTL
280
     0
  9
$HIDETEXT
280
     1
  9
$XCLIPFRAME
280
     2
  9
$HALOGAP
280
     0
  9
$OBSCOLOR
 70
   257
  9
$OBSLTYPE
280
     0
  9
$INTERSECTIONDISPLAY
280
     0
  9
$INTERSECTIONCOLOR
 70
   257
  9
$DIMASSOC
280
     2
  9
$PROJECTNAME
  1

  9
$CAMERADISPLAY
290
     0
  9
$LENSLENGTH
 40
50.0
  9
$CAMERAHEIGHT
 40
0.0
  9
$STEPSPERSEC
 40
2.0
  9
$STEPSIZE
 40
6.0
  9
$3DDWFPREC
 40
2.0
  9
$PSOLWIDTH
 40
0.25
  9
$PSOLHEIGHT
 40
4.0
  9
$LOFTANG1
 40
1.570796326794896
  9
$LOFTANG2
 40
1.570796326794896
  9
$LOFTMAG1
 40
0.0
  9
$LOFTMAG2
 40
0.0
  9
$LOFTPARAM
 70
     7
  9
$LOFTNORMALS
280
     1
  9
$LATITUDE
 40
0.0
  9
$LONGITUDE
 40
0.0
  9
$NORTHDIRECTION
 40
0.0
  9
$TIMEZONE
 70
     0
  9
$LIGHTGLYPHDISPLAY
280
     1
  9
$TILEMODELIGHTSYNCH
280
     1
  9
$CMATERIAL
347
11
  9
$SOLIDHIST
280
     0
  9
$SHOWHIST
280
     1
  9
$DWFFRAME
280
     2
  9
$DGNFRAME
280
     0
  9
$REALWORLDSCALE
290
     1
  9
$INTERFERECOLOR
 62
     1
  9
$INTERFEREOBJVS
345
33
  9
$INTERFEREVPVS
346
30
  9
$CSHADOW
280
     0
  9
$SHADOWPLANELOCATION
 40
0.0
  0
ENDSEC
  0
SECTION
  2
CLASSES
  0
CLASS
  1
ACDBDICTIONARYWDFLT
  2
AcDbDictionaryWithDefault
  3
ObjectDBX Classes
 90
        0
 91
        1
280
     0
281
     0
  0
CLASS
  1
MATERIAL
  2
AcDbMaterial
  3
ObjectDBX Classes
 90
     1153
 91
        3
280
     0
281
     0
  0
CLASS
  1
VISUALSTYLE
  2
AcDbVisualStyle
  3
ObjectDBX Classes
 90
     4095
 91
       24
280
     0
281
     0
  0
CLASS
  1
SCALE
  2
AcDbScale
  3
ObjectDBX Classes
 90
     1153
 91
       17
280
     0
281
     0
  0
CLASS
  1
TABLESTYLE
  2
AcDbTableStyle
  3
ObjectDBX Classes
 90
     4095
 91
        1
280
     0
281
     0
  0
CLASS
  1
MLEADERSTYLE
  2
AcDbMLeaderStyle
  3
ACDB_MLEADERSTYLE_CLASS
 90
     4095
 91
        1
280
     0
281
     0
  0
CLASS
  1
ACDBSECTIONVIEWSTYLE
  2
AcDbSectionViewStyle
  3
ObjectDBX Classes
 90
     1025
 91
        1
280
     0
281
     0
  0
CLASS
  1
ACDBDETAILVIEWSTYLE
  2
AcDbDetailViewStyle
  3
ObjectDBX Classes
 90
     1025
 91
        1
280
     0
281
     0
  0
CLASS
  1
RASTERVARIABLES
  2
AcDbRasterVariables
  3
ISM
 90
        0
 91
        1
280
     0
281
     0
  0
CLASS
  1
DICTIONARYVAR
  2
AcDbDictionaryVar
  3
ObjectDBX Classes
 90
        0
 91
        5
280
     0
281
     0
  0
CLASS
  1
SORTENTSTABLE
  2
AcDbSortentsTable
  3
ObjectDBX Classes
 90
        0
 91
        3
280
     0
281
     0
  0
CLASS
  1
CELLSTYLEMAP
  2
AcDbCellStyleMap
  3
ObjectDBX Classes
 90
     1152
 91
        1
280
     0
281
     0
  0
ENDSEC
  0
SECTION
  2
TABLES
  0
TABLE
  2
VPORT
  5
8
330
0
100
AcDbSymbolTable
 70
     1
  0
VPORT
  5
57
330
8
100
AcDbSymbolTableRecord
100
AcDbViewportTableRecord
  2
*Active
 70
     0
 10
0.0
 20
0.0
 11
1.0
 21
1.0
 12
-5.032127518288592
 22
12.70341637799784
 13
0.0
 23
0.0
 14
1.0
 24
1.0
 15
0.0
 25
0.0
 16
0.0
 26
0.0
 36
1.0
 17
0.0
 27
0.0
 37
0.0
 40
25.61172656854403
 41
1.927321668909824
 42
50.0
 43
0.0
 44
0.0
 50
0.0
 51
0.0
 71
     0
 72
  1000
 73
     1
 74
     1
 75
     0
 76
     0
 77
     0
 78
     0
281
     0
 65
     1
110
0.0
120
0.0
130
0.0
111
1.0
121
0.0
131
0.0
112
0.0
122
1.0
132
0.0
 79
     0
146
0.0
348
2F
 60
     3
 61
     5
292
     1
282
     1
141
0.0
142
0.0
 63
   250
421
  3355443
1001
ACAD_NAV_VCDISPLAY
1070
     3
  0
ENDTAB
  0
TABLE
  2
LTYPE
  5
5
330
0
100
AcDbSymbolTable
 70
     1
  0
LTYPE
  5
5B
330
5
100
AcDbSymbolTableRecord
100
AcDbLinetypeTableRecord
  2
ByBlock
 70
     0
  3

 72
    65
 73
     0
 40
0.0
  0
LTYPE
  5
5C
330
5
100
AcDbSymbolTableRecord
100
AcDbLinetypeTableRecord
  2
ByLayer
 70
     0
  3

 72
    65
 73
     0
 40
0.0
  0
LTYPE
  5
5D
330
5
100
AcDbSymbolTableRecord
100
AcDbLinetypeTableRecord
  2
Continuous
 70
     0
  3
Solid line
 72
    65
 73
     0
 40
0.0
  0
ENDTAB
  0
TABLE
  2
LAYER
  5
2
102
{ACAD_XDICTIONARY
360
4DB
102
}
330
0
100
AcDbSymbolTable
 70
     3
  0
LAYER
  5
54
330
2
100
AcDbSymbolTableRecord
100
AcDbLayerTableRecord
  2
0
 70
     0
 62
     7
  6
Continuous
370
    -3
390
F
347
21
348
0
  0
LAYER
  5
8A
330
2
100
AcDbSymbolTableRecord
100
AcDbLayerTableRecord
  2
D35160102
 70
     0
 62
     7
  6
Continuous
370
     9
390
F
347
21
348
0
  0
ENDTAB
  0
TABLE
  2
STYLE
  5
3
330
0
100
AcDbSymbolTable
 70
     3
  0
STYLE
  5
55
330
3
100
AcDbSymbolTableRecord
100
AcDbTextStyleTableRecord
  2
Standard
 70
     0
 40
0.0
 41
1.0
 50
0.0
 71
     0
 42
0.2
  3
txt
  4

  0
ENDTAB
  0
TABLE
  2
VIEW
  5
6
330
0
100
AcDbSymbolTable
 70
     1
  0
ENDTAB
  0
TABLE
  2
UCS
  5
7
330
0
100
AcDbSymbolTable
 70
     0
  0
ENDTAB
  0
TABLE
  2
APPID
  5
9
330
0
100
AcDbSymbolTable
 70
     4
  0
APPID
  5
56
330
9
100
AcDbSymbolTableRecord
100
AcDbRegAppTableRecord
  2
ACAD
 70
     0
  0
APPID
  5
5E
330
9
100
AcDbSymbolTableRecord
100
AcDbRegAppTableRecord
  2
AcadAnnotative
 70
     0
  0
APPID
  5
78
330
9
100
AcDbSymbolTableRecord
100
AcDbRegAppTableRecord
  2
REVIT
 70
     0
  0
APPID
  5
1F8
330
9
100
AcDbSymbolTableRecord
100
AcDbRegAppTableRecord
  2
ACAD_NAV_VCDISPLAY
 70
     0
  0
ENDTAB
  0
TABLE
  2
DIMSTYLE
  5
A
330
0
100
AcDbSymbolTable
 70
     2
100
AcDbDimStyleTable
 71
     0
  0
DIMSTYLE
105
58
330
A
100
AcDbSymbolTableRecord
100
AcDbDimStyleTableRecord
  2
Standard
 70
     0
340
55
  0
ENDTAB
  0
TABLE
  2
BLOCK_RECORD
  5
1
330
0
100
AcDbSymbolTable
 70
     9
  0
BLOCK_RECORD
  5
70
102
{ACAD_XDICTIONARY
360
107
102
}
330
1
100
AcDbSymbolTableRecord
100
AcDbBlockTableRecord
  2
*Model_Space
340
73
 70
     0
280
     1
281
     0
  0
BLOCK_RECORD
  5
6C
330
1
100
AcDbSymbolTableRecord
100
AcDbBlockTableRecord
  2
*Paper_Space
340
6F
 70
     0
280
     1
281
     0
  0
BLOCK_RECORD
  5
74
330
1
100
AcDbSymbolTableRecord
100
AcDbBlockTableRecord
  2
*Paper_Space0
340
77
 70
     0
280
     1
281
     0
  0
BLOCK_RECORD
  5
386
330
1
100
AcDbSymbolTableRecord
100
AcDbBlockTableRecord
  2
D35160102 Top View
340
0
310
28000000200000002000000001002000000000000010000001000000010000000000000000000000302821FF302821FF302821FF302821FF302821FF302821FF302821FF302821FF302821FF302821FF302821FF302821FF302821FF302821FF302821FF302821FF302821FF302821FF302821FF302821FF302821FF302821
310
FF302821FF302821FF302821FF302821FF302821FF302821FF302821FF302821FF302821FF302821FF302821FF302821FF302821FF302821FF302821FF302821FF302821FF302821FF302821FF302821FF302821FF302821FF302821FF302821FFFFFFFFFFFFFFFFFFFFFFFFFFFFFFFFFF302821FF302821FF302821FF3028
310
21FF302821FF302821FF302821FF302821FF302821FF302821FF302821FF302821FF302821FF302821FF302821FF302821FF302821FF302821FF302821FF302821FF302821FF302821FF302821FF302821FF302821FF302821FF302821FF302821FFFFFFFFFF302821FF302821FFFFFFFFFFFFFFFFFF302821FF302821FF30
310
2821FF302821FF302821FF302821FF302821FF302821FF302821FF302821FF302821FF302821FF302821FF302821FF302821FF302821FF302821FF302821FF302821FF302821FF302821FF302821FF302821FF302821FF302821FF302821FFFFFFFFFFFFFFFFFF302821FF302821FFFFFFFFFFFFFFFFFF302821FF302821FF
310
302821FF302821FF302821FF302821FF302821FF302821FF302821FF302821FF302821FF302821FF302821FF302821FF302821FF302821FF302821FF302821FF302821FF302821FF302821FF302821FF302821FF302821FF302821FF302821FFFFFFFFFFFFFFFFFF302821FF302821FFFFFFFFFFFFFFFFFF302821FF302821
310
FF302821FF302821FF302821FF302821FF302821FF302821FF302821FF302821FF302821FF302821FF302821FF302821FF302821FF302821FF302821FF302821FF302821FF302821FF302821FF302821FF302821FF302821FF302821FF302821FFFFFFFFFFFFFFFFFF302821FF302821FFFFFFFFFFFFFFFFFF302821FF3028
310
21FF302821FF302821FF302821FF302821FF302821FF302821FF302821FF302821FF302821FF302821FF302821FF302821FF302821FF302821FF302821FF302821FF302821FF302821FF302821FF302821FF302821FF302821FF302821FF302821FFFFFFFFFFFFFFFFFF302821FF302821FFFFFFFFFFFFFFFFFF302821FF30
310
2821FF302821FF302821FF302821FF302821FF302821FF302821FF302821FF302821FF302821FF302821FF302821FF302821FF302821FF302821FF302821FF302821FF302821FF302821FF302821FF302821FF302821FF302821FF302821FF302821FFFFFFFFFFFFFFFFFF302821FF302821FFFFFFFFFFFFFFFFFF302821FF
310
302821FF302821FF302821FF302821FF302821FF302821FF302821FF302821FF302821FF302821FF302821FF302821FF302821FF302821FF302821FF302821FF302821FF302821FF302821FF302821FF302821FF302821FF302821FF302821FF302821FFFFFFFFFFFFFFFFFF302821FF302821FFFFFFFFFFFFFFFFFF302821
310
FF302821FF302821FF302821FF302821FF302821FF302821FF302821FF302821FF302821FF302821FF302821FF302821FF302821FF302821FF302821FF302821FF302821FF302821FF302821FF302821FF302821FF302821FF302821FF302821FF302821FFFFFFFFFFFFFFFFFF302821FF302821FFFFFFFFFFFFFFFFFF3028
310
21FF302821FF302821FF302821FF302821FF302821FF302821FF302821FF302821FF302821FF302821FF302821FF302821FF302821FF302821FF302821FF302821FF302821FF302821FF302821FF302821FF302821FF302821FF302821FF302821FF302821FFFFFFFFFFFFFFFFFF302821FF302821FFFFFFFFFFFFFFFFFF30
310
2821FF302821FF302821FF302821FF302821FF302821FF302821FF302821FF302821FF302821FF302821FF302821FF302821FF302821FF302821FF302821FF302821FF302821FF302821FF302821FF302821FF302821FF302821FF302821FF302821FF302821FFFFFFFFFFFFFFFFFFFFFFFFFFFFFFFFFFFFFFFFFFFFFFFFFF
310
302821FF302821FF302821FF302821FF302821FF302821FF302821FF302821FF302821FF302821FF302821FF302821FF302821FF302821FF302821FF302821FF302821FF302821FF302821FF302821FF302821FF302821FF302821FF302821FF302821FF302821FFFFFFFFFFFFFFFFFF302821FF302821FFFFFFFFFFFFFFFF
310
FF302821FF302821FF302821FF302821FF302821FF302821FF302821FF302821FF302821FF302821FF302821FF302821FF302821FF302821FF302821FF302821FF302821FF302821FF302821FF302821FF302821FF302821FF302821FF302821FF302821FF302821FFFFFFFFFFFFFFFFFF302821FF302821FFFFFFFFFFFFFF
310
FFFF302821FF302821FF302821FF302821FF302821FF302821FF302821FF302821FF302821FF302821FF302821FF302821FF302821FF302821FF302821FF302821FF302821FF302821FF302821FF302821FF302821FF302821FF302821FF302821FF302821FF302821FFFFFFFFFFFFFFFFFF302821FF302821FFFFFFFFFFFF
310
FFFFFF302821FF302821FF302821FF302821FF302821FF302821FF302821FF302821FF302821FF302821FF302821FF302821FF302821FF302821FF302821FF302821FF302821FF302821FF302821FF302821FF302821FF302821FF302821FF302821FF302821FF302821FFFFFFFFFFFFFFFFFF302821FF302821FFFFFFFFFF
310
FFFFFFFF302821FF302821FF302821FF302821FF302821FF302821FF302821FF302821FF302821FF302821FF302821FF302821FF302821FF302821FF302821FF302821FF302821FF302821FF302821FF302821FF302821FF302821FF302821FF302821FF302821FF302821FFFFFFFFFFFFFFFFFF302821FF302821FFFFFFFF
310
FFFFFFFFFF302821FF302821FF302821FF302821FF302821FF302821FF302821FF302821FF302821FF302821FF302821FF302821FF302821FF302821FF302821FF302821FF302821FF302821FF302821FF302821FF302821FF302821FF302821FF302821FF302821FF302821FFFFFFFFFFFFFFFFFFFFFFFFFFFFFFFFFFFFFF
310
FFFFFFFFFFFF302821FF302821FF302821FF302821FF302821FF302821FF302821FF302821FF302821FF302821FF302821FF302821FF302821FF302821FF302821FF302821FF302821FF302821FF302821FF302821FF302821FF302821FF302821FF302821FF302821FF302821FFFFFFFFFFFFFFFFFFFFFFFFFFFFFFFFFFFF
310
FFFFFFFFFFFFFF302821FF302821FF302821FF302821FF302821FF302821FF302821FF302821FF302821FF302821FF302821FF302821FF302821FF302821FF302821FF302821FF302821FF302821FF302821FF302821FF302821FF302821FF302821FF302821FF302821FF302821FFFFFFFFFFFFFFFFFFFFFFFFFFFFFFFFFF
310
FFFFFFFFFFFFFFFF302821FF302821FF302821FF302821FF302821FF302821FF302821FF302821FF302821FF302821FF302821FF302821FF302821FF302821FF302821FF302821FF302821FF302821FF302821FF302821FF302821FF302821FF302821FF302821FF302821FF302821FFFFFFFFFFFFFFFFFFFFFFFFFFFFFFFF
310
FFFFFFFFFFFFFFFFFF302821FF302821FF302821FF302821FF302821FF302821FF302821FF302821FF302821FF302821FF302821FF302821FF302821FF302821FF302821FF302821FF302821FF302821FF302821FF302821FF302821FF302821FF302821FF302821FF302821FFFFFFFFFFFFFFFFFFFFFFFFFFFFFFFFFFFFFF
310
FFFFFFFFFFFFFFFFFFFFFFFFFFFF302821FF302821FF302821FF302821FF302821FF302821FF302821FF302821FF302821FF302821FF302821FF302821FF302821FF302821FF302821FF302821FF302821FF302821FF302821FF302821FF302821FF302821FF302821FFFFFFFFFFFFFFFFFFFFFFFFFFFFFFFFFFFFFFFFFFFF
310
FFFFFFFFFFFFFFFFFFFFFFFFFFFFFFFFFFFFFF302821FF302821FF302821FF302821FF302821FF302821FF302821FF302821FF302821FF302821FF302821FF302821FF302821FF302821FF302821FF302821FF302821FF302821FF302821FF302821FF302821FF302821FFFFFFFFFFFFFFFFFFFFFFFFFFFFFFFFFFFFFFFFFF
310
FFFFFFFFFFFFFFFFFFFFFFFFFFFFFFFFFFFFFFFF302821FF302821FF302821FF302821FF302821FF302821FF302821FF302821FF302821FF302821FF302821FF302821FF302821FF302821FF302821FF302821FF302821FF302821FF302821FF302821FF302821FF302821FFFFFFFFFFFFFFFFFF302821FFFFFFFFFF302821
310
FF302821FFFFFFFFFF302821FFFFFFFFFFFFFFFFFF302821FF302821FF302821FF302821FF302821FF302821FF302821FF302821FF302821FF302821FF302821FF302821FF302821FF302821FF302821FF302821FF302821FF302821FF302821FF302821FF302821FF302821FFFFFFFFFFFFFFFFFFFFFFFFFFFFFFFFFF3028
310
21FF302821FFFFFFFFFFFFFFFFFFFFFFFFFFFFFFFFFF302821FF302821FF302821FF302821FF302821FF302821FF302821FF302821FF302821FF302821FF302821FF302821FF302821FF302821FF302821FF302821FF302821FF302821FF302821FF302821FF302821FF302821FFFFFFFFFFFFFFFFFF302821FFFFFFFFFF30
310
2821FF302821FFFFFFFFFF302821FFFFFFFFFFFFFFFFFF302821FF302821FF302821FF302821FF302821FF302821FF302821FF302821FF302821FF302821FF302821FF302821FF302821FF302821FF302821FF302821FF302821FF302821FF302821FF302821FF302821FF302821FFFFFFFFFFFFFFFFFFFFFFFFFFFFFFFFFF
310
FFFFFFFFFFFFFFFFFFFFFFFFFFFFFFFFFFFFFFFFFFFFFFFF302821FF302821FF302821FF302821FF302821FF302821FF302821FF302821FF302821FF302821FF302821FF302821FF302821FF302821FF302821FF302821FF302821FF302821FF302821FF302821FF302821FF302821FF302821FFFFFFFFFFFFFFFFFFFFFFFF
310
FFFFFFFFFFFFFFFFFFFFFFFFFFFFFFFFFFFFFFFFFF302821FF302821FF302821FF302821FF302821FF302821FF302821FF302821FF302821FF302821FF302821FF302821FF302821FF302821FF302821FF302821FF302821FF302821FF302821FF302821FF302821FF302821FF302821FF302821FF302821FFFFFFFFFFFFFF
310
FFFFFFFFFFFFFFFFFFFFFFFFFFFFFFFFFFFF302821FF302821FF302821FF302821FF302821FF302821FF302821FF302821FF302821FF302821FF302821FF302821FF302821FF302821FF302821FF302821FF302821FF302821FF302821FF302821FF302821FF302821FF302821FF302821FF302821FF302821FF302821FF30
310
2821FF302821FFFFFFFFFF302821FF302821FF302821FF302821FF302821FF302821FF302821FF302821FF302821FF302821FF302821FF302821FF302821FF302821FF302821FF302821FF302821FF302821FF302821FF302821FF302821FF302821FF302821FF302821FF302821FF302821FF302821FF302821FF302821FF
310
302821FF302821FF302821FF302821FF302821FF302821FF302821FF302821FF302821FF302821FF302821FF302821FF302821FF302821FF302821FF302821FF302821FF302821FF
102
{BLKREFS
331
3BF
102
}
 70
     1
280
     1
281
     1
  0
BLOCK_RECORD
  5
3C0
330
1
100
AcDbSymbolTableRecord
100
AcDbBlockTableRecord
  2
D35160102 Front View
340
0
310
28000000200000002000000001002000000000000010000001000000010000000000000000000000302821FF302821FF302821FF302821FF302821FF302821FF302821FF302821FF302821FF302821FF302821FF302821FF302821FF302821FF302821FF302821FF302821FF302821FF302821FF302821FF302821FF302821
310
FF302821FF302821FF302821FF302821FF302821FF302821FF302821FF302821FF302821FF302821FF302821FF302821FF302821FF302821FF302821FF302821FF302821FF302821FF302821FF302821FF302821FFFFFFFFFFFFFFFFFFFFFFFFFFFFFFFFFFFFFFFFFFFFFFFFFFFFFFFFFFFFFFFFFFFFFFFFFFFFFFFFFF3028
310
21FF302821FF302821FF302821FF302821FF302821FF302821FF302821FF302821FF302821FF302821FF302821FF302821FF302821FF302821FF302821FF302821FF302821FF302821FF302821FF302821FF302821FFFFFFFFFFFFFFFFFFFFFFFFFFFFFFFFFFFFFFFFFFFFFFFFFFFFFFFFFFFFFFFFFFFFFFFFFFFFFFFFFF30
310
2821FF302821FF302821FF302821FF302821FF302821FF302821FF302821FF302821FF302821FF302821FF302821FF302821FF302821FF302821FF302821FF302821FF302821FF302821FF302821FF302821FF302821FF302821FFFFFFFFFF302821FFFFFFFFFF302821FF302821FFFFFFFFFF302821FFFFFFFFFF302821FF
310
302821FF302821FF302821FF302821FF302821FF302821FF302821FF302821FF302821FF302821FF302821FF302821FF302821FF302821FF302821FF302821FF302821FF302821FF302821FF302821FF302821FF302821FF302821FFFFFFFFFF302821FFFFFFFFFF302821FF302821FFFFFFFFFF302821FFFFFFFFFF302821
310
FF302821FF302821FF302821FF302821FF302821FF302821FF302821FF302821FF302821FF302821FF302821FF302821FF302821FF302821FF302821FF302821FF302821FF302821FF302821FF302821FF302821FF302821FF302821FFFFFFFFFF302821FFFFFFFFFF302821FF302821FFFFFFFFFF302821FFFFFFFFFF3028
310
21FF302821FF302821FF302821FF302821FF302821FF302821FF302821FF302821FF302821FF302821FF302821FF302821FF302821FF302821FF302821FF302821FF302821FF302821FF302821FF302821FF302821FF302821FF302821FFFFFFFFFF302821FFFFFFFFFF302821FF302821FFFFFFFFFF302821FFFFFFFFFF30
310
2821FF302821FF302821FF302821FF302821FF302821FF302821FF302821FF302821FF302821FF302821FF302821FF302821FF302821FF302821FF302821FF302821FF302821FF302821FF302821FF302821FF302821FF302821FF302821FFFFFFFFFF302821FFFFFFFFFF302821FF302821FFFFFFFFFF302821FFFFFFFFFF
310
302821FF302821FF302821FF302821FF302821FF302821FF302821FF302821FF302821FF302821FF302821FF302821FF302821FF302821FF302821FF302821FF302821FF302821FF302821FF302821FF302821FF302821FF302821FF302821FFFFFFFFFF302821FFFFFFFFFF302821FF302821FFFFFFFFFF302821FFFFFFFF
310
FF302821FF302821FF302821FF302821FF302821FF302821FF302821FF302821FF302821FF302821FF302821FF302821FF302821FF302821FF302821FF302821FF302821FF302821FF302821FF302821FF302821FF302821FF302821FF302821FFFFFFFFFF302821FFFFFFFFFF302821FF302821FFFFFFFFFF302821FFFFFF
310
FFFF302821FF302821FF302821FF302821FF302821FF302821FF302821FF302821FF302821FF302821FF302821FF302821FF302821FF302821FF302821FF302821FF302821FF302821FF302821FF302821FF302821FF302821FF302821FF302821FFFFFFFFFF302821FFFFFFFFFF302821FF302821FFFFFFFFFF302821FFFF
310
FFFFFF302821FF302821FF302821FF302821FF302821FF302821FF302821FF302821FF302821FF302821FF302821FF302821FF302821FF302821FF302821FF302821FF302821FF302821FF302821FF302821FF302821FF302821FF302821FF302821FF302821FFFFFFFFFFFFFFFFFF302821FF302821FFFFFFFFFFFFFFFFFF
310
302821FF302821FF302821FF302821FF302821FF302821FF302821FF302821FF302821FF302821FF302821FF302821FF302821FF302821FF302821FF302821FF302821FF302821FF302821FF302821FF302821FF302821FF302821FF302821FF302821FF302821FFFFFFFFFFFFFFFFFF302821FF302821FFFFFFFFFFFFFFFF
310
FF302821FF302821FF302821FF302821FF302821FF302821FF302821FF302821FF302821FF302821FF302821FF302821FF302821FF302821FF302821FF302821FF302821FF302821FF302821FF302821FF302821FF302821FF302821FF302821FF302821FF302821FFFFFFFFFFFFFFFFFF302821FF302821FFFFFFFFFFFFFF
310
FFFF302821FF302821FF302821FF302821FF302821FF302821FF302821FF302821FF302821FF302821FF302821FF302821FF302821FF302821FF302821FF302821FF302821FF302821FF302821FF302821FF302821FF302821FF302821FF302821FF302821FF302821FFFFFFFFFFFFFFFFFF302821FF302821FFFFFFFFFFFF
310
FFFFFF302821FF302821FF302821FF302821FF302821FF302821FF302821FF302821FF302821FF302821FF302821FF302821FF302821FF302821FF302821FF302821FF302821FF302821FF302821FF302821FF302821FF302821FF302821FF302821FF302821FF302821FFFFFFFFFFFFFFFFFF302821FF302821FFFFFFFFFF
310
FFFFFFFF302821FF302821FF302821FF302821FF302821FF302821FF302821FF302821FF302821FF302821FF302821FF302821FF302821FF302821FF302821FF302821FF302821FF302821FF302821FF302821FF302821FF302821FF302821FF302821FF302821FFFFFFFFFF302821FFFFFFFFFF302821FF302821FFFFFFFF
310
FF302821FFFFFFFFFF302821FF302821FF302821FF302821FF302821FF302821FF302821FF302821FF302821FF302821FF302821FF302821FF302821FF302821FF302821FF302821FF302821FF302821FF302821FF302821FF302821FF302821FF302821FF302821FFFFFFFFFFFFFFFFFFFFFFFFFFFFFFFFFFFFFFFFFFFFFF
310
FFFFFFFFFFFFFFFFFFFF302821FF302821FF302821FF302821FF302821FF302821FF302821FF302821FF302821FF302821FF302821FF302821FF302821FF302821FF302821FF302821FF302821FF302821FF302821FF302821FF302821FF302821FF302821FF302821FFFFFFFFFFFFFFFFFFFFFFFFFFFFFFFFFFFFFFFFFFFF
310
FFFFFFFFFFFFFFFFFFFFFF302821FF302821FF302821FF302821FF302821FF302821FF302821FF302821FF302821FF302821FF302821FF302821FF302821FF302821FF302821FF302821FF302821FF302821FF302821FF302821FF302821FF302821FF302821FF302821FFFFFFFFFFFFFFFFFFFFFFFFFFFFFFFFFFFFFFFFFF
310
FFFFFFFFFFFFFFFFFFFFFFFF302821FF302821FF302821FF302821FF302821FF302821FF302821FF302821FF302821FF302821FF302821FF302821FF302821FF302821FF302821FF302821FF302821FF302821FF302821FF302821FF302821FF302821FF302821FF302821FFFFFFFFFFFFFFFFFFFFFFFFFFFFFFFFFFFFFFFF
310
FFFFFFFFFFFFFFFFFFFFFFFFFF302821FF302821FF302821FF302821FF302821FF302821FF302821FF302821FF302821FF302821FF302821FF302821FF302821FF302821FF302821FF302821FF302821FF302821FF302821FF302821FF302821FF302821FF302821FF302821FFFFFFFFFFFFFFFFFFFFFFFFFFFFFFFFFFFFFF
310
FFFFFFFFFFFFFFFFFFFFFFFFFFFF302821FF302821FF302821FF302821FF302821FF302821FF302821FF302821FF302821FF302821FF302821FF302821FF302821FF302821FF302821FF302821FF302821FF302821FF302821FF302821FF302821FF302821FF302821FF302821FFFFFFFFFFFFFFFFFFFFFFFFFF302821FF30
310
2821FFFFFFFFFFFFFFFFFFFFFFFFFF302821FF302821FF302821FF302821FF302821FF302821FF302821FF302821FF302821FF302821FF302821FF302821FF302821FF302821FF302821FF302821FF302821FF302821FF302821FF302821FF302821FF302821FF302821FF302821FF302821FFFFFFFFFFFFFFFFFFFFFFFFFF
310
FFFFFFFFFFFFFFFFFFFFFFFF302821FF302821FF302821FF302821FF302821FF302821FF302821FF302821FF302821FF302821FF302821FF302821FF302821FF302821FF302821FF302821FF302821FF302821FF302821FF302821FF302821FF302821FF302821FF302821FF302821FF302821FF302821FFFFFFFFFFFFFFFF
310
FFFFFFFFFF302821FFFFFFFFFF302821FF302821FF302821FF302821FF302821FF302821FF302821FF302821FF302821FF302821FF302821FF302821FF302821FF302821FF302821FF302821FF302821FF302821FF302821FF302821FF302821FF302821FF302821FF302821FF302821FF302821FF302821FFFFFFFFFFFFFF
310
FFFFFFFFFFFFFFFFFFFF302821FF302821FF302821FF302821FF302821FF302821FF302821FF302821FF302821FF302821FF302821FF302821FF302821FF302821FF302821FF302821FF302821FF302821FF302821FF302821FF302821FF302821FF302821FF302821FF302821FF302821FF302821FF302821FFFFFFFFFFFF
310
FFFFFFFFFFFFFFFFFFFFFF302821FF302821FF302821FF302821FF302821FF302821FF302821FF302821FF302821FF302821FF302821FF302821FF302821FF302821FF302821FF302821FF302821FF302821FF302821FF302821FF302821FF302821FF302821FF302821FF302821FF302821FF302821FF302821FFFFFFFFFF
310
FFFFFFFFFFFFFFFFFFFFFFFF302821FF302821FF302821FF302821FF302821FF302821FF302821FF302821FF302821FF302821FF302821FF302821FF302821FF302821FF302821FF302821FF302821FF302821FF302821FF302821FF302821FF302821FF302821FF302821FF302821FF302821FF302821FF302821FFFFFFFF
310
FFFFFFFFFFFFFFFFFFFFFFFFFF302821FF302821FF302821FF302821FF302821FF302821FF302821FF302821FF302821FF302821FF302821FF302821FF302821FF302821FF302821FF302821FF302821FF302821FF302821FF302821FF302821FF302821FF302821FF302821FF302821FF302821FF302821FF302821FFFFFF
310
FFFFFFFFFFFFFFFFFFFFFFFFFFFF302821FF302821FF302821FF302821FF302821FF302821FF302821FF302821FF302821FF302821FF302821FF302821FF302821FF302821FF302821FF302821FF302821FF302821FF302821FF302821FF302821FF302821FF302821FF302821FF302821FF302821FF302821FF302821FF30
310
2821FFFFFFFFFFFFFFFFFF302821FF302821FF302821FF302821FF302821FF302821FF302821FF302821FF302821FF302821FF302821FF302821FF302821FF302821FF302821FF302821FF302821FF302821FF302821FF302821FF302821FF302821FF302821FF302821FF302821FF302821FF302821FF302821FF302821FF
310
302821FF302821FF302821FF302821FF302821FF302821FF302821FF302821FF302821FF302821FF302821FF302821FF302821FF302821FF302821FF302821FF302821FF302821FF
102
{BLKREFS
331
462
102
}
 70
     1
280
     1
281
     1
  0
BLOCK_RECORD
  5
464
330
1
100
AcDbSymbolTableRecord
100
AcDbBlockTableRecord
  2
D35160102 Side View
340
0
310
28000000200000002000000001002000000000000010000001000000010000000000000000000000302821FF302821FF302821FF302821FF302821FF302821FF302821FF302821FF302821FF302821FF302821FF302821FF302821FF302821FF302821FF302821FF302821FF302821FF302821FF302821FF302821FF302821
310
FF302821FF302821FF302821FF302821FF302821FF302821FF302821FF302821FF302821FF302821FF302821FF302821FF302821FFFFFFFFFFFFFFFFFFFFFFFFFFFFFFFFFFFFFFFFFFFFFFFFFFFFFFFFFFFFFFFFFFFFFFFFFFFFFFFFFF302821FF302821FF302821FF302821FF302821FF302821FF302821FF302821FF3028
310
21FF302821FF302821FF302821FF302821FF302821FF302821FF302821FF302821FF302821FF302821FF302821FF302821FF302821FFFFFFFFFFFFFFFFFFFFFFFFFFFFFFFFFFFFFFFFFFFFFFFFFFFFFFFFFFFFFFFFFFFFFFFFFFFFFFFFFF302821FF302821FF302821FF302821FF302821FF302821FF302821FF302821FF30
310
2821FF302821FF302821FF302821FF302821FF302821FF302821FF302821FF302821FF302821FF302821FF302821FF302821FF302821FF302821FFFFFFFFFF302821FF302821FFFFFFFFFF302821FF302821FF302821FFFFFFFFFF302821FF302821FF302821FF302821FF302821FF302821FF302821FF302821FF302821FF
310
302821FF302821FF302821FF302821FF302821FF302821FF302821FF302821FF302821FF302821FF302821FF302821FF302821FF302821FF302821FFFFFFFFFF302821FF302821FFFFFFFFFF302821FF302821FF302821FFFFFFFFFF302821FF302821FF302821FF302821FF302821FF302821FF302821FF302821FF302821
310
FF302821FF302821FF302821FF302821FF302821FF302821FF302821FF302821FF302821FF302821FF302821FF302821FF302821FF302821FF302821FFFFFFFFFF302821FF302821FFFFFFFFFF302821FF302821FFFFFFFFFFFFFFFFFF302821FF302821FF302821FF302821FF302821FF302821FF302821FF302821FF3028
310
21FF302821FF302821FF302821FF302821FF302821FF302821FF302821FF302821FF302821FF302821FF302821FF302821FF302821FF302821FF302821FFFFFFFFFF302821FF302821FFFFFFFFFF302821FF302821FFFFFFFFFFFFFFFFFF302821FF302821FF302821FF302821FF302821FF302821FF302821FF302821FF30
310
2821FF302821FF302821FF302821FF302821FF302821FF302821FF302821FF302821FF302821FF302821FF302821FF302821FF302821FF302821FF302821FFFFFFFFFFFFFFFFFF302821FFFFFFFFFF302821FF302821FFFFFFFFFF302821FF302821FF302821FF302821FF302821FF302821FF302821FF302821FF302821FF
310
302821FF302821FF302821FF302821FF302821FF302821FF302821FF302821FF302821FF302821FF302821FF302821FF302821FF302821FF302821FF302821FFFFFFFFFFFFFFFFFF302821FFFFFFFFFF302821FF302821FFFFFFFFFF302821FF302821FF302821FF302821FF302821FF302821FF302821FF302821FF302821
310
FF302821FF302821FF302821FF302821FF302821FF302821FF302821FF302821FF302821FF302821FF302821FF302821FF302821FF302821FF302821FF302821FF302821FFFFFFFFFF302821FFFFFFFFFF302821FF302821FFFFFFFFFF302821FF302821FF302821FF302821FF302821FF302821FF302821FF302821FF3028
310
21FF302821FF302821FF302821FF302821FF302821FF302821FF302821FF302821FF302821FF302821FF302821FF302821FF302821FF302821FF302821FF302821FF302821FFFFFFFFFF302821FFFFFFFFFF302821FF302821FFFFFFFFFF302821FF302821FF302821FF302821FF302821FF302821FF302821FF302821FF30
310
2821FF302821FF302821FF302821FF302821FF302821FF302821FF302821FF302821FF302821FF302821FF302821FF302821FF302821FF302821FF302821FF302821FF302821FFFFFFFFFF302821FFFFFFFFFF302821FF302821FFFFFFFFFF302821FF302821FF302821FF302821FF302821FF302821FF302821FF302821FF
310
302821FF302821FF302821FF302821FF302821FF302821FF302821FF302821FF302821FF302821FF302821FF302821FF302821FF302821FF302821FF302821FF302821FF302821FFFFFFFFFF302821FFFFFFFFFF302821FF302821FFFFFFFFFF302821FF302821FF302821FF302821FF302821FF302821FF302821FF302821
310
FF302821FF302821FF302821FF302821FF302821FF302821FF302821FF302821FF302821FF302821FF302821FF302821FF302821FF302821FF302821FF302821FF302821FF302821FFFFFFFFFF302821FFFFFFFFFF302821FF302821FFFFFFFFFF302821FF302821FF302821FF302821FF302821FF302821FF302821FF3028
310
21FF302821FF302821FF302821FF302821FF302821FF302821FF302821FF302821FF302821FF302821FF302821FF302821FF302821FF302821FF302821FF302821FF302821FF302821FFFFFFFFFF302821FFFFFFFFFF302821FF302821FFFFFFFFFF302821FF302821FF302821FF302821FF302821FF302821FF302821FF30
310
2821FF302821FF302821FF302821FF302821FF302821FF302821FF302821FF302821FF302821FF302821FF302821FF302821FF302821FF302821FF302821FF302821FF302821FF302821FFFFFFFFFF302821FFFFFFFFFF302821FF302821FFFFFFFFFF302821FF302821FF302821FF302821FF302821FF302821FF302821FF
310
302821FF302821FF302821FF302821FF302821FF302821FF302821FF302821FF302821FF302821FF302821FF302821FF302821FF302821FF302821FF302821FF302821FF302821FF302821FFFFFFFFFF302821FFFFFFFFFF302821FF302821FFFFFFFFFF302821FF302821FF302821FF302821FF302821FF302821FF302821
310
FF302821FF302821FF302821FF302821FF302821FF302821FF302821FF302821FF302821FF302821FF302821FF302821FF302821FF302821FF302821FF302821FF302821FF302821FF302821FFFFFFFFFF302821FFFFFFFFFF302821FF302821FFFFFFFFFFFFFFFFFFFFFFFFFFFFFFFFFF302821FF302821FF302821FF3028
310
21FF302821FF302821FF302821FF302821FF302821FF302821FF302821FFFFFFFFFFFFFFFFFF302821FF302821FF302821FF302821FF302821FF302821FF302821FF302821FF302821FFFFFFFFFFFFFFFFFF302821FFFFFFFFFF302821FFFFFFFFFF302821FF302821FF302821FF302821FFFFFFFFFFFFFFFFFFFFFFFFFFFF
310
FFFFFFFFFFFFFF302821FF302821FF302821FF302821FF302821FFFFFFFFFFFFFFFFFFFFFFFFFFFFFFFFFFFFFFFFFF302821FF302821FF302821FF302821FF302821FF302821FF302821FFFFFFFFFFFFFFFFFF302821FFFFFFFFFF302821FFFFFFFFFFFFFFFFFFFFFFFFFFFFFFFFFFFFFFFFFFFFFFFFFF302821FF302821FF
310
302821FF302821FFFFFFFFFFFFFFFFFFFFFFFFFFFFFFFFFFFFFFFFFFFFFFFFFF302821FFFFFFFFFF302821FFFFFFFFFF302821FF302821FF302821FF302821FF302821FF302821FF302821FFFFFFFFFFFFFFFFFF302821FFFFFFFFFF302821FF302821FFFFFFFFFF302821FF302821FF302821FF302821FFFFFFFFFFFFFFFF
310
FFFFFFFFFFFFFFFFFFFFFFFFFF302821FF302821FF302821FF302821FF302821FFFFFFFFFFFFFFFFFFFFFFFFFF302821FF302821FF302821FF302821FF302821FF302821FF302821FF302821FFFFFFFFFFFFFFFFFF302821FFFFFFFFFF302821FF302821FFFFFFFFFFFFFFFFFFFFFFFFFFFFFFFFFFFFFFFFFFFFFFFFFF3028
310
21FF302821FF302821FF302821FFFFFFFFFFFFFFFFFFFFFFFFFFFFFFFFFFFFFFFFFF302821FFFFFFFFFFFFFFFFFF302821FF302821FF302821FF302821FF302821FF302821FF302821FF302821FFFFFFFFFFFFFFFFFFFFFFFFFFFFFFFFFFFFFFFFFFFFFFFFFFFFFFFFFFFFFFFFFF302821FF302821FF302821FFFFFFFFFFFF
310
FFFFFFFFFFFFFFFFFFFFFFFFFFFFFFFFFFFFFFFFFFFFFF302821FFFFFFFFFFFFFFFFFFFFFFFFFFFFFFFFFF302821FF302821FF302821FF302821FF302821FF302821FF302821FF302821FF302821FF302821FFFFFFFFFFFFFFFFFFFFFFFFFF302821FFFFFFFFFFFFFFFFFF302821FF302821FF302821FF302821FF302821FF
310
302821FF302821FF302821FF302821FF302821FF302821FFFFFFFFFFFFFFFFFF302821FF302821FF302821FF302821FF302821FF302821FF302821FF302821FF302821FF302821FF302821FF302821FF302821FF302821FFFFFFFFFFFFFFFFFF302821FFFFFFFFFF302821FF302821FF302821FF302821FF302821FF302821
310
FF302821FF302821FF302821FF302821FF302821FF302821FF302821FF302821FF302821FF302821FF302821FF302821FF302821FF302821FF302821FF302821FF302821FF302821FF302821FF302821FF302821FF302821FFFFFFFFFFFFFFFFFFFFFFFFFFFFFFFFFFFFFFFFFFFFFFFFFF302821FF302821FF302821FF3028
310
21FF302821FF302821FF302821FF302821FF302821FF302821FF302821FF302821FF302821FF302821FF302821FF302821FF302821FF302821FF302821FF302821FF302821FF302821FF302821FF302821FF302821FF302821FFFFFFFFFFFFFFFFFF302821FFFFFFFFFF302821FF302821FFFFFFFFFFFFFFFFFFFFFFFFFFFF
310
FFFFFFFFFFFFFF302821FF302821FF302821FF302821FF302821FF302821FF302821FF302821FF302821FF302821FF302821FF302821FF302821FF302821FF302821FF302821FF302821FF302821FF302821FF302821FF302821FFFFFFFFFFFFFFFFFF302821FFFFFFFFFFFFFFFFFF302821FF302821FF302821FF302821FF
310
302821FF302821FFFFFFFFFFFFFFFFFFFFFFFFFF302821FF302821FF302821FF302821FF302821FF302821FF302821FF302821FF302821FF302821FF302821FF302821FF302821FF302821FF302821FF302821FF302821FF302821FFFFFFFFFFFFFFFFFFFFFFFFFFFFFFFFFF302821FFFFFFFFFFFFFFFFFFFFFFFFFFFFFFFF
310
FF302821FF302821FF302821FF302821FFFFFFFFFFFFFFFFFF302821FF302821FF302821FF302821FF302821FF302821FF302821FF302821FF302821FF302821FF302821FF302821FF302821FF302821FF302821FF302821FF302821FF302821FF302821FF302821FF302821FF302821FF302821FF302821FF302821FF3028
310
21FFFFFFFFFFFFFFFFFFFFFFFFFF302821FFFFFFFFFFFFFFFFFF302821FF302821FF302821FF302821FF302821FF302821FF302821FF302821FF302821FF302821FF302821FF302821FF302821FF302821FF302821FF302821FF302821FF302821FF302821FF302821FF302821FF302821FF302821FF302821FF302821FF30
310
2821FF302821FF302821FF302821FFFFFFFFFFFFFFFFFF302821FF302821FF302821FF302821FF302821FF302821FF302821FF302821FF302821FF302821FF302821FF302821FF302821FF302821FF302821FF302821FF302821FF302821FF302821FF302821FF302821FF302821FF302821FF302821FF302821FF302821FF
310
302821FF302821FF302821FF302821FF302821FF302821FF302821FF302821FF302821FF302821FF302821FF302821FF302821FF302821FF302821FF302821FF302821FF302821FF
102
{BLKREFS
331
4D6
102
}
 70
     1
280
     1
281
     1
  0
ENDTAB
  0
ENDSEC
  0
SECTION
  2
BLOCKS
  0
BLOCK
  5
71
330
70
100
AcDbEntity
  8
0
100
AcDbBlockBegin
  2
*Model_Space
 70
     0
 10
0.0
 20
0.0
 30
0.0
  3
*Model_Space
  1

  0
ENDBLK
  5
72
330
70
100
AcDbEntity
  8
0
100
AcDbBlockEnd
  0
BLOCK
  5
6D
330
6C
100
AcDbEntity
 67
     1
  8
0
100
AcDbBlockBegin
  2
*Paper_Space
 70
     0
 10
0.0
 20
0.0
 30
0.0
  3
*Paper_Space
  1

  0
ENDBLK
  5
6E
330
6C
100
AcDbEntity
 67
     1
  8
0
100
AcDbBlockEnd
  0
BLOCK
  5
75
330
74
100
AcDbEntity
 67
     1
  8
0
100
AcDbBlockBegin
  2
*Paper_Space0
 70
     0
 10
0.0
 20
0.0
 30
0.0
  3
*Paper_Space0
  1

  0
ENDBLK
  5
76
330
74
100
AcDbEntity
 67
     1
  8
0
100
AcDbBlockEnd
  0
BLOCK
  5
387
330
386
100
AcDbEntity
  8
0
100
AcDbBlockBegin
  2
D35160102 Top View
 70
     0
 10
0.0
 20
0.0
 30
0.0
  3
D35160102 Top View
  1

  0
SPLINE
  5
389
330
386
100
AcDbEntity
  8
D35160102
100
AcDbSpline
210
0.0
220
0.0
230
1.0
 70
     8
 71
     3
 72
    16
 73
    12
 74
     0
 42
0.000000001
 43
0.0000000001
 40
0.1115737959046307
 40
0.1115737959046307
 40
0.1115737959046307
 40
0.1115737959046307
 40
0.1818181818181818
 40
0.3636363636363637
 40
0.4545454545454545
 40
0.5454545454545455
 40
0.6363636363636364
 40
0.7272727272727274
 40
0.8181818181818181
 40
0.9090909090909089
 40
1.0
 40
1.0
 40
1.0
 40
1.0
 10
0.7628493572368868
 20
-1.597695351488624
 30
0.0
 10
0.757078392197498
 20
-1.823165979403427
 30
0.0
 10
0.7363709500840438
 20
-2.582143007364045
 30
0.0
 10
0.7082088748259389
 20
-3.389610872688606
 30
0.0
 10
0.6783146831117305
 20
-4.044729610816744
 30
0.0
 10
0.6559666485848974
 20
-4.449996055652004
 30
0.0
 10
0.6334910440565822
 20
-4.784035213402706
 30
0.0
 10
0.6111808075694936
 20
-5.061867356516668
 30
0.0
 10
0.5886380833366133
 20
-5.298062462943484
 30
0.0
 10
0.5663298457068653
 20
-5.508278134716277
 30
0.0
 10
0.5513804991981692
 20
-5.657582812328712
 30
0.0
 10
0.5439064319465357
 20
-5.741134413330492
 30
0.0
  0
SPLINE
  5
38A
330
386
100
AcDbEntity
  8
D35160102
100
AcDbSpline
210
0.0
220
0.0
230
1.0
 70
     8
 71
     3
 72
    16
 73
    12
 74
     0
 42
0.000000001
 43
0.0000000001
 40
-1.0
 40
-1.0
 40
-1.0
 40
-1.0
 40
-0.9090909090909089
 40
-0.8181818181818181
 40
-0.7272727272727274
 40
-0.6363636363636364
 40
-0.5454545454545455
 40
-0.4545454545454545
 40
-0.3636363636363637
 40
-0.1818181818181818
 40
-0.1115553408926606
 40
-0.1115553408926606
 40
-0.1115553408926606
 40
-0.1115553408926606
 10
-0.5439064319459424
 20
-5.74113441333052
 30
0.0
 10
-0.5513803914336531
 20
-5.657589045884535
 30
0.0
 10
-0.5663294479847937
 20
-5.508279587081897
 30
0.0
 10
-0.5886373374087606
 20
-5.298070317996874
 30
0.0
 10
-0.6111796586552999
 20
-5.061880060747576
 30
0.0
 10
-0.6334895049351795
 20
-4.784055695201395
 30
0.0
 10
-0.6559647371608599
 20
-4.450027053609396
 30
0.0
 10
-0.6783123808655228
 20
-4.04477489535947
 30
0.0
 10
-0.7082060637815544
 20
-3.38968112279878
 30
0.0
 10
-0.7363691750699286
 20
-2.582203116216515
 30
0.0
 10
-0.7570777750963621
 20
-1.823191307088503
 30
0.0
 10
-0.7628501568102588
 20
-1.597663999154743
 30
0.0
  0
ARC
  5
38B
330
386
100
AcDbEntity
  8
D35160102
100
AcDbCircle
 10
72.53786988841118
 20
0.308877993350567
 30
0.0
 40
73.33177128816476
100
AcDbArc
 50
181.0656224803778
 51
184.7323911382242
1001
REVIT
1002
{
1070
     1
1000
55884
1002
}
1002
{
1070
     2
1000
-2001160
1002
}
  0
LINE
  5
38C
330
386
100
AcDbEntity
  8
D35160102
100
AcDbLine
 10
-0.5439064319459277
 20
-5.741134413330531
 30
0.0
 11
-0.2748259809769209
 21
-6.179981617835885
 31
0.0
1001
REVIT
1002
{
1070
     1
1000
55884
1002
}
1002
{
1070
     2
1000
-2001160
1002
}
  0
LINE
  5
38D
330
386
100
AcDbEntity
  8
D35160102
100
AcDbLine
 10
-0.2748259809769209
 20
-6.179981617835885
 30
0.0
 11
0.2748259809774112
 21
-6.179981617835885
 31
0.0
1001
REVIT
1002
{
1070
     1
1000
55884
1002
}
1002
{
1070
     2
1000
-2001160
1002
}
  0
LINE
  5
38E
330
386
100
AcDbEntity
  8
D35160102
100
AcDbLine
 10
0.2748259809774112
 20
-6.179981617835885
 30
0.0
 11
0.5439064319464251
 21
-5.741134413330534
 31
0.0
1001
REVIT
1002
{
1070
     1
1000
55884
1002
}
1002
{
1070
     2
1000
-2001160
1002
}
  0
ARC
  5
38F
330
386
100
AcDbEntity
  8
D35160102
100
AcDbCircle
 10
-72.53786988842751
 20
0.3088779933514374
 30
0.0
 40
73.33177128818161
100
AcDbArc
 50
355.2676088617756
 51
358.934377519621
1001
REVIT
1002
{
1070
     1
1000
55884
1002
}
1002
{
1070
     2
1000
-2001160
1002
}
  0
ARC
  5
390
330
386
100
AcDbEntity
  8
D35160102
100
AcDbCircle
 10
0.0
 20
0.0
 30
0.0
 40
1.312685995479514
100
AcDbArc
 50
306.521894632419
 51
233.4781053676061
1001
REVIT
1002
{
1070
     1
1000
55884
1002
}
1002
{
1070
     2
1000
-2001160
1002
}
  0
ARC
  5
391
330
386
100
AcDbEntity
  8
D35160102
100
AcDbCircle
 10
23.0056617908884
 20
-0.231918185683412
 30
0.0
 40
23.80111352551755
100
AcDbArc
 50
180.7734956992589
 51
181.9815687151719
1001
REVIT
1002
{
1070
     1
1000
56238
1002
}
1002
{
1070
     2
1000
-2001160
1002
}
  0
ARC
  5
392
330
386
100
AcDbEntity
  8
D35160102
100
AcDbCircle
 10
-23.0056617908879
 20
-0.2319181856834156
 30
0.0
 40
23.80111352551756
100
AcDbArc
 50
358.0184312848276
 51
359.2265043007405
1001
REVIT
1002
{
1070
     1
1000
56265
1002
}
1002
{
1070
     2
1000
-2001160
1002
}
  0
ARC
  5
393
330
386
100
AcDbEntity
  8
D35160102
100
AcDbCircle
 10
0.7996180109659079
 20
-0.385583607740493
 30
0.0
 40
1.854583583466815
100
AcDbArc
 50
154.172595019311
 51
167.9950806364856
1001
REVIT
1002
{
1070
     1
1000
56357
1002
}
1002
{
1070
     2
1000
-2001160
1002
}
  0
ARC
  5
394
330
386
100
AcDbEntity
  8
D35160102
100
AcDbCircle
 10
0.373158340308926
 20
-0.8284517646569753
 30
0.0
 40
1.76332799190512
100
AcDbArc
 50
117.0368051964003
 51
134.8169112866731
1001
REVIT
1002
{
1070
     1
1000
56407
1002
}
1002
{
1070
     2
1000
-2001160
1002
}
  0
ARC
  5
395
330
386
100
AcDbEntity
  8
D35160102
100
AcDbCircle
 10
0.0000000000009663
 20
-1.273406061732735
 30
0.0
 40
2.060597525693969
100
AcDbArc
 50
78.00106346365058
 51
101.998936536349
1001
REVIT
1002
{
1070
     1
1000
56463
1002
}
1002
{
1070
     2
1000
-2001160
1002
}
  0
ARC
  5
396
330
386
100
AcDbEntity
  8
D35160102
100
AcDbCircle
 10
-0.4750038612250976
 20
0.2744296026231119
 30
0.0
 40
1.514451279284184
100
AcDbArc
 50
310.4338660670904
 51
348.9312972346713
1001
REVIT
1002
{
1070
     1
1000
56508
1002
}
1002
{
1070
     2
1000
-2001160
1002
}
  0
ARC
  5
397
330
386
100
AcDbEntity
  8
D35160102
100
AcDbCircle
 10
-0.7996180109654106
 20
-0.385583607740493
 30
0.0
 40
1.854583583466815
100
AcDbArc
 50
12.00491936351441
 51
25.82740498068918
1001
REVIT
1002
{
1070
     1
1000
56509
1002
}
1002
{
1070
     2
1000
-2001160
1002
}
  0
ARC
  5
398
330
386
100
AcDbEntity
  8
D35160102
100
AcDbCircle
 10
-0.3731583403084286
 20
-0.8284517646569753
 30
0.0
 40
1.76332799190512
100
AcDbArc
 50
45.18308871332693
 51
62.96319480363673
1001
REVIT
1002
{
1070
     1
1000
56510
1002
}
1002
{
1070
     2
1000
-2001160
1002
}
  0
LINE
  5
399
330
386
100
AcDbEntity
  8
D35160102
100
AcDbLine
 10
-0.2437623212795188
 20
-0.5264113852161323
 30
0.0
 11
-0.350440317851394
 21
-3.54853595899965
 31
0.0
1001
REVIT
1002
{
1070
     1
1000
56690
1002
}
1002
{
1070
     2
1000
-2001160
1002
}
  0
LINE
  5
39A
330
386
100
AcDbEntity
  8
D35160102
100
AcDbLine
 10
-0.350440317851394
 20
-3.54853595899965
 30
0.0
 11
-0.2790818789992642
 21
-3.688584780747273
 31
0.0
1001
REVIT
1002
{
1070
     1
1000
56795
1002
}
1002
{
1070
     2
1000
-2001160
1002
}
  0
LINE
  5
39B
330
386
100
AcDbEntity
  8
D35160102
100
AcDbLine
 10
0.2437620674488414
 20
-0.5264041943291922
 30
0.0
 11
0.3504403178518842
 21
-3.54853595899965
 31
0.0
1001
REVIT
1002
{
1070
     1
1000
56856
1002
}
1002
{
1070
     2
1000
-2001160
1002
}
  0
LINE
  5
39C
330
386
100
AcDbEntity
  8
D35160102
100
AcDbLine
 10
0.3504403178518842
 20
-3.548535958999647
 30
0.0
 11
0.2790818789997616
 21
-3.688584780747277
 31
0.0
1001
REVIT
1002
{
1070
     1
1000
56857
1002
}
1002
{
1070
     2
1000
-2001160
1002
}
  0
ARC
  5
39D
330
386
100
AcDbEntity
  8
D35160102
100
AcDbCircle
 10
0.0000000000002487
 20
-3.114239461956916
 30
0.0
 40
0.6385602872104535
100
AcDbArc
 50
244.0842787657307
 51
295.9157212342682
1001
REVIT
1002
{
1070
     1
1000
56934
1002
}
1002
{
1070
     2
1000
-2001160
1002
}
  0
ARC
  5
39E
330
386
100
AcDbEntity
  8
D35160102
100
AcDbCircle
 10
0.0000000000002487
 20
0.5500678513754665
 30
0.0
 40
1.515756665350956
100
AcDbArc
 50
250.4497184609278
 51
260.1812618954635
1001
REVIT
1002
{
1070
     1
1000
57034
1002
}
1002
{
1070
     2
1000
-2001160
1002
}
  0
ARC
  5
39F
330
386
100
AcDbEntity
  8
D35160102
100
AcDbCircle
 10
0.0000000000002487
 20
0.5500678513754665
 30
0.0
 40
1.515756665350957
100
AcDbArc
 50
279.8187381045356
 51
289.5502815390713
1001
REVIT
1002
{
1070
     1
1000
57140
1002
}
1002
{
1070
     2
1000
-2001160
1002
}
  0
ARC
  5
3A0
330
386
100
AcDbEntity
  8
D35160102
100
AcDbCircle
 10
0.0000000000218066
 20
-0.5750562258456285
 30
0.0
 40
1.126245655707075
100
AcDbArc
 50
74.79612885210271
 51
105.2038711510993
1001
REVIT
1002
{
1070
     1
1000
57278
1002
}
1002
{
1070
     2
1000
-2001160
1002
}
  0
ARC
  5
3A1
330
386
100
AcDbEntity
  8
D35160102
100
AcDbCircle
 10
-0.4004884406203786
 20
-0.2310361134628032
 30
0.0
 40
1.017825691415304
100
AcDbArc
 50
13.1306681649609
 51
46.86933182784605
1001
REVIT
1002
{
1070
     1
1000
57352
1002
}
1002
{
1070
     2
1000
-2001160
1002
}
  0
ARC
  5
3A2
330
386
100
AcDbEntity
  8
D35160102
100
AcDbCircle
 10
-0.4518932217799616
 20
0.2610866630182969
 30
0.0
 40
1.074766658728438
100
AcDbArc
 50
314.0489637084538
 51
345.9510373756764
1001
REVIT
1002
{
1070
     1
1000
57427
1002
}
1002
{
1070
     2
1000
-2001160
1002
}
  0
ARC
  5
3A3
330
386
100
AcDbEntity
  8
D35160102
100
AcDbCircle
 10
0.400488440620876
 20
-0.2310361134628032
 30
0.0
 40
1.017825691415304
100
AcDbArc
 50
133.1306681735129
 51
166.8693318350391
1001
REVIT
1002
{
1070
     1
1000
57590
1002
}
1002
{
1070
     2
1000
-2001160
1002
}
  0
ARC
  5
3A4
330
386
100
AcDbEntity
  8
D35160102
100
AcDbCircle
 10
0.4518932217804519
 20
0.2610866630182969
 30
0.0
 40
1.074766658728439
100
AcDbArc
 50
194.0489626243227
 51
225.9520621979064
1001
REVIT
1002
{
1070
     1
1000
57591
1002
}
1002
{
1070
     2
1000
-2001160
1002
}
  0
ARC
  5
3A5
330
386
100
AcDbEntity
  8
D35160102
100
AcDbCircle
 10
0.5285300724896445
 20
-0.3261941192471802
 30
0.0
 40
1.586018772123174
100
AcDbArc
 50
130.7021939354603
 51
151.836593624364
1001
REVIT
1002
{
1070
     1
1000
57875
1002
}
1002
{
1070
     2
1000
-2001160
1002
}
  0
ARC
  5
3A6
330
386
100
AcDbEntity
  8
D35160102
100
AcDbCircle
 10
0.0000000000005329
 20
-0.5496958604201652
 30
0.0
 40
1.512916339267021
100
AcDbArc
 50
70.47049133752569
 51
109.5295086624743
1001
REVIT
1002
{
1070
     1
1000
57962
1002
}
1002
{
1070
     2
1000
-2001160
1002
}
  0
ARC
  5
3A7
330
386
100
AcDbEntity
  8
D35160102
100
AcDbCircle
 10
-0.5419051472392554
 20
-0.3369213101807453
 30
0.0
 40
1.602876493184796
100
AcDbArc
 50
28.27580040160298
 51
49.18541203848416
1001
REVIT
1002
{
1070
     1
1000
58059
1002
}
1002
{
1070
     2
1000
-2001160
1002
}
  0
ARC
  5
3A8
330
386
100
AcDbEntity
  8
D35160102
100
AcDbCircle
 10
0.0000000000005471
 20
-0.5056419338996712
 30
0.0
 40
1.359878593002086
100
AcDbArc
 50
70.71843443434937
 51
109.2815655656946
1001
REVIT
1002
{
1070
     1
1000
58174
1002
}
1002
{
1070
     2
1000
-2001160
1002
}
  0
ARC
  5
3A9
330
386
100
AcDbEntity
  8
D35160102
100
AcDbCircle
 10
-0.5033595982922137
 20
-0.2904288040943328
 30
0.0
 40
1.431267359216916
100
AcDbArc
 50
42.03363662483986
 51
48.28479340883498
1001
REVIT
1002
{
1070
     1
1000
58285
1002
}
1002
{
1070
     2
1000
-2001160
1002
}
  0
ARC
  5
3AA
330
386
100
AcDbEntity
  8
D35160102
100
AcDbCircle
 10
0.5033595982927111
 20
-0.2904288040943328
 30
0.0
 40
1.431267359216916
100
AcDbArc
 50
131.7152065911856
 51
137.9663633751601
1001
REVIT
1002
{
1070
     1
1000
58387
1002
}
1002
{
1070
     2
1000
-2001160
1002
}
  0
ARC
  5
3AB
330
386
100
AcDbEntity
  8
D35160102
100
AcDbCircle
 10
0.0
 20
-0.5496958604201616
 30
0.0
 40
1.683593750000333
100
AcDbArc
 50
69.39883954461571
 51
110.6011604553847
1001
REVIT
1002
{
1070
     1
1000
58677
1002
}
1002
{
1070
     2
1000
-2001160
1002
}
  0
ARC
  5
3AC
330
386
100
AcDbEntity
  8
D35160102
100
AcDbCircle
 10
-0.4762116562812793
 20
-0.2747549324676584
 30
0.0
 40
1.683593749996387
100
AcDbArc
 50
9.39883954459896
 51
50.60116045547254
1001
REVIT
1002
{
1070
     1
1000
58787
1002
}
1002
{
1070
     2
1000
-2001160
1002
}
  0
ARC
  5
3AD
330
386
100
AcDbEntity
  8
D35160102
100
AcDbCircle
 10
-0.4762116562851304
 20
0.2751269234265585
 30
0.0
 40
1.68359375000033
100
AcDbArc
 50
318.6560235646497
 51
350.6011604553927
1001
REVIT
1002
{
1070
     1
1000
58900
1002
}
1002
{
1070
     2
1000
-2001160
1002
}
  0
ARC
  5
3AE
330
386
100
AcDbEntity
  8
D35160102
100
AcDbCircle
 10
0.4762116562860755
 20
-0.2747549324687384
 30
0.0
 40
1.68359375000035
100
AcDbArc
 50
129.398839544634
 51
170.6011604553911
1001
REVIT
1002
{
1070
     1
1000
59027
1002
}
1002
{
1070
     2
1000
-2001160
1002
}
  0
ARC
  5
3AF
330
386
100
AcDbEntity
  8
D35160102
100
AcDbCircle
 10
0.4750038612255594
 20
0.2744296026230941
 30
0.0
 40
1.682288363934997
100
AcDbArc
 50
189.3821265042187
 51
221.3558449816693
1001
REVIT
1002
{
1070
     1
1000
59149
1002
}
1002
{
1070
     2
1000
-2001160
1002
}
  0
ARC
  5
3B0
330
386
100
AcDbEntity
  8
D35160102
100
AcDbCircle
 10
0.0000000000002487
 20
0.0001859954795087
 30
0.0
 40
1.192578901110029
100
AcDbArc
 50
311.2402602407393
 51
228.7597397592602
1001
REVIT
1002
{
1070
     1
1000
59274
1002
}
1002
{
1070
     2
1000
-2001160
1002
}
  0
ARC
  5
3B1
330
386
100
AcDbEntity
  8
D35160102
100
AcDbCircle
 10
-0.0000139098349123
 20
0.4080401439155495
 30
0.0
 40
0.9657188764740515
100
AcDbArc
 50
252.1925605553985
 51
287.0518553605425
1001
REVIT
1002
{
1070
     1
1000
59653
1002
}
1002
{
1070
     2
1000
-2001160
1002
}
  0
ARC
  5
3B2
330
386
100
AcDbEntity
  8
D35160102
100
AcDbCircle
 10
0.4750038612255949
 20
0.2744296026231119
 30
0.0
 40
1.514451279284184
100
AcDbArc
 50
190.4338660671147
 51
230.3290336425909
1001
REVIT
1002
{
1070
     1
1000
59692
1002
}
1002
{
1070
     2
1000
-2001160
1002
}
  0
ARC
  5
3B3
330
386
100
AcDbEntity
  8
D35160102
100
AcDbCircle
 10
85.24908831965882
 20
-0.5458946462590327
 30
0.0
 40
85.70929268933317
100
AcDbArc
 50
180.2309531640331
 51
183.7690468359659
1001
REVIT
1002
{
1070
     1
1000
59802
1002
}
1002
{
1070
     2
1000
-2001160
1002
}
  0
ARC
  5
3B4
330
386
100
AcDbEntity
  8
D35160102
100
AcDbCircle
 10
-85.24908831965836
 20
-0.5458946462590327
 30
0.0
 40
85.70929268933317
100
AcDbArc
 50
356.2309531640332
 51
359.7690468359662
1001
REVIT
1002
{
1070
     1
1000
59942
1002
}
1002
{
1070
     2
1000
-2001160
1002
}
  0
LINE
  5
3B5
330
386
100
AcDbEntity
  8
D35160102
100
AcDbLine
 10
-0.4490464833338166
 20
0.777957319570966
 30
0.0
 11
-0.5923903189252471
 21
1.026236125769052
 31
0.0
1001
REVIT
1002
{
1070
     1
1000
60125
1002
}
1002
{
1070
     2
1000
-2001160
1002
}
  0
LINE
  5
3B6
330
386
100
AcDbEntity
  8
D35160102
100
AcDbLine
 10
0.4490464833339303
 20
0.7779573195713106
 30
0.0
 11
0.5923903189251121
 21
1.026236125769052
 31
0.0
1001
REVIT
1002
{
1070
     1
1000
60270
1002
}
1002
{
1070
     2
1000
-2001160
1002
}
  0
LINE
  5
3B7
330
386
100
AcDbEntity
  8
D35160102
100
AcDbLine
 10
0.5907256996424764
 20
0.0001859954790078
 30
0.0
 11
1.18478063785097
 21
0.0001859954790078
 31
0.0
1001
REVIT
1002
{
1070
     1
1000
60422
1002
}
1002
{
1070
     2
1000
-2001160
1002
}
  0
LINE
  5
3B8
330
386
100
AcDbEntity
  8
D35160102
100
AcDbLine
 10
0.2953628547045568
 20
0.5117694552425221
 30
0.0
 11
0.4283849047382092
 21
0.742170415677478
 31
0.0
1001
REVIT
1002
{
1070
     1
1000
60567
1002
}
1002
{
1070
     2
1000
-2001160
1002
}
  0
LINE
  5
3B9
330
386
100
AcDbEntity
  8
D35160102
100
AcDbLine
 10
-0.295362854721688
 20
0.5117694552260126
 30
0.0
 11
-0.4283849047363049
 21
0.7421704156774674
 31
0.0
1001
REVIT
1002
{
1070
     1
1000
60709
1002
}
1002
{
1070
     2
1000
-2001160
1002
}
  0
LINE
  5
3BA
330
386
100
AcDbEntity
  8
D35160102
100
AcDbLine
 10
-0.5907256996419861
 20
0.0001859954788692
 30
0.0
 11
-1.184780637850032
 21
0.0001859954788692
 31
0.0
1001
REVIT
1002
{
1070
     1
1000
60855
1002
}
1002
{
1070
     2
1000
-2001160
1002
}
  0
LINE
  5
3BB
330
386
100
AcDbEntity
  8
D35160102
100
AcDbLine
 10
-0.2953490228698214
 20
-0.5114108441131542
 30
0.0
 11
-0.5072236741310832
 21
-0.8783026933210322
 31
0.0
1001
REVIT
1002
{
1070
     1
1000
60998
1002
}
1002
{
1070
     2
1000
-2001160
1002
}
  0
LINE
  5
3BC
330
386
100
AcDbEntity
  8
D35160102
100
AcDbLine
 10
0.2953628546612421
 20
-0.5113974642852917
 30
0.0
 11
0.5072236741315735
 21
-0.8783026933210358
 31
0.0
1001
REVIT
1002
{
1070
     1
1000
61141
1002
}
1002
{
1070
     2
1000
-2001160
1002
}
  0
LINE
  5
3BD
330
386
100
AcDbEntity
  8
D35160102
100
AcDbLine
 10
-0.350440317851394
 20
-3.54853595899965
 30
0.0
 11
0.3504403178518842
 21
-3.54853595899965
 31
0.0
1001
REVIT
1002
{
1070
     1
1000
61295
1002
}
1002
{
1070
     2
1000
-2001160
1002
}
  0
LINE
  5
3BE
330
386
100
AcDbEntity
  8
D35160102
100
AcDbLine
 10
-0.2790818789992642
 20
-3.688584780747273
 30
0.0
 11
0.2790818789997616
 21
-3.688584780747277
 31
0.0
1001
REVIT
1002
{
1070
     1
1000
61433
1002
}
1002
{
1070
     2
1000
-2001160
1002
}
  0
ENDBLK
  5
388
330
386
100
AcDbEntity
  8
0
100
AcDbBlockEnd
  0
BLOCK
  5
3C1
330
3C0
100
AcDbEntity
  8
0
100
AcDbBlockBegin
  2
D35160102 Front View
 70
     0
 10
0.0
 20
0.0
 30
0.0
  3
D35160102 Front View
  1

  0
LINE
  5
3C3
330
3C0
100
AcDbEntity
  8
D35160102
100
AcDbLine
 10
-1.192578901109779
 20
0.3261939176309049
 30
0.0
 11
-1.19257890110978
 21
0.2483436452429224
 31
0.0
1001
REVIT
1002
{
1070
     2
1000
-2001160
1002
}
  0
LINE
  5
3C4
330
3C0
100
AcDbEntity
  8
D35160102
100
AcDbLine
 10
1.192578901110278
 20
0.248343645242897
 30
0.0
 11
1.19257890111028
 21
0.3261939176308823
 31
0.0
1001
REVIT
1002
{
1070
     2
1000
-2001160
1002
}
  0
LINE
  5
3C5
330
3C0
100
AcDbEntity
  8
D35160102
100
AcDbLine
 10
1.230690051521409
 20
0.248343645242897
 30
0.0
 11
1.231804956829373
 21
0.2483213441631808
 31
0.0
1001
REVIT
1002
{
1070
     2
1000
-2001160
1002
}
  0
LINE
  5
3C6
330
3C0
100
AcDbEntity
  8
D35160102
100
AcDbLine
 10
1.231804956829373
 20
0.2483213441631808
 30
0.0
 11
1.23291807852668
 21
0.2482544766010028
 31
0.0
1001
REVIT
1002
{
1070
     2
1000
-2001160
1002
}
  0
LINE
  5
3C7
330
3C0
100
AcDbEntity
  8
D35160102
100
AcDbLine
 10
1.234027635856066
 20
0.2481431495301995
 30
0.0
 11
1.235131853762494
 21
0.247987541050334
 31
0.0
1001
REVIT
1002
{
1070
     2
1000
-2001160
1002
}
  0
LINE
  5
3C8
330
3C0
100
AcDbEntity
  8
D35160102
100
AcDbLine
 10
1.235131853762494
 20
0.247987541050334
 30
0.0
 11
1.236228965732873
 21
0.2477879001017813
 31
0.0
1001
REVIT
1002
{
1070
     2
1000
-2001160
1002
}
  0
LINE
  5
3C9
330
3C0
100
AcDbEntity
  8
D35160102
100
AcDbLine
 10
1.236228965732873
 20
0.2477879001017813
 30
0.0
 11
1.237317216622084
 21
0.2475445460674667
 31
0.0
1001
REVIT
1002
{
1070
     2
1000
-2001160
1002
}
  0
LINE
  5
3CA
330
3C0
100
AcDbEntity
  8
D35160102
100
AcDbLine
 10
1.23291807852668
 20
0.2482544766010028
 30
0.0
 11
1.234027635856066
 21
0.2481431495301995
 31
0.0
1001
REVIT
1002
{
1070
     2
1000
-2001160
1002
}
  0
LINE
  5
3CB
330
3C0
100
AcDbEntity
  8
D35160102
100
AcDbLine
 10
1.237317216622084
 20
0.2475445460674667
 30
0.0
 11
1.238394865460856
 21
0.247257868261939
 31
0.0
1001
REVIT
1002
{
1070
     2
1000
-2001160
1002
}
  0
LINE
  5
3CC
330
3C0
100
AcDbEntity
  8
D35160102
100
AcDbLine
 10
1.238394865460856
 20
0.247257868261939
 30
0.0
 11
1.239460188240929
 21
0.2469283253085268
 31
0.0
1001
REVIT
1002
{
1070
     2
1000
-2001160
1002
}
  0
LINE
  5
3CD
330
3C0
100
AcDbEntity
  8
D35160102
100
AcDbLine
 10
1.239460188240929
 20
0.2469283253085268
 30
0.0
 11
1.240511480673111
 21
0.2465564444056589
 31
0.0
1001
REVIT
1002
{
1070
     2
1000
-2001160
1002
}
  0
LINE
  5
3CE
330
3C0
100
AcDbEntity
  8
D35160102
100
AcDbLine
 10
1.240511480673111
 20
0.2465564444056589
 30
0.0
 11
1.24154706091378
 21
0.2461428204834512
 31
0.0
1001
REVIT
1002
{
1070
     2
1000
-2001160
1002
}
  0
LINE
  5
3CF
330
3C0
100
AcDbEntity
  8
D35160102
100
AcDbLine
 10
1.24154706091378
 20
0.2461428204834512
 30
0.0
 11
1.24256527225546
 21
0.2456881152519412
 31
0.0
1001
REVIT
1002
{
1070
     2
1000
-2001160
1002
}
  0
LINE
  5
3D0
330
3C0
100
AcDbEntity
  8
D35160102
100
AcDbLine
 10
1.24256527225546
 20
0.2456881152519412
 30
0.0
 11
1.24356448577721
 21
0.2451930561425039
 31
0.0
1001
REVIT
1002
{
1070
     2
1000
-2001160
1002
}
  0
LINE
  5
3D1
330
3C0
100
AcDbEntity
  8
D35160102
100
AcDbLine
 10
1.24356448577721
 20
0.2451930561425039
 30
0.0
 11
1.244543102950549
 21
0.2446584351441032
 31
0.0
1001
REVIT
1002
{
1070
     2
1000
-2001160
1002
}
  0
LINE
  5
3D2
330
3C0
100
AcDbEntity
  8
D35160102
100
AcDbLine
 10
1.244543102950549
 20
0.2446584351441032
 30
0.0
 11
1.245499558196763
 21
0.2440851075362941
 31
0.0
1001
REVIT
1002
{
1070
     2
1000
-2001160
1002
}
  0
LINE
  5
3D3
330
3C0
100
AcDbEntity
  8
D35160102
100
AcDbLine
 10
1.245499558196763
 20
0.2440851075362941
 30
0.0
 11
1.246432321391489
 21
0.2434739905209446
 31
0.0
1001
REVIT
1002
{
1070
     2
1000
-2001160
1002
}
  0
LINE
  5
3D4
330
3C0
100
AcDbEntity
  8
D35160102
100
AcDbLine
 10
1.246432321391489
 20
0.2434739905209446
 30
0.0
 11
1.247339900312594
 21
0.2428260617549113
 31
0.0
1001
REVIT
1002
{
1070
     2
1000
-2001160
1002
}
  0
LINE
  5
3D5
330
3C0
100
AcDbEntity
  8
D35160102
100
AcDbLine
 10
1.247339900312594
 20
0.2428260617549113
 30
0.0
 11
1.248220843027412
 21
0.2421423577860086
 31
0.0
1001
REVIT
1002
{
1070
     2
1000
-2001160
1002
}
  0
LINE
  5
3D6
330
3C0
100
AcDbEntity
  8
D35160102
100
AcDbLine
 10
1.248220843027412
 20
0.2421423577860086
 30
0.0
 11
1.249073740215522
 21
0.2414239723947333
 31
0.0
1001
REVIT
1002
{
1070
     2
1000
-2001160
1002
}
  0
LINE
  5
3D7
330
3C0
100
AcDbEntity
  8
D35160102
100
AcDbLine
 10
1.249073740215522
 20
0.2414239723947333
 30
0.0
 11
1.249897227423369
 21
0.2406720548444645
 31
0.0
1001
REVIT
1002
{
1070
     2
1000
-2001160
1002
}
  0
LINE
  5
3D8
330
3C0
100
AcDbEntity
  8
D35160102
100
AcDbLine
 10
1.249897227423369
 20
0.2406720548444645
 30
0.0
 11
1.250689987247082
 21
0.2398878080428823
 31
0.0
1001
REVIT
1002
{
1070
     2
1000
-2001160
1002
}
  0
LINE
  5
3D9
330
3C0
100
AcDbEntity
  8
D35160102
100
AcDbLine
 10
1.250689987247082
 20
0.2398878080428823
 30
0.0
 11
1.25145075144006
 21
0.2390724866175739
 31
0.0
1001
REVIT
1002
{
1070
     2
1000
-2001160
1002
}
  0
LINE
  5
3DA
330
3C0
100
AcDbEntity
  8
D35160102
100
AcDbLine
 10
1.25145075144006
 20
0.2390724866175739
 30
0.0
 11
1.252178302941882
 21
0.2382273949088911
 31
0.0
1001
REVIT
1002
{
1070
     2
1000
-2001160
1002
}
  0
LINE
  5
3DB
330
3C0
100
AcDbEntity
  8
D35160102
100
AcDbLine
 10
1.252178302941882
 20
0.2382273949088911
 30
0.0
 11
1.252871477825346
 21
0.2373538848832938
 31
0.0
1001
REVIT
1002
{
1070
     2
1000
-2001160
1002
}
  0
LINE
  5
3DC
330
3C0
100
AcDbEntity
  8
D35160102
100
AcDbLine
 10
1.252871477825346
 20
0.2373538848832938
 30
0.0
 11
1.25352916715851
 21
0.2364533539704822
 31
0.0
1001
REVIT
1002
{
1070
     2
1000
-2001160
1002
}
  0
LINE
  5
3DD
330
3C0
100
AcDbEntity
  8
D35160102
100
AcDbLine
 10
1.25352916715851
 20
0.2364533539704822
 30
0.0
 11
1.254150318778739
 21
0.2355272428278163
 31
0.0
1001
REVIT
1002
{
1070
     2
1000
-2001160
1002
}
  0
LINE
  5
3DE
330
3C0
100
AcDbEntity
  8
D35160102
100
AcDbLine
 10
1.254150318778739
 20
0.2355272428278163
 30
0.0
 11
1.254733938975947
 21
0.2345770330355612
 31
0.0
1001
REVIT
1002
{
1070
     2
1000
-2001160
1002
}
  0
LINE
  5
3DF
330
3C0
100
AcDbEntity
  8
D35160102
100
AcDbLine
 10
1.254733938975947
 20
0.2345770330355612
 30
0.0
 11
1.255279094082317
 21
0.2336042447266843
 31
0.0
1001
REVIT
1002
{
1070
     2
1000
-2001160
1002
}
  0
LINE
  5
3E0
330
3C0
100
AcDbEntity
  8
D35160102
100
AcDbLine
 10
1.255279094082317
 20
0.2336042447266843
 30
0.0
 11
1.255784911965969
 21
0.2326104341549664
 31
0.0
1001
REVIT
1002
{
1070
     2
1000
-2001160
1002
}
  0
LINE
  5
3E1
330
3C0
100
AcDbEntity
  8
D35160102
100
AcDbLine
 10
1.255784911965969
 20
0.2326104341549664
 30
0.0
 11
1.256250583426199
 21
0.2315971912053162
 31
0.0
1001
REVIT
1002
{
1070
     2
1000
-2001160
1002
}
  0
LINE
  5
3E2
330
3C0
100
AcDbEntity
  8
D35160102
100
AcDbLine
 10
1.256250583426199
 20
0.2315971912053162
 30
0.0
 11
1.256675363488002
 21
0.2305661368503075
 31
0.0
1001
REVIT
1002
{
1070
     2
1000
-2001160
1002
}
  0
LINE
  5
3E3
330
3C0
100
AcDbEntity
  8
D35160102
100
AcDbLine
 10
1.256675363488002
 20
0.2305661368503075
 30
0.0
 11
1.257058572593894
 21
0.2295189205569632
 31
0.0
1001
REVIT
1002
{
1070
     2
1000
-2001160
1002
}
  0
LINE
  5
3E4
330
3C0
100
AcDbEntity
  8
D35160102
100
AcDbLine
 10
1.257058572593894
 20
0.2295189205569632
 30
0.0
 11
1.257399597691057
 21
0.2284572176479571
 31
0.0
1001
REVIT
1002
{
1070
     2
1000
-2001160
1002
}
  0
LINE
  5
3E5
330
3C0
100
AcDbEntity
  8
D35160102
100
AcDbLine
 10
-1.257511219868717
 20
0.2280742980396088
 30
0.0
 11
-1.257185418185904
 21
0.2291407709400434
 31
0.0
1001
REVIT
1002
{
1070
     2
1000
-2001160
1002
}
  0
LINE
  5
3E6
330
3C0
100
AcDbEntity
  8
D35160102
100
AcDbLine
 10
-1.25681722956847
 20
0.2301933621835368
 30
0.0
 11
-1.256407243039662
 21
0.2312303878486385
 31
0.0
1001
REVIT
1002
{
1070
     2
1000
-2001160
1002
}
  0
LINE
  5
3E7
330
3C0
100
AcDbEntity
  8
D35160102
100
AcDbLine
 10
1.257399597691057
 20
0.2284572176479571
 30
0.0
 11
1.257697893212081
 21
0.2273827266214594
 31
0.0
1001
REVIT
1002
{
1070
     2
1000
-2001160
1002
}
  0
LINE
  5
3E8
330
3C0
100
AcDbEntity
  8
D35160102
100
AcDbLine
 10
-1.257794113403718
 20
0.2269956496113709
 30
0.0
 11
-1.257511219868717
 21
0.2280742980396088
 31
0.0
1001
REVIT
1002
{
1070
     2
1000
-2001160
1002
}
  0
LINE
  5
3E9
330
3C0
100
AcDbEntity
  8
D35160102
100
AcDbLine
 10
1.257697893212081
 20
0.2273827266214594
 30
0.0
 11
1.257794113404215
 21
0.2269956496113443
 31
0.0
1001
REVIT
1002
{
1070
     2
1000
-2001160
1002
}
  0
LINE
  5
3EA
330
3C0
100
AcDbEntity
  8
D35160102
100
AcDbLine
 10
-1.257185418185904
 20
0.2291407709400434
 30
0.0
 11
-1.25681722956847
 21
0.2301933621835368
 31
0.0
1001
REVIT
1002
{
1070
     2
1000
-2001160
1002
}
  0
LINE
  5
3EB
330
3C0
100
AcDbEntity
  8
D35160102
100
AcDbLine
 10
-1.256407243039662
 20
0.2312303878486385
 30
0.0
 11
-1.255956114490463
 21
0.2322501889155059
 31
0.0
1001
REVIT
1002
{
1070
     2
1000
-2001160
1002
}
  0
LINE
  5
3EC
330
3C0
100
AcDbEntity
  8
D35160102
100
AcDbLine
 10
-1.255956114490463
 20
0.2322501889155059
 30
0.0
 11
-1.25546456563032
 21
0.2332511339199778
 31
0.0
1001
REVIT
1002
{
1070
     2
1000
-2001160
1002
}
  0
LINE
  5
3ED
330
3C0
100
AcDbEntity
  8
D35160102
100
AcDbLine
 10
-1.25546456563032
 20
0.2332511339199778
 30
0.0
 11
-1.254933382832551
 21
0.2342316215635724
 31
0.0
1001
REVIT
1002
{
1070
     2
1000
-2001160
1002
}
  0
LINE
  5
3EE
330
3C0
100
AcDbEntity
  8
D35160102
100
AcDbLine
 10
-1.254363415876316
 20
0.2351900832752167
 30
0.0
 11
-1.253755576587162
 21
0.2361249857206324
 31
0.0
1001
REVIT
1002
{
1070
     2
1000
-2001160
1002
}
  0
LINE
  5
3EF
330
3C0
100
AcDbEntity
  8
D35160102
100
AcDbLine
 10
-1.253755576587162
 20
0.2361249857206324
 30
0.0
 11
-1.253110837378285
 21
0.237034833255346
 31
0.0
1001
REVIT
1002
{
1070
     2
1000
-2001160
1002
}
  0
LINE
  5
3F0
330
3C0
100
AcDbEntity
  8
D35160102
100
AcDbLine
 10
-1.253110837378285
 20
0.237034833255346
 30
0.0
 11
-1.252430229694881
 21
0.2379181703173878
 31
0.0
1001
REVIT
1002
{
1070
     2
1000
-2001160
1002
}
  0
LINE
  5
3F1
330
3C0
100
AcDbEntity
  8
D35160102
100
AcDbLine
 10
-1.252430229694881
 20
0.2379181703173878
 30
0.0
 11
-1.251714842364057
 21
0.2387735837558975
 31
0.0
1001
REVIT
1002
{
1070
     2
1000
-2001160
1002
}
  0
LINE
  5
3F2
330
3C0
100
AcDbEntity
  8
D35160102
100
AcDbLine
 10
-1.254933382832551
 20
0.2342316215635724
 30
0.0
 11
-1.254363415876316
 21
0.2351900832752167
 31
0.0
1001
REVIT
1002
{
1070
     2
1000
-2001160
1002
}
  0
LINE
  5
3F3
330
3C0
100
AcDbEntity
  8
D35160102
100
AcDbLine
 10
-1.249371714286853
 20
0.2411588339598753
 30
0.0
 11
-1.248529181460745
 21
0.2418893472183558
 31
0.0
1001
REVIT
1002
{
1070
     2
1000
-2001160
1002
}
  0
LINE
  5
3F4
330
3C0
100
AcDbEntity
  8
D35160102
100
AcDbLine
 10
-1.250965819852933
 20
0.239599705091849
 30
0.0
 11
-1.250184360437745
 21
0.2403952127073365
 31
0.0
1001
REVIT
1002
{
1070
     2
1000
-2001160
1002
}
  0
LINE
  5
3F5
330
3C0
100
AcDbEntity
  8
D35160102
100
AcDbLine
 10
-1.251714842364057
 20
0.2387735837558975
 30
0.0
 11
-1.250965819852933
 21
0.239599705091849
 31
0.0
1001
REVIT
1002
{
1070
     2
1000
-2001160
1002
}
  0
LINE
  5
3F6
330
3C0
100
AcDbEntity
  8
D35160102
100
AcDbLine
 10
-1.250184360437745
 20
0.2403952127073365
 30
0.0
 11
-1.249371714286853
 21
0.2411588339598753
 31
0.0
1001
REVIT
1002
{
1070
     2
1000
-2001160
1002
}
  0
LINE
  5
3F7
330
3C0
100
AcDbEntity
  8
D35160102
100
AcDbLine
 10
-1.248529181460745
 20
0.2418893472183558
 30
0.0
 11
-1.247658109832212
 21
0.2425855838174002
 31
0.0
1001
REVIT
1002
{
1070
     2
1000
-2001160
1002
}
  0
LINE
  5
3F8
330
3C0
100
AcDbEntity
  8
D35160102
100
AcDbLine
 10
-1.247658109832212
 20
0.2425855838174002
 30
0.0
 11
-1.246759892930039
 21
0.2432464299269736
 31
0.0
1001
REVIT
1002
{
1070
     2
1000
-2001160
1002
}
  0
LINE
  5
3F9
330
3C0
100
AcDbEntity
  8
D35160102
100
AcDbLine
 10
-1.246759892930039
 20
0.2432464299269736
 30
0.0
 11
-1.245835967709662
 21
0.243870828334272
 31
0.0
1001
REVIT
1002
{
1070
     2
1000
-2001160
1002
}
  0
LINE
  5
3FA
330
3C0
100
AcDbEntity
  8
D35160102
100
AcDbLine
 10
-1.245835967709662
 20
0.243870828334272
 30
0.0
 11
-1.24488781225434
 21
0.2444577801350429
 31
0.0
1001
REVIT
1002
{
1070
     2
1000
-2001160
1002
}
  0
LINE
  5
3FB
330
3C0
100
AcDbEntity
  8
D35160102
100
AcDbLine
 10
-1.24488781225434
 20
0.2444577801350429
 30
0.0
 11
-1.243916943410537
 21
0.2450063463316145
 31
0.0
1001
REVIT
1002
{
1070
     2
1000
-2001160
1002
}
  0
LINE
  5
3FC
330
3C0
100
AcDbEntity
  8
D35160102
100
AcDbLine
 10
-1.24191331214148
 20
0.2459848743693169
 30
0.0
 11
-1.240883755098836
 21
0.2464132707743309
 31
0.0
1001
REVIT
1002
{
1070
     2
1000
-2001160
1002
}
  0
LINE
  5
3FD
330
3C0
100
AcDbEntity
  8
D35160102
100
AcDbLine
 10
-1.242924914361299
 20
0.2455156493350933
 30
0.0
 11
-1.24191331214148
 21
0.2459848743693169
 31
0.0
1001
REVIT
1002
{
1070
     2
1000
-2001160
1002
}
  0
LINE
  5
3FE
330
3C0
100
AcDbEntity
  8
D35160102
100
AcDbLine
 10
-1.243916943410537
 20
0.2450063463316145
 30
0.0
 11
-1.242924914361299
 21
0.2455156493350933
 31
0.0
1001
REVIT
1002
{
1070
     2
1000
-2001160
1002
}
  0
LINE
  5
3FF
330
3C0
100
AcDbEntity
  8
D35160102
100
AcDbLine
 10
-1.23983789030501
 20
0.2468001532072729
 30
0.0
 11
-1.238777390920561
 21
0.2471449027387766
 31
0.0
1001
REVIT
1002
{
1070
     2
1000
-2001160
1002
}
  0
LINE
  5
400
330
3C0
100
AcDbEntity
  8
D35160102
100
AcDbLine
 10
-1.238777390920561
 20
0.2471449027387766
 30
0.0
 11
-1.237703953518282
 21
0.2474469678431394
 31
0.0
1001
REVIT
1002
{
1070
     2
1000
-2001160
1002
}
  0
LINE
  5
401
330
3C0
100
AcDbEntity
  8
D35160102
100
AcDbLine
 10
-1.240883755098836
 20
0.2464132707743309
 30
0.0
 11
-1.23983789030501
 21
0.2468001532072729
 31
0.0
1001
REVIT
1002
{
1070
     2
1000
-2001160
1002
}
  0
LINE
  5
402
330
3C0
100
AcDbEntity
  8
D35160102
100
AcDbLine
 10
-1.237703953518282
 20
0.2474469678431394
 30
0.0
 11
-1.236619295369026
 21
0.2477058652806278
 31
0.0
1001
REVIT
1002
{
1070
     2
1000
-2001160
1002
}
  0
LINE
  5
403
330
3C0
100
AcDbEntity
  8
D35160102
100
AcDbLine
 10
-1.234423272891031
 20
0.2480925701539589
 30
0.0
 11
-1.233315421729797
 21
0.2482197589444958
 31
0.0
1001
REVIT
1002
{
1070
     2
1000
-2001160
1002
}
  0
LINE
  5
404
330
3C0
100
AcDbEntity
  8
D35160102
100
AcDbLine
 10
-1.235525151694451
 20
0.2479211808705721
 30
0.0
 11
-1.234423272891031
 21
0.2480925701539589
 31
0.0
1001
REVIT
1002
{
1070
     2
1000
-2001160
1002
}
  0
LINE
  5
405
330
3C0
100
AcDbEntity
  8
D35160102
100
AcDbLine
 10
-1.236619295369026
 20
0.2477058652806278
 30
0.0
 11
-1.235525151694451
 21
0.2479211808705721
 31
0.0
1001
REVIT
1002
{
1070
     2
1000
-2001160
1002
}
  0
LINE
  5
406
330
3C0
100
AcDbEntity
  8
D35160102
100
AcDbLine
 10
-1.231088898355159
 20
0.2483407921841704
 30
0.0
 11
-1.23069005152091
 21
0.2483436452429224
 31
0.0
1001
REVIT
1002
{
1070
     2
1000
-2001160
1002
}
  0
LINE
  5
407
330
3C0
100
AcDbEntity
  8
D35160102
100
AcDbLine
 10
-1.233315421729797
 20
0.2482197589444958
 30
0.0
 11
-1.232203370536279
 21
0.2483025437672528
 31
0.0
1001
REVIT
1002
{
1070
     2
1000
-2001160
1002
}
  0
LINE
  5
408
330
3C0
100
AcDbEntity
  8
D35160102
100
AcDbLine
 10
-1.232203370536279
 20
0.2483025437672528
 30
0.0
 11
-1.231088898355159
 21
0.2483407921841704
 31
0.0
1001
REVIT
1002
{
1070
     2
1000
-2001160
1002
}
  0
LINE
  5
409
330
3C0
100
AcDbEntity
  8
D35160102
100
AcDbLine
 10
1.221839711209896
 20
0.2483436452428957
 30
0.0
 11
-1.218373916646514
 21
0.2483436452429197
 31
0.0
1001
REVIT
1002
{
1070
     2
1000
-2001160
1002
}
  0
LINE
  5
40A
330
3C0
100
AcDbEntity
  8
D35160102
100
AcDbLine
 10
-1.257794113403718
 20
0.2269956496113709
 30
0.0
 11
-1.312499999999755
 21
0.0000000000011937
 31
0.0
1001
REVIT
1002
{
1070
     2
1000
-2001160
1002
}
  0
LINE
  5
40B
330
3C0
100
AcDbEntity
  8
D35160102
100
AcDbLine
 10
0.447537372509954
 20
7.961160529100392
 30
0.0
 11
0.3253032872711241
 21
7.961160529100392
 31
0.0
1001
REVIT
1002
{
1070
     2
1000
-2001160
1002
}
  0
LINE
  5
40C
330
3C0
100
AcDbEntity
  8
D35160102
100
AcDbLine
 10
1.312500000000248
 20
0.0000000000011671
 30
0.0
 11
1.257794113404215
 21
0.2269956496113443
 31
0.0
1001
REVIT
1002
{
1070
     2
1000
-2001160
1002
}
  0
LINE
  5
40D
330
3C0
100
AcDbEntity
  8
D35160102
100
AcDbLine
 10
-0.3277857286551313
 20
7.961160529100392
 30
0.0
 11
-0.4357765640130355
 21
7.961160529100392
 31
0.0
1001
REVIT
1002
{
1070
     2
1000
-2001160
1002
}
  0
LINE
  5
40E
330
3C0
100
AcDbEntity
  8
D35160102
100
AcDbLine
 10
0.2365788415113261
 20
7.388198532551319
 30
0.0
 11
0.3482310396944576
 21
8.099159325678099
 31
0.0
1001
REVIT
1002
{
1070
     2
1000
-2001160
1002
}
  0
LINE
  5
40F
330
3C0
100
AcDbEntity
  8
D35160102
100
AcDbLine
 10
-0.3482310396937968
 20
8.099159325678106
 30
0.0
 11
-0.236581683096785
 21
7.388216626743325
 31
0.0
1001
REVIT
1002
{
1070
     2
1000
-2001160
1002
}
  0
LINE
  5
410
330
3C0
100
AcDbEntity
  8
D35160102
100
AcDbLine
 10
0.664101794673332
 20
5.835285532911456
 30
0.0
 11
0.3754916700849308
 21
6.354833777628768
 31
0.0
1001
REVIT
1002
{
1070
     2
1000
-2001160
1002
}
  0
LINE
  5
411
330
3C0
100
AcDbEntity
  8
D35160102
100
AcDbLine
 10
-0.3754916700842867
 20
6.354833777628795
 30
0.0
 11
-0.6641017938317186
 21
5.835285534425473
 31
0.0
1001
REVIT
1002
{
1070
     2
1000
-2001160
1002
}
  0
LINE
  5
412
330
3C0
100
AcDbEntity
  8
D35160102
100
AcDbLine
 10
0.3609360168791559
 20
6.369074246648448
 30
0.0
 11
-0.3609360168785218
 21
6.369074246648458
 31
0.0
1001
REVIT
1002
{
1070
     2
1000
-2001160
1002
}
  0
LINE
  5
413
330
3C0
100
AcDbEntity
  8
D35160102
100
AcDbLine
 10
-0.4409830992508092
 20
4.97361332084053
 30
0.0
 11
-0.3867840186263482
 21
4.842236238036135
 31
0.0
1001
REVIT
1002
{
1070
     2
1000
-2001160
1002
}
  0
SPLINE
  5
414
330
3C0
100
AcDbEntity
  8
D35160102
100
AcDbSpline
210
0.0
220
0.0
230
1.0
 70
     8
 71
     3
 72
     9
 73
     5
 74
     0
 42
0.000000001
 43
0.0000000001
 40
-1.0
 40
-1.0
 40
-1.0
 40
-1.0
 40
-0.5
 40
0.0
 40
0.0
 40
0.0
 40
0.0
 10
0.4490464833330752
 20
2.882447315415427
 30
0.0
 10
0.4532767212896354
 20
2.453085505147346
 30
0.0
 10
0.4798650102867005
 20
1.595104735804336
 30
0.0
 10
0.5467063027806543
 20
0.7463517670998132
 30
0.0
 10
0.5923903189254124
 20
0.3261939176308876
 30
0.0
1001
REVIT
1002
{
1070
     2
1000
-2001160
1002
}
  0
LINE
  5
415
330
3C0
100
AcDbEntity
  8
D35160102
100
AcDbLine
 10
0.3867840186269417
 20
4.842236238036126
 30
0.0
 11
0.4409830992514054
 21
4.97361332084052
 31
0.0
1001
REVIT
1002
{
1070
     2
1000
-2001160
1002
}
  0
SPLINE
  5
416
330
3C0
100
AcDbEntity
  8
D35160102
100
AcDbSpline
210
0.0
220
0.0
230
1.0
 70
     8
 71
     3
 72
     9
 73
     5
 74
     0
 42
0.000000001
 43
0.0000000001
 40
-1.0
 40
-1.0
 40
-1.0
 40
-1.0
 40
-0.5
 40
0.0
 40
0.0
 40
0.0
 40
0.0
 10
0.8980929666662767
 20
2.882447315415427
 30
0.0
 10
0.9047965593403086
 20
2.453085505147346
 30
0.0
 10
0.95931057199587
 20
1.595104735804336
 30
0.0
 10
1.096008385955817
 20
0.7463517670998132
 30
0.0
 10
1.184780637850986
 20
0.3261939176308876
 30
0.0
1001
REVIT
1002
{
1070
     2
1000
-2001160
1002
}
  0
SPLINE
  5
417
330
3C0
100
AcDbEntity
  8
D35160102
100
AcDbSpline
210
0.0
220
0.0
230
1.0
 70
     8
 71
     3
 72
     9
 73
     5
 74
     0
 42
0.000000001
 43
0.0000000001
 40
-1.0
 40
-1.0
 40
-1.0
 40
-1.0
 40
-0.5
 40
0.0
 40
0.0
 40
0.0
 40
0.0
 10
-0.4490850819149347
 20
2.882447315415427
 30
0.0
 10
-0.4515576584998399
 20
2.453085915890725
 30
0.0
 10
-0.4794762173699367
 20
1.595105554266567
 30
0.0
 10
-0.5493141856740182
 20
0.7463521692914814
 30
0.0
 10
-0.5923903189240144
 20
0.3261939176308876
 30
0.0
1001
REVIT
1002
{
1070
     2
1000
-2001160
1002
}
  0
LINE
  5
418
330
3C0
100
AcDbEntity
  8
D35160102
100
AcDbLine
 10
1.0115125573212
 20
6.116197277401688
 30
0.0
 11
0.5080651199678013
 21
6.116197277401688
 31
0.0
1001
REVIT
1002
{
1070
     2
1000
-2001160
1002
}
  0
SPLINE
  5
419
330
3C0
100
AcDbEntity
  8
D35160102
100
AcDbSpline
210
0.0
220
0.0
230
1.0
 70
     8
 71
     3
 72
     9
 73
     5
 74
     0
 42
0.000000001
 43
0.0000000001
 40
-1.0
 40
-1.0
 40
-1.0
 40
-1.0
 40
-0.5
 40
0.0
 40
0.0
 40
0.0
 40
0.0
 10
1.0115125573212
 20
6.116197277401688
 30
0.0
 10
0.9655423720108515
 20
5.578537650111862
 30
0.0
 10
0.9007347111751707
 20
4.501047365661575
 30
0.0
 10
0.8899766793800198
 20
3.42183164742505
 30
0.0
 10
0.8980929666663135
 20
2.882447315415643
 30
0.0
1001
REVIT
1002
{
1070
     2
1000
-2001160
1002
}
  0
SPLINE
  5
41A
330
3C0
100
AcDbEntity
  8
D35160102
100
AcDbSpline
210
0.0
220
0.0
230
1.0
 70
     8
 71
     3
 72
     9
 73
     5
 74
     0
 42
0.000000001
 43
0.0000000001
 40
-1.0
 40
-1.0
 40
-1.0
 40
-1.0
 40
-0.5
 40
0.0
 40
0.0
 40
0.0
 40
0.0
 10
-0.8981009594238912
 20
2.882447315415427
 30
0.0
 10
-0.9048041677671946
 20
2.453085915910726
 30
0.0
 10
-0.9593164611220693
 20
1.595105554306423
 30
0.0
 10
-1.096010619009295
 20
0.7463521693110661
 30
0.0
 10
-1.184780637850034
 20
0.3261939176308871
 30
0.0
1001
REVIT
1002
{
1070
     2
1000
-2001160
1002
}
  0
SPLINE
  5
41B
330
3C0
100
AcDbEntity
  8
D35160102
100
AcDbSpline
210
0.0
220
0.0
230
1.0
 70
     8
 71
     3
 72
     9
 73
     5
 74
     0
 42
0.000000001
 43
0.0000000001
 40
0.0
 40
0.0
 40
0.0
 40
0.0
 40
0.5
 40
1.0
 40
1.0
 40
1.0
 40
1.0
 10
0.7903483113124032
 20
5.062033549728726
 30
0.0
 10
0.7411699440052577
 20
4.993308650665437
 30
0.0
 10
0.6318281071274856
 20
4.843417885213972
 30
0.0
 10
0.5155298717990996
 20
4.668627478610971
 30
0.0
 10
0.4584723018880649
 20
4.575004053325293
 30
0.0
1001
REVIT
1002
{
1070
     2
1000
-2001160
1002
}
  0
SPLINE
  5
41C
330
3C0
100
AcDbEntity
  8
D35160102
100
AcDbSpline
210
0.0
220
0.0
230
1.0
 70
     8
 71
     3
 72
     9
 73
     5
 74
     0
 42
0.000000001
 43
0.0000000001
 40
-1.0
 40
-1.0
 40
-1.0
 40
-1.0
 40
-0.5
 40
0.0
 40
0.0
 40
0.0
 40
0.0
 10
0.4584723018880545
 20
4.575004053325293
 30
0.0
 10
0.4531678713020019
 20
4.293039115016298
 30
0.0
 10
0.4463572519816105
 20
3.728856492118505
 30
0.0
 10
0.4469184613388104
 20
3.164543062245273
 30
0.0
 10
0.4490464833330802
 20
2.882447315415642
 30
0.0
1001
REVIT
1002
{
1070
     2
1000
-2001160
1002
}
  0
ELLIPSE
  5
41D
330
3C0
100
AcDbEntity
  8
D35160102
100
AcDbEllipse
 10
0.7570234335312756
 20
3.539951530026156
 30
0.0
 11
2.67727359113555
 21
4.826207673910701
 31
0.0
210
0.0
220
0.0
230
1.0
 40
0.1396100231585189
 41
1.432600295382489
 42
1.435166414149466
1001
REVIT
1002
{
1070
     2
1000
-2001160
1002
}
  0
SPLINE
  5
41E
330
3C0
100
AcDbEntity
  8
D35160102
100
AcDbSpline
210
0.0
220
0.0
230
1.0
 70
     8
 71
     3
 72
     9
 73
     5
 74
     0
 42
0.000000001
 43
0.0000000001
 40
0.0
 40
0.0
 40
0.0
 40
0.0
 40
0.5
 40
1.0
 40
1.0
 40
1.0
 40
1.0
 10
-0.4585096457751199
 20
4.575068394005149
 30
0.0
 10
-0.5155571337589658
 20
4.66868638933574
 30
0.0
 10
-0.631840073504586
 20
4.843469161320684
 30
0.0
 10
-0.741171766288347
 20
4.993358737831893
 30
0.0
 10
-0.7903440945777719
 20
5.062084652424577
 30
0.0
1001
REVIT
1002
{
1070
     2
1000
-2001160
1002
}
  0
SPLINE
  5
41F
330
3C0
100
AcDbEntity
  8
D35160102
100
AcDbSpline
210
0.0
220
0.0
230
1.0
 70
     8
 71
     3
 72
    10
 73
     6
 74
     0
 42
0.000000001
 43
0.0000000001
 40
0.0
 40
0.0
 40
0.0
 40
0.0
 40
0.3333333333333333
 40
0.6666666666666666
 40
1.0
 40
1.0
 40
1.0
 40
1.0
 10
0.451430406789069
 20
4.562866239298834
 30
0.0
 10
0.3547017114759421
 20
4.57150923970608
 30
0.0
 10
0.1540348980203532
 20
4.583032538369552
 30
0.0
 10
-0.1549239364533201
 20
4.582991478286135
 30
0.0
 10
-0.3550623040246017
 20
4.571491230459563
 30
0.0
 10
-0.4514304067884634
 20
4.562866239298863
 30
0.0
1001
REVIT
1002
{
1070
     2
1000
-2001160
1002
}
  0
SPLINE
  5
420
330
3C0
100
AcDbEntity
  8
D35160102
100
AcDbSpline
210
0.0
220
0.0
230
1.0
 70
     8
 71
     3
 72
     9
 73
     5
 74
     0
 42
0.000000001
 43
0.0000000001
 40
-1.0
 40
-1.0
 40
-1.0
 40
-1.0
 40
-0.5
 40
0.0
 40
0.0
 40
0.0
 40
0.0
 10
-0.4585096457751199
 20
4.575068394005149
 30
0.0
 10
-0.4532585054355646
 20
4.293089093001084
 30
0.0
 10
-0.4463770231887687
 20
3.728881364005485
 30
0.0
 10
-0.4469441539213244
 20
3.164550130132799
 30
0.0
 10
-0.449085081914947
 20
2.882447315415642
 30
0.0
1001
REVIT
1002
{
1070
     2
1000
-2001160
1002
}
  0
ELLIPSE
  5
421
330
3C0
100
AcDbEntity
  8
D35160102
100
AcDbEllipse
 10
-0.7642231835073046
 20
3.535971468207808
 30
0.0
 11
-2.676230128680345
 21
4.826691403498476
 31
0.0
210
0.0
220
0.0
230
1.0
 40
0.1410887371137988
 41
4.848048051828766
 42
4.85062781585624
1001
REVIT
1002
{
1070
     2
1000
-2001160
1002
}
  0
LINE
  5
422
330
3C0
100
AcDbEntity
  8
D35160102
100
AcDbLine
 10
-1.192578901109778
 20
0.3261939176309052
 30
0.0
 11
1.192578901110278
 21
0.3261939176308807
 31
0.0
1001
REVIT
1002
{
1070
     2
1000
-2001160
1002
}
  0
LINE
  5
423
330
3C0
100
AcDbEntity
  8
D35160102
100
AcDbLine
 10
-1.011517111133801
 20
6.116197277401688
 30
0.0
 11
-0.5082355513141382
 21
6.116197277401688
 31
0.0
1001
REVIT
1002
{
1070
     2
1000
-2001160
1002
}
  0
SPLINE
  5
424
330
3C0
100
AcDbEntity
  8
D35160102
100
AcDbSpline
210
0.0
220
0.0
230
1.0
 70
     8
 71
     3
 72
     9
 73
     5
 74
     0
 42
0.000000001
 43
0.0000000001
 40
-1.0
 40
-1.0
 40
-1.0
 40
-1.0
 40
-0.5
 40
0.0
 40
0.0
 40
0.0
 40
0.0
 10
-1.011517111133758
 20
6.116197277401688
 30
0.0
 10
-0.9655471932095275
 20
5.578524317542246
 30
0.0
 10
-0.9007416520141912
 20
4.501020606462272
 30
0.0
 10
-0.8899850719155722
 20
3.421818269487169
 30
0.0
 10
-0.8981009594238727
 20
2.882447315415642
 30
0.0
1001
REVIT
1002
{
1070
     2
1000
-2001160
1002
}
  0
SPLINE
  5
425
330
3C0
100
AcDbEntity
  8
D35160102
100
AcDbSpline
210
0.0
220
0.0
230
1.0
 70
     8
 71
     3
 72
     9
 73
     5
 74
     0
 42
0.000000001
 43
0.0000000001
 40
-1.0
 40
-1.0
 40
-1.0
 40
-1.0
 40
-0.5
 40
0.0
 40
0.0
 40
0.0
 40
0.0
 10
0.5907199770701326
 20
7.813875660534091
 30
0.0
 10
0.5500173611187011
 20
7.680218853656485
 30
0.0
 10
0.4680991423960607
 20
7.413025437950855
 30
0.0
 10
0.3853761925221763
 20
7.146072418344383
 30
0.0
 10
0.3439054761964285
 20
7.012656007565936
 30
0.0
1001
REVIT
1002
{
1070
     2
1000
-2001160
1002
}
  0
SPLINE
  5
426
330
3C0
100
AcDbEntity
  8
D35160102
100
AcDbSpline
210
0.0
220
0.0
230
1.0
 70
     8
 71
     3
 72
    12
 73
     8
 74
     0
 42
0.000000001
 43
0.0000000001
 40
0.0
 40
0.0
 40
0.0
 40
0.0
 40
0.2
 40
0.4
 40
0.55
 40
0.7
 40
1.0
 40
1.0
 40
1.0
 40
1.0
 10
0.2215260203916301
 20
7.332460353685489
 30
0.0
 10
0.2146260989996302
 20
7.314411696030995
 30
0.0
 10
0.1971242849258403
 20
7.280785622735934
 30
0.0
 10
0.1626504088946396
 20
7.240002648612168
 30
0.0
 10
0.124149226278313
 20
7.210469712261866
 30
0.0
 10
0.0722031870562053
 20
7.184180925402245
 30
0.0
 10
0.0295966339550557
 20
7.175966914142573
 30
0.0
 10
0.0000000000003196
 20
7.175855277572875
 30
0.0
1001
REVIT
1002
{
1070
     2
1000
-2001160
1002
}
  0
LINE
  5
427
330
3C0
100
AcDbEntity
  8
D35160102
100
AcDbLine
 10
-1.312499999999753
 20
0.0000000000011937
 30
0.0
 11
1.312500000000247
 21
0.0000000000011667
 31
0.0
1001
REVIT
1002
{
1070
     2
1000
-2001160
1002
}
  0
LINE
  5
428
330
3C0
100
AcDbEntity
  8
D35160102
100
AcDbLine
 10
1.01440088716494
 20
6.314779894272708
 30
0.0
 11
1.01440088716494
 21
6.149843616171565
 31
0.0
1001
REVIT
1002
{
1070
     2
1000
-2001160
1002
}
  0
LINE
  5
429
330
3C0
100
AcDbEntity
  8
D35160102
100
AcDbLine
 10
0.2215260203916301
 20
7.332460353685489
 30
0.0
 11
0.196797122873959
 21
7.172515520277984
 31
0.0
1001
REVIT
1002
{
1070
     2
1000
-2001160
1002
}
  0
LINE
  5
42A
330
3C0
100
AcDbEntity
  8
D35160102
100
AcDbLine
 10
0.196797122873959
 20
7.172515520277984
 30
0.0
 11
0.1719527380981837
 21
7.012656007565937
 31
0.0
1001
REVIT
1002
{
1070
     2
1000
-2001160
1002
}
  0
SPLINE
  5
42B
330
3C0
100
AcDbEntity
  8
D35160102
100
AcDbSpline
210
0.0
220
0.0
230
1.0
 70
     8
 71
     3
 72
     8
 73
     4
 74
     0
 42
0.000000001
 43
0.0000000001
 40
0.5
 40
0.5
 40
0.5
 40
0.5
 40
1.0
 40
1.0
 40
1.0
 40
1.0
 10
0.2372041444579328
 20
7.392383720689921
 30
0.0
 10
0.2341074694967199
 20
7.372599177095753
 30
0.0
 10
0.2288524472949642
 20
7.352624721427607
 30
0.0
 10
0.2215260203916301
 20
7.332460353685489
 30
0.0
1001
REVIT
1002
{
1070
     2
1000
-2001160
1002
}
  0
LINE
  5
42C
330
3C0
100
AcDbEntity
  8
D35160102
100
AcDbLine
 10
0.5072004435824013
 20
6.314779894272708
 30
0.0
 11
0.5072004435824013
 21
6.149843616171565
 31
0.0
1001
REVIT
1002
{
1070
     2
1000
-2001160
1002
}
  0
LINE
  5
42D
330
3C0
100
AcDbEntity
  8
D35160102
100
AcDbLine
 10
-0.1969232006904194
 20
7.17271088771935
 30
0.0
 11
-0.1720525747313457
 21
7.012656007565937
 31
0.0
1001
REVIT
1002
{
1070
     2
1000
-2001160
1002
}
  0
SPLINE
  5
42E
330
3C0
100
AcDbEntity
  8
D35160102
100
AcDbSpline
210
0.0
220
0.0
230
1.0
 70
     8
 71
     3
 72
    13
 73
     9
 74
     0
 42
0.000000001
 43
0.0000000001
 40
0.0
 40
0.0
 40
0.0
 40
0.0
 40
0.2
 40
0.4
 40
0.55
 40
0.625
 40
0.7
 40
1.0
 40
1.0
 40
1.0
 40
1.0
 10
0.0000000000003196
 20
7.175855277572875
 30
0.0
 10
-0.0197622130079685
 20
7.175930261848847
 30
0.0
 10
-0.0577296237869016
 20
7.180713494198867
 30
0.0
 10
-0.1078195331453613
 20
7.20041090718199
 30
0.0
 10
-0.1420449862020888
 20
7.223734108295784
 30
0.0
 10
-0.1634800424807675
 20
7.242868468044741
 30
0.0
 10
-0.193087878302152
 20
7.274939712281299
 30
0.0
 10
-0.2113570687504343
 20
7.305725943001177
 30
0.0
 10
-0.2216780673728335
 20
7.332853935094046
 30
0.0
1001
REVIT
1002
{
1070
     2
1000
-2001160
1002
}
  0
LINE
  5
42F
330
3C0
100
AcDbEntity
  8
D35160102
100
AcDbLine
 10
1.01440088716494
 20
6.314779894272708
 30
0.0
 11
0.3997422025095838
 21
6.314779894272708
 31
0.0
1001
REVIT
1002
{
1070
     2
1000
-2001160
1002
}
  0
LINE
  5
430
330
3C0
100
AcDbEntity
  8
D35160102
100
AcDbLine
 10
-0.2216780673728336
 20
7.332853935094045
 30
0.0
 11
-0.1969232006904194
 21
7.17271088771935
 31
0.0
1001
REVIT
1002
{
1070
     2
1000
-2001160
1002
}
  0
LINE
  5
431
330
3C0
100
AcDbEntity
  8
D35160102
100
AcDbLine
 10
-0.3996667525777924
 20
6.314779894272708
 30
0.0
 11
-1.014405358503015
 21
6.314779894272708
 31
0.0
1001
REVIT
1002
{
1070
     2
1000
-2001160
1002
}
  0
SPLINE
  5
432
330
3C0
100
AcDbEntity
  8
D35160102
100
AcDbSpline
210
0.0
220
0.0
230
1.0
 70
     8
 71
     3
 72
     8
 73
     4
 74
     0
 42
0.000000001
 43
0.0000000001
 40
0.0
 40
0.0
 40
0.0
 40
0.0
 40
0.5
 40
0.5
 40
0.5
 40
0.5
 10
-0.2216780673728336
 20
7.332853935094045
 30
0.0
 10
-0.2289236982821148
 20
7.352874099613631
 30
0.0
 10
-0.2341264770762532
 20
7.372708645584268
 30
0.0
 10
-0.2372007119237005
 20
7.39235757300596
 30
0.0
1001
REVIT
1002
{
1070
     2
1000
-2001160
1002
}
  0
LINE
  5
433
330
3C0
100
AcDbEntity
  8
D35160102
100
AcDbLine
 10
-1.014405358503017
 20
6.149843616171565
 30
0.0
 11
-0.4896004527400002
 21
6.149843616171565
 31
0.0
1001
REVIT
1002
{
1070
     2
1000
-2001160
1002
}
  0
LINE
  5
434
330
3C0
100
AcDbEntity
  8
D35160102
100
AcDbLine
 10
0.4890129750482008
 20
6.149843616171565
 30
0.0
 11
1.014400887164938
 21
6.149843616171565
 31
0.0
1001
REVIT
1002
{
1070
     2
1000
-2001160
1002
}
  0
LINE
  5
435
330
3C0
100
AcDbEntity
  8
D35160102
100
AcDbLine
 10
-0.5072236741310594
 20
6.314779894272708
 30
0.0
 11
-0.5072236741310594
 21
6.149843616171565
 31
0.0
1001
REVIT
1002
{
1070
     2
1000
-2001160
1002
}
  0
LINE
  5
436
330
3C0
100
AcDbEntity
  8
D35160102
100
AcDbLine
 10
0.3439054761964037
 20
7.012656007565945
 30
0.0
 11
0.3439054761964067
 21
6.970829345541154
 31
0.0
1001
REVIT
1002
{
1070
     2
1000
-2001160
1002
}
  0
LINE
  5
437
330
3C0
100
AcDbEntity
  8
D35160102
100
AcDbLine
 10
-1.014405358503015
 20
6.314779894272706
 30
0.0
 11
-1.014405358503015
 21
6.149843616171565
 31
0.0
1001
REVIT
1002
{
1070
     2
1000
-2001160
1002
}
  0
SPLINE
  5
438
330
3C0
100
AcDbEntity
  8
D35160102
100
AcDbSpline
210
0.0
220
0.0
230
1.0
 70
     8
 71
     3
 72
     9
 73
     5
 74
     0
 42
0.000000001
 43
0.0000000001
 40
-1.0
 40
-1.0
 40
-1.0
 40
-1.0
 40
-0.5
 40
0.0
 40
0.0
 40
0.0
 40
0.0
 10
-0.5907396827255628
 20
7.813875660534089
 30
0.0
 10
-0.5500371378990704
 20
7.680213289501954
 30
0.0
 10
-0.4681211688970678
 20
7.413014309641793
 30
0.0
 10
-0.385404516174709
 20
7.146066854189851
 30
0.0
 10
-0.3439378511758705
 20
7.012656007565935
 30
0.0
1001
REVIT
1002
{
1070
     2
1000
-2001160
1002
}
  0
SPLINE
  5
439
330
3C0
100
AcDbEntity
  8
D35160102
100
AcDbSpline
210
0.0
220
0.0
230
1.0
 70
     8
 71
     3
 72
     9
 73
     5
 74
     0
 42
0.000000001
 43
0.0000000001
 40
-1.0
 40
-1.0
 40
-1.0
 40
-1.0
 40
-0.5
 40
0.0
 40
0.0
 40
0.0
 40
0.0
 10
0.3439054761964345
 20
6.970829345541154
 30
0.0
 10
0.4559128154469664
 20
6.862427707846279
 30
0.0
 10
0.6811326528504413
 20
6.644684494939998
 30
0.0
 10
0.9039441712503744
 20
6.425061407000651
 30
0.0
 10
1.014400887164945
 20
6.314779894272711
 30
0.0
1001
REVIT
1002
{
1070
     2
1000
-2001160
1002
}
  0
LINE
  5
43A
330
3C0
100
AcDbEntity
  8
D35160102
100
AcDbLine
 10
0.1719527380981785
 20
7.012656007565945
 30
0.0
 11
0.1719527380981875
 21
6.970829345541154
 31
0.0
1001
REVIT
1002
{
1070
     2
1000
-2001160
1002
}
  0
SPLINE
  5
43B
330
3C0
100
AcDbEntity
  8
D35160102
100
AcDbSpline
210
0.0
220
0.0
230
1.0
 70
     8
 71
     3
 72
     9
 73
     5
 74
     0
 42
0.000000001
 43
0.0000000001
 40
-1.0
 40
-1.0
 40
-1.0
 40
-1.0
 40
-0.5
 40
0.0
 40
0.0
 40
0.0
 40
0.0
 10
0.1719527380981931
 20
6.970829345541154
 30
0.0
 10
0.2243258133658739
 20
6.862427707846276
 30
0.0
 10
0.3405403284495143
 20
6.644684494939996
 30
0.0
 10
0.4556546759340456
 20
6.425061407000649
 30
0.0
 10
0.5072004435824028
 20
6.31477989427271
 30
0.0
1001
REVIT
1002
{
1070
     2
1000
-2001160
1002
}
  0
LINE
  5
43C
330
3C0
100
AcDbEntity
  8
D35160102
100
AcDbLine
 10
-0.3439378511758479
 20
7.012656007565945
 30
0.0
 11
0.3439054761964019
 21
7.012656007565945
 31
0.0
1001
REVIT
1002
{
1070
     2
1000
-2001160
1002
}
  0
LINE
  5
43D
330
3C0
100
AcDbEntity
  8
D35160102
100
AcDbLine
 10
-0.1720525747313261
 20
7.012656007565945
 30
0.0
 11
-0.1720525747313194
 21
6.970829345541154
 31
0.0
1001
REVIT
1002
{
1070
     2
1000
-2001160
1002
}
  0
SPLINE
  5
43E
330
3C0
100
AcDbEntity
  8
D35160102
100
AcDbSpline
210
0.0
220
0.0
230
1.0
 70
     8
 71
     3
 72
     9
 73
     5
 74
     0
 42
0.000000001
 43
0.0000000001
 40
-1.0
 40
-1.0
 40
-1.0
 40
-1.0
 40
-0.5
 40
0.0
 40
0.0
 40
0.0
 40
0.0
 10
-0.1720525747313404
 20
6.970829345541154
 30
0.0
 10
-0.2312047928947595
 20
6.863184504464314
 30
0.0
 10
-0.3398975300445548
 20
6.646198088176067
 30
0.0
 10
-0.4480098945172538
 20
6.425818203618685
 30
0.0
 10
-0.5072236741310615
 20
6.314779894272711
 30
0.0
1001
REVIT
1002
{
1070
     2
1000
-2001160
1002
}
  0
LINE
  5
43F
330
3C0
100
AcDbEntity
  8
D35160102
100
AcDbLine
 10
-0.3439378511758772
 20
6.970829345541154
 30
0.0
 11
0.3439054761964327
 21
6.970829345541154
 31
0.0
1001
REVIT
1002
{
1070
     2
1000
-2001160
1002
}
  0
LINE
  5
440
330
3C0
100
AcDbEntity
  8
D35160102
100
AcDbLine
 10
-0.3439378511758458
 20
7.012656007565944
 30
0.0
 11
-0.3439378511758488
 21
6.970829345541153
 31
0.0
1001
REVIT
1002
{
1070
     2
1000
-2001160
1002
}
  0
SPLINE
  5
441
330
3C0
100
AcDbEntity
  8
D35160102
100
AcDbSpline
210
0.0
220
0.0
230
1.0
 70
     8
 71
     3
 72
     9
 73
     5
 74
     0
 42
0.000000001
 43
0.0000000001
 40
-1.0
 40
-1.0
 40
-1.0
 40
-1.0
 40
-0.5
 40
0.0
 40
0.0
 40
0.0
 40
0.0
 10
-0.3439378511758754
 20
6.970829345541153
 30
0.0
 10
-0.4551863117616117
 20
6.863184453254231
 30
0.0
 10
-0.6795989965696977
 20
6.646197985755902
 30
0.0
 10
-0.9031720386402907
 20
6.425818152408602
 30
0.0
 10
-1.014405358503017
 20
6.314779894272708
 30
0.0
1001
REVIT
1002
{
1070
     2
1000
-2001160
1002
}
  0
SPLINE
  5
442
330
3C0
100
AcDbEntity
  8
D35160102
100
AcDbSpline
210
0.0
220
0.0
230
1.0
 70
     8
 71
     3
 72
    10
 73
     6
 74
     0
 42
0.000000001
 43
0.0000000001
 40
-1.0
 40
-1.0
 40
-1.0
 40
-1.0
 40
-0.6666666666666666
 40
-0.3333333333333333
 40
0.0
 40
0.0
 40
0.0
 40
0.0
 10
0.4592803710005668
 20
7.961160529100383
 30
0.0
 10
0.4628422661735521
 20
7.961160529100383
 30
0.0
 10
0.4699613082015769
 20
7.960235145906835
 30
0.0
 10
0.4799278538275111
 20
7.956131307823384
 30
0.0
 10
0.4855880053007541
 20
7.951745113158577
 30
0.0
 10
0.4880715878890147
 20
7.949213301943521
 30
0.0
1001
REVIT
1002
{
1070
     2
1000
-2001160
1002
}
  0
SPLINE
  5
443
330
3C0
100
AcDbEntity
  8
D35160102
100
AcDbSpline
210
0.0
220
0.0
230
1.0
 70
     8
 71
     3
 72
     9
 73
     5
 74
     0
 42
0.000000001
 43
0.0000000001
 40
-1.0
 40
-1.0
 40
-1.0
 40
-1.0
 40
-0.5
 40
0.0
 40
0.0
 40
0.0
 40
0.0
 10
0.4880715878890147
 20
7.949213301943522
 30
0.0
 10
0.5035494945724253
 20
7.933397963290312
 30
0.0
 10
0.5344863526135351
 20
7.901742816591647
 30
0.0
 10
0.5653727349532448
 20
7.870038731108497
 30
0.0
 10
0.580800666419127
 20
7.854174453670803
 30
0.0
1001
REVIT
1002
{
1070
     2
1000
-2001160
1002
}
  0
SPLINE
  5
444
330
3C0
100
AcDbEntity
  8
D35160102
100
AcDbSpline
210
0.0
220
0.0
230
1.0
 70
     8
 71
     3
 72
     9
 73
     5
 74
     0
 42
0.000000001
 43
0.0000000001
 40
-1.0
 40
-1.0
 40
-1.0
 40
-1.0
 40
-0.5
 40
0.0
 40
0.0
 40
0.0
 40
0.0
 10
0.5808006664191268
 20
7.854174453670803
 30
0.0
 10
0.5858763059530618
 20
7.848961875433514
 30
0.0
 10
0.5932374692898095
 20
7.835843637911024
 30
0.0
 10
0.5928371118706127
 20
7.820808705270927
 30
0.0
 10
0.5907199770701326
 20
7.813875660534091
 30
0.0
1001
REVIT
1002
{
1070
     2
1000
-2001160
1002
}
  0
SPLINE
  5
445
330
3C0
100
AcDbEntity
  8
D35160102
100
AcDbSpline
210
0.0
220
0.0
230
1.0
 70
     8
 71
     3
 72
    10
 73
     6
 74
     0
 42
0.000000001
 43
0.0000000001
 40
-1.0
 40
-1.0
 40
-1.0
 40
-1.0
 40
-0.6666666666666666
 40
-0.3333333333333333
 40
0.0
 40
0.0
 40
0.0
 40
0.0
 10
-0.4593064225182593
 20
7.961160529100381
 30
0.0
 10
-0.4628648122852545
 20
7.961160529100381
 30
0.0
 10
-0.4699790286991256
 20
7.960236653758567
 30
0.0
 10
-0.4799430666460561
 20
7.956137195521594
 30
0.0
 10
-0.4856093038905989
 20
7.951748543682034
 30
0.0
 10
-0.4880961716474343
 20
7.949213301943522
 30
0.0
1001
REVIT
1002
{
1070
     2
1000
-2001160
1002
}
  0
SPLINE
  5
446
330
3C0
100
AcDbEntity
  8
D35160102
100
AcDbSpline
210
0.0
220
0.0
230
1.0
 70
     8
 71
     3
 72
     9
 73
     5
 74
     0
 42
0.000000001
 43
0.0000000001
 40
-1.0
 40
-1.0
 40
-1.0
 40
-1.0
 40
-0.5
 40
0.0
 40
0.0
 40
0.0
 40
0.0
 10
-0.4880961716474351
 20
7.949213301943521
 30
0.0
 10
-0.5035705367354106
 20
7.933400807599514
 30
0.0
 10
-0.5345030940211427
 20
7.901748505210054
 30
0.0
 10
-0.5653908047751917
 20
7.870041575417701
 30
0.0
 10
-0.5808208199139271
 20
7.854174453670802
 30
0.0
1001
REVIT
1002
{
1070
     2
1000
-2001160
1002
}
  0
SPLINE
  5
447
330
3C0
100
AcDbEntity
  8
D35160102
100
AcDbSpline
210
0.0
220
0.0
230
1.0
 70
     8
 71
     3
 72
     9
 73
     5
 74
     0
 42
0.000000001
 43
0.0000000001
 40
-1.0
 40
-1.0
 40
-1.0
 40
-1.0
 40
-0.5
 40
0.0
 40
0.0
 40
0.0
 40
0.0
 10
-0.5808208199139266
 20
7.854174453670802
 30
0.0
 10
-0.5858954805596991
 20
7.848962654465236
 30
0.0
 10
-0.5932573941618969
 20
7.835843486255634
 30
0.0
 10
-0.5928567041051187
 20
7.820808643118896
 30
0.0
 10
-0.5907396827255629
 20
7.813875660534087
 30
0.0
1001
REVIT
1002
{
1070
     2
1000
-2001160
1002
}
  0
ELLIPSE
  5
448
330
3C0
100
AcDbEntity
  8
D35160102
100
AcDbEllipse
 10
0.0000000000003304
 20
8.151079599148285
 30
0.0
 11
0.3522843364817114
 21
0.0
 31
0.0
210
0.0
220
0.0
230
0.9999999999999998
 40
0.974370064785233
 41
1.570796326794893
 42
4.712388980384677
1001
REVIT
1002
{
1070
     2
1000
-2001160
1002
}
  0
ELLIPSE
  5
449
330
3C0
100
AcDbEntity
  8
D35160102
100
AcDbEllipse
 10
0.0000000000003304
 20
8.151079599148285
 30
0.0
 11
0.3522843364817136
 21
0.0
 31
0.0
210
0.0
220
0.0
230
1.0
 40
0.9743700647852378
 41
4.712388980384676
 42
7.853981633974473
1001
REVIT
1002
{
1070
     2
1000
-2001160
1002
}
  0
ELLIPSE
  5
44A
330
3C0
100
AcDbEntity
  8
D35160102
100
AcDbEllipse
 10
0.0000000000003307
 20
8.184164060936002
 30
0.0
 11
0.2837025823639254
 21
0.0
 31
0.0
210
0.0
220
0.0
230
1.0
 40
0.9743700647852378
 41
1.570796326794893
 42
4.712388980384677
1001
REVIT
1002
{
1070
     2
1000
-2001160
1002
}
  0
ELLIPSE
  5
44B
330
3C0
100
AcDbEntity
  8
D35160102
100
AcDbEllipse
 10
0.0000000000003307
 20
8.184164060936002
 30
0.0
 11
-0.2837025823639259
 21
0.0000000000000155
 31
0.0
210
0.0
220
0.0
230
1.0
 40
0.9743700647852298
 41
1.570796326794938
 42
4.712388980384728
1001
REVIT
1002
{
1070
     2
1000
-2001160
1002
}
  0
SPLINE
  5
44C
330
3C0
100
AcDbEntity
  8
D35160102
100
AcDbSpline
210
0.0
220
0.0
230
1.0
 70
     8
 71
     3
 72
     8
 73
     4
 74
     0
 42
0.000000001
 43
0.0000000001
 40
0.0
 40
0.0
 40
0.0
 40
0.0
 40
0.1557929814761283
 40
0.1557929814761283
 40
0.1557929814761283
 40
0.1557929814761283
 10
0.4514304067890647
 20
4.562866239298826
 30
0.0
 10
0.4422715337997994
 20
4.710073893080861
 30
0.0
 10
0.4331126608105341
 20
4.828862590135973
 30
0.0
 10
0.4239537878212687
 20
4.925710406392011
 30
0.0
1001
REVIT
1002
{
1070
     2
1000
-2001160
1002
}
  0
SPLINE
  5
44D
330
3C0
100
AcDbEntity
  8
D35160102
100
AcDbSpline
210
0.0
220
0.0
230
1.0
 70
     8
 71
     3
 72
     8
 73
     4
 74
     0
 42
0.000000001
 43
0.0000000001
 40
0.8442070185238847
 40
0.8442070185238847
 40
0.8442070185238847
 40
0.8442070185238847
 40
1.0
 40
1.0
 40
1.0
 40
1.0
 10
-0.4239537878206657
 20
4.925710393753585
 30
0.0
 10
-0.4331126608099307
 20
4.82886252556404
 30
0.0
 10
-0.4422715337991956
 20
4.710073893080891
 30
0.0
 10
-0.4514304067884606
 20
4.562866239298879
 30
0.0
1001
REVIT
1002
{
1070
     2
1000
-2001160
1002
}
  0
SPLINE
  5
44E
330
3C0
100
AcDbEntity
  8
D35160102
100
AcDbSpline
210
0.0
220
0.0
230
1.0
 70
     8
 71
     3
 72
    10
 73
     6
 74
     0
 42
0.000000001
 43
0.0000000001
 40
0.0
 40
0.0
 40
0.0
 40
0.0
 40
0.1818181818181818
 40
0.3636363636363637
 40
0.4545454545454545
 40
0.4545454545454545
 40
0.4545454545454545
 40
0.4545454545454545
 10
0.7903483113123855
 20
5.062033549728731
 30
0.0
 10
0.7754123885010119
 20
5.243037172832508
 30
0.0
 10
0.745532493196821
 20
5.521192606257248
 30
0.0
 10
0.7082088748259386
 20
5.713214403899211
 30
0.0
 10
0.6857882310402826
 20
5.783906434048384
 30
0.0
 10
0.6783267846548677
 20
5.803485195273037
 30
0.0
1001
REVIT
1002
{
1070
     2
1000
-2001160
1002
}
  0
SPLINE
  5
44F
330
3C0
100
AcDbEntity
  8
D35160102
100
AcDbSpline
210
0.0
220
0.0
230
1.0
 70
     8
 71
     3
 72
    13
 73
     9
 74
     0
 42
0.000000001
 43
0.0000000001
 40
0.4945762181354143
 40
0.4945762181354143
 40
0.4945762181354143
 40
0.4945762181354143
 40
0.5454545454545455
 40
0.6363636363636364
 40
0.7272727272727274
 40
0.8181818181818181
 40
0.9090909090909089
 40
1.0
 40
1.0
 40
1.0
 40
1.0
 10
0.6783267846548677
 20
5.803485195273037
 30
0.0
 10
0.6643007505065702
 20
5.835502863652203
 30
0.0
 10
0.6526676913430445
 20
5.855240389765889
 30
0.0
 10
0.6334910440565814
 20
5.860991763864446
 30
0.0
 10
0.6111808075694936
 20
5.810846795913816
 30
0.0
 10
0.5886380833366132
 20
5.689420685469663
 30
0.0
 10
0.5663298457068653
 20
5.477099713027545
 30
0.0
 10
0.5513804991981692
 20
5.19305482750415
 30
0.0
 10
0.5439064319465357
 20
4.994871392212956
 30
0.0
1001
REVIT
1002
{
1070
     2
1000
-2001160
1002
}
  0
LINE
  5
450
330
3C0
100
AcDbEntity
  8
D35160102
100
AcDbLine
 10
0.5439064319465357
 20
4.994871392212956
 30
0.0
 11
0.4159536882049143
 21
4.918729678060121
 31
0.0
1001
REVIT
1002
{
1070
     2
1000
-2001160
1002
}
  0
SPLINE
  5
451
330
3C0
100
AcDbEntity
  8
D35160102
100
AcDbSpline
210
0.0
220
0.0
230
1.0
 70
     8
 71
     3
 72
    16
 73
    12
 74
     0
 42
0.000000001
 43
0.0000000001
 40
0.5
 40
0.5
 40
0.5
 40
0.5
 40
0.6
 40
0.65
 40
0.7
 40
0.75
 40
0.8
 40
0.825
 40
0.85
 40
0.9
 40
1.0
 40
1.0
 40
1.0
 40
1.0
 10
0.3723712854083079
 20
6.359976978565681
 30
0.0
 10
0.3658682651129247
 20
6.369686971936614
 30
0.0
 10
0.3561137346698496
 20
6.374607014206735
 30
0.0
 10
0.3431076940790826
 20
6.342482903249109
 30
0.0
 10
0.3333531636360073
 20
6.29094158777591
 30
0.0
 10
0.3235986331929317
 20
6.205686086748023
 30
0.0
 10
0.3154698578237019
 20
6.105877534540087
 30
0.0
 10
0.3089668375283179
 20
6.009076175442615
 30
0.0
 10
0.3024638172329339
 20
5.894205865468355
 30
0.0
 10
0.2910835317160113
 20
5.653709162130144
 30
0.0
 10
0.2813290012729339
 20
5.385499849801836
 30
0.0
 10
0.2748259809775484
 20
5.154598712043852
 30
0.0
1001
REVIT
1002
{
1070
     2
1000
-2001160
1002
}
  0
LINE
  5
452
330
3C0
100
AcDbEntity
  8
D35160102
100
AcDbLine
 10
0.2748259809775484
 20
5.154598712043852
 30
0.0
 11
0.4093709577026156
 21
5.074735990595979
 31
0.0
1001
REVIT
1002
{
1070
     2
1000
-2001160
1002
}
  0
LINE
  5
453
330
3C0
100
AcDbEntity
  8
D35160102
100
AcDbLine
 10
0.4093709577026156
 20
5.074735990595979
 30
0.0
 11
0.5439064319465354
 21
4.994871392212957
 31
0.0
1001
REVIT
1002
{
1070
     2
1000
-2001160
1002
}
  0
SPLINE
  5
454
330
3C0
100
AcDbEntity
  8
D35160102
100
AcDbSpline
210
0.0
220
0.0
230
1.0
 70
     8
 71
     3
 72
    18
 73
    14
 74
     0
 42
0.000000001
 43
0.0000000001
 40
0.5
 40
0.5
 40
0.5
 40
0.5
 40
0.6
 40
0.65
 40
0.7
 40
0.75
 40
0.775
 40
0.8
 40
0.825
 40
0.85
 40
0.9
 40
0.95
 40
1.0
 40
1.0
 40
1.0
 40
1.0
 10
-0.3723712854076731
 20
6.359976978565692
 30
0.0
 10
-0.365868265112289
 20
6.369685722823938
 30
0.0
 10
-0.3561137346692129
 20
6.37459735147018
 30
0.0
 10
-0.3431076940784455
 20
6.342499424180942
 30
0.0
 10
-0.3333531636353697
 20
6.290878620868065
 30
0.0
 10
-0.3252243882661403
 20
6.220080964684339
 30
0.0
 10
-0.3187213679707568
 20
6.145479418827827
 30
0.0
 10
-0.3138441027492193
 20
6.0817627592093
 30
0.0
 10
-0.3089668375276815
 20
6.009055454263745
 30
0.0
 10
-0.3024638172322986
 20
5.894209199557136
 30
0.0
 10
-0.29433504186307
 20
5.72249610503633
 30
0.0
 10
-0.2845805114199958
 20
5.474619276442717
 30
0.0
 10
-0.2780774911246137
 20
5.270049280922853
 30
0.0
 10
-0.274825980976923
 20
5.154598712043862
 30
0.0
1001
REVIT
1002
{
1070
     2
1000
-2001160
1002
}
  0
LINE
  5
455
330
3C0
100
AcDbEntity
  8
D35160102
100
AcDbLine
 10
-0.2748259809769229
 20
5.154598712043862
 30
0.0
 11
0.2748259809775483
 21
5.154598712043852
 31
0.0
1001
REVIT
1002
{
1070
     2
1000
-2001160
1002
}
  0
LINE
  5
456
330
3C0
100
AcDbEntity
  8
D35160102
100
AcDbLine
 10
-0.4159536882043192
 20
4.918729678060131
 30
0.0
 11
-0.5439064319459423
 21
4.994871392212979
 31
0.0
1001
REVIT
1002
{
1070
     2
1000
-2001160
1002
}
  0
SPLINE
  5
457
330
3C0
100
AcDbEntity
  8
D35160102
100
AcDbSpline
210
0.0
220
0.0
230
1.0
 70
     8
 71
     3
 72
    13
 73
     9
 74
     0
 42
0.000000001
 43
0.0000000001
 40
-1.0
 40
-1.0
 40
-1.0
 40
-1.0
 40
-0.9090909090909089
 40
-0.8181818181818181
 40
-0.7272727272727274
 40
-0.6363636363636364
 40
-0.5454545454545455
 40
-0.4946073252451273
 40
-0.4946073252451273
 40
-0.4946073252451273
 40
-0.4946073252451273
 10
-0.5439064319459424
 20
4.994871392212977
 30
0.0
 10
-0.5513803914336531
 20
5.192984201858691
 30
0.0
 10
-0.5663294479847937
 20
5.477124653463421
 30
0.0
 10
-0.5886373374087606
 20
5.689406556964423
 30
0.0
 10
-0.6111796586552999
 20
5.810844248504558
 30
0.0
 10
-0.6334895049351795
 20
5.86098956229079
 30
0.0
 10
-0.6526632710538354
 20
5.855242956480497
 30
0.0
 10
-0.6642935883369191
 20
5.835515279629677
 30
0.0
 10
-0.6783244839459164
 20
5.803491258881374
 30
0.0
1001
REVIT
1002
{
1070
     2
1000
-2001160
1002
}
  0
SPLINE
  5
458
330
3C0
100
AcDbEntity
  8
D35160102
100
AcDbSpline
210
0.0
220
0.0
230
1.0
 70
     8
 71
     3
 72
    10
 73
     6
 74
     0
 42
0.000000001
 43
0.0000000001
 40
-0.4545454545454545
 40
-0.4545454545454545
 40
-0.4545454545454545
 40
-0.4545454545454545
 40
-0.3636363636363637
 40
-0.1818181818181818
 40
0.0
 40
0.0
 40
0.0
 40
0.0
 10
-0.6783244839459164
 20
5.803491258881374
 30
0.0
 10
-0.6857858015945309
 20
5.78391373634095
 30
0.0
 10
-0.7082060637815543
 20
5.713225630683222
 30
0.0
 10
-0.7455290469009658
 20
5.521214544510089
 30
0.0
 10
-0.7754084201758555
 20
5.243079710882305
 30
0.0
 10
-0.790344094577769
 20
5.062084652424579
 30
0.0
1001
REVIT
1002
{
1070
     2
1000
-2001160
1002
}
  0
LINE
  5
459
330
3C0
100
AcDbEntity
  8
D35160102
100
AcDbLine
 10
-0.5439064319459424
 20
4.994871392212977
 30
0.0
 11
-0.4093709577020056
 21
5.074735990595995
 31
0.0
1001
REVIT
1002
{
1070
     2
1000
-2001160
1002
}
  0
LINE
  5
45A
330
3C0
100
AcDbEntity
  8
D35160102
100
AcDbLine
 10
-0.4093709577020056
 20
5.074735990595995
 30
0.0
 11
-0.274825980976923
 21
5.154598712043862
 31
0.0
1001
REVIT
1002
{
1070
     2
1000
-2001160
1002
}
  0
ELLIPSE
  5
45B
330
3C0
100
AcDbEntity
  8
D35160102
100
AcDbEllipse
 10
0.0000000000002979
 20
4.99489459468154
 30
0.0
 11
0.445351216698155
 21
0.0
 31
0.0
210
0.0
220
0.0
230
1.0
 40
0.342020143325673
 41
1.570796326794887
 42
3.403392041388905
1001
REVIT
1002
{
1070
     2
1000
-2001160
1002
}
  0
ELLIPSE
  5
45C
330
3C0
100
AcDbEntity
  8
D35160102
100
AcDbEllipse
 10
0.0000000000002979
 20
4.99489459468154
 30
0.0
 11
-0.4453512166981552
 21
0.0000000000000044
 31
0.0
210
0.0
220
0.0
230
1.0
 40
0.342020143325675
 41
2.879793265790641
 42
4.712388980384679
1001
REVIT
1002
{
1070
     2
1000
-2001160
1002
}
  0
ELLIPSE
  5
45D
330
3C0
100
AcDbEntity
  8
D35160102
100
AcDbEllipse
 10
0.0000000000002965
 20
4.860901934367125
 30
0.0
 11
-0.3906152720757475
 21
0.0000000000000045
 31
0.0
210
0.0
220
0.0
230
1.0
 40
0.3420201433256726
 41
4.712388980384685
 42
7.853981633974481
1001
REVIT
1002
{
1070
     2
1000
-2001160
1002
}
  0
ELLIPSE
  5
45E
330
3C0
100
AcDbEntity
  8
D35160102
100
AcDbEllipse
 10
0.0000000000002965
 20
4.860901934367126
 30
0.0
 11
-0.3906152720757491
 21
0.000000000000004
 31
0.0
210
0.0
220
0.0
230
1.0
 40
0.3420201433256736
 41
1.570796326794894
 42
4.712388980384679
1001
REVIT
1002
{
1070
     2
1000
-2001160
1002
}
  0
LINE
  5
45F
330
3C0
100
AcDbEntity
  8
D35160102
100
AcDbLine
 10
-0.7517386775283205
 20
6.11619727740171
 30
0.0
 11
-0.7486381077690877
 21
6.146205094347032
 31
0.0
1001
REVIT
1002
{
1070
     1
1000
53090
1002
}
1002
{
1070
     2
1000
-2001160
1002
}
  0
LINE
  5
460
330
3C0
100
AcDbEntity
  8
D35160102
100
AcDbLine
 10
0.7481376822528362
 20
6.149843616171573
 30
0.0
 11
0.7512258360578649
 21
6.122085413404406
 31
0.0
1001
REVIT
1002
{
1070
     1
1000
53090
1002
}
1002
{
1070
     2
1000
-2001160
1002
}
  0
LINE
  5
461
330
3C0
100
AcDbEntity
  8
D35160102
100
AcDbLine
 10
0.7512258360578649
 20
6.122085413404406
 30
0.0
 11
0.75173867752894
 21
6.116197277401696
 31
0.0
1001
REVIT
1002
{
1070
     1
1000
53090
1002
}
1002
{
1070
     2
1000
-2001160
1002
}
  0
ENDBLK
  5
3C2
330
3C0
100
AcDbEntity
  8
0
100
AcDbBlockEnd
  0
BLOCK
  5
465
330
464
100
AcDbEntity
  8
0
100
AcDbBlockBegin
  2
D35160102 Side View
 70
     0
 10
0.0
 20
0.0
 30
0.0
  3
D35160102 Side View
  1

  0
LWPOLYLINE
  5
467
330
464
100
AcDbEntity
  8
D35160102
100
AcDbPolyline
 90
        6
 70
   128
 43
0.0
 10
-1.133711894103953
 20
0.3261939176297341
 10
-1.034056964081358
 20
0.8588695913758169
 10
-0.9557830929040171
 20
1.395104315698642
 10
-0.8990155020682699
 20
1.934040229429923
 10
-0.863845007609683
 20
2.474815150074552
 10
-0.8516550542584155
 20
2.882447315414251
1001
REVIT
1002
{
1070
     2
1000
-2001160
1002
}
  0
LWPOLYLINE
  5
468
330
464
100
AcDbEntity
  8
D35160102
100
AcDbPolyline
 90
        6
 70
   128
 43
0.0
 10
0.8516550542603411
 20
2.882447315414251
 10
0.8705343604964248
 20
2.340858864397514
 10
0.9110563268605353
 20
1.800458597261522
 10
0.9731561268507142
 20
1.262111039154452
 10
1.056734414034231
 20
0.7266774313279204
 10
1.133711894105879
 20
0.3261939176297208
1001
REVIT
1002
{
1070
     2
1000
-2001160
1002
}
  0
LWPOLYLINE
  5
469
330
464
100
AcDbEntity
  8
D35160102
100
AcDbPolyline
 90
        4
 70
   128
 43
0.0
 10
-0.851655054258412
 20
2.882447315414466
 10
-0.8584274959130269
 20
4.196204505380567
 10
-0.9177307956463138
 20
5.508640004288738
 10
-0.9630344833673269
 20
6.116197277400516
1001
REVIT
1002
{
1070
     2
1000
-2001160
1002
}
  0
LINE
  5
46A
330
464
100
AcDbEntity
  8
D35160102
100
AcDbLine
 10
0.9630344833692703
 20
6.116197277400516
 30
0.0
 11
0.9368518724854624
 21
5.783895983320051
 31
0.0
1001
REVIT
1002
{
1070
     2
1000
-2001160
1002
}
  0
LWPOLYLINE
  5
46B
330
464
100
AcDbEntity
  8
D35160102
100
AcDbPolyline
 90
        3
 70
   128
 43
0.0
 10
0.8704034827438142
 20
4.581695632956409
 10
0.8481921475989828
 20
3.268705840758759
 10
0.8516550542603553
 20
2.882447315414466
1001
REVIT
1002
{
1070
     2
1000
-2001160
1002
}
  0
LINE
  5
46C
330
464
100
AcDbEntity
  8
D35160102
100
AcDbLine
 10
-1.192578901110028
 20
0.3261939176297302
 30
0.0
 11
-1.192578901110028
 21
0.2483436452417462
 31
0.0
1001
REVIT
1002
{
1070
     2
1000
-2001160
1002
}
  0
LINE
  5
46D
330
464
100
AcDbEntity
  8
D35160102
100
AcDbLine
 10
1.192578901110032
 20
0.2483436452417143
 30
0.0
 11
1.192578901110032
 21
0.3261939176296968
 31
0.0
1001
REVIT
1002
{
1070
     2
1000
-2001160
1002
}
  0
LWPOLYLINE
  5
46E
330
464
100
AcDbEntity
  8
D35160102
100
AcDbPolyline
 90
       35
 70
   128
 43
0.0
 10
-1.257794113403967
 20
0.2269956496101948
 10
-1.257511219868966
 20
0.228074298038434
 10
-1.257185418186153
 20
0.2291407709388686
 10
-1.256817229568717
 20
0.2301933621823606
 10
-1.256407243039909
 20
0.2312303878474637
 10
-1.255956114490711
 20
0.2322501889143311
 10
-1.255464565630568
 20
0.233251133918803
 10
-1.254933382832799
 20
0.234231621562395
 10
-1.254363415876564
 20
0.2351900832740392
 10
-1.253755576587408
 20
0.2361249857194563
 10
-1.253110837378532
 20
0.2370348332541685
 10
-1.252430229695129
 20
0.2379181703162116
 10
-1.251714842364304
 20
0.2387735837547213
 10
-1.250965819853181
 20
0.2395997050906742
 10
-1.250184360437991
 20
0.2403952127061617
 10
-1.2493717142871
 20
0.2411588339586979
 10
-1.248529181460991
 20
0.2418893472171784
 10
-1.24765810983246
 20
0.2425855838162241
 10
-1.246759892930288
 20
0.2432464299257975
 10
-1.245835967709908
 20
0.2438708283330959
 10
-1.244887812254589
 20
0.2444577801338668
 10
-1.243916943410784
 20
0.2450063463304384
 10
-1.242924914361548
 20
0.2455156493339159
 10
-1.241913312141729
 20
0.2459848743681421
 10
-1.240883755099083
 20
0.2464132707731561
 10
-1.239837890305256
 20
0.2468001532060968
 10
-1.238777390920809
 20
0.2471449027376018
 10
-1.237703953518529
 20
0.2474469678419633
 10
-1.236619295369273
 20
0.247705865279453
 10
-1.235525151694698
 20
0.247921180869396
 10
-1.23442327289128
 20
0.2480925701527827
 10
-1.233315421730047
 20
0.248219758943321
 10
-1.232203370536527
 20
0.248302543766078
 10
-1.231088898355405
 20
0.2483407921829943
 10
-1.230690051521158
 20
0.2483436452417462
1001
REVIT
1002
{
1070
     2
1000
-2001160
1002
}
  0
LWPOLYLINE
  5
46F
330
464
100
AcDbEntity
  8
D35160102
100
AcDbPolyline
 90
        3
 70
   128
 43
0.0
 10
0.0
 20
0.2483436452417422
 10
-1.225620647872961
 20
0.2483436452417476
 10
-1.230690051521158
 20
0.2483436452417462
1001
REVIT
1002
{
1070
     2
1000
-2001160
1002
}
  0
LWPOLYLINE
  5
470
330
464
100
AcDbEntity
  8
D35160102
100
AcDbPolyline
 90
        2
 70
   128
 43
0.0
 10
-1.230690051521158
 20
0.2483436452417462
 10
-1.186045829108156
 20
0.2483436452417422
1001
REVIT
1002
{
1070
     2
1000
-2001160
1002
}
  0
LWPOLYLINE
  5
471
330
464
100
AcDbEntity
  8
D35160102
100
AcDbPolyline
 90
       35
 70
   128
 43
0.0
 10
1.230690051521161
 20
0.2483436452417129
 10
1.231804956829126
 20
0.2483213441619967
 10
1.232918078526431
 20
0.24825447659982
 10
1.234027635855817
 20
0.2481431495290167
 10
1.235131853762247
 20
0.2479875410491499
 10
1.236228965732625
 20
0.2477879001005958
 10
1.237317216621836
 20
0.2475445460662839
 10
1.238394865460605
 20
0.2472578682607536
 10
1.239460188240681
 20
0.2469283253073426
 10
1.240511480672864
 20
0.2465564444044761
 10
1.241547060913532
 20
0.2461428204822658
 10
1.242565272255212
 20
0.2456881152507584
 10
1.24356448577696
 20
0.2451930561413185
 10
1.244543102950302
 20
0.2446584351429191
 10
1.245499558196513
 20
0.2440851075351087
 10
1.246432321391239
 20
0.2434739905197591
 10
1.247339900312343
 20
0.2428260617537286
 10
1.248220843027162
 20
0.2421423577848232
 10
1.249073740215276
 20
0.2414239723935478
 10
1.249897227423119
 20
0.240672054843279
 10
1.250689987246836
 20
0.2398878080416995
 10
1.251450751439811
 20
0.2390724866163885
 10
1.252178302941633
 20
0.2382273949077083
 10
1.252871477825099
 20
0.2373538848821097
 10
1.253529167158262
 20
0.2364533539692994
 10
1.254150318778492
 20
0.2355272428266308
 10
1.2547339389757
 20
0.2345770330343757
 10
1.255279094082069
 20
0.2336042447255002
 10
1.255784911965722
 20
0.2326104341537809
 10
1.256250583425952
 20
0.2315971912041308
 10
1.256675363487754
 20
0.2305661368491221
 10
1.257058572593646
 20
0.2295189205557777
 10
1.25739959769081
 20
0.228457217646773
 10
1.257697893211833
 20
0.2273827266202766
 10
1.257794113403971
 20
0.2269956496101602
1001
REVIT
1002
{
1070
     2
1000
-2001160
1002
}
  0
LWPOLYLINE
  5
472
330
464
100
AcDbEntity
  8
D35160102
100
AcDbPolyline
 90
        2
 70
   128
 43
0.0
 10
1.186045829108163
 20
0.2483436452417103
 10
1.230690051521161
 20
0.2483436452417129
1001
REVIT
1002
{
1070
     2
1000
-2001160
1002
}
  0
LWPOLYLINE
  5
473
330
464
100
AcDbEntity
  8
D35160102
100
AcDbPolyline
 90
        3
 70
   128
 43
0.0
 10
1.230690051521161
 20
0.2483436452417129
 10
1.214970796240645
 20
0.2483436452417143
 10
0.0000000000000107
 20
0.2483436452417422
1001
REVIT
1002
{
1070
     2
1000
-2001160
1002
}
  0
LINE
  5
474
330
464
100
AcDbEntity
  8
D35160102
100
AcDbLine
 10
-1.257794113403967
 20
0.2269956496101948
 30
0.0
 11
-1.312500000000003
 21
0.0000000000000189
 31
0.0
1001
REVIT
1002
{
1070
     2
1000
-2001160
1002
}
  0
LINE
  5
475
330
464
100
AcDbEntity
  8
D35160102
100
AcDbLine
 10
1.3125
 20
-0.0000000000000184
 30
0.0
 11
1.257794113403967
 21
0.2269956496101602
 31
0.0
1001
REVIT
1002
{
1070
     2
1000
-2001160
1002
}
  0
LINE
  5
476
330
464
100
AcDbEntity
  8
D35160102
100
AcDbLine
 10
-0.5519056118644521
 20
7.813875660532921
 30
0.0
 11
-0.3150948055520537
 21
7.012656007564765
 31
0.0
1001
REVIT
1002
{
1070
     2
1000
-2001160
1002
}
  0
LINE
  5
477
330
464
100
AcDbEntity
  8
D35160102
100
AcDbLine
 10
0.3150948055539473
 20
7.012656007564765
 30
0.0
 11
0.3633304555118215
 21
7.175855277571702
 31
0.0
1001
REVIT
1002
{
1070
     2
1000
-2001160
1002
}
  0
LINE
  5
478
330
464
100
AcDbEntity
  8
D35160102
100
AcDbLine
 10
0.5205455085861069
 20
7.707772685510339
 30
0.0
 11
0.5519056118663493
 21
7.813875660532921
 31
0.0
1001
REVIT
1002
{
1070
     2
1000
-2001160
1002
}
  0
LINE
  5
479
330
464
100
AcDbEntity
  8
D35160102
100
AcDbLine
 10
0.9658748094550055
 20
6.149843616170392
 30
0.0
 11
0.9658748094550055
 21
6.314779894271533
 31
0.0
1001
REVIT
1002
{
1070
     2
1000
-2001160
1002
}
  0
LINE
  5
47A
330
464
100
AcDbEntity
  8
D35160102
100
AcDbLine
 10
-0.3150948055520537
 20
6.970829345539981
 30
0.0
 11
-0.7886038616705378
 21
6.493486227166601
 31
0.0
1001
REVIT
1002
{
1070
     2
1000
-2001160
1002
}
  0
LINE
  5
47B
330
464
100
AcDbEntity
  8
D35160102
100
AcDbLine
 10
0.3150948055539224
 20
6.970829345539981
 30
0.0
 11
0.3150948055539224
 21
7.012656007564773
 31
0.0
1001
REVIT
1002
{
1070
     2
1000
-2001160
1002
}
  0
LINE
  5
47C
330
464
100
AcDbEntity
  8
D35160102
100
AcDbLine
 10
0.9658748094550055
 20
6.314779894271538
 30
0.0
 11
0.3150948055539544
 21
6.970829345539981
 31
0.0
1001
REVIT
1002
{
1070
     2
1000
-2001160
1002
}
  0
LWPOLYLINE
  5
47D
330
464
100
AcDbEntity
  8
D35160102
100
AcDbPolyline
 90
       22
 70
   128
 43
0.0
 10
-0.4528318065495398
 20
7.949213301942349
 10
-0.4517685381436252
 20
7.950298413016336
 10
-0.4506627273696573
 20
7.951340136721589
 10
-0.4495161432889816
 20
7.9523368065224
 10
-0.4483306201915341
 20
7.9532868279597
 10
-0.4471080546613777
 20
7.954188681201851
 10
-0.4458504025425576
 20
7.95504092347605
 10
-0.4445596758101793
 20
7.955842191376464
 10
-0.4432379393516719
 20
7.956591203045374
 10
-0.4418873076634214
 20
7.957286760223895
 10
-0.4405099414679974
 20
7.957927750168916
 10
-0.4391080442575018
 20
7.958513147433264
 10
-0.4376838587684091
 20
7.959042015506194
 10
-0.4362396633936925
 20
7.959513508311606
 10
-0.4347777685378738
 20
7.959926871561594
 10
-0.4333005129208694
 20
7.960281443963139
 10
-0.431810259836535
 20
7.960576658276033
 10
-0.4303093933718998
 20
7.960812042220353
 10
-0.4288003145931434
 20
7.960987219231999
 10
-0.4272854377043878
 20
7.961101909065123
 10
-0.4257671861854995
 20
7.961155928240459
 10
-0.4251760126303062
 20
7.961160529099212
1001
REVIT
1002
{
1070
     2
1000
-2001160
1002
}
  0
LWPOLYLINE
  5
47E
330
464
100
AcDbEntity
  8
D35160102
100
AcDbPolyline
 90
        4
 70
   128
 43
0.0
 10
-0.3977484687447195
 20
7.961160529099212
 10
-0.4130692937972178
 20
7.961160529099212
 10
-0.418424447492729
 20
7.961160529099212
 10
-0.4251760126303062
 20
7.961160529099212
1001
REVIT
1002
{
1070
     2
1000
-2001160
1002
}
  0
LWPOLYLINE
  5
47F
330
464
100
AcDbEntity
  8
D35160102
100
AcDbPolyline
 90
        2
 70
   128
 43
0.0
 10
-0.4251760126303062
 20
7.961160529099212
 10
-0.4068956608353034
 20
7.961160529099212
1001
REVIT
1002
{
1070
     2
1000
-2001160
1002
}
  0
LINE
  5
480
330
464
100
AcDbEntity
  8
D35160102
100
AcDbLine
 10
-0.4528318065495398
 20
7.949213301942349
 30
0.0
 11
-0.542302910619501
 21
7.854174453669632
 31
0.0
1001
REVIT
1002
{
1070
     2
1000
-2001160
1002
}
  0
LWPOLYLINE
  5
481
330
464
100
AcDbEntity
  8
D35160102
100
AcDbPolyline
 90
       28
 70
   128
 43
0.0
 10
-0.5519056118644521
 20
7.813875660532921
 10
-0.5523451414562999
 20
7.81548013046027
 10
-0.5527201577872383
 20
7.817100893478545
 10
-0.5530300609111372
 20
7.81873535671266
 10
-0.5532743550491049
 20
7.82038090537011
 10
-0.5534526493826349
 20
7.822034906924073
 10
-0.5535646586788304
 20
7.823694715324896
 10
-0.553610203746711
 20
7.825357675233212
 10
-0.5535892117238781
 20
7.827021126267916
 10
-0.5535017161931002
 20
7.8286824072622
 10
-0.55334785712855
 20
7.830338860520863
 10
-0.5531278806719194
 20
7.831987836072049
 10
-0.5528421387386083
 20
7.833626695906636
 10
-0.5524910884547545
 20
7.835252818198497
 10
-0.5520752914259291
 20
7.83686360149885
 10
-0.551595412838676
 20
7.838456468898033
 10
-0.5510522203963682
 20
7.840028872147997
 10
-0.5504465830910377
 20
7.841578295738972
 10
-0.5497794698131778
 20
7.843102260923738
 10
-0.549051947801722
 20
7.844598329683097
 10
-0.5482651809366957
 20
7.846064108626175
 10
-0.5474204278772419
 20
7.847497252819347
 10
-0.5465190400480573
 20
7.848895469537626
 10
-0.545562459477381
 20
7.850256521932533
 10
-0.544552216490061
 20
7.851578232610578
 10
-0.5434899272593797
 20
7.852858487116624
 10
-0.5423772912214915
 20
7.854095237316573
 10
-0.542302910619501
 20
7.854174453669632
1001
REVIT
1002
{
1070
     2
1000
-2001160
1002
}
  0
LWPOLYLINE
  5
482
330
464
100
AcDbEntity
  8
D35160102
100
AcDbPolyline
 90
       22
 70
   128
 43
0.0
 10
0.4251760126321998
 20
7.961160529099212
 10
0.4266949210121567
 20
7.961130146880541
 10
0.4282113994627217
 20
7.961039048829602
 10
0.429723021941868
 20
7.960887380683838
 10
0.4312273701760994
 20
7.960675385079933
 10
0.4327220375291461
 20
7.960403401165627
 10
0.4342046328520937
 20
7.960071864057163
 10
0.4356727843086894
 20
7.959681304143194
 10
0.4371241431697932
 20
7.959232346236261
 10
0.4385563875708379
 20
7.958725708573246
 10
0.4399672262263082
 20
7.958162201666335
 10
0.4413544020953211
 20
7.957542727006365
 10
0.4427156959923942
 20
7.956868275620649
 10
0.4440489301376936
 20
7.956139926487529
 10
0.4453519716409886
 20
7.95535884481024
 10
0.4466227359138486
 20
7.954526280152852
 10
0.4478591900045111
 20
7.953643564441203
 10
0.4490593558501992
 20
7.95271210983214
 10
0.4502213134415812
 20
7.951733406454326
 10
0.4513432038943784
 20
7.950709020024398
 10
0.4524232324231932
 20
7.949640589342112
 10
0.4528318065514405
 20
7.949213301942349
1001
REVIT
1002
{
1070
     2
1000
-2001160
1002
}
  0
LWPOLYLINE
  5
483
330
464
100
AcDbEntity
  8
D35160102
100
AcDbPolyline
 90
        2
 70
   128
 43
0.0
 10
0.4068677962653809
 20
7.961160529099212
 10
0.4251760126321998
 20
7.961160529099212
1001
REVIT
1002
{
1070
     2
1000
-2001160
1002
}
  0
LWPOLYLINE
  5
484
330
464
100
AcDbEntity
  8
D35160102
100
AcDbPolyline
 90
        2
 70
   128
 43
0.0
 10
0.4251760126321998
 20
7.961160529099212
 10
0.397726701852072
 20
7.961160529099212
1001
REVIT
1002
{
1070
     2
1000
-2001160
1002
}
  0
LINE
  5
485
330
464
100
AcDbEntity
  8
D35160102
100
AcDbLine
 10
0.5423029106213982
 20
7.854174453669632
 30
0.0
 11
0.452831806551437
 21
7.949213301942349
 31
0.0
1001
REVIT
1002
{
1070
     2
1000
-2001160
1002
}
  0
LWPOLYLINE
  5
486
330
464
100
AcDbEntity
  8
D35160102
100
AcDbPolyline
 90
       28
 70
   128
 43
0.0
 10
0.5423029106213982
 20
7.854174453669632
 10
0.5434187739650512
 20
7.852940614535802
 10
0.5444844043315911
 20
7.851663139709521
 10
0.5454980969397561
 20
7.850344072877994
 10
0.5464582300976169
 20
7.848985524266773
 10
0.5473632677969392
 20
7.847589667263821
 10
0.5482117621704639
 20
7.846158734942579
 10
0.5490023558081987
 20
7.844695016489512
 10
0.5497337839289749
 20
7.8432008535419
 10
0.5504048764038246
 20
7.841678636441723
 10
0.551014559627955
 20
7.840130800411615
 10
0.5515618582382587
 20
7.83855982165904
 10
0.5520458966737145
 20
7.83696821341488
 10
0.5524659005760775
 20
7.835358521912797
 10
0.5528211980287026
 20
7.833733322315814
 10
0.5531112206314575
 20
7.832095214596594
 10
0.5533355044100503
 20
7.830446819378043
 10
0.5534936905582733
 20
7.828790773740872
 10
0.5535855260120393
 20
7.827129727004833
 10
0.5536108638542104
 20
7.82546633649036
 10
0.5535696635496415
 20
7.823803263267445
 10
0.5534619910100354
 20
7.822143167898471
 10
0.5532880184884839
 20
7.820488706181893
 10
0.5530480243039122
 20
7.818842524903526
 10
0.5527423923958175
 20
7.817207257602244
 10
0.5523716117100542
 20
7.815585520356898
 10
0.5519362754166224
 20
7.813979907601125
 10
0.5519056118663493
 20
7.813875660532921
1001
REVIT
1002
{
1070
     2
1000
-2001160
1002
}
  0
LWPOLYLINE
  5
487
330
464
100
AcDbEntity
  8
D35160102
100
AcDbPolyline
 90
        2
 70
   128
 43
0.0
 10
0.397726701852072
 20
7.961160529099212
 10
0.0000886563439195
 20
7.961160529099212
1001
REVIT
1002
{
1070
     2
1000
-2001160
1002
}
  0
LWPOLYLINE
  5
488
330
464
100
AcDbEntity
  8
D35160102
100
AcDbPolyline
 90
        2
 70
   128
 43
0.0
 10
0.0000886563439195
 20
7.961160529099211
 10
-0.3977484687447195
 20
7.961160529099211
1001
REVIT
1002
{
1070
     2
1000
-2001160
1002
}
  0
LINE
  5
489
330
464
100
AcDbEntity
  8
D35160102
100
AcDbLine
 10
0.3633304555118251
 20
7.175855277571695
 30
0.0
 11
3.614529162923957
 21
7.807824287386604
 31
0.0
1001
REVIT
1002
{
1070
     2
1000
-2001160
1002
}
  0
LINE
  5
48A
330
464
100
AcDbEntity
  8
D35160102
100
AcDbLine
 10
3.456035697083176
 20
8.494334910907626
 30
0.0
 11
0.5205455085861069
 21
7.707772685510341
 31
0.0
1001
REVIT
1002
{
1070
     2
1000
-2001160
1002
}
  0
LINE
  5
48B
330
464
100
AcDbEntity
  8
D35160102
100
AcDbLine
 10
3.614529162923954
 20
7.807824287386604
 30
0.0
 11
3.742406173073572
 21
7.907732757377154
 31
0.0
1001
REVIT
1002
{
1070
     2
1000
-2001160
1002
}
  0
LINE
  5
48C
330
464
100
AcDbEntity
  8
D35160102
100
AcDbLine
 10
3.61476778302789
 20
8.460595364492506
 30
0.0
 11
3.456035697083173
 21
8.494334910907625
 31
0.0
1001
REVIT
1002
{
1070
     2
1000
-2001160
1002
}
  0
LWPOLYLINE
  5
48D
330
464
100
AcDbEntity
  8
D35160102
100
AcDbPolyline
 90
       33
 70
   128
 43
0.0
 10
3.737232174135282
 20
8.186878727648387
 10
3.737230276303769
 20
8.186886948059791
 10
3.737215111863577
 20
8.18695263246664
 10
3.737201869514763
 20
8.187009991381044
 10
3.737184879983857
 20
8.187083581124285
 10
3.737164170450476
 20
8.187173283968474
 10
3.737080082572493
 20
8.187537508583297
 10
3.737044882998148
 20
8.187689974690348
 10
3.736869770738024
 20
8.188448469220377
 10
3.736817764416194
 20
8.188673733348684
 10
3.736220305214914
 20
8.191261613464902
 10
3.736141492756864
 20
8.191602987725525
 10
3.734885183344697
 20
8.197044661634977
 10
3.734790289461987
 20
8.197455692198538
 10
3.73441333623192
 20
8.199088456020323
 10
3.734320507426222
 20
8.199490541752629
 10
3.73370296559138
 20
8.202165409311623
 10
3.733621048833526
 20
8.202520229771954
 10
3.733175510536611
 20
8.20445006815612
 10
3.733110023868469
 20
8.204733722079247
 10
3.733047336098394
 20
8.205005252642957
 10
3.732987547513431
 20
8.205264225456268
 10
3.732930753762573
 20
8.20551022621793
 10
3.732877045703698
 20
8.205742861379192
 10
3.732735269394506
 20
8.206356962042015
 10
3.732694711940528
 20
8.206532635675436
 10
3.732657617795101
 20
8.206693308071431
 10
3.732624046300941
 20
8.206838722188443
 10
3.732567680373936
 20
8.207082869841407
 10
3.732544976114546
 20
8.207181212793193
 10
3.732499196080325
 20
8.207379507906949
 10
3.732491461697115
 20
8.207413009201216
 10
3.732487515779489
 20
8.207430100848222
1001
REVIT
1002
{
1070
     2
1000
-2001160
1002
}
  0
LWPOLYLINE
  5
48E
330
464
100
AcDbEntity
  8
D35160102
100
AcDbPolyline
 90
       12
 70
   128
 43
0.0
 10
3.61476778302789
 20
8.460595364492508
 10
3.630530518617071
 20
8.438683708090069
 10
3.64540441314859
 20
8.416159237374465
 10
3.659365671564124
 20
8.393057986693872
 10
3.672391958828455
 20
8.369416913121373
 10
3.684462435660744
 20
8.345273837331534
 10
3.695557791872968
 20
8.32066738309536
 10
3.705660277262065
 20
8.295636915490538
 10
3.714753730006492
 20
8.270222477925686
 10
3.722823602521696
 20
8.244464728079448
 10
3.729856984733132
 20
8.218404872856888
 10
3.732486962695944
 20
8.207432496516256
1001
REVIT
1002
{
1070
     2
1000
-2001160
1002
}
  0
LWPOLYLINE
  5
48F
330
464
100
AcDbEntity
  8
D35160102
100
AcDbPolyline
 90
       12
 70
   128
 43
0.0
 10
3.737232174135282
 20
8.186878727648386
 10
3.742776932405625
 20
8.160462062921808
 10
3.747260870626909
 20
8.133844797517927
 10
3.750676815454511
 20
8.107069513383342
 10
3.7530193021054
 20
8.080179045260912
 10
3.754284583100634
 20
8.053216412163308
 10
3.754470634260538
 20
8.026224748551761
 10
3.753577157942942
 20
7.999247235330137
 10
3.751605583519356
 20
7.972327030764694
 10
3.748559065088283
 20
7.945507201440068
 10
3.744442476429316
 20
7.918830653361919
 10
3.742406173073572
 20
7.907732757377153
1001
REVIT
1002
{
1070
     2
1000
-2001160
1002
}
  0
LWPOLYLINE
  5
490
330
464
100
AcDbEntity
  8
D35160102
100
AcDbPolyline
 90
       36
 70
   128
 43
0.0
 10
3.732486962695944
 20
8.207432496516256
 10
3.732488860527453
 20
8.207424276104852
 10
3.732494550985862
 20
8.207399628021541
 10
3.732504024967649
 20
8.207358591698005
 10
3.73251726731646
 20
8.207301232783599
 10
3.732554966380746
 20
8.207137940196169
 10
3.732579362785756
 20
8.207032267756446
 10
3.732607407033359
 20
8.206910794774552
 10
3.732674253833078
 20
8.206621249474293
 10
3.732712949444579
 20
8.206453640366643
 10
3.732849366093201
 20
8.205862754944265
 10
3.732901372415032
 20
8.205637490815959
 10
3.733577644074358
 20
8.202708236439118
 10
3.733658507337892
 20
8.20235797916402
 10
3.73455012437828
 20
8.198495961464468
 10
3.734644440400799
 20
8.19808743388838
 10
3.734833953486528
 20
8.197266562529664
 10
3.734928847369239
 20
8.196855531966104
 10
3.735932404164206
 20
8.192508649920219
 10
3.73601617123985
 20
8.192145814853018
 10
3.736098087997699
 20
8.191790994392688
 10
3.736404679632997
 20
8.190463000121129
 10
3.73647544549312
 20
8.190156479505297
 10
3.736671800732832
 20
8.189305971521683
 10
3.736731589317795
 20
8.189046998708372
 10
3.736788383068653
 20
8.188800997946712
 10
3.736842091127527
 20
8.188568362785449
 10
3.73698386743672
 20
8.187954262122625
 10
3.737024424890698
 20
8.187778588489207
 10
3.737095090530281
 20
8.187472501976195
 10
3.737125085665944
 20
8.187342578769735
 10
3.73715145645729
 20
8.187228354323234
 10
3.73717416071668
 20
8.187130011371447
 10
3.737193162122139
 20
8.187047707242118
 10
3.737219940750904
 20
8.18693171625769
 10
3.737231621051737
 20
8.186881123316419
1001
REVIT
1002
{
1070
     2
1000
-2001160
1002
}
  0
LINE
  5
491
330
464
100
AcDbEntity
  8
D35160102
100
AcDbLine
 10
5.322890905079221
 20
4.842575507715
 30
0.0
 11
5.423095208297233
 21
4.727303643025406
 31
0.0
1001
REVIT
1002
{
1070
     2
1000
-2001160
1002
}
  0
LINE
  5
492
330
464
100
AcDbEntity
  8
D35160102
100
AcDbLine
 10
6.157211785768954
 20
4.994500225706494
 30
0.0
 11
6.159877409057784
 21
5.147213681645732
 31
0.0
1001
REVIT
1002
{
1070
     2
1000
-2001160
1002
}
  0
SPLINE
  5
493
330
464
100
AcDbEntity
  8
D35160102
100
AcDbSpline
210
0.0
220
0.0
230
1.0
 70
     8
 71
     3
 72
     9
 73
     5
 74
     0
 42
0.000000001
 43
0.0000000001
 40
0.0
 40
0.0
 40
0.0
 40
0.0
 40
0.5
 40
1.0
 40
1.0
 40
1.0
 40
1.0
 10
-1.026050130289547
 20
0.3261939176297075
 30
0.0
 10
-0.9499204422519014
 20
0.7463517670986289
 30
0.0
 10
-0.8306662410914569
 20
1.595104735803149
 30
0.0
 10
-0.7830696371386204
 20
2.453085505146161
 30
0.0
 10
-0.7777713240917983
 20
2.882447315414247
 30
0.0
1001
REVIT
1002
{
1070
     2
1000
-2001160
1002
}
  0
SPLINE
  5
494
330
464
100
AcDbEntity
  8
D35160102
100
AcDbSpline
210
0.0
220
0.0
230
1.0
 70
     8
 71
     3
 72
     9
 73
     5
 74
     0
 42
0.000000001
 43
0.0000000001
 40
-1.0
 40
-1.0
 40
-1.0
 40
-1.0
 40
-0.5
 40
0.0
 40
0.0
 40
0.0
 40
0.0
 10
0.7777582684342939
 20
2.882447315414247
 30
0.0
 10
0.7840706957975847
 20
2.453085915889545
 30
0.0
 10
0.8308974299710811
 20
1.595105554265387
 30
0.0
 10
0.9484177490409351
 20
0.7463521692903013
 30
0.0
 10
1.026050130291888
 20
0.3261939176297075
 30
0.0
1001
REVIT
1002
{
1070
     2
1000
-2001160
1002
}
  0
SPLINE
  5
495
330
464
100
AcDbEntity
  8
D35160102
100
AcDbSpline
210
0.0
220
0.0
230
1.0
 70
     8
 71
     3
 72
     9
 73
     5
 74
     0
 42
0.000000001
 43
0.0000000001
 40
-1.0
 40
-1.0
 40
-1.0
 40
-1.0
 40
-0.5
 40
0.0
 40
0.0
 40
0.0
 40
0.0
 10
0.0000399551840395
 20
2.882447315414246
 30
0.0
 10
0.0010527442360484
 20
2.453085915909547
 30
0.0
 10
0.0002739439726227
 20
1.595105554305243
 30
0.0
 10
-0.0014846720696582
 20
0.7463521693098859
 30
0.0
 10
0.0000000000006466
 20
0.3261939176297071
 30
0.0
1001
REVIT
1002
{
1070
     2
1000
-2001160
1002
}
  0
SPLINE
  5
496
330
464
100
AcDbEntity
  8
D35160102
100
AcDbSpline
210
0.0
220
0.0
230
1.0
 70
     8
 71
     3
 72
     9
 73
     5
 74
     0
 42
0.000000001
 43
0.0000000001
 40
0.0
 40
0.0
 40
0.0
 40
0.0
 40
0.5
 40
1.0
 40
1.0
 40
1.0
 40
1.0
 10
-0.7777713240917912
 20
2.882447315414462
 30
0.0
 10
-0.7706170675451816
 20
3.421831647423871
 30
0.0
 10
-0.7799906182996886
 20
4.501047365660395
 30
0.0
 10
-0.8364466154567224
 20
5.578537650110682
 30
0.0
 10
-0.8759955708857525
 20
6.116197277400508
 30
0.0
1001
REVIT
1002
{
1070
     2
1000
-2001160
1002
}
  0
LINE
  5
497
330
464
100
AcDbEntity
  8
D35160102
100
AcDbLine
 10
0.9630344833173865
 20
6.116197277400508
 30
0.0
 11
-0.9630344833673234
 21
6.116197277400508
 31
0.0
1001
REVIT
1002
{
1070
     2
1000
-2001160
1002
}
  0
ELLIPSE
  5
498
330
464
100
AcDbEntity
  8
D35160102
100
AcDbEllipse
 10
-4.617564650668022
 20
3.535971468206628
 30
0.0
 11
5.295037825482307
 21
1.556191515519249
 31
0.0
210
0.0
220
0.0
230
1.0
 40
0.8658136872315408
 41
6.169673098467494
 42
6.172252862494968
1001
REVIT
1002
{
1070
     2
1000
-2001160
1002
}
  0
SPLINE
  5
499
330
464
100
AcDbEntity
  8
D35160102
100
AcDbSpline
210
0.0
220
0.0
230
1.0
 70
     8
 71
     3
 72
     9
 73
     5
 74
     0
 42
0.000000001
 43
0.0000000001
 40
0.0
 40
0.0
 40
0.0
 40
0.0
 40
0.5
 40
1.0
 40
1.0
 40
1.0
 40
1.0
 10
0.849151091213887
 20
5.725137373240865
 30
0.0
 10
0.8508563892455605
 20
5.73192524056179
 30
0.0
 10
0.8542431803390435
 20
5.745504341659537
 30
0.0
 10
0.8575825662993317
 20
5.759090169431775
 30
0.0
 10
0.8592404597624394
 20
5.765884763422871
 30
0.0
1001
REVIT
1002
{
1070
     2
1000
-2001160
1002
}
  0
SPLINE
  5
49A
330
464
100
AcDbEntity
  8
D35160102
100
AcDbSpline
210
0.0
220
0.0
230
1.0
 70
     8
 71
     3
 72
     9
 73
     5
 74
     0
 42
0.000000001
 43
0.0000000001
 40
-1.0
 40
-1.0
 40
-1.0
 40
-1.0
 40
-0.5
 40
0.0
 40
0.0
 40
0.0
 40
0.0
 10
0.7940870766614623
 20
4.575068394003968
 30
0.0
 10
0.7849284791045506
 20
4.293089092999903
 30
0.0
 10
0.773088899573839
 20
3.728881364004305
 30
0.0
 10
0.7740644097131053
 20
3.164550130131619
 30
0.0
 10
0.7777582684343081
 20
2.882447315414462
 30
0.0
1001
REVIT
1002
{
1070
     2
1000
-2001160
1002
}
  0
SPLINE
  5
49B
330
464
100
AcDbEntity
  8
D35160102
100
AcDbSpline
210
0.0
220
0.0
230
1.0
 70
     8
 71
     3
 72
     9
 73
     5
 74
     0
 42
0.000000001
 43
0.0000000001
 40
0.0
 40
0.0
 40
0.0
 40
0.0
 40
0.5
 40
1.0
 40
1.0
 40
1.0
 40
1.0
 10
0.7940870766614623
 20
4.575068394003968
 30
0.0
 10
0.7488027239014201
 20
4.66868638933456
 30
0.0
 10
0.6419859610535035
 20
4.843469161319504
 30
0.0
 10
0.4966393215171721
 20
4.993358737830713
 30
0.0
 10
0.4136059494263336
 20
5.062084652423397
 30
0.0
1001
REVIT
1002
{
1070
     2
1000
-2001160
1002
}
  0
SPLINE
  5
49C
330
464
100
AcDbEntity
  8
D35160102
100
AcDbSpline
210
0.0
220
0.0
230
1.0
 70
     8
 71
     3
 72
     9
 73
     5
 74
     0
 42
0.000000001
 43
0.0000000001
 40
0.0
 40
0.0
 40
0.0
 40
0.0
 40
0.5
 40
1.0
 40
1.0
 40
1.0
 40
1.0
 10
0.4136059494263336
 20
5.062084652423398
 30
0.0
 10
0.5023253339218066
 20
5.165783086853653
 30
0.0
 10
0.6629775799679152
 20
5.380005168868816
 30
0.0
 10
0.791678462589001
 20
5.607834346854997
 30
0.0
 10
0.8491510912138799
 20
5.725137373240865
 30
0.0
1001
REVIT
1002
{
1070
     2
1000
-2001160
1002
}
  0
SPLINE
  5
49D
330
464
100
AcDbEntity
  8
D35160102
100
AcDbSpline
210
0.0
220
0.0
230
1.0
 70
     8
 71
     3
 72
     9
 73
     5
 74
     0
 42
0.000000001
 43
0.0000000001
 40
-1.0
 40
-1.0
 40
-1.0
 40
-1.0
 40
-0.5
 40
0.0
 40
0.0
 40
0.0
 40
0.0
 10
0.8759871935365453
 20
6.116197277400508
 30
0.0
 10
0.8711724346826024
 20
6.051050616114868
 30
0.0
 10
0.8618864218098742
 20
5.920725754222324
 30
0.0
 10
0.8532830993209223
 20
5.790342463216666
 30
0.0
 10
0.8491510912138799
 20
5.725137373240866
 30
0.0
1001
REVIT
1002
{
1070
     2
1000
-2001160
1002
}
  0
SPLINE
  5
49E
330
464
100
AcDbEntity
  8
D35160102
100
AcDbSpline
210
0.0
220
0.0
230
1.0
 70
     8
 71
     3
 72
     9
 73
     5
 74
     0
 42
0.000000001
 43
0.0000000001
 40
-1.0
 40
-1.0
 40
-1.0
 40
-1.0
 40
-0.5
 40
0.0
 40
0.0
 40
0.0
 40
0.0
 10
0.0000246421401258
 20
6.116197277400508
 30
0.0
 10
-0.0004933492782975
 20
5.578524317541066
 30
0.0
 10
0.0001766006001311
 20
4.501020606461092
 30
0.0
 10
0.000291432811597
 20
3.421818269485989
 30
0.0
 10
0.0000399551840431
 20
2.882447315414461
 30
0.0
1001
REVIT
1002
{
1070
     2
1000
-2001160
1002
}
  0
LINE
  5
49F
330
464
100
AcDbEntity
  8
D35160102
100
AcDbLine
 10
-1.186045829108156
 20
0.3261939176297279
 30
0.0
 11
1.186045829108163
 21
0.3261939176296951
 31
0.0
1001
REVIT
1002
{
1070
     2
1000
-2001160
1002
}
  0
LINE
  5
4A0
330
464
100
AcDbEntity
  8
D35160102
100
AcDbLine
 10
-1.312500000000003
 20
0.0000000000000182
 30
0.0
 11
1.3125
 21
-0.0000000000000181
 31
0.0
1001
REVIT
1002
{
1070
     2
1000
-2001160
1002
}
  0
SPLINE
  5
4A1
330
464
100
AcDbEntity
  8
D35160102
100
AcDbSpline
210
0.0
220
0.0
230
1.0
 70
     8
 71
     3
 72
     9
 73
     5
 74
     0
 42
0.000000001
 43
0.0000000001
 40
0.0
 40
0.0
 40
0.0
 40
0.0
 40
0.5
 40
1.0
 40
1.0
 40
1.0
 40
1.0
 10
-0.2978308788853745
 20
7.012656007564757
 30
0.0
 10
-0.3339233004609525
 20
7.146072418343202
 30
0.0
 10
-0.4053860829924645
 20
7.413025437949673
 30
0.0
 10
-0.4761506111474532
 20
7.680218853655305
 30
0.0
 10
-0.5115785066643852
 20
7.813875660532912
 30
0.0
1001
REVIT
1002
{
1070
     2
1000
-2001160
1002
}
  0
SPLINE
  5
4A2
330
464
100
AcDbEntity
  8
D35160102
100
AcDbSpline
210
0.0
220
0.0
230
1.0
 70
     8
 71
     3
 72
    19
 73
    15
 74
     0
 42
0.000000001
 43
0.0000000001
 40
0.0
 40
0.0
 40
0.0
 40
0.0
 40
0.3333333333333333
 40
0.5
 40
0.5416666666666666
 40
0.5833333333333333
 40
0.625
 40
0.6666666666666666
 40
0.7083333333333333
 40
0.75
 40
0.8333333333333332
 40
0.875
 40
0.9166666666666666
 40
1.0
 40
1.0
 40
1.0
 40
1.0
 10
0.4152255403804937
 20
7.450747499623015
 30
0.0
 10
0.4290014270107818
 20
7.493810930345698
 30
0.0
 10
0.4518877628332021
 20
7.555242580183121
 30
0.0
 10
0.476552722528659
 20
7.612874737877596
 30
0.0
 10
0.487022784436757
 20
7.636330501929516
 30
0.0
 10
0.4921190887885132
 20
7.647627723097271
 30
0.0
 10
0.4969573864538113
 20
7.658205016687973
 30
0.0
 10
0.5014218672414721
 20
7.667785684189353
 30
0.0
 10
0.5055501393655924
 20
7.676530098792592
 30
0.0
 10
0.5106304482031803
 20
7.687274125180166
 30
0.0
 10
0.5147499329952297
 20
7.695881038274055
 30
0.0
 10
0.517625751765344
 20
7.701727701798559
 30
0.0
 10
0.519766574480574
 20
7.706079001475717
 30
0.0
 10
0.5204835972266971
 20
7.70756321619313
 30
0.0
 10
0.5205455085861069
 20
7.707772685510327
 30
0.0
1001
REVIT
1002
{
1070
     2
1000
-2001160
1002
}
  0
SPLINE
  5
4A3
330
464
100
AcDbEntity
  8
D35160102
100
AcDbSpline
210
0.0
220
0.0
230
1.0
 70
     8
 71
     3
 72
    13
 73
     9
 74
     0
 42
0.000000001
 43
0.0000000001
 40
0.0
 40
0.0
 40
0.0
 40
0.0
 40
0.2
 40
0.4
 40
0.55
 40
0.625
 40
0.7
 40
1.0
 40
1.0
 40
1.0
 40
1.0
 10
0.363330455511818
 20
7.175855277571694
 30
0.0
 10
0.3633526180820894
 20
7.175930261847667
 30
0.0
 10
0.3635135673422205
 20
7.180713494197687
 30
0.0
 10
0.3646139543193314
 20
7.20041090718081
 30
0.0
 10
0.366648006981066
 20
7.223734108294603
 30
0.0
 10
0.3687438694501814
 20
7.242868468043559
 30
0.0
 10
0.3728643309023241
 20
7.274939712280118
 30
0.0
 10
0.3779873710123525
 20
7.305725942999997
 30
0.0
 10
0.3837777929600818
 20
7.332853935092866
 30
0.0
1001
REVIT
1002
{
1070
     2
1000
-2001160
1002
}
  0
LWPOLYLINE
  5
4A4
330
464
100
AcDbEntity
  8
D35160102
100
AcDbPolyline
 90
        3
 70
   128
 43
0.0
 10
0.3837777929600818
 20
7.332853935092866
 10
0.3408938888065869
 20
7.17271088771817
 10
0.2978106215870539
 20
7.012656007564757
1001
REVIT
1002
{
1070
     2
1000
-2001160
1002
}
  0
SPLINE
  5
4A5
330
464
100
AcDbEntity
  8
D35160102
100
AcDbSpline
210
0.0
220
0.0
230
1.0
 70
     8
 71
     3
 72
     9
 73
     5
 74
     0
 42
0.000000001
 43
0.0000000001
 40
0.0
 40
0.0
 40
0.0
 40
0.0
 40
0.5
 40
1.0
 40
1.0
 40
1.0
 40
1.0
 10
0.3837777929600818
 20
7.332853935092866
 30
0.0
 10
0.3847240060153574
 20
7.35287409961245
 30
0.0
 10
0.3907376834935761
 20
7.392543191553726
 30
0.0
 10
0.4055773561419187
 20
7.431469809299218
 30
0.0
 10
0.4152255403804937
 20
7.450747499623017
 30
0.0
1001
REVIT
1002
{
1070
     2
1000
-2001160
1002
}
  0
LWPOLYLINE
  5
4A6
330
464
100
AcDbEntity
  8
D35160102
100
AcDbPolyline
 90
        3
 70
   128
 43
0.0
 10
0.5115573318567286
 20
7.81387566053291
 10
0.463475959904919
 20
7.632286423758404
 10
0.4152255403804937
 20
7.450747499623015
1001
REVIT
1002
{
1070
     2
1000
-2001160
1002
}
  0
LINE
  5
4A7
330
464
100
AcDbEntity
  8
D35160102
100
AcDbLine
 10
0.8784886888005516
 20
6.314779894271527
 30
0.0
 11
0.8784886888005516
 21
6.149843616170385
 31
0.0
1001
REVIT
1002
{
1070
     2
1000
-2001160
1002
}
  0
LINE
  5
4A8
330
464
100
AcDbEntity
  8
D35160102
100
AcDbLine
 10
0.9658748094048874
 20
6.149843616170385
 30
0.0
 11
-0.0840319090113084
 21
6.149843616170385
 31
0.0
1001
REVIT
1002
{
1070
     2
1000
-2001160
1002
}
  0
SPLINE
  5
4A9
330
464
100
AcDbEntity
  8
D35160102
100
AcDbSpline
210
0.0
220
0.0
230
1.0
 70
     8
 71
     3
 72
     9
 73
     5
 74
     0
 42
0.000000001
 43
0.0000000001
 40
-1.0
 40
-1.0
 40
-1.0
 40
-1.0
 40
-0.5
 40
0.0
 40
0.0
 40
0.0
 40
0.0
 10
0.0000764808181835
 20
7.81387566053291
 30
0.0
 10
0.0004373224951593
 20
7.680213289500772
 30
0.0
 10
0.0000877449634622
 20
7.413014309640613
 30
0.0
 10
-0.0002610193536441
 20
7.146066854188671
 30
0.0
 10
0.0000965897121894
 20
7.012656007564754
 30
0.0
1001
REVIT
1002
{
1070
     2
1000
-2001160
1002
}
  0
LINE
  5
4AA
330
464
100
AcDbEntity
  8
D35160102
100
AcDbLine
 10
0.0000242428004178
 20
6.314779894271525
 30
0.0
 11
0.0000242428004178
 21
6.149843616170384
 31
0.0
1001
REVIT
1002
{
1070
     2
1000
-2001160
1002
}
  0
LINE
  5
4AB
330
464
100
AcDbEntity
  8
D35160102
100
AcDbLine
 10
0.9560829134093928
 20
6.314779894271527
 30
0.0
 11
-0.4222013936178862
 21
6.314779894271525
 31
0.0
1001
REVIT
1002
{
1070
     2
1000
-2001160
1002
}
  0
LWPOLYLINE
  5
4AC
330
464
100
AcDbEntity
  8
D35160102
100
AcDbPolyline
 90
        2
 70
   128
 43
0.0
 10
-0.4222013936178862
 20
6.314779894271531
 10
-0.0840319090113084
 20
6.149843616170384
1001
REVIT
1002
{
1070
     2
1000
-2001160
1002
}
  0
LINE
  5
4AD
330
464
100
AcDbEntity
  8
D35160102
100
AcDbLine
 10
-0.2978308788853496
 20
6.970829345539973
 30
0.0
 11
-0.2978308788853496
 21
7.012656007564765
 31
0.0
1001
REVIT
1002
{
1070
     2
1000
-2001160
1002
}
  0
SPLINE
  5
4AE
330
464
100
AcDbEntity
  8
D35160102
100
AcDbSpline
210
0.0
220
0.0
230
1.0
 70
    24
 71
     3
 72
     8
 73
     4
 74
     0
 42
0.000000001
 43
0.0000000001
 40
0.0
 40
0.0
 40
0.0
 40
0.0
 40
0.4994171958111571
 40
0.4994171958111571
 40
0.4994171958111571
 40
0.4994171958111571
 10
-0.7419844201979729
 20
6.470748497604858
 30
0.0
 10
-0.7730277386920861
 20
6.485889335691666
 30
0.0
 10
-0.7885674901151632
 20
6.493468578878909
 30
0.0
 10
-0.7886036744672005
 20
6.493486227166591
 30
0.0
1001
REVIT
1002
{
1070
     2
1000
-2001160
1002
}
  0
SPLINE
  5
4AF
330
464
100
AcDbEntity
  8
D35160102
100
AcDbSpline
210
0.0
220
0.0
230
1.0
 70
     8
 71
     3
 72
     9
 73
     5
 74
     0
 42
0.000000001
 43
0.0000000001
 40
0.0
 40
0.0
 40
0.0
 40
0.0
 40
0.5
 40
1.0
 40
1.0
 40
1.0
 40
1.0
 10
-0.7419844201979729
 20
6.470748497604858
 30
0.0
 10
-0.6674961800192634
 20
6.554847958656826
 30
0.0
 10
-0.5209063751084671
 20
6.722294227697979
 30
0.0
 10
-0.3731295040387188
 20
6.888235190613569
 30
0.0
 10
-0.2978308788853745
 20
6.970829345539973
 30
0.0
1001
REVIT
1002
{
1070
     2
1000
-2001160
1002
}
  0
LINE
  5
4B0
330
464
100
AcDbEntity
  8
D35160102
100
AcDbLine
 10
0.2978106215870362
 20
7.012656007564765
 30
0.0
 11
0.2978106215870433
 21
6.970829345539973
 31
0.0
1001
REVIT
1002
{
1070
     2
1000
-2001160
1002
}
  0
SPLINE
  5
4B1
330
464
100
AcDbEntity
  8
D35160102
100
AcDbSpline
210
0.0
220
0.0
230
1.0
 70
     8
 71
     3
 72
     9
 73
     5
 74
     0
 42
0.000000001
 43
0.0000000001
 40
-1.0
 40
-1.0
 40
-1.0
 40
-1.0
 40
-0.5
 40
0.0
 40
0.0
 40
0.0
 40
0.0
 10
0.297810621587061
 20
6.970829345539973
 30
0.0
 10
0.3921167025043637
 20
6.863184504463133
 30
0.0
 10
0.588493853885943
 20
6.646198088174886
 30
0.0
 10
0.7842343573869819
 20
6.425818203617505
 30
0.0
 10
0.8784886888005516
 20
6.314779894271531
 30
0.0
1001
REVIT
1002
{
1070
     2
1000
-2001160
1002
}
  0
LINE
  5
4B2
330
464
100
AcDbEntity
  8
D35160102
100
AcDbLine
 10
-0.2978308788853532
 20
7.012656007564763
 30
0.0
 11
0.3150948040542154
 21
7.012656007564765
 31
0.0
1001
REVIT
1002
{
1070
     2
1000
-2001160
1002
}
  0
LINE
  5
4B3
330
464
100
AcDbEntity
  8
D35160102
100
AcDbLine
 10
0.0000965897121965
 20
7.012656007564763
 30
0.0
 11
0.0000965897122072
 21
6.970829345539972
 31
0.0
1001
REVIT
1002
{
1070
     2
1000
-2001160
1002
}
  0
SPLINE
  5
4B4
330
464
100
AcDbEntity
  8
D35160102
100
AcDbSpline
210
0.0
220
0.0
230
1.0
 70
     8
 71
     3
 72
     9
 73
     5
 74
     0
 42
0.000000001
 43
0.0000000001
 40
-1.0
 40
-1.0
 40
-1.0
 40
-1.0
 40
-0.5
 40
0.0
 40
0.0
 40
0.0
 40
0.0
 10
0.0000965897121965
 20
6.970829345539972
 30
0.0
 10
-0.0039860086817889
 20
6.863184453253051
 30
0.0
 10
0.0000252332103514
 20
6.646197985754722
 30
0.0
 10
0.0042031237290026
 20
6.425818152407422
 30
0.0
 10
0.0000242428004178
 20
6.314779894271528
 30
0.0
1001
REVIT
1002
{
1070
     2
1000
-2001160
1002
}
  0
LINE
  5
4B5
330
464
100
AcDbEntity
  8
D35160102
100
AcDbLine
 10
-0.2978308788853781
 20
6.970829345539972
 30
0.0
 11
0.3150948040542403
 21
6.970829345539973
 31
0.0
1001
REVIT
1002
{
1070
     2
1000
-2001160
1002
}
  0
SPLINE
  5
4B6
330
464
100
AcDbEntity
  8
D35160102
100
AcDbSpline
210
0.0
220
0.0
230
1.0
 70
    24
 71
     3
 72
     9
 73
     5
 74
     0
 42
0.000000001
 43
0.0000000001
 40
0.0
 40
0.0
 40
0.0
 40
0.0
 40
0.5
 40
1.0
 40
1.0
 40
1.0
 40
1.0
 10
-0.4222013936178862
 20
6.314779894271532
 30
0.0
 10
-0.4843627833317044
 20
6.345098029785503
 30
0.0
 10
-0.5998213441422032
 20
6.401410932521695
 30
0.0
 10
-0.6975514677184265
 20
6.449077098674385
 30
0.0
 10
-0.7419844201979729
 20
6.470748497604858
 30
0.0
1001
REVIT
1002
{
1070
     2
1000
-2001160
1002
}
  0
SPLINE
  5
4B7
330
464
100
AcDbEntity
  8
D35160102
100
AcDbSpline
210
0.0
220
0.0
230
1.0
 70
     8
 71
     3
 72
    10
 73
     6
 74
     0
 42
0.000000001
 43
0.0000000001
 40
0.0
 40
0.0
 40
0.0
 40
0.0
 40
0.3333333333333333
 40
0.6666666666666666
 40
1.0
 40
1.0
 40
1.0
 40
1.0
 10
-0.4226823939759861
 20
7.949213301942342
 30
0.0
 10
-0.4205404979130947
 20
7.951745113157396
 30
0.0
 10
-0.4156240893978734
 20
7.956131307822201
 30
0.0
 10
-0.4070046913677423
 20
7.960235145905651
 30
0.0
 10
-0.4008223038845671
 20
7.961160529099204
 30
0.0
 10
-0.3977484687447195
 20
7.961160529099202
 30
0.0
1001
REVIT
1002
{
1070
     2
1000
-2001160
1002
}
  0
SPLINE
  5
4B8
330
464
100
AcDbEntity
  8
D35160102
100
AcDbSpline
210
0.0
220
0.0
230
1.0
 70
     8
 71
     3
 72
     9
 73
     5
 74
     0
 42
0.000000001
 43
0.0000000001
 40
0.0
 40
0.0
 40
0.0
 40
0.0
 40
0.5
 40
1.0
 40
1.0
 40
1.0
 40
1.0
 10
-0.502988131652586
 20
7.854174453669624
 30
0.0
 10
-0.4896196187013083
 20
7.87003873110732
 30
0.0
 10
-0.462878768403634
 20
7.901742816590469
 30
0.0
 10
-0.436094168604118
 20
7.933397963289132
 30
0.0
 10
-0.4226823939759861
 20
7.94921330194234
 30
0.0
1001
REVIT
1002
{
1070
     2
1000
-2001160
1002
}
  0
SPLINE
  5
4B9
330
464
100
AcDbEntity
  8
D35160102
100
AcDbSpline
210
0.0
220
0.0
230
1.0
 70
     8
 71
     3
 72
     9
 73
     5
 74
     0
 42
0.000000001
 43
0.0000000001
 40
0.0
 40
0.0
 40
0.0
 40
0.0
 40
0.5
 40
1.0
 40
1.0
 40
1.0
 40
1.0
 10
-0.5115785066643888
 20
7.81387566053291
 30
0.0
 10
-0.5134099816783966
 20
7.820808705269748
 30
0.0
 10
-0.5137646730352188
 20
7.835843637909843
 30
0.0
 10
-0.5073738736263281
 20
7.848961875432331
 30
0.0
 10
-0.502988131652586
 20
7.854174453669622
 30
0.0
1001
REVIT
1002
{
1070
     2
1000
-2001160
1002
}
  0
SPLINE
  5
4BA
330
464
100
AcDbEntity
  8
D35160102
100
AcDbSpline
210
0.0
220
0.0
230
1.0
 70
     8
 71
     3
 72
    10
 73
     6
 74
     0
 42
0.000000001
 43
0.0000000001
 40
-1.0
 40
-1.0
 40
-1.0
 40
-1.0
 40
-0.6666666666666666
 40
-0.3333333333333333
 40
0.0
 40
0.0
 40
0.0
 40
0.0
 10
0.397726701852072
 20
7.961160529099202
 30
0.0
 10
0.4008193486891898
 20
7.961160529099202
 30
0.0
 10
0.4069636206140359
 20
7.960236653855392
 30
0.0
 10
0.4156050824093711
 20
7.956137195864601
 30
0.0
 10
0.4204977283373097
 20
7.951748543880039
 30
0.0
 10
0.4226605662803067
 20
7.949213301942342
 30
0.0
1001
REVIT
1002
{
1070
     2
1000
-2001160
1002
}
  0
SPLINE
  5
4BB
330
464
100
AcDbEntity
  8
D35160102
100
AcDbSpline
210
0.0
220
0.0
230
1.0
 70
     8
 71
     3
 72
     9
 73
     5
 74
     0
 42
0.000000001
 43
0.0000000001
 40
-1.0
 40
-1.0
 40
-1.0
 40
-1.0
 40
-0.5
 40
0.0
 40
0.0
 40
0.0
 40
0.0
 10
0.4226605662803067
 20
7.949213301942342
 30
0.0
 10
0.4360549375839007
 20
7.933400807857963
 30
0.0
 10
0.4628522059625766
 20
7.901748505728128
 30
0.0
 10
0.4896107843988773
 20
7.870041575676149
 30
0.0
 10
0.5029668391366507
 20
7.854174453669624
 30
0.0
1001
REVIT
1002
{
1070
     2
1000
-2001160
1002
}
  0
SPLINE
  5
4BC
330
464
100
AcDbEntity
  8
D35160102
100
AcDbSpline
210
0.0
220
0.0
230
1.0
 70
     8
 71
     3
 72
     9
 73
     5
 74
     0
 42
0.000000001
 43
0.0000000001
 40
-1.0
 40
-1.0
 40
-1.0
 40
-1.0
 40
-0.5
 40
0.0
 40
0.0
 40
0.0
 40
0.0
 10
0.5029668391366507
 20
7.854174453669624
 30
0.0
 10
0.5073717872038906
 20
7.848962654500204
 30
0.0
 10
0.5137319010135713
 20
7.835843486254408
 30
0.0
 10
0.5133928529405054
 20
7.820808643116364
 30
0.0
 10
0.5115573318567286
 20
7.81387566053291
 30
0.0
1001
REVIT
1002
{
1070
     2
1000
-2001160
1002
}
  0
SPLINE
  5
4BD
330
464
100
AcDbEntity
  8
D35160102
100
AcDbSpline
210
0.0
220
0.0
230
1.0
 70
     8
 71
     3
 72
    10
 73
     6
 74
     0
 42
0.000000001
 43
0.0000000001
 40
-1.0
 40
-1.0
 40
-1.0
 40
-1.0
 40
-0.6666666666666666
 40
-0.3333333333333333
 40
0.0
 40
0.0
 40
0.0
 40
0.0
 10
0.0000886563439195
 20
7.961160529099202
 30
0.0
 10
0.0001100671974115
 20
7.961160529099202
 30
0.0
 10
0.0000752420604222
 20
7.960236653757386
 30
0.0
 10
0.000098273089673
 20
7.956137195520414
 30
0.0
 10
0.0000683649963626
 20
7.951748543680854
 30
0.0
 10
0.0000862357163669
 20
7.949213301942342
 30
0.0
1001
REVIT
1002
{
1070
     2
1000
-2001160
1002
}
  0
SPLINE
  5
4BE
330
464
100
AcDbEntity
  8
D35160102
100
AcDbSpline
210
0.0
220
0.0
230
1.0
 70
     8
 71
     3
 72
     9
 73
     5
 74
     0
 42
0.000000001
 43
0.0000000001
 40
-1.0
 40
-1.0
 40
-1.0
 40
-1.0
 40
-0.5
 40
0.0
 40
0.0
 40
0.0
 40
0.0
 10
0.0000862357163669
 20
7.94921330194234
 30
0.0
 10
0.0000699300677311
 20
7.933400807598334
 30
0.0
 10
0.0000820645583239
 20
7.901748505208874
 30
0.0
 10
0.0000940565007141
 20
7.870041575416521
 30
0.0
 10
0.0000774919152704
 20
7.854174453669622
 30
0.0
1001
REVIT
1002
{
1070
     2
1000
-2001160
1002
}
  0
SPLINE
  5
4BF
330
464
100
AcDbEntity
  8
D35160102
100
AcDbSpline
210
0.0
220
0.0
230
1.0
 70
     8
 71
     3
 72
     9
 73
     5
 74
     0
 42
0.000000001
 43
0.0000000001
 40
-1.0
 40
-1.0
 40
-1.0
 40
-1.0
 40
-0.5
 40
0.0
 40
0.0
 40
0.0
 40
0.0
 10
0.0000774919152704
 20
7.854174453669622
 30
0.0
 10
0.0000968009555464
 20
7.848962654464055
 30
0.0
 10
0.0000642916409461
 20
7.835843486254453
 30
0.0
 10
0.0000803021009119
 20
7.820808643117715
 30
0.0
 10
0.0000764808181835
 20
7.813875660532906
 30
0.0
1001
REVIT
1002
{
1070
     2
1000
-2001160
1002
}
  0
LINE
  5
4C0
330
464
100
AcDbEntity
  8
D35160102
100
AcDbLine
 10
3.61452916292395
 20
7.807824287386597
 30
0.0
 11
3.456035697083169
 21
8.494334910907616
 31
0.0
1001
REVIT
1002
{
1070
     2
1000
-2001160
1002
}
  0
LINE
  5
4C1
330
464
100
AcDbEntity
  8
D35160102
100
AcDbLine
 10
3.742406173073568
 20
7.907732757377144
 30
0.0
 11
3.614767783027886
 21
8.460595364492498
 31
0.0
1001
REVIT
1002
{
1070
     2
1000
-2001160
1002
}
  0
SPLINE
  5
4C2
330
464
100
AcDbEntity
  8
D35160102
100
AcDbSpline
210
0.0
220
0.0
230
1.0
 70
     8
 71
     3
 72
    22
 73
    18
 74
     0
 42
0.000000001
 43
0.0000000001
 40
0.0
 40
0.0
 40
0.0
 40
0.0
 40
0.0416666666666667
 40
0.0833333333333333
 40
0.125
 40
0.1666666666666666
 40
0.2083333333333333
 40
0.25
 40
0.2916666666666666
 40
0.3333333333333333
 40
0.375
 40
0.4166666666666667
 40
0.5
 40
0.5833333333333334
 40
0.6666666666666666
 40
0.8333333333333333
 40
1.0
 40
1.0
 40
1.0
 40
1.0
 10
5.301669813611535
 20
4.83485166208212
 30
0.0
 10
5.266831388515958
 20
4.91241954847012
 30
0.0
 10
5.202564327243367
 20
5.041824294661069
 30
0.0
 10
5.12307366360498
 20
5.168652529565601
 30
0.0
 10
5.063000078054329
 20
5.238696623948871
 30
0.0
 10
5.020168188239292
 20
5.273274940039488
 30
0.0
 10
4.974576724534383
 20
5.300355465856391
 30
0.0
 10
4.928342358580383
 20
5.31953178490868
 30
0.0
 10
4.878720144791284
 20
5.332220199151412
 30
0.0
 10
4.813964315199287
 20
5.341478974919452
 30
0.0
 10
4.729437799600209
 20
5.346152647471605
 30
0.0
 10
4.587006410879471
 20
5.342148208558656
 30
0.0
 10
4.353003517231226
 20
5.318710192188906
 30
0.0
 10
3.978620238679511
 20
5.261069458844983
 30
0.0
 10
3.382369851420452
 20
5.159692993710052
 30
0.0
 10
2.432926700205729
 20
4.970263566987142
 30
0.0
 10
1.396842463334795
 20
4.720348359038954
 30
0.0
 10
0.7960113776334943
 20
4.562866239297698
 30
0.0
1001
REVIT
1002
{
1070
     2
1000
-2001160
1002
}
  0
SPLINE
  5
4C3
330
464
100
AcDbEntity
  8
D35160102
100
AcDbSpline
210
0.0
220
0.0
230
1.0
 70
     8
 71
     3
 72
    22
 73
    18
 74
     0
 42
0.000000001
 43
0.0000000001
 40
0.0
 40
0.0
 40
0.0
 40
0.0
 40
0.1
 40
0.2
 40
0.3
 40
0.4
 40
0.45
 40
0.5
 40
0.6
 40
0.65
 40
0.7
 40
0.75
 40
0.775
 40
0.8
 40
0.825
 40
0.85
 40
0.9
 40
0.9
 40
0.9
 40
0.9
 10
0.8592404597624287
 20
5.765884763422876
 30
0.0
 10
1.202410382762533
 20
5.845913683873521
 30
0.0
 10
1.834497285133597
 20
5.984698655651158
 30
0.0
 10
2.636114089993721
 20
6.138413507038362
 30
0.0
 10
3.307418703592738
 20
6.246889781990729
 30
0.0
 10
3.770456279609511
 20
6.306970190278851
 30
0.0
 10
4.091956774424915
 20
6.342196699596772
 30
0.0
 10
4.395114762555095
 20
6.368048513274009
 30
0.0
 10
4.679353291880627
 20
6.374597351469007
 30
0.0
 10
4.961350601519857
 20
6.342499424179762
 30
0.0
 10
5.172281970064688
 20
6.290878620866885
 30
0.0
 10
5.343849743872089
 20
6.220080964683159
 30
0.0
 10
5.473615616944513
 20
6.145479418826647
 30
0.0
 10
5.566135733319924
 20
6.081762759208118
 30
0.0
 10
5.654659468843421
 20
6.009055454262565
 30
0.0
 10
5.771945460765122
 20
5.894209199555955
 30
0.0
 10
5.85174878585065
 20
5.791181342843473
 30
0.0
 10
5.901541442231458
 20
5.715525919173702
 30
0.0
1001
REVIT
1002
{
1070
     2
1000
-2001160
1002
}
  0
SPLINE
  5
4C4
330
464
100
AcDbEntity
  8
D35160102
100
AcDbSpline
210
0.0
220
0.0
230
1.0
 70
     8
 71
     3
 72
     9
 73
     5
 74
     0
 42
0.000000001
 43
0.0000000001
 40
0.9023577029632408
 40
0.9023577029632408
 40
0.9023577029632408
 40
0.9023577029632408
 40
0.95
 40
1.0
 40
1.0
 40
1.0
 40
1.0
 10
5.908562758259023
 20
5.704776743631972
 30
0.0
 10
5.955706799171522
 20
5.632056373349677
 30
0.0
 10
6.046219496167921
 20
5.469796123595267
 30
0.0
 10
6.133984619326627
 20
5.270049280921671
 30
0.0
 10
6.180167613315397
 20
5.154598712042682
 30
0.0
1001
REVIT
1002
{
1070
     2
1000
-2001160
1002
}
  0
LWPOLYLINE
  5
4C5
330
464
100
AcDbEntity
  8
D35160102
100
AcDbPolyline
 90
        2
 70
   128
 43
0.0
 10
5.301669813611535
 20
4.83485166208212
 10
5.741320408810032
 20
4.994871392211798
1001
REVIT
1002
{
1070
     2
1000
-2001160
1002
}
  0
SPLINE
  5
4C6
330
464
100
AcDbEntity
  8
D35160102
100
AcDbSpline
210
0.0
220
0.0
230
1.0
 70
     8
 71
     3
 72
    16
 73
    12
 74
     0
 42
0.000000001
 43
0.0000000001
 40
-1.0
 40
-1.0
 40
-1.0
 40
-1.0
 40
-0.9090909090909089
 40
-0.8181818181818181
 40
-0.7272727272727274
 40
-0.6363636363636364
 40
-0.5454545454545455
 40
-0.4545454545454545
 40
-0.3636363636363637
 40
-0.1818181818181818
 40
0.0
 40
0.0
 40
0.0
 40
0.0
 10
5.741320408810032
 20
4.994871392211797
 30
0.0
 10
5.657775041364047
 20
5.192984201857511
 30
0.0
 10
5.508465582561409
 20
5.477124653462241
 30
0.0
 10
5.298256313476384
 20
5.689406556963243
 30
0.0
 10
5.062066056227084
 20
5.810844248503379
 30
0.0
 10
4.784241690680909
 20
5.860989562289606
 30
0.0
 10
4.450213049088905
 20
5.854253467810492
 30
0.0
 10
4.044960890838982
 20
5.80747643822568
 30
0.0
 10
3.389867118278292
 20
5.713225630682041
 30
0.0
 10
2.3197620542328
 20
5.521214544508906
 30
0.0
 10
1.119172530426855
 20
5.243079710881126
 30
0.0
 10
0.4136059494263336
 20
5.062084652423399
 30
0.0
1001
REVIT
1002
{
1070
     2
1000
-2001160
1002
}
  0
LWPOLYLINE
  5
4C7
330
464
100
AcDbEntity
  8
D35160102
100
AcDbPolyline
 90
        2
 70
   128
 43
0.0
 10
5.741320408810032
 20
4.994871392211797
 10
6.180167613315401
 20
5.154598712042681
1001
REVIT
1002
{
1070
     2
1000
-2001160
1002
}
  0
LINE
  5
4C8
330
464
100
AcDbEntity
  8
D35160102
100
AcDbLine
 10
6.157211785768945
 20
4.994500225706488
 30
0.0
 11
5.423095208297226
 21
4.7273036430254
 31
0.0
1001
REVIT
1002
{
1070
     2
1000
-2001160
1002
}
  0
LINE
  5
4C9
330
464
100
AcDbEntity
  8
D35160102
100
AcDbLine
 10
-0.7516456797890428
 20
6.116197277400519
 30
0.0
 11
-0.7485451100298093
 21
6.146205094345841
 31
0.0
1001
REVIT
1002
{
1070
     1
1000
53090
1002
}
1002
{
1070
     2
1000
-2001160
1002
}
  0
LINE
  5
4CA
330
464
100
AcDbEntity
  8
D35160102
100
AcDbLine
 10
-0.7485451100298093
 20
6.146205094345841
 30
0.0
 11
-0.7442470277756357
 21
6.176064918517999
 31
0.0
1001
REVIT
1002
{
1070
     1
1000
53090
1002
}
1002
{
1070
     2
1000
-2001160
1002
}
  0
LINE
  5
4CB
330
464
100
AcDbEntity
  8
D35160102
100
AcDbLine
 10
-0.7442470277756357
 20
6.176064918517999
 30
0.0
 11
-0.738758309041252
 21
6.205728980568074
 31
0.0
1001
REVIT
1002
{
1070
     1
1000
53090
1002
}
1002
{
1070
     2
1000
-2001160
1002
}
  0
LINE
  5
4CC
330
464
100
AcDbEntity
  8
D35160102
100
AcDbLine
 10
-0.738758309041252
 20
6.205728980568074
 30
0.0
 11
-0.7320877346057735
 21
6.235149824324779
 31
0.0
1001
REVIT
1002
{
1070
     1
1000
53090
1002
}
1002
{
1070
     2
1000
-2001160
1002
}
  0
LINE
  5
4CD
330
464
100
AcDbEntity
  8
D35160102
100
AcDbLine
 10
-0.7320877346057735
 20
6.235149824324779
 30
0.0
 11
-0.7242459759653137
 21
6.264280382714218
 31
0.0
1001
REVIT
1002
{
1070
     1
1000
53090
1002
}
1002
{
1070
     2
1000
-2001160
1002
}
  0
LINE
  5
4CE
330
464
100
AcDbEntity
  8
D35160102
100
AcDbLine
 10
-0.7242459759653137
 20
6.264280382714218
 30
0.0
 11
-0.7152455782608769
 21
6.293074053057158
 31
0.0
1001
REVIT
1002
{
1070
     1
1000
53090
1002
}
1002
{
1070
     2
1000
-2001160
1002
}
  0
LINE
  5
4CF
330
464
100
AcDbEntity
  8
D35160102
100
AcDbLine
 10
-0.7152455782608769
 20
6.293074053057158
 30
0.0
 11
-0.7051009402088085
 21
6.321484771623364
 31
0.0
1001
REVIT
1002
{
1070
     1
1000
53090
1002
}
1002
{
1070
     2
1000
-2001160
1002
}
  0
LINE
  5
4D0
330
464
100
AcDbEntity
  8
D35160102
100
AcDbLine
 10
-0.7051009402088085
 20
6.321484771623364
 30
0.0
 11
-0.6938282910659162
 21
6.34946708732377
 31
0.0
1001
REVIT
1002
{
1070
     1
1000
53090
1002
}
1002
{
1070
     2
1000
-2001160
1002
}
  0
LINE
  5
4D1
330
464
100
AcDbEntity
  8
D35160102
100
AcDbLine
 10
-0.6938282910659162
 20
6.34946708732377
 30
0.0
 11
-0.6814456646661285
 21
6.376976234422492
 31
0.0
1001
REVIT
1002
{
1070
     1
1000
53090
1002
}
1002
{
1070
     2
1000
-2001160
1002
}
  0
LINE
  5
4D2
330
464
100
AcDbEntity
  8
D35160102
100
AcDbLine
 10
-0.6814456646661285
 20
6.376976234422492
 30
0.0
 11
-0.6679728705701998
 21
6.403968204152477
 31
0.0
1001
REVIT
1002
{
1070
     1
1000
53090
1002
}
1002
{
1070
     2
1000
-2001160
1002
}
  0
LINE
  5
4D3
330
464
100
AcDbEntity
  8
D35160102
100
AcDbLine
 10
-0.6679728705701998
 20
6.403968204152477
 30
0.0
 11
-0.6546639889166528
 21
6.42815947762134
 31
0.0
1001
REVIT
1002
{
1070
     1
1000
53090
1002
}
1002
{
1070
     2
1000
-2001160
1002
}
  0
LINE
  5
4D4
330
464
100
AcDbEntity
  8
D35160102
100
AcDbLine
 10
0.748230679992119
 20
6.149843616170392
 30
0.0
 11
0.7513188337971429
 21
6.122085413403234
 31
0.0
1001
REVIT
1002
{
1070
     1
1000
53090
1002
}
1002
{
1070
     2
1000
-2001160
1002
}
  0
LINE
  5
4D5
330
464
100
AcDbEntity
  8
D35160102
100
AcDbLine
 10
0.7513188337971429
 20
6.122085413403234
 30
0.0
 11
0.7518316752682211
 21
6.116197277400522
 31
0.0
1001
REVIT
1002
{
1070
     1
1000
53090
1002
}
1002
{
1070
     2
1000
-2001160
1002
}
  0
ENDBLK
  5
466
330
464
100
AcDbEntity
  8
0
100
AcDbBlockEnd
  0
ENDSEC
  0
SECTION
  2
ENTITIES
  0
INSERT
  5
3BF
330
70
100
AcDbEntity
  8
D35160102
100
AcDbBlockReference
  2
D35160102 Top View
 10
0.0000000000004934
 20
24.09414676051616
 30
0.0
  0
INSERT
  5
462
330
70
100
AcDbEntity
  8
D35160102
100
AcDbBlockReference
  2
D35160102 Front View
 10
0.0000000000002467
 20
0.0000000000011802
 30
0.0
  0
INSERT
  5
4D6
330
70
100
AcDbEntity
  8
D35160102
100
AcDbBlockReference
  2
D35160102 Side View
 10
-20.75175503657719
 20
0.0000000000023604
 30
0.0
  0
ENDSEC
  0
SECTION
  2
OBJECTS
  0
DICTIONARY
  5
C
330
0
100
AcDbDictionary
281
     1
  3
ACAD_CIP_PREVIOUS_PRODUCT_INFO
350
79
  3
ACAD_COLOR
350
63
  3
ACAD_DETAILVIEWSTYLE
350
6A
  3
ACAD_GROUP
350
D
  3
ACAD_IMAGE_VARS
350
7A
  3
ACAD_LAYOUT
350
62
  3
ACAD_MATERIAL
350
10
  3
ACAD_MLEADERSTYLE
350
66
  3
ACAD_MLINESTYLE
350
5F
  3
ACAD_PLOTSETTINGS
350
61
  3
ACAD_PLOTSTYLENAME
350
E
  3
ACAD_SCALELIST
350
42
  3
ACAD_SECTIONVIEWSTYLE
350
68
  3
ACAD_TABLESTYLE
350
64
  3
ACAD_VISUALSTYLE
350
29
  3
ACDB_RECOMPOSE_DATA
350
4E8
  3
AcDbVariableDictionary
350
10F
  3
REVIT_DICTIONARY
350
104
  0
DICTIONARY
  5
4DB
330
2
100
AcDbDictionary
280
     1
281
     1
  3
ACAD_LAYERSTATES
360
4DC
  0
DICTIONARY
  5
107
330
70
100
AcDbDictionary
280
     1
281
     1
  3
ACAD_SORTENTS
360
108
  0
XRECORD
  5
79
102
{ACAD_REACTORS
330
C
102
}
330
C
100
AcDbXrecord
280
     1
300
ACD
300
2016
300
86445ACD_2016_0F
  0
DICTIONARY
  5
63
102
{ACAD_REACTORS
330
C
102
}
330
C
100
AcDbDictionary
281
     1
  0
DICTIONARY
  5
6A
102
{ACAD_REACTORS
330
C
102
}
330
C
100
AcDbDictionary
281
     1
  3
Imperial24
350
6B
  0
DICTIONARY
  5
D
102
{ACAD_REACTORS
330
C
102
}
330
C
100
AcDbDictionary
281
     1
  0
RASTERVARIABLES
  5
7A
102
{ACAD_REACTORS
330
C
102
}
330
C
100
AcDbRasterVariables
 90
        0
 70
     0
 71
     1
 72
     5
  0
DICTIONARY
  5
62
102
{ACAD_REACTORS
330
C
102
}
330
C
100
AcDbDictionary
281
     1
  3
Layout1
350
6F
  3
Layout2
350
77
  3
Model
350
73
  0
DICTIONARY
  5
10
102
{ACAD_REACTORS
330
C
102
}
330
C
100
AcDbDictionary
281
     1
  3
ByBlock
350
19
  3
ByLayer
350
11
  3
Global
350
21
  0
DICTIONARY
  5
66
102
{ACAD_REACTORS
330
C
102
}
330
C
100
AcDbDictionary
281
     1
  3
Standard
350
67
  0
DICTIONARY
  5
5F
102
{ACAD_REACTORS
330
C
102
}
330
C
100
AcDbDictionary
281
     1
  3
Standard
350
60
  0
DICTIONARY
  5
61
102
{ACAD_REACTORS
330
C
102
}
330
C
100
AcDbDictionary
281
     1
  0
ACDBDICTIONARYWDFLT
  5
E
102
{ACAD_REACTORS
330
C
102
}
330
C
100
AcDbDictionary
281
     1
  3
Normal
350
F
100
AcDbDictionaryWithDefault
340
F
  0
DICTIONARY
  5
42
102
{ACAD_REACTORS
330
C
102
}
330
C
100
AcDbDictionary
281
     1
  3
A0
350
43
  3
A1
350
44
  3
A2
350
45
  3
A3
350
46
  3
A4
350
47
  3
A5
350
48
  3
A6
350
49
  3
A7
350
4A
  3
A8
350
4B
  3
A9
350
4C
  3
B0
350
4D
  3
B1
350
4E
  3
B2
350
4F
  3
B3
350
50
  3
B4
350
51
  3
B5
350
52
  3
B6
350
53
  0
DICTIONARY
  5
68
102
{ACAD_REACTORS
330
C
102
}
330
C
100
AcDbDictionary
281
     1
  3
Imperial24
350
69
  0
DICTIONARY
  5
64
102
{ACAD_REACTORS
330
C
102
}
330
C
100
AcDbDictionary
281
     1
  3
Standard
350
65
  0
DICTIONARY
  5
29
102
{ACAD_REACTORS
330
C
102
}
330
C
100
AcDbDictionary
281
     1
  3
2dWireframe
350
2F
  3
Basic
350
2E
  3
Brighten
350
35
  3
ColorChange
350
39
  3
Conceptual
350
32
  3
Dim
350
34
  3
EdgeColorOff
350
41
  3
Facepattern
350
38
  3
Flat
350
2A
  3
FlatWithEdges
350
2B
  3
Gouraud
350
2C
  3
GouraudWithEdges
350
2D
  3
Hidden
350
31
  3
JitterOff
350
3F
  3
Linepattern
350
37
  3
OverhangOff
350
40
  3
Realistic
350
33
  3
Shaded
350
3E
  3
Shaded with edges
350
3D
  3
Shades of Gray
350
3A
  3
Sketchy
350
3B
  3
Thicken
350
36
  3
Wireframe
350
30
  3
X-Ray
350
3C
  0
XRECORD
  5
4E8
102
{ACAD_REACTORS
330
C
102
}
330
C
100
AcDbXrecord
280
     1
 90
        1
330
65
330
69
330
6B
  0
DICTIONARY
  5
10F
102
{ACAD_REACTORS
330
C
102
}
330
C
100
AcDbDictionary
281
     1
  3
CANNOSCALE
350
114
  3
CMLEADERSTYLE
350
111
  3
CTABLESTYLE
350
110
  3
CVIEWDETAILSTYLE
350
112
  3
CVIEWSECTIONSTYLE
350
113
  0
DICTIONARY
  5
104
102
{ACAD_REACTORS
330
C
102
}
330
C
100
AcDbDictionary
281
     1
  3
DRAWING_TOOL
350
106
  3
REVIT_CATEGORY_MAPPING
350
105
  0
DICTIONARY
  5
4DC
102
{ACAD_REACTORS
330
4DB
102
}
330
4DB
100
AcDbDictionary
281
     1
  0
SORTENTSTABLE
  5
108
102
{ACAD_REACTORS
330
107
102
}
330
107
100
AcDbSortentsTable
330
70
  0
ACDBDETAILVIEWSTYLE
  5
6B
102
{ACAD_XDICTIONARY
360
10C
102
}
102
{ACAD_REACTORS
330
6A
102
}
330
6A
100
AcDbModelDocViewStyle
 70
     0
  3
Imperial24
290
     0
100
AcDbDetailViewStyle
 70
     0
 71
     0
 90
        3
 71
     1
340
55
 62
   256
 40
0.24
340
0
 62
   256
 40
0.24
300

 40
0.36
280
     3
 71
     2
340
5D
 90
       25
 62
   256
 71
     3
340
55
 62
   256
 40
0.24
 90
        1
 40
0.75
 90
        1
300
%<\AcVar ViewType \f "%tc1">% %<\AcVar ViewDetailId>%\PSCALE %<\AcVar ViewScale \f "%sn">%
 71
     4
340
5D
 90
       25
 62
   256
340
5D
 90
       25
 62
   256
280
     0
  0
LAYOUT
  5
6F
102
{ACAD_REACTORS
330
62
102
}
330
62
100
AcDbPlotSettings
  1

  2

  4

  6

 40
0.0
 41
0.0
 42
0.0
 43
0.0
 44
0.0
 45
0.0
 46
0.0
 47
0.0
 48
0.0
 49
0.0
140
0.0
141
0.0
142
1.0
143
1.0
 70
   688
 72
     0
 73
     0
 74
     5
  7

 75
    16
147
1.0
 76
     0
 77
     2
 78
   300
148
0.0
149
0.0
100
AcDbLayout
  1
Layout1
 70
     1
 71
     1
 10
0.0
 20
0.0
 11
12.0
 21
9.0
 12
0.0
 22
0.0
 32
0.0
 14
1.000000000000000E+20
 24
1.000000000000000E+20
 34
1.000000000000000E+20
 15
-1.000000000000000E+20
 25
-1.000000000000000E+20
 35
-1.000000000000000E+20
146
0.0
 13
0.0
 23
0.0
 33
0.0
 16
1.0
 26
0.0
 36
0.0
 17
0.0
 27
1.0
 37
0.0
 76
     0
330
6C
  0
LAYOUT
  5
77
102
{ACAD_REACTORS
330
62
102
}
330
62
100
AcDbPlotSettings
  1

  2

  4

  6

 40
0.0
 41
0.0
 42
0.0
 43
0.0
 44
0.0
 45
0.0
 46
0.0
 47
0.0
 48
0.0
 49
0.0
140
0.0
141
0.0
142
1.0
143
1.0
 70
   688
 72
     0
 73
     0
 74
     5
  7

 75
    16
147
1.0
 76
     0
 77
     2
 78
   300
148
0.0
149
0.0
100
AcDbLayout
  1
Layout2
 70
     1
 71
     2
 10
0.0
 20
0.0
 11
12.0
 21
9.0
 12
0.0
 22
0.0
 32
0.0
 14
0.0
 24
0.0
 34
0.0
 15
0.0
 25
0.0
 35
0.0
146
0.0
 13
0.0
 23
0.0
 33
0.0
 16
1.0
 26
0.0
 36
0.0
 17
0.0
 27
1.0
 37
0.0
 76
     0
330
74
  0
LAYOUT
  5
73
102
{ACAD_REACTORS
330
62
102
}
330
62
100
AcDbPlotSettings
  1

  2

  4

  6

 40
0.0
 41
0.0
 42
0.0
 43
0.0
 44
0.0
 45
0.0
 46
0.0
 47
0.0
 48
0.0
 49
0.0
140
0.0
141
0.0
142
1.0
143
1.0
 70
  1712
 72
     0
 73
     0
 74
     0
  7

 75
     0
147
1.0
 76
     0
 77
     2
 78
   300
148
0.0
149
0.0
100
AcDbLayout
  1
Model
 70
     1
 71
     0
 10
0.0
 20
0.0
 11
12.0
 21
9.0
 12
0.0
 22
0.0
 32
0.0
 14
0.0
 24
0.0
 34
0.0
 15
0.0
 25
0.0
 35
0.0
146
0.0
 13
0.0
 23
0.0
 33
0.0
 16
1.0
 26
0.0
 36
0.0
 17
0.0
 27
1.0
 37
0.0
 76
     0
330
70
331
57
  0
MATERIAL
  5
19
102
{ACAD_XDICTIONARY
360
1A
102
}
102
{ACAD_REACTORS
330
10
102
}
330
10
100
AcDbMaterial
  1
ByBlock
 72
     0
 43
0.0208333333333333
 43
0.0
 43
0.0
 43
0.0
 43
0.0
 43
0.0208333333333333
 43
0.0
 43
0.0
 43
0.0
 43
0.0
 43
1.0
 43
0.0
 43
0.0
 43
0.0
 43
0.0
 43
1.0
 77
     0
 47
0.0208333333333333
 47
0.0
 47
0.0
 47
0.0
 47
0.0
 47
0.0208333333333333
 47
0.0
 47
0.0
 47
0.0
 47
0.0
 47
1.0
 47
0.0
 47
0.0
 47
0.0
 47
0.0
 47
1.0
171
     0
 49
0.0208333333333333
 49
0.0
 49
0.0
 49
0.0
 49
0.0
 49
0.0208333333333333
 49
0.0
 49
0.0
 49
0.0
 49
0.0
 49
1.0
 49
0.0
 49
0.0
 49
0.0
 49
0.0
 49
1.0
175
     0
142
0.0208333333333333
142
0.0
142
0.0
142
0.0
142
0.0
142
0.0208333333333333
142
0.0
142
0.0
142
0.0
142
0.0
142
1.0
142
0.0
142
0.0
142
0.0
142
0.0
142
1.0
179
     0
144
0.0208333333333333
144
0.0
144
0.0
144
0.0
144
0.0
144
0.0208333333333333
144
0.0
144
0.0
144
0.0
144
0.0
144
1.0
144
0.0
144
0.0
144
0.0
144
0.0
144
1.0
147
0.0208333333333333
147
0.0
147
0.0
147
0.0
147
0.0
147
0.0208333333333333
147
0.0
147
0.0
147
0.0
147
0.0
147
1.0
147
0.0
147
0.0
147
0.0
147
0.0
147
1.0
  0
MATERIAL
  5
11
102
{ACAD_XDICTIONARY
360
12
102
}
102
{ACAD_REACTORS
330
10
102
}
330
10
100
AcDbMaterial
  1
ByLayer
 72
     0
 43
0.0208333333333333
 43
0.0
 43
0.0
 43
0.0
 43
0.0
 43
0.0208333333333333
 43
0.0
 43
0.0
 43
0.0
 43
0.0
 43
1.0
 43
0.0
 43
0.0
 43
0.0
 43
0.0
 43
1.0
 77
     0
 47
0.0208333333333333
 47
0.0
 47
0.0
 47
0.0
 47
0.0
 47
0.0208333333333333
 47
0.0
 47
0.0
 47
0.0
 47
0.0
 47
1.0
 47
0.0
 47
0.0
 47
0.0
 47
0.0
 47
1.0
171
     0
 49
0.0208333333333333
 49
0.0
 49
0.0
 49
0.0
 49
0.0
 49
0.0208333333333333
 49
0.0
 49
0.0
 49
0.0
 49
0.0
 49
1.0
 49
0.0
 49
0.0
 49
0.0
 49
0.0
 49
1.0
175
     0
142
0.0208333333333333
142
0.0
142
0.0
142
0.0
142
0.0
142
0.0208333333333333
142
0.0
142
0.0
142
0.0
142
0.0
142
1.0
142
0.0
142
0.0
142
0.0
142
0.0
142
1.0
179
     0
144
0.0208333333333333
144
0.0
144
0.0
144
0.0
144
0.0
144
0.0208333333333333
144
0.0
144
0.0
144
0.0
144
0.0
144
1.0
144
0.0
144
0.0
144
0.0
144
0.0
144
1.0
147
0.0208333333333333
147
0.0
147
0.0
147
0.0
147
0.0
147
0.0208333333333333
147
0.0
147
0.0
147
0.0
147
0.0
147
1.0
147
0.0
147
0.0
147
0.0
147
0.0
147
1.0
  0
MATERIAL
  5
21
102
{ACAD_XDICTIONARY
360
22
102
}
102
{ACAD_REACTORS
330
10
102
}
330
10
100
AcDbMaterial
  1
Global
 72
     0
 43
0.0208333333333333
 43
0.0
 43
0.0
 43
0.0
 43
0.0
 43
0.0208333333333333
 43
0.0
 43
0.0
 43
0.0
 43
0.0
 43
1.0
 43
0.0
 43
0.0
 43
0.0
 43
0.0
 43
1.0
 77
     0
 47
0.0208333333333333
 47
0.0
 47
0.0
 47
0.0
 47
0.0
 47
0.0208333333333333
 47
0.0
 47
0.0
 47
0.0
 47
0.0
 47
1.0
 47
0.0
 47
0.0
 47
0.0
 47
0.0
 47
1.0
171
     0
 49
0.0208333333333333
 49
0.0
 49
0.0
 49
0.0
 49
0.0
 49
0.0208333333333333
 49
0.0
 49
0.0
 49
0.0
 49
0.0
 49
1.0
 49
0.0
 49
0.0
 49
0.0
 49
0.0
 49
1.0
175
     0
142
0.0208333333333333
142
0.0
142
0.0
142
0.0
142
0.0
142
0.0208333333333333
142
0.0
142
0.0
142
0.0
142
0.0
142
1.0
142
0.0
142
0.0
142
0.0
142
0.0
142
1.0
179
     0
144
0.0208333333333333
144
0.0
144
0.0
144
0.0
144
0.0
144
0.0208333333333333
144
0.0
144
0.0
144
0.0
144
0.0
144
1.0
144
0.0
144
0.0
144
0.0
144
0.0
144
1.0
147
0.0208333333333333
147
0.0
147
0.0
147
0.0
147
0.0
147
0.0208333333333333
147
0.0
147
0.0
147
0.0
147
0.0
147
1.0
147
0.0
147
0.0
147
0.0
147
0.0
147
1.0
  0
MLEADERSTYLE
  5
67
102
{ACAD_REACTORS
330
66
102
}
330
66
100
AcDbMLeaderStyle
179
     2
170
     2
171
     1
172
     0
 90
        2
 40
0.0
 41
0.0
173
     1
 91
-1056964608
340
5B
 92
       -2
290
     1
 42
0.09
291
     1
 43
0.36
  3
Standard
 44
0.18
300

342
55
174
     1
178
     6
175
     1
176
     0
 93
-1056964608
 45
0.18
292
     0
297
     0
 46
0.18
 94
-1056964608
 47
1.0
 49
1.0
140
1.0
293
     1
141
0.0
294
     1
177
     0
142
1.0
295
     1
296
     0
143
0.125
271
     0
272
     9
273
     9
298
     1
  0
MLINESTYLE
  5
60
102
{ACAD_REACTORS
330
5F
102
}
330
5F
100
AcDbMlineStyle
  2
STANDARD
 70
     0
  3

 62
   256
 51
90.0
 52
90.0
 71
     2
 49
0.5
 62
   256
  6
BYLAYER
 49
-0.5
 62
   256
  6
BYLAYER
  0
ACDBPLACEHOLDER
  5
F
102
{ACAD_REACTORS
330
E
102
}
330
E
  0
SCALE
  5
43
102
{ACAD_REACTORS
330
42
102
}
330
42
100
AcDbScale
 70
     0
300
1:1
140
1.0
141
1.0
290
     1
  0
SCALE
  5
44
102
{ACAD_REACTORS
330
42
102
}
330
42
100
AcDbScale
 70
     0
300
1/128" = 1'-0"
140
0.0078125
141
12.0
290
     0
  0
SCALE
  5
45
102
{ACAD_REACTORS
330
42
102
}
330
42
100
AcDbScale
 70
     0
300
1/64" = 1'-0"
140
0.015625
141
12.0
290
     0
  0
SCALE
  5
46
102
{ACAD_REACTORS
330
42
102
}
330
42
100
AcDbScale
 70
     0
300
1/32" = 1'-0"
140
0.03125
141
12.0
290
     0
  0
SCALE
  5
47
102
{ACAD_REACTORS
330
42
102
}
330
42
100
AcDbScale
 70
     0
300
1/16" = 1'-0"
140
0.0625
141
12.0
290
     0
  0
SCALE
  5
48
102
{ACAD_REACTORS
330
42
102
}
330
42
100
AcDbScale
 70
     0
300
3/32" = 1'-0"
140
0.09375
141
12.0
290
     0
  0
SCALE
  5
49
102
{ACAD_REACTORS
330
42
102
}
330
42
100
AcDbScale
 70
     0
300
1/8" = 1'-0"
140
0.125
141
12.0
290
     0
  0
SCALE
  5
4A
102
{ACAD_REACTORS
330
42
102
}
330
42
100
AcDbScale
 70
     0
300
3/16" = 1'-0"
140
0.1875
141
12.0
290
     0
  0
SCALE
  5
4B
102
{ACAD_REACTORS
330
42
102
}
330
42
100
AcDbScale
 70
     0
300
1/4" = 1'-0"
140
0.25
141
12.0
290
     0
  0
SCALE
  5
4C
102
{ACAD_REACTORS
330
42
102
}
330
42
100
AcDbScale
 70
     0
300
3/8" = 1'-0"
140
0.375
141
12.0
290
     0
  0
SCALE
  5
4D
102
{ACAD_REACTORS
330
42
102
}
330
42
100
AcDbScale
 70
     0
300
1/2" = 1'-0"
140
0.5
141
12.0
290
     0
  0
SCALE
  5
4E
102
{ACAD_REACTORS
330
42
102
}
330
42
100
AcDbScale
 70
     0
300
3/4" = 1'-0"
140
0.75
141
12.0
290
     0
  0
SCALE
  5
4F
102
{ACAD_REACTORS
330
42
102
}
330
42
100
AcDbScale
 70
     0
300
1" = 1'-0"
140
1.0
141
12.0
290
     0
  0
SCALE
  5
50
102
{ACAD_REACTORS
330
42
102
}
330
42
100
AcDbScale
 70
     0
300
1-1/2" = 1'-0"
140
1.5
141
12.0
290
     0
  0
SCALE
  5
51
102
{ACAD_REACTORS
330
42
102
}
330
42
100
AcDbScale
 70
     0
300
3" = 1'-0"
140
3.0
141
12.0
290
     0
  0
SCALE
  5
52
102
{ACAD_REACTORS
330
42
102
}
330
42
100
AcDbScale
 70
     0
300
6" = 1'-0"
140
6.0
141
12.0
290
     0
  0
SCALE
  5
53
102
{ACAD_REACTORS
330
42
102
}
330
42
100
AcDbScale
 70
     0
300
1'-0" = 1'-0"
140
12.0
141
12.0
290
     0
  0
ACDBSECTIONVIEWSTYLE
  5
69
102
{ACAD_XDICTIONARY
360
10A
102
}
102
{ACAD_REACTORS
330
68
102
}
330
68
100
AcDbModelDocViewStyle
 70
     0
  3
Imperial24
290
     0
100
AcDbSectionViewStyle
 70
     0
 71
     0
 90
       78
 71
     1
340
55
 62
   256
 40
0.24
340
0
340
0
 62
   256
 40
0.24
300
I, O, Q, S, X, Z
 40
0.48
 90
        3
 40
0.18
 90
        1
 71
     2
340
5D
 90
       25
 62
   256
340
5D
 90
       50
 62
   256
 40
0.24
 40
0.0
 40
0.24
 71
     3
340
55
 62
   256
 40
0.24
 90
        1
 40
0.75
 90
        1
300
%<\AcVar ViewType \f "%tc1">% %<\AcVar ViewSectionStartId>%-%<\AcVar ViewSectionEndId>%\PSCALE %<\AcVar ViewScale \f "%sn">%
 71
     4
 62
   256
 62
   257
300
ANSI31
 40
1.0
 90
        0
290
     0
290
     0
 90
        6
 40
0.0
 40
1.570796326794896
 40
0.2617993877991494
 40
1.308996938995747
 40
-0.2617993877991494
 40
1.832595714594046
  0
TABLESTYLE
  5
65
102
{ACAD_XDICTIONARY
360
4E4
102
}
102
{ACAD_REACTORS
330
64
102
}
330
64
100
AcDbTableStyle
280
     0
  3
Standard
 70
     0
 71
     0
 40
0.06
 41
0.06
280
     0
281
     0
  7
Standard
140
0.18
170
     2
 62
     0
 63
     7
283
     0
 90
      512
 91
        0
  1

274
    -2
284
     1
 64
     0
275
    -2
285
     1
 65
     0
276
    -2
286
     1
 66
     0
277
    -2
287
     1
 67
     0
278
    -2
288
     1
 68
     0
279
    -2
289
     1
 69
     0
  7
Standard
140
0.25
170
     5
 62
     0
 63
     7
283
     0
 90
      512
 91
        0
  1

274
    -2
284
     1
 64
     0
275
    -2
285
     1
 65
     0
276
    -2
286
     1
 66
     0
277
    -2
287
     1
 67
     0
278
    -2
288
     1
 68
     0
279
    -2
289
     1
 69
     0
  7
Standard
140
0.18
170
     5
 62
     0
 63
     7
283
     0
 90
      512
 91
        0
  1

274
    -2
284
     1
 64
     0
275
    -2
285
     1
 65
     0
276
    -2
286
     1
 66
     0
277
    -2
287
     1
 67
     0
278
    -2
288
     1
 68
     0
279
    -2
289
     1
 69
     0
  0
VISUALSTYLE
  5
2F
102
{ACAD_REACTORS
330
29
102
}
330
29
100
AcDbVisualStyle
  2
2dWireframe
 70
     4
177
     3
291
     0
 70
    58
 90
        0
176
     1
 90
        2
176
     1
 90
        0
176
     1
 90
        0
176
     1
 40
0.6
176
     1
 40
30.0
176
     1
 62
     7
420
 16777215
176
     1
 90
        1
176
     1
 90
        4
176
     1
 62
     7
176
     1
 62
   257
176
     1
 90
        1
176
     1
 90
        1
176
     1
 40
1.0
176
     1
 90
        0
176
     1
 62
   257
176
     1
 40
1.0
176
     1
 90
        1
176
     1
 90
        6
176
     1
 90
        2
176
     1
 62
     7
176
     1
 90
        5
176
     1
 90
        0
176
     1
 90
        0
176
     1
290
     0
176
     1
 90
        1
176
     1
 40
0.0
176
     1
 90
        0
176
     1
290
     1
176
     1
290
     1
176
     1
290
     0
176
     1
290
     0
176
     1
290
     0
176
     1
290
     0
176
     1
290
     0
176
     1
290
     0
176
     1
290
     0
176
     1
 90
       50
176
     1
 40
0.0
176
     1
 40
1.0
176
     1
 90
        0
176
     1
 62
    18
420
        0
176
     1
 90
       50
176
     1
 90
        3
176
     1
 62
     5
420
      255
176
     1
290
     0
176
     1
 90
       50
176
     1
 90
       50
176
     1
 90
       50
176
     1
290
     0
176
     1
 90
       50
176
     1
 62
   256
176
     0
 40
1.0
176
     0
 90
        2
176
     1
  1
strokes_ogs.tif
176
     1
290
     0
176
     1
 40
1.0
176
     1
 40
1.0
176
     1
  0
VISUALSTYLE
  5
2E
102
{ACAD_REACTORS
330
29
102
}
330
29
100
AcDbVisualStyle
  2
Basic
 70
     7
177
     3
291
     1
 70
    58
 90
        1
176
     1
 90
        0
176
     1
 90
        1
176
     1
 90
        0
176
     1
 40
0.6
176
     1
 40
30.0
176
     1
 62
     7
420
 16777215
176
     1
 90
        0
176
     1
 90
        4
176
     1
 62
     7
176
     1
 62
   257
176
     1
 90
        1
176
     1
 90
        1
176
     1
 40
1.0
176
     1
 90
        8
176
     1
 62
     7
176
     1
 40
1.0
176
     1
 90
        1
176
     1
 90
        6
176
     1
 90
        2
176
     1
 62
     7
176
     1
 90
        5
176
     1
 90
        0
176
     1
 90
        0
176
     1
290
     0
176
     1
 90
        1
176
     1
 40
0.0
176
     1
 90
        0
176
     1
290
     0
176
     1
290
     1
176
     1
290
     1
176
     1
290
     0
176
     1
290
     0
176
     1
290
     0
176
     1
290
     0
176
     1
290
     0
176
     1
290
     0
176
     1
 90
       50
176
     1
 40
0.0
176
     1
 40
1.0
176
     1
 90
        0
176
     1
 62
    18
420
        0
176
     1
 90
       50
176
     1
 90
        3
176
     1
 62
     5
420
      255
176
     1
290
     0
176
     1
 90
       50
176
     1
 90
       50
176
     1
 90
       50
176
     1
290
     0
176
     1
 90
       50
176
     1
 62
   256
176
     0
 40
1.0
176
     0
 90
        2
176
     1
  1
strokes_ogs.tif
176
     1
290
     0
176
     1
 40
1.0
176
     1
 40
1.0
176
     1
  0
VISUALSTYLE
  5
35
102
{ACAD_REACTORS
330
29
102
}
330
29
100
AcDbVisualStyle
  2
Brighten
 70
    12
177
     3
291
     1
 70
    58
 90
        2
176
     1
 90
        2
176
     1
 90
        0
176
     1
 90
        0
176
     1
 40
0.6
176
     1
 40
30.0
176
     1
 62
     7
420
 16777215
176
     1
 90
        1
176
     1
 90
        4
176
     1
 62
     7
176
     1
 62
   257
176
     1
 90
        1
176
     1
 90
        1
176
     1
 40
1.0
176
     1
 90
        8
176
     1
 62
     7
176
     1
 40
1.0
176
     1
 90
        1
176
     1
 90
        6
176
     1
 90
        2
176
     1
 62
     7
176
     1
 90
        5
176
     1
 90
        0
176
     1
 90
        0
176
     1
290
     0
176
     1
 90
        1
176
     1
 40
50.0
176
     1
 90
        0
176
     1
290
     0
176
     1
290
     1
176
     1
290
     1
176
     1
290
     0
176
     1
290
     0
176
     1
290
     0
176
     1
290
     0
176
     1
290
     0
176
     1
290
     0
176
     1
 90
       50
176
     1
 40
0.0
176
     1
 40
1.0
176
     1
 90
        0
176
     1
 62
    18
420
        0
176
     1
 90
       50
176
     1
 90
        3
176
     1
 62
     5
420
      255
176
     1
290
     0
176
     1
 90
       50
176
     1
 90
       50
176
     1
 90
       50
176
     1
290
     0
176
     1
 90
       50
176
     1
 62
   256
176
     0
 40
1.0
176
     0
 90
        2
176
     1
  1
strokes_ogs.tif
176
     1
290
     0
176
     1
 40
1.0
176
     1
 40
1.0
176
     1
  0
VISUALSTYLE
  5
39
102
{ACAD_REACTORS
330
29
102
}
330
29
100
AcDbVisualStyle
  2
ColorChange
 70
    16
177
     3
291
     1
 70
    58
 90
        2
176
     1
 90
        2
176
     1
 90
        3
176
     1
 90
        0
176
     1
 40
0.6
176
     1
 40
30.0
176
     1
 62
     8
420
  8421504
176
     1
 90
        1
176
     1
 90
        4
176
     1
 62
     7
176
     1
 62
   257
176
     1
 90
        1
176
     1
 90
        1
176
     1
 40
1.0
176
     1
 90
        8
176
     1
 62
     8
420
  8421504
176
     1
 40
1.0
176
     1
 90
        1
176
     1
 90
        6
176
     1
 90
        2
176
     1
 62
     7
176
     1
 90
        5
176
     1
 90
        0
176
     1
 90
        0
176
     1
290
     0
176
     1
 90
        1
176
     1
 40
0.0
176
     1
 90
        0
176
     1
290
     0
176
     1
290
     1
176
     1
290
     1
176
     1
290
     0
176
     1
290
     0
176
     1
290
     0
176
     1
290
     0
176
     1
290
     0
176
     1
290
     0
176
     1
 90
       50
176
     1
 40
0.0
176
     1
 40
1.0
176
     1
 90
        0
176
     1
 62
    18
420
        0
176
     1
 90
       50
176
     1
 90
        3
176
     1
 62
     5
420
      255
176
     1
290
     0
176
     1
 90
       50
176
     1
 90
       50
176
     1
 90
       50
176
     1
290
     0
176
     1
 90
       50
176
     1
 62
   256
176
     0
 40
1.0
176
     0
 90
        2
176
     1
  1
strokes_ogs.tif
176
     1
290
     0
176
     1
 40
1.0
176
     1
 40
1.0
176
     1
  0
VISUALSTYLE
  5
32
102
{ACAD_REACTORS
330
29
102
}
330
29
100
AcDbVisualStyle
  2
Conceptual
 70
     9
177
     3
291
     0
 70
    58
 90
        3
176
     1
 90
        2
176
     1
 90
        0
176
     1
 90
        0
176
     1
 40
0.6
176
     1
 40
30.0
176
     1
 62
     7
420
 16777215
176
     1
 90
        2
176
     1
 90
        2
176
     1
 62
     7
176
     1
 62
   257
176
     1
 90
        1
176
     1
 90
        1
176
     1
 40
179.0
176
     1
 90
        8
176
     1
 62
     7
176
     1
 40
1.0
176
     1
 90
        1
176
     1
 90
        6
176
     1
 90
        2
176
     1
 62
     7
176
     1
 90
        3
176
     1
 90
        0
176
     1
 90
        0
176
     1
290
     0
176
     1
 90
        1
176
     1
 40
0.0
176
     1
 90
        0
176
     1
290
     0
176
     1
290
     1
176
     1
290
     1
176
     1
290
     0
176
     1
290
     0
176
     1
290
     0
176
     1
290
     0
176
     1
290
     0
176
     1
290
     0
176
     1
 90
       50
176
     1
 40
0.0
176
     1
 40
1.0
176
     1
 90
        0
176
     1
 62
    18
420
        0
176
     1
 90
       50
176
     1
 90
        3
176
     1
 62
     5
420
      255
176
     1
290
     0
176
     1
 90
       50
176
     1
 90
       50
176
     1
 90
       50
176
     1
290
     0
176
     1
 90
       50
176
     1
 62
   256
176
     0
 40
1.0
176
     0
 90
        2
176
     1
  1
strokes_ogs.tif
176
     1
290
     0
176
     1
 40
1.0
176
     1
 40
1.0
176
     1
  0
VISUALSTYLE
  5
34
102
{ACAD_REACTORS
330
29
102
}
330
29
100
AcDbVisualStyle
  2
Dim
 70
    11
177
     3
291
     1
 70
    58
 90
        2
176
     1
 90
        2
176
     1
 90
        0
176
     1
 90
        0
176
     1
 40
0.6
176
     1
 40
30.0
176
     1
 62
     7
420
 16777215
176
     1
 90
        1
176
     1
 90
        4
176
     1
 62
     7
176
     1
 62
   257
176
     1
 90
        1
176
     1
 90
        1
176
     1
 40
1.0
176
     1
 90
        8
176
     1
 62
     7
176
     1
 40
1.0
176
     1
 90
        1
176
     1
 90
        6
176
     1
 90
        2
176
     1
 62
     7
176
     1
 90
        5
176
     1
 90
        0
176
     1
 90
        0
176
     1
290
     0
176
     1
 90
        1
176
     1
 40
-50.0
176
     1
 90
        0
176
     1
290
     0
176
     1
290
     1
176
     1
290
     1
176
     1
290
     0
176
     1
290
     0
176
     1
290
     0
176
     1
290
     0
176
     1
290
     0
176
     1
290
     0
176
     1
 90
       50
176
     1
 40
0.0
176
     1
 40
1.0
176
     1
 90
        0
176
     1
 62
    18
420
        0
176
     1
 90
       50
176
     1
 90
        3
176
     1
 62
     5
420
      255
176
     1
290
     0
176
     1
 90
       50
176
     1
 90
       50
176
     1
 90
       50
176
     1
290
     0
176
     1
 90
       50
176
     1
 62
   256
176
     0
 40
1.0
176
     0
 90
        2
176
     1
  1
strokes_ogs.tif
176
     1
290
     0
176
     1
 40
1.0
176
     1
 40
1.0
176
     1
  0
VISUALSTYLE
  5
41
102
{ACAD_REACTORS
330
29
102
}
330
29
100
AcDbVisualStyle
  2
EdgeColorOff
 70
    22
177
     3
291
     1
 70
    58
 90
        2
176
     0
 90
        2
176
     0
 90
        0
176
     0
 90
        0
176
     0
 40
0.6
176
     0
 40
30.0
176
     0
 62
     7
420
 16777215
176
     0
 90
        1
176
     0
 90
        4
176
     0
 62
     7
176
     0
 62
   257
176
     0
 90
        1
176
     0
 90
        1
176
     0
 40
1.0
176
     0
 90
        8
176
     2
 62
     7
176
     0
 40
1.0
176
     0
 90
        1
176
     0
 90
        6
176
     0
 90
        2
176
     0
 62
     7
176
     0
 90
        5
176
     0
 90
        0
176
     0
 90
        0
176
     0
290
     0
176
     0
 90
        1
176
     0
 40
0.0
176
     0
 90
        0
176
     0
290
     0
176
     0
290
     1
176
     0
290
     1
176
     0
290
     0
176
     0
290
     0
176
     0
290
     0
176
     0
290
     0
176
     0
290
     0
176
     0
290
     0
176
     0
 90
       50
176
     0
 40
0.0
176
     0
 40
1.0
176
     0
 90
        0
176
     0
 62
    18
420
        0
176
     0
 90
       50
176
     0
 90
        3
176
     0
 62
     5
420
      255
176
     0
290
     0
176
     0
 90
       50
176
     0
 90
       50
176
     0
 90
       50
176
     0
290
     0
176
     0
 90
       50
176
     0
 62
   256
176
     0
 40
1.0
176
     0
 90
        2
176
     0
  1
strokes_ogs.tif
176
     0
290
     0
176
     0
 40
1.0
176
     0
 40
1.0
176
     0
  0
VISUALSTYLE
  5
38
102
{ACAD_REACTORS
330
29
102
}
330
29
100
AcDbVisualStyle
  2
Facepattern
 70
    15
177
     3
291
     1
 70
    58
 90
        2
176
     1
 90
        2
176
     1
 90
        0
176
     1
 90
        0
176
     1
 40
0.6
176
     1
 40
30.0
176
     1
 62
     7
420
 16777215
176
     1
 90
        1
176
     1
 90
        4
176
     1
 62
     7
176
     1
 62
   257
176
     1
 90
        1
176
     1
 90
        1
176
     1
 40
1.0
176
     1
 90
        8
176
     1
 62
     7
176
     1
 40
1.0
176
     1
 90
        1
176
     1
 90
        6
176
     1
 90
        2
176
     1
 62
     7
176
     1
 90
        5
176
     1
 90
        0
176
     1
 90
        0
176
     1
290
     0
176
     1
 90
        1
176
     1
 40
0.0
176
     1
 90
        0
176
     1
290
     0
176
     1
290
     1
176
     1
290
     1
176
     1
290
     0
176
     1
290
     0
176
     1
290
     0
176
     1
290
     0
176
     1
290
     0
176
     1
290
     0
176
     1
 90
       50
176
     1
 40
0.0
176
     1
 40
1.0
176
     1
 90
        0
176
     1
 62
    18
420
        0
176
     1
 90
       50
176
     1
 90
        3
176
     1
 62
     5
420
      255
176
     1
290
     0
176
     1
 90
       50
176
     1
 90
       50
176
     1
 90
       50
176
     1
290
     0
176
     1
 90
       50
176
     1
 62
   256
176
     0
 40
1.0
176
     0
 90
        2
176
     1
  1
strokes_ogs.tif
176
     1
290
     0
176
     1
 40
1.0
176
     1
 40
1.0
176
     1
  0
VISUALSTYLE
  5
2A
102
{ACAD_REACTORS
330
29
102
}
330
29
100
AcDbVisualStyle
  2
Flat
 70
     0
177
     3
291
     1
 70
    58
 90
        2
176
     1
 90
        1
176
     1
 90
        1
176
     1
 90
        2
176
     1
 40
0.6
176
     1
 40
30.0
176
     1
 62
     7
420
 16777215
176
     1
 90
        0
176
     1
 90
        0
176
     1
 62
     7
176
     1
 62
   257
176
     1
 90
        1
176
     1
 90
        1
176
     1
 40
1.0
176
     1
 90
        8
176
     1
 62
     7
176
     1
 40
1.0
176
     1
 90
        1
176
     1
 90
        6
176
     1
 90
        2
176
     1
 62
     7
176
     1
 90
        5
176
     1
 90
        0
176
     1
 90
        0
176
     1
290
     0
176
     1
 90
       13
176
     1
 40
0.0
176
     1
 90
        0
176
     1
290
     0
176
     1
290
     1
176
     1
290
     1
176
     1
290
     0
176
     1
290
     0
176
     1
290
     0
176
     1
290
     0
176
     1
290
     0
176
     1
290
     0
176
     1
 90
       50
176
     1
 40
0.0
176
     1
 40
1.0
176
     1
 90
        0
176
     1
 62
    18
420
        0
176
     1
 90
       50
176
     1
 90
        3
176
     1
 62
     5
420
      255
176
     1
290
     0
176
     1
 90
       50
176
     1
 90
       50
176
     1
 90
       50
176
     1
290
     0
176
     1
 90
       50
176
     1
 62
   256
176
     0
 40
1.0
176
     0
 90
        2
176
     1
  1
strokes_ogs.tif
176
     1
290
     0
176
     1
 40
1.0
176
     1
 40
1.0
176
     1
  0
VISUALSTYLE
  5
2B
102
{ACAD_REACTORS
330
29
102
}
330
29
100
AcDbVisualStyle
  2
FlatWithEdges
 70
     1
177
     3
291
     1
 70
    58
 90
        2
176
     1
 90
        1
176
     1
 90
        1
176
     1
 90
        2
176
     1
 40
0.6
176
     1
 40
30.0
176
     1
 62
     7
420
 16777215
176
     1
 90
        1
176
     1
 90
        0
176
     1
 62
     7
176
     1
 62
   257
176
     1
 90
        1
176
     1
 90
        1
176
     1
 40
1.0
176
     1
 90
        0
176
     1
 62
   257
176
     1
 40
1.0
176
     1
 90
        1
176
     1
 90
        6
176
     1
 90
        2
176
     1
 62
     7
176
     1
 90
        5
176
     1
 90
        0
176
     1
 90
        0
176
     1
290
     0
176
     1
 90
       13
176
     1
 40
0.0
176
     1
 90
        0
176
     1
290
     0
176
     1
290
     1
176
     1
290
     1
176
     1
290
     0
176
     1
290
     0
176
     1
290
     0
176
     1
290
     0
176
     1
290
     0
176
     1
290
     0
176
     1
 90
       50
176
     1
 40
0.0
176
     1
 40
1.0
176
     1
 90
        0
176
     1
 62
    18
420
        0
176
     1
 90
       50
176
     1
 90
        3
176
     1
 62
     5
420
      255
176
     1
290
     0
176
     1
 90
       50
176
     1
 90
       50
176
     1
 90
       50
176
     1
290
     0
176
     1
 90
       50
176
     1
 62
   256
176
     0
 40
1.0
176
     0
 90
        2
176
     1
  1
strokes_ogs.tif
176
     1
290
     0
176
     1
 40
1.0
176
     1
 40
1.0
176
     1
  0
VISUALSTYLE
  5
2C
102
{ACAD_REACTORS
330
29
102
}
330
29
100
AcDbVisualStyle
  2
Gouraud
 70
     2
177
     3
291
     1
 70
    58
 90
        2
176
     1
 90
        2
176
     1
 90
        1
176
     1
 90
        2
176
     1
 40
0.6
176
     1
 40
30.0
176
     1
 62
     7
420
 16777215
176
     1
 90
        0
176
     1
 90
        0
176
     1
 62
     7
176
     1
 62
   257
176
     1
 90
        1
176
     1
 90
        1
176
     1
 40
1.0
176
     1
 90
        0
176
     1
 62
     7
176
     1
 40
1.0
176
     1
 90
        1
176
     1
 90
        6
176
     1
 90
        2
176
     1
 62
     7
176
     1
 90
        5
176
     1
 90
        0
176
     1
 90
        0
176
     1
290
     0
176
     1
 90
       13
176
     1
 40
0.0
176
     1
 90
        0
176
     1
290
     0
176
     1
290
     1
176
     1
290
     1
176
     1
290
     0
176
     1
290
     0
176
     1
290
     0
176
     1
290
     0
176
     1
290
     0
176
     1
290
     0
176
     1
 90
       50
176
     1
 40
0.0
176
     1
 40
1.0
176
     1
 90
        0
176
     1
 62
    18
420
        0
176
     1
 90
       50
176
     1
 90
        3
176
     1
 62
     5
420
      255
176
     1
290
     0
176
     1
 90
       50
176
     1
 90
       50
176
     1
 90
       50
176
     1
290
     0
176
     1
 90
       50
176
     1
 62
   256
176
     0
 40
1.0
176
     0
 90
        2
176
     1
  1
strokes_ogs.tif
176
     1
290
     0
176
     1
 40
1.0
176
     1
 40
1.0
176
     1
  0
VISUALSTYLE
  5
2D
102
{ACAD_REACTORS
330
29
102
}
330
29
100
AcDbVisualStyle
  2
GouraudWithEdges
 70
     3
177
     3
291
     1
 70
    58
 90
        2
176
     1
 90
        2
176
     1
 90
        1
176
     1
 90
        2
176
     1
 40
0.6
176
     1
 40
30.0
176
     1
 62
     7
420
 16777215
176
     1
 90
        1
176
     1
 90
        0
176
     1
 62
     7
176
     1
 62
   257
176
     1
 90
        1
176
     1
 90
        1
176
     1
 40
1.0
176
     1
 90
        0
176
     1
 62
   257
176
     1
 40
1.0
176
     1
 90
        1
176
     1
 90
        6
176
     1
 90
        2
176
     1
 62
     7
176
     1
 90
        5
176
     1
 90
        0
176
     1
 90
        0
176
     1
290
     0
176
     1
 90
       13
176
     1
 40
0.0
176
     1
 90
        0
176
     1
290
     0
176
     1
290
     1
176
     1
290
     1
176
     1
290
     0
176
     1
290
     0
176
     1
290
     0
176
     1
290
     0
176
     1
290
     0
176
     1
290
     0
176
     1
 90
       50
176
     1
 40
0.0
176
     1
 40
1.0
176
     1
 90
        0
176
     1
 62
    18
420
        0
176
     1
 90
       50
176
     1
 90
        3
176
     1
 62
     5
420
      255
176
     1
290
     0
176
     1
 90
       50
176
     1
 90
       50
176
     1
 90
       50
176
     1
290
     0
176
     1
 90
       50
176
     1
 62
   256
176
     0
 40
1.0
176
     0
 90
        2
176
     1
  1
strokes_ogs.tif
176
     1
290
     0
176
     1
 40
1.0
176
     1
 40
1.0
176
     1
  0
VISUALSTYLE
  5
31
102
{ACAD_REACTORS
330
29
102
}
330
29
100
AcDbVisualStyle
  2
Hidden
 70
     6
177
     3
291
     0
 70
    58
 90
        1
176
     1
 90
        2
176
     1
 90
        2
176
     1
 90
        0
176
     1
 40
0.6
176
     1
 40
30.0
176
     1
 62
     7
420
 16777215
176
     1
 90
        2
176
     1
 90
        2
176
     1
 62
     7
176
     1
 62
   257
176
     1
 90
        2
176
     1
 90
        1
176
     1
 40
40.0
176
     1
 90
        0
176
     1
 62
   257
176
     1
 40
1.0
176
     1
 90
        1
176
     1
 90
        6
176
     1
 90
        2
176
     1
 62
     7
176
     1
 90
        3
176
     1
 90
        0
176
     1
 90
        0
176
     1
290
     0
176
     1
 90
        1
176
     1
 40
0.0
176
     1
 90
        0
176
     1
290
     0
176
     1
290
     1
176
     1
290
     1
176
     1
290
     0
176
     1
290
     0
176
     1
290
     0
176
     1
290
     0
176
     1
290
     0
176
     1
290
     0
176
     1
 90
       50
176
     1
 40
0.0
176
     1
 40
1.0
176
     1
 90
        0
176
     1
 62
    18
420
        0
176
     1
 90
       50
176
     1
 90
        3
176
     1
 62
     5
420
      255
176
     1
290
     0
176
     1
 90
       50
176
     1
 90
       50
176
     1
 90
       50
176
     1
290
     0
176
     1
 90
       50
176
     1
 62
   256
176
     0
 40
1.0
176
     0
 90
        2
176
     1
  1
strokes_ogs.tif
176
     1
290
     0
176
     1
 40
1.0
176
     1
 40
1.0
176
     1
  0
VISUALSTYLE
  5
3F
102
{ACAD_REACTORS
330
29
102
}
330
29
100
AcDbVisualStyle
  2
JitterOff
 70
    20
177
     3
291
     1
 70
    58
 90
        2
176
     0
 90
        2
176
     0
 90
        0
176
     0
 90
        0
176
     0
 40
0.6
176
     0
 40
30.0
176
     0
 62
     7
420
 16777215
176
     0
 90
        1
176
     0
 90
        4
176
     0
 62
     7
176
     0
 62
   257
176
     0
 90
        1
176
     0
 90
        1
176
     0
 40
1.0
176
     0
 90
       10
176
     2
 62
     7
176
     0
 40
1.0
176
     0
 90
        1
176
     0
 90
        6
176
     0
 90
        2
176
     0
 62
     7
176
     0
 90
        5
176
     0
 90
        0
176
     0
 90
        0
176
     0
290
     0
176
     0
 90
        1
176
     0
 40
0.0
176
     0
 90
        0
176
     0
290
     0
176
     0
290
     1
176
     0
290
     1
176
     0
290
     0
176
     0
290
     0
176
     0
290
     0
176
     0
290
     0
176
     0
290
     0
176
     0
290
     0
176
     0
 90
       50
176
     0
 40
0.0
176
     0
 40
1.0
176
     0
 90
        0
176
     0
 62
    18
420
        0
176
     0
 90
       50
176
     0
 90
        3
176
     0
 62
     5
420
      255
176
     0
290
     0
176
     0
 90
       50
176
     0
 90
       50
176
     0
 90
       50
176
     0
290
     0
176
     0
 90
       50
176
     0
 62
   256
176
     0
 40
1.0
176
     0
 90
        2
176
     0
  1
strokes_ogs.tif
176
     0
290
     0
176
     0
 40
1.0
176
     0
 40
1.0
176
     0
  0
VISUALSTYLE
  5
37
102
{ACAD_REACTORS
330
29
102
}
330
29
100
AcDbVisualStyle
  2
Linepattern
 70
    14
177
     3
291
     1
 70
    58
 90
        2
176
     1
 90
        2
176
     1
 90
        0
176
     1
 90
        0
176
     1
 40
0.6
176
     1
 40
30.0
176
     1
 62
     7
420
 16777215
176
     1
 90
        1
176
     1
 90
        4
176
     1
 62
     7
176
     1
 62
   257
176
     1
 90
        7
176
     1
 90
        7
176
     1
 40
1.0
176
     1
 90
        8
176
     1
 62
     7
176
     1
 40
1.0
176
     1
 90
        1
176
     1
 90
        6
176
     1
 90
        2
176
     1
 62
     7
176
     1
 90
        5
176
     1
 90
        0
176
     1
 90
        0
176
     1
290
     0
176
     1
 90
        1
176
     1
 40
0.0
176
     1
 90
        0
176
     1
290
     0
176
     1
290
     1
176
     1
290
     1
176
     1
290
     0
176
     1
290
     0
176
     1
290
     0
176
     1
290
     0
176
     1
290
     0
176
     1
290
     0
176
     1
 90
       50
176
     1
 40
0.0
176
     1
 40
1.0
176
     1
 90
        0
176
     1
 62
    18
420
        0
176
     1
 90
       50
176
     1
 90
        3
176
     1
 62
     5
420
      255
176
     1
290
     0
176
     1
 90
       50
176
     1
 90
       50
176
     1
 90
       50
176
     1
290
     0
176
     1
 90
       50
176
     1
 62
   256
176
     0
 40
1.0
176
     0
 90
        2
176
     1
  1
strokes_ogs.tif
176
     1
290
     0
176
     1
 40
1.0
176
     1
 40
1.0
176
     1
  0
VISUALSTYLE
  5
40
102
{ACAD_REACTORS
330
29
102
}
330
29
100
AcDbVisualStyle
  2
OverhangOff
 70
    21
177
     3
291
     1
 70
    58
 90
        2
176
     0
 90
        2
176
     0
 90
        0
176
     0
 90
        0
176
     0
 40
0.6
176
     0
 40
30.0
176
     0
 62
     7
420
 16777215
176
     0
 90
        1
176
     0
 90
        4
176
     0
 62
     7
176
     0
 62
   257
176
     0
 90
        1
176
     0
 90
        1
176
     0
 40
1.0
176
     0
 90
        9
176
     2
 62
     7
176
     0
 40
1.0
176
     0
 90
        1
176
     0
 90
        6
176
     0
 90
        2
176
     0
 62
     7
176
     0
 90
        5
176
     0
 90
        0
176
     0
 90
        0
176
     0
290
     0
176
     0
 90
        1
176
     0
 40
0.0
176
     0
 90
        0
176
     0
290
     0
176
     0
290
     1
176
     0
290
     1
176
     0
290
     0
176
     0
290
     0
176
     0
290
     0
176
     0
290
     0
176
     0
290
     0
176
     0
290
     0
176
     0
 90
       50
176
     0
 40
0.0
176
     0
 40
1.0
176
     0
 90
        0
176
     0
 62
    18
420
        0
176
     0
 90
       50
176
     0
 90
        3
176
     0
 62
     5
420
      255
176
     0
290
     0
176
     0
 90
       50
176
     0
 90
       50
176
     0
 90
       50
176
     0
290
     0
176
     0
 90
       50
176
     0
 62
   256
176
     0
 40
1.0
176
     0
 90
        2
176
     0
  1
strokes_ogs.tif
176
     0
290
     0
176
     0
 40
1.0
176
     0
 40
1.0
176
     0
  0
VISUALSTYLE
  5
33
102
{ACAD_REACTORS
330
29
102
}
330
29
100
AcDbVisualStyle
  2
Realistic
 70
     8
177
     3
291
     0
 70
    58
 90
        2
176
     1
 90
        3
176
     1
 90
        0
176
     1
 90
        2
176
     1
 40
0.6
176
     1
 40
30.0
176
     1
 62
     7
420
 16777215
176
     1
 90
        0
176
     1
 90
        0
176
     1
 62
     7
176
     1
 62
   257
176
     1
 90
        1
176
     1
 90
        1
176
     1
 40
1.0
176
     1
 90
        8
176
     1
 62
   257
176
     1
 40
1.0
176
     1
 90
        1
176
     1
 90
        6
176
     1
 90
        2
176
     1
 62
     7
176
     1
 90
        3
176
     1
 90
        0
176
     1
 90
        0
176
     1
290
     0
176
     1
 90
       13
176
     1
 40
0.0
176
     1
 90
        0
176
     1
290
     0
176
     1
290
     1
176
     1
290
     1
176
     1
290
     0
176
     1
290
     0
176
     1
290
     0
176
     1
290
     0
176
     1
290
     0
176
     1
290
     0
176
     1
 90
       50
176
     1
 40
0.0
176
     1
 40
1.0
176
     1
 90
        0
176
     1
 62
    18
420
        0
176
     1
 90
       50
176
     1
 90
        3
176
     1
 62
     5
420
      255
176
     1
290
     0
176
     1
 90
       50
176
     1
 90
       50
176
     1
 90
       50
176
     1
290
     0
176
     1
 90
       50
176
     1
 62
   256
176
     0
 40
1.0
176
     0
 90
        2
176
     1
  1
strokes_ogs.tif
176
     1
290
     0
176
     1
 40
1.0
176
     1
 40
1.0
176
     1
  0
VISUALSTYLE
  5
3E
102
{ACAD_REACTORS
330
29
102
}
330
29
100
AcDbVisualStyle
  2
Shaded
 70
    27
177
     3
291
     0
 70
    58
 90
        2
176
     1
 90
        2
176
     1
 90
        1
176
     1
 90
        2
176
     1
 40
0.6
176
     1
 40
30.0
176
     1
 62
     7
420
 16777215
176
     1
 90
        0
176
     1
 90
        4
176
     1
 62
     7
176
     1
 62
   257
176
     1
 90
        1
176
     1
 90
        1
176
     1
 40
1.0
176
     1
 90
        8
176
     1
 62
   257
176
     1
 40
1.0
176
     1
 90
        1
176
     1
 90
        6
176
     1
 90
        2
176
     1
 62
     8
420
  7895160
176
     1
 90
        3
176
     1
 90
        0
176
     1
 90
        0
176
     1
290
     0
176
     1
 90
        5
176
     1
 40
0.0
176
     1
 90
        0
176
     1
290
     0
176
     1
290
     1
176
     1
290
     1
176
     1
290
     0
176
     1
290
     0
176
     1
290
     0
176
     1
290
     0
176
     1
290
     0
176
     1
290
     0
176
     1
 90
       50
176
     1
 40
0.0
176
     1
 40
1.0
176
     1
 90
        0
176
     1
 62
    18
420
        0
176
     1
 90
       50
176
     1
 90
        3
176
     1
 62
     5
420
      255
176
     1
290
     0
176
     1
 90
       50
176
     1
 90
       50
176
     1
 90
       50
176
     1
290
     0
176
     1
 90
       50
176
     1
 62
   256
176
     0
 40
1.0
176
     0
 90
        2
176
     1
  1
strokes_ogs.tif
176
     1
290
     0
176
     1
 40
1.0
176
     1
 40
1.0
176
     1
  0
VISUALSTYLE
  5
3D
102
{ACAD_REACTORS
330
29
102
}
330
29
100
AcDbVisualStyle
  2
Shaded with edges
 70
    26
177
     3
291
     0
 70
    58
 90
        2
176
     1
 90
        2
176
     1
 90
        1
176
     1
 90
        2
176
     1
 40
0.6
176
     1
 40
30.0
176
     1
 62
     7
420
 16777215
176
     1
 90
        1
176
     1
 90
       10
176
     1
 62
     7
176
     1
 62
   257
176
     1
 90
        2
176
     1
 90
        1
176
     1
 40
1.0
176
     1
 90
        8
176
     1
 62
   257
176
     1
 40
1.0
176
     1
 90
        1
176
     1
 90
        6
176
     1
 90
        2
176
     1
 62
     7
176
     1
 90
        3
176
     1
 90
        0
176
     1
 90
        0
176
     1
290
     0
176
     1
 90
        5
176
     1
 40
0.0
176
     1
 90
        0
176
     1
290
     0
176
     1
290
     1
176
     1
290
     1
176
     1
290
     0
176
     1
290
     0
176
     1
290
     0
176
     1
290
     0
176
     1
290
     0
176
     1
290
     0
176
     1
 90
       50
176
     1
 40
0.0
176
     1
 40
1.0
176
     1
 90
        0
176
     1
 62
    18
420
        0
176
     1
 90
       50
176
     1
 90
        3
176
     1
 62
     5
420
      255
176
     1
290
     0
176
     1
 90
       50
176
     1
 90
       50
176
     1
 90
       50
176
     1
290
     0
176
     1
 90
       50
176
     1
 62
   256
176
     0
 40
1.0
176
     0
 90
        2
176
     1
  1
strokes_ogs.tif
176
     1
290
     0
176
     1
 40
1.0
176
     1
 40
1.0
176
     1
  0
VISUALSTYLE
  5
3A
102
{ACAD_REACTORS
330
29
102
}
330
29
100
AcDbVisualStyle
  2
Shades of Gray
 70
    23
177
     3
291
     0
 70
    58
 90
        2
176
     1
 90
        2
176
     1
 90
        3
176
     1
 90
        0
176
     1
 40
0.6
176
     1
 40
30.0
176
     1
 62
     7
420
 16777215
176
     1
 90
        2
176
     1
 90
        2
176
     1
 62
     7
176
     1
 62
     7
176
     1
 90
        1
176
     1
 90
        1
176
     1
 40
40.0
176
     1
 90
        8
176
     1
 62
     7
176
     1
 40
1.0
176
     1
 90
        1
176
     1
 90
        6
176
     1
 90
        2
176
     1
 62
     7
176
     1
 90
        3
176
     1
 90
        0
176
     1
 90
        0
176
     1
290
     0
176
     1
 90
        1
176
     1
 40
0.0
176
     1
 90
        0
176
     1
290
     0
176
     1
290
     1
176
     1
290
     1
176
     1
290
     0
176
     1
290
     0
176
     1
290
     0
176
     1
290
     0
176
     1
290
     0
176
     1
290
     0
176
     1
 90
       50
176
     1
 40
0.0
176
     1
 40
1.0
176
     1
 90
        0
176
     1
 62
    18
420
        0
176
     1
 90
       50
176
     1
 90
        3
176
     1
 62
     5
420
      255
176
     1
290
     0
176
     1
 90
       50
176
     1
 90
       50
176
     1
 90
       50
176
     1
290
     0
176
     1
 90
       50
176
     1
 62
   256
176
     0
 40
1.0
176
     0
 90
        2
176
     1
  1
strokes_ogs.tif
176
     1
290
     0
176
     1
 40
1.0
176
     1
 40
1.0
176
     1
  0
VISUALSTYLE
  5
3B
102
{ACAD_REACTORS
330
29
102
}
330
29
100
AcDbVisualStyle
  2
Sketchy
 70
    24
177
     3
291
     0
 70
    58
 90
        1
176
     1
 90
        2
176
     1
 90
        2
176
     1
 90
        0
176
     1
 40
0.6
176
     1
 40
30.0
176
     1
 62
     7
420
 16777215
176
     1
 90
        2
176
     1
 90
        2
176
     1
 62
     7
176
     1
 62
     7
176
     1
 90
        1
176
     1
 90
        1
176
     1
 40
40.0
176
     1
 90
       11
176
     1
 62
     7
176
     1
 40
1.0
176
     1
 90
        1
176
     1
 90
        6
176
     1
 90
        2
176
     1
 62
     7
176
     1
 90
        6
176
     1
 90
        0
176
     1
 90
        0
176
     1
290
     0
176
     1
 90
        1
176
     1
 40
0.0
176
     1
 90
        0
176
     1
290
     0
176
     1
290
     1
176
     1
290
     1
176
     1
290
     0
176
     1
290
     0
176
     1
290
     0
176
     1
290
     0
176
     1
290
     0
176
     1
290
     0
176
     1
 90
       50
176
     1
 40
0.0
176
     1
 40
1.0
176
     1
 90
        0
176
     1
 62
    18
420
        0
176
     1
 90
       50
176
     1
 90
        3
176
     1
 62
     5
420
      255
176
     1
290
     0
176
     1
 90
       50
176
     1
 90
       50
176
     1
 90
       50
176
     1
290
     0
176
     1
 90
       50
176
     1
 62
   256
176
     0
 40
1.0
176
     0
 90
        2
176
     1
  1
strokes_ogs.tif
176
     1
290
     0
176
     1
 40
1.0
176
     1
 40
1.0
176
     1
  0
VISUALSTYLE
  5
36
102
{ACAD_REACTORS
330
29
102
}
330
29
100
AcDbVisualStyle
  2
Thicken
 70
    13
177
     3
291
     1
 70
    58
 90
        2
176
     1
 90
        2
176
     1
 90
        0
176
     1
 90
        0
176
     1
 40
0.6
176
     1
 40
30.0
176
     1
 62
     7
420
 16777215
176
     1
 90
        1
176
     1
 90
        4
176
     1
 62
     7
176
     1
 62
   257
176
     1
 90
        1
176
     1
 90
        1
176
     1
 40
1.0
176
     1
 90
       12
176
     1
 62
     7
176
     1
 40
1.0
176
     1
 90
        1
176
     1
 90
        6
176
     1
 90
        2
176
     1
 62
     7
176
     1
 90
        5
176
     1
 90
        0
176
     1
 90
        0
176
     1
290
     0
176
     1
 90
        1
176
     1
 40
0.0
176
     1
 90
        0
176
     1
290
     0
176
     1
290
     1
176
     1
290
     1
176
     1
290
     0
176
     1
290
     0
176
     1
290
     0
176
     1
290
     0
176
     1
290
     0
176
     1
290
     0
176
     1
 90
       50
176
     1
 40
0.0
176
     1
 40
1.0
176
     1
 90
        0
176
     1
 62
    18
420
        0
176
     1
 90
       50
176
     1
 90
        3
176
     1
 62
     5
420
      255
176
     1
290
     0
176
     1
 90
       50
176
     1
 90
       50
176
     1
 90
       50
176
     1
290
     0
176
     1
 90
       50
176
     1
 62
   256
176
     0
 40
1.0
176
     0
 90
        2
176
     1
  1
strokes_ogs.tif
176
     1
290
     0
176
     1
 40
1.0
176
     1
 40
1.0
176
     1
  0
VISUALSTYLE
  5
30
102
{ACAD_REACTORS
330
29
102
}
330
29
100
AcDbVisualStyle
  2
Wireframe
 70
     5
177
     3
291
     0
 70
    58
 90
        0
176
     1
 90
        2
176
     1
 90
        0
176
     1
 90
        0
176
     1
 40
0.6
176
     1
 40
30.0
176
     1
 62
     7
420
 16777215
176
     1
 90
        1
176
     1
 90
        4
176
     1
 62
     7
176
     1
 62
   257
176
     1
 90
        1
176
     1
 90
        1
176
     1
 40
1.0
176
     1
 90
        0
176
     1
 62
   257
176
     1
 40
1.0
176
     1
 90
        1
176
     1
 90
        6
176
     1
 90
        2
176
     1
 62
     7
176
     1
 90
        3
176
     1
 90
        0
176
     1
 90
        0
176
     1
290
     0
176
     1
 90
        1
176
     1
 40
0.0
176
     1
 90
        0
176
     1
290
     0
176
     1
290
     1
176
     1
290
     1
176
     1
290
     0
176
     1
290
     0
176
     1
290
     0
176
     1
290
     0
176
     1
290
     0
176
     1
290
     0
176
     1
 90
       50
176
     1
 40
0.0
176
     1
 40
1.0
176
     1
 90
        0
176
     1
 62
    18
420
        0
176
     1
 90
       50
176
     1
 90
        3
176
     1
 62
     5
420
      255
176
     1
290
     0
176
     1
 90
       50
176
     1
 90
       50
176
     1
 90
       50
176
     1
290
     0
176
     1
 90
       50
176
     1
 62
   256
176
     0
 40
1.0
176
     0
 90
        2
176
     1
  1
strokes_ogs.tif
176
     1
290
     0
176
     1
 40
1.0
176
     1
 40
1.0
176
     1
  0
VISUALSTYLE
  5
3C
102
{ACAD_REACTORS
330
29
102
}
330
29
100
AcDbVisualStyle
  2
X-Ray
 70
    25
177
     3
291
     0
 70
    58
 90
        2
176
     1
 90
        2
176
     1
 90
        1
176
     1
 90
        1
176
     1
 40
0.5
176
     1
 40
30.0
176
     1
 62
     7
420
 16777215
176
     1
 90
        1
176
     1
 90
        0
176
     1
 62
     7
176
     1
 62
   257
176
     1
 90
        1
176
     1
 90
        1
176
     1
 40
1.0
176
     1
 90
        8
176
     1
 62
     7
176
     1
 40
1.0
176
     1
 90
        1
176
     1
 90
        6
176
     1
 90
        2
176
     1
 62
     7
176
     1
 90
        3
176
     1
 90
        0
176
     1
 90
        0
176
     1
290
     0
176
     1
 90
       13
176
     1
 40
0.0
176
     1
 90
        0
176
     1
290
     0
176
     1
290
     1
176
     1
290
     1
176
     1
290
     0
176
     1
290
     0
176
     1
290
     0
176
     1
290
     0
176
     1
290
     0
176
     1
290
     0
176
     1
 90
       50
176
     1
 40
0.0
176
     1
 40
1.0
176
     1
 90
        0
176
     1
 62
    18
420
        0
176
     1
 90
       50
176
     1
 90
        3
176
     1
 62
     5
420
      255
176
     1
290
     0
176
     1
 90
       50
176
     1
 90
       50
176
     1
 90
       50
176
     1
290
     0
176
     1
 90
       50
176
     1
 62
   256
176
     0
 40
1.0
176
     0
 90
        2
176
     1
  1
strokes_ogs.tif
176
     1
290
     0
176
     1
 40
1.0
176
     1
 40
1.0
176
     1
  0
DICTIONARYVAR
  5
114
102
{ACAD_REACTORS
330
10F
102
}
330
10F
100
DictionaryVariables
280
     0
  1
1:1
  0
DICTIONARYVAR
  5
111
102
{ACAD_REACTORS
330
10F
102
}
330
10F
100
DictionaryVariables
280
     0
  1
STANDARD
  0
DICTIONARYVAR
  5
110
102
{ACAD_REACTORS
330
10F
102
}
330
10F
100
DictionaryVariables
280
     0
  1
STANDARD
  0
DICTIONARYVAR
  5
112
102
{ACAD_REACTORS
330
10F
102
}
330
10F
100
DictionaryVariables
280
     0
  1
Imperial24
  0
DICTIONARYVAR
  5
113
102
{ACAD_REACTORS
330
10F
102
}
330
10F
100
DictionaryVariables
280
     0
  1
Imperial24
  0
XRECORD
  5
106
102
{ACAD_REACTORS
330
104
102
}
330
104
100
AcDbXrecord
280
     1
  1
BUILDING_ID
  1
Faucet_Lavatory-DXV-Fitzgerald-D35160102_Series
  1
FLOOR_ID
  1
35
  0
XRECORD
  5
105
102
{ACAD_REACTORS
330
104
102
}
330
104
100
AcDbXrecord
280
     1
  1
-2001160
  1
Plumbing Fixtures
  1
-2007000
  1
Connector Element
  0
DICTIONARY
  5
10C
330
6B
100
AcDbDictionary
280
     1
281
     1
  3
ACAD_XREC_ROUNDTRIP
360
4E7
  0
DICTIONARY
  5
1A
330
19
100
AcDbDictionary
280
     1
281
     1
  3
BUMPTILE
360
1C
  3
DIFFUSETILE
360
1B
  3
OPACITYTILE
360
1F
  3
REFLECTIONTILE
360
1E
  3
REFRACTIONTILE
360
20
  3
SPECULARTILE
360
1D
  0
DICTIONARY
  5
12
330
11
100
AcDbDictionary
280
     1
281
     1
  3
BUMPTILE
360
14
  3
DIFFUSETILE
360
13
  3
OPACITYTILE
360
17
  3
REFLECTIONTILE
360
16
  3
REFRACTIONTILE
360
18
  3
SPECULARTILE
360
15
  0
DICTIONARY
  5
22
330
21
100
AcDbDictionary
280
     1
281
     1
  3
BUMPTILE
360
24
  3
DIFFUSETILE
360
23
  3
OPACITYTILE
360
27
  3
REFLECTIONTILE
360
26
  3
REFRACTIONTILE
360
28
  3
SPECULARTILE
360
25
  0
DICTIONARY
  5
10A
330
69
100
AcDbDictionary
280
     1
281
     1
  3
ACAD_XREC_ROUNDTRIP
360
4E6
  0
DICTIONARY
  5
4E4
330
65
100
AcDbDictionary
280
     1
281
     1
  3
ACAD_ROUNDTRIP_2008_TABLESTYLE_CELLSTYLEMAP
360
4E5
  0
XRECORD
  5
4E7
102
{ACAD_REACTORS
330
10C
102
}
330
10C
100
AcDbXrecord
280
     1
102
DISPLAYNAME
  1
Imperial24
102
FLAGS
 90
        0
  0
XRECORD
  5
1C
102
{ACAD_REACTORS
330
1A
102
}
330
1A
100
AcDbXrecord
280
     1
270
     1
271
     1
  0
XRECORD
  5
1B
102
{ACAD_REACTORS
330
1A
102
}
330
1A
100
AcDbXrecord
280
     1
270
     1
271
     1
  0
XRECORD
  5
1F
102
{ACAD_REACTORS
330
1A
102
}
330
1A
100
AcDbXrecord
280
     1
270
     1
271
     1
  0
XRECORD
  5
1E
102
{ACAD_REACTORS
330
1A
102
}
330
1A
100
AcDbXrecord
280
     1
270
     1
271
     1
  0
XRECORD
  5
20
102
{ACAD_REACTORS
330
1A
102
}
330
1A
100
AcDbXrecord
280
     1
270
     1
271
     1
  0
XRECORD
  5
1D
102
{ACAD_REACTORS
330
1A
102
}
330
1A
100
AcDbXrecord
280
     1
270
     1
271
     1
  0
XRECORD
  5
14
102
{ACAD_REACTORS
330
12
102
}
330
12
100
AcDbXrecord
280
     1
270
     1
271
     1
  0
XRECORD
  5
13
102
{ACAD_REACTORS
330
12
102
}
330
12
100
AcDbXrecord
280
     1
270
     1
271
     1
  0
XRECORD
  5
17
102
{ACAD_REACTORS
330
12
102
}
330
12
100
AcDbXrecord
280
     1
270
     1
271
     1
  0
XRECORD
  5
16
102
{ACAD_REACTORS
330
12
102
}
330
12
100
AcDbXrecord
280
     1
270
     1
271
     1
  0
XRECORD
  5
18
102
{ACAD_REACTORS
330
12
102
}
330
12
100
AcDbXrecord
280
     1
270
     1
271
     1
  0
XRECORD
  5
15
102
{ACAD_REACTORS
330
12
102
}
330
12
100
AcDbXrecord
280
     1
270
     1
271
     1
  0
XRECORD
  5
24
102
{ACAD_REACTORS
330
22
102
}
330
22
100
AcDbXrecord
280
     1
270
     1
271
     1
  0
XRECORD
  5
23
102
{ACAD_REACTORS
330
22
102
}
330
22
100
AcDbXrecord
280
     1
270
     1
271
     1
  0
XRECORD
  5
27
102
{ACAD_REACTORS
330
22
102
}
330
22
100
AcDbXrecord
280
     1
270
     1
271
     1
  0
XRECORD
  5
26
102
{ACAD_REACTORS
330
22
102
}
330
22
100
AcDbXrecord
280
     1
270
     1
271
     1
  0
XRECORD
  5
28
102
{ACAD_REACTORS
330
22
102
}
330
22
100
AcDbXrecord
280
     1
270
     1
271
     1
  0
XRECORD
  5
25
102
{ACAD_REACTORS
330
22
102
}
330
22
100
AcDbXrecord
280
     1
270
     1
271
     1
  0
XRECORD
  5
4E6
102
{ACAD_REACTORS
330
10A
102
}
330
10A
100
AcDbXrecord
280
     1
102
DISPLAYNAME
  1
Imperial24
102
FLAGS
 90
        0
  0
CELLSTYLEMAP
  5
4E5
102
{ACAD_REACTORS
330
4E4
102
}
330
4E4
100
AcDbCellStyleMap
 90
        3
300
CELLSTYLE
  1
TABLEFORMAT_BEGIN
 90
        5
170
     1
 91
        0
 92
    32768
 62
   257
 93
        1
300
CONTENTFORMAT
  1
CONTENTFORMAT_BEGIN
 90
        0
 91
        0
 92
      512
 93
        0
300

 40
0.0
140
1.0
 94
        5
 62
     0
340
55
144
0.25
309
CONTENTFORMAT_END
171
     0
 94
        0
309
TABLEFORMAT_END
  1
CELLSTYLE_BEGIN
 90
        1
 91
        1
300
_TITLE
309
CELLSTYLE_END
300
CELLSTYLE
  1
TABLEFORMAT_BEGIN
 90
        5
170
     1
 91
        0
 92
        0
 62
   257
 93
        1
300
CONTENTFORMAT
  1
CONTENTFORMAT_BEGIN
 90
        0
 91
        0
 92
      512
 93
        0
300

 40
0.0
140
1.0
 94
        5
 62
     0
340
55
144
0.18
309
CONTENTFORMAT_END
171
     0
 94
        0
309
TABLEFORMAT_END
  1
CELLSTYLE_BEGIN
 90
        2
 91
        1
300
_HEADER
309
CELLSTYLE_END
300
CELLSTYLE
  1
TABLEFORMAT_BEGIN
 90
        5
170
     1
 91
        0
 92
        0
 62
   257
 93
        1
300
CONTENTFORMAT
  1
CONTENTFORMAT_BEGIN
 90
        0
 91
        0
 92
      512
 93
        0
300

 40
0.0
140
1.0
 94
        2
 62
     0
340
55
144
0.18
309
CONTENTFORMAT_END
171
     0
 94
        0
309
TABLEFORMAT_END
  1
CELLSTYLE_BEGIN
 90
        3
 91
        2
300
_DATA
309
CELLSTYLE_END
  0
ENDSEC
  0
SECTION
  2
ACDSDATA
 70
     2
 71
     8
  0
ACDSSCHEMA
 90
        0
  1
AcDb_Thumbnail_Schema
  2
AcDbDs::ID
280
    10
 91
        8
  2
Thumbnail_Data
280
    15
 91
        0
101
ACDSRECORD
 95
        0
 90
        1
  2
AcDbDs::TreatedAsObjectData
280
     1
291
     1
101
ACDSRECORD
 95
        0
 90
        2
  2
AcDbDs::Legacy
280
     1
291
     1
101
ACDSRECORD
  1
AcDbDs::ID
 90
        3
  2
AcDs:Indexable
280
     1
291
     1
101
ACDSRECORD
  1
AcDbDs::ID
 90
        4
  2
AcDbDs::HandleAttribute
280
     7
282
     1
  0
ACDSSCHEMA
 90
        1
  1
AcDbDs::TreatedAsObjectDataSchema
  2
AcDbDs::TreatedAsObjectData
280
     1
 91
        0
  0
ACDSSCHEMA
 90
        2
  1
AcDbDs::LegacySchema
  2
AcDbDs::Legacy
280
     1
 91
        0
  0
ACDSSCHEMA
 90
        3
  1
AcDbDs::IndexedPropertySchema
  2
AcDs:Indexable
280
     1
 91
        0
  0
ACDSSCHEMA
 90
        4
  1
AcDbDs::HandleAttributeSchema
  2
AcDbDs::HandleAttribute
280
     7
 91
        1
284
     1
  0
ACDSRECORD
 90
        0
  2
AcDbDs::ID
280
    10
320
73
  2
Thumbnail_Data
280
    15
 94
     1247
310
89504E470D0A1A0A0000000D494844520000010000000084080300000048FA052E00000300504C5445212830000000C8C8C80000000000000000000000000000000000000000000000000000330000660000990000CC0000FF0033000033330033660033990033CC0033FF0066000066330066660066990066CC0066FF0099
310
000099330099660099990099CC0099FF00CC0000CC3300CC6600CC9900CCCC00CCFF00FF0000FF3300FF6600FF9900FFCC00FFFF3300003300333300663300993300CC3300FF3333003333333333663333993333CC3333FF3366003366333366663366993366CC3366FF3399003399333399663399993399CC3399FF33CC00
310
33CC3333CC6633CC9933CCCC33CCFF33FF0033FF3333FF6633FF9933FFCC33FFFF6600006600336600666600996600CC6600FF6633006633336633666633996633CC6633FF6666006666336666666666996666CC6666FF6699006699336699666699996699CC6699FF66CC0066CC3366CC6666CC9966CCCC66CCFF66FF0066
310
FF3366FF6666FF9966FFCC66FFFF9900009900339900669900999900CC9900FF9933009933339933669933999933CC9933FF9966009966339966669966999966CC9966FF9999009999339999669999999999CC9999FF99CC0099CC3399CC6699CC9999CCCC99CCFF99FF0099FF3399FF6699FF9999FFCC99FFFFCC0000CC00
310
33CC0066CC0099CC00CCCC00FFCC3300CC3333CC3366CC3399CC33CCCC33FFCC6600CC6633CC6666CC6699CC66CCCC66FFCC9900CC9933CC9966CC9999CC99CCCC99FFCCCC00CCCC33CCCC66CCCC99CCCCCCCCCCFFCCFF00CCFF33CCFF66CCFF99CCFFCCCCFFFFFF0000FF0033FF0066FF0099FF00CCFF00FFFF3300FF3333
310
FF3366FF3399FF33CCFF33FFFF6600FF6633FF6666FF6699FF66CCFF66FFFF9900FF9933FF9966FF9999FF99CCFF99FFFFCC00FFCC33FFCC66FFCC99FFCCCCFFCCFFFFFF00FFFF33FFFF66FFFF99FFFFCCFFFFFF0000000D0D0D1A1A1A2828283535354343435050505D5D5D6B6B6B787878868686939393A1A1A1AEAEAEBB
310
BBBBC9C9C9D6D6D6E4E4E4F1F1F1FFFFFF000000000000000000000000000000000000000000000000000000000000B21171F60000019A4944415478DAED9D4972C3300C04F1FFFFCE3D658B5A124537121ED7741F6CDF04B6401ADAA02AB0442F92C73F2C44EFFFE01C50BA81D7C0B57D040B782F0499068EDC4F9D044ACF
310
801A4BC0FB33FA5F20B710D8777FB6804A2E86C72288000420000108400002108000042020F580385680E20554F2F910042000010840000210902CA03601858060030888BE4B0C00000000000000000000000000000000000000000000E09344DFD5BFB6E39DBE60F0E3D7A20DF829D0D1E5EF3AE825023CDB298E46976A58
310
034C5B68A82E0F33AE6DF1204F017B0EAC7FA4CBB48346E3C4B414D01994A380A3DB6F537DE5B606688CBE21AA31743F03FF74F7D18246F0920CDBCBDF82FA1BE1BC6075B4D5F512B0A7FF53CFE369D18E724BF23A223805E8215B6719D059093A0AD043A932F1F0E59C02E527609B0ABF27FF08785AC69A0BB8C4A5CBCB10
310
26062CCB778C68AC7F0FA55A8A807B162C3831602DA023ACF30D0B9619A0864D3996C2084000021080000420000108400002B20514021AB6A4EBB7C9F811800004DC2F8C2409A86C014240DB45EBC64D21007E006C29029765A1C9080000000049454E44AE426082
  0
ENDSEC
  0
EOF
