  0
SECTION
  2
HEADER
  9
$ACADVER
  1
AC1027
  9
$ACADMAINTVER
 70
   105
  9
$DWGCODEPAGE
  3
ANSI_1252
  9
$LASTSAVEDBY
  1
Ibrahim
  9
$REQUIREDVERSIONS
160
                 0
  9
$INSBASE
 10
0.0
 20
0.0
 30
0.0
  9
$EXTMIN
 10
-19.61036587945274
 20
-0.0004485706796657
 30
-0.0000000000022887
  9
$EXTMAX
 10
7.376038799354432
 20
18.79725040974627
 30
0.0000000000000001
  9
$LIMMIN
 10
0.0
 20
0.0
  9
$LIMMAX
 10
12.0
 20
9.0
  9
$ORTHOMODE
 70
     1
  9
$REGENMODE
 70
     1
  9
$FILLMODE
 70
     1
  9
$QTEXTMODE
 70
     0
  9
$MIRRTEXT
 70
     0
  9
$LTSCALE
 40
1.0
  9
$ATTMODE
 70
     1
  9
$TEXTSIZE
 40
0.2
  9
$TRACEWID
 40
0.05
  9
$TEXTSTYLE
  7
Standard
  9
$CLAYER
  8
D35160802
  9
$CELTYPE
  6
ByLayer
  9
$CECOLOR
 62
   256
  9
$CELTSCALE
 40
1.0
  9
$DISPSILH
 70
     0
  9
$DIMSCALE
 40
1.0
  9
$DIMASZ
 40
0.18
  9
$DIMEXO
 40
0.0625
  9
$DIMDLI
 40
0.38
  9
$DIMRND
 40
0.0
  9
$DIMDLE
 40
0.0
  9
$DIMEXE
 40
0.18
  9
$DIMTP
 40
0.0
  9
$DIMTM
 40
0.0
  9
$DIMTXT
 40
0.18
  9
$DIMCEN
 40
0.09
  9
$DIMTSZ
 40
0.0
  9
$DIMTOL
 70
     0
  9
$DIMLIM
 70
     0
  9
$DIMTIH
 70
     1
  9
$DIMTOH
 70
     1
  9
$DIMSE1
 70
     0
  9
$DIMSE2
 70
     0
  9
$DIMTAD
 70
     0
  9
$DIMZIN
 70
     0
  9
$DIMBLK
  1

  9
$DIMASO
 70
     1
  9
$DIMSHO
 70
     1
  9
$DIMPOST
  1

  9
$DIMAPOST
  1

  9
$DIMALT
 70
     0
  9
$DIMALTD
 70
     2
  9
$DIMALTF
 40
25.4
  9
$DIMLFAC
 40
1.0
  9
$DIMTOFL
 70
     0
  9
$DIMTVP
 40
0.0
  9
$DIMTIX
 70
     0
  9
$DIMSOXD
 70
     0
  9
$DIMSAH
 70
     0
  9
$DIMBLK1
  1

  9
$DIMBLK2
  1

  9
$DIMSTYLE
  2
Standard
  9
$DIMCLRD
 70
     0
  9
$DIMCLRE
 70
     0
  9
$DIMCLRT
 70
     0
  9
$DIMTFAC
 40
1.0
  9
$DIMGAP
 40
0.09
  9
$DIMJUST
 70
     0
  9
$DIMSD1
 70
     0
  9
$DIMSD2
 70
     0
  9
$DIMTOLJ
 70
     1
  9
$DIMTZIN
 70
     0
  9
$DIMALTZ
 70
     0
  9
$DIMALTTZ
 70
     0
  9
$DIMUPT
 70
     0
  9
$DIMDEC
 70
     4
  9
$DIMTDEC
 70
     4
  9
$DIMALTU
 70
     4
  9
$DIMALTTD
 70
     2
  9
$DIMTXSTY
  7
Standard
  9
$DIMAUNIT
 70
     0
  9
$DIMADEC
 70
     0
  9
$DIMALTRND
 40
0.0
  9
$DIMAZIN
 70
     0
  9
$DIMDSEP
 70
    46
  9
$DIMATFIT
 70
     3
  9
$DIMFRAC
 70
     0
  9
$DIMLDRBLK
  1

  9
$DIMLUNIT
 70
     4
  9
$DIMLWD
 70
    -2
  9
$DIMLWE
 70
    -2
  9
$DIMTMOVE
 70
     0
  9
$DIMFXL
 40
1.0
  9
$DIMFXLON
 70
     0
  9
$DIMJOGANG
 40
0.7853981633974483
  9
$DIMTFILL
 70
     0
  9
$DIMTFILLCLR
 70
     0
  9
$DIMARCSYM
 70
     0
  9
$DIMLTYPE
  6

  9
$DIMLTEX1
  6

  9
$DIMLTEX2
  6

  9
$DIMTXTDIRECTION
 70
     0
  9
$LUNITS
 70
     4
  9
$LUPREC
 70
     4
  9
$SKETCHINC
 40
0.1
  9
$FILLETRAD
 40
0.0
  9
$AUNITS
 70
     0
  9
$AUPREC
 70
     0
  9
$MENU
  1
.
  9
$ELEVATION
 40
0.0
  9
$PELEVATION
 40
0.0
  9
$THICKNESS
 40
0.0
  9
$LIMCHECK
 70
     0
  9
$CHAMFERA
 40
0.0
  9
$CHAMFERB
 40
0.0
  9
$CHAMFERC
 40
0.0
  9
$CHAMFERD
 40
0.0
  9
$SKPOLY
 70
     0
  9
$TDCREATE
 40
2458418.495495312
  9
$TDUCREATE
 40
2458418.662161979
  9
$TDUPDATE
 40
2458425.443088959
  9
$TDUUPDATE
 40
2458425.609755625
  9
$TDINDWG
 40
0.0062591319
  9
$TDUSRTIMER
 40
0.0062591319
  9
$USRTIMER
 70
     1
  9
$ANGBASE
 50
0.0
  9
$ANGDIR
 70
     0
  9
$PDMODE
 70
     0
  9
$PDSIZE
 40
0.0
  9
$PLINEWID
 40
0.0
  9
$SPLFRAME
 70
     0
  9
$SPLINETYPE
 70
     6
  9
$SPLINESEGS
 70
     8
  9
$HANDSEED
  5
CEE
  9
$SURFTAB1
 70
     6
  9
$SURFTAB2
 70
     6
  9
$SURFTYPE
 70
     6
  9
$SURFU
 70
     6
  9
$SURFV
 70
     6
  9
$UCSBASE
  2

  9
$UCSNAME
  2

  9
$UCSORG
 10
0.0
 20
0.0
 30
0.0
  9
$UCSXDIR
 10
1.0
 20
0.0
 30
0.0
  9
$UCSYDIR
 10
0.0
 20
1.0
 30
0.0
  9
$UCSORTHOREF
  2

  9
$UCSORTHOVIEW
 70
     0
  9
$UCSORGTOP
 10
0.0
 20
0.0
 30
0.0
  9
$UCSORGBOTTOM
 10
0.0
 20
0.0
 30
0.0
  9
$UCSORGLEFT
 10
0.0
 20
0.0
 30
0.0
  9
$UCSORGRIGHT
 10
0.0
 20
0.0
 30
0.0
  9
$UCSORGFRONT
 10
0.0
 20
0.0
 30
0.0
  9
$UCSORGBACK
 10
0.0
 20
0.0
 30
0.0
  9
$PUCSBASE
  2

  9
$PUCSNAME
  2

  9
$PUCSORG
 10
0.0
 20
0.0
 30
0.0
  9
$PUCSXDIR
 10
1.0
 20
0.0
 30
0.0
  9
$PUCSYDIR
 10
0.0
 20
1.0
 30
0.0
  9
$PUCSORTHOREF
  2

  9
$PUCSORTHOVIEW
 70
     0
  9
$PUCSORGTOP
 10
0.0
 20
0.0
 30
0.0
  9
$PUCSORGBOTTOM
 10
0.0
 20
0.0
 30
0.0
  9
$PUCSORGLEFT
 10
0.0
 20
0.0
 30
0.0
  9
$PUCSORGRIGHT
 10
0.0
 20
0.0
 30
0.0
  9
$PUCSORGFRONT
 10
0.0
 20
0.0
 30
0.0
  9
$PUCSORGBACK
 10
0.0
 20
0.0
 30
0.0
  9
$USERI1
 70
     0
  9
$USERI2
 70
     0
  9
$USERI3
 70
     0
  9
$USERI4
 70
     0
  9
$USERI5
 70
     0
  9
$USERR1
 40
0.0
  9
$USERR2
 40
0.0
  9
$USERR3
 40
0.0
  9
$USERR4
 40
0.0
  9
$USERR5
 40
0.0
  9
$WORLDVIEW
 70
     1
  9
$SHADEDGE
 70
     3
  9
$SHADEDIF
 70
    70
  9
$TILEMODE
 70
     1
  9
$MAXACTVP
 70
    64
  9
$PINSBASE
 10
0.0
 20
0.0
 30
0.0
  9
$PLIMCHECK
 70
     0
  9
$PEXTMIN
 10
1.000000000000000E+20
 20
1.000000000000000E+20
 30
1.000000000000000E+20
  9
$PEXTMAX
 10
-1.000000000000000E+20
 20
-1.000000000000000E+20
 30
-1.000000000000000E+20
  9
$PLIMMIN
 10
0.0
 20
0.0
  9
$PLIMMAX
 10
12.0
 20
9.0
  9
$UNITMODE
 70
     0
  9
$VISRETAIN
 70
     1
  9
$PLINEGEN
 70
     0
  9
$PSLTSCALE
 70
     1
  9
$TREEDEPTH
 70
  3020
  9
$CMLSTYLE
  2
Standard
  9
$CMLJUST
 70
     0
  9
$CMLSCALE
 40
1.0
  9
$PROXYGRAPHICS
 70
     1
  9
$MEASUREMENT
 70
     0
  9
$CELWEIGHT
370
    -1
  9
$ENDCAPS
280
     0
  9
$JOINSTYLE
280
     0
  9
$LWDISPLAY
290
     0
  9
$INSUNITS
 70
     1
  9
$HYPERLINKBASE
  1

  9
$STYLESHEET
  1

  9
$XEDIT
290
     1
  9
$CEPSNTYPE
380
     0
  9
$PSTYLEMODE
290
     1
  9
$FINGERPRINTGUID
  2
{2688547D-9C83-4588-9C59-CF6A49983095}
  9
$VERSIONGUID
  2
{5D0F4E0C-1F95-4257-B933-39B6EE90BA73}
  9
$EXTNAMES
290
     1
  9
$PSVPSCALE
 40
0.0
  9
$OLESTARTUP
290
     0
  9
$SORTENTS
280
   127
  9
$INDEXCTL
280
     0
  9
$HIDETEXT
280
     1
  9
$XCLIPFRAME
280
     2
  9
$HALOGAP
280
     0
  9
$OBSCOLOR
 70
   257
  9
$OBSLTYPE
280
     0
  9
$INTERSECTIONDISPLAY
280
     0
  9
$INTERSECTIONCOLOR
 70
   257
  9
$DIMASSOC
280
     2
  9
$PROJECTNAME
  1

  9
$CAMERADISPLAY
290
     0
  9
$LENSLENGTH
 40
50.0
  9
$CAMERAHEIGHT
 40
0.0
  9
$STEPSPERSEC
 40
2.0
  9
$STEPSIZE
 40
6.0
  9
$3DDWFPREC
 40
2.0
  9
$PSOLWIDTH
 40
0.25
  9
$PSOLHEIGHT
 40
4.0
  9
$LOFTANG1
 40
1.570796326794896
  9
$LOFTANG2
 40
1.570796326794896
  9
$LOFTMAG1
 40
0.0
  9
$LOFTMAG2
 40
0.0
  9
$LOFTPARAM
 70
     7
  9
$LOFTNORMALS
280
     1
  9
$LATITUDE
 40
0.0
  9
$LONGITUDE
 40
0.0
  9
$NORTHDIRECTION
 40
0.0
  9
$TIMEZONE
 70
     0
  9
$LIGHTGLYPHDISPLAY
280
     1
  9
$TILEMODELIGHTSYNCH
280
     1
  9
$CMATERIAL
347
11
  9
$SOLIDHIST
280
     0
  9
$SHOWHIST
280
     1
  9
$DWFFRAME
280
     2
  9
$DGNFRAME
280
     0
  9
$REALWORLDSCALE
290
     1
  9
$INTERFERECOLOR
 62
     1
  9
$INTERFEREOBJVS
345
33
  9
$INTERFEREVPVS
346
30
  9
$CSHADOW
280
     0
  9
$SHADOWPLANELOCATION
 40
0.0
  0
ENDSEC
  0
SECTION
  2
CLASSES
  0
CLASS
  1
ACDBDICTIONARYWDFLT
  2
AcDbDictionaryWithDefault
  3
ObjectDBX Classes
 90
        0
 91
        1
280
     0
281
     0
  0
CLASS
  1
MATERIAL
  2
AcDbMaterial
  3
ObjectDBX Classes
 90
     1153
 91
        3
280
     0
281
     0
  0
CLASS
  1
VISUALSTYLE
  2
AcDbVisualStyle
  3
ObjectDBX Classes
 90
     4095
 91
       24
280
     0
281
     0
  0
CLASS
  1
SCALE
  2
AcDbScale
  3
ObjectDBX Classes
 90
     1153
 91
       17
280
     0
281
     0
  0
CLASS
  1
TABLESTYLE
  2
AcDbTableStyle
  3
ObjectDBX Classes
 90
     4095
 91
        1
280
     0
281
     0
  0
CLASS
  1
MLEADERSTYLE
  2
AcDbMLeaderStyle
  3
ACDB_MLEADERSTYLE_CLASS
 90
     4095
 91
        1
280
     0
281
     0
  0
CLASS
  1
ACDBSECTIONVIEWSTYLE
  2
AcDbSectionViewStyle
  3
ObjectDBX Classes
 90
     1025
 91
        1
280
     0
281
     0
  0
CLASS
  1
ACDBDETAILVIEWSTYLE
  2
AcDbDetailViewStyle
  3
ObjectDBX Classes
 90
     1025
 91
        1
280
     0
281
     0
  0
CLASS
  1
RASTERVARIABLES
  2
AcDbRasterVariables
  3
ISM
 90
        0
 91
        1
280
     0
281
     0
  0
CLASS
  1
DICTIONARYVAR
  2
AcDbDictionaryVar
  3
ObjectDBX Classes
 90
        0
 91
        5
280
     0
281
     0
  0
CLASS
  1
SORTENTSTABLE
  2
AcDbSortentsTable
  3
ObjectDBX Classes
 90
        0
 91
        3
280
     0
281
     0
  0
CLASS
  1
CELLSTYLEMAP
  2
AcDbCellStyleMap
  3
ObjectDBX Classes
 90
     1152
 91
        1
280
     0
281
     0
  0
ENDSEC
  0
SECTION
  2
TABLES
  0
TABLE
  2
VPORT
  5
8
330
0
100
AcDbSymbolTable
 70
     1
  0
VPORT
  5
57
330
8
100
AcDbSymbolTableRecord
100
AcDbViewportTableRecord
  2
*Active
 70
     0
 10
0.0
 20
0.0
 11
1.0
 21
1.0
 12
-4.007450028750582
 22
9.396549359239514
 13
0.0
 23
0.0
 14
1.0
 24
1.0
 15
0.0
 25
0.0
 16
0.0
 26
0.0
 36
1.0
 17
0.0
 27
0.0
 37
0.0
 40
19.07417822119993
 41
1.927321668909824
 42
50.0
 43
0.0
 44
0.0
 50
0.0
 51
0.0
 71
     0
 72
  1000
 73
     1
 74
     1
 75
     0
 76
     0
 77
     0
 78
     0
281
     0
 65
     1
110
0.0
120
0.0
130
0.0
111
1.0
121
0.0
131
0.0
112
0.0
122
1.0
132
0.0
 79
     0
146
0.0
348
2F
 60
     3
 61
     5
292
     1
282
     1
141
0.0
142
0.0
 63
   250
421
  3355443
1001
ACAD_NAV_VCDISPLAY
1070
     3
  0
ENDTAB
  0
TABLE
  2
LTYPE
  5
5
330
0
100
AcDbSymbolTable
 70
     2
  0
LTYPE
  5
5B
330
5
100
AcDbSymbolTableRecord
100
AcDbLinetypeTableRecord
  2
ByBlock
 70
     0
  3

 72
    65
 73
     0
 40
0.0
  0
LTYPE
  5
5C
330
5
100
AcDbSymbolTableRecord
100
AcDbLinetypeTableRecord
  2
ByLayer
 70
     0
  3

 72
    65
 73
     0
 40
0.0
  0
LTYPE
  5
5D
330
5
100
AcDbSymbolTableRecord
100
AcDbLinetypeTableRecord
  2
Continuous
 70
     0
  3
Solid line
 72
    65
 73
     0
 40
0.0
  0
ENDTAB
  0
TABLE
  2
LAYER
  5
2
102
{ACAD_XDICTIONARY
360
CC2
102
}
330
0
100
AcDbSymbolTable
 70
     3
  0
LAYER
  5
54
330
2
100
AcDbSymbolTableRecord
100
AcDbLayerTableRecord
  2
0
 70
     0
 62
     7
  6
Continuous
370
    -3
390
F
347
21
348
0
  0
LAYER
  5
8A
330
2
100
AcDbSymbolTableRecord
100
AcDbLayerTableRecord
  2
D35160802
 70
     0
 62
     7
  6
Continuous
370
     9
390
F
347
21
348
0
  0
ENDTAB
  0
TABLE
  2
STYLE
  5
3
330
0
100
AcDbSymbolTable
 70
     3
  0
STYLE
  5
55
330
3
100
AcDbSymbolTableRecord
100
AcDbTextStyleTableRecord
  2
Standard
 70
     0
 40
0.0
 41
1.0
 50
0.0
 71
     0
 42
0.2
  3
txt
  4

  0
ENDTAB
  0
TABLE
  2
VIEW
  5
6
330
0
100
AcDbSymbolTable
 70
     4
  0
ENDTAB
  0
TABLE
  2
UCS
  5
7
330
0
100
AcDbSymbolTable
 70
     0
  0
ENDTAB
  0
TABLE
  2
APPID
  5
9
330
0
100
AcDbSymbolTable
 70
     5
  0
APPID
  5
56
330
9
100
AcDbSymbolTableRecord
100
AcDbRegAppTableRecord
  2
ACAD
 70
     0
  0
APPID
  5
5E
330
9
100
AcDbSymbolTableRecord
100
AcDbRegAppTableRecord
  2
AcadAnnotative
 70
     0
  0
APPID
  5
78
330
9
100
AcDbSymbolTableRecord
100
AcDbRegAppTableRecord
  2
REVIT
 70
     0
  0
APPID
  5
20B
330
9
100
AcDbSymbolTableRecord
100
AcDbRegAppTableRecord
  2
ACAD_NAV_VCDISPLAY
 70
     0
  0
APPID
  5
48C
330
9
100
AcDbSymbolTableRecord
100
AcDbRegAppTableRecord
  2
ACAD_EXEMPT_FROM_CAD_STANDARDS
 70
     0
  0
ENDTAB
  0
TABLE
  2
DIMSTYLE
  5
A
330
0
100
AcDbSymbolTable
 70
     3
100
AcDbDimStyleTable
 71
     1
340
58
  0
DIMSTYLE
105
58
330
A
100
AcDbSymbolTableRecord
100
AcDbDimStyleTableRecord
  2
Standard
 70
     0
340
55
  0
ENDTAB
  0
TABLE
  2
BLOCK_RECORD
  5
1
330
0
100
AcDbSymbolTable
 70
    10
  0
BLOCK_RECORD
  5
70
102
{ACAD_XDICTIONARY
360
16C
102
}
330
1
100
AcDbSymbolTableRecord
100
AcDbBlockTableRecord
  2
*Model_Space
340
73
 70
     0
280
     1
281
     0
  0
BLOCK_RECORD
  5
6C
330
1
100
AcDbSymbolTableRecord
100
AcDbBlockTableRecord
  2
*Paper_Space
340
6F
 70
     0
280
     1
281
     0
  0
BLOCK_RECORD
  5
74
330
1
100
AcDbSymbolTableRecord
100
AcDbBlockTableRecord
  2
*Paper_Space0
340
77
 70
     0
280
     1
281
     0
  0
BLOCK_RECORD
  5
979
330
1
100
AcDbSymbolTableRecord
100
AcDbBlockTableRecord
  2
D35160802 Top View
340
0
310
28000000200000002000000001002000000000000010000001000000010000000000000000000000302821FF302821FF302821FF302821FF302821FF302821FF302821FF302821FF302821FF302821FF302821FF302821FF302821FF302821FF302821FF302821FF302821FF302821FF302821FF302821FF302821FF302821
310
FF302821FF302821FF302821FF302821FF302821FF302821FF302821FF302821FF302821FF302821FF302821FF302821FF302821FF302821FF302821FF302821FF302821FF302821FF302821FF302821FF302821FF302821FF302821FF302821FF302821FF302821FF302821FF302821FF302821FF302821FF302821FF3028
310
21FF302821FF302821FF302821FF302821FF302821FF302821FF302821FF302821FF302821FF302821FF302821FF302821FF302821FF302821FF302821FF302821FF302821FF302821FF302821FF302821FF302821FF302821FF302821FF302821FF302821FF302821FF302821FF302821FF302821FF302821FF302821FF30
310
2821FF302821FF302821FF302821FF302821FF302821FF302821FF302821FF302821FF302821FF302821FF302821FF302821FF302821FF302821FF302821FF302821FF302821FF302821FF302821FF302821FF302821FF302821FF302821FF302821FF302821FF302821FF302821FF302821FF302821FF302821FF302821FF
310
302821FF302821FF302821FF302821FF302821FF302821FF302821FF302821FF302821FF302821FF302821FF302821FF302821FF302821FF302821FF302821FF302821FF302821FF302821FF302821FF302821FF302821FF302821FF302821FF302821FF302821FF302821FF302821FF302821FF302821FF302821FF302821
310
FF302821FF302821FF302821FF302821FF302821FF302821FF302821FF302821FF302821FF302821FF302821FF302821FF302821FF302821FF302821FF302821FF302821FF302821FF302821FF302821FF302821FF302821FF302821FF302821FF302821FF302821FF302821FF302821FF302821FF302821FF302821FF3028
310
21FF302821FF302821FF302821FF302821FF302821FF302821FF302821FF302821FF302821FF302821FF302821FF302821FF302821FF302821FF302821FF302821FF302821FF302821FF302821FF302821FF302821FF302821FF302821FF302821FF302821FF302821FF302821FF302821FF302821FF302821FF302821FF30
310
2821FF302821FF302821FF302821FF302821FF302821FF302821FF302821FF302821FF302821FF302821FF302821FF302821FF302821FF302821FF302821FF302821FF302821FF302821FF302821FF302821FF302821FF302821FF302821FF302821FF302821FF302821FF302821FF302821FF302821FF302821FF302821FF
310
302821FF302821FF302821FF302821FF302821FF302821FF302821FF302821FF302821FF302821FF302821FF302821FF302821FF302821FF302821FF302821FF302821FF302821FF302821FF302821FF302821FF302821FF302821FF302821FF302821FF302821FF302821FF302821FF302821FF302821FF302821FF302821
310
FF302821FF302821FF302821FF302821FF302821FF302821FF302821FF302821FF302821FF302821FF302821FF302821FF302821FF302821FF302821FF302821FF302821FF302821FF302821FF302821FF302821FF302821FF302821FF302821FF302821FF302821FF302821FFFFFFFFFFFFFFFFFF302821FF302821FF3028
310
21FF302821FF302821FF302821FF302821FF302821FF302821FF302821FF302821FF302821FF302821FF302821FF302821FF302821FF302821FF302821FF302821FF302821FF302821FF302821FF302821FF302821FF302821FF302821FF302821FF302821FF302821FFFFFFFFFFFFFFFFFFFFFFFFFFFFFFFFFF302821FF30
310
2821FF302821FF302821FF302821FF302821FF302821FF302821FF302821FF302821FF302821FF302821FF302821FF302821FF302821FF302821FF302821FF302821FF302821FF302821FF302821FF302821FF302821FF302821FF302821FF302821FF302821FF302821FFFFFFFFFFFFFFFFFFFFFFFFFFFFFFFFFF302821FF
310
302821FF302821FF302821FF302821FF302821FF302821FF302821FF302821FF302821FF302821FF302821FF302821FF302821FF302821FF302821FF302821FF302821FF302821FF302821FF302821FF302821FF302821FF302821FF302821FF302821FF302821FF302821FFFFFFFFFFFFFFFFFFFFFFFFFFFFFFFFFF302821
310
FF302821FF302821FF302821FF302821FF302821FF302821FF302821FF302821FF302821FF302821FF302821FF302821FF302821FF302821FF302821FF302821FF302821FF302821FF302821FF302821FF302821FF302821FF302821FF302821FF302821FF302821FF302821FFFFFFFFFFFFFFFFFFFFFFFFFFFFFFFFFF3028
310
21FF302821FF302821FF302821FF302821FF302821FF302821FF302821FF302821FF302821FF302821FF302821FF302821FF302821FF302821FF302821FF302821FF302821FF302821FF302821FF302821FF302821FF302821FF302821FF302821FF302821FF302821FF302821FFFFFFFFFFFFFFFFFFFFFFFFFFFFFFFFFF30
310
2821FF302821FF302821FF302821FF302821FF302821FF302821FF302821FF302821FF302821FF302821FF302821FF302821FF302821FF302821FF302821FF302821FF302821FF302821FF302821FF302821FF302821FF302821FF302821FF302821FF302821FF302821FF302821FFFFFFFFFFFFFFFFFFFFFFFFFFFFFFFFFF
310
302821FF302821FF302821FF302821FF302821FF302821FF302821FF302821FF302821FF302821FF302821FF302821FF302821FF302821FF302821FF302821FF302821FF302821FF302821FF302821FF302821FF302821FF302821FF302821FF302821FF302821FF302821FF302821FFFFFFFFFFFFFFFFFFFFFFFFFFFFFFFF
310
FF302821FF302821FF302821FF302821FF302821FF302821FF302821FF302821FF302821FF302821FF302821FF302821FF302821FF302821FF302821FF302821FF302821FF302821FF302821FF302821FF302821FF302821FFFFFFFFFF302821FF302821FF302821FF302821FF302821FFFFFFFFFFFFFFFFFFFFFFFFFFFFFF
310
FFFF302821FF302821FF302821FF302821FF302821FFFFFFFFFF302821FF302821FF302821FF302821FF302821FF302821FF302821FF302821FF302821FF302821FF302821FF302821FF302821FF302821FFFFFFFFFFFFFFFFFFFFFFFFFFFFFFFFFFFFFFFFFF302821FF302821FF302821FFFFFFFFFFFFFFFFFFFFFFFFFFFF
310
FFFFFF302821FF302821FF302821FFFFFFFFFFFFFFFFFFFFFFFFFFFFFFFFFFFFFFFFFF302821FF302821FF302821FF302821FF302821FF302821FF302821FFFFFFFFFFFFFFFFFFFFFFFFFFFFFFFFFFFFFFFFFFFFFFFFFFFFFFFFFFFFFFFFFFFFFFFFFFFFFFFFFF302821FF302821FFFFFFFFFFFFFFFFFFFFFFFFFFFFFFFFFF
310
FFFFFFFFFFFFFFFF302821FF302821FFFFFFFFFFFFFFFFFFFFFFFFFFFFFFFFFFFFFFFFFFFFFFFFFFFFFFFFFFFFFFFFFFFFFFFFFFFFFFFFFF302821FF302821FFFFFFFFFFFFFFFFFFFFFFFFFFFFFFFFFFFFFFFFFFFFFFFFFFFFFFFFFF302821FFFFFFFFFFFFFFFFFF302821FF302821FFFFFFFFFFFFFFFFFFFFFFFFFFFFFFFF
310
FFFFFFFFFFFFFFFFFF302821FF302821FFFFFFFFFFFFFFFFFF302821FFFFFFFFFFFFFFFFFFFFFFFFFFFFFFFFFFFFFFFFFFFFFFFFFFFFFFFFFF302821FF302821FF302821FF302821FF302821FF302821FF302821FFFFFFFFFFFFFFFFFFFFFFFFFFFFFFFFFFFFFFFFFF302821FF302821FFFFFFFFFFFFFFFFFFFFFFFFFFFFFF
310
FFFFFFFFFFFFFFFFFFFF302821FF302821FFFFFFFFFFFFFFFFFFFFFFFFFFFFFFFFFFFFFFFFFF302821FF302821FF302821FF302821FF302821FF302821FF302821FF302821FF302821FF302821FF302821FF302821FFFFFFFFFFFFFFFFFFFFFFFFFFFFFFFFFF302821FF302821FF302821FF302821FFFFFFFFFFFFFFFFFFFF
310
FFFFFFFFFFFFFF302821FF302821FF302821FF302821FFFFFFFFFFFFFFFFFFFFFFFFFFFFFFFFFF302821FF302821FF302821FF302821FF302821FF302821FF302821FF302821FF302821FF302821FF302821FF302821FF302821FF302821FF302821FF302821FF302821FF302821FF302821FF302821FF302821FF302821FF
310
302821FF302821FF302821FF302821FF302821FF302821FF302821FF302821FF302821FF302821FF302821FF302821FF302821FF302821FF302821FF302821FF302821FF302821FF302821FF302821FF302821FF302821FF302821FF302821FF302821FF302821FF302821FF302821FF302821FF302821FF302821FF302821
310
FF302821FF302821FF302821FF302821FF302821FF302821FF302821FF302821FF302821FF302821FF302821FF302821FF302821FF302821FF302821FF302821FF302821FF302821FF302821FF302821FF302821FF302821FF302821FF302821FF302821FF302821FF302821FF302821FF302821FF302821FF302821FF3028
310
21FF302821FF302821FF302821FF302821FF302821FF302821FF302821FF302821FF302821FF302821FF302821FF302821FF302821FF302821FF302821FF302821FF302821FF302821FF302821FF302821FF302821FF302821FF302821FF302821FF302821FF302821FF302821FF302821FF302821FF302821FF302821FF30
310
2821FF302821FF302821FF302821FF302821FF302821FF302821FF302821FF302821FF302821FF302821FF302821FF302821FF302821FF302821FF302821FF302821FF302821FF302821FF302821FF302821FF302821FF302821FF302821FF302821FF302821FF302821FF302821FF302821FF302821FF302821FF302821FF
310
302821FF302821FF302821FF302821FF302821FF302821FF302821FF302821FF302821FF302821FF302821FF302821FF302821FF302821FF302821FF302821FF302821FF302821FF302821FF302821FF302821FF302821FF302821FF302821FF302821FF302821FF302821FF302821FF302821FF302821FF302821FF302821
310
FF302821FF302821FF302821FF302821FF302821FF302821FF302821FF302821FF302821FF302821FF302821FF302821FF302821FF302821FF302821FF302821FF302821FF302821FF302821FF302821FF302821FF302821FF302821FF302821FF302821FF302821FF302821FF302821FF302821FF302821FF302821FF3028
310
21FF302821FF302821FF302821FF302821FF302821FF302821FF302821FF302821FF302821FF302821FF302821FF302821FF302821FF302821FF302821FF302821FF302821FF302821FF302821FF302821FF302821FF302821FF302821FF302821FF302821FF302821FF302821FF302821FF302821FF302821FF302821FF30
310
2821FF302821FF302821FF302821FF302821FF302821FF302821FF302821FF302821FF302821FF302821FF302821FF302821FF302821FF302821FF302821FF302821FF302821FF302821FF302821FF302821FF302821FF302821FF302821FF302821FF302821FF302821FF302821FF302821FF302821FF302821FF302821FF
310
302821FF302821FF302821FF302821FF302821FF302821FF302821FF302821FF302821FF302821FF302821FF302821FF302821FF302821FF302821FF302821FF302821FF302821FF
102
{BLKREFS
331
9D8
102
}
 70
     1
280
     1
281
     1
  0
BLOCK_RECORD
  5
9D9
330
1
100
AcDbSymbolTableRecord
100
AcDbBlockTableRecord
  2
D35160802 Front View
340
0
310
28000000200000002000000001002000000000000010000001000000010000000000000000000000302821FF302821FF302821FF302821FF302821FF302821FF302821FF302821FF302821FF302821FF302821FF302821FF302821FF302821FF302821FF302821FF302821FF302821FF302821FF302821FF302821FF302821
310
FF302821FF302821FF302821FF302821FF302821FF302821FF302821FF302821FF302821FF302821FF302821FF302821FF302821FF302821FF302821FF302821FF302821FF302821FF302821FF302821FF302821FF302821FF302821FF302821FF302821FF302821FF302821FF302821FF302821FF302821FF302821FF3028
310
21FF302821FF302821FF302821FF302821FF302821FF302821FF302821FF302821FF302821FF302821FF302821FF302821FF302821FF302821FF302821FF302821FF302821FF302821FF302821FF302821FF302821FF302821FF302821FF302821FF302821FF302821FF302821FF302821FF302821FF302821FF302821FF30
310
2821FF302821FF302821FF302821FF302821FF302821FF302821FF302821FF302821FF302821FF302821FF302821FF302821FF302821FF302821FF302821FF302821FF302821FF302821FF302821FF302821FF302821FF302821FF302821FF302821FF302821FF302821FF302821FF302821FF302821FF302821FF302821FF
310
302821FF302821FF302821FF302821FF302821FF302821FF302821FF302821FF302821FF302821FF302821FF302821FF302821FF302821FF302821FF302821FF302821FF302821FF302821FF302821FF302821FF302821FF302821FF302821FF302821FF302821FF302821FF302821FF302821FF302821FF302821FF302821
310
FF302821FF302821FF302821FF302821FF302821FF302821FF302821FF302821FF302821FF302821FF302821FF302821FF302821FF302821FF302821FF302821FF302821FF302821FF302821FF302821FF302821FF302821FF302821FF302821FF302821FF302821FF302821FF302821FF302821FF302821FF302821FF3028
310
21FF302821FF302821FF302821FF302821FF302821FF302821FF302821FF302821FF302821FF302821FF302821FF302821FF302821FF302821FF302821FF302821FF302821FF302821FF302821FF302821FF302821FF302821FF302821FF302821FF302821FF302821FF302821FF302821FF302821FF302821FF302821FF30
310
2821FF302821FF302821FF302821FF302821FF302821FF302821FF302821FF302821FF302821FF302821FF302821FF302821FF302821FF302821FF302821FF302821FF302821FF302821FF302821FF302821FF302821FF302821FF302821FF302821FF302821FF302821FF302821FF302821FF302821FF302821FF302821FF
310
302821FF302821FF302821FF302821FF302821FF302821FF302821FF302821FF302821FF302821FF302821FF302821FF302821FF302821FF302821FF302821FF302821FF302821FF302821FF302821FF302821FF302821FF302821FF302821FF302821FF302821FF302821FF302821FF302821FF302821FF302821FF302821
310
FF302821FF302821FF302821FF302821FF302821FF302821FF302821FF302821FF302821FF302821FF302821FF302821FF302821FF302821FF302821FF302821FF302821FF302821FF302821FF302821FF302821FF302821FF302821FF302821FF302821FF302821FF302821FF302821FF302821FF302821FF302821FF3028
310
21FF302821FF302821FF302821FF302821FF302821FF302821FF302821FF302821FF302821FF302821FF302821FF302821FF302821FF302821FF302821FF302821FF302821FF302821FF302821FF302821FF302821FF302821FF302821FF302821FF302821FF302821FF302821FF302821FF302821FF302821FF302821FF30
310
2821FF302821FF302821FF302821FF302821FF302821FF302821FF302821FF302821FF302821FF302821FF302821FF302821FF302821FF302821FF302821FF302821FF302821FF302821FFFFFFFFFFFFFFFFFFFFFFFFFFFFFFFFFFFFFFFFFF302821FF302821FFFFFFFFFFFFFFFFFFFFFFFFFFFFFFFFFFFFFFFFFFFFFFFFFF
310
302821FF302821FFFFFFFFFFFFFFFFFFFFFFFFFFFFFFFFFFFFFFFFFF302821FF302821FF302821FF302821FF302821FF302821FF302821FF302821FF302821FF302821FF302821FF302821FFFFFFFFFFFFFFFFFF302821FFFFFFFFFFFFFFFFFF302821FF302821FF302821FFFFFFFFFFFFFFFFFF302821FFFFFFFFFF302821
310
FF302821FF302821FFFFFFFFFFFFFFFFFF302821FFFFFFFFFFFFFFFFFF302821FF302821FF302821FF302821FF302821FF302821FF302821FF302821FF302821FF302821FF302821FF302821FF302821FFFFFFFFFFFFFFFFFFFFFFFFFF302821FF302821FF302821FF302821FFFFFFFFFFFFFFFFFFFFFFFFFFFFFFFFFF3028
310
21FF302821FF302821FF302821FFFFFFFFFFFFFFFFFFFFFFFFFF302821FF302821FF302821FF302821FF302821FF302821FF302821FF302821FF302821FF302821FF302821FF302821FF302821FF302821FFFFFFFFFFFFFFFFFFFFFFFFFF302821FF302821FF302821FF302821FFFFFFFFFFFFFFFFFFFFFFFFFFFFFFFFFF30
310
2821FF302821FF302821FF302821FFFFFFFFFFFFFFFFFFFFFFFFFF302821FF302821FF302821FF302821FF302821FF302821FF302821FF302821FFFFFFFFFFFFFFFFFFFFFFFFFFFFFFFFFFFFFFFFFFFFFFFFFFFFFFFFFFFFFFFFFFFFFFFFFF302821FF302821FF302821FF302821FFFFFFFFFFFFFFFFFFFFFFFFFFFFFFFFFF
310
302821FF302821FF302821FF302821FFFFFFFFFFFFFFFFFFFFFFFFFFFFFFFFFFFFFFFFFFFFFFFFFFFFFFFFFFFFFFFFFFFFFFFFFF302821FF302821FFFFFFFFFFFFFFFFFFFFFFFFFFFFFFFFFFFFFFFFFFFFFFFFFFFFFFFFFFFFFFFFFFFFFFFFFF302821FF302821FF302821FF302821FFFFFFFFFFFFFFFFFFFFFFFFFFFFFFFF
310
FF302821FF302821FF302821FF302821FFFFFFFFFFFFFFFFFFFFFFFFFFFFFFFFFFFFFFFFFFFFFFFFFFFFFFFFFFFFFFFFFFFFFFFFFF302821FF302821FF302821FF302821FF302821FF302821FF302821FF302821FF302821FF302821FF302821FF302821FF302821FF302821FF302821FFFFFFFFFFFFFFFFFFFFFFFFFFFFFF
310
FFFF302821FF302821FF302821FF302821FF302821FF302821FF302821FF302821FF302821FF302821FF302821FF302821FF302821FF302821FF302821FF302821FF302821FF302821FF302821FF302821FF302821FF302821FF302821FF302821FF302821FF302821FF302821FF302821FFFFFFFFFFFFFFFFFFFFFFFFFFFF
310
FFFFFF302821FF302821FF302821FF302821FF302821FF302821FF302821FF302821FF302821FF302821FF302821FF302821FF302821FF302821FF302821FF302821FF302821FF302821FF302821FF302821FF302821FF302821FF302821FF302821FF302821FF302821FF302821FF302821FFFFFFFFFFFFFFFFFFFFFFFFFF
310
FFFFFFFF302821FF302821FF302821FF302821FF302821FF302821FF302821FF302821FF302821FF302821FF302821FF302821FF302821FF302821FF302821FF302821FF302821FF302821FF302821FF302821FF302821FF302821FF302821FF302821FF302821FF302821FF302821FF302821FFFFFFFFFFFFFFFFFFFFFFFF
310
FFFFFFFFFF302821FF302821FF302821FF302821FF302821FF302821FF302821FF302821FF302821FF302821FF302821FF302821FF302821FF302821FF302821FF302821FF302821FF302821FF302821FF302821FF302821FF302821FF302821FF302821FF302821FF302821FF302821FF302821FF302821FF302821FF3028
310
21FF302821FF302821FF302821FF302821FF302821FF302821FF302821FF302821FF302821FF302821FF302821FF302821FF302821FF302821FF302821FF302821FF302821FF302821FF302821FF302821FF302821FF302821FF302821FF302821FF302821FF302821FF302821FF302821FF302821FF302821FF302821FF30
310
2821FF302821FF302821FF302821FF302821FF302821FF302821FF302821FF302821FF302821FF302821FF302821FF302821FF302821FF302821FF302821FF302821FF302821FF302821FF302821FF302821FF302821FF302821FF302821FF302821FF302821FF302821FF302821FF302821FF302821FF302821FF302821FF
310
302821FF302821FF302821FF302821FF302821FF302821FF302821FF302821FF302821FF302821FF302821FF302821FF302821FF302821FF302821FF302821FF302821FF302821FF302821FF302821FF302821FF302821FF302821FF302821FF302821FF302821FF302821FF302821FF302821FF302821FF302821FF302821
310
FF302821FF302821FF302821FF302821FF302821FF302821FF302821FF302821FF302821FF302821FF302821FF302821FF302821FF302821FF302821FF302821FF302821FF302821FF302821FF302821FF302821FF302821FF302821FF302821FF302821FF302821FF302821FF302821FF302821FF302821FF302821FF3028
310
21FF302821FF302821FF302821FF302821FF302821FF302821FF302821FF302821FF302821FF302821FF302821FF302821FF302821FF302821FF302821FF302821FF302821FF302821FF302821FF302821FF302821FF302821FF302821FF302821FF302821FF302821FF302821FF302821FF302821FF302821FF302821FF30
310
2821FF302821FF302821FF302821FF302821FF302821FF302821FF302821FF302821FF302821FF302821FF302821FF302821FF302821FF302821FF302821FF302821FF302821FF302821FF302821FF302821FF302821FF302821FF302821FF302821FF302821FF302821FF302821FF302821FF302821FF302821FF302821FF
310
302821FF302821FF302821FF302821FF302821FF302821FF302821FF302821FF302821FF302821FF302821FF302821FF302821FF302821FF302821FF302821FF302821FF302821FF302821FF302821FF302821FF302821FF302821FF302821FF302821FF302821FF302821FF302821FF302821FF302821FF302821FF302821
310
FF302821FF302821FF302821FF302821FF302821FF302821FF302821FF302821FF302821FF302821FF302821FF302821FF302821FF302821FF302821FF302821FF302821FF302821FF302821FF302821FF302821FF302821FF302821FF302821FF302821FF302821FF302821FF302821FF302821FF302821FF302821FF3028
310
21FF302821FF302821FF302821FF302821FF302821FF302821FF302821FF302821FF302821FF302821FF302821FF302821FF302821FF302821FF302821FF302821FF302821FF302821FF302821FF302821FF302821FF302821FF302821FF302821FF302821FF302821FF302821FF302821FF302821FF302821FF302821FF30
310
2821FF302821FF302821FF302821FF302821FF302821FF302821FF302821FF302821FF302821FF302821FF302821FF302821FF302821FF302821FF302821FF302821FF302821FF302821FF302821FF302821FF302821FF302821FF302821FF302821FF302821FF302821FF302821FF302821FF302821FF302821FF302821FF
310
302821FF302821FF302821FF302821FF302821FF302821FF302821FF302821FF302821FF302821FF302821FF302821FF302821FF302821FF302821FF302821FF302821FF302821FF
102
{BLKREFS
331
B97
102
}
 70
     1
280
     1
281
     1
  0
BLOCK_RECORD
  5
B98
330
1
100
AcDbSymbolTableRecord
100
AcDbBlockTableRecord
  2
D35160802 Side View
340
0
310
28000000200000002000000001002000000000000010000001000000010000000000000000000000302821FF302821FF302821FF302821FF302821FF302821FF302821FF302821FF302821FF302821FF302821FF302821FF302821FF302821FF302821FF302821FF302821FF302821FF302821FF302821FF302821FF302821
310
FF302821FF302821FF302821FF302821FF302821FF302821FF302821FF302821FF302821FF302821FF302821FF302821FF302821FF302821FF302821FF302821FF302821FF302821FF302821FF302821FF302821FF302821FF302821FF302821FF302821FF302821FF302821FF302821FF302821FF302821FF302821FF3028
310
21FF302821FF302821FF302821FF302821FF302821FF302821FF302821FF302821FF302821FF302821FF302821FF302821FF302821FF302821FF302821FF302821FF302821FF302821FF302821FF302821FF302821FF302821FF302821FF302821FF302821FF302821FF302821FF302821FF302821FF302821FF302821FF30
310
2821FF302821FF302821FF302821FF302821FF302821FF302821FF302821FF302821FF302821FF302821FF302821FF302821FF302821FF302821FF302821FF302821FF302821FF302821FF302821FF302821FF302821FF302821FF302821FF302821FF302821FF302821FF302821FF302821FF302821FF302821FF302821FF
310
302821FF302821FF302821FF302821FF302821FF302821FF302821FF302821FF302821FF302821FF302821FF302821FF302821FF302821FF302821FF302821FF302821FF302821FF302821FF302821FF302821FF302821FF302821FF302821FF302821FF302821FF302821FF302821FF302821FF302821FF302821FF302821
310
FF302821FF302821FF302821FF302821FF302821FF302821FF302821FF302821FF302821FF302821FF302821FF302821FF302821FF302821FF302821FF302821FF302821FF302821FF302821FF302821FF302821FF302821FF302821FF302821FF302821FF302821FF302821FF302821FF302821FF302821FF302821FF3028
310
21FF302821FF302821FF302821FF302821FF302821FF302821FF302821FF302821FF302821FF302821FF302821FF302821FFFFFFFFFFFFFFFFFFFFFFFFFFFFFFFFFFFFFFFFFFFFFFFFFFFFFFFFFFFFFFFFFFFFFFFFFFFFFFFFFFFFFFFFFFFFFFFFFF302821FF302821FF302821FF302821FF302821FF302821FF302821FF30
310
2821FF302821FF302821FF302821FF302821FF302821FF302821FF302821FF302821FF302821FF302821FF302821FF302821FF302821FFFFFFFFFFFFFFFFFFFFFFFFFFFFFFFFFFFFFFFFFFFFFFFFFFFFFFFFFFFFFFFFFFFFFFFFFFFFFFFFFF302821FF302821FF302821FF302821FF302821FF302821FF302821FF302821FF
310
302821FF302821FF302821FF302821FF302821FF302821FF302821FF302821FF302821FF302821FF302821FF302821FF302821FF302821FF302821FFFFFFFFFFFFFFFFFF302821FF302821FFFFFFFFFF302821FFFFFFFFFFFFFFFFFFFFFFFFFF302821FF302821FF302821FF302821FF302821FF302821FF302821FF302821
310
FF302821FF302821FF302821FF302821FF302821FF302821FF302821FF302821FF302821FF302821FF302821FF302821FF302821FF302821FF302821FFFFFFFFFFFFFFFFFF302821FF302821FFFFFFFFFF302821FFFFFFFFFFFFFFFFFF302821FF302821FF302821FF302821FF302821FF302821FF302821FF302821FF3028
310
21FF302821FF302821FF302821FF302821FF302821FF302821FF302821FF302821FF302821FF302821FF302821FF302821FF302821FF302821FF302821FFFFFFFFFFFFFFFFFFFFFFFFFF302821FFFFFFFFFF302821FFFFFFFFFFFFFFFFFF302821FF302821FF302821FF302821FF302821FF302821FF302821FF302821FF30
310
2821FF302821FF302821FF302821FF302821FF302821FF302821FF302821FF302821FF302821FF302821FF302821FF302821FF302821FF302821FF302821FFFFFFFFFFFFFFFFFFFFFFFFFF302821FFFFFFFFFFFFFFFFFFFFFFFFFFFFFFFFFF302821FF302821FF302821FF302821FF302821FF302821FF302821FF302821FF
310
302821FF302821FF302821FF302821FF302821FF302821FF302821FF302821FF302821FF302821FF302821FF302821FF302821FF302821FF302821FF302821FF302821FFFFFFFFFFFFFFFFFF302821FFFFFFFFFFFFFFFFFFFFFFFFFFFFFFFFFF302821FF302821FF302821FF302821FF302821FF302821FF302821FF302821
310
FF302821FF302821FF302821FF302821FF302821FF302821FF302821FF302821FF302821FF302821FF302821FF302821FF302821FF302821FF302821FF302821FF302821FFFFFFFFFFFFFFFFFF302821FFFFFFFFFFFFFFFFFFFFFFFFFFFFFFFFFF302821FF302821FF302821FF302821FF302821FF302821FF302821FF3028
310
21FF302821FF302821FF302821FF302821FF302821FF302821FF302821FF302821FF302821FF302821FF302821FF302821FF302821FF302821FF302821FF302821FF302821FFFFFFFFFFFFFFFFFFFFFFFFFFFFFFFFFFFFFFFFFFFFFFFFFFFFFFFFFF302821FF302821FF302821FF302821FF302821FF302821FF302821FF30
310
2821FF302821FF302821FF302821FF302821FF302821FF302821FF302821FF302821FF302821FF302821FF302821FF302821FF302821FF302821FF302821FF302821FF302821FFFFFFFFFFFFFFFFFFFFFFFFFFFFFFFFFFFFFFFFFFFFFFFFFF302821FF302821FF302821FF302821FF302821FF302821FF302821FF302821FF
310
302821FF302821FF302821FF302821FF302821FF302821FF302821FF302821FF302821FF302821FF302821FF302821FF302821FF302821FF302821FF302821FF302821FF302821FFFFFFFFFFFFFFFFFFFFFFFFFFFFFFFFFFFFFFFFFFFFFFFFFF302821FF302821FF302821FF302821FF302821FF302821FF302821FF302821
310
FF302821FF302821FF302821FF302821FF302821FF302821FF302821FF302821FF302821FF302821FF302821FF302821FF302821FF302821FF302821FF302821FF302821FF302821FFFFFFFFFFFFFFFFFFFFFFFFFFFFFFFFFFFFFFFFFFFFFFFFFFFFFFFFFFFFFFFFFF302821FF302821FF302821FF302821FF302821FF3028
310
21FF302821FF302821FF302821FF302821FF302821FF302821FF302821FF302821FFFFFFFFFFFFFFFFFF302821FF302821FF302821FF302821FF302821FF302821FF302821FF302821FFFFFFFFFF302821FF302821FFFFFFFFFFFFFFFFFF302821FFFFFFFFFFFFFFFFFFFFFFFFFFFFFFFFFFFFFFFFFFFFFFFFFF302821FF30
310
2821FF302821FF302821FF302821FF302821FF302821FF302821FF302821FF302821FFFFFFFFFFFFFFFFFFFFFFFFFFFFFFFFFF302821FF302821FF302821FF302821FF302821FF302821FFFFFFFFFF302821FF302821FFFFFFFFFFFFFFFFFFFFFFFFFFFFFFFFFF302821FF302821FF302821FFFFFFFFFFFFFFFFFFFFFFFFFF
310
FFFFFFFFFFFFFFFFFFFFFFFF302821FF302821FF302821FF302821FF302821FFFFFFFFFF302821FFFFFFFFFFFFFFFFFFFFFFFFFFFFFFFFFF302821FF302821FF302821FF302821FF302821FFFFFFFFFF302821FF302821FFFFFFFFFFFFFFFFFFFFFFFFFFFFFFFFFFFFFFFFFFFFFFFFFFFFFFFFFFFFFFFFFFFFFFFFFF302821
310
FF302821FF302821FF302821FFFFFFFFFFFFFFFFFFFFFFFFFFFFFFFFFFFFFFFFFFFFFFFFFF302821FFFFFFFFFF302821FFFFFFFFFFFFFFFFFF302821FF302821FF302821FF302821FF302821FFFFFFFFFF302821FF302821FFFFFFFFFFFFFFFFFFFFFFFFFFFFFFFFFFFFFFFFFFFFFFFFFFFFFFFFFFFFFFFFFFFFFFFFFFFFFF
310
FFFFFFFFFFFFFFFFFFFFFFFFFFFFFFFFFFFFFFFFFFFF302821FF302821FF302821FFFFFFFFFFFFFFFFFF302821FFFFFFFFFFFFFFFFFF302821FF302821FF302821FF302821FF302821FF302821FFFFFFFFFFFFFFFFFFFFFFFFFFFFFFFFFFFFFFFFFFFFFFFFFF302821FF302821FFFFFFFFFFFFFFFFFFFFFFFFFFFFFFFFFFFF
310
FFFFFF302821FFFFFFFFFFFFFFFFFFFFFFFFFFFFFFFFFFFFFFFFFFFFFFFFFFFFFFFFFFFFFFFFFF302821FFFFFFFFFFFFFFFFFF302821FF302821FF302821FF302821FF302821FF302821FF302821FF302821FFFFFFFFFFFFFFFFFFFFFFFFFFFFFFFFFF302821FF302821FF302821FF302821FF302821FF302821FF302821FF
310
302821FFFFFFFFFFFFFFFFFFFFFFFFFFFFFFFFFFFFFFFFFFFFFFFFFFFFFFFFFFFFFFFFFFFFFFFFFFFFFFFFFFFFFFFFFF302821FF302821FF302821FF302821FF302821FF302821FF302821FF302821FF302821FFFFFFFFFFFFFFFFFFFFFFFFFF302821FFFFFFFFFF302821FF302821FF302821FF302821FF302821FF302821
310
FF302821FF302821FF302821FF302821FF302821FF302821FF302821FF302821FF302821FF302821FF302821FF302821FF302821FF302821FF302821FF302821FF302821FF302821FF302821FF302821FFFFFFFFFFFFFFFFFFFFFFFFFFFFFFFFFFFFFFFFFFFFFFFFFF302821FF302821FF302821FF302821FF302821FF3028
310
21FF302821FF302821FF302821FF302821FF302821FF302821FF302821FF302821FF302821FF302821FF302821FF302821FF302821FF302821FF302821FF302821FF302821FF302821FF302821FF302821FF302821FF302821FF302821FF302821FF302821FF302821FF302821FF302821FF302821FF302821FF302821FF30
310
2821FF302821FF302821FF302821FF302821FF302821FF302821FF302821FF302821FF302821FF302821FF302821FF302821FF302821FF302821FF302821FF302821FF302821FF302821FF302821FF302821FF302821FF302821FF302821FF302821FF302821FF302821FF302821FF302821FF302821FF302821FF302821FF
310
302821FF302821FF302821FF302821FF302821FF302821FF302821FF302821FF302821FF302821FF302821FF302821FF302821FF302821FF302821FF302821FF302821FF302821FF302821FF302821FF302821FF302821FF302821FF302821FF302821FF302821FF302821FF302821FF302821FF302821FF302821FF302821
310
FF302821FF302821FF302821FF302821FF302821FF302821FF302821FF302821FF302821FF302821FF302821FF302821FF302821FF302821FF302821FF302821FF302821FF302821FF302821FF302821FF302821FF302821FF302821FF302821FF302821FF302821FF302821FF302821FF302821FF302821FF302821FF3028
310
21FF302821FF302821FF302821FF302821FF302821FF302821FF302821FF302821FF302821FF302821FF302821FF302821FF302821FF302821FF302821FF302821FF302821FF302821FF302821FF302821FF302821FF302821FF302821FF302821FF302821FF302821FF302821FF302821FF302821FF302821FF302821FF30
310
2821FF302821FF302821FF302821FF302821FF302821FF302821FF302821FF302821FF302821FF302821FF302821FF302821FF302821FF302821FF302821FF302821FF302821FF302821FF302821FF302821FF302821FF302821FF302821FF302821FF302821FF302821FF302821FF302821FF302821FF302821FF302821FF
310
302821FF302821FF302821FF302821FF302821FF302821FF302821FF302821FF302821FF302821FF302821FF302821FF302821FF302821FF302821FF302821FF302821FF302821FF
102
{BLKREFS
331
CBC
102
}
 70
     1
280
     1
281
     1
  0
ENDTAB
  0
ENDSEC
  0
SECTION
  2
BLOCKS
  0
BLOCK
  5
71
330
70
100
AcDbEntity
  8
0
100
AcDbBlockBegin
  2
*Model_Space
 70
     0
 10
0.0
 20
0.0
 30
0.0
  3
*Model_Space
  1

  0
ENDBLK
  5
72
330
70
100
AcDbEntity
  8
0
100
AcDbBlockEnd
  0
BLOCK
  5
6D
330
6C
100
AcDbEntity
 67
     1
  8
0
100
AcDbBlockBegin
  2
*Paper_Space
 70
     0
 10
0.0
 20
0.0
 30
0.0
  3
*Paper_Space
  1

  0
ENDBLK
  5
6E
330
6C
100
AcDbEntity
 67
     1
  8
0
100
AcDbBlockEnd
  0
BLOCK
  5
75
330
74
100
AcDbEntity
 67
     1
  8
0
100
AcDbBlockBegin
  2
*Paper_Space0
 70
     0
 10
0.0
 20
0.0
 30
0.0
  3
*Paper_Space0
  1

  0
ENDBLK
  5
76
330
74
100
AcDbEntity
 67
     1
  8
0
100
AcDbBlockEnd
  0
BLOCK
  5
97A
330
979
100
AcDbEntity
  8
0
100
AcDbBlockBegin
  2
D35160802 Top View
 70
     0
 10
0.0
 20
0.0
 30
0.0
  3
D35160802 Top View
  1

  0
LINE
  5
97C
330
979
100
AcDbEntity
  8
D35160802
100
AcDbLine
 10
-7.351115075824802
 20
0.1790471818233854
 30
0.0
 11
-7.345586364105979
 21
0.2094298054856232
 31
0.0
  0
LINE
  5
97D
330
979
100
AcDbEntity
  8
D35160802
100
AcDbLine
 10
-7.345586364105979
 20
0.2094298054856232
 30
0.0
 11
-7.336738264520482
 21
0.2489974759741962
 31
0.0
  0
LINE
  5
97E
330
979
100
AcDbEntity
  8
D35160802
100
AcDbLine
 10
-7.336738264520482
 20
0.2489974759741962
 30
0.0
 11
-7.326314957672751
 21
0.2881796669354664
 31
0.0
  0
LINE
  5
97F
330
979
100
AcDbEntity
  8
D35160802
100
AcDbLine
 10
-7.326314957672751
 20
0.2881796669354664
 30
0.0
 11
-7.321330707893947
 21
0.3049656622291827
 31
0.0
  0
LINE
  5
980
330
979
100
AcDbEntity
  8
D35160802
100
AcDbLine
 10
-7.321330707893947
 20
-0.3049656622279322
 30
0.0
 11
-7.332429262385329
 21
-0.2659693610909173
 31
0.0
  0
LINE
  5
981
330
979
100
AcDbEntity
  8
D35160802
100
AcDbLine
 10
-7.332429262385329
 20
-0.2659693610909173
 30
0.0
 11
-7.341959503098692
 21
-0.2265604290308794
 31
0.0
  0
LINE
  5
982
330
979
100
AcDbEntity
  8
D35160802
100
AcDbLine
 10
-7.341959503098692
 20
-0.2265604290308794
 30
0.0
 11
-7.3499061836819
 21
-0.1868019119323314
 31
0.0
  0
LINE
  5
983
330
979
100
AcDbEntity
  8
D35160802
100
AcDbLine
 10
-7.3499061836819
 20
-0.1868019119323314
 30
0.0
 11
-7.351178439752334
 21
-0.1787793000431463
 31
0.0
  0
LINE
  5
984
330
979
100
AcDbEntity
  8
D35160802
100
AcDbLine
 10
7.32133070789302
 20
0.3049656622292041
 30
0.0
 11
7.332429262384398
 21
0.2659693610921856
 31
0.0
  0
LINE
  5
985
330
979
100
AcDbEntity
  8
D35160802
100
AcDbLine
 10
7.332429262384398
 20
0.2659693610921856
 30
0.0
 11
7.341959503097762
 21
0.2265604290321512
 31
0.0
  0
LINE
  5
986
330
979
100
AcDbEntity
  8
D35160802
100
AcDbLine
 10
7.341959503097762
 20
0.2265604290321512
 30
0.0
 11
7.349906183680973
 21
0.1868019119335997
 31
0.0
  0
LINE
  5
987
330
979
100
AcDbEntity
  8
D35160802
100
AcDbLine
 10
7.349906183680973
 20
0.1868019119335997
 30
0.0
 11
7.351178439751534
 21
0.1787793000435975
 31
0.0
  0
LINE
  5
988
330
979
100
AcDbEntity
  8
D35160802
100
AcDbLine
 10
7.351115075824075
 20
-0.1790471818210264
 30
0.0
 11
7.345586364105044
 21
-0.2094298054844117
 31
0.0
  0
LINE
  5
989
330
979
100
AcDbEntity
  8
D35160802
100
AcDbLine
 10
7.345586364105044
 20
-0.2094298054844117
 30
0.0
 11
7.336738264519549
 21
-0.2489974759729847
 31
0.0
  0
LINE
  5
98A
330
979
100
AcDbEntity
  8
D35160802
100
AcDbLine
 10
7.336738264519549
 20
-0.2489974759729847
 30
0.0
 11
7.326314957671819
 21
-0.2881796669342513
 31
0.0
  0
LINE
  5
98B
330
979
100
AcDbEntity
  8
D35160802
100
AcDbLine
 10
7.326314957671819
 20
-0.2881796669342513
 30
0.0
 11
7.32133070789302
 21
-0.3049656622279535
 31
0.0
  0
SPLINE
  5
98C
330
979
100
AcDbEntity
  8
D35160802
100
AcDbSpline
210
0.0
220
0.0
230
1.0
 70
     8
 71
     3
 72
    16
 73
    12
 74
     0
 42
0.000000001
 43
0.0000000001
 40
0.1009896654617999
 40
0.1009896654617999
 40
0.1009896654617999
 40
0.1009896654617999
 40
0.2
 40
0.3
 40
0.4
 40
0.5
 40
0.6
 40
0.7
 40
0.8
 40
0.9
 40
1.0
 40
1.0
 40
1.0
 40
1.0
 10
0.6088937406187009
 20
-1.136143568220649
 30
0.0
 10
0.6062596647081748
 20
-1.462417921961822
 30
0.0
 10
0.6009651915544212
 20
-2.055275630205521
 30
0.0
 10
0.5930102576074924
 20
-2.784093807250481
 30
0.0
 10
0.5850290569051301
 20
-3.3800571844481
 30
0.0
 10
0.5770479181776772
 20
-3.870929258118749
 30
0.0
 10
0.5690657342833028
 20
-4.278576720896431
 30
0.0
 10
0.5610864486160895
 20
-4.608897486708748
 30
0.0
 10
0.5531165970567362
 20
-4.871799045163113
 30
0.0
 10
0.5451198155663848
 20
-5.071063167089846
 30
0.0
 10
0.5398010327049762
 20
-5.204330584966481
 30
0.0
 10
0.5371416915693574
 20
-5.283641435995178
 30
0.0
  0
SPLINE
  5
98D
330
979
100
AcDbEntity
  8
D35160802
100
AcDbSpline
210
0.0
220
0.0
230
1.0
 70
     8
 71
     3
 72
     8
 73
     4
 74
     0
 42
0.000000001
 43
0.0000000001
 40
-1.0
 40
-1.0
 40
-1.0
 40
-1.0
 40
-0.778706589537415
 40
-0.778706589537415
 40
-0.778706589537415
 40
-0.778706589537415
 10
0.2718832211358833
 20
-5.716643153767467
 30
0.0
 10
0.3035673857691687
 20
-5.692352126831384
 30
0.0
 10
0.3325787430619607
 20
-5.666353910386106
 30
0.0
 10
0.3590735733647343
 20
-5.638388762270654
 30
0.0
  0
SPLINE
  5
98E
330
979
100
AcDbEntity
  8
D35160802
100
AcDbSpline
210
0.0
220
0.0
230
1.0
 70
     8
 71
     3
 72
     8
 73
     4
 74
     0
 42
0.000000001
 43
0.0000000001
 40
-0.073365138549468
 40
-0.073365138549468
 40
-0.073365138549468
 40
-0.073365138549468
 40
0.0
 40
0.0
 40
0.0
 40
0.0
 10
0.5297478871688171
 20
-5.320963745088903
 30
0.0
 10
0.5325359305448471
 20
-5.308661302442857
 30
0.0
 10
0.5349986337901331
 20
-5.29622368764042
 30
0.0
 10
0.5371416915693575
 20
-5.283641435995175
 30
0.0
  0
SPLINE
  5
98F
330
979
100
AcDbEntity
  8
D35160802
100
AcDbSpline
210
0.0
220
0.0
230
1.0
 70
     8
 71
     3
 72
     8
 73
     4
 74
     0
 42
0.000000001
 43
0.0000000001
 40
0.9924425830351701
 40
0.9924425830351701
 40
0.9924425830351701
 40
0.9924425830351701
 40
1.0
 40
1.0
 40
1.0
 40
1.0
 10
0.2727204698875531
 20
-5.698275397215486
 30
0.0
 10
0.2724413867440471
 20
-5.70435410071839
 30
0.0
 10
0.2721623038244554
 20
-5.710474039146646
 30
0.0
 10
0.2718832211358832
 20
-5.716643153767467
 30
0.0
  0
SPLINE
  5
990
330
979
100
AcDbEntity
  8
D35160802
100
AcDbSpline
210
0.0
220
0.0
230
1.0
 70
     8
 71
     3
 72
     8
 73
     4
 74
     0
 42
0.000000001
 43
0.0000000001
 40
-1.0
 40
-1.0
 40
-1.0
 40
-1.0
 40
-0.8379867192131477
 40
-0.8379867192131477
 40
-0.8379867192131477
 40
-0.8379867192131477
 10
-0.2718832211368409
 20
-5.716643153767449
 30
0.0
 10
-0.2432579694243584
 20
-5.726667434621433
 30
0.0
 10
-0.2145033323683909
 20
-5.735067684837975
 30
0.0
 10
-0.1854958548961999
 20
-5.741844376732892
 30
0.0
  0
SPLINE
  5
991
330
979
100
AcDbEntity
  8
D35160802
100
AcDbSpline
210
0.0
220
0.0
230
1.0
 70
     8
 71
     3
 72
     8
 73
     4
 74
     0
 42
0.000000001
 43
0.0000000001
 40
-0.1618348047248385
 40
-0.1618348047248385
 40
-0.1618348047248385
 40
-0.1618348047248385
 40
0.0
 40
0.0
 40
0.0
 40
0.0
 10
0.1855177885238928
 20
-5.741834767438746
 30
0.0
 10
0.2145126399522296
 20
-5.735059300842362
 30
0.0
 10
0.2432601016486915
 20
-5.726661939366401
 30
0.0
 10
0.2718832211358833
 20
-5.716643153767467
 30
0.0
  0
SPLINE
  5
992
330
979
100
AcDbEntity
  8
D35160802
100
AcDbSpline
210
0.0
220
0.0
230
1.0
 70
     8
 71
     3
 72
     8
 73
     4
 74
     0
 42
0.000000001
 43
0.0000000001
 40
0.9924424958803015
 40
0.9924424958803015
 40
0.9924424958803015
 40
0.9924424958803015
 40
1.0
 40
1.0
 40
1.0
 40
1.0
 10
-0.272720471548134
 20
-5.698275339235124
 30
0.0
 10
-0.2724413878135909
 20
-5.704354079261953
 30
0.0
 10
-0.2721623043229627
 20
-5.710474040700379
 30
0.0
 10
-0.2718832211368407
 20
-5.716643153767449
 30
0.0
  0
SPLINE
  5
993
330
979
100
AcDbEntity
  8
D35160802
100
AcDbSpline
210
0.0
220
0.0
230
1.0
 70
     8
 71
     3
 72
     8
 73
     4
 74
     0
 42
0.000000001
 43
0.0000000001
 40
-1.0
 40
-1.0
 40
-1.0
 40
-1.0
 40
-0.926600266454894
 40
-0.926600266454894
 40
-0.926600266454894
 40
-0.926600266454894
 10
-0.5371416916986546
 20
-5.283641435223579
 30
0.0
 10
-0.5349992896422781
 20
-5.296224867433743
 30
0.0
 10
-0.5325368240145211
 20
-5.308663877840787
 30
0.0
 10
-0.529748626126048
 20
-5.32096796022887
 30
0.0
  0
SPLINE
  5
994
330
979
100
AcDbEntity
  8
D35160802
100
AcDbSpline
210
0.0
220
0.0
230
1.0
 70
     8
 71
     3
 72
     8
 73
     4
 74
     0
 42
0.000000001
 43
0.0000000001
 40
-0.2211729068097528
 40
-0.2211729068097528
 40
-0.2211729068097528
 40
-0.2211729068097528
 40
0.0
 40
0.0
 40
0.0
 40
0.0
 10
-0.3590546601732495
 20
-5.638406816637118
 30
0.0
 10
-0.3325664769774064
 20
-5.66636154768361
 30
0.0
 10
-0.3035610286304008
 20
-5.692353744166261
 30
0.0
 10
-0.2718832211368409
 20
-5.716643153767449
 30
0.0
  0
SPLINE
  5
995
330
979
100
AcDbEntity
  8
D35160802
100
AcDbSpline
210
0.0
220
0.0
230
1.0
 70
     8
 71
     3
 72
    16
 73
    12
 74
     0
 42
0.000000001
 43
0.0000000001
 40
0.1009731430578042
 40
0.1009731430578042
 40
0.1009731430578042
 40
0.1009731430578042
 40
0.2
 40
0.3
 40
0.4
 40
0.5
 40
0.6
 40
0.7
 40
0.8
 40
0.9
 40
1.0
 40
1.0
 40
1.0
 40
1.0
 10
-0.6088938608880019
 20
-1.136128675839593
 30
0.0
 10
-0.6062593894142535
 20
-1.462452981652958
 30
0.0
 10
-0.6009645651420749
 20
-2.055342310421101
 30
0.0
 10
-0.5930093244644508
 20
-2.784170117145185
 30
0.0
 10
-0.585028257244499
 20
-3.38011048258099
 30
0.0
 10
-0.5770472511234975
 20
-3.870966251032568
 30
0.0
 10
-0.5690652036198475
 20
-4.278600756036563
 30
0.0
 10
-0.5610860403543896
 20
-4.60891224451228
 30
0.0
 10
-0.5531163382244175
 20
-4.871805115340874
 30
0.0
 10
-0.5451196015176951
 20
-5.071070843292357
 30
0.0
 10
-0.5398011729700643
 20
-5.204321922460266
 30
0.0
 10
-0.5371416916986546
 20
-5.283641435223579
 30
0.0
  0
LINE
  5
996
330
979
100
AcDbEntity
  8
D35160802
100
AcDbLine
 10
-4.579084300287363
 20
0.1532369672886915
 30
0.0
 11
-7.229078745690824
 21
0.3385426305237686
 31
0.0
1001
REVIT
1002
{
1070
     1
1000
68261
1002
}
1002
{
1070
     2
1000
-2001160
1002
}
  0
LINE
  5
997
330
979
100
AcDbEntity
  8
D35160802
100
AcDbLine
 10
-7.229078745690824
 20
0.3385426305237686
 30
0.0
 11
-7.32133070789394
 21
0.3049656622291827
 31
0.0
1001
REVIT
1002
{
1070
     1
1000
68261
1002
}
1002
{
1070
     2
1000
-2001160
1002
}
  0
ARC
  5
998
330
979
100
AcDbEntity
  8
D35160802
100
AcDbCircle
 10
-6.481710333870294
 20
0.0000000000006182
 30
0.0
 40
0.8932896661297014
100
AcDbArc
 50
160.0380414457822
 51
199.9619585542108
1001
REVIT
1002
{
1070
     1
1000
68261
1002
}
1002
{
1070
     2
1000
-2001160
1002
}
  0
LINE
  5
999
330
979
100
AcDbEntity
  8
D35160802
100
AcDbLine
 10
-7.321330707893976
 20
-0.3049656622278505
 30
0.0
 11
-7.229078745690824
 21
-0.3385426305224506
 31
0.0
1001
REVIT
1002
{
1070
     1
1000
68261
1002
}
1002
{
1070
     2
1000
-2001160
1002
}
  0
LINE
  5
99A
330
979
100
AcDbEntity
  8
D35160802
100
AcDbLine
 10
-7.229078745690824
 20
-0.3385426305224506
 30
0.0
 11
-4.579084300287381
 21
-0.1532369672873735
 31
0.0
1001
REVIT
1002
{
1070
     1
1000
68261
1002
}
1002
{
1070
     2
1000
-2001160
1002
}
  0
ARC
  5
99B
330
979
100
AcDbEntity
  8
D35160802
100
AcDbCircle
 10
-4.000000000000462
 20
0.0000000000006217
 30
0.0
 40
1.22656250000003
100
AcDbArc
 50
189.2610874240204
 51
170.7389125759756
1001
REVIT
1002
{
1070
     1
1000
68261
1002
}
1002
{
1070
     2
1000
-2001160
1002
}
  0
LINE
  5
99C
330
979
100
AcDbEntity
  8
D35160802
100
AcDbLine
 10
7.229078745689837
 20
-0.3385426305224506
 30
0.0
 11
7.321330707892989
 21
-0.3049656622278505
 31
0.0
1001
REVIT
1002
{
1070
     1
1000
68261
1002
}
1002
{
1070
     2
1000
-2001160
1002
}
  0
ARC
  5
99D
330
979
100
AcDbEntity
  8
D35160802
100
AcDbCircle
 10
6.481710333869318
 20
0.0000000000006217
 30
0.0
 40
0.8932896661296902
100
AcDbArc
 50
340.0380414457878
 51
19.96195855421756
1001
REVIT
1002
{
1070
     1
1000
68261
1002
}
1002
{
1070
     2
1000
-2001160
1002
}
  0
LINE
  5
99E
330
979
100
AcDbEntity
  8
D35160802
100
AcDbLine
 10
7.321330707892953
 20
0.3049656622291827
 30
0.0
 11
7.229078745689837
 21
0.3385426305237686
 31
0.0
1001
REVIT
1002
{
1070
     1
1000
68261
1002
}
1002
{
1070
     2
1000
-2001160
1002
}
  0
ARC
  5
99F
330
979
100
AcDbEntity
  8
D35160802
100
AcDbCircle
 10
3.999999999999535
 20
0.0000000000006253
 30
0.0
 40
1.226562500000042
100
AcDbArc
 50
9.261087424024344
 51
350.7389125759778
1001
REVIT
1002
{
1070
     1
1000
68261
1002
}
1002
{
1070
     2
1000
-2001160
1002
}
  0
ARC
  5
9A0
330
979
100
AcDbEntity
  8
D35160802
100
AcDbCircle
 10
572.2487311857162
 20
6.074522853265854
 30
0.0
 40
572.8975520614571
100
AcDbArc
 50
180.7214588364874
 51
181.1313213358119
1001
REVIT
1002
{
1070
     1
1000
68261
1002
}
1002
{
1070
     2
1000
-2001160
1002
}
  0
ARC
  5
9A1
330
979
100
AcDbEntity
  8
D35160802
100
AcDbCircle
 10
-0.0000000000004414
 20
-5.23676595469746
 30
0.0
 40
0.5371449525770943
100
AcDbArc
 50
180.0000000000002
 51
359.9999999999992
1001
REVIT
1002
{
1070
     1
1000
68261
1002
}
1002
{
1070
     2
1000
-2001160
1002
}
  0
ARC
  5
9A2
330
979
100
AcDbEntity
  8
D35160802
100
AcDbCircle
 10
-572.2487311858998
 20
6.074522853265584
 30
0.0
 40
572.8975520616399
100
AcDbArc
 50
358.8686786641873
 51
359.2785411635115
1001
REVIT
1002
{
1070
     1
1000
68261
1002
}
1002
{
1070
     2
1000
-2001160
1002
}
  0
ARC
  5
9A3
330
979
100
AcDbEntity
  8
D35160802
100
AcDbCircle
 10
-0.0000000000000044
 20
-0.0000000000000036
 30
0.0
 40
1.289062500000664
100
AcDbArc
 50
297.9107146881444
 51
242.0892853118018
1001
REVIT
1002
{
1070
     1
1000
68261
1002
}
1002
{
1070
     2
1000
-2001160
1002
}
  0
ARC
  5
9A4
330
979
100
AcDbEntity
  8
D35160802
100
AcDbCircle
 10
-3.523788343714668
 20
-0.2749409279475756
 30
0.0
 40
1.553420457070241
100
AcDbArc
 50
130.7430455900454
 51
162.8455997760729
1001
REVIT
1002
{
1070
     1
1000
68945
1002
}
1002
{
1070
     2
1000
-2001160
1002
}
  0
ARC
  5
9A5
330
979
100
AcDbEntity
  8
D35160802
100
AcDbCircle
 10
-4.000000000000802
 20
-0.5498818558957233
 30
0.0
 40
1.548235150622984
100
AcDbArc
 50
69.680639317864
 51
110.3204358046814
1001
REVIT
1002
{
1070
     1
1000
68951
1002
}
1002
{
1070
     2
1000
-2001160
1002
}
  0
ARC
  5
9A6
330
979
100
AcDbEntity
  8
D35160802
100
AcDbCircle
 10
-4.476211656285866
 20
-0.2749409279474904
 30
0.0
 40
1.553410319681077
100
AcDbArc
 50
10.19459092052983
 51
49.257958594884
1001
REVIT
1002
{
1070
     1
1000
68965
1002
}
1002
{
1070
     2
1000
-2001160
1002
}
  0
ARC
  5
9A7
330
979
100
AcDbEntity
  8
D35160802
100
AcDbCircle
 10
-4.47621165628588
 20
0.2749409279477142
 30
0.0
 40
1.553410319681079
100
AcDbArc
 50
309.0331321838228
 51
349.8054090794723
1001
REVIT
1002
{
1070
     1
1000
68974
1002
}
1002
{
1070
     2
1000
-2001160
1002
}
  0
ARC
  5
9A8
330
979
100
AcDbEntity
  8
D35160802
100
AcDbCircle
 10
-4.000000000000744
 20
0.5498818558951406
 30
0.0
 40
1.564361786867302
100
AcDbArc
 50
251.2791113472926
 51
288.7202764566706
1001
REVIT
1002
{
1070
     1
1000
68983
1002
}
1002
{
1070
     2
1000
-2001160
1002
}
  0
ARC
  5
9A9
330
979
100
AcDbEntity
  8
D35160802
100
AcDbCircle
 10
-3.524996138775228
 20
0.2742436071442214
 30
0.0
 40
1.552113898490759
100
AcDbArc
 50
197.1424958482564
 51
230.9847111285361
1001
REVIT
1002
{
1070
     1
1000
68992
1002
}
1002
{
1070
     2
1000
-2001160
1002
}
  0
CIRCLE
  5
9AA
330
979
100
AcDbEntity
  8
D35160802
100
AcDbCircle
 10
-4.000000000000464
 20
0.0000000000006253
 30
0.0
 40
0.5260989355347871
1001
REVIT
1002
{
1070
     1
1000
69071
1002
}
1002
{
1070
     2
1000
-2001160
1002
}
  0
CIRCLE
  5
9AB
330
979
100
AcDbEntity
  8
D35160802
100
AcDbCircle
 10
-4.000000000000464
 20
0.0000000000006253
 30
0.0
 40
0.599016022308595
1001
REVIT
1002
{
1070
     1
1000
69108
1002
}
1002
{
1070
     2
1000
-2001160
1002
}
  0
LINE
  5
9AC
330
979
100
AcDbEntity
  8
D35160802
100
AcDbLine
 10
-4.537655850349691
 20
0.9019990855764739
 30
0.0
 11
-4.306703563117785
 21
0.514541659493375
 31
0.0
1001
REVIT
1002
{
1070
     1
1000
69277
1002
}
1002
{
1070
     2
1000
-2001160
1002
}
  0
LINE
  5
9AD
330
979
100
AcDbEntity
  8
D35160802
100
AcDbLine
 10
-3.462371393462364
 20
0.90200917412551
 30
0.0
 11
-3.693310435058635
 21
0.5145500031472601
 31
0.0
1001
REVIT
1002
{
1070
     1
1000
69350
1002
}
1002
{
1070
     2
1000
-2001160
1002
}
  0
LINE
  5
9AE
330
979
100
AcDbEntity
  8
D35160802
100
AcDbLine
 10
-2.947326079327616
 20
0.0000000000001492
 30
0.0
 11
-3.40098397769187
 21
0.0000000000001492
 31
0.0
1001
REVIT
1002
{
1070
     1
1000
69409
1002
}
1002
{
1070
     2
1000
-2001160
1002
}
  0
LINE
  5
9AF
330
979
100
AcDbEntity
  8
D35160802
100
AcDbLine
 10
-3.49792093222646
 20
-0.9317201182914374
 30
0.0
 11
-3.715838308734023
 21
-0.5273256377214608
 31
0.0
1001
REVIT
1002
{
1070
     1
1000
69469
1002
}
1002
{
1070
     2
1000
-2001160
1002
}
  0
LINE
  5
9B0
330
979
100
AcDbEntity
  8
D35160802
100
AcDbLine
 10
-4.502094898421213
 20
-0.9317147535741199
 30
0.0
 11
-4.282114117574033
 21
-0.5284239014725181
 31
0.0
1001
REVIT
1002
{
1070
     1
1000
69541
1002
}
1002
{
1070
     2
1000
-2001160
1002
}
  0
LINE
  5
9B1
330
979
100
AcDbEntity
  8
D35160802
100
AcDbLine
 10
-0.6034038089994276
 20
-1.139116311968606
 30
0.0
 11
-0.6034038089994276
 21
-0.927428119244162
 31
0.0
1001
REVIT
1002
{
1070
     1
1000
69624
1002
}
1002
{
1070
     2
1000
-2001160
1002
}
  0
ARC
  5
9B2
330
979
100
AcDbEntity
  8
D35160802
100
AcDbCircle
 10
0.4750038612247707
 20
0.2742436071442214
 30
0.0
 40
1.61461389849079
100
AcDbArc
 50
189.7793825285406
 51
228.0944720083684
1001
REVIT
1002
{
1070
     1
1000
69685
1002
}
1002
{
1070
     2
1000
-2001160
1002
}
  0
ARC
  5
9B3
330
979
100
AcDbEntity
  8
D35160802
100
AcDbCircle
 10
0.4762116562853321
 20
-0.2749409279475756
 30
0.0
 40
1.615920457070266
100
AcDbArc
 50
130.3441212483172
 51
170.2039778997314
1001
REVIT
1002
{
1070
     1
1000
69695
1002
}
1002
{
1070
     2
1000
-2001160
1002
}
  0
ARC
  5
9B4
330
979
100
AcDbEntity
  8
D35160802
100
AcDbCircle
 10
-0.0000000000008029
 20
-0.5498818558957233
 30
0.0
 40
1.610735150623011
100
AcDbArc
 50
69.28040343408412
 51
110.7206702961575
1001
REVIT
1002
{
1070
     1
1000
69704
1002
}
1002
{
1070
     2
1000
-2001160
1002
}
  0
ARC
  5
9B5
330
979
100
AcDbEntity
  8
D35160802
100
AcDbCircle
 10
-0.4762116562858659
 20
-0.2749409279474904
 30
0.0
 40
1.615910319681105
100
AcDbArc
 50
9.796316931183806
 51
49.65688687736959
1001
REVIT
1002
{
1070
     1
1000
69713
1002
}
1002
{
1070
     2
1000
-2001160
1002
}
  0
ARC
  5
9B6
330
979
100
AcDbEntity
  8
D35160802
100
AcDbCircle
 10
-0.4762116562858801
 20
0.2749409279477142
 30
0.0
 40
1.615910319681111
100
AcDbArc
 50
311.9218192656167
 51
350.2036830688172
1001
REVIT
1002
{
1070
     1
1000
69722
1002
}
1002
{
1070
     2
1000
-2001160
1002
}
  0
LINE
  5
9B7
330
979
100
AcDbEntity
  8
D35160802
100
AcDbLine
 10
0.6034038089984409
 20
-1.139116311968606
 30
0.0
 11
0.6034038089984409
 21
-0.92738873082763
 31
0.0
1001
REVIT
1002
{
1070
     1
1000
69745
1002
}
1002
{
1070
     2
1000
-2001160
1002
}
  0
ARC
  5
9B8
330
979
100
AcDbEntity
  8
D35160802
100
AcDbCircle
 10
-4.000000000000489
 20
0.0000000000006537
 30
0.0
 40
1.106641401110027
100
AcDbArc
 50
189.8330848560269
 51
170.1669151439721
1001
REVIT
1002
{
1070
     1
1000
69871
1002
}
1002
{
1070
     2
1000
-2001160
1002
}
  0
ARC
  5
9B9
330
979
100
AcDbEntity
  8
D35160802
100
AcDbCircle
 10
-0.0000000000004903
 20
0.0000000000006537
 30
0.0
 40
1.169141401110028
100
AcDbArc
 50
301.0715771562141
 51
238.9284228437852
1001
REVIT
1002
{
1070
     1
1000
69961
1002
}
1002
{
1070
     2
1000
-2001160
1002
}
  0
CIRCLE
  5
9BA
330
979
100
AcDbEntity
  8
D35160802
100
AcDbCircle
 10
0.0
 20
0.0
 30
0.0
 40
0.5260989355353367
1001
REVIT
1002
{
1070
     1
1000
70050
1002
}
1002
{
1070
     2
1000
-2001160
1002
}
  0
CIRCLE
  5
9BB
330
979
100
AcDbEntity
  8
D35160802
100
AcDbCircle
 10
0.0
 20
0.0
 30
0.0
 40
0.5990160223091153
1001
REVIT
1002
{
1070
     1
1000
70127
1002
}
1002
{
1070
     2
1000
-2001160
1002
}
  0
LINE
  5
9BC
330
979
100
AcDbEntity
  8
D35160802
100
AcDbLine
 10
-0.5698979018554847
 20
0.9566652249863096
 30
0.0
 11
-0.3065674633742477
 21
0.5146227602655316
 31
0.0
1001
REVIT
1002
{
1070
     1
1000
70218
1002
}
1002
{
1070
     2
1000
-2001160
1002
}
  0
LINE
  5
9BD
330
979
100
AcDbEntity
  8
D35160802
100
AcDbLine
 10
0.5698696688686855
 20
0.9566759046813864
 30
0.0
 11
0.3065537277248058
 21
0.5146309425219791
 31
0.0
1001
REVIT
1002
{
1070
     1
1000
70333
1002
}
1002
{
1070
     2
1000
-2001160
1002
}
  0
LINE
  5
9BE
330
979
100
AcDbEntity
  8
D35160802
100
AcDbLine
 10
1.116136812922802
 20
0.0000000000001279
 30
0.0
 11
0.5990160223091144
 21
0.0000000000001315
 31
0.0
1001
REVIT
1002
{
1070
     1
1000
70443
1002
}
1002
{
1070
     2
1000
-2001160
1002
}
  0
LINE
  5
9BF
330
979
100
AcDbEntity
  8
D35160802
100
AcDbLine
 10
-1.116148217268212
 20
-0.0000064690765207
 30
0.0
 11
-0.5990160222741832
 21
-0.0000064690765242
 31
0.0
1001
REVIT
1002
{
1070
     1
1000
70546
1002
}
1002
{
1070
     2
1000
-2001160
1002
}
  0
LINE
  5
9C0
330
979
100
AcDbEntity
  8
D35160802
100
AcDbLine
 10
-0.6034038089994276
 20
-0.927428119244162
 30
0.0
 11
-0.5979323320292452
 21
-0.0360155702037623
 31
0.0
1001
REVIT
1002
{
1070
     1
1000
70731
1002
}
1002
{
1070
     2
1000
-2001160
1002
}
  0
LINE
  5
9C1
330
979
100
AcDbEntity
  8
D35160802
100
AcDbLine
 10
0.6034038089984409
 20
-0.927428119244162
 30
0.0
 11
0.5979323320283499
 21
-0.036015570218634
 31
0.0
1001
REVIT
1002
{
1070
     1
1000
70825
1002
}
1002
{
1070
     2
1000
-2001160
1002
}
  0
ARC
  5
9C2
330
979
100
AcDbEntity
  8
D35160802
100
AcDbCircle
 10
242.0673522278662
 20
3.086691654213424
 30
0.0
 40
242.5016736749381
100
AcDbArc
 50
180.8327895327283
 51
182.07603030647
1001
REVIT
1002
{
1070
     1
1000
70984
1002
}
1002
{
1070
     2
1000
-2001160
1002
}
  0
ARC
  5
9C3
330
979
100
AcDbEntity
  8
D35160802
100
AcDbCircle
 10
-242.0673522278672
 20
3.086691654213424
 30
0.0
 40
242.501673674938
100
AcDbArc
 50
357.9239696935296
 51
359.167210467271
1001
REVIT
1002
{
1070
     1
1000
71081
1002
}
1002
{
1070
     2
1000
-2001160
1002
}
  0
ARC
  5
9C4
330
979
100
AcDbEntity
  8
D35160802
100
AcDbCircle
 10
3.523788343713682
 20
-0.2749409279475756
 30
0.0
 40
1.553420457070241
100
AcDbArc
 50
17.15440022392702
 51
49.25695440995455
1001
REVIT
1002
{
1070
     1
1000
71176
1002
}
1002
{
1070
     2
1000
-2001160
1002
}
  0
ARC
  5
9C5
330
979
100
AcDbEntity
  8
D35160802
100
AcDbCircle
 10
3.999999999999814
 20
-0.5498818558957233
 30
0.0
 40
1.548235150622984
100
AcDbArc
 50
69.67956419531858
 51
110.319360682136
1001
REVIT
1002
{
1070
     1
1000
71177
1002
}
1002
{
1070
     2
1000
-2001160
1002
}
  0
ARC
  5
9C6
330
979
100
AcDbEntity
  8
D35160802
100
AcDbCircle
 10
4.47621165628488
 20
-0.2749409279474904
 30
0.0
 40
1.553410319681076
100
AcDbArc
 50
130.742041405116
 51
169.8054090794699
1001
REVIT
1002
{
1070
     1
1000
71178
1002
}
1002
{
1070
     2
1000
-2001160
1002
}
  0
ARC
  5
9C7
330
979
100
AcDbEntity
  8
D35160802
100
AcDbCircle
 10
4.476211656284893
 20
0.2749409279477142
 30
0.0
 40
1.553410319681079
100
AcDbArc
 50
190.1945909205271
 51
230.9668678161767
1001
REVIT
1002
{
1070
     1
1000
71179
1002
}
1002
{
1070
     2
1000
-2001160
1002
}
  0
ARC
  5
9C8
330
979
100
AcDbEntity
  8
D35160802
100
AcDbCircle
 10
3.999999999999757
 20
0.5498818558951406
 30
0.0
 40
1.564361786867302
100
AcDbArc
 50
251.279723543329
 51
288.7208886527069
1001
REVIT
1002
{
1070
     1
1000
71180
1002
}
1002
{
1070
     2
1000
-2001160
1002
}
  0
ARC
  5
9C9
330
979
100
AcDbEntity
  8
D35160802
100
AcDbCircle
 10
3.524996138774242
 20
0.2742436071442214
 30
0.0
 40
1.552113898490759
100
AcDbArc
 50
309.0152888714634
 51
342.857504151743
1001
REVIT
1002
{
1070
     1
1000
71181
1002
}
1002
{
1070
     2
1000
-2001160
1002
}
  0
CIRCLE
  5
9CA
330
979
100
AcDbEntity
  8
D35160802
100
AcDbCircle
 10
3.999999999999476
 20
0.0000000000006253
 30
0.0
 40
0.5260989355347864
1001
REVIT
1002
{
1070
     1
1000
71183
1002
}
1002
{
1070
     2
1000
-2001160
1002
}
  0
CIRCLE
  5
9CB
330
979
100
AcDbEntity
  8
D35160802
100
AcDbCircle
 10
3.999999999999476
 20
0.0000000000006253
 30
0.0
 40
0.5990160223085941
1001
REVIT
1002
{
1070
     1
1000
71184
1002
}
1002
{
1070
     2
1000
-2001160
1002
}
  0
LINE
  5
9CC
330
979
100
AcDbEntity
  8
D35160802
100
AcDbLine
 10
7.229078745689837
 20
0.3385426305237686
 30
0.0
 11
4.579084300286377
 21
0.1532369672886915
 31
0.0
1001
REVIT
1002
{
1070
     1
1000
71185
1002
}
1002
{
1070
     2
1000
-2001160
1002
}
  0
LINE
  5
9CD
330
979
100
AcDbEntity
  8
D35160802
100
AcDbLine
 10
7.229078745689837
 20
-0.3385426305224506
 30
0.0
 11
4.579084300286395
 21
-0.1532369672873735
 31
0.0
1001
REVIT
1002
{
1070
     1
1000
71186
1002
}
1002
{
1070
     2
1000
-2001160
1002
}
  0
LINE
  5
9CE
330
979
100
AcDbEntity
  8
D35160802
100
AcDbLine
 10
4.537655850348705
 20
0.9019990855764739
 30
0.0
 11
4.306703563116799
 21
0.514541659493375
 31
0.0
1001
REVIT
1002
{
1070
     1
1000
71187
1002
}
1002
{
1070
     2
1000
-2001160
1002
}
  0
LINE
  5
9CF
330
979
100
AcDbEntity
  8
D35160802
100
AcDbLine
 10
3.462371393461377
 20
0.90200917412551
 30
0.0
 11
3.693310435057648
 21
0.5145500031472601
 31
0.0
1001
REVIT
1002
{
1070
     1
1000
71188
1002
}
1002
{
1070
     2
1000
-2001160
1002
}
  0
LINE
  5
9D0
330
979
100
AcDbEntity
  8
D35160802
100
AcDbLine
 10
2.94732607932663
 20
0.0000000000001492
 30
0.0
 11
3.400983977690883
 21
0.0000000000001492
 31
0.0
1001
REVIT
1002
{
1070
     1
1000
71189
1002
}
1002
{
1070
     2
1000
-2001160
1002
}
  0
LINE
  5
9D1
330
979
100
AcDbEntity
  8
D35160802
100
AcDbLine
 10
3.497920932225473
 20
-0.9317201182914374
 30
0.0
 11
3.715838308733036
 21
-0.5273256377214608
 31
0.0
1001
REVIT
1002
{
1070
     1
1000
71190
1002
}
1002
{
1070
     2
1000
-2001160
1002
}
  0
LINE
  5
9D2
330
979
100
AcDbEntity
  8
D35160802
100
AcDbLine
 10
4.502094898420227
 20
-0.9317147535741199
 30
0.0
 11
4.282114117573047
 21
-0.5284239014725181
 31
0.0
1001
REVIT
1002
{
1070
     1
1000
71191
1002
}
1002
{
1070
     2
1000
-2001160
1002
}
  0
ARC
  5
9D3
330
979
100
AcDbEntity
  8
D35160802
100
AcDbCircle
 10
3.999999999999501
 20
0.0000000000006537
 30
0.0
 40
1.106641401110027
100
AcDbArc
 50
9.833084856027829
 51
350.1669151439722
1001
REVIT
1002
{
1070
     1
1000
71192
1002
}
1002
{
1070
     2
1000
-2001160
1002
}
  0
LINE
  5
9D4
330
979
100
AcDbEntity
  8
D35160802
100
AcDbLine
 10
-7.32133070789394
 20
0.3049656622291827
 30
0.0
 11
-7.321330707893942
 21
-0.3049656622279393
 31
0.0
1001
REVIT
1002
{
1070
     1
1000
71416
1002
}
1002
{
1070
     2
1000
-2001160
1002
}
  0
LINE
  5
9D5
330
979
100
AcDbEntity
  8
D35160802
100
AcDbLine
 10
-7.229078745690824
 20
-0.3385426305224506
 30
0.0
 11
-7.229078745690822
 21
0.3385426305237686
 31
0.0
1001
REVIT
1002
{
1070
     1
1000
71571
1002
}
1002
{
1070
     2
1000
-2001160
1002
}
  0
LINE
  5
9D6
330
979
100
AcDbEntity
  8
D35160802
100
AcDbLine
 10
7.229078745689837
 20
0.3385426305237686
 30
0.0
 11
7.229078745689835
 21
-0.3385426305224151
 31
0.0
1001
REVIT
1002
{
1070
     1
1000
71739
1002
}
1002
{
1070
     2
1000
-2001160
1002
}
  0
LINE
  5
9D7
330
979
100
AcDbEntity
  8
D35160802
100
AcDbLine
 10
7.321330707892985
 20
-0.3049656622278505
 30
0.0
 11
7.321330707892985
 21
0.3049656622290939
 31
0.0
1001
REVIT
1002
{
1070
     1
1000
71901
1002
}
1002
{
1070
     2
1000
-2001160
1002
}
  0
ENDBLK
  5
97B
330
979
100
AcDbEntity
  8
0
100
AcDbBlockEnd
  0
BLOCK
  5
9DA
330
9D9
100
AcDbEntity
  8
0
100
AcDbBlockBegin
  2
D35160802 Front View
 70
     0
 10
0.0
 20
0.0
 30
0.0
  3
D35160802 Front View
  1

  0
LINE
  5
9DC
330
9D9
100
AcDbEntity
  8
D35160802
100
AcDbLine
 10
-1.169141401109778
 20
0.3261939176309049
 30
0.0
 11
-1.16914140110978
 21
0.248343645242921
 31
0.0
1001
REVIT
1002
{
1070
     2
1000
-2001160
1002
}
  0
LINE
  5
9DD
330
9D9
100
AcDbEntity
  8
D35160802
100
AcDbLine
 10
1.169141401110278
 20
0.248343645242897
 30
0.0
 11
1.16914140111028
 21
0.3261939176308816
 31
0.0
1001
REVIT
1002
{
1070
     2
1000
-2001160
1002
}
  0
LINE
  5
9DE
330
9D9
100
AcDbEntity
  8
D35160802
100
AcDbLine
 10
1.20725255152141
 20
0.248343645242897
 30
0.0
 11
1.208367456829374
 21
0.2483213441631808
 31
0.0
1001
REVIT
1002
{
1070
     2
1000
-2001160
1002
}
  0
LINE
  5
9DF
330
9D9
100
AcDbEntity
  8
D35160802
100
AcDbLine
 10
1.208367456829374
 20
0.2483213441631808
 30
0.0
 11
1.20948057852668
 21
0.2482544766010028
 31
0.0
1001
REVIT
1002
{
1070
     2
1000
-2001160
1002
}
  0
LINE
  5
9E0
330
9D9
100
AcDbEntity
  8
D35160802
100
AcDbLine
 10
1.20948057852668
 20
0.2482544766010028
 30
0.0
 11
1.210590135856067
 21
0.2481431495301995
 31
0.0
1001
REVIT
1002
{
1070
     2
1000
-2001160
1002
}
  0
LINE
  5
9E1
330
9D9
100
AcDbEntity
  8
D35160802
100
AcDbLine
 10
1.210590135856067
 20
0.2481431495301995
 30
0.0
 11
1.211694353762496
 21
0.247987541050334
 31
0.0
1001
REVIT
1002
{
1070
     2
1000
-2001160
1002
}
  0
LINE
  5
9E2
330
9D9
100
AcDbEntity
  8
D35160802
100
AcDbLine
 10
1.211694353762496
 20
0.247987541050334
 30
0.0
 11
1.212791465732873
 21
0.2477879001017799
 31
0.0
1001
REVIT
1002
{
1070
     2
1000
-2001160
1002
}
  0
LINE
  5
9E3
330
9D9
100
AcDbEntity
  8
D35160802
100
AcDbLine
 10
1.212791465732873
 20
0.2477879001017799
 30
0.0
 11
1.213879716622085
 21
0.2475445460674674
 31
0.0
1001
REVIT
1002
{
1070
     2
1000
-2001160
1002
}
  0
LINE
  5
9E4
330
9D9
100
AcDbEntity
  8
D35160802
100
AcDbLine
 10
1.213879716622085
 20
0.2475445460674674
 30
0.0
 11
1.214957365460854
 21
0.2472578682619377
 31
0.0
1001
REVIT
1002
{
1070
     2
1000
-2001160
1002
}
  0
LINE
  5
9E5
330
9D9
100
AcDbEntity
  8
D35160802
100
AcDbLine
 10
1.214957365460854
 20
0.2472578682619377
 30
0.0
 11
1.216022688240929
 21
0.2469283253085268
 31
0.0
1001
REVIT
1002
{
1070
     2
1000
-2001160
1002
}
  0
LINE
  5
9E6
330
9D9
100
AcDbEntity
  8
D35160802
100
AcDbLine
 10
1.216022688240929
 20
0.2469283253085268
 30
0.0
 11
1.217073980673111
 21
0.2465564444056596
 31
0.0
1001
REVIT
1002
{
1070
     2
1000
-2001160
1002
}
  0
LINE
  5
9E7
330
9D9
100
AcDbEntity
  8
D35160802
100
AcDbLine
 10
1.217073980673111
 20
0.2465564444056596
 30
0.0
 11
1.218109560913781
 21
0.2461428204834512
 31
0.0
1001
REVIT
1002
{
1070
     2
1000
-2001160
1002
}
  0
LINE
  5
9E8
330
9D9
100
AcDbEntity
  8
D35160802
100
AcDbLine
 10
1.218109560913781
 20
0.2461428204834512
 30
0.0
 11
1.21912777225546
 21
0.2456881152519412
 31
0.0
1001
REVIT
1002
{
1070
     2
1000
-2001160
1002
}
  0
LINE
  5
9E9
330
9D9
100
AcDbEntity
  8
D35160802
100
AcDbLine
 10
1.21912777225546
 20
0.2456881152519412
 30
0.0
 11
1.220126985777209
 21
0.2451930561425026
 31
0.0
1001
REVIT
1002
{
1070
     2
1000
-2001160
1002
}
  0
LINE
  5
9EA
330
9D9
100
AcDbEntity
  8
D35160802
100
AcDbLine
 10
1.220126985777209
 20
0.2451930561425026
 30
0.0
 11
1.221105602950549
 21
0.2446584351441032
 31
0.0
1001
REVIT
1002
{
1070
     2
1000
-2001160
1002
}
  0
LINE
  5
9EB
330
9D9
100
AcDbEntity
  8
D35160802
100
AcDbLine
 10
1.221105602950549
 20
0.2446584351441032
 30
0.0
 11
1.222062058196763
 21
0.2440851075362941
 31
0.0
1001
REVIT
1002
{
1070
     2
1000
-2001160
1002
}
  0
LINE
  5
9EC
330
9D9
100
AcDbEntity
  8
D35160802
100
AcDbLine
 10
1.222062058196763
 20
0.2440851075362941
 30
0.0
 11
1.222994821391489
 21
0.2434739905209433
 31
0.0
1001
REVIT
1002
{
1070
     2
1000
-2001160
1002
}
  0
LINE
  5
9ED
330
9D9
100
AcDbEntity
  8
D35160802
100
AcDbLine
 10
1.222994821391489
 20
0.2434739905209433
 30
0.0
 11
1.223902400312595
 21
0.2428260617549127
 31
0.0
1001
REVIT
1002
{
1070
     2
1000
-2001160
1002
}
  0
LINE
  5
9EE
330
9D9
100
AcDbEntity
  8
D35160802
100
AcDbLine
 10
1.223902400312595
 20
0.2428260617549127
 30
0.0
 11
1.224783343027412
 21
0.2421423577860086
 31
0.0
1001
REVIT
1002
{
1070
     2
1000
-2001160
1002
}
  0
LINE
  5
9EF
330
9D9
100
AcDbEntity
  8
D35160802
100
AcDbLine
 10
1.224783343027412
 20
0.2421423577860086
 30
0.0
 11
1.225636240215523
 21
0.241423972394732
 31
0.0
1001
REVIT
1002
{
1070
     2
1000
-2001160
1002
}
  0
LINE
  5
9F0
330
9D9
100
AcDbEntity
  8
D35160802
100
AcDbLine
 10
1.225636240215523
 20
0.241423972394732
 30
0.0
 11
1.226459727423369
 21
0.2406720548444638
 31
0.0
1001
REVIT
1002
{
1070
     2
1000
-2001160
1002
}
  0
LINE
  5
9F1
330
9D9
100
AcDbEntity
  8
D35160802
100
AcDbLine
 10
1.226459727423369
 20
0.2406720548444638
 30
0.0
 11
1.227252487247083
 21
0.2398878080428823
 31
0.0
1001
REVIT
1002
{
1070
     2
1000
-2001160
1002
}
  0
LINE
  5
9F2
330
9D9
100
AcDbEntity
  8
D35160802
100
AcDbLine
 10
1.227252487247083
 20
0.2398878080428823
 30
0.0
 11
1.22801325144006
 21
0.2390724866175739
 31
0.0
1001
REVIT
1002
{
1070
     2
1000
-2001160
1002
}
  0
LINE
  5
9F3
330
9D9
100
AcDbEntity
  8
D35160802
100
AcDbLine
 10
1.22801325144006
 20
0.2390724866175739
 30
0.0
 11
1.228740802941883
 21
0.2382273949088917
 31
0.0
1001
REVIT
1002
{
1070
     2
1000
-2001160
1002
}
  0
LINE
  5
9F4
330
9D9
100
AcDbEntity
  8
D35160802
100
AcDbLine
 10
1.228740802941883
 20
0.2382273949088917
 30
0.0
 11
1.229433977825346
 21
0.2373538848832938
 31
0.0
1001
REVIT
1002
{
1070
     2
1000
-2001160
1002
}
  0
LINE
  5
9F5
330
9D9
100
AcDbEntity
  8
D35160802
100
AcDbLine
 10
1.229433977825346
 20
0.2373538848832938
 30
0.0
 11
1.230091667158512
 21
0.2364533539704829
 31
0.0
1001
REVIT
1002
{
1070
     2
1000
-2001160
1002
}
  0
LINE
  5
9F6
330
9D9
100
AcDbEntity
  8
D35160802
100
AcDbLine
 10
1.230091667158512
 20
0.2364533539704829
 30
0.0
 11
1.23071281877874
 21
0.235527242827815
 31
0.0
1001
REVIT
1002
{
1070
     2
1000
-2001160
1002
}
  0
LINE
  5
9F7
330
9D9
100
AcDbEntity
  8
D35160802
100
AcDbLine
 10
1.23071281877874
 20
0.235527242827815
 30
0.0
 11
1.231296438975947
 21
0.2345770330355605
 31
0.0
1001
REVIT
1002
{
1070
     2
1000
-2001160
1002
}
  0
LINE
  5
9F8
330
9D9
100
AcDbEntity
  8
D35160802
100
AcDbLine
 10
1.231296438975947
 20
0.2345770330355605
 30
0.0
 11
1.231841594082318
 21
0.233604244726685
 31
0.0
1001
REVIT
1002
{
1070
     2
1000
-2001160
1002
}
  0
LINE
  5
9F9
330
9D9
100
AcDbEntity
  8
D35160802
100
AcDbLine
 10
1.231841594082318
 20
0.233604244726685
 30
0.0
 11
1.232347411965971
 21
0.2326104341549657
 31
0.0
1001
REVIT
1002
{
1070
     2
1000
-2001160
1002
}
  0
LINE
  5
9FA
330
9D9
100
AcDbEntity
  8
D35160802
100
AcDbLine
 10
1.232347411965971
 20
0.2326104341549657
 30
0.0
 11
1.2328130834262
 21
0.2315971912053156
 31
0.0
1001
REVIT
1002
{
1070
     2
1000
-2001160
1002
}
  0
LINE
  5
9FB
330
9D9
100
AcDbEntity
  8
D35160802
100
AcDbLine
 10
1.2328130834262
 20
0.2315971912053156
 30
0.0
 11
1.233237863488002
 21
0.2305661368503075
 31
0.0
1001
REVIT
1002
{
1070
     2
1000
-2001160
1002
}
  0
LINE
  5
9FC
330
9D9
100
AcDbEntity
  8
D35160802
100
AcDbLine
 10
1.233237863488002
 20
0.2305661368503075
 30
0.0
 11
1.233621072593896
 21
0.2295189205569632
 31
0.0
1001
REVIT
1002
{
1070
     2
1000
-2001160
1002
}
  0
LINE
  5
9FD
330
9D9
100
AcDbEntity
  8
D35160802
100
AcDbLine
 10
1.233621072593896
 20
0.2295189205569632
 30
0.0
 11
1.23396209769106
 21
0.2284572176479577
 31
0.0
1001
REVIT
1002
{
1070
     2
1000
-2001160
1002
}
  0
LINE
  5
9FE
330
9D9
100
AcDbEntity
  8
D35160802
100
AcDbLine
 10
1.23396209769106
 20
0.2284572176479577
 30
0.0
 11
1.234260393212083
 21
0.2273827266214607
 31
0.0
1001
REVIT
1002
{
1070
     2
1000
-2001160
1002
}
  0
LINE
  5
9FF
330
9D9
100
AcDbEntity
  8
D35160802
100
AcDbLine
 10
1.234260393212083
 20
0.2273827266214607
 30
0.0
 11
1.234356613404218
 21
0.2269956496113449
 31
0.0
1001
REVIT
1002
{
1070
     2
1000
-2001160
1002
}
  0
LINE
  5
A00
330
9D9
100
AcDbEntity
  8
D35160802
100
AcDbLine
 10
-1.234356613403718
 20
0.2269956496113696
 30
0.0
 11
-1.234073719868717
 21
0.2280742980396082
 31
0.0
1001
REVIT
1002
{
1070
     2
1000
-2001160
1002
}
  0
LINE
  5
A01
330
9D9
100
AcDbEntity
  8
D35160802
100
AcDbLine
 10
-1.234073719868717
 20
0.2280742980396082
 30
0.0
 11
-1.233747918185905
 21
0.2291407709400428
 31
0.0
1001
REVIT
1002
{
1070
     2
1000
-2001160
1002
}
  0
LINE
  5
A02
330
9D9
100
AcDbEntity
  8
D35160802
100
AcDbLine
 10
-1.233747918185905
 20
0.2291407709400428
 30
0.0
 11
-1.23337972956847
 21
0.2301933621835361
 31
0.0
1001
REVIT
1002
{
1070
     2
1000
-2001160
1002
}
  0
LINE
  5
A03
330
9D9
100
AcDbEntity
  8
D35160802
100
AcDbLine
 10
-1.23337972956847
 20
0.2301933621835361
 30
0.0
 11
-1.232969743039662
 21
0.2312303878486379
 31
0.0
1001
REVIT
1002
{
1070
     2
1000
-2001160
1002
}
  0
LINE
  5
A04
330
9D9
100
AcDbEntity
  8
D35160802
100
AcDbLine
 10
-1.232969743039662
 20
0.2312303878486379
 30
0.0
 11
-1.232518614490462
 21
0.2322501889155053
 31
0.0
1001
REVIT
1002
{
1070
     2
1000
-2001160
1002
}
  0
LINE
  5
A05
330
9D9
100
AcDbEntity
  8
D35160802
100
AcDbLine
 10
-1.232518614490462
 20
0.2322501889155053
 30
0.0
 11
-1.232027065630319
 21
0.2332511339199778
 31
0.0
1001
REVIT
1002
{
1070
     2
1000
-2001160
1002
}
  0
LINE
  5
A06
330
9D9
100
AcDbEntity
  8
D35160802
100
AcDbLine
 10
-1.232027065630319
 20
0.2332511339199778
 30
0.0
 11
-1.231495882832551
 21
0.2342316215635718
 31
0.0
1001
REVIT
1002
{
1070
     2
1000
-2001160
1002
}
  0
LINE
  5
A07
330
9D9
100
AcDbEntity
  8
D35160802
100
AcDbLine
 10
-1.231495882832551
 20
0.2342316215635718
 30
0.0
 11
-1.230925915876316
 21
0.2351900832752154
 31
0.0
1001
REVIT
1002
{
1070
     2
1000
-2001160
1002
}
  0
LINE
  5
A08
330
9D9
100
AcDbEntity
  8
D35160802
100
AcDbLine
 10
-1.230925915876316
 20
0.2351900832752154
 30
0.0
 11
-1.230318076587162
 21
0.2361249857206317
 31
0.0
1001
REVIT
1002
{
1070
     2
1000
-2001160
1002
}
  0
LINE
  5
A09
330
9D9
100
AcDbEntity
  8
D35160802
100
AcDbLine
 10
-1.230318076587162
 20
0.2361249857206317
 30
0.0
 11
-1.229673337378285
 21
0.2370348332553446
 31
0.0
1001
REVIT
1002
{
1070
     2
1000
-2001160
1002
}
  0
LINE
  5
A0A
330
9D9
100
AcDbEntity
  8
D35160802
100
AcDbLine
 10
-1.229673337378285
 20
0.2370348332553446
 30
0.0
 11
-1.228992729694881
 21
0.2379181703173871
 31
0.0
1001
REVIT
1002
{
1070
     2
1000
-2001160
1002
}
  0
LINE
  5
A0B
330
9D9
100
AcDbEntity
  8
D35160802
100
AcDbLine
 10
-1.228992729694881
 20
0.2379181703173871
 30
0.0
 11
-1.228277342364057
 21
0.2387735837558961
 31
0.0
1001
REVIT
1002
{
1070
     2
1000
-2001160
1002
}
  0
LINE
  5
A0C
330
9D9
100
AcDbEntity
  8
D35160802
100
AcDbLine
 10
-1.228277342364057
 20
0.2387735837558961
 30
0.0
 11
-1.227528319852931
 21
0.2395997050918483
 31
0.0
1001
REVIT
1002
{
1070
     2
1000
-2001160
1002
}
  0
LINE
  5
A0D
330
9D9
100
AcDbEntity
  8
D35160802
100
AcDbLine
 10
-1.227528319852931
 20
0.2395997050918483
 30
0.0
 11
-1.226746860437744
 21
0.2403952127073358
 31
0.0
1001
REVIT
1002
{
1070
     2
1000
-2001160
1002
}
  0
LINE
  5
A0E
330
9D9
100
AcDbEntity
  8
D35160802
100
AcDbLine
 10
-1.226746860437744
 20
0.2403952127073358
 30
0.0
 11
-1.225934214286853
 21
0.241158833959874
 31
0.0
1001
REVIT
1002
{
1070
     2
1000
-2001160
1002
}
  0
LINE
  5
A0F
330
9D9
100
AcDbEntity
  8
D35160802
100
AcDbLine
 10
-1.225934214286853
 20
0.241158833959874
 30
0.0
 11
-1.225091681460745
 21
0.2418893472183545
 31
0.0
1001
REVIT
1002
{
1070
     2
1000
-2001160
1002
}
  0
LINE
  5
A10
330
9D9
100
AcDbEntity
  8
D35160802
100
AcDbLine
 10
-1.225091681460745
 20
0.2418893472183545
 30
0.0
 11
-1.224220609832211
 21
0.2425855838173995
 31
0.0
1001
REVIT
1002
{
1070
     2
1000
-2001160
1002
}
  0
LINE
  5
A11
330
9D9
100
AcDbEntity
  8
D35160802
100
AcDbLine
 10
-1.224220609832211
 20
0.2425855838173995
 30
0.0
 11
-1.223322392930039
 21
0.2432464299269723
 31
0.0
1001
REVIT
1002
{
1070
     2
1000
-2001160
1002
}
  0
LINE
  5
A12
330
9D9
100
AcDbEntity
  8
D35160802
100
AcDbLine
 10
-1.223322392930039
 20
0.2432464299269723
 30
0.0
 11
-1.222398467709662
 21
0.2438708283342714
 31
0.0
1001
REVIT
1002
{
1070
     2
1000
-2001160
1002
}
  0
LINE
  5
A13
330
9D9
100
AcDbEntity
  8
D35160802
100
AcDbLine
 10
-1.222398467709662
 20
0.2438708283342714
 30
0.0
 11
-1.221450312254339
 21
0.2444577801350422
 31
0.0
1001
REVIT
1002
{
1070
     2
1000
-2001160
1002
}
  0
LINE
  5
A14
330
9D9
100
AcDbEntity
  8
D35160802
100
AcDbLine
 10
-1.221450312254339
 20
0.2444577801350422
 30
0.0
 11
-1.220479443410537
 21
0.2450063463316132
 31
0.0
1001
REVIT
1002
{
1070
     2
1000
-2001160
1002
}
  0
LINE
  5
A15
330
9D9
100
AcDbEntity
  8
D35160802
100
AcDbLine
 10
-1.220479443410537
 20
0.2450063463316132
 30
0.0
 11
-1.2194874143613
 21
0.245515649335092
 31
0.0
1001
REVIT
1002
{
1070
     2
1000
-2001160
1002
}
  0
LINE
  5
A16
330
9D9
100
AcDbEntity
  8
D35160802
100
AcDbLine
 10
-1.2194874143613
 20
0.245515649335092
 30
0.0
 11
-1.21847581214148
 21
0.2459848743693175
 31
0.0
1001
REVIT
1002
{
1070
     2
1000
-2001160
1002
}
  0
LINE
  5
A17
330
9D9
100
AcDbEntity
  8
D35160802
100
AcDbLine
 10
-1.21847581214148
 20
0.2459848743693175
 30
0.0
 11
-1.217446255098836
 21
0.2464132707743316
 31
0.0
1001
REVIT
1002
{
1070
     2
1000
-2001160
1002
}
  0
LINE
  5
A18
330
9D9
100
AcDbEntity
  8
D35160802
100
AcDbLine
 10
-1.217446255098836
 20
0.2464132707743316
 30
0.0
 11
-1.21640039030501
 21
0.2468001532072716
 31
0.0
1001
REVIT
1002
{
1070
     2
1000
-2001160
1002
}
  0
LINE
  5
A19
330
9D9
100
AcDbEntity
  8
D35160802
100
AcDbLine
 10
-1.21640039030501
 20
0.2468001532072716
 30
0.0
 11
-1.215339890920562
 21
0.2471449027387766
 31
0.0
1001
REVIT
1002
{
1070
     2
1000
-2001160
1002
}
  0
LINE
  5
A1A
330
9D9
100
AcDbEntity
  8
D35160802
100
AcDbLine
 10
-1.215339890920562
 20
0.2471449027387766
 30
0.0
 11
-1.214266453518283
 21
0.2474469678431381
 31
0.0
1001
REVIT
1002
{
1070
     2
1000
-2001160
1002
}
  0
LINE
  5
A1B
330
9D9
100
AcDbEntity
  8
D35160802
100
AcDbLine
 10
-1.214266453518283
 20
0.2474469678431381
 30
0.0
 11
-1.213181795369027
 21
0.2477058652806278
 31
0.0
1001
REVIT
1002
{
1070
     2
1000
-2001160
1002
}
  0
LINE
  5
A1C
330
9D9
100
AcDbEntity
  8
D35160802
100
AcDbLine
 10
-1.213181795369027
 20
0.2477058652806278
 30
0.0
 11
-1.212087651694452
 21
0.2479211808705714
 31
0.0
1001
REVIT
1002
{
1070
     2
1000
-2001160
1002
}
  0
LINE
  5
A1D
330
9D9
100
AcDbEntity
  8
D35160802
100
AcDbLine
 10
-1.212087651694452
 20
0.2479211808705714
 30
0.0
 11
-1.210985772891032
 21
0.2480925701539582
 31
0.0
1001
REVIT
1002
{
1070
     2
1000
-2001160
1002
}
  0
LINE
  5
A1E
330
9D9
100
AcDbEntity
  8
D35160802
100
AcDbLine
 10
-1.210985772891032
 20
0.2480925701539582
 30
0.0
 11
-1.209877921729799
 21
0.2482197589444965
 31
0.0
1001
REVIT
1002
{
1070
     2
1000
-2001160
1002
}
  0
LINE
  5
A1F
330
9D9
100
AcDbEntity
  8
D35160802
100
AcDbLine
 10
-1.209877921729799
 20
0.2482197589444965
 30
0.0
 11
-1.208765870536279
 21
0.2483025437672521
 31
0.0
1001
REVIT
1002
{
1070
     2
1000
-2001160
1002
}
  0
LINE
  5
A20
330
9D9
100
AcDbEntity
  8
D35160802
100
AcDbLine
 10
-1.208765870536279
 20
0.2483025437672521
 30
0.0
 11
-1.207651398355159
 21
0.2483407921841691
 31
0.0
1001
REVIT
1002
{
1070
     2
1000
-2001160
1002
}
  0
LINE
  5
A21
330
9D9
100
AcDbEntity
  8
D35160802
100
AcDbLine
 10
-1.207651398355159
 20
0.2483407921841691
 30
0.0
 11
-1.207252551520909
 21
0.248343645242921
 31
0.0
1001
REVIT
1002
{
1070
     2
1000
-2001160
1002
}
  0
LINE
  5
A22
330
9D9
100
AcDbEntity
  8
D35160802
100
AcDbLine
 10
-1.191832656786278
 20
0.2483436452429237
 30
0.0
 11
1.191832656786779
 21
0.2483436452428944
 31
0.0
1001
REVIT
1002
{
1070
     2
1000
-2001160
1002
}
  0
LINE
  5
A23
330
9D9
100
AcDbEntity
  8
D35160802
100
AcDbLine
 10
-1.234356613403718
 20
0.2269956496113696
 30
0.0
 11
-1.289062499999755
 21
0.000000000001193
 31
0.0
1001
REVIT
1002
{
1070
     2
1000
-2001160
1002
}
  0
LINE
  5
A24
330
9D9
100
AcDbEntity
  8
D35160802
100
AcDbLine
 10
1.289062500000248
 20
0.0000000000011671
 30
0.0
 11
1.234356613404216
 21
0.2269956496113449
 31
0.0
1001
REVIT
1002
{
1070
     2
1000
-2001160
1002
}
  0
LINE
  5
A25
330
9D9
100
AcDbEntity
  8
D35160802
100
AcDbLine
 10
-0.5260989355345149
 20
4.947917086772563
 30
0.0
 11
-0.599016022308322
 21
4.874999999998756
 31
0.0
1001
REVIT
1002
{
1070
     2
1000
-2001160
1002
}
  0
LINE
  5
A26
330
9D9
100
AcDbEntity
  8
D35160802
100
AcDbLine
 10
0.5990160223117659
 20
4.874999999995894
 30
0.0
 11
0.5260989355351104
 21
4.947917086772553
 31
0.0
1001
REVIT
1002
{
1070
     2
1000
-2001160
1002
}
  0
LINE
  5
A27
330
9D9
100
AcDbEntity
  8
D35160802
100
AcDbLine
 10
0.0000000000002824
 20
4.999999999998752
 30
0.0
 11
0.1072974521139267
 21
4.997853764784153
 31
0.0
1001
REVIT
1002
{
1070
     2
1000
-2001160
1002
}
  0
LINE
  5
A28
330
9D9
100
AcDbEntity
  8
D35160802
100
AcDbLine
 10
0.1072974521139267
 20
4.997853764784153
 30
0.0
 11
0.2144232511930912
 21
4.991418492658858
 31
0.0
1001
REVIT
1002
{
1070
     2
1000
-2001160
1002
}
  0
LINE
  5
A29
330
9D9
100
AcDbEntity
  8
D35160802
100
AcDbLine
 10
0.2144232511930912
 20
4.991418492658858
 30
0.0
 11
0.321206018811535
 21
4.980704478685482
 31
0.0
1001
REVIT
1002
{
1070
     2
1000
-2001160
1002
}
  0
LINE
  5
A2A
330
9D9
100
AcDbEntity
  8
D35160802
100
AcDbLine
 10
0.321206018811535
 20
4.980704478685482
 30
0.0
 11
0.427474925320177
 21
4.965728863000851
 31
0.0
1001
REVIT
1002
{
1070
     2
1000
-2001160
1002
}
  0
LINE
  5
A2B
330
9D9
100
AcDbEntity
  8
D35160802
100
AcDbLine
 10
0.427474925320177
 20
4.965728863000851
 30
0.0
 11
0.5260989355350957
 21
4.947917086772555
 31
0.0
1001
REVIT
1002
{
1070
     2
1000
-2001160
1002
}
  0
LINE
  5
A2C
330
9D9
100
AcDbEntity
  8
D35160802
100
AcDbLine
 10
-0.5260989355344989
 20
4.947917086772566
 30
0.0
 11
-0.4204634214090714
 21
4.966850858481666
 31
0.0
1001
REVIT
1002
{
1070
     2
1000
-2001160
1002
}
  0
LINE
  5
A2D
330
9D9
100
AcDbEntity
  8
D35160802
100
AcDbLine
 10
-0.4204634214090714
 20
4.966850858481666
 30
0.0
 11
-0.3141552555034654
 21
4.981545191316555
 31
0.0
1001
REVIT
1002
{
1070
     2
1000
-2001160
1002
}
  0
LINE
  5
A2E
330
9D9
100
AcDbEntity
  8
D35160802
100
AcDbLine
 10
-0.3141552555034654
 20
4.981545191316555
 30
0.0
 11
-0.2073445082052671
 21
4.99197657747932
 31
0.0
1001
REVIT
1002
{
1070
     2
1000
-2001160
1002
}
  0
LINE
  5
A2F
330
9D9
100
AcDbEntity
  8
D35160802
100
AcDbLine
 10
-0.2073445082052671
 20
4.99197657747932
 30
0.0
 11
-0.1002020539250776
 21
4.998128328977346
 31
0.0
1001
REVIT
1002
{
1070
     2
1000
-2001160
1002
}
  0
LINE
  5
A30
330
9D9
100
AcDbEntity
  8
D35160802
100
AcDbLine
 10
-0.1002020539250776
 20
4.998128328977346
 30
0.0
 11
0.0000000000003144
 21
4.999999999998752
 31
0.0
1001
REVIT
1002
{
1070
     2
1000
-2001160
1002
}
  0
LINE
  5
A31
330
9D9
100
AcDbEntity
  8
D35160802
100
AcDbLine
 10
0.3213977351633503
 20
4.494090469112715
 30
0.0
 11
0.4021882452958096
 21
4.393088279874954
 31
0.0
1001
REVIT
1002
{
1070
     2
1000
-2001160
1002
}
  0
LINE
  5
A32
330
9D9
100
AcDbEntity
  8
D35160802
100
AcDbLine
 10
0.4021882452958096
 20
4.393088279874954
 30
0.0
 11
0.4555281280790657
 21
4.311120450699158
 31
0.0
1001
REVIT
1002
{
1070
     2
1000
-2001160
1002
}
  0
LINE
  5
A33
330
9D9
100
AcDbEntity
  8
D35160802
100
AcDbLine
 10
0.4555281280790657
 20
4.311120450699158
 30
0.0
 11
0.4908347825112584
 21
4.247036587537425
 31
0.0
1001
REVIT
1002
{
1070
     2
1000
-2001160
1002
}
  0
LINE
  5
A34
330
9D9
100
AcDbEntity
  8
D35160802
100
AcDbLine
 10
0.4908347825112584
 20
4.247036587537425
 30
0.0
 11
0.5145438917017224
 21
4.197874866328575
 31
0.0
1001
REVIT
1002
{
1070
     2
1000
-2001160
1002
}
  0
LINE
  5
A35
330
9D9
100
AcDbEntity
  8
D35160802
100
AcDbLine
 10
0.5145438917017224
 20
4.197874866328575
 30
0.0
 11
0.5308326180344615
 21
4.160357890964148
 31
0.0
1001
REVIT
1002
{
1070
     2
1000
-2001160
1002
}
  0
LINE
  5
A36
330
9D9
100
AcDbEntity
  8
D35160802
100
AcDbLine
 10
0.5308326180344615
 20
4.160357890964148
 30
0.0
 11
0.5524762642428839
 21
4.10440628116744
 31
0.0
1001
REVIT
1002
{
1070
     2
1000
-2001160
1002
}
  0
LINE
  5
A37
330
9D9
100
AcDbEntity
  8
D35160802
100
AcDbLine
 10
0.5524762642428839
 20
4.10440628116744
 30
0.0
 11
0.5721920852511166
 21
4.045619514397352
 31
0.0
1001
REVIT
1002
{
1070
     2
1000
-2001160
1002
}
  0
LINE
  5
A38
330
9D9
100
AcDbEntity
  8
D35160802
100
AcDbLine
 10
0.5721920852511166
 20
4.045619514397352
 30
0.0
 11
0.5737556135618504
 21
4.040578191393642
 31
0.0
1001
REVIT
1002
{
1070
     2
1000
-2001160
1002
}
  0
LINE
  5
A39
330
9D9
100
AcDbEntity
  8
D35160802
100
AcDbLine
 10
-0.3194867826855651
 20
4.495347347793534
 30
0.0
 11
-0.1568557612585013
 21
4.517753174652686
 31
0.0
1001
REVIT
1002
{
1070
     2
1000
-2001160
1002
}
  0
LINE
  5
A3A
330
9D9
100
AcDbEntity
  8
D35160802
100
AcDbLine
 10
-0.1568557612585013
 20
4.517753174652686
 30
0.0
 11
0.0876145192587723
 21
4.522647390020241
 31
0.0
1001
REVIT
1002
{
1070
     2
1000
-2001160
1002
}
  0
LINE
  5
A3B
330
9D9
100
AcDbEntity
  8
D35160802
100
AcDbLine
 10
0.0876145192587723
 20
4.522647390020241
 30
0.0
 11
0.3194867623119184
 21
4.495347351557851
 31
0.0
1001
REVIT
1002
{
1070
     2
1000
-2001160
1002
}
  0
LINE
  5
A3C
330
9D9
100
AcDbEntity
  8
D35160802
100
AcDbLine
 10
-0.5737556140617665
 20
4.040578189770346
 30
0.0
 11
-0.5620027007574623
 21
4.077059948877793
 31
0.0
1001
REVIT
1002
{
1070
     2
1000
-2001160
1002
}
  0
LINE
  5
A3D
330
9D9
100
AcDbEntity
  8
D35160802
100
AcDbLine
 10
-0.5620027007574623
 20
4.077059948877793
 30
0.0
 11
-0.5369747916415494
 21
4.145257940131175
 31
0.0
1001
REVIT
1002
{
1070
     2
1000
-2001160
1002
}
  0
LINE
  5
A3E
330
9D9
100
AcDbEntity
  8
D35160802
100
AcDbLine
 10
-0.5369747916415494
 20
4.145257940131175
 30
0.0
 11
-0.5149812050676487
 21
4.196911273652655
 31
0.0
1001
REVIT
1002
{
1070
     2
1000
-2001160
1002
}
  0
LINE
  5
A3F
330
9D9
100
AcDbEntity
  8
D35160802
100
AcDbLine
 10
-0.5149812050676487
 20
4.196911273652655
 30
0.0
 11
-0.4720723571149809
 21
4.282266562093855
 31
0.0
1001
REVIT
1002
{
1070
     2
1000
-2001160
1002
}
  0
LINE
  5
A40
330
9D9
100
AcDbEntity
  8
D35160802
100
AcDbLine
 10
-0.4720723571149809
 20
4.282266562093855
 30
0.0
 11
-0.3995675506443108
 21
4.396752134281533
 31
0.0
1001
REVIT
1002
{
1070
     2
1000
-2001160
1002
}
  0
LINE
  5
A41
330
9D9
100
AcDbEntity
  8
D35160802
100
AcDbLine
 10
-0.3995675506443108
 20
4.396752134281533
 30
0.0
 11
-0.3213977686933424
 21
4.494090431671052
 31
0.0
1001
REVIT
1002
{
1070
     2
1000
-2001160
1002
}
  0
LINE
  5
A42
330
9D9
100
AcDbEntity
  8
D35160802
100
AcDbLine
 10
-0.4409830992508205
 20
3.161113320840529
 30
0.0
 11
-0.3867840186263595
 21
3.029736238036131
 31
0.0
1001
REVIT
1002
{
1070
     2
1000
-2001160
1002
}
  0
LINE
  5
A43
330
9D9
100
AcDbEntity
  8
D35160802
100
AcDbLine
 10
0.3867840186269151
 20
3.029736238036123
 30
0.0
 11
0.4409830992513801
 21
3.161113320840518
 31
0.0
1001
REVIT
1002
{
1070
     2
1000
-2001160
1002
}
  0
LINE
  5
A44
330
9D9
100
AcDbEntity
  8
D35160802
100
AcDbLine
 10
-5.106641401109782
 20
0.3261939176309183
 30
0.0
 11
-5.106641401109782
 21
0.2483436452429343
 31
0.0
1001
REVIT
1002
{
1070
     2
1000
-2001160
1002
}
  0
LINE
  5
A45
330
9D9
100
AcDbEntity
  8
D35160802
100
AcDbLine
 10
-2.893358598889724
 20
0.248343645242911
 30
0.0
 11
-2.893358598889723
 21
0.326193917630895
 31
0.0
1001
REVIT
1002
{
1070
     2
1000
-2001160
1002
}
  0
LINE
  5
A46
330
9D9
100
AcDbEntity
  8
D35160802
100
AcDbLine
 10
-2.855247448478595
 20
0.2483436452429104
 30
0.0
 11
-2.85413254317063
 21
0.2483213441631941
 31
0.0
1001
REVIT
1002
{
1070
     2
1000
-2001160
1002
}
  0
LINE
  5
A47
330
9D9
100
AcDbEntity
  8
D35160802
100
AcDbLine
 10
-2.85413254317063
 20
0.2483213441631941
 30
0.0
 11
-2.853019421473325
 21
0.2482544766010161
 31
0.0
1001
REVIT
1002
{
1070
     2
1000
-2001160
1002
}
  0
LINE
  5
A48
330
9D9
100
AcDbEntity
  8
D35160802
100
AcDbLine
 10
-2.853019421473325
 20
0.2482544766010161
 30
0.0
 11
-2.851909864143939
 21
0.2481431495302128
 31
0.0
1001
REVIT
1002
{
1070
     2
1000
-2001160
1002
}
  0
LINE
  5
A49
330
9D9
100
AcDbEntity
  8
D35160802
100
AcDbLine
 10
-2.851909864143939
 20
0.2481431495302128
 30
0.0
 11
-2.85080564623751
 21
0.2479875410503473
 31
0.0
1001
REVIT
1002
{
1070
     2
1000
-2001160
1002
}
  0
LINE
  5
A4A
330
9D9
100
AcDbEntity
  8
D35160802
100
AcDbLine
 10
-2.85080564623751
 20
0.2479875410503473
 30
0.0
 11
-2.849708534267132
 21
0.2477879001017933
 31
0.0
1001
REVIT
1002
{
1070
     2
1000
-2001160
1002
}
  0
LINE
  5
A4B
330
9D9
100
AcDbEntity
  8
D35160802
100
AcDbLine
 10
-2.849708534267132
 20
0.2477879001017933
 30
0.0
 11
-2.84862028337792
 21
0.2475445460674807
 31
0.0
1001
REVIT
1002
{
1070
     2
1000
-2001160
1002
}
  0
LINE
  5
A4C
330
9D9
100
AcDbEntity
  8
D35160802
100
AcDbLine
 10
-2.84862028337792
 20
0.2475445460674807
 30
0.0
 11
-2.84754263453915
 21
0.247257868261951
 31
0.0
1001
REVIT
1002
{
1070
     2
1000
-2001160
1002
}
  0
LINE
  5
A4D
330
9D9
100
AcDbEntity
  8
D35160802
100
AcDbLine
 10
-2.84754263453915
 20
0.247257868261951
 30
0.0
 11
-2.846477311759076
 21
0.2469283253085401
 31
0.0
1001
REVIT
1002
{
1070
     2
1000
-2001160
1002
}
  0
LINE
  5
A4E
330
9D9
100
AcDbEntity
  8
D35160802
100
AcDbLine
 10
-2.846477311759076
 20
0.2469283253085401
 30
0.0
 11
-2.845426019326893
 21
0.2465564444056729
 31
0.0
1001
REVIT
1002
{
1070
     2
1000
-2001160
1002
}
  0
LINE
  5
A4F
330
9D9
100
AcDbEntity
  8
D35160802
100
AcDbLine
 10
-2.845426019326893
 20
0.2465564444056729
 30
0.0
 11
-2.844390439086224
 21
0.2461428204834645
 31
0.0
1001
REVIT
1002
{
1070
     2
1000
-2001160
1002
}
  0
LINE
  5
A50
330
9D9
100
AcDbEntity
  8
D35160802
100
AcDbLine
 10
-2.844390439086224
 20
0.2461428204834645
 30
0.0
 11
-2.843372227744545
 21
0.2456881152519552
 31
0.0
1001
REVIT
1002
{
1070
     2
1000
-2001160
1002
}
  0
LINE
  5
A51
330
9D9
100
AcDbEntity
  8
D35160802
100
AcDbLine
 10
-2.843372227744545
 20
0.2456881152519552
 30
0.0
 11
-2.842373014222794
 21
0.2451930561425159
 31
0.0
1001
REVIT
1002
{
1070
     2
1000
-2001160
1002
}
  0
LINE
  5
A52
330
9D9
100
AcDbEntity
  8
D35160802
100
AcDbLine
 10
-2.842373014222794
 20
0.2451930561425159
 30
0.0
 11
-2.841394397049456
 21
0.2446584351441165
 31
0.0
1001
REVIT
1002
{
1070
     2
1000
-2001160
1002
}
  0
LINE
  5
A53
330
9D9
100
AcDbEntity
  8
D35160802
100
AcDbLine
 10
-2.841394397049456
 20
0.2446584351441165
 30
0.0
 11
-2.840437941803241
 21
0.2440851075363075
 31
0.0
1001
REVIT
1002
{
1070
     2
1000
-2001160
1002
}
  0
LINE
  5
A54
330
9D9
100
AcDbEntity
  8
D35160802
100
AcDbLine
 10
-2.840437941803241
 20
0.2440851075363075
 30
0.0
 11
-2.839505178608515
 21
0.2434739905209566
 31
0.0
1001
REVIT
1002
{
1070
     2
1000
-2001160
1002
}
  0
LINE
  5
A55
330
9D9
100
AcDbEntity
  8
D35160802
100
AcDbLine
 10
-2.839505178608515
 20
0.2434739905209566
 30
0.0
 11
-2.838597599687409
 21
0.2428260617549247
 31
0.0
1001
REVIT
1002
{
1070
     2
1000
-2001160
1002
}
  0
LINE
  5
A56
330
9D9
100
AcDbEntity
  8
D35160802
100
AcDbLine
 10
-2.838597599687409
 20
0.2428260617549247
 30
0.0
 11
-2.837716656972592
 21
0.2421423577860206
 31
0.0
1001
REVIT
1002
{
1070
     2
1000
-2001160
1002
}
  0
LINE
  5
A57
330
9D9
100
AcDbEntity
  8
D35160802
100
AcDbLine
 10
-2.837716656972592
 20
0.2421423577860206
 30
0.0
 11
-2.836863759784481
 21
0.2414239723947453
 31
0.0
1001
REVIT
1002
{
1070
     2
1000
-2001160
1002
}
  0
LINE
  5
A58
330
9D9
100
AcDbEntity
  8
D35160802
100
AcDbLine
 10
-2.836863759784481
 20
0.2414239723947453
 30
0.0
 11
-2.836040272576636
 21
0.2406720548444771
 31
0.0
1001
REVIT
1002
{
1070
     2
1000
-2001160
1002
}
  0
LINE
  5
A59
330
9D9
100
AcDbEntity
  8
D35160802
100
AcDbLine
 10
-2.836040272576636
 20
0.2406720548444771
 30
0.0
 11
-2.835247512752921
 21
0.2398878080428956
 31
0.0
1001
REVIT
1002
{
1070
     2
1000
-2001160
1002
}
  0
LINE
  5
A5A
330
9D9
100
AcDbEntity
  8
D35160802
100
AcDbLine
 10
-2.835247512752921
 20
0.2398878080428956
 30
0.0
 11
-2.834486748559945
 21
0.2390724866175872
 31
0.0
1001
REVIT
1002
{
1070
     2
1000
-2001160
1002
}
  0
LINE
  5
A5B
330
9D9
100
AcDbEntity
  8
D35160802
100
AcDbLine
 10
-2.834486748559945
 20
0.2390724866175872
 30
0.0
 11
-2.833759197058121
 21
0.238227394908905
 31
0.0
1001
REVIT
1002
{
1070
     2
1000
-2001160
1002
}
  0
LINE
  5
A5C
330
9D9
100
AcDbEntity
  8
D35160802
100
AcDbLine
 10
-2.833759197058121
 20
0.238227394908905
 30
0.0
 11
-2.833066022174658
 21
0.2373538848833072
 31
0.0
1001
REVIT
1002
{
1070
     2
1000
-2001160
1002
}
  0
LINE
  5
A5D
330
9D9
100
AcDbEntity
  8
D35160802
100
AcDbLine
 10
-2.833066022174658
 20
0.2373538848833072
 30
0.0
 11
-2.832408332841494
 21
0.2364533539704962
 31
0.0
1001
REVIT
1002
{
1070
     2
1000
-2001160
1002
}
  0
LINE
  5
A5E
330
9D9
100
AcDbEntity
  8
D35160802
100
AcDbLine
 10
-2.832408332841494
 20
0.2364533539704962
 30
0.0
 11
-2.831787181221264
 21
0.2355272428278283
 31
0.0
1001
REVIT
1002
{
1070
     2
1000
-2001160
1002
}
  0
LINE
  5
A5F
330
9D9
100
AcDbEntity
  8
D35160802
100
AcDbLine
 10
-2.831787181221264
 20
0.2355272428278283
 30
0.0
 11
-2.831203561024057
 21
0.2345770330355738
 31
0.0
1001
REVIT
1002
{
1070
     2
1000
-2001160
1002
}
  0
LINE
  5
A60
330
9D9
100
AcDbEntity
  8
D35160802
100
AcDbLine
 10
-2.831203561024057
 20
0.2345770330355738
 30
0.0
 11
-2.830658405917688
 21
0.2336042447266983
 31
0.0
1001
REVIT
1002
{
1070
     2
1000
-2001160
1002
}
  0
LINE
  5
A61
330
9D9
100
AcDbEntity
  8
D35160802
100
AcDbLine
 10
-2.830658405917688
 20
0.2336042447266983
 30
0.0
 11
-2.830152588034034
 21
0.232610434154979
 31
0.0
1001
REVIT
1002
{
1070
     2
1000
-2001160
1002
}
  0
LINE
  5
A62
330
9D9
100
AcDbEntity
  8
D35160802
100
AcDbLine
 10
-2.830152588034034
 20
0.232610434154979
 30
0.0
 11
-2.829686916573804
 21
0.2315971912053289
 31
0.0
1001
REVIT
1002
{
1070
     2
1000
-2001160
1002
}
  0
LINE
  5
A63
330
9D9
100
AcDbEntity
  8
D35160802
100
AcDbLine
 10
-2.829686916573804
 20
0.2315971912053289
 30
0.0
 11
-2.829262136512003
 21
0.2305661368503209
 31
0.0
1001
REVIT
1002
{
1070
     2
1000
-2001160
1002
}
  0
LINE
  5
A64
330
9D9
100
AcDbEntity
  8
D35160802
100
AcDbLine
 10
-2.829262136512003
 20
0.2305661368503209
 30
0.0
 11
-2.828878927406109
 21
0.2295189205569765
 31
0.0
1001
REVIT
1002
{
1070
     2
1000
-2001160
1002
}
  0
LINE
  5
A65
330
9D9
100
AcDbEntity
  8
D35160802
100
AcDbLine
 10
-2.828878927406109
 20
0.2295189205569765
 30
0.0
 11
-2.828537902308946
 21
0.2284572176479711
 31
0.0
1001
REVIT
1002
{
1070
     2
1000
-2001160
1002
}
  0
LINE
  5
A66
330
9D9
100
AcDbEntity
  8
D35160802
100
AcDbLine
 10
-2.828537902308946
 20
0.2284572176479711
 30
0.0
 11
-2.828239606787923
 21
0.227382726621474
 31
0.0
1001
REVIT
1002
{
1070
     2
1000
-2001160
1002
}
  0
LINE
  5
A67
330
9D9
100
AcDbEntity
  8
D35160802
100
AcDbLine
 10
-2.828239606787923
 20
0.227382726621474
 30
0.0
 11
-2.828143386595787
 21
0.2269956496113583
 31
0.0
1001
REVIT
1002
{
1070
     2
1000
-2001160
1002
}
  0
LINE
  5
A68
330
9D9
100
AcDbEntity
  8
D35160802
100
AcDbLine
 10
-5.171856613403719
 20
0.2269956496113822
 30
0.0
 11
-5.171573719868719
 21
0.2280742980396202
 31
0.0
1001
REVIT
1002
{
1070
     2
1000
-2001160
1002
}
  0
LINE
  5
A69
330
9D9
100
AcDbEntity
  8
D35160802
100
AcDbLine
 10
-5.171573719868719
 20
0.2280742980396202
 30
0.0
 11
-5.171247918185906
 21
0.2291407709400548
 31
0.0
1001
REVIT
1002
{
1070
     2
1000
-2001160
1002
}
  0
LINE
  5
A6A
330
9D9
100
AcDbEntity
  8
D35160802
100
AcDbLine
 10
-5.171247918185906
 20
0.2291407709400548
 30
0.0
 11
-5.170879729568471
 21
0.2301933621835474
 31
0.0
1001
REVIT
1002
{
1070
     2
1000
-2001160
1002
}
  0
LINE
  5
A6B
330
9D9
100
AcDbEntity
  8
D35160802
100
AcDbLine
 10
-5.170879729568471
 20
0.2301933621835474
 30
0.0
 11
-5.170469743039662
 21
0.2312303878486505
 31
0.0
1001
REVIT
1002
{
1070
     2
1000
-2001160
1002
}
  0
LINE
  5
A6C
330
9D9
100
AcDbEntity
  8
D35160802
100
AcDbLine
 10
-5.170469743039662
 20
0.2312303878486505
 30
0.0
 11
-5.170018614490465
 21
0.2322501889155179
 31
0.0
1001
REVIT
1002
{
1070
     2
1000
-2001160
1002
}
  0
LINE
  5
A6D
330
9D9
100
AcDbEntity
  8
D35160802
100
AcDbLine
 10
-5.170018614490465
 20
0.2322501889155179
 30
0.0
 11
-5.169527065630322
 21
0.2332511339199898
 31
0.0
1001
REVIT
1002
{
1070
     2
1000
-2001160
1002
}
  0
LINE
  5
A6E
330
9D9
100
AcDbEntity
  8
D35160802
100
AcDbLine
 10
-5.169527065630322
 20
0.2332511339199898
 30
0.0
 11
-5.168995882832551
 21
0.2342316215635831
 31
0.0
1001
REVIT
1002
{
1070
     2
1000
-2001160
1002
}
  0
LINE
  5
A6F
330
9D9
100
AcDbEntity
  8
D35160802
100
AcDbLine
 10
-5.168995882832551
 20
0.2342316215635831
 30
0.0
 11
-5.168425915876317
 21
0.2351900832752267
 31
0.0
1001
REVIT
1002
{
1070
     2
1000
-2001160
1002
}
  0
LINE
  5
A70
330
9D9
100
AcDbEntity
  8
D35160802
100
AcDbLine
 10
-5.168425915876317
 20
0.2351900832752267
 30
0.0
 11
-5.167818076587162
 21
0.2361249857206444
 31
0.0
1001
REVIT
1002
{
1070
     2
1000
-2001160
1002
}
  0
LINE
  5
A71
330
9D9
100
AcDbEntity
  8
D35160802
100
AcDbLine
 10
-5.167818076587162
 20
0.2361249857206444
 30
0.0
 11
-5.167173337378286
 21
0.237034833255356
 31
0.0
1001
REVIT
1002
{
1070
     2
1000
-2001160
1002
}
  0
LINE
  5
A72
330
9D9
100
AcDbEntity
  8
D35160802
100
AcDbLine
 10
-5.167173337378286
 20
0.237034833255356
 30
0.0
 11
-5.166492729694883
 21
0.2379181703173984
 31
0.0
1001
REVIT
1002
{
1070
     2
1000
-2001160
1002
}
  0
LINE
  5
A73
330
9D9
100
AcDbEntity
  8
D35160802
100
AcDbLine
 10
-5.166492729694883
 20
0.2379181703173984
 30
0.0
 11
-5.165777342364058
 21
0.2387735837559075
 31
0.0
1001
REVIT
1002
{
1070
     2
1000
-2001160
1002
}
  0
LINE
  5
A74
330
9D9
100
AcDbEntity
  8
D35160802
100
AcDbLine
 10
-5.165777342364058
 20
0.2387735837559075
 30
0.0
 11
-5.165028319852933
 21
0.2395997050918596
 31
0.0
1001
REVIT
1002
{
1070
     2
1000
-2001160
1002
}
  0
LINE
  5
A75
330
9D9
100
AcDbEntity
  8
D35160802
100
AcDbLine
 10
-5.165028319852933
 20
0.2395997050918596
 30
0.0
 11
-5.164246860437746
 21
0.2403952127073485
 31
0.0
1001
REVIT
1002
{
1070
     2
1000
-2001160
1002
}
  0
LINE
  5
A76
330
9D9
100
AcDbEntity
  8
D35160802
100
AcDbLine
 10
-5.164246860437746
 20
0.2403952127073485
 30
0.0
 11
-5.163434214286854
 21
0.241158833959886
 31
0.0
1001
REVIT
1002
{
1070
     2
1000
-2001160
1002
}
  0
LINE
  5
A77
330
9D9
100
AcDbEntity
  8
D35160802
100
AcDbLine
 10
-5.163434214286854
 20
0.241158833959886
 30
0.0
 11
-5.162591681460746
 21
0.2418893472183665
 31
0.0
1001
REVIT
1002
{
1070
     2
1000
-2001160
1002
}
  0
LINE
  5
A78
330
9D9
100
AcDbEntity
  8
D35160802
100
AcDbLine
 10
-5.162591681460746
 20
0.2418893472183665
 30
0.0
 11
-5.161720609832213
 21
0.2425855838174115
 31
0.0
1001
REVIT
1002
{
1070
     2
1000
-2001160
1002
}
  0
LINE
  5
A79
330
9D9
100
AcDbEntity
  8
D35160802
100
AcDbLine
 10
-5.161720609832213
 20
0.2425855838174115
 30
0.0
 11
-5.16082239293004
 21
0.2432464299269843
 31
0.0
1001
REVIT
1002
{
1070
     2
1000
-2001160
1002
}
  0
LINE
  5
A7A
330
9D9
100
AcDbEntity
  8
D35160802
100
AcDbLine
 10
-5.16082239293004
 20
0.2432464299269843
 30
0.0
 11
-5.159898467709663
 21
0.2438708283342834
 31
0.0
1001
REVIT
1002
{
1070
     2
1000
-2001160
1002
}
  0
LINE
  5
A7B
330
9D9
100
AcDbEntity
  8
D35160802
100
AcDbLine
 10
-5.159898467709663
 20
0.2438708283342834
 30
0.0
 11
-5.158950312254341
 21
0.2444577801350542
 31
0.0
1001
REVIT
1002
{
1070
     2
1000
-2001160
1002
}
  0
LINE
  5
A7C
330
9D9
100
AcDbEntity
  8
D35160802
100
AcDbLine
 10
-5.158950312254341
 20
0.2444577801350542
 30
0.0
 11
-5.15797944341054
 21
0.2450063463316258
 31
0.0
1001
REVIT
1002
{
1070
     2
1000
-2001160
1002
}
  0
LINE
  5
A7D
330
9D9
100
AcDbEntity
  8
D35160802
100
AcDbLine
 10
-5.15797944341054
 20
0.2450063463316258
 30
0.0
 11
-5.156987414361299
 21
0.2455156493351033
 31
0.0
1001
REVIT
1002
{
1070
     2
1000
-2001160
1002
}
  0
LINE
  5
A7E
330
9D9
100
AcDbEntity
  8
D35160802
100
AcDbLine
 10
-5.156987414361299
 20
0.2455156493351033
 30
0.0
 11
-5.155975812141481
 21
0.2459848743693289
 31
0.0
1001
REVIT
1002
{
1070
     2
1000
-2001160
1002
}
  0
LINE
  5
A7F
330
9D9
100
AcDbEntity
  8
D35160802
100
AcDbLine
 10
-5.155975812141481
 20
0.2459848743693289
 30
0.0
 11
-5.154946255098837
 21
0.2464132707743429
 31
0.0
1001
REVIT
1002
{
1070
     2
1000
-2001160
1002
}
  0
LINE
  5
A80
330
9D9
100
AcDbEntity
  8
D35160802
100
AcDbLine
 10
-5.154946255098837
 20
0.2464132707743429
 30
0.0
 11
-5.153900390305009
 21
0.2468001532072843
 31
0.0
1001
REVIT
1002
{
1070
     2
1000
-2001160
1002
}
  0
LINE
  5
A81
330
9D9
100
AcDbEntity
  8
D35160802
100
AcDbLine
 10
-5.153900390305009
 20
0.2468001532072843
 30
0.0
 11
-5.152839890920564
 21
0.2471449027387886
 31
0.0
1001
REVIT
1002
{
1070
     2
1000
-2001160
1002
}
  0
LINE
  5
A82
330
9D9
100
AcDbEntity
  8
D35160802
100
AcDbLine
 10
-5.152839890920564
 20
0.2471449027387886
 30
0.0
 11
-5.151766453518283
 21
0.2474469678431507
 31
0.0
1001
REVIT
1002
{
1070
     2
1000
-2001160
1002
}
  0
LINE
  5
A83
330
9D9
100
AcDbEntity
  8
D35160802
100
AcDbLine
 10
-5.151766453518283
 20
0.2474469678431507
 30
0.0
 11
-5.150681795369028
 21
0.2477058652806392
 31
0.0
1001
REVIT
1002
{
1070
     2
1000
-2001160
1002
}
  0
LINE
  5
A84
330
9D9
100
AcDbEntity
  8
D35160802
100
AcDbLine
 10
-5.150681795369028
 20
0.2477058652806392
 30
0.0
 11
-5.149587651694452
 21
0.2479211808705834
 31
0.0
1001
REVIT
1002
{
1070
     2
1000
-2001160
1002
}
  0
LINE
  5
A85
330
9D9
100
AcDbEntity
  8
D35160802
100
AcDbLine
 10
-5.149587651694452
 20
0.2479211808705834
 30
0.0
 11
-5.148485772891033
 21
0.2480925701539702
 31
0.0
1001
REVIT
1002
{
1070
     2
1000
-2001160
1002
}
  0
LINE
  5
A86
330
9D9
100
AcDbEntity
  8
D35160802
100
AcDbLine
 10
-5.148485772891033
 20
0.2480925701539702
 30
0.0
 11
-5.147377921729798
 21
0.2482197589445078
 31
0.0
1001
REVIT
1002
{
1070
     2
1000
-2001160
1002
}
  0
LINE
  5
A87
330
9D9
100
AcDbEntity
  8
D35160802
100
AcDbLine
 10
-5.147377921729798
 20
0.2482197589445078
 30
0.0
 11
-5.14626587053628
 21
0.2483025437672634
 31
0.0
1001
REVIT
1002
{
1070
     2
1000
-2001160
1002
}
  0
LINE
  5
A88
330
9D9
100
AcDbEntity
  8
D35160802
100
AcDbLine
 10
-5.14626587053628
 20
0.2483025437672634
 30
0.0
 11
-5.14515139835516
 21
0.2483407921841811
 31
0.0
1001
REVIT
1002
{
1070
     2
1000
-2001160
1002
}
  0
LINE
  5
A89
330
9D9
100
AcDbEntity
  8
D35160802
100
AcDbLine
 10
-5.14515139835516
 20
0.2483407921841811
 30
0.0
 11
-5.144752551520912
 21
0.2483436452429337
 31
0.0
1001
REVIT
1002
{
1070
     2
1000
-2001160
1002
}
  0
LINE
  5
A8A
330
9D9
100
AcDbEntity
  8
D35160802
100
AcDbLine
 10
-2.863479780933799
 20
0.2483436452429077
 30
0.0
 11
-5.116761803451212
 21
0.2483436452429297
 31
0.0
1001
REVIT
1002
{
1070
     2
1000
-2001160
1002
}
  0
LINE
  5
A8B
330
9D9
100
AcDbEntity
  8
D35160802
100
AcDbLine
 10
-5.17185661340372
 20
0.2269956496113829
 30
0.0
 11
-5.226562499999758
 21
0.0000000000012064
 31
0.0
1001
REVIT
1002
{
1070
     2
1000
-2001160
1002
}
  0
LINE
  5
A8C
330
9D9
100
AcDbEntity
  8
D35160802
100
AcDbLine
 10
-2.773437499999755
 20
0.0000000000011804
 30
0.0
 11
-2.828143386595787
 21
0.2269956496113589
 31
0.0
1001
REVIT
1002
{
1070
     2
1000
-2001160
1002
}
  0
LINE
  5
A8D
330
9D9
100
AcDbEntity
  8
D35160802
100
AcDbLine
 10
-4.52609893553452
 20
2.854963885287426
 30
0.0
 11
-4.599016022308328
 21
2.782046798513619
 31
0.0
1001
REVIT
1002
{
1070
     2
1000
-2001160
1002
}
  0
LINE
  5
A8E
330
9D9
100
AcDbEntity
  8
D35160802
100
AcDbLine
 10
-3.400983977691126
 20
2.782046798513607
 30
0.0
 11
-3.473901064464933
 21
2.854963885287415
 31
0.0
1001
REVIT
1002
{
1070
     2
1000
-2001160
1002
}
  0
LINE
  5
A8F
330
9D9
100
AcDbEntity
  8
D35160802
100
AcDbLine
 10
-3.999999999999766
 20
2.907046798513616
 30
0.0
 11
-3.892702547886123
 21
2.904900563299015
 31
0.0
1001
REVIT
1002
{
1070
     2
1000
-2001160
1002
}
  0
LINE
  5
A90
330
9D9
100
AcDbEntity
  8
D35160802
100
AcDbLine
 10
-3.892702547886123
 20
2.904900563299015
 30
0.0
 11
-3.785576748806956
 21
2.89846529117372
 31
0.0
1001
REVIT
1002
{
1070
     2
1000
-2001160
1002
}
  0
LINE
  5
A91
330
9D9
100
AcDbEntity
  8
D35160802
100
AcDbLine
 10
-3.785576748806956
 20
2.89846529117372
 30
0.0
 11
-3.678793981188514
 21
2.887751277200345
 31
0.0
1001
REVIT
1002
{
1070
     2
1000
-2001160
1002
}
  0
LINE
  5
A92
330
9D9
100
AcDbEntity
  8
D35160802
100
AcDbLine
 10
-3.678793981188514
 20
2.887751277200345
 30
0.0
 11
-3.572525074679872
 21
2.872775661515714
 31
0.0
1001
REVIT
1002
{
1070
     2
1000
-2001160
1002
}
  0
LINE
  5
A93
330
9D9
100
AcDbEntity
  8
D35160802
100
AcDbLine
 10
-3.572525074679872
 20
2.872775661515714
 30
0.0
 11
-3.473901064464958
 21
2.854963885287419
 31
0.0
1001
REVIT
1002
{
1070
     2
1000
-2001160
1002
}
  0
LINE
  5
A94
330
9D9
100
AcDbEntity
  8
D35160802
100
AcDbLine
 10
-4.526098935534494
 20
2.85496388528743
 30
0.0
 11
-4.420463421409067
 21
2.873897656996529
 31
0.0
1001
REVIT
1002
{
1070
     2
1000
-2001160
1002
}
  0
LINE
  5
A95
330
9D9
100
AcDbEntity
  8
D35160802
100
AcDbLine
 10
-4.420463421409067
 20
2.873897656996529
 30
0.0
 11
-4.314155255503462
 21
2.888591989831418
 31
0.0
1001
REVIT
1002
{
1070
     2
1000
-2001160
1002
}
  0
LINE
  5
A96
330
9D9
100
AcDbEntity
  8
D35160802
100
AcDbLine
 10
-4.314155255503462
 20
2.888591989831418
 30
0.0
 11
-4.207344508205264
 21
2.899023375994183
 31
0.0
1001
REVIT
1002
{
1070
     2
1000
-2001160
1002
}
  0
LINE
  5
A97
330
9D9
100
AcDbEntity
  8
D35160802
100
AcDbLine
 10
-4.207344508205264
 20
2.899023375994183
 30
0.0
 11
-4.100202053925073
 21
2.905175127492209
 31
0.0
1001
REVIT
1002
{
1070
     2
1000
-2001160
1002
}
  0
LINE
  5
A98
330
9D9
100
AcDbEntity
  8
D35160802
100
AcDbLine
 10
-4.100202053925073
 20
2.905175127492209
 30
0.0
 11
-3.999999999999685
 21
2.907046798513616
 31
0.0
1001
REVIT
1002
{
1070
     2
1000
-2001160
1002
}
  0
LINE
  5
A99
330
9D9
100
AcDbEntity
  8
D35160802
100
AcDbLine
 10
-7.229078745690086
 20
2.166803586547832
 30
0.0
 11
-4.315047539954081
 21
2.370572498668847
 31
0.0
1001
REVIT
1002
{
1070
     2
1000
-2001160
1002
}
  0
LINE
  5
A9A
330
9D9
100
AcDbEntity
  8
D35160802
100
AcDbLine
 10
-4.507542642453427
 20
2.653580504305613
 30
0.0
 11
-7.229078745757838
 21
2.843888847598864
 31
0.0
1001
REVIT
1002
{
1070
     2
1000
-2001160
1002
}
  0
LINE
  5
A9B
330
9D9
100
AcDbEntity
  8
D35160802
100
AcDbLine
 10
-7.229078745690089
 20
2.843888847594126
 30
0.0
 11
-7.321330707893207
 21
2.81031187929954
 31
0.0
1001
REVIT
1002
{
1070
     2
1000
-2001160
1002
}
  0
LINE
  5
A9C
330
9D9
100
AcDbEntity
  8
D35160802
100
AcDbLine
 10
-7.32133070789321
 20
2.200380554842419
 30
0.0
 11
-7.229078745690092
 21
2.166803586547832
 31
0.0
1001
REVIT
1002
{
1070
     2
1000
-2001160
1002
}
  0
LINE
  5
A9D
330
9D9
100
AcDbEntity
  8
D35160802
100
AcDbLine
 10
-7.321330707893207
 20
2.200380554842422
 30
0.0
 11
-7.332429262384591
 21
2.239376855979439
 31
0.0
1001
REVIT
1002
{
1070
     2
1000
-2001160
1002
}
  0
LINE
  5
A9E
330
9D9
100
AcDbEntity
  8
D35160802
100
AcDbLine
 10
-7.332429262384591
 20
2.239376855979439
 30
0.0
 11
-7.341959503097952
 21
2.278785788039475
 31
0.0
1001
REVIT
1002
{
1070
     2
1000
-2001160
1002
}
  0
LINE
  5
A9F
330
9D9
100
AcDbEntity
  8
D35160802
100
AcDbLine
 10
-7.341959503097952
 20
2.278785788039475
 30
0.0
 11
-7.349906183681163
 21
2.318544305138023
 31
0.0
1001
REVIT
1002
{
1070
     2
1000
-2001160
1002
}
  0
LINE
  5
AA0
330
9D9
100
AcDbEntity
  8
D35160802
100
AcDbLine
 10
-7.349906183681163
 20
2.318544305138023
 30
0.0
 11
-7.356256591140486
 21
2.358588802129092
 31
0.0
1001
REVIT
1002
{
1070
     2
1000
-2001160
1002
}
  0
LINE
  5
AA1
330
9D9
100
AcDbEntity
  8
D35160802
100
AcDbLine
 10
-7.356256591140486
 20
2.358588802129092
 30
0.0
 11
-7.361000566178671
 21
2.398855216359865
 31
0.0
1001
REVIT
1002
{
1070
     2
1000
-2001160
1002
}
  0
LINE
  5
AA2
330
9D9
100
AcDbEntity
  8
D35160802
100
AcDbLine
 10
-7.361000566178671
 20
2.398855216359865
 30
0.0
 11
-7.364130519447653
 21
2.439279130157284
 31
0.0
1001
REVIT
1002
{
1070
     2
1000
-2001160
1002
}
  0
LINE
  5
AA3
330
9D9
100
AcDbEntity
  8
D35160802
100
AcDbLine
 10
-7.364130519447653
 20
2.439279130157284
 30
0.0
 11
-7.365641443689885
 21
2.479795873882582
 31
0.0
1001
REVIT
1002
{
1070
     2
1000
-2001160
1002
}
  0
LINE
  5
AA4
330
9D9
100
AcDbEntity
  8
D35160802
100
AcDbLine
 10
-7.365641443689885
 20
2.479795873882582
 30
0.0
 11
-7.365792679429516
 21
2.497305571527295
 31
0.0
1001
REVIT
1002
{
1070
     2
1000
-2001160
1002
}
  0
LINE
  5
AA5
330
9D9
100
AcDbEntity
  8
D35160802
100
AcDbLine
 10
-7.365792679429516
 20
2.513386862614665
 30
0.0
 11
-7.364981835365442
 21
2.553923660047009
 31
0.0
1001
REVIT
1002
{
1070
     2
1000
-2001160
1002
}
  0
LINE
  5
AA6
330
9D9
100
AcDbEntity
  8
D35160802
100
AcDbLine
 10
-7.364981835365442
 20
2.553923660047009
 30
0.0
 11
-7.362550600350759
 21
2.59439560725085
 31
0.0
1001
REVIT
1002
{
1070
     2
1000
-2001160
1002
}
  0
LINE
  5
AA7
330
9D9
100
AcDbEntity
  8
D35160802
100
AcDbLine
 10
-7.362550600350759
 20
2.59439560725085
 30
0.0
 11
-7.35850286384285
 21
2.634737957744217
 31
0.0
1001
REVIT
1002
{
1070
     2
1000
-2001160
1002
}
  0
LINE
  5
AA8
330
9D9
100
AcDbEntity
  8
D35160802
100
AcDbLine
 10
-7.35850286384285
 20
2.634737957744217
 30
0.0
 11
-7.352845101356659
 21
2.67488617237223
 31
0.0
1001
REVIT
1002
{
1070
     2
1000
-2001160
1002
}
  0
LINE
  5
AA9
330
9D9
100
AcDbEntity
  8
D35160802
100
AcDbLine
 10
-7.352845101356659
 20
2.67488617237223
 30
0.0
 11
-7.345586364105237
 21
2.714776022555979
 31
0.0
1001
REVIT
1002
{
1070
     2
1000
-2001160
1002
}
  0
LINE
  5
AAA
330
9D9
100
AcDbEntity
  8
D35160802
100
AcDbLine
 10
-7.345586364105237
 20
2.714776022555979
 30
0.0
 11
-7.336738264519742
 21
2.754343693044553
 31
0.0
1001
REVIT
1002
{
1070
     2
1000
-2001160
1002
}
  0
LINE
  5
AAB
330
9D9
100
AcDbEntity
  8
D35160802
100
AcDbLine
 10
-7.336738264519742
 20
2.754343693044553
 30
0.0
 11
-7.326314957672011
 21
2.793525884005819
 31
0.0
1001
REVIT
1002
{
1070
     2
1000
-2001160
1002
}
  0
LINE
  5
AAC
330
9D9
100
AcDbEntity
  8
D35160802
100
AcDbLine
 10
-7.326314957672011
 20
2.793525884005819
 30
0.0
 11
-7.321330707893207
 21
2.810311879299538
 31
0.0
1001
REVIT
1002
{
1070
     2
1000
-2001160
1002
}
  0
LINE
  5
AAD
330
9D9
100
AcDbEntity
  8
D35160802
100
AcDbLine
 10
-7.365792679429516
 20
2.504937957434965
 30
0.0
 11
-7.365792679429516
 21
2.505259409320466
 31
0.0
1001
REVIT
1002
{
1070
     2
1000
-2001160
1002
}
  0
LINE
  5
AAE
330
9D9
100
AcDbEntity
  8
D35160802
100
AcDbLine
 10
7.365792679430059
 20
2.497305571527215
 30
0.0
 11
7.364981835365989
 21
2.456768774094871
 31
0.0
1001
REVIT
1002
{
1070
     2
1000
-2001160
1002
}
  0
LINE
  5
AAF
330
9D9
100
AcDbEntity
  8
D35160802
100
AcDbLine
 10
7.364981835365989
 20
2.456768774094871
 30
0.0
 11
7.362550600351305
 21
2.416296826891028
 31
0.0
1001
REVIT
1002
{
1070
     2
1000
-2001160
1002
}
  0
LINE
  5
AB0
330
9D9
100
AcDbEntity
  8
D35160802
100
AcDbLine
 10
7.362550600351305
 20
2.416296826891028
 30
0.0
 11
7.358502863843396
 21
2.375954476397661
 31
0.0
1001
REVIT
1002
{
1070
     2
1000
-2001160
1002
}
  0
LINE
  5
AB1
330
9D9
100
AcDbEntity
  8
D35160802
100
AcDbLine
 10
7.358502863843396
 20
2.375954476397661
 30
0.0
 11
7.352845101357208
 21
2.335806261769648
 31
0.0
1001
REVIT
1002
{
1070
     2
1000
-2001160
1002
}
  0
LINE
  5
AB2
330
9D9
100
AcDbEntity
  8
D35160802
100
AcDbLine
 10
7.352845101357208
 20
2.335806261769648
 30
0.0
 11
7.345586364105786
 21
2.295916411585899
 31
0.0
1001
REVIT
1002
{
1070
     2
1000
-2001160
1002
}
  0
LINE
  5
AB3
330
9D9
100
AcDbEntity
  8
D35160802
100
AcDbLine
 10
7.345586364105786
 20
2.295916411585899
 30
0.0
 11
7.336738264520288
 21
2.256348741097327
 31
0.0
1001
REVIT
1002
{
1070
     2
1000
-2001160
1002
}
  0
LINE
  5
AB4
330
9D9
100
AcDbEntity
  8
D35160802
100
AcDbLine
 10
7.336738264520288
 20
2.256348741097327
 30
0.0
 11
7.32631495767256
 21
2.21716655013606
 31
0.0
1001
REVIT
1002
{
1070
     2
1000
-2001160
1002
}
  0
LINE
  5
AB5
330
9D9
100
AcDbEntity
  8
D35160802
100
AcDbLine
 10
7.32631495767256
 20
2.21716655013606
 30
0.0
 11
7.321330707893761
 21
2.200380554842356
 31
0.0
1001
REVIT
1002
{
1070
     2
1000
-2001160
1002
}
  0
LINE
  5
AB6
330
9D9
100
AcDbEntity
  8
D35160802
100
AcDbLine
 10
7.321330707893761
 20
2.810311879299514
 30
0.0
 11
7.33242926238514
 21
2.771315578162496
 31
0.0
1001
REVIT
1002
{
1070
     2
1000
-2001160
1002
}
  0
LINE
  5
AB7
330
9D9
100
AcDbEntity
  8
D35160802
100
AcDbLine
 10
7.33242926238514
 20
2.771315578162496
 30
0.0
 11
7.341959503098501
 21
2.73190664610246
 31
0.0
1001
REVIT
1002
{
1070
     2
1000
-2001160
1002
}
  0
LINE
  5
AB8
330
9D9
100
AcDbEntity
  8
D35160802
100
AcDbLine
 10
7.341959503098501
 20
2.73190664610246
 30
0.0
 11
7.349906183681712
 21
2.692148129003911
 31
0.0
1001
REVIT
1002
{
1070
     2
1000
-2001160
1002
}
  0
LINE
  5
AB9
330
9D9
100
AcDbEntity
  8
D35160802
100
AcDbLine
 10
7.349906183681712
 20
2.692148129003911
 30
0.0
 11
7.356256591141034
 21
2.652103632012842
 31
0.0
1001
REVIT
1002
{
1070
     2
1000
-2001160
1002
}
  0
LINE
  5
ABA
330
9D9
100
AcDbEntity
  8
D35160802
100
AcDbLine
 10
7.356256591141034
 20
2.652103632012842
 30
0.0
 11
7.36100056617922
 21
2.611837217782069
 31
0.0
1001
REVIT
1002
{
1070
     2
1000
-2001160
1002
}
  0
LINE
  5
ABB
330
9D9
100
AcDbEntity
  8
D35160802
100
AcDbLine
 10
7.36100056617922
 20
2.611837217782069
 30
0.0
 11
7.364130519448199
 21
2.57141330398465
 31
0.0
1001
REVIT
1002
{
1070
     2
1000
-2001160
1002
}
  0
LINE
  5
ABC
330
9D9
100
AcDbEntity
  8
D35160802
100
AcDbLine
 10
7.364130519448199
 20
2.57141330398465
 30
0.0
 11
7.365641443690434
 21
2.530896560259353
 31
0.0
1001
REVIT
1002
{
1070
     2
1000
-2001160
1002
}
  0
LINE
  5
ABD
330
9D9
100
AcDbEntity
  8
D35160802
100
AcDbLine
 10
7.365641443690434
 20
2.530896560259353
 30
0.0
 11
7.365792679430059
 21
2.513386862614656
 31
0.0
1001
REVIT
1002
{
1070
     2
1000
-2001160
1002
}
  0
LINE
  5
ABE
330
9D9
100
AcDbEntity
  8
D35160802
100
AcDbLine
 10
7.365792679430059
 20
2.505111434062064
 30
0.0
 11
7.365792679430059
 21
2.504790218905409
 31
0.0
1001
REVIT
1002
{
1070
     2
1000
-2001160
1002
}
  0
LINE
  5
ABF
330
9D9
100
AcDbEntity
  8
D35160802
100
AcDbLine
 10
7.321330707893761
 20
2.810311879299386
 30
0.0
 11
7.229078745690638
 21
2.843888847593975
 31
0.0
1001
REVIT
1002
{
1070
     2
1000
-2001160
1002
}
  0
LINE
  5
AC0
330
9D9
100
AcDbEntity
  8
D35160802
100
AcDbLine
 10
7.229078745690638
 20
2.166803586547896
 30
0.0
 11
7.321330707893761
 21
2.200380554842484
 31
0.0
1001
REVIT
1002
{
1070
     2
1000
-2001160
1002
}
  0
LINE
  5
AC1
330
9D9
100
AcDbEntity
  8
D35160802
100
AcDbLine
 10
7.229078745690638
 20
2.843888847593975
 30
0.0
 11
4.507594417410852
 21
2.65358412476319
 31
0.0
1001
REVIT
1002
{
1070
     2
1000
-2001160
1002
}
  0
LINE
  5
AC2
330
9D9
100
AcDbEntity
  8
D35160802
100
AcDbLine
 10
4.315113858704208
 20
2.370567861210156
 30
0.0
 11
7.229078745690638
 21
2.166803586547896
 31
0.0
1001
REVIT
1002
{
1070
     2
1000
-2001160
1002
}
  0
LINE
  5
AC3
330
9D9
100
AcDbEntity
  8
D35160802
100
AcDbLine
 10
5.106641401110281
 20
0.2483436452428291
 30
0.0
 11
5.106641401110281
 21
0.326193917630813
 31
0.0
1001
REVIT
1002
{
1070
     2
1000
-2001160
1002
}
  0
LINE
  5
AC4
330
9D9
100
AcDbEntity
  8
D35160802
100
AcDbLine
 10
2.893358598890224
 20
0.3261939176308357
 30
0.0
 11
2.893358598890224
 21
0.2483436452428517
 31
0.0
1001
REVIT
1002
{
1070
     2
1000
-2001160
1002
}
  0
LINE
  5
AC5
330
9D9
100
AcDbEntity
  8
D35160802
100
AcDbLine
 10
2.828143386596286
 20
0.2269956496113003
 30
0.0
 11
2.828426280131287
 21
0.2280742980395382
 31
0.0
1001
REVIT
1002
{
1070
     2
1000
-2001160
1002
}
  0
LINE
  5
AC6
330
9D9
100
AcDbEntity
  8
D35160802
100
AcDbLine
 10
2.828426280131287
 20
0.2280742980395382
 30
0.0
 11
2.8287520818141
 21
0.2291407709399735
 31
0.0
1001
REVIT
1002
{
1070
     2
1000
-2001160
1002
}
  0
LINE
  5
AC7
330
9D9
100
AcDbEntity
  8
D35160802
100
AcDbLine
 10
2.8287520818141
 20
0.2291407709399735
 30
0.0
 11
2.829120270431534
 21
0.2301933621834661
 31
0.0
1001
REVIT
1002
{
1070
     2
1000
-2001160
1002
}
  0
LINE
  5
AC8
330
9D9
100
AcDbEntity
  8
D35160802
100
AcDbLine
 10
2.829120270431534
 20
0.2301933621834661
 30
0.0
 11
2.829530256960344
 21
0.2312303878485686
 31
0.0
1001
REVIT
1002
{
1070
     2
1000
-2001160
1002
}
  0
LINE
  5
AC9
330
9D9
100
AcDbEntity
  8
D35160802
100
AcDbLine
 10
2.829530256960344
 20
0.2312303878485686
 30
0.0
 11
2.829981385509541
 21
0.232250188915436
 31
0.0
1001
REVIT
1002
{
1070
     2
1000
-2001160
1002
}
  0
LINE
  5
ACA
330
9D9
100
AcDbEntity
  8
D35160802
100
AcDbLine
 10
2.829981385509541
 20
0.232250188915436
 30
0.0
 11
2.830472934369684
 21
0.2332511339199085
 31
0.0
1001
REVIT
1002
{
1070
     2
1000
-2001160
1002
}
  0
LINE
  5
ACB
330
9D9
100
AcDbEntity
  8
D35160802
100
AcDbLine
 10
2.830472934369684
 20
0.2332511339199085
 30
0.0
 11
2.831004117167453
 21
0.2342316215635018
 31
0.0
1001
REVIT
1002
{
1070
     2
1000
-2001160
1002
}
  0
LINE
  5
ACC
330
9D9
100
AcDbEntity
  8
D35160802
100
AcDbLine
 10
2.831004117167453
 20
0.2342316215635018
 30
0.0
 11
2.831574084123687
 21
0.2351900832751461
 31
0.0
1001
REVIT
1002
{
1070
     2
1000
-2001160
1002
}
  0
LINE
  5
ACD
330
9D9
100
AcDbEntity
  8
D35160802
100
AcDbLine
 10
2.831574084123687
 20
0.2351900832751461
 30
0.0
 11
2.832181923412843
 21
0.2361249857205625
 31
0.0
1001
REVIT
1002
{
1070
     2
1000
-2001160
1002
}
  0
LINE
  5
ACE
330
9D9
100
AcDbEntity
  8
D35160802
100
AcDbLine
 10
2.832181923412843
 20
0.2361249857205625
 30
0.0
 11
2.83282666262172
 21
0.237034833255274
 31
0.0
1001
REVIT
1002
{
1070
     2
1000
-2001160
1002
}
  0
LINE
  5
ACF
330
9D9
100
AcDbEntity
  8
D35160802
100
AcDbLine
 10
2.83282666262172
 20
0.237034833255274
 30
0.0
 11
2.833507270305124
 21
0.2379181703173178
 31
0.0
1001
REVIT
1002
{
1070
     2
1000
-2001160
1002
}
  0
LINE
  5
AD0
330
9D9
100
AcDbEntity
  8
D35160802
100
AcDbLine
 10
2.833507270305124
 20
0.2379181703173178
 30
0.0
 11
2.834222657635946
 21
0.2387735837558269
 31
0.0
1001
REVIT
1002
{
1070
     2
1000
-2001160
1002
}
  0
LINE
  5
AD1
330
9D9
100
AcDbEntity
  8
D35160802
100
AcDbLine
 10
2.834222657635946
 20
0.2387735837558269
 30
0.0
 11
2.83497168014707
 21
0.239599705091779
 31
0.0
1001
REVIT
1002
{
1070
     2
1000
-2001160
1002
}
  0
LINE
  5
AD2
330
9D9
100
AcDbEntity
  8
D35160802
100
AcDbLine
 10
2.83497168014707
 20
0.239599705091779
 30
0.0
 11
2.835753139562259
 21
0.2403952127072666
 31
0.0
1001
REVIT
1002
{
1070
     2
1000
-2001160
1002
}
  0
LINE
  5
AD3
330
9D9
100
AcDbEntity
  8
D35160802
100
AcDbLine
 10
2.835753139562259
 20
0.2403952127072666
 30
0.0
 11
2.836565785713151
 21
0.2411588339598047
 31
0.0
1001
REVIT
1002
{
1070
     2
1000
-2001160
1002
}
  0
LINE
  5
AD4
330
9D9
100
AcDbEntity
  8
D35160802
100
AcDbLine
 10
2.836565785713151
 20
0.2411588339598047
 30
0.0
 11
2.83740831853926
 21
0.2418893472182852
 31
0.0
1001
REVIT
1002
{
1070
     2
1000
-2001160
1002
}
  0
LINE
  5
AD5
330
9D9
100
AcDbEntity
  8
D35160802
100
AcDbLine
 10
2.83740831853926
 20
0.2418893472182852
 30
0.0
 11
2.838279390167791
 21
0.2425855838173303
 31
0.0
1001
REVIT
1002
{
1070
     2
1000
-2001160
1002
}
  0
LINE
  5
AD6
330
9D9
100
AcDbEntity
  8
D35160802
100
AcDbLine
 10
2.838279390167791
 20
0.2425855838173303
 30
0.0
 11
2.839177607069965
 21
0.243246429926903
 31
0.0
1001
REVIT
1002
{
1070
     2
1000
-2001160
1002
}
  0
LINE
  5
AD7
330
9D9
100
AcDbEntity
  8
D35160802
100
AcDbLine
 10
2.839177607069965
 20
0.243246429926903
 30
0.0
 11
2.840101532290341
 21
0.2438708283342014
 31
0.0
1001
REVIT
1002
{
1070
     2
1000
-2001160
1002
}
  0
LINE
  5
AD8
330
9D9
100
AcDbEntity
  8
D35160802
100
AcDbLine
 10
2.840101532290341
 20
0.2438708283342014
 30
0.0
 11
2.841049687745664
 21
0.2444577801349729
 31
0.0
1001
REVIT
1002
{
1070
     2
1000
-2001160
1002
}
  0
LINE
  5
AD9
330
9D9
100
AcDbEntity
  8
D35160802
100
AcDbLine
 10
2.841049687745664
 20
0.2444577801349729
 30
0.0
 11
2.842020556589466
 21
0.2450063463315439
 31
0.0
1001
REVIT
1002
{
1070
     2
1000
-2001160
1002
}
  0
LINE
  5
ADA
330
9D9
100
AcDbEntity
  8
D35160802
100
AcDbLine
 10
2.842020556589466
 20
0.2450063463315439
 30
0.0
 11
2.843012585638706
 21
0.2455156493350227
 31
0.0
1001
REVIT
1002
{
1070
     2
1000
-2001160
1002
}
  0
LINE
  5
ADB
330
9D9
100
AcDbEntity
  8
D35160802
100
AcDbLine
 10
2.843012585638706
 20
0.2455156493350227
 30
0.0
 11
2.844024187858524
 21
0.2459848743692476
 31
0.0
1001
REVIT
1002
{
1070
     2
1000
-2001160
1002
}
  0
LINE
  5
ADC
330
9D9
100
AcDbEntity
  8
D35160802
100
AcDbLine
 10
2.844024187858524
 20
0.2459848743692476
 30
0.0
 11
2.845053744901168
 21
0.2464132707742616
 31
0.0
1001
REVIT
1002
{
1070
     2
1000
-2001160
1002
}
  0
LINE
  5
ADD
330
9D9
100
AcDbEntity
  8
D35160802
100
AcDbLine
 10
2.845053744901168
 20
0.2464132707742616
 30
0.0
 11
2.846099609694994
 21
0.2468001532072023
 31
0.0
1001
REVIT
1002
{
1070
     2
1000
-2001160
1002
}
  0
LINE
  5
ADE
330
9D9
100
AcDbEntity
  8
D35160802
100
AcDbLine
 10
2.846099609694994
 20
0.2468001532072023
 30
0.0
 11
2.847160109079441
 21
0.2471449027387073
 31
0.0
1001
REVIT
1002
{
1070
     2
1000
-2001160
1002
}
  0
LINE
  5
ADF
330
9D9
100
AcDbEntity
  8
D35160802
100
AcDbLine
 10
2.847160109079441
 20
0.2471449027387073
 30
0.0
 11
2.848233546481722
 21
0.2474469678430688
 31
0.0
1001
REVIT
1002
{
1070
     2
1000
-2001160
1002
}
  0
LINE
  5
AE0
330
9D9
100
AcDbEntity
  8
D35160802
100
AcDbLine
 10
2.848233546481722
 20
0.2474469678430688
 30
0.0
 11
2.849318204630979
 21
0.2477058652805572
 31
0.0
1001
REVIT
1002
{
1070
     2
1000
-2001160
1002
}
  0
LINE
  5
AE1
330
9D9
100
AcDbEntity
  8
D35160802
100
AcDbLine
 10
2.849318204630979
 20
0.2477058652805572
 30
0.0
 11
2.850412348305554
 21
0.2479211808705021
 31
0.0
1001
REVIT
1002
{
1070
     2
1000
-2001160
1002
}
  0
LINE
  5
AE2
330
9D9
100
AcDbEntity
  8
D35160802
100
AcDbLine
 10
2.850412348305554
 20
0.2479211808705021
 30
0.0
 11
2.851514227108972
 21
0.2480925701538889
 31
0.0
1001
REVIT
1002
{
1070
     2
1000
-2001160
1002
}
  0
LINE
  5
AE3
330
9D9
100
AcDbEntity
  8
D35160802
100
AcDbLine
 10
2.851514227108972
 20
0.2480925701538889
 30
0.0
 11
2.852622078270207
 21
0.2482197589444272
 31
0.0
1001
REVIT
1002
{
1070
     2
1000
-2001160
1002
}
  0
LINE
  5
AE4
330
9D9
100
AcDbEntity
  8
D35160802
100
AcDbLine
 10
2.852622078270207
 20
0.2482197589444272
 30
0.0
 11
2.853734129463724
 21
0.2483025437671828
 31
0.0
1001
REVIT
1002
{
1070
     2
1000
-2001160
1002
}
  0
LINE
  5
AE5
330
9D9
100
AcDbEntity
  8
D35160802
100
AcDbLine
 10
2.853734129463724
 20
0.2483025437671828
 30
0.0
 11
2.854848601644846
 21
0.2483407921840998
 31
0.0
1001
REVIT
1002
{
1070
     2
1000
-2001160
1002
}
  0
LINE
  5
AE6
330
9D9
100
AcDbEntity
  8
D35160802
100
AcDbLine
 10
2.854848601644846
 20
0.2483407921840998
 30
0.0
 11
2.855247448479094
 21
0.2483436452428517
 31
0.0
1001
REVIT
1002
{
1070
     2
1000
-2001160
1002
}
  0
LINE
  5
AE7
330
9D9
100
AcDbEntity
  8
D35160802
100
AcDbLine
 10
5.144752551521411
 20
0.2483436452428284
 30
0.0
 11
5.145867456829379
 21
0.2483213441631129
 31
0.0
1001
REVIT
1002
{
1070
     2
1000
-2001160
1002
}
  0
LINE
  5
AE8
330
9D9
100
AcDbEntity
  8
D35160802
100
AcDbLine
 10
5.145867456829379
 20
0.2483213441631129
 30
0.0
 11
5.146980578526683
 21
0.2482544766009355
 31
0.0
1001
REVIT
1002
{
1070
     2
1000
-2001160
1002
}
  0
LINE
  5
AE9
330
9D9
100
AcDbEntity
  8
D35160802
100
AcDbLine
 10
5.146980578526683
 20
0.2482544766009355
 30
0.0
 11
5.148090135856066
 21
0.2481431495301316
 31
0.0
1001
REVIT
1002
{
1070
     2
1000
-2001160
1002
}
  0
LINE
  5
AEA
330
9D9
100
AcDbEntity
  8
D35160802
100
AcDbLine
 10
5.148090135856066
 20
0.2481431495301316
 30
0.0
 11
5.149194353762495
 21
0.2479875410502661
 31
0.0
1001
REVIT
1002
{
1070
     2
1000
-2001160
1002
}
  0
LINE
  5
AEB
330
9D9
100
AcDbEntity
  8
D35160802
100
AcDbLine
 10
5.149194353762495
 20
0.2479875410502661
 30
0.0
 11
5.150291465732876
 21
0.2477879001017113
 31
0.0
1001
REVIT
1002
{
1070
     2
1000
-2001160
1002
}
  0
LINE
  5
AEC
330
9D9
100
AcDbEntity
  8
D35160802
100
AcDbLine
 10
5.150291465732876
 20
0.2477879001017113
 30
0.0
 11
5.151379716622087
 21
0.2475445460673988
 31
0.0
1001
REVIT
1002
{
1070
     2
1000
-2001160
1002
}
  0
LINE
  5
AED
330
9D9
100
AcDbEntity
  8
D35160802
100
AcDbLine
 10
5.151379716622087
 20
0.2475445460673988
 30
0.0
 11
5.152457365460858
 21
0.2472578682618704
 31
0.0
1001
REVIT
1002
{
1070
     2
1000
-2001160
1002
}
  0
LINE
  5
AEE
330
9D9
100
AcDbEntity
  8
D35160802
100
AcDbLine
 10
5.152457365460858
 20
0.2472578682618704
 30
0.0
 11
5.153522688240929
 21
0.2469283253084582
 31
0.0
1001
REVIT
1002
{
1070
     2
1000
-2001160
1002
}
  0
LINE
  5
AEF
330
9D9
100
AcDbEntity
  8
D35160802
100
AcDbLine
 10
5.153522688240929
 20
0.2469283253084582
 30
0.0
 11
5.154573980673115
 21
0.2465564444055909
 31
0.0
1001
REVIT
1002
{
1070
     2
1000
-2001160
1002
}
  0
LINE
  5
AF0
330
9D9
100
AcDbEntity
  8
D35160802
100
AcDbLine
 10
5.154573980673115
 20
0.2465564444055909
 30
0.0
 11
5.155609560913782
 21
0.2461428204833826
 31
0.0
1001
REVIT
1002
{
1070
     2
1000
-2001160
1002
}
  0
LINE
  5
AF1
330
9D9
100
AcDbEntity
  8
D35160802
100
AcDbLine
 10
5.155609560913782
 20
0.2461428204833826
 30
0.0
 11
5.156627772255463
 21
0.2456881152518732
 31
0.0
1001
REVIT
1002
{
1070
     2
1000
-2001160
1002
}
  0
LINE
  5
AF2
330
9D9
100
AcDbEntity
  8
D35160802
100
AcDbLine
 10
5.156627772255463
 20
0.2456881152518732
 30
0.0
 11
5.157626985777214
 21
0.2451930561424346
 31
0.0
1001
REVIT
1002
{
1070
     2
1000
-2001160
1002
}
  0
LINE
  5
AF3
330
9D9
100
AcDbEntity
  8
D35160802
100
AcDbLine
 10
5.157626985777214
 20
0.2451930561424346
 30
0.0
 11
5.158605602950554
 21
0.2446584351440352
 31
0.0
1001
REVIT
1002
{
1070
     2
1000
-2001160
1002
}
  0
LINE
  5
AF4
330
9D9
100
AcDbEntity
  8
D35160802
100
AcDbLine
 10
5.158605602950554
 20
0.2446584351440352
 30
0.0
 11
5.159562058196765
 21
0.2440851075362255
 31
0.0
1001
REVIT
1002
{
1070
     2
1000
-2001160
1002
}
  0
LINE
  5
AF5
330
9D9
100
AcDbEntity
  8
D35160802
100
AcDbLine
 10
5.159562058196765
 20
0.2440851075362255
 30
0.0
 11
5.160494821391491
 21
0.2434739905208753
 31
0.0
1001
REVIT
1002
{
1070
     2
1000
-2001160
1002
}
  0
LINE
  5
AF6
330
9D9
100
AcDbEntity
  8
D35160802
100
AcDbLine
 10
5.160494821391491
 20
0.2434739905208753
 30
0.0
 11
5.161402400312596
 21
0.2428260617548441
 31
0.0
1001
REVIT
1002
{
1070
     2
1000
-2001160
1002
}
  0
LINE
  5
AF7
330
9D9
100
AcDbEntity
  8
D35160802
100
AcDbLine
 10
5.161402400312596
 20
0.2428260617548441
 30
0.0
 11
5.162283343027414
 21
0.24214235778594
 31
0.0
1001
REVIT
1002
{
1070
     2
1000
-2001160
1002
}
  0
LINE
  5
AF8
330
9D9
100
AcDbEntity
  8
D35160802
100
AcDbLine
 10
5.162283343027414
 20
0.24214235778594
 30
0.0
 11
5.163136240215527
 21
0.2414239723946647
 31
0.0
1001
REVIT
1002
{
1070
     2
1000
-2001160
1002
}
  0
LINE
  5
AF9
330
9D9
100
AcDbEntity
  8
D35160802
100
AcDbLine
 10
5.163136240215527
 20
0.2414239723946647
 30
0.0
 11
5.163959727423372
 21
0.2406720548443959
 31
0.0
1001
REVIT
1002
{
1070
     2
1000
-2001160
1002
}
  0
LINE
  5
AFA
330
9D9
100
AcDbEntity
  8
D35160802
100
AcDbLine
 10
5.163959727423372
 20
0.2406720548443959
 30
0.0
 11
5.164752487247084
 21
0.2398878080428143
 31
0.0
1001
REVIT
1002
{
1070
     2
1000
-2001160
1002
}
  0
LINE
  5
AFB
330
9D9
100
AcDbEntity
  8
D35160802
100
AcDbLine
 10
5.164752487247084
 20
0.2398878080428143
 30
0.0
 11
5.165513251440065
 21
0.2390724866175053
 31
0.0
1001
REVIT
1002
{
1070
     2
1000
-2001160
1002
}
  0
LINE
  5
AFC
330
9D9
100
AcDbEntity
  8
D35160802
100
AcDbLine
 10
5.165513251440065
 20
0.2390724866175053
 30
0.0
 11
5.166240802941885
 21
0.2382273949088231
 31
0.0
1001
REVIT
1002
{
1070
     2
1000
-2001160
1002
}
  0
LINE
  5
AFD
330
9D9
100
AcDbEntity
  8
D35160802
100
AcDbLine
 10
5.166240802941885
 20
0.2382273949088231
 30
0.0
 11
5.166933977825348
 21
0.2373538848832259
 31
0.0
1001
REVIT
1002
{
1070
     2
1000
-2001160
1002
}
  0
LINE
  5
AFE
330
9D9
100
AcDbEntity
  8
D35160802
100
AcDbLine
 10
5.166933977825348
 20
0.2373538848832259
 30
0.0
 11
5.167591667158514
 21
0.2364533539704143
 31
0.0
1001
REVIT
1002
{
1070
     2
1000
-2001160
1002
}
  0
LINE
  5
AFF
330
9D9
100
AcDbEntity
  8
D35160802
100
AcDbLine
 10
5.167591667158514
 20
0.2364533539704143
 30
0.0
 11
5.168212818778741
 21
0.2355272428277477
 31
0.0
1001
REVIT
1002
{
1070
     2
1000
-2001160
1002
}
  0
LINE
  5
B00
330
9D9
100
AcDbEntity
  8
D35160802
100
AcDbLine
 10
5.168212818778741
 20
0.2355272428277477
 30
0.0
 11
5.168796438975948
 21
0.2345770330354925
 31
0.0
1001
REVIT
1002
{
1070
     2
1000
-2001160
1002
}
  0
LINE
  5
B01
330
9D9
100
AcDbEntity
  8
D35160802
100
AcDbLine
 10
5.168796438975948
 20
0.2345770330354925
 30
0.0
 11
5.169341594082317
 21
0.2336042447266164
 31
0.0
1001
REVIT
1002
{
1070
     2
1000
-2001160
1002
}
  0
LINE
  5
B02
330
9D9
100
AcDbEntity
  8
D35160802
100
AcDbLine
 10
5.169341594082317
 20
0.2336042447266164
 30
0.0
 11
5.169847411965975
 21
0.2326104341548971
 31
0.0
1001
REVIT
1002
{
1070
     2
1000
-2001160
1002
}
  0
LINE
  5
B03
330
9D9
100
AcDbEntity
  8
D35160802
100
AcDbLine
 10
5.169847411965975
 20
0.2326104341548971
 30
0.0
 11
5.170313083426202
 21
0.231597191205247
 31
0.0
1001
REVIT
1002
{
1070
     2
1000
-2001160
1002
}
  0
LINE
  5
B04
330
9D9
100
AcDbEntity
  8
D35160802
100
AcDbLine
 10
5.170313083426202
 20
0.231597191205247
 30
0.0
 11
5.170737863488005
 21
0.2305661368502402
 31
0.0
1001
REVIT
1002
{
1070
     2
1000
-2001160
1002
}
  0
LINE
  5
B05
330
9D9
100
AcDbEntity
  8
D35160802
100
AcDbLine
 10
5.170737863488005
 20
0.2305661368502402
 30
0.0
 11
5.171121072593898
 21
0.2295189205568952
 31
0.0
1001
REVIT
1002
{
1070
     2
1000
-2001160
1002
}
  0
LINE
  5
B06
330
9D9
100
AcDbEntity
  8
D35160802
100
AcDbLine
 10
5.171121072593898
 20
0.2295189205568952
 30
0.0
 11
5.171462097691062
 21
0.2284572176478891
 31
0.0
1001
REVIT
1002
{
1070
     2
1000
-2001160
1002
}
  0
LINE
  5
B07
330
9D9
100
AcDbEntity
  8
D35160802
100
AcDbLine
 10
5.171462097691062
 20
0.2284572176478891
 30
0.0
 11
5.171760393212085
 21
0.2273827266213921
 31
0.0
1001
REVIT
1002
{
1070
     2
1000
-2001160
1002
}
  0
LINE
  5
B08
330
9D9
100
AcDbEntity
  8
D35160802
100
AcDbLine
 10
5.171760393212085
 20
0.2273827266213921
 30
0.0
 11
5.171856613404218
 21
0.2269956496112763
 31
0.0
1001
REVIT
1002
{
1070
     2
1000
-2001160
1002
}
  0
LINE
  5
B09
330
9D9
100
AcDbEntity
  8
D35160802
100
AcDbLine
 10
5.121933715644624
 20
0.2483436452428258
 30
0.0
 11
2.861149903264244
 21
0.2483436452428504
 31
0.0
1001
REVIT
1002
{
1070
     2
1000
-2001160
1002
}
  0
LINE
  5
B0A
330
9D9
100
AcDbEntity
  8
D35160802
100
AcDbLine
 10
5.226562500000249
 20
0.0000000000010985
 30
0.0
 11
5.171856613404218
 21
0.226995649611277
 31
0.0
1001
REVIT
1002
{
1070
     2
1000
-2001160
1002
}
  0
LINE
  5
B0B
330
9D9
100
AcDbEntity
  8
D35160802
100
AcDbLine
 10
2.828143386596286
 20
0.2269956496113003
 30
0.0
 11
2.773437500000248
 21
0.0000000000011238
 31
0.0
1001
REVIT
1002
{
1070
     2
1000
-2001160
1002
}
  0
LINE
  5
B0C
330
9D9
100
AcDbEntity
  8
D35160802
100
AcDbLine
 10
4.599016022308879
 20
2.782046798513524
 30
0.0
 11
4.526098935535072
 21
2.854963885287332
 31
0.0
1001
REVIT
1002
{
1070
     2
1000
-2001160
1002
}
  0
LINE
  5
B0D
330
9D9
100
AcDbEntity
  8
D35160802
100
AcDbLine
 10
3.473901064465486
 20
2.854963885287343
 30
0.0
 11
3.400983977691679
 21
2.782046798513536
 31
0.0
1001
REVIT
1002
{
1070
     2
1000
-2001160
1002
}
  0
LINE
  5
B0E
330
9D9
100
AcDbEntity
  8
D35160802
100
AcDbLine
 10
3.473901064465481
 20
2.854963885287343
 30
0.0
 11
3.579536578590909
 21
2.873897656996444
 31
0.0
1001
REVIT
1002
{
1070
     2
1000
-2001160
1002
}
  0
LINE
  5
B0F
330
9D9
100
AcDbEntity
  8
D35160802
100
AcDbLine
 10
3.579536578590909
 20
2.873897656996444
 30
0.0
 11
3.685844744496515
 21
2.888591989831334
 31
0.0
1001
REVIT
1002
{
1070
     2
1000
-2001160
1002
}
  0
LINE
  5
B10
330
9D9
100
AcDbEntity
  8
D35160802
100
AcDbLine
 10
3.685844744496515
 20
2.888591989831334
 30
0.0
 11
3.792655491794712
 21
2.899023375994099
 31
0.0
1001
REVIT
1002
{
1070
     2
1000
-2001160
1002
}
  0
LINE
  5
B11
330
9D9
100
AcDbEntity
  8
D35160802
100
AcDbLine
 10
3.792655491794712
 20
2.899023375994099
 30
0.0
 11
3.899797946074903
 21
2.905175127492126
 31
0.0
1001
REVIT
1002
{
1070
     2
1000
-2001160
1002
}
  0
LINE
  5
B12
330
9D9
100
AcDbEntity
  8
D35160802
100
AcDbLine
 10
3.899797946074903
 20
2.905175127492126
 30
0.0
 11
4.000000000000291
 21
2.907046798513534
 31
0.0
1001
REVIT
1002
{
1070
     2
1000
-2001160
1002
}
  0
LINE
  5
B13
330
9D9
100
AcDbEntity
  8
D35160802
100
AcDbLine
 10
4.00000000000027
 20
2.907046798513534
 30
0.0
 11
4.107297452113914
 21
2.904900563298932
 31
0.0
1001
REVIT
1002
{
1070
     2
1000
-2001160
1002
}
  0
LINE
  5
B14
330
9D9
100
AcDbEntity
  8
D35160802
100
AcDbLine
 10
4.107297452113914
 20
2.904900563298932
 30
0.0
 11
4.214423251193078
 21
2.898465291173636
 31
0.0
1001
REVIT
1002
{
1070
     2
1000
-2001160
1002
}
  0
LINE
  5
B15
330
9D9
100
AcDbEntity
  8
D35160802
100
AcDbLine
 10
4.214423251193078
 20
2.898465291173636
 30
0.0
 11
4.321206018811523
 21
2.887751277200261
 31
0.0
1001
REVIT
1002
{
1070
     2
1000
-2001160
1002
}
  0
LINE
  5
B16
330
9D9
100
AcDbEntity
  8
D35160802
100
AcDbLine
 10
4.321206018811523
 20
2.887751277200261
 30
0.0
 11
4.427474925320164
 21
2.87277566151563
 31
0.0
1001
REVIT
1002
{
1070
     2
1000
-2001160
1002
}
  0
LINE
  5
B17
330
9D9
100
AcDbEntity
  8
D35160802
100
AcDbLine
 10
4.427474925320164
 20
2.87277566151563
 30
0.0
 11
4.52609893553508
 21
2.854963885287333
 31
0.0
1001
REVIT
1002
{
1070
     2
1000
-2001160
1002
}
  0
LINE
  5
B18
330
9D9
100
AcDbEntity
  8
D35160802
100
AcDbLine
 10
-1.169141401109778
 20
0.3261939176309052
 30
0.0
 11
1.169141401110278
 21
0.3261939176308811
 31
0.0
1001
REVIT
1002
{
1070
     2
1000
-2001160
1002
}
  0
LINE
  5
B19
330
9D9
100
AcDbEntity
  8
D35160802
100
AcDbLine
 10
-1.289062499999753
 20
0.0000000000011937
 30
0.0
 11
1.289062500000247
 21
0.0000000000011671
 31
0.0
1001
REVIT
1002
{
1070
     2
1000
-2001160
1002
}
  0
SPLINE
  5
B1A
330
9D9
100
AcDbEntity
  8
D35160802
100
AcDbSpline
210
0.0
220
0.0
230
1.0
 70
     8
 71
     3
 72
     9
 73
     5
 74
     0
 42
0.000000001
 43
0.0000000001
 40
-1.0
 40
-1.0
 40
-1.0
 40
-1.0
 40
-0.5
 40
-0.0691381604940921
 40
-0.0691381604940921
 40
-0.0691381604940921
 40
-0.0691381604940921
 10
0.5938026103418767
 20
4.874999999995884
 30
0.0
 10
0.5469001785149372
 20
4.804833152891341
 30
0.0
 10
0.4590220329778054
 20
4.674460310221849
 30
0.0
 10
0.3703952225111172
 20
4.544568607820571
 30
0.0
 10
0.3293101135036796
 20
4.484549578592138
 30
0.0
1001
REVIT
1002
{
1070
     2
1000
-2001160
1002
}
  0
SPLINE
  5
B1B
330
9D9
100
AcDbEntity
  8
D35160802
100
AcDbSpline
210
0.0
220
0.0
230
1.0
 70
     8
 71
     3
 72
     8
 73
     4
 74
     0
 42
0.000000001
 43
0.0000000001
 40
-0.4540147961475272
 40
-0.4540147961475272
 40
-0.4540147961475272
 40
-0.4540147961475272
 40
0.0
 40
0.0
 40
0.0
 40
0.0
 10
0.4573085706155557
 20
4.306705591191573
 30
0.0
 10
0.5089386456061354
 20
4.284707531707424
 30
0.0
 10
0.5604830157347097
 20
4.262576212623446
 30
0.0
 10
0.611840485054357
 20
4.240311633939638
 30
0.0
1001
REVIT
1002
{
1070
     2
1000
-2001160
1002
}
  0
SPLINE
  5
B1C
330
9D9
100
AcDbEntity
  8
D35160802
100
AcDbSpline
210
0.0
220
0.0
230
1.0
 70
     8
 71
     3
 72
     9
 73
     5
 74
     0
 42
0.000000001
 43
0.0000000001
 40
-1.0
 40
-1.0
 40
-1.0
 40
-1.0
 40
-0.5
 40
-0.1452231665622016
 40
-0.1452231665622016
 40
-0.1452231665622016
 40
-0.1452231665622016
 10
0.2804716348950971
 20
4.874999999995884
 30
0.0
 10
0.2582776631439172
 20
4.804786591218022
 30
0.0
 10
0.218873829299614
 20
4.68503011496752
 30
0.0
 10
0.1791870879794584
 20
4.565747380295863
 30
0.0
 10
0.1629442990797058
 20
4.516320453412336
 30
0.0
1001
REVIT
1002
{
1070
     2
1000
-2001160
1002
}
  0
SPLINE
  5
B1D
330
9D9
100
AcDbEntity
  8
D35160802
100
AcDbSpline
210
0.0
220
0.0
230
1.0
 70
     8
 71
     3
 72
     9
 73
     5
 74
     0
 42
0.000000001
 43
0.0000000001
 40
-1.0
 40
-1.0
 40
-1.0
 40
-1.0
 40
-0.5
 40
-0.1465139625838101
 40
-0.1465139625838101
 40
-0.1465139625838101
 40
-0.1465139625838101
 10
-0.280550023528723
 20
4.874999999995884
 30
0.0
 10
-0.2573986488370118
 20
4.80478669450189
 30
0.0
 10
-0.2188892961958854
 20
4.68521115031082
 30
0.0
 10
-0.1800846966743479
 20
4.566107767515464
 30
0.0
 10
-0.1637332744600796
 20
4.516860028903264
 30
0.0
1001
REVIT
1002
{
1070
     2
1000
-2001160
1002
}
  0
SPLINE
  5
B1E
330
9D9
100
AcDbEntity
  8
D35160802
100
AcDbSpline
210
0.0
220
0.0
230
1.0
 70
     8
 71
     3
 72
     9
 73
     5
 74
     0
 42
0.000000001
 43
0.0000000001
 40
-1.0
 40
-1.0
 40
-1.0
 40
-1.0
 40
-0.5
 40
-0.0691553041211052
 40
-0.0691553041211052
 40
-0.0691553041211052
 40
-0.0691553041211052
 10
-0.5938320385213686
 20
4.874999999995883
 30
0.0
 10
-0.5468958754643542
 20
4.804780766505456
 30
0.0
 10
-0.4589908826003614
 20
4.674361561315397
 30
0.0
 10
-0.3703997819480279
 20
4.544514261328614
 30
0.0
 10
-0.3293448165157639
 20
4.484536509346226
 30
0.0
1001
REVIT
1002
{
1070
     2
1000
-2001160
1002
}
  0
SPLINE
  5
B1F
330
9D9
100
AcDbEntity
  8
D35160802
100
AcDbSpline
210
0.0
220
0.0
230
1.0
 70
     8
 71
     3
 72
     8
 73
     4
 74
     0
 42
0.000000001
 43
0.0000000001
 40
-0.4502504046472432
 40
-0.4502504046472432
 40
-0.4502504046472432
 40
-0.4502504046472432
 40
0.0
 40
0.0
 40
0.0
 40
0.0
 10
-0.4579638013821508
 20
4.306441627681665
 30
0.0
 10
-0.5091990630943211
 20
4.284606682005724
 30
0.0
 10
-0.5605325130173348
 20
4.262563350758382
 30
0.0
 10
-0.6118691040035519
 20
4.240311633939638
 30
0.0
1001
REVIT
1002
{
1070
     2
1000
-2001160
1002
}
  0
LINE
  5
B20
330
9D9
100
AcDbEntity
  8
D35160802
100
AcDbLine
 10
0.4937481524104352
 20
4.240311633939641
 30
0.0
 11
0.6118404850543794
 21
4.240311633939641
 31
0.0
1001
REVIT
1002
{
1070
     2
1000
-2001160
1002
}
  0
SPLINE
  5
B21
330
9D9
100
AcDbEntity
  8
D35160802
100
AcDbSpline
210
0.0
220
0.0
230
1.0
 70
     8
 71
     3
 72
    10
 73
     6
 74
     0
 42
0.000000001
 43
0.0000000001
 40
-1.0
 40
-1.0
 40
-1.0
 40
-1.0
 40
-0.6666666666666666
 40
-0.3333333333333333
 40
0.0
 40
0.0
 40
0.0
 40
0.0
 10
0.6118404850543813
 20
4.240311633939641
 30
0.0
 10
0.6017637955943167
 20
3.800224456598272
 30
0.0
 10
0.6255946334219195
 20
2.919221014092185
 30
0.0
 10
0.7960748067768126
 20
1.608171524575195
 30
0.0
 10
0.9951077960233227
 20
0.7495536005888103
 30
0.0
 10
1.116136812923517
 20
0.3261939176311396
 30
0.0
1001
REVIT
1002
{
1070
     2
1000
-2001160
1002
}
  0
SPLINE
  5
B22
330
9D9
100
AcDbEntity
  8
D35160802
100
AcDbSpline
210
0.0
220
0.0
230
1.0
 70
     8
 71
     3
 72
    10
 73
     6
 74
     0
 42
0.000000001
 43
0.0000000001
 40
-1.0
 40
-1.0
 40
-1.0
 40
-1.0
 40
-0.6666666666666666
 40
-0.3333333333333333
 40
0.0
 40
0.0
 40
0.0
 40
0.0
 10
0.3059620616410697
 20
2.939935212888399
 30
0.0
 10
0.3175243282592008
 20
2.645385779096921
 30
0.0
 10
0.3481536887387931
 20
2.057755948662696
 30
0.0
 10
0.4247540073488789
 20
1.184743577723952
 30
0.0
 10
0.4930165679092376
 20
0.6106235400359826
 30
0.0
 10
0.5327228459216398
 20
0.3261939176311397
 30
0.0
1001
REVIT
1002
{
1070
     2
1000
-2001160
1002
}
  0
LINE
  5
B23
330
9D9
100
AcDbEntity
  8
D35160802
100
AcDbLine
 10
-0.6118691040035609
 20
4.240311633939641
 30
0.0
 11
-0.4972722064348298
 21
4.240311633939641
 31
0.0
1001
REVIT
1002
{
1070
     2
1000
-2001160
1002
}
  0
SPLINE
  5
B24
330
9D9
100
AcDbEntity
  8
D35160802
100
AcDbSpline
210
0.0
220
0.0
230
1.0
 70
     8
 71
     3
 72
    10
 73
     6
 74
     0
 42
0.000000001
 43
0.0000000001
 40
-1.0
 40
-1.0
 40
-1.0
 40
-1.0
 40
-0.6666666666666666
 40
-0.3333333333333333
 40
0.0
 40
0.0
 40
0.0
 40
0.0
 10
-0.3060340080377029
 20
2.939931286023556
 30
0.0
 10
-0.3165197629221979
 20
2.64538252506023
 30
0.0
 10
-0.3488551300706452
 20
2.057753883620585
 30
0.0
 10
-0.4241609703014427
 20
1.184742676549014
 30
0.0
 10
-0.4940830761685733
 20
0.6106232779395337
 30
0.0
 10
-0.5327293851145411
 20
0.3261939176311397
 30
0.0
1001
REVIT
1002
{
1070
     2
1000
-2001160
1002
}
  0
SPLINE
  5
B25
330
9D9
100
AcDbEntity
  8
D35160802
100
AcDbSpline
210
0.0
220
0.0
230
1.0
 70
     8
 71
     3
 72
    10
 73
     6
 74
     0
 42
0.000000001
 43
0.0000000001
 40
-1.0
 40
-1.0
 40
-1.0
 40
-1.0
 40
-0.6666666666666666
 40
-0.3333333333333333
 40
0.0
 40
0.0
 40
0.0
 40
0.0
 10
-0.6118691040035531
 20
4.240311633939641
 30
0.0
 10
-0.6017922133269015
 20
3.80019080204269
 30
0.0
 10
-0.6256406139409466
 20
2.919149904049754
 30
0.0
 10
-0.7960221012384736
 20
1.608616272346539
 30
0.0
 10
-0.9950690782701459
 20
0.749741729586987
 30
0.0
 10
-1.116148217267424
 20
0.326193917631139
 30
0.0
1001
REVIT
1002
{
1070
     2
1000
-2001160
1002
}
  0
LINE
  5
B26
330
9D9
100
AcDbEntity
  8
D35160802
100
AcDbLine
 10
0.5260989355351104
 20
4.947917086772547
 30
0.0
 11
-0.5260989355345153
 21
4.947917086772558
 31
0.0
1001
REVIT
1002
{
1070
     2
1000
-2001160
1002
}
  0
LINE
  5
B27
330
9D9
100
AcDbEntity
  8
D35160802
100
AcDbLine
 10
-0.5990160223083217
 20
4.874999999998751
 30
0.0
 11
0.5990160223117658
 21
4.874999999995889
 31
0.0
1001
REVIT
1002
{
1070
     2
1000
-2001160
1002
}
  0
SPLINE
  5
B28
330
9D9
100
AcDbEntity
  8
D35160802
100
AcDbSpline
210
0.0
220
0.0
230
1.0
 70
     8
 71
     3
 72
     8
 73
     4
 74
     0
 42
0.000000001
 43
0.0000000001
 40
0.9672980800756745
 40
0.9672980800756745
 40
0.9672980800756745
 40
0.9672980800756745
 40
1.0
 40
1.0
 40
1.0
 40
1.0
 10
-0.3619492663223667
 20
3.008889083445761
 30
0.0
 10
-0.3629693949635362
 20
2.982653392967265
 30
0.0
 10
-0.3639895236047059
 20
2.955320674181272
 30
0.0
 10
-0.3650096522458756
 20
2.926848322891533
 30
0.0
1001
REVIT
1002
{
1070
     2
1000
-2001160
1002
}
  0
SPLINE
  5
B29
330
9D9
100
AcDbEntity
  8
D35160802
100
AcDbSpline
210
0.0
220
0.0
230
1.0
 70
     8
 71
     3
 72
     9
 73
     5
 74
     0
 42
0.000000001
 43
0.0000000001
 40
0.0
 40
0.0
 40
0.0
 40
0.0
 40
0.5
 40
1.0
 40
1.0
 40
1.0
 40
1.0
 10
-0.3060340080377029
 20
2.939931286023556
 30
0.0
 10
-0.3161999390325183
 20
2.937842506916424
 30
0.0
 10
-0.3362022127289115
 20
2.93357322695367
 30
0.0
 10
-0.3555239814512157
 20
2.929120524354384
 30
0.0
 10
-0.3650096522458739
 20
2.926848322891536
 30
0.0
1001
REVIT
1002
{
1070
     2
1000
-2001160
1002
}
  0
SPLINE
  5
B2A
330
9D9
100
AcDbEntity
  8
D35160802
100
AcDbSpline
210
0.0
220
0.0
230
1.0
 70
     8
 71
     3
 72
     8
 73
     4
 74
     0
 42
0.000000001
 43
0.0000000001
 40
0.0
 40
0.0
 40
0.0
 40
0.0
 40
0.1196337449369828
 40
0.1196337449369828
 40
0.1196337449369828
 40
0.1196337449369828
 10
0.3059620616410697
 20
2.939935212888399
 30
0.0
 10
0.2820805689272973
 20
2.941219075426045
 30
0.0
 10
0.2580049315886849
 20
2.942349333738235
 30
0.0
 10
0.2337832405626708
 20
2.943325937367665
 30
0.0
1001
REVIT
1002
{
1070
     2
1000
-2001160
1002
}
  0
SPLINE
  5
B2B
330
9D9
100
AcDbEntity
  8
D35160802
100
AcDbSpline
210
0.0
220
0.0
230
1.0
 70
     8
 71
     3
 72
     8
 73
     4
 74
     0
 42
0.000000001
 43
0.0000000001
 40
0.8801423609390051
 40
0.8801423609390051
 40
0.8801423609390051
 40
0.8801423609390051
 40
1.0
 40
1.0
 40
1.0
 40
1.0
 10
-0.2338073883323938
 20
2.943326048546988
 30
0.0
 10
-0.2580491950433486
 20
2.942348493242834
 30
0.0
 10
-0.282140767536923
 20
2.941216918206482
 30
0.0
 10
-0.3060340080377063
 20
2.939931286023556
 30
0.0
1001
REVIT
1002
{
1070
     2
1000
-2001160
1002
}
  0
SPLINE
  5
B2C
330
9D9
100
AcDbEntity
  8
D35160802
100
AcDbSpline
210
0.0
220
0.0
230
1.0
 70
     8
 71
     3
 72
     9
 73
     5
 74
     0
 42
0.000000001
 43
0.0000000001
 40
0.0
 40
0.0
 40
0.0
 40
0.0
 40
0.5
 40
1.0
 40
1.0
 40
1.0
 40
1.0
 10
0.365010401003101
 20
2.926827424476968
 30
0.0
 10
0.355513390399954
 20
2.929103932205165
 30
0.0
 10
0.3361681529957927
 20
2.933565078644424
 30
0.0
 10
0.3161408711579718
 20
2.937842464980951
 30
0.0
 10
0.3059620616410803
 20
2.939935212888399
 30
0.0
1001
REVIT
1002
{
1070
     2
1000
-2001160
1002
}
  0
SPLINE
  5
B2D
330
9D9
100
AcDbEntity
  8
D35160802
100
AcDbSpline
210
0.0
220
0.0
230
1.0
 70
     8
 71
     3
 72
     8
 73
     4
 74
     0
 42
0.000000001
 43
0.0000000001
 40
0.0
 40
0.0
 40
0.0
 40
0.0
 40
0.0333926188460338
 40
0.0333926188460338
 40
0.0333926188460338
 40
0.0333926188460338
 10
0.3650104010030848
 20
2.926827424476968
 30
0.0
 10
0.3639687178384439
 20
2.955901943998066
 30
0.0
 10
0.362927034673803
 20
2.983788152202924
 30
0.0
 10
0.3618853515091622
 20
3.010531411303365
 30
0.0
1001
REVIT
1002
{
1070
     2
1000
-2001160
1002
}
  0
SPLINE
  5
B2E
330
9D9
100
AcDbEntity
  8
D35160802
100
AcDbSpline
210
0.0
220
0.0
230
1.0
 70
     8
 71
     3
 72
     9
 73
     5
 74
     0
 42
0.000000001
 43
0.0000000001
 40
-1.0
 40
-1.0
 40
-1.0
 40
-1.0
 40
-0.6666666666666666
 40
-0.3582878802997542
 40
-0.3582878802997542
 40
-0.3582878802997542
 40
-0.3582878802997542
 10
0.5371416915700972
 20
3.18373214607207
 30
0.0
 10
0.5273368282606866
 20
3.162936707620504
 30
0.0
 10
0.4957683227324666
 20
3.124989833942246
 30
0.0
 10
0.4377489984310933
 20
3.089874665340647
 30
0.0
 10
0.4050508132524337
 20
3.074414198450012
 30
0.0
1001
REVIT
1002
{
1070
     2
1000
-2001160
1002
}
  0
SPLINE
  5
B2F
330
9D9
100
AcDbEntity
  8
D35160802
100
AcDbSpline
210
0.0
220
0.0
230
1.0
 70
     8
 71
     3
 72
     9
 73
     5
 74
     0
 42
0.000000001
 43
0.0000000001
 40
0.0
 40
0.0
 40
0.0
 40
0.0
 40
0.5
 40
1.0
 40
1.0
 40
1.0
 40
1.0
 10
0.6169539511051577
 20
3.252162149945128
 30
0.0
 10
0.5898014144564657
 20
3.221464264724659
 30
0.0
 10
0.5125915763445109
 20
3.13651315261491
 30
0.0
 10
0.4144646177053182
 20
3.00453254985425
 30
0.0
 10
0.3650104010031011
 20
2.926827424476968
 30
0.0
1001
REVIT
1002
{
1070
     2
1000
-2001160
1002
}
  0
SPLINE
  5
B30
330
9D9
100
AcDbEntity
  8
D35160802
100
AcDbSpline
210
0.0
220
0.0
230
1.0
 70
     8
 71
     3
 72
    12
 73
     8
 74
     0
 42
0.000000001
 43
0.0000000001
 40
0.0
 40
0.0
 40
0.0
 40
0.0
 40
0.1
 40
0.2
 40
0.3
 40
0.4
 40
0.5
 40
0.5
 40
0.5
 40
0.5
 10
0.6169539511051371
 20
3.25216214994513
 30
0.0
 10
0.6142935422353788
 20
3.351463316641354
 30
0.0
 10
0.6089727238629378
 20
3.526400762009889
 30
0.0
 10
0.6009915208236471
 20
3.725987841043885
 30
0.0
 10
0.5930102576082322
 20
3.871282326346142
 30
0.0
 10
0.5850290569058698
 20
3.969789193863672
 30
0.0
 10
0.5797082977542347
 20
4.011469305251317
 30
0.0
 10
0.57704774398393
 20
4.025995485310518
 30
0.0
1001
REVIT
1002
{
1070
     2
1000
-2001160
1002
}
  0
SPLINE
  5
B31
330
9D9
100
AcDbEntity
  8
D35160802
100
AcDbSpline
210
0.0
220
0.0
230
1.0
 70
     8
 71
     3
 72
    12
 73
     8
 74
     0
 42
0.000000001
 43
0.0000000001
 40
0.5290920267937564
 40
0.5290920267937564
 40
0.5290920267937564
 40
0.5290920267937564
 40
0.6
 40
0.7
 40
0.8
 40
0.9
 40
1.0
 40
1.0
 40
1.0
 40
1.0
 10
0.574725688890452
 20
4.036970039411654
 30
0.0
 10
0.5728391117104907
 20
4.044421087963677
 30
0.0
 10
0.5682919556426241
 20
4.05329368268567
 30
0.0
 10
0.5610864486168293
 20
4.019280371195629
 30
0.0
 10
0.553116597057476
 20
3.896422988959759
 30
0.0
 10
0.5451198155671247
 20
3.673237619890898
 30
0.0
 10
0.5398010327057161
 20
3.38435296651783
 30
0.0
 10
0.5371416915700972
 20
3.183732146072068
 30
0.0
1001
REVIT
1002
{
1070
     2
1000
-2001160
1002
}
  0
SPLINE
  5
B32
330
9D9
100
AcDbEntity
  8
D35160802
100
AcDbSpline
210
0.0
220
0.0
230
1.0
 70
     8
 71
     3
 72
    10
 73
     6
 74
     0
 42
0.000000001
 43
0.0000000001
 40
-1.0
 40
-1.0
 40
-1.0
 40
-1.0
 40
-0.6666666666666666
 40
-0.3333333333333333
 40
0.0
 40
0.0
 40
0.0
 40
0.0
 10
0.2718832211366231
 20
3.341331882727322
 30
0.0
 10
0.3196089450477777
 20
3.328014404142348
 30
0.0
 10
0.4029315832934007
 20
3.298559778010201
 30
0.0
 10
0.4947338048217249
 20
3.243980222330252
 30
0.0
 10
0.5274047428339736
 20
3.204539326746071
 30
0.0
 10
0.5371416915700973
 20
3.18373214607207
 30
0.0
1001
REVIT
1002
{
1070
     2
1000
-2001160
1002
}
  0
SPLINE
  5
B33
330
9D9
100
AcDbEntity
  8
D35160802
100
AcDbSpline
210
0.0
220
0.0
230
1.0
 70
     8
 71
     3
 72
    13
 73
     9
 74
     0
 42
0.000000001
 43
0.0000000001
 40
0.55
 40
0.55
 40
0.55
 40
0.55
 40
0.6
 40
0.7
 40
0.75
 40
0.8
 40
0.85
 40
0.9
 40
0.9
 40
0.9
 40
0.9
 10
0.3217915772782534
 20
4.493618645161745
 30
0.0
 10
0.319925498869887
 20
4.496033367938537
 30
0.0
 10
0.3142659748535595
 20
4.496111771583227
 30
0.0
 10
0.3069783638799475
 20
4.457066767907845
 30
0.0
 10
0.2995803408928723
 20
4.344646918129876
 30
0.0
 10
0.2940405633045801
 20
4.218828361367366
 30
0.0
 10
0.2885012105803267
 20
4.053971606923916
 30
0.0
 10
0.2848082834033257
 20
3.917922591782706
 30
0.0
 10
0.2829618268512827
 20
3.849118153840713
 30
0.0
1001
REVIT
1002
{
1070
     2
1000
-2001160
1002
}
  0
SPLINE
  5
B34
330
9D9
100
AcDbEntity
  8
D35160802
100
AcDbSpline
210
0.0
220
0.0
230
1.0
 70
     8
 71
     3
 72
     9
 73
     5
 74
     0
 42
0.000000001
 43
0.0000000001
 40
0.9000000016903538
 40
0.9000000016903538
 40
0.9000000016903538
 40
0.9000000016903538
 40
0.95
 40
1.0
 40
1.0
 40
1.0
 40
1.0
 10
0.282961826664013
 20
3.849118146634327
 30
0.0
 10
0.2811153729012918
 20
3.778064123327436
 30
0.0
 10
0.2774224888324363
 20
3.626603541793233
 30
0.0
 10
0.2737296369812887
 20
3.443718364345651
 30
0.0
 10
0.2718832211366231
 20
3.341331882727323
 30
0.0
1001
REVIT
1002
{
1070
     2
1000
-2001160
1002
}
  0
SPLINE
  5
B35
330
9D9
100
AcDbEntity
  8
D35160802
100
AcDbSpline
210
0.0
220
0.0
230
1.0
 70
     8
 71
     3
 72
    10
 73
     6
 74
     0
 42
0.000000001
 43
0.0000000001
 40
-1.0
 40
-1.0
 40
-1.0
 40
-1.0
 40
-0.6666666666666666
 40
-0.3333333333333333
 40
0.0
 40
0.0
 40
0.0
 40
0.0
 10
-0.271883221136101
 20
3.341331882727322
 30
0.0
 10
-0.2129883544653815
 20
3.348838550972982
 30
0.0
 10
-0.0941032246563516
 20
3.358847552871648
 30
0.0
 10
0.093961919917338
 20
3.358857035202094
 30
0.0
 10
0.2129277952918169
 20
3.348842709889845
 30
0.0
 10
0.2718832211366231
 20
3.341331882727323
 30
0.0
1001
REVIT
1002
{
1070
     2
1000
-2001160
1002
}
  0
SPLINE
  5
B36
330
9D9
100
AcDbEntity
  8
D35160802
100
AcDbSpline
210
0.0
220
0.0
230
1.0
 70
     8
 71
     3
 72
    13
 73
     9
 74
     0
 42
0.000000001
 43
0.0000000001
 40
0.55
 40
0.55
 40
0.55
 40
0.55
 40
0.6
 40
0.65
 40
0.7
 40
0.8
 40
0.85
 40
0.8999999980360229
 40
0.8999999980360229
 40
0.8999999980360229
 40
0.8999999980360229
 10
-0.3217853580258879
 20
4.493695034406616
 30
0.0
 10
-0.3199181993257179
 20
4.496123800393792
 30
0.0
 10
-0.3161467997922005
 20
4.496153772918752
 30
0.0
 10
-0.3106499698361564
 20
4.476209692727369
 30
0.0
 10
-0.3032779169423445
 20
4.413599251038211
 30
0.0
 10
-0.2958860002830174
 20
4.274078853140408
 30
0.0
 10
-0.2885011592015417
 20
4.053908092272147
 30
0.0
 10
-0.284808157462382
 20
3.917908013589768
 30
0.0
 10
-0.2829617002804831
 20
3.849113264775877
 30
0.0
1001
REVIT
1002
{
1070
     2
1000
-2001160
1002
}
  0
SPLINE
  5
B37
330
9D9
100
AcDbEntity
  8
D35160802
100
AcDbSpline
210
0.0
220
0.0
230
1.0
 70
     8
 71
     3
 72
     9
 73
     5
 74
     0
 42
0.000000001
 43
0.0000000001
 40
0.9
 40
0.9
 40
0.9
 40
0.9
 40
0.95
 40
1.0
 40
1.0
 40
1.0
 40
1.0
 10
-0.2829617000628992
 20
3.849113256669197
 30
0.0
 10
-0.2811152467942156
 20
3.778065011269952
 30
0.0
 10
-0.2774224413223885
 20
3.626597826362361
 30
0.0
 10
-0.2737296189792369
 20
3.443717130132077
 30
0.0
 10
-0.2718832211361009
 20
3.341331882727322
 30
0.0
1001
REVIT
1002
{
1070
     2
1000
-2001160
1002
}
  0
SPLINE
  5
B38
330
9D9
100
AcDbEntity
  8
D35160802
100
AcDbSpline
210
0.0
220
0.0
230
1.0
 70
     8
 71
     3
 72
    10
 73
     6
 74
     0
 42
0.000000001
 43
0.0000000001
 40
-1.0
 40
-1.0
 40
-1.0
 40
-1.0
 40
-0.6666666666666666
 40
-0.3333333333333333
 40
0.0
 40
0.0
 40
0.0
 40
0.0
 10
-0.5371416916979147
 20
3.183732145791242
 30
0.0
 10
-0.5274123100734799
 20
3.204531470930444
 30
0.0
 10
-0.4947516976606789
 20
3.243961932139581
 30
0.0
 10
-0.4029696649226409
 20
3.298544878035288
 30
0.0
 10
-0.3196253669388091
 20
3.328008035440822
 30
0.0
 10
-0.271883221136101
 20
3.341331882727322
 30
0.0
1001
REVIT
1002
{
1070
     2
1000
-2001160
1002
}
  0
SPLINE
  5
B39
330
9D9
100
AcDbEntity
  8
D35160802
100
AcDbSpline
210
0.0
220
0.0
230
1.0
 70
     8
 71
     3
 72
    12
 73
     8
 74
     0
 42
0.000000001
 43
0.0000000001
 40
0.0
 40
0.0
 40
0.0
 40
0.0
 40
0.1
 40
0.2
 40
0.3
 40
0.4
 40
0.5
 40
0.5
 40
0.5
 40
0.5
 10
-0.616952618084653
 20
3.252211904646558
 30
0.0
 10
-0.6142922536541191
 20
3.351507461831057
 30
0.0
 10
-0.6089715241417042
 20
3.526434917674131
 30
0.0
 10
-0.6009904544120102
 20
3.726010390284618
 30
0.0
 10
-0.5930093244637115
 20
3.871296182172242
 30
0.0
 10
-0.5850282572437592
 20
3.969796830957429
 30
0.0
 10
-0.5797075864964249
 20
4.011474274485863
 30
0.0
 10
-0.5770470775589826
 20
4.025999179187841
 30
0.0
1001
REVIT
1002
{
1070
     2
1000
-2001160
1002
}
  0
SPLINE
  5
B3A
330
9D9
100
AcDbEntity
  8
D35160802
100
AcDbSpline
210
0.0
220
0.0
230
1.0
 70
     8
 71
     3
 72
    12
 73
     8
 74
     0
 42
0.000000001
 43
0.0000000001
 40
0.529081089724027
 40
0.529081089724027
 40
0.529081089724027
 40
0.529081089724027
 40
0.6
 40
0.7
 40
0.8
 40
0.9
 40
1.0
 40
1.0
 40
1.0
 40
1.0
 10
-0.5747259346411943
 20
4.03696917509966
 30
0.0
 10
-0.5728390983444477
 20
4.044421625732779
 30
0.0
 10
-0.5682917277429562
 20
4.053294430205082
 30
0.0
 10
-0.5610860403536498
 20
4.019274057072923
 30
0.0
 10
-0.5531163382236777
 20
3.896424337389753
 30
0.0
 10
-0.5451196015169554
 20
3.673203776434514
 30
0.0
 10
-0.5398011729693244
 20
3.384409151461712
 30
0.0
 10
-0.5371416916979147
 20
3.183732145791242
 30
0.0
1001
REVIT
1002
{
1070
     2
1000
-2001160
1002
}
  0
SPLINE
  5
B3B
330
9D9
100
AcDbEntity
  8
D35160802
100
AcDbSpline
210
0.0
220
0.0
230
1.0
 70
     8
 71
     3
 72
     9
 73
     5
 74
     0
 42
0.000000001
 43
0.0000000001
 40
-0.6323112552013557
 40
-0.6323112552013557
 40
-0.6323112552013557
 40
-0.6323112552013557
 40
-0.3333333333333333
 40
0.0
 40
0.0
 40
0.0
 40
0.0
 10
-0.4081353462428219
 20
3.075805257526469
 30
0.0
 10
-0.4395658030038093
 20
3.09087558472026
 30
0.0
 10
-0.4963604764974715
 20
3.125522968311372
 30
0.0
 10
-0.5273941830351136
 20
3.162926692553544
 30
0.0
 10
-0.5371416916979147
 20
3.183732145791242
 30
0.0
1001
REVIT
1002
{
1070
     2
1000
-2001160
1002
}
  0
SPLINE
  5
B3C
330
9D9
100
AcDbEntity
  8
D35160802
100
AcDbSpline
210
0.0
220
0.0
230
1.0
 70
     8
 71
     3
 72
     9
 73
     5
 74
     0
 42
0.000000001
 43
0.0000000001
 40
0.0
 40
0.0
 40
0.0
 40
0.0
 40
0.5
 40
1.0
 40
1.0
 40
1.0
 40
1.0
 10
-0.3650096522458739
 20
2.926848322891536
 30
0.0
 10
-0.4144642183563338
 20
3.004569127077197
 30
0.0
 10
-0.5126025092121754
 20
3.136570246540927
 30
0.0
 10
-0.5898138079286836
 20
3.221520099486445
 30
0.0
 10
-0.6169526180846527
 20
3.252211904646555
 30
0.0
1001
REVIT
1002
{
1070
     2
1000
-2001160
1002
}
  0
ELLIPSE
  5
B3D
330
9D9
100
AcDbEntity
  8
D35160802
100
AcDbEllipse
 10
0.0000000000002792
 20
3.182394594681541
 30
0.0
 11
0.4453512166981481
 21
0.0
 31
0.0
210
0.0
220
0.0
230
1.0
 40
0.3420201433256739
 41
1.570796326794887
 42
3.403392041388903
1001
REVIT
1002
{
1070
     2
1000
-2001160
1002
}
  0
ELLIPSE
  5
B3E
330
9D9
100
AcDbEntity
  8
D35160802
100
AcDbEllipse
 10
0.0000000000002792
 20
3.182394594681541
 30
0.0
 11
-0.4453512166981481
 21
0.0000000000000044
 31
0.0
210
0.0
220
0.0
230
1.0
 40
0.3420201433256734
 41
2.879793265790638
 42
4.712388980384679
1001
REVIT
1002
{
1070
     2
1000
-2001160
1002
}
  0
ELLIPSE
  5
B3F
330
9D9
100
AcDbEntity
  8
D35160802
100
AcDbEllipse
 10
0.0000000000002779
 20
3.048401934367123
 30
0.0
 11
-0.3906152720757405
 21
0.000000000000004
 31
0.0
210
0.0
220
0.0
230
1.0
 40
0.3420201433256742
 41
4.712388980384685
 42
7.853981633974481
1001
REVIT
1002
{
1070
     2
1000
-2001160
1002
}
  0
ELLIPSE
  5
B40
330
9D9
100
AcDbEntity
  8
D35160802
100
AcDbEllipse
 10
0.0000000000002779
 20
3.048401934367123
 30
0.0
 11
-0.3906152720757408
 21
0.000000000000004
 31
0.0
210
0.0
220
0.0
230
1.0
 40
0.3420201433256728
 41
1.570796326794894
 42
4.712388980384679
1001
REVIT
1002
{
1070
     2
1000
-2001160
1002
}
  0
SPLINE
  5
B41
330
9D9
100
AcDbEntity
  8
D35160802
100
AcDbSpline
210
0.0
220
0.0
230
1.0
 70
     8
 71
     3
 72
     9
 73
     5
 74
     0
 42
0.000000001
 43
0.0000000001
 40
-1.0
 40
-1.0
 40
-1.0
 40
-1.0
 40
-0.5
 40
0.0
 40
0.0
 40
0.0
 40
0.0
 10
-3.406197389658129
 20
2.781893372444196
 30
0.0
 10
-3.453099821485069
 20
2.711726525339654
 30
0.0
 10
-3.547504964984964
 20
2.57167046423966
 30
0.0
 10
-3.642774115036759
 20
2.432169669357846
 30
0.0
 10
-3.690472492942925
 20
2.362558088471484
 30
0.0
1001
REVIT
1002
{
1070
     2
1000
-2001160
1002
}
  0
LINE
  5
B42
330
9D9
100
AcDbEntity
  8
D35160802
100
AcDbLine
 10
-3.729014525284246
 20
2.362558088471484
 30
0.0
 11
-3.729014525284245
 21
2.29238352317902
 31
0.0
1001
REVIT
1002
{
1070
     2
1000
-2001160
1002
}
  0
LINE
  5
B43
330
9D9
100
AcDbEntity
  8
D35160802
100
AcDbLine
 10
-3.729014525284242
 20
2.29238352317902
 30
0.0
 11
-3.709567732414929
 21
2.284245561688082
 31
0.0
1001
REVIT
1002
{
1070
     2
1000
-2001160
1002
}
  0
LINE
  5
B44
330
9D9
100
AcDbEntity
  8
D35160802
100
AcDbLine
 10
-3.709567732414929
 20
2.284245561688082
 30
0.0
 11
-3.690129326963349
 21
2.276087554538168
 31
0.0
1001
REVIT
1002
{
1070
     2
1000
-2001160
1002
}
  0
SPLINE
  5
B45
330
9D9
100
AcDbEntity
  8
D35160802
100
AcDbSpline
210
0.0
220
0.0
230
1.0
 70
     8
 71
     3
 72
     9
 73
     5
 74
     0
 42
0.000000001
 43
0.0000000001
 40
-1.0
 40
-1.0
 40
-1.0
 40
-1.0
 40
-0.5
 40
0.0
 40
0.0
 40
0.0
 40
0.0
 10
-3.719528365104905
 20
2.781893372444195
 30
0.0
 10
-3.741722336856085
 20
2.711679963666335
 30
0.0
 10
-3.787820724532113
 20
2.571577340893023
 30
0.0
 10
-3.834306315407825
 20
2.432123107684528
 30
0.0
 10
-3.856867692114185
 20
2.362558088471483
 30
0.0
1001
REVIT
1002
{
1070
     2
1000
-2001160
1002
}
  0
LINE
  5
B46
330
9D9
100
AcDbEntity
  8
D35160802
100
AcDbLine
 10
-3.875492677839899
 20
2.362558088471484
 30
0.0
 11
-3.875492677839897
 21
2.292383523179019
 31
0.0
1001
REVIT
1002
{
1070
     2
1000
-2001160
1002
}
  0
LINE
  5
B47
330
9D9
100
AcDbEntity
  8
D35160802
100
AcDbLine
 10
-3.875492677839896
 20
2.29238352317902
 30
0.0
 11
-3.866095551948627
 21
2.28424596027488
 31
0.0
1001
REVIT
1002
{
1070
     2
1000
-2001160
1002
}
  0
LINE
  5
B48
330
9D9
100
AcDbEntity
  8
D35160802
100
AcDbLine
 10
-3.866095551948627
 20
2.28424596027488
 30
0.0
 11
-3.856701866564391
 21
2.276087554538168
 31
0.0
1001
REVIT
1002
{
1070
     2
1000
-2001160
1002
}
  0
SPLINE
  5
B49
330
9D9
100
AcDbEntity
  8
D35160802
100
AcDbSpline
210
0.0
220
0.0
230
1.0
 70
     8
 71
     3
 72
     9
 73
     5
 74
     0
 42
0.000000001
 43
0.0000000001
 40
-1.0
 40
-1.0
 40
-1.0
 40
-1.0
 40
-0.5
 40
0.0
 40
0.0
 40
0.0
 40
0.0
 10
-4.280550023528719
 20
2.781893372444195
 30
0.0
 10
-4.257398648837008
 20
2.711680066950203
 30
0.0
 10
-4.212278575452203
 20
2.571577547460759
 30
0.0
 10
-4.166753187254366
 20
2.432123210968395
 30
0.0
 10
-4.143240576044918
 20
2.362558088471483
 30
0.0
1001
REVIT
1002
{
1070
     2
1000
-2001160
1002
}
  0
SPLINE
  5
B4A
330
9D9
100
AcDbEntity
  8
D35160802
100
AcDbSpline
210
0.0
220
0.0
230
1.0
 70
     8
 71
     3
 72
    37
 73
    33
 74
     0
 42
0.000000001
 43
0.0000000001
 40
0.0
 40
0.0
 40
0.0
 40
0.0
 40
0.0555555555555556
 40
0.0833333333333333
 40
0.1111111111111111
 40
0.1388888888888889
 40
0.1666666666666666
 40
0.1944444444444444
 40
0.2222222222222222
 40
0.25
 40
0.2777777777777778
 40
0.3333333333333333
 40
0.3888888888888888
 40
0.4166666666666666
 40
0.4444444444444445
 40
0.4791666666666666
 40
0.5138888888888889
 40
0.5486111111111111
 40
0.5659722222222222
 40
0.5833333333333333
 40
0.6527777777777777
 40
0.6701388888888889
 40
0.6875
 40
0.7222222222222223
 40
0.7569444444444445
 40
0.7743055555555556
 40
0.7916666666666668
 40
0.8263888888888889
 40
0.861111111111111
 40
0.8958333333333333
 40
0.9305555555555555
 40
1.0
 40
1.0
 40
1.0
 40
1.0
 10
-4.507570280717031
 20
2.653582414095887
 30
0.0
 10
-4.504669642153798
 20
2.653033248785891
 30
0.0
 10
-4.499695091599288
 20
2.651350805857273
 30
0.0
 10
-4.491885871344901
 20
2.647365774806115
 30
0.0
 10
-4.485497743456108
 20
2.643554882382753
 30
0.0
 10
-4.478457601896586
 20
2.638726799738365
 30
0.0
 10
-4.470815435166375
 20
2.632922526977781
 30
0.0
 10
-4.462781733915001
 20
2.626403306923636
 30
0.0
 10
-4.454592230805082
 20
2.619464201116175
 30
0.0
 10
-4.446220190468091
 20
2.612044753507379
 30
0.0
 10
-4.434648429747237
 20
2.601257875261965
 30
0.0
 10
-4.419959373706151
 20
2.586732128191632
 30
0.0
 10
-4.40510220827151
 20
2.570991409326064
 30
0.0
 10
-4.393185450207008
 20
2.557614160959685
 30
0.0
 10
-4.383721039226332
 20
2.546511096957649
 30
0.0
 10
-4.373603745621018
 20
2.534137214469843
 30
0.0
 10
-4.36288005484194
 20
2.520373155197227
 30
0.0
 10
-4.354367667647343
 20
2.508687244312796
 30
0.0
 10
-4.347954542330893
 20
2.499295238036843
 30
0.0
 10
-4.338324890524609
 20
2.484855223685149
 30
0.0
 10
-4.329148268147867
 20
2.469908500847479
 30
0.0
 10
-4.321896686218115
 20
2.455814811350161
 30
0.0
 10
-4.317305901822944
 20
2.446324140838734
 30
0.0
 10
-4.312003185794008
 20
2.434336461109352
 30
0.0
 10
-4.307790444177565
 20
2.422953725426424
 30
0.0
 10
-4.305350990992613
 20
2.414679325378609
 30
0.0
 10
-4.303572929300235
 20
2.406970993339784
 30
0.0
 10
-4.302195814726752
 20
2.397677007155718
 30
0.0
 10
-4.301953081003933
 20
2.387961673853773
 30
0.0
 10
-4.30314907803372
 20
2.380508914299142
 30
0.0
 10
-4.306618969401331
 20
2.373407425807845
 30
0.0
 10
-4.311206473927949
 20
2.370923868359196
 30
0.0
 10
-4.315081997098565
 20
2.370570123564397
 30
0.0
1001
REVIT
1002
{
1070
     2
1000
-2001160
1002
}
  0
LINE
  5
B4B
330
9D9
100
AcDbEntity
  8
D35160802
100
AcDbLine
 10
-4.309572013129792
 20
2.362558088471484
 30
0.0
 11
-3.690472492942928
 21
2.362558088471484
 31
0.0
1001
REVIT
1002
{
1070
     2
1000
-2001160
1002
}
  0
LINE
  5
B4C
330
9D9
100
AcDbEntity
  8
D35160802
100
AcDbLine
 10
-4.124618509907464
 20
2.362558088471484
 30
0.0
 11
-4.124618509907465
 21
2.292383523179019
 31
0.0
1001
REVIT
1002
{
1070
     2
1000
-2001160
1002
}
  0
LINE
  5
B4D
330
9D9
100
AcDbEntity
  8
D35160802
100
AcDbLine
 10
-4.124618509907467
 20
2.292383523179019
 30
0.0
 11
-4.13401421305094
 21
2.284245958459134
 31
0.0
1001
REVIT
1002
{
1070
     2
1000
-2001160
1002
}
  0
LINE
  5
B4E
330
9D9
100
AcDbEntity
  8
D35160802
100
AcDbLine
 10
-4.13401421305094
 20
2.284245958459134
 30
0.0
 11
-4.143406373913296
 21
2.276087554538168
 31
0.0
1001
REVIT
1002
{
1070
     2
1000
-2001160
1002
}
  0
LINE
  5
B4F
330
9D9
100
AcDbEntity
  8
D35160802
100
AcDbLine
 10
-4.315081997098659
 20
2.370570123564541
 30
0.0
 11
-4.309572013129886
 21
2.362558088471631
 31
0.0
1001
REVIT
1002
{
1070
     2
1000
-2001160
1002
}
  0
SPLINE
  5
B50
330
9D9
100
AcDbEntity
  8
D35160802
100
AcDbSpline
210
0.0
220
0.0
230
1.0
 70
     8
 71
     3
 72
     8
 73
     4
 74
     0
 42
0.000000001
 43
0.0000000001
 40
0.0
 40
0.0
 40
0.0
 40
0.0
 40
0.000199540489224
 40
0.000199540489224
 40
0.000199540489224
 40
0.000199540489224
 10
-4.315081997098566
 20
2.370570123564398
 30
0.0
 10
-4.315070818136757
 20
2.370571093989819
 30
0.0
 10
-4.315059645903411
 20
2.370572075008112
 30
0.0
 10
-4.315048480400344
 20
2.370573066620033
 30
0.0
1001
REVIT
1002
{
1070
     2
1000
-2001160
1002
}
  0
SPLINE
  5
B51
330
9D9
100
AcDbEntity
  8
D35160802
100
AcDbSpline
210
0.0
220
0.0
230
1.0
 70
     8
 71
     3
 72
     8
 73
     4
 74
     0
 42
0.000000001
 43
0.0000000001
 40
0.9998280028047252
 40
0.9998280028047252
 40
0.9998280028047252
 40
0.9998280028047252
 40
1.0
 40
1.0
 40
1.0
 40
1.0
 10
-4.50754334453142
 20
2.653577383058003
 30
0.0
 10
-4.507552327267708
 20
2.653579065590679
 30
0.0
 10
-4.507561305996522
 20
2.653580742603283
 30
0.0
 10
-4.507570280717032
 20
2.653582414095887
 30
0.0
1001
REVIT
1002
{
1070
     2
1000
-2001160
1002
}
  0
LINE
  5
B52
330
9D9
100
AcDbEntity
  8
D35160802
100
AcDbLine
 10
-4.593832038521362
 20
2.781893372444195
 30
0.0
 11
-4.550743727054937
 21
2.717711018020337
 31
0.0
1001
REVIT
1002
{
1070
     2
1000
-2001160
1002
}
  0
LINE
  5
B53
330
9D9
100
AcDbEntity
  8
D35160802
100
AcDbLine
 10
-4.550743727054937
 20
2.717711018020337
 30
0.0
 11
-4.507570280717032
 21
2.653582414095887
 31
0.0
1001
REVIT
1002
{
1070
     2
1000
-2001160
1002
}
  0
LINE
  5
B54
330
9D9
100
AcDbEntity
  8
D35160802
100
AcDbLine
 10
-4.271032353876518
 20
2.362558088471483
 30
0.0
 11
-4.271032353876519
 21
2.292383523179019
 31
0.0
1001
REVIT
1002
{
1070
     2
1000
-2001160
1002
}
  0
LINE
  5
B55
330
9D9
100
AcDbEntity
  8
D35160802
100
AcDbLine
 10
-4.27103235387652
 20
2.292383523179019
 30
0.0
 11
-4.29047644282315
 21
2.284246189763017
 31
0.0
1001
REVIT
1002
{
1070
     2
1000
-2001160
1002
}
  0
LINE
  5
B56
330
9D9
100
AcDbEntity
  8
D35160802
100
AcDbLine
 10
-4.29047644282315
 20
2.284246189763017
 30
0.0
 11
-4.309915158277154
 21
2.276087554538167
 31
0.0
1001
REVIT
1002
{
1070
     2
1000
-2001160
1002
}
  0
LINE
  5
B57
330
9D9
100
AcDbEntity
  8
D35160802
100
AcDbLine
 10
-3.690129326963349
 20
2.276087554538169
 30
0.0
 11
-3.671841535270356
 21
2.194773601476233
 31
0.0
1001
REVIT
1002
{
1070
     2
1000
-2001160
1002
}
  0
LINE
  5
B58
330
9D9
100
AcDbEntity
  8
D35160802
100
AcDbLine
 10
-3.671841535270356
 20
2.194773601476233
 30
0.0
 11
-3.653595073756693
 21
2.113450363927593
 31
0.0
1001
REVIT
1002
{
1070
     2
1000
-2001160
1002
}
  0
SPLINE
  5
B59
330
9D9
100
AcDbEntity
  8
D35160802
100
AcDbSpline
210
0.0
220
0.0
230
1.0
 70
     8
 71
     3
 72
    10
 73
     6
 74
     0
 42
0.000000001
 43
0.0000000001
 40
-1.0
 40
-1.0
 40
-1.0
 40
-1.0
 40
-0.6666666666666666
 40
-0.3333333333333333
 40
0.0
 40
0.0
 40
0.0
 40
0.0
 10
-3.653595073756688
 20
2.113450363927618
 30
0.0
 10
-3.628012416830221
 20
1.898930108104125
 30
0.0
 10
-3.540818921928925
 20
1.474447851066978
 30
0.0
 10
-3.299948956058547
 20
0.8702696376083244
 30
0.0
 10
-3.074865842130655
 20
0.5002818240263715
 30
0.0
 10
-2.947326079326875
 20
0.326193917630937
 30
0.0
1001
REVIT
1002
{
1070
     2
1000
-2001160
1002
}
  0
LINE
  5
B5A
330
9D9
100
AcDbEntity
  8
D35160802
100
AcDbLine
 10
-3.856701866564391
 20
2.276087554538168
 30
0.0
 11
-3.847864918502514
 21
2.194773514159828
 31
0.0
1001
REVIT
1002
{
1070
     2
1000
-2001160
1002
}
  0
LINE
  5
B5B
330
9D9
100
AcDbEntity
  8
D35160802
100
AcDbLine
 10
-3.847864918502514
 20
2.194773514159828
 30
0.0
 11
-3.839048224441011
 21
2.113450363927592
 31
0.0
1001
REVIT
1002
{
1070
     2
1000
-2001160
1002
}
  0
SPLINE
  5
B5C
330
9D9
100
AcDbEntity
  8
D35160802
100
AcDbSpline
210
0.0
220
0.0
230
1.0
 70
     8
 71
     3
 72
    10
 73
     6
 74
     0
 42
0.000000001
 43
0.0000000001
 40
-1.0
 40
-1.0
 40
-1.0
 40
-1.0
 40
-0.6666666666666666
 40
-0.3333333333333333
 40
0.0
 40
0.0
 40
0.0
 40
0.0
 10
-3.839048224441011
 20
2.113450363927618
 30
0.0
 10
-3.824633536050902
 20
1.898811700754697
 30
0.0
 10
-3.785591652983785
 20
1.474224625891946
 30
0.0
 10
-3.667733346912535
 20
0.8717351170157328
 30
0.0
 10
-3.560836656773788
 20
0.5008468497766068
 30
0.0
 10
-3.497920932225724
 20
0.3261939176309382
 30
0.0
1001
REVIT
1002
{
1070
     2
1000
-2001160
1002
}
  0
LINE
  5
B5D
330
9D9
100
AcDbEntity
  8
D35160802
100
AcDbLine
 10
-4.309915158277155
 20
2.276087554538168
 30
0.0
 11
-3.690129326963351
 21
2.276087554538169
 31
0.0
1001
REVIT
1002
{
1070
     2
1000
-2001160
1002
}
  0
LINE
  5
B5E
330
9D9
100
AcDbEntity
  8
D35160802
100
AcDbLine
 10
-4.143406373913296
 20
2.276087554538168
 30
0.0
 11
-4.152241807278231
 21
2.194773511539308
 31
0.0
1001
REVIT
1002
{
1070
     2
1000
-2001160
1002
}
  0
LINE
  5
B5F
330
9D9
100
AcDbEntity
  8
D35160802
100
AcDbLine
 10
-4.152241807278231
 20
2.194773511539308
 30
0.0
 11
-4.161056915362594
 21
2.113450363927592
 31
0.0
1001
REVIT
1002
{
1070
     2
1000
-2001160
1002
}
  0
SPLINE
  5
B60
330
9D9
100
AcDbEntity
  8
D35160802
100
AcDbSpline
210
0.0
220
0.0
230
1.0
 70
     8
 71
     3
 72
    10
 73
     6
 74
     0
 42
0.000000001
 43
0.0000000001
 40
-1.0
 40
-1.0
 40
-1.0
 40
-1.0
 40
-0.6666666666666666
 40
-0.3333333333333333
 40
0.0
 40
0.0
 40
0.0
 40
0.0
 10
-4.161056915362595
 20
2.113450363927618
 30
0.0
 10
-4.171360330949885
 20
1.898812589159496
 30
0.0
 10
-4.216721066565459
 20
1.474226758194811
 30
0.0
 10
-4.330731113486008
 20
0.8717406741700665
 30
0.0
 10
-4.441451907867243
 20
0.5008490003663249
 30
0.0
 10
-4.502094898420466
 20
0.3261939176309365
 30
0.0
1001
REVIT
1002
{
1070
     2
1000
-2001160
1002
}
  0
LINE
  5
B61
330
9D9
100
AcDbEntity
  8
D35160802
100
AcDbLine
 10
-4.346447226802577
 20
2.113450363927618
 30
0.0
 11
-3.65359507375669
 21
2.113450363927618
 31
0.0
1001
REVIT
1002
{
1070
     2
1000
-2001160
1002
}
  0
LINE
  5
B62
330
9D9
100
AcDbEntity
  8
D35160802
100
AcDbLine
 10
-4.309915158277155
 20
2.276087554538168
 30
0.0
 11
-4.328201845843958
 21
2.194773615753975
 31
0.0
1001
REVIT
1002
{
1070
     2
1000
-2001160
1002
}
  0
LINE
  5
B63
330
9D9
100
AcDbEntity
  8
D35160802
100
AcDbLine
 10
-4.328201845843958
 20
2.194773615753975
 30
0.0
 11
-4.346447226802575
 21
2.113450363927592
 31
0.0
1001
REVIT
1002
{
1070
     2
1000
-2001160
1002
}
  0
SPLINE
  5
B64
330
9D9
100
AcDbEntity
  8
D35160802
100
AcDbSpline
210
0.0
220
0.0
230
1.0
 70
     8
 71
     3
 72
    10
 73
     6
 74
     0
 42
0.000000001
 43
0.0000000001
 40
-1.0
 40
-1.0
 40
-1.0
 40
-1.0
 40
-0.6666666666666666
 40
-0.3333333333333333
 40
0.0
 40
0.0
 40
0.0
 40
0.0
 10
-4.346447226802562
 20
2.113450363927617
 30
0.0
 10
-4.372043455242764
 20
1.898806631291536
 30
0.0
 10
-4.459366289165948
 20
1.474213546385516
 30
0.0
 10
-4.699388738722171
 20
0.8717427976706305
 30
0.0
 10
-4.924732855271114
 20
0.5008497836745994
 30
0.0
 10
-5.052687025029523
 20
0.3261939176309379
 30
0.0
1001
REVIT
1002
{
1070
     2
1000
-2001160
1002
}
  0
LINE
  5
B65
330
9D9
100
AcDbEntity
  8
D35160802
100
AcDbLine
 10
-5.106641401109777
 20
0.3261939176309178
 30
0.0
 11
-2.893358598889721
 21
0.326193917630895
 31
0.0
1001
REVIT
1002
{
1070
     2
1000
-2001160
1002
}
  0
LINE
  5
B66
330
9D9
100
AcDbEntity
  8
D35160802
100
AcDbLine
 10
-5.226562499999753
 20
0.0000000000012064
 30
0.0
 11
-2.773437499999752
 21
0.0000000000011812
 31
0.0
1001
REVIT
1002
{
1070
     2
1000
-2001160
1002
}
  0
LINE
  5
B67
330
9D9
100
AcDbEntity
  8
D35160802
100
AcDbLine
 10
-3.473901064464929
 20
2.854963885287412
 30
0.0
 11
-4.526098935534516
 21
2.854963885287423
 31
0.0
1001
REVIT
1002
{
1070
     2
1000
-2001160
1002
}
  0
LINE
  5
B68
330
9D9
100
AcDbEntity
  8
D35160802
100
AcDbLine
 10
-4.599016022308323
 20
2.782046798513616
 30
0.0
 11
-3.400983977691124
 21
2.782046798513603
 31
0.0
1001
REVIT
1002
{
1070
     2
1000
-2001160
1002
}
  0
LINE
  5
B69
330
9D9
100
AcDbEntity
  8
D35160802
100
AcDbLine
 10
-7.229078745690081
 20
2.843888847594123
 30
0.0
 11
-7.229078745690084
 21
2.166803586547831
 31
0.0
1001
REVIT
1002
{
1070
     2
1000
-2001160
1002
}
  0
LINE
  5
B6A
330
9D9
100
AcDbEntity
  8
D35160802
100
AcDbLine
 10
-7.321330707893197
 20
2.810311879299534
 30
0.0
 11
-7.3213307078932
 21
2.20038055484242
 31
0.0
1001
REVIT
1002
{
1070
     2
1000
-2001160
1002
}
  0
LINE
  5
B6B
330
9D9
100
AcDbEntity
  8
D35160802
100
AcDbLine
 10
7.321330707893752
 20
2.810311879299383
 30
0.0
 11
7.321330707893749
 21
2.200380554842482
 31
0.0
1001
REVIT
1002
{
1070
     2
1000
-2001160
1002
}
  0
LINE
  5
B6C
330
9D9
100
AcDbEntity
  8
D35160802
100
AcDbLine
 10
7.229078745690631
 20
2.843888847593972
 30
0.0
 11
7.229078745690628
 21
2.166803586547894
 31
0.0
1001
REVIT
1002
{
1070
     2
1000
-2001160
1002
}
  0
SPLINE
  5
B6D
330
9D9
100
AcDbEntity
  8
D35160802
100
AcDbSpline
210
0.0
220
0.0
230
1.0
 70
     8
 71
     3
 72
    44
 73
    40
 74
     0
 42
0.000000001
 43
0.0000000001
 40
0.0
 40
0.0
 40
0.0
 40
0.0
 40
0.0555555555555556
 40
0.0833333333333333
 40
0.1111111111111111
 40
0.1388888888888889
 40
0.1666666666666666
 40
0.1944444444444444
 40
0.2083333333333333
 40
0.2222222222222222
 40
0.2361111111111111
 40
0.25
 40
0.2777777777777778
 40
0.3055555555555556
 40
0.3333333333333333
 40
0.3611111111111111
 40
0.3888888888888888
 40
0.4166666666666666
 40
0.4444444444444445
 40
0.4722222222222223
 40
0.5
 40
0.5277777777777778
 40
0.5416666666666668
 40
0.5555555555555556
 40
0.5694444444444445
 40
0.5833333333333334
 40
0.6111111111111112
 40
0.6388888888888889
 40
0.6527777777777777
 40
0.6666666666666666
 40
0.6805555555555556
 40
0.6944444444444445
 40
0.7222222222222223
 40
0.75
 40
0.7777777777777778
 40
0.8333333333333332
 40
0.8888888888888889
 40
0.9444444444444444
 40
1.0
 40
1.0
 40
1.0
 40
1.0
 10
4.507594417410845
 20
2.653584124763188
 30
0.0
 10
4.504620115476526
 20
2.653376141311163
 30
0.0
 10
4.499621925421259
 20
2.651831114497457
 30
0.0
 10
4.49186051909512
 20
2.647651782083721
 30
0.0
 10
4.485538245114041
 20
2.64355015567951
 30
0.0
 10
4.478525323004155
 20
2.638594321863252
 30
0.0
 10
4.470855239766745
 20
2.632897785951157
 30
0.0
 10
4.464150123353335
 20
2.627586789112574
 30
0.0
 10
4.458695920499906
 20
2.62302338606926
 30
0.0
 10
4.454608567945009
 20
2.619441039934371
 30
0.0
 10
4.450475323817579
 20
2.615721757884526
 30
0.0
 10
4.444823391067566
 20
2.610614524017677
 30
0.0
 10
4.437589331258908
 20
2.603945389180144
 30
0.0
 10
4.428746471654749
 20
2.595504858811362
 30
0.0
 10
4.419948180029821
 20
2.586570558294486
 30
0.0
 10
4.411107237369035
 20
2.577241872238507
 30
0.0
 10
4.402128808968774
 20
2.567636194259327
 30
0.0
 10
4.393181772488044
 20
2.557699673550428
 30
0.0
 10
4.384442310762023
 20
2.547360082351962
 30
0.0
 10
4.375793673558572
 20
2.536725221131631
 30
0.0
 10
4.367152551575705
 20
2.525922849944727
 30
0.0
 10
4.360156475021629
 20
2.516715200475884
 30
0.0
 10
4.354747824216864
 20
2.509217858296074
 30
0.0
 10
4.350829180029433
 20
2.503516222451085
 30
0.0
 10
4.346982071993011
 20
2.497766704518385
 30
0.0
 10
4.341873599116661
 20
2.490085386057236
 30
0.0
 10
4.335656128024745
 20
2.480441568218834
 30
0.0
 10
4.32985796208826
 20
2.470770933449789
 30
0.0
 10
4.325586580233223
 20
2.463035976242442
 30
0.0
 10
4.322621152490354
 20
2.457244131855755
 30
0.0
 10
4.319825896307734
 20
2.451459948200493
 30
0.0
 10
4.316230986019479
 20
2.443786828257787
 30
0.0
 10
4.312118700843534
 20
2.434355413978716
 30
0.0
 10
4.307985302602026
 20
2.423507664234745
 30
0.0
 10
4.303913276534017
 20
2.410043372133694
 30
0.0
 10
4.301628215721801
 20
2.394904114372923
 30
0.0
 10
4.302465910412921
 20
2.381266926228794
 30
0.0
 10
4.306705703463838
 20
2.372955772638405
 30
0.0
 10
4.311919846199458
 20
2.370791208321918
 30
0.0
 10
4.315113858704202
 20
2.370567861210153
 30
0.0
1001
REVIT
1002
{
1070
     2
1000
-2001160
1002
}
  0
SPLINE
  5
B6E
330
9D9
100
AcDbEntity
  8
D35160802
100
AcDbSpline
210
0.0
220
0.0
230
1.0
 70
     8
 71
     3
 72
     9
 73
     5
 74
     0
 42
0.000000001
 43
0.0000000001
 40
-1.0
 40
-1.0
 40
-1.0
 40
-1.0
 40
-0.5
 40
0.0
 40
0.0
 40
0.0
 40
0.0
 10
3.690472492943471
 20
2.362558088471409
 30
0.0
 10
3.642774115037306
 20
2.432169669357771
 30
0.0
 10
3.547504964985513
 20
2.571670464239586
 30
0.0
 10
3.453099821485621
 20
2.711726525339583
 30
0.0
 10
3.406197389658683
 20
2.781893372444127
 30
0.0
1001
REVIT
1002
{
1070
     2
1000
-2001160
1002
}
  0
LINE
  5
B6F
330
9D9
100
AcDbEntity
  8
D35160802
100
AcDbLine
 10
3.690472492943471
 20
2.362558088471409
 30
0.0
 11
4.309572013130329
 21
2.362558088471395
 31
0.0
1001
REVIT
1002
{
1070
     2
1000
-2001160
1002
}
  0
LINE
  5
B70
330
9D9
100
AcDbEntity
  8
D35160802
100
AcDbLine
 10
3.729014525284789
 20
2.292383523178943
 30
0.0
 11
3.72901452528479
 21
2.362558088471408
 31
0.0
1001
REVIT
1002
{
1070
     2
1000
-2001160
1002
}
  0
LINE
  5
B71
330
9D9
100
AcDbEntity
  8
D35160802
100
AcDbLine
 10
3.69012932696389
 20
2.276087554538093
 30
0.0
 11
3.709567732415473
 21
2.284245561688007
 31
0.0
1001
REVIT
1002
{
1070
     2
1000
-2001160
1002
}
  0
LINE
  5
B72
330
9D9
100
AcDbEntity
  8
D35160802
100
AcDbLine
 10
3.709567732415473
 20
2.284245561688007
 30
0.0
 11
3.729014525284787
 21
2.292383523178945
 31
0.0
1001
REVIT
1002
{
1070
     2
1000
-2001160
1002
}
  0
LINE
  5
B73
330
9D9
100
AcDbEntity
  8
D35160802
100
AcDbLine
 10
3.69012932696389
 20
2.276087554538093
 30
0.0
 11
4.309915158277689
 21
2.276087554538079
 31
0.0
1001
REVIT
1002
{
1070
     2
1000
-2001160
1002
}
  0
SPLINE
  5
B74
330
9D9
100
AcDbEntity
  8
D35160802
100
AcDbSpline
210
0.0
220
0.0
230
1.0
 70
     8
 71
     3
 72
     9
 73
     5
 74
     0
 42
0.000000001
 43
0.0000000001
 40
-1.0
 40
-1.0
 40
-1.0
 40
-1.0
 40
-0.5
 40
-0.000684222249774
 40
-0.000684222249774
 40
-0.000684222249774
 40
-0.000684222249774
 10
3.856867692114728
 20
2.362558088471405
 30
0.0
 10
3.834306315408369
 20
2.432123107684449
 30
0.0
 10
3.787852531008231
 20
2.571481923203759
 30
0.0
 10
3.741785420122961
 20
2.711488241306303
 30
0.0
 10
3.719619483563781
 20
2.78160512389566
 30
0.0
1001
REVIT
1002
{
1070
     2
1000
-2001160
1002
}
  0
LINE
  5
B75
330
9D9
100
AcDbEntity
  8
D35160802
100
AcDbLine
 10
3.875492677840439
 20
2.29238352317894
 30
0.0
 11
3.87549267784044
 21
2.362558088471404
 31
0.0
1001
REVIT
1002
{
1070
     2
1000
-2001160
1002
}
  0
LINE
  5
B76
330
9D9
100
AcDbEntity
  8
D35160802
100
AcDbLine
 10
3.856701866564931
 20
2.276087554538089
 30
0.0
 11
3.866095551949169
 21
2.284245960274801
 31
0.0
1001
REVIT
1002
{
1070
     2
1000
-2001160
1002
}
  0
LINE
  5
B77
330
9D9
100
AcDbEntity
  8
D35160802
100
AcDbLine
 10
3.866095551949169
 20
2.284245960274801
 30
0.0
 11
3.875492677840438
 21
2.292383523178941
 31
0.0
1001
REVIT
1002
{
1070
     2
1000
-2001160
1002
}
  0
SPLINE
  5
B78
330
9D9
100
AcDbEntity
  8
D35160802
100
AcDbSpline
210
0.0
220
0.0
230
1.0
 70
     8
 71
     3
 72
     9
 73
     5
 74
     0
 42
0.000000001
 43
0.0000000001
 40
-1.0
 40
-1.0
 40
-1.0
 40
-1.0
 40
-0.5
 40
0.0
 40
0.0
 40
0.0
 40
0.0
 10
4.14324057604546
 20
2.362558088471399
 30
0.0
 10
4.166753187254907
 20
2.432123210968308
 30
0.0
 10
4.212278575452747
 20
2.571577547460671
 30
0.0
 10
4.257398648837556
 20
2.711680066950114
 30
0.0
 10
4.280550023529268
 20
2.781893372444107
 30
0.0
1001
REVIT
1002
{
1070
     2
1000
-2001160
1002
}
  0
LINE
  5
B79
330
9D9
100
AcDbEntity
  8
D35160802
100
AcDbLine
 10
4.124618509908002
 20
2.292383523178934
 30
0.0
 11
4.124618509908005
 21
2.362558088471399
 31
0.0
1001
REVIT
1002
{
1070
     2
1000
-2001160
1002
}
  0
LINE
  5
B7A
330
9D9
100
AcDbEntity
  8
D35160802
100
AcDbLine
 10
4.143406373913836
 20
2.276087554538082
 30
0.0
 11
4.134014213051479
 21
2.284245958459048
 31
0.0
1001
REVIT
1002
{
1070
     2
1000
-2001160
1002
}
  0
LINE
  5
B7B
330
9D9
100
AcDbEntity
  8
D35160802
100
AcDbLine
 10
4.134014213051479
 20
2.284245958459048
 30
0.0
 11
4.124618509908002
 21
2.292383523178936
 31
0.0
1001
REVIT
1002
{
1070
     2
1000
-2001160
1002
}
  0
SPLINE
  5
B7C
330
9D9
100
AcDbEntity
  8
D35160802
100
AcDbSpline
210
0.0
220
0.0
230
1.0
 70
     8
 71
     3
 72
     9
 73
     5
 74
     0
 42
0.000000001
 43
0.0000000001
 40
-1.0
 40
-1.0
 40
-1.0
 40
-1.0
 40
-0.5
 40
0.0
 40
0.0
 40
0.0
 40
0.0
 10
4.507564412751334
 20
2.653604356627575
 30
0.0
 10
4.521973913879491
 20
2.674964742424391
 30
0.0
 10
4.55076448457065
 20
2.717706630857295
 30
0.0
 10
4.579488619654544
 20
2.760490752968741
 30
0.0
 10
4.59383203852191
 20
2.781893372444101
 30
0.0
1001
REVIT
1002
{
1070
     2
1000
-2001160
1002
}
  0
SPLINE
  5
B7D
330
9D9
100
AcDbEntity
  8
D35160802
100
AcDbSpline
210
0.0
220
0.0
230
1.0
 70
     8
 71
     3
 72
     8
 73
     4
 74
     0
 42
0.000000001
 43
0.0000000001
 40
-1.0
 40
-1.0
 40
-1.0
 40
-1.0
 40
0.0
 40
0.0
 40
0.0
 40
0.0
 10
4.309572013130331
 20
2.362558088471395
 30
0.0
 10
4.311418591110427
 20
2.365228421116317
 30
0.0
 10
4.313251891786053
 20
2.367907960988123
 30
0.0
 10
4.315071898899847
 20
2.370596708086812
 30
0.0
1001
REVIT
1002
{
1070
     2
1000
-2001160
1002
}
  0
LINE
  5
B7E
330
9D9
100
AcDbEntity
  8
D35160802
100
AcDbLine
 10
4.271032353877055
 20
2.292383523178931
 30
0.0
 11
4.271032353877056
 21
2.362558088471395
 31
0.0
1001
REVIT
1002
{
1070
     2
1000
-2001160
1002
}
  0
LINE
  5
B7F
330
9D9
100
AcDbEntity
  8
D35160802
100
AcDbLine
 10
4.309915158277687
 20
2.276087554538079
 30
0.0
 11
4.290476442823687
 21
2.284246189762928
 31
0.0
1001
REVIT
1002
{
1070
     2
1000
-2001160
1002
}
  0
LINE
  5
B80
330
9D9
100
AcDbEntity
  8
D35160802
100
AcDbLine
 10
4.290476442823687
 20
2.284246189762928
 30
0.0
 11
4.271032353877053
 21
2.292383523178932
 31
0.0
1001
REVIT
1002
{
1070
     2
1000
-2001160
1002
}
  0
LINE
  5
B81
330
9D9
100
AcDbEntity
  8
D35160802
100
AcDbLine
 10
3.653595073757227
 20
2.113450363927488
 30
0.0
 11
3.671841535270894
 21
2.194773601476142
 31
0.0
1001
REVIT
1002
{
1070
     2
1000
-2001160
1002
}
  0
LINE
  5
B82
330
9D9
100
AcDbEntity
  8
D35160802
100
AcDbLine
 10
3.671841535270894
 20
2.194773601476142
 30
0.0
 11
3.690129326963893
 21
2.276087554538093
 31
0.0
1001
REVIT
1002
{
1070
     2
1000
-2001160
1002
}
  0
LINE
  5
B83
330
9D9
100
AcDbEntity
  8
D35160802
100
AcDbLine
 10
3.653595073757227
 20
2.113450363927488
 30
0.0
 11
4.346447226803113
 21
2.113450363927473
 31
0.0
1001
REVIT
1002
{
1070
     2
1000
-2001160
1002
}
  0
SPLINE
  5
B84
330
9D9
100
AcDbEntity
  8
D35160802
100
AcDbSpline
210
0.0
220
0.0
230
1.0
 70
     8
 71
     3
 72
    10
 73
     6
 74
     0
 42
0.000000001
 43
0.0000000001
 40
-1.0
 40
-1.0
 40
-1.0
 40
-1.0
 40
-0.6666666666666666
 40
-0.3333333333333333
 40
0.0
 40
0.0
 40
0.0
 40
0.0
 10
2.947326079327359
 20
0.3261939176308866
 30
0.0
 10
3.074983835677616
 20
0.5004420208641322
 30
0.0
 10
3.300171299515035
 20
0.8706808238277755
 30
0.0
 10
3.540969555104389
 20
1.474984521206602
 30
0.0
 10
3.628042153346385
 20
1.899165936497844
 30
0.0
 10
3.653595073757227
 20
2.113450363927488
 30
0.0
1001
REVIT
1002
{
1070
     2
1000
-2001160
1002
}
  0
LINE
  5
B85
330
9D9
100
AcDbEntity
  8
D35160802
100
AcDbLine
 10
3.839048224441546
 20
2.113450363927483
 30
0.0
 11
3.847864918503052
 21
2.194773514159733
 31
0.0
1001
REVIT
1002
{
1070
     2
1000
-2001160
1002
}
  0
LINE
  5
B86
330
9D9
100
AcDbEntity
  8
D35160802
100
AcDbLine
 10
3.847864918503052
 20
2.194773514159733
 30
0.0
 11
3.856701866564931
 21
2.276087554538089
 31
0.0
1001
REVIT
1002
{
1070
     2
1000
-2001160
1002
}
  0
SPLINE
  5
B87
330
9D9
100
AcDbEntity
  8
D35160802
100
AcDbSpline
210
0.0
220
0.0
230
1.0
 70
     8
 71
     3
 72
    10
 73
     6
 74
     0
 42
0.000000001
 43
0.0000000001
 40
-1.0
 40
-1.0
 40
-1.0
 40
-1.0
 40
-0.6666666666666666
 40
-0.3333333333333333
 40
0.0
 40
0.0
 40
0.0
 40
0.0
 10
3.497920932226215
 20
0.3261939176308753
 30
0.0
 10
3.560765815957971
 20
0.5006590525319831
 30
0.0
 10
3.667653658563764
 20
0.8712399353472939
 30
0.0
 10
3.785782214933166
 20
1.475431540918499
 30
0.0
 10
3.824682280496362
 20
1.899359674930215
 30
0.0
 10
3.839048224441545
 20
2.113450363927484
 30
0.0
1001
REVIT
1002
{
1070
     2
1000
-2001160
1002
}
  0
LINE
  5
B88
330
9D9
100
AcDbEntity
  8
D35160802
100
AcDbLine
 10
4.161056915363132
 20
2.113450363927477
 30
0.0
 11
4.152241807278769
 21
2.194773511539208
 31
0.0
1001
REVIT
1002
{
1070
     2
1000
-2001160
1002
}
  0
LINE
  5
B89
330
9D9
100
AcDbEntity
  8
D35160802
100
AcDbLine
 10
4.152241807278769
 20
2.194773511539208
 30
0.0
 11
4.143406373913836
 21
2.276087554538082
 31
0.0
1001
REVIT
1002
{
1070
     2
1000
-2001160
1002
}
  0
SPLINE
  5
B8A
330
9D9
100
AcDbEntity
  8
D35160802
100
AcDbSpline
210
0.0
220
0.0
230
1.0
 70
     8
 71
     3
 72
    10
 73
     6
 74
     0
 42
0.000000001
 43
0.0000000001
 40
-1.0
 40
-1.0
 40
-1.0
 40
-1.0
 40
-0.6666666666666666
 40
-0.3333333333333333
 40
0.0
 40
0.0
 40
0.0
 40
0.0
 10
4.502094898420978
 20
0.3261939176308553
 30
0.0
 10
4.441514785173381
 20
0.5006600836983727
 30
0.0
 10
4.330819379206996
 20
0.8712425782983238
 30
0.0
 10
4.216514778141964
 20
1.475435575062022
 30
0.0
 10
4.171342174065668
 20
1.899361453136903
 30
0.0
 10
4.161056915363137
 20
2.113450363927478
 30
0.0
1001
REVIT
1002
{
1070
     2
1000
-2001160
1002
}
  0
LINE
  5
B8B
330
9D9
100
AcDbEntity
  8
D35160802
100
AcDbLine
 10
4.346447226803113
 20
2.113450363927472
 30
0.0
 11
4.328201845844496
 21
2.194773615753869
 31
0.0
1001
REVIT
1002
{
1070
     2
1000
-2001160
1002
}
  0
LINE
  5
B8C
330
9D9
100
AcDbEntity
  8
D35160802
100
AcDbLine
 10
4.328201845844496
 20
2.194773615753869
 30
0.0
 11
4.30991515827769
 21
2.276087554538078
 31
0.0
1001
REVIT
1002
{
1070
     2
1000
-2001160
1002
}
  0
SPLINE
  5
B8D
330
9D9
100
AcDbEntity
  8
D35160802
100
AcDbSpline
210
0.0
220
0.0
230
1.0
 70
     8
 71
     3
 72
    10
 73
     6
 74
     0
 42
0.000000001
 43
0.0000000001
 40
-1.0
 40
-1.0
 40
-1.0
 40
-1.0
 40
-0.6666666666666666
 40
-0.3333333333333333
 40
0.0
 40
0.0
 40
0.0
 40
0.0
 10
5.052687025030059
 20
0.3261939176308437
 30
0.0
 10
4.924872900607741
 20
0.5006594891074742
 30
0.0
 10
4.699564644551763
 20
0.8712411009730201
 30
0.0
 10
4.458953594041678
 20
1.475426710531181
 30
0.0
 10
4.371973912334084
 20
1.899357492001872
 30
0.0
 10
4.346447226803116
 20
2.113450363927473
 30
0.0
1001
REVIT
1002
{
1070
     2
1000
-2001160
1002
}
  0
LINE
  5
B8E
330
9D9
100
AcDbEntity
  8
D35160802
100
AcDbLine
 10
2.893358598890221
 20
0.3261939176308355
 30
0.0
 11
5.106641401110276
 21
0.3261939176308128
 31
0.0
1001
REVIT
1002
{
1070
     2
1000
-2001160
1002
}
  0
LINE
  5
B8F
330
9D9
100
AcDbEntity
  8
D35160802
100
AcDbLine
 10
2.773437500000245
 20
0.0000000000011242
 30
0.0
 11
5.226562500000246
 21
0.000000000001099
 31
0.0
1001
REVIT
1002
{
1070
     2
1000
-2001160
1002
}
  0
LINE
  5
B90
330
9D9
100
AcDbEntity
  8
D35160802
100
AcDbLine
 10
3.400983977691674
 20
2.782046798513534
 30
0.0
 11
3.490207551159138
 21
2.782046798513532
 31
0.0
1001
REVIT
1002
{
1070
     2
1000
-2001160
1002
}
  0
LINE
  5
B91
330
9D9
100
AcDbEntity
  8
D35160802
100
AcDbLine
 10
3.490207551159138
 20
2.782046798513532
 30
0.0
 11
3.719521112412828
 21
2.78160602951382
 31
0.0
1001
REVIT
1002
{
1070
     2
1000
-2001160
1002
}
  0
LINE
  5
B92
330
9D9
100
AcDbEntity
  8
D35160802
100
AcDbLine
 10
3.719621507010808
 20
2.781605788448859
 30
0.0
 11
4.001256713175103
 21
2.782046798513523
 31
0.0
1001
REVIT
1002
{
1070
     2
1000
-2001160
1002
}
  0
LINE
  5
B93
330
9D9
100
AcDbEntity
  8
D35160802
100
AcDbLine
 10
4.001256713175103
 20
2.782046798513523
 30
0.0
 11
4.278447918383655
 21
2.781893372444108
 31
0.0
1001
REVIT
1002
{
1070
     2
1000
-2001160
1002
}
  0
LINE
  5
B94
330
9D9
100
AcDbEntity
  8
D35160802
100
AcDbLine
 10
4.282602509809976
 20
2.781896797876096
 30
0.0
 11
4.509645293609154
 21
2.782046798513522
 31
0.0
1001
REVIT
1002
{
1070
     2
1000
-2001160
1002
}
  0
LINE
  5
B95
330
9D9
100
AcDbEntity
  8
D35160802
100
AcDbLine
 10
4.509645293609154
 20
2.782046798513522
 30
0.0
 11
4.599016022308873
 21
2.782046798513522
 31
0.0
1001
REVIT
1002
{
1070
     2
1000
-2001160
1002
}
  0
LINE
  5
B96
330
9D9
100
AcDbEntity
  8
D35160802
100
AcDbLine
 10
4.526098935535074
 20
2.85496388528733
 30
0.0
 11
3.473901064465474
 21
2.854963885287341
 31
0.0
1001
REVIT
1002
{
1070
     2
1000
-2001160
1002
}
  0
ENDBLK
  5
9DB
330
9D9
100
AcDbEntity
  8
0
100
AcDbBlockEnd
  0
BLOCK
  5
B99
330
B98
100
AcDbEntity
  8
0
100
AcDbBlockBegin
  2
D35160802 Side View
 70
     0
 10
0.0
 20
0.0
 30
0.0
  3
D35160802 Side View
  1

  0
LINE
  5
B9B
330
B98
100
AcDbEntity
  8
D35160802
100
AcDbLine
 10
-1.169141401110028
 20
0.3261939176297293
 30
0.0
 11
-1.169141401110028
 21
0.2483436452417487
 31
0.0
1001
REVIT
1002
{
1070
     2
1000
-2001160
1002
}
  0
LINE
  5
B9C
330
B98
100
AcDbEntity
  8
D35160802
100
AcDbLine
 10
1.169141401110032
 20
0.248343645241716
 30
0.0
 11
1.169141401110032
 21
0.3261939176296973
 31
0.0
1001
REVIT
1002
{
1070
     2
1000
-2001160
1002
}
  0
LINE
  5
B9D
330
B98
100
AcDbEntity
  8
D35160802
100
AcDbLine
 10
-1.234356613403967
 20
0.2269956496101946
 30
0.0
 11
-1.234073719868966
 21
0.2280742980384325
 31
0.0
1001
REVIT
1002
{
1070
     2
1000
-2001160
1002
}
  0
LINE
  5
B9E
330
B98
100
AcDbEntity
  8
D35160802
100
AcDbLine
 10
-1.234073719868966
 20
0.2280742980384325
 30
0.0
 11
-1.233747918186153
 21
0.2291407709388677
 31
0.0
1001
REVIT
1002
{
1070
     2
1000
-2001160
1002
}
  0
LINE
  5
B9F
330
B98
100
AcDbEntity
  8
D35160802
100
AcDbLine
 10
-1.233747918186153
 20
0.2291407709388677
 30
0.0
 11
-1.233379729568721
 21
0.2301933621823604
 31
0.0
1001
REVIT
1002
{
1070
     2
1000
-2001160
1002
}
  0
LINE
  5
BA0
330
B98
100
AcDbEntity
  8
D35160802
100
AcDbLine
 10
-1.233379729568721
 20
0.2301933621823604
 30
0.0
 11
-1.232969743039912
 21
0.2312303878474629
 31
0.0
1001
REVIT
1002
{
1070
     2
1000
-2001160
1002
}
  0
LINE
  5
BA1
330
B98
100
AcDbEntity
  8
D35160802
100
AcDbLine
 10
-1.232969743039912
 20
0.2312303878474629
 30
0.0
 11
-1.232518614490711
 21
0.2322501889143302
 31
0.0
1001
REVIT
1002
{
1070
     2
1000
-2001160
1002
}
  0
LINE
  5
BA2
330
B98
100
AcDbEntity
  8
D35160802
100
AcDbLine
 10
-1.232518614490711
 20
0.2322501889143302
 30
0.0
 11
-1.232027065630568
 21
0.2332511339188028
 31
0.0
1001
REVIT
1002
{
1070
     2
1000
-2001160
1002
}
  0
LINE
  5
BA3
330
B98
100
AcDbEntity
  8
D35160802
100
AcDbLine
 10
-1.232027065630568
 20
0.2332511339188028
 30
0.0
 11
-1.231495882832799
 21
0.2342316215623961
 31
0.0
1001
REVIT
1002
{
1070
     2
1000
-2001160
1002
}
  0
LINE
  5
BA4
330
B98
100
AcDbEntity
  8
D35160802
100
AcDbLine
 10
-1.231495882832799
 20
0.2342316215623961
 30
0.0
 11
-1.230925915876564
 21
0.2351900832740397
 31
0.0
1001
REVIT
1002
{
1070
     2
1000
-2001160
1002
}
  0
LINE
  5
BA5
330
B98
100
AcDbEntity
  8
D35160802
100
AcDbLine
 10
-1.230925915876564
 20
0.2351900832740397
 30
0.0
 11
-1.230318076587412
 21
0.2361249857194561
 31
0.0
1001
REVIT
1002
{
1070
     2
1000
-2001160
1002
}
  0
LINE
  5
BA6
330
B98
100
AcDbEntity
  8
D35160802
100
AcDbLine
 10
-1.230318076587412
 20
0.2361249857194561
 30
0.0
 11
-1.229673337378532
 21
0.237034833254169
 31
0.0
1001
REVIT
1002
{
1070
     2
1000
-2001160
1002
}
  0
LINE
  5
BA7
330
B98
100
AcDbEntity
  8
D35160802
100
AcDbLine
 10
-1.229673337378532
 20
0.237034833254169
 30
0.0
 11
-1.228992729695129
 21
0.2379181703162114
 31
0.0
1001
REVIT
1002
{
1070
     2
1000
-2001160
1002
}
  0
LINE
  5
BA8
330
B98
100
AcDbEntity
  8
D35160802
100
AcDbLine
 10
-1.228992729695129
 20
0.2379181703162114
 30
0.0
 11
-1.228277342364307
 21
0.2387735837547211
 31
0.0
1001
REVIT
1002
{
1070
     2
1000
-2001160
1002
}
  0
LINE
  5
BA9
330
B98
100
AcDbEntity
  8
D35160802
100
AcDbLine
 10
-1.228277342364307
 20
0.2387735837547211
 30
0.0
 11
-1.227528319853181
 21
0.2395997050906726
 31
0.0
1001
REVIT
1002
{
1070
     2
1000
-2001160
1002
}
  0
LINE
  5
BAA
330
B98
100
AcDbEntity
  8
D35160802
100
AcDbLine
 10
-1.227528319853181
 20
0.2395997050906726
 30
0.0
 11
-1.226746860437994
 21
0.2403952127061608
 31
0.0
1001
REVIT
1002
{
1070
     2
1000
-2001160
1002
}
  0
LINE
  5
BAB
330
B98
100
AcDbEntity
  8
D35160802
100
AcDbLine
 10
-1.226746860437994
 20
0.2403952127061608
 30
0.0
 11
-1.2259342142871
 21
0.2411588339586983
 31
0.0
1001
REVIT
1002
{
1070
     2
1000
-2001160
1002
}
  0
LINE
  5
BAC
330
B98
100
AcDbEntity
  8
D35160802
100
AcDbLine
 10
-1.2259342142871
 20
0.2411588339586983
 30
0.0
 11
-1.225091681460995
 21
0.2418893472171795
 31
0.0
1001
REVIT
1002
{
1070
     2
1000
-2001160
1002
}
  0
LINE
  5
BAD
330
B98
100
AcDbEntity
  8
D35160802
100
AcDbLine
 10
-1.225091681460995
 20
0.2418893472171795
 30
0.0
 11
-1.22422060983246
 21
0.2425855838162239
 31
0.0
1001
REVIT
1002
{
1070
     2
1000
-2001160
1002
}
  0
LINE
  5
BAE
330
B98
100
AcDbEntity
  8
D35160802
100
AcDbLine
 10
-1.22422060983246
 20
0.2425855838162239
 30
0.0
 11
-1.223322392930288
 21
0.2432464299257973
 31
0.0
1001
REVIT
1002
{
1070
     2
1000
-2001160
1002
}
  0
LINE
  5
BAF
330
B98
100
AcDbEntity
  8
D35160802
100
AcDbLine
 10
-1.223322392930288
 20
0.2432464299257973
 30
0.0
 11
-1.222398467709911
 21
0.2438708283330957
 31
0.0
1001
REVIT
1002
{
1070
     2
1000
-2001160
1002
}
  0
LINE
  5
BB0
330
B98
100
AcDbEntity
  8
D35160802
100
AcDbLine
 10
-1.222398467709911
 20
0.2438708283330957
 30
0.0
 11
-1.221450312254589
 21
0.2444577801338665
 31
0.0
1001
REVIT
1002
{
1070
     2
1000
-2001160
1002
}
  0
LINE
  5
BB1
330
B98
100
AcDbEntity
  8
D35160802
100
AcDbLine
 10
-1.221450312254589
 20
0.2444577801338665
 30
0.0
 11
-1.220479443410788
 21
0.2450063463304382
 31
0.0
1001
REVIT
1002
{
1070
     2
1000
-2001160
1002
}
  0
LINE
  5
BB2
330
B98
100
AcDbEntity
  8
D35160802
100
AcDbLine
 10
-1.220479443410788
 20
0.2450063463304382
 30
0.0
 11
-1.219487414361548
 21
0.245515649333917
 31
0.0
1001
REVIT
1002
{
1070
     2
1000
-2001160
1002
}
  0
LINE
  5
BB3
330
B98
100
AcDbEntity
  8
D35160802
100
AcDbLine
 10
-1.219487414361548
 20
0.245515649333917
 30
0.0
 11
-1.218475812141729
 21
0.2459848743681412
 31
0.0
1001
REVIT
1002
{
1070
     2
1000
-2001160
1002
}
  0
LINE
  5
BB4
330
B98
100
AcDbEntity
  8
D35160802
100
AcDbLine
 10
-1.218475812141729
 20
0.2459848743681412
 30
0.0
 11
-1.217446255099087
 21
0.2464132707731559
 31
0.0
1001
REVIT
1002
{
1070
     2
1000
-2001160
1002
}
  0
LINE
  5
BB5
330
B98
100
AcDbEntity
  8
D35160802
100
AcDbLine
 10
-1.217446255099087
 20
0.2464132707731559
 30
0.0
 11
-1.21640039030526
 21
0.2468001532060959
 31
0.0
1001
REVIT
1002
{
1070
     2
1000
-2001160
1002
}
  0
LINE
  5
BB6
330
B98
100
AcDbEntity
  8
D35160802
100
AcDbLine
 10
-1.21640039030526
 20
0.2468001532060959
 30
0.0
 11
-1.215339890920812
 21
0.2471449027376016
 31
0.0
1001
REVIT
1002
{
1070
     2
1000
-2001160
1002
}
  0
LINE
  5
BB7
330
B98
100
AcDbEntity
  8
D35160802
100
AcDbLine
 10
-1.215339890920812
 20
0.2471449027376016
 30
0.0
 11
-1.214266453518533
 21
0.2474469678419631
 31
0.0
1001
REVIT
1002
{
1070
     2
1000
-2001160
1002
}
  0
LINE
  5
BB8
330
B98
100
AcDbEntity
  8
D35160802
100
AcDbLine
 10
-1.214266453518533
 20
0.2474469678419631
 30
0.0
 11
-1.213181795369273
 21
0.2477058652794515
 31
0.0
1001
REVIT
1002
{
1070
     2
1000
-2001160
1002
}
  0
LINE
  5
BB9
330
B98
100
AcDbEntity
  8
D35160802
100
AcDbLine
 10
-1.213181795369273
 20
0.2477058652794515
 30
0.0
 11
-1.212087651694698
 21
0.2479211808693951
 31
0.0
1001
REVIT
1002
{
1070
     2
1000
-2001160
1002
}
  0
LINE
  5
BBA
330
B98
100
AcDbEntity
  8
D35160802
100
AcDbLine
 10
-1.212087651694698
 20
0.2479211808693951
 30
0.0
 11
-1.21098577289128
 21
0.2480925701527825
 31
0.0
1001
REVIT
1002
{
1070
     2
1000
-2001160
1002
}
  0
LINE
  5
BBB
330
B98
100
AcDbEntity
  8
D35160802
100
AcDbLine
 10
-1.21098577289128
 20
0.2480925701527825
 30
0.0
 11
-1.209877921730047
 21
0.2482197589433208
 31
0.0
1001
REVIT
1002
{
1070
     2
1000
-2001160
1002
}
  0
LINE
  5
BBC
330
B98
100
AcDbEntity
  8
D35160802
100
AcDbLine
 10
-1.209877921730047
 20
0.2482197589433208
 30
0.0
 11
-1.208765870536527
 21
0.2483025437660764
 31
0.0
1001
REVIT
1002
{
1070
     2
1000
-2001160
1002
}
  0
LINE
  5
BBD
330
B98
100
AcDbEntity
  8
D35160802
100
AcDbLine
 10
-1.208765870536527
 20
0.2483025437660764
 30
0.0
 11
-1.207651398355409
 21
0.2483407921829934
 31
0.0
1001
REVIT
1002
{
1070
     2
1000
-2001160
1002
}
  0
LINE
  5
BBE
330
B98
100
AcDbEntity
  8
D35160802
100
AcDbLine
 10
-1.207651398355409
 20
0.2483407921829934
 30
0.0
 11
-1.207252551521158
 21
0.248343645241746
 31
0.0
1001
REVIT
1002
{
1070
     2
1000
-2001160
1002
}
  0
LINE
  5
BBF
330
B98
100
AcDbEntity
  8
D35160802
100
AcDbLine
 10
1.205695369544589
 20
0.248343645241712
 30
0.0
 11
-1.196940620581365
 21
0.248343645241748
 31
0.0
1001
REVIT
1002
{
1070
     2
1000
-2001160
1002
}
  0
LINE
  5
BC0
330
B98
100
AcDbEntity
  8
D35160802
100
AcDbLine
 10
1.207252551521161
 20
0.2483436452417127
 30
0.0
 11
1.208367456829126
 21
0.2483213441619971
 31
0.0
1001
REVIT
1002
{
1070
     2
1000
-2001160
1002
}
  0
LINE
  5
BC1
330
B98
100
AcDbEntity
  8
D35160802
100
AcDbLine
 10
1.208367456829126
 20
0.2483213441619971
 30
0.0
 11
1.209480578526431
 21
0.2482544765998191
 31
0.0
1001
REVIT
1002
{
1070
     2
1000
-2001160
1002
}
  0
LINE
  5
BC2
330
B98
100
AcDbEntity
  8
D35160802
100
AcDbLine
 10
1.209480578526431
 20
0.2482544765998191
 30
0.0
 11
1.210590135855817
 21
0.2481431495290152
 31
0.0
1001
REVIT
1002
{
1070
     2
1000
-2001160
1002
}
  0
LINE
  5
BC3
330
B98
100
AcDbEntity
  8
D35160802
100
AcDbLine
 10
1.210590135855817
 20
0.2481431495290152
 30
0.0
 11
1.211694353762247
 21
0.2479875410491497
 31
0.0
1001
REVIT
1002
{
1070
     2
1000
-2001160
1002
}
  0
LINE
  5
BC4
330
B98
100
AcDbEntity
  8
D35160802
100
AcDbLine
 10
1.211694353762247
 20
0.2479875410491497
 30
0.0
 11
1.212791465732625
 21
0.2477879001005963
 31
0.0
1001
REVIT
1002
{
1070
     2
1000
-2001160
1002
}
  0
LINE
  5
BC5
330
B98
100
AcDbEntity
  8
D35160802
100
AcDbLine
 10
1.212791465732625
 20
0.2477879001005963
 30
0.0
 11
1.213879716621836
 21
0.2475445460662831
 31
0.0
1001
REVIT
1002
{
1070
     2
1000
-2001160
1002
}
  0
LINE
  5
BC6
330
B98
100
AcDbEntity
  8
D35160802
100
AcDbLine
 10
1.213879716621836
 20
0.2475445460662831
 30
0.0
 11
1.214957365460605
 21
0.247257868260754
 31
0.0
1001
REVIT
1002
{
1070
     2
1000
-2001160
1002
}
  0
LINE
  5
BC7
330
B98
100
AcDbEntity
  8
D35160802
100
AcDbLine
 10
1.214957365460605
 20
0.247257868260754
 30
0.0
 11
1.216022688240681
 21
0.2469283253073424
 31
0.0
1001
REVIT
1002
{
1070
     2
1000
-2001160
1002
}
  0
LINE
  5
BC8
330
B98
100
AcDbEntity
  8
D35160802
100
AcDbLine
 10
1.216022688240681
 20
0.2469283253073424
 30
0.0
 11
1.217073980672864
 21
0.2465564444044752
 31
0.0
1001
REVIT
1002
{
1070
     2
1000
-2001160
1002
}
  0
LINE
  5
BC9
330
B98
100
AcDbEntity
  8
D35160802
100
AcDbLine
 10
1.217073980672864
 20
0.2465564444044752
 30
0.0
 11
1.218109560913532
 21
0.2461428204822662
 31
0.0
1001
REVIT
1002
{
1070
     2
1000
-2001160
1002
}
  0
LINE
  5
BCA
330
B98
100
AcDbEntity
  8
D35160802
100
AcDbLine
 10
1.218109560913532
 20
0.2461428204822662
 30
0.0
 11
1.219127772255212
 21
0.2456881152507568
 31
0.0
1001
REVIT
1002
{
1070
     2
1000
-2001160
1002
}
  0
LINE
  5
BCB
330
B98
100
AcDbEntity
  8
D35160802
100
AcDbLine
 10
1.219127772255212
 20
0.2456881152507568
 30
0.0
 11
1.22012698577696
 21
0.2451930561413189
 31
0.0
1001
REVIT
1002
{
1070
     2
1000
-2001160
1002
}
  0
LINE
  5
BCC
330
B98
100
AcDbEntity
  8
D35160802
100
AcDbLine
 10
1.22012698577696
 20
0.2451930561413189
 30
0.0
 11
1.221105602950302
 21
0.2446584351429188
 31
0.0
1001
REVIT
1002
{
1070
     2
1000
-2001160
1002
}
  0
LINE
  5
BCD
330
B98
100
AcDbEntity
  8
D35160802
100
AcDbLine
 10
1.221105602950302
 20
0.2446584351429188
 30
0.0
 11
1.222062058196513
 21
0.2440851075351091
 31
0.0
1001
REVIT
1002
{
1070
     2
1000
-2001160
1002
}
  0
LINE
  5
BCE
330
B98
100
AcDbEntity
  8
D35160802
100
AcDbLine
 10
1.222062058196513
 20
0.2440851075351091
 30
0.0
 11
1.222994821391239
 21
0.2434739905197596
 31
0.0
1001
REVIT
1002
{
1070
     2
1000
-2001160
1002
}
  0
LINE
  5
BCF
330
B98
100
AcDbEntity
  8
D35160802
100
AcDbLine
 10
1.222994821391239
 20
0.2434739905197596
 30
0.0
 11
1.223902400312347
 21
0.2428260617537283
 31
0.0
1001
REVIT
1002
{
1070
     2
1000
-2001160
1002
}
  0
LINE
  5
BD0
330
B98
100
AcDbEntity
  8
D35160802
100
AcDbLine
 10
1.223902400312347
 20
0.2428260617537283
 30
0.0
 11
1.224783343027162
 21
0.2421423577848243
 31
0.0
1001
REVIT
1002
{
1070
     2
1000
-2001160
1002
}
  0
LINE
  5
BD1
330
B98
100
AcDbEntity
  8
D35160802
100
AcDbLine
 10
1.224783343027162
 20
0.2421423577848243
 30
0.0
 11
1.225636240215276
 21
0.2414239723935476
 31
0.0
1001
REVIT
1002
{
1070
     2
1000
-2001160
1002
}
  0
LINE
  5
BD2
330
B98
100
AcDbEntity
  8
D35160802
100
AcDbLine
 10
1.225636240215276
 20
0.2414239723935476
 30
0.0
 11
1.226459727423119
 21
0.2406720548432795
 31
0.0
1001
REVIT
1002
{
1070
     2
1000
-2001160
1002
}
  0
LINE
  5
BD3
330
B98
100
AcDbEntity
  8
D35160802
100
AcDbLine
 10
1.226459727423119
 20
0.2406720548432795
 30
0.0
 11
1.227252487246833
 21
0.2398878080416986
 31
0.0
1001
REVIT
1002
{
1070
     2
1000
-2001160
1002
}
  0
LINE
  5
BD4
330
B98
100
AcDbEntity
  8
D35160802
100
AcDbLine
 10
1.227252487246833
 20
0.2398878080416986
 30
0.0
 11
1.228013251439811
 21
0.2390724866163889
 31
0.0
1001
REVIT
1002
{
1070
     2
1000
-2001160
1002
}
  0
LINE
  5
BD5
330
B98
100
AcDbEntity
  8
D35160802
100
AcDbLine
 10
1.228013251439811
 20
0.2390724866163889
 30
0.0
 11
1.228740802941633
 21
0.2382273949077081
 31
0.0
1001
REVIT
1002
{
1070
     2
1000
-2001160
1002
}
  0
LINE
  5
BD6
330
B98
100
AcDbEntity
  8
D35160802
100
AcDbLine
 10
1.228740802941633
 20
0.2382273949077081
 30
0.0
 11
1.229433977825099
 21
0.2373538848821102
 31
0.0
1001
REVIT
1002
{
1070
     2
1000
-2001160
1002
}
  0
LINE
  5
BD7
330
B98
100
AcDbEntity
  8
D35160802
100
AcDbLine
 10
1.229433977825099
 20
0.2373538848821102
 30
0.0
 11
1.230091667158262
 21
0.2364533539692992
 31
0.0
1001
REVIT
1002
{
1070
     2
1000
-2001160
1002
}
  0
LINE
  5
BD8
330
B98
100
AcDbEntity
  8
D35160802
100
AcDbLine
 10
1.230091667158262
 20
0.2364533539692992
 30
0.0
 11
1.230712818778492
 21
0.2355272428266313
 31
0.0
1001
REVIT
1002
{
1070
     2
1000
-2001160
1002
}
  0
LINE
  5
BD9
330
B98
100
AcDbEntity
  8
D35160802
100
AcDbLine
 10
1.230712818778492
 20
0.2355272428266313
 30
0.0
 11
1.2312964389757
 21
0.2345770330343762
 31
0.0
1001
REVIT
1002
{
1070
     2
1000
-2001160
1002
}
  0
LINE
  5
BDA
330
B98
100
AcDbEntity
  8
D35160802
100
AcDbLine
 10
1.2312964389757
 20
0.2345770330343762
 30
0.0
 11
1.231841594082069
 21
0.2336042447255007
 31
0.0
1001
REVIT
1002
{
1070
     2
1000
-2001160
1002
}
  0
LINE
  5
BDB
330
B98
100
AcDbEntity
  8
D35160802
100
AcDbLine
 10
1.231841594082069
 20
0.2336042447255007
 30
0.0
 11
1.232347411965722
 21
0.2326104341537813
 31
0.0
1001
REVIT
1002
{
1070
     2
1000
-2001160
1002
}
  0
LINE
  5
BDC
330
B98
100
AcDbEntity
  8
D35160802
100
AcDbLine
 10
1.232347411965722
 20
0.2326104341537813
 30
0.0
 11
1.232813083425952
 21
0.2315971912041312
 31
0.0
1001
REVIT
1002
{
1070
     2
1000
-2001160
1002
}
  0
LINE
  5
BDD
330
B98
100
AcDbEntity
  8
D35160802
100
AcDbLine
 10
1.232813083425952
 20
0.2315971912041312
 30
0.0
 11
1.233237863487754
 21
0.2305661368491239
 31
0.0
1001
REVIT
1002
{
1070
     2
1000
-2001160
1002
}
  0
LINE
  5
BDE
330
B98
100
AcDbEntity
  8
D35160802
100
AcDbLine
 10
1.233237863487754
 20
0.2305661368491239
 30
0.0
 11
1.233621072593646
 21
0.2295189205557795
 31
0.0
1001
REVIT
1002
{
1070
     2
1000
-2001160
1002
}
  0
LINE
  5
BDF
330
B98
100
AcDbEntity
  8
D35160802
100
AcDbLine
 10
1.233621072593646
 20
0.2295189205557795
 30
0.0
 11
1.23396209769081
 21
0.2284572176467741
 31
0.0
1001
REVIT
1002
{
1070
     2
1000
-2001160
1002
}
  0
LINE
  5
BE0
330
B98
100
AcDbEntity
  8
D35160802
100
AcDbLine
 10
1.23396209769081
 20
0.2284572176467741
 30
0.0
 11
1.234260393211833
 21
0.227382726620277
 31
0.0
1001
REVIT
1002
{
1070
     2
1000
-2001160
1002
}
  0
LINE
  5
BE1
330
B98
100
AcDbEntity
  8
D35160802
100
AcDbLine
 10
1.234260393211833
 20
0.227382726620277
 30
0.0
 11
1.234356613403971
 21
0.2269956496101599
 31
0.0
1001
REVIT
1002
{
1070
     2
1000
-2001160
1002
}
  0
LINE
  5
BE2
330
B98
100
AcDbEntity
  8
D35160802
100
AcDbLine
 10
-1.234356613403967
 20
0.2269956496101946
 30
0.0
 11
-1.289062500000003
 21
0.000000000000018
 31
0.0
1001
REVIT
1002
{
1070
     2
1000
-2001160
1002
}
  0
LINE
  5
BE3
330
B98
100
AcDbEntity
  8
D35160802
100
AcDbLine
 10
1.2890625
 20
-0.0000000000000173
 30
0.0
 11
1.234356613403967
 21
0.2269956496101599
 31
0.0
1001
REVIT
1002
{
1070
     2
1000
-2001160
1002
}
  0
LINE
  5
BE4
330
B98
100
AcDbEntity
  8
D35160802
100
AcDbLine
 10
-0.5497158225803212
 20
4.87499999999757
 30
0.0
 11
-0.2773963050709476
 21
4.455664716021997
 31
0.0
1001
REVIT
1002
{
1070
     2
1000
-2001160
1002
}
  0
LINE
  5
BE5
330
B98
100
AcDbEntity
  8
D35160802
100
AcDbLine
 10
-0.2411188767385255
 20
4.455664716021995
 30
0.0
 11
-0.2411188767385255
 21
4.385490150729531
 31
0.0
1001
REVIT
1002
{
1070
     2
1000
-2001160
1002
}
  0
LINE
  5
BE6
330
B98
100
AcDbEntity
  8
D35160802
100
AcDbLine
 10
-0.2411188767385326
 20
4.385490150729531
 30
0.0
 11
-0.5671951642321354
 21
4.240311633938465
 31
0.0
1001
REVIT
1002
{
1070
     2
1000
-2001160
1002
}
  0
LINE
  5
BE7
330
B98
100
AcDbEntity
  8
D35160802
100
AcDbLine
 10
0.293522941317164
 20
4.455664716021997
 30
0.0
 11
0.5658424588256388
 21
4.874999999996188
 31
0.0
1001
REVIT
1002
{
1070
     2
1000
-2001160
1002
}
  0
LINE
  5
BE8
330
B98
100
AcDbEntity
  8
D35160802
100
AcDbLine
 10
0.5833218004783554
 20
4.240311633938463
 30
0.0
 11
0.2572455129847455
 21
4.385490150729531
 31
0.0
1001
REVIT
1002
{
1070
     2
1000
-2001160
1002
}
  0
LINE
  5
BE9
330
B98
100
AcDbEntity
  8
D35160802
100
AcDbLine
 10
-1.060853294726644
 20
0.3261939176298059
 30
0.0
 11
-0.9267938895926519
 21
0.8431514314452609
 31
0.0
1001
REVIT
1002
{
1070
     2
1000
-2001160
1002
}
  0
LINE
  5
BEA
330
B98
100
AcDbEntity
  8
D35160802
100
AcDbLine
 10
-0.9267938895926519
 20
0.8431514314452609
 30
0.0
 11
-0.8135145044641198
 21
1.36505638074162
 31
0.0
1001
REVIT
1002
{
1070
     2
1000
-2001160
1002
}
  0
LINE
  5
BEB
330
B98
100
AcDbEntity
  8
D35160802
100
AcDbLine
 10
-0.8135145044641198
 20
1.36505638074162
 30
0.0
 11
-0.7211963621922735
 21
1.891073828933797
 31
0.0
1001
REVIT
1002
{
1070
     2
1000
-2001160
1002
}
  0
LINE
  5
BEC
330
B98
100
AcDbEntity
  8
D35160802
100
AcDbLine
 10
-0.7211963621922735
 20
1.891073828933797
 30
0.0
 11
-0.6499871521112546
 21
2.420362260315754
 31
0.0
1001
REVIT
1002
{
1070
     2
1000
-2001160
1002
}
  0
LINE
  5
BED
330
B98
100
AcDbEntity
  8
D35160802
100
AcDbLine
 10
-0.6499871521112546
 20
2.420362260315754
 30
0.0
 11
-0.6000007937667107
 21
2.952074926306123
 31
0.0
1001
REVIT
1002
{
1070
     2
1000
-2001160
1002
}
  0
LINE
  5
BEE
330
B98
100
AcDbEntity
  8
D35160802
100
AcDbLine
 10
-0.6000007937667107
 20
2.952074926306123
 30
0.0
 11
-0.5713172546688057
 21
3.485361200065306
 31
0.0
1001
REVIT
1002
{
1070
     2
1000
-2001160
1002
}
  0
LINE
  5
BEF
330
B98
100
AcDbEntity
  8
D35160802
100
AcDbLine
 10
-0.5713172546688057
 20
3.485361200065306
 30
0.0
 11
-0.56398242236126
 21
4.019367937316958
 31
0.0
1001
REVIT
1002
{
1070
     2
1000
-2001160
1002
}
  0
LINE
  5
BF0
330
B98
100
AcDbEntity
  8
D35160802
100
AcDbLine
 10
-0.56398242236126
 20
4.019367937316958
 30
0.0
 11
-0.5671951642321496
 21
4.240311633938466
 31
0.0
1001
REVIT
1002
{
1070
     2
1000
-2001160
1002
}
  0
LINE
  5
BF1
330
B98
100
AcDbEntity
  8
D35160802
100
AcDbLine
 10
0.5833218004783732
 20
4.240311633938466
 30
0.0
 11
0.5802109998895589
 21
3.830999301443599
 31
0.0
1001
REVIT
1002
{
1070
     2
1000
-2001160
1002
}
  0
LINE
  5
BF2
330
B98
100
AcDbEntity
  8
D35160802
100
AcDbLine
 10
0.6164305374738462
 20
2.947980158739767
 30
0.0
 11
0.6665804003933787
 21
2.416282889192248
 31
0.0
1001
REVIT
1002
{
1070
     2
1000
-2001160
1002
}
  0
LINE
  5
BF3
330
B98
100
AcDbEntity
  8
D35160802
100
AcDbLine
 10
0.6665804003933787
 20
2.416282889192248
 30
0.0
 11
0.7379523685696654
 21
1.887016380376719
 31
0.0
1001
REVIT
1002
{
1070
     2
1000
-2001160
1002
}
  0
LINE
  5
BF4
330
B98
100
AcDbEntity
  8
D35160802
100
AcDbLine
 10
0.7379523685696654
 20
1.887016380376719
 30
0.0
 11
0.8304322620788333
 21
1.361027345803118
 31
0.0
1001
REVIT
1002
{
1070
     2
1000
-2001160
1002
}
  0
LINE
  5
BF5
330
B98
100
AcDbEntity
  8
D35160802
100
AcDbLine
 10
0.8304322620788333
 20
1.361027345803118
 30
0.0
 11
0.9438721328192585
 21
0.8391572557217546
 31
0.0
1001
REVIT
1002
{
1070
     2
1000
-2001160
1002
}
  0
LINE
  5
BF6
330
B98
100
AcDbEntity
  8
D35160802
100
AcDbLine
 10
0.9438721328192585
 20
0.8391572557217546
 30
0.0
 11
1.076979930972868
 21
0.3261939176298059
 31
0.0
1001
REVIT
1002
{
1070
     2
1000
-2001160
1002
}
  0
LINE
  5
BF7
330
B98
100
AcDbEntity
  8
D35160802
100
AcDbLine
 10
-0.5260989355347477
 20
4.947917086771385
 30
0.0
 11
-0.5990160223085539
 21
4.874999999997578
 31
0.0
1001
REVIT
1002
{
1070
     2
1000
-2001160
1002
}
  0
LINE
  5
BF8
330
B98
100
AcDbEntity
  8
D35160802
100
AcDbLine
 10
0.5990160223115382
 20
4.874999999994707
 30
0.0
 11
0.5260989355348791
 21
4.94791708677137
 31
0.0
1001
REVIT
1002
{
1070
     2
1000
-2001160
1002
}
  0
LINE
  5
BF9
330
B98
100
AcDbEntity
  8
D35160802
100
AcDbLine
 10
-0.5260989355347299
 20
4.947917086771388
 30
0.0
 11
-0.4204634214093055
 21
4.966850858480488
 31
0.0
1001
REVIT
1002
{
1070
     2
1000
-2001160
1002
}
  0
LINE
  5
BFA
330
B98
100
AcDbEntity
  8
D35160802
100
AcDbLine
 10
-0.4204634214093055
 20
4.966850858480488
 30
0.0
 11
-0.3141552555036995
 21
4.981545191315377
 31
0.0
1001
REVIT
1002
{
1070
     2
1000
-2001160
1002
}
  0
LINE
  5
BFB
330
B98
100
AcDbEntity
  8
D35160802
100
AcDbLine
 10
-0.3141552555036995
 20
4.981545191315377
 30
0.0
 11
-0.2073445082054981
 21
4.991976577478141
 31
0.0
1001
REVIT
1002
{
1070
     2
1000
-2001160
1002
}
  0
LINE
  5
BFC
330
B98
100
AcDbEntity
  8
D35160802
100
AcDbLine
 10
-0.2073445082054981
 20
4.991976577478141
 30
0.0
 11
-0.1002020539253081
 21
4.998128328976166
 31
0.0
1001
REVIT
1002
{
1070
     2
1000
-2001160
1002
}
  0
LINE
  5
BFD
330
B98
100
AcDbEntity
  8
D35160802
100
AcDbLine
 10
-0.1002020539253081
 20
4.998128328976166
 30
0.0
 11
0.0000000000000817
 21
4.999999999997574
 31
0.0
1001
REVIT
1002
{
1070
     2
1000
-2001160
1002
}
  0
LINE
  5
BFE
330
B98
100
AcDbEntity
  8
D35160802
100
AcDbLine
 10
0.0000000000000497
 20
4.999999999997574
 30
0.0
 11
0.1072974521136949
 21
4.997853764782973
 31
0.0
1001
REVIT
1002
{
1070
     2
1000
-2001160
1002
}
  0
LINE
  5
BFF
330
B98
100
AcDbEntity
  8
D35160802
100
AcDbLine
 10
0.1072974521136949
 20
4.997853764782973
 30
0.0
 11
0.2144232511928585
 21
4.991418492657677
 31
0.0
1001
REVIT
1002
{
1070
     2
1000
-2001160
1002
}
  0
LINE
  5
C00
330
B98
100
AcDbEntity
  8
D35160802
100
AcDbLine
 10
0.2144232511928585
 20
4.991418492657677
 30
0.0
 11
0.3212060188113028
 21
4.980704478684302
 31
0.0
1001
REVIT
1002
{
1070
     2
1000
-2001160
1002
}
  0
LINE
  5
C01
330
B98
100
AcDbEntity
  8
D35160802
100
AcDbLine
 10
0.3212060188113028
 20
4.980704478684302
 30
0.0
 11
0.4274749253199453
 21
4.965728862999671
 31
0.0
1001
REVIT
1002
{
1070
     2
1000
-2001160
1002
}
  0
LINE
  5
C02
330
B98
100
AcDbEntity
  8
D35160802
100
AcDbLine
 10
0.4274749253199453
 20
4.965728862999671
 30
0.0
 11
0.5260989355348614
 21
4.947917086771373
 31
0.0
1001
REVIT
1002
{
1070
     2
1000
-2001160
1002
}
  0
LINE
  5
C03
330
B98
100
AcDbEntity
  8
D35160802
100
AcDbLine
 10
0.220518321626713
 20
2.853562854037543
 30
0.0
 11
0.1048227996119877
 21
2.825589031311757
 31
0.0
1001
REVIT
1002
{
1070
     2
1000
-2001160
1002
}
  0
LINE
  5
C04
330
B98
100
AcDbEntity
  8
D35160802
100
AcDbLine
 10
0.6163986782585198
 20
2.947956469377278
 30
0.0
 11
2.695310036871848
 21
3.390260081327441
 31
0.0
1001
REVIT
1002
{
1070
     2
1000
-2001160
1002
}
  0
LINE
  5
C05
330
B98
100
AcDbEntity
  8
D35160802
100
AcDbLine
 10
2.695310036871848
 20
3.390260081327441
 30
0.0
 11
3.855361537686992
 21
3.553787401331896
 31
0.0
1001
REVIT
1002
{
1070
     2
1000
-2001160
1002
}
  0
LINE
  5
C06
330
B98
100
AcDbEntity
  8
D35160802
100
AcDbLine
 10
3.855361537686992
 20
3.553787401331896
 30
0.0
 11
4.497593550401614
 21
3.525862936550897
 31
0.0
1001
REVIT
1002
{
1070
     2
1000
-2001160
1002
}
  0
LINE
  5
C07
330
B98
100
AcDbEntity
  8
D35160802
100
AcDbLine
 10
4.497593550401614
 20
3.525862936550897
 30
0.0
 11
4.529893674045716
 21
3.510093490485884
 31
0.0
1001
REVIT
1002
{
1070
     2
1000
-2001160
1002
}
  0
LINE
  5
C08
330
B98
100
AcDbEntity
  8
D35160802
100
AcDbLine
 10
4.529893674045716
 20
3.510093490485884
 30
0.0
 11
4.574781708323424
 21
3.474447392448406
 31
0.0
1001
REVIT
1002
{
1070
     2
1000
-2001160
1002
}
  0
LINE
  5
C09
330
B98
100
AcDbEntity
  8
D35160802
100
AcDbLine
 10
4.574781708323424
 20
3.474447392448406
 30
0.0
 11
4.62666562759653
 21
3.403909672336222
 31
0.0
1001
REVIT
1002
{
1070
     2
1000
-2001160
1002
}
  0
LINE
  5
C0A
330
B98
100
AcDbEntity
  8
D35160802
100
AcDbLine
 10
4.62666562759653
 20
3.403909672336222
 30
0.0
 11
4.740025485621059
 21
3.170806442707573
 31
0.0
1001
REVIT
1002
{
1070
     2
1000
-2001160
1002
}
  0
LINE
  5
C0B
330
B98
100
AcDbEntity
  8
D35160802
100
AcDbLine
 10
4.740025485621059
 20
3.170806442707573
 30
0.0
 11
4.80446872198787
 21
3.00932457923285
 31
0.0
1001
REVIT
1002
{
1070
     2
1000
-2001160
1002
}
  0
LINE
  5
C0C
330
B98
100
AcDbEntity
  8
D35160802
100
AcDbLine
 10
0.4034521689906719
 20
3.724338034068805
 30
0.0
 11
5.110856168176209
 21
4.307309069371466
 31
0.0
1001
REVIT
1002
{
1070
     2
1000
-2001160
1002
}
  0
LINE
  5
C0D
330
B98
100
AcDbEntity
  8
D35160802
100
AcDbLine
 10
5.110856168176209
 20
4.307309069371466
 30
0.0
 11
5.32024916089024
 21
4.132765580255218
 31
0.0
1001
REVIT
1002
{
1070
     2
1000
-2001160
1002
}
  0
LINE
  5
C0E
330
B98
100
AcDbEntity
  8
D35160802
100
AcDbLine
 10
5.32024916089024
 20
4.132765580255218
 30
0.0
 11
5.492633001714729
 21
3.910844914734973
 31
0.0
1001
REVIT
1002
{
1070
     2
1000
-2001160
1002
}
  0
LINE
  5
C0F
330
B98
100
AcDbEntity
  8
D35160802
100
AcDbLine
 10
5.492633001714729
 20
3.910844914734973
 30
0.0
 11
5.763115262157015
 21
3.358246977864487
 31
0.0
1001
REVIT
1002
{
1070
     2
1000
-2001160
1002
}
  0
LINE
  5
C10
330
B98
100
AcDbEntity
  8
D35160802
100
AcDbLine
 10
4.86147329176371
 20
3.030075507715002
 30
0.0
 11
4.961677594981722
 21
2.914803643025405
 31
0.0
1001
REVIT
1002
{
1070
     2
1000
-2001160
1002
}
  0
LINE
  5
C11
330
B98
100
AcDbEntity
  8
D35160802
100
AcDbLine
 10
5.695794172453428
 20
3.18200022570649
 30
0.0
 11
5.698459795742259
 21
3.334713681645729
 31
0.0
1001
REVIT
1002
{
1070
     2
1000
-2001160
1002
}
  0
LINE
  5
C12
330
B98
100
AcDbEntity
  8
D35160802
100
AcDbLine
 10
-0.5498154586329349
 20
2.782046798512443
 30
0.0
 11
-0.3319470739503743
 21
2.446558906216891
 31
0.0
1001
REVIT
1002
{
1070
     2
1000
-2001160
1002
}
  0
LINE
  5
C13
330
B98
100
AcDbEntity
  8
D35160802
100
AcDbLine
 10
-0.2523348932481149
 20
2.287389830892878
 30
0.0
 11
-0.2777202215722632
 21
2.276087554536991
 31
0.0
1001
REVIT
1002
{
1070
     2
1000
-2001160
1002
}
  0
LINE
  5
C14
330
B98
100
AcDbEntity
  8
D35160802
100
AcDbLine
 10
0.3146877379302424
 20
2.395149017241053
 30
0.0
 11
0.5659117244166901
 21
2.782000032101362
 31
0.0
1001
REVIT
1002
{
1070
     2
1000
-2001160
1002
}
  0
LINE
  5
C15
330
B98
100
AcDbEntity
  8
D35160802
100
AcDbLine
 10
0.2938468578184796
 20
2.276087554536991
 30
0.0
 11
0.2572455129847384
 21
2.292383523177842
 31
0.0
1001
REVIT
1002
{
1070
     2
1000
-2001160
1002
}
  0
LINE
  5
C16
330
B98
100
AcDbEntity
  8
D35160802
100
AcDbLine
 10
-0.2777202215722632
 20
2.276087554536991
 30
0.0
 11
-0.3122898236081184
 21
2.113450363926415
 31
0.0
1001
REVIT
1002
{
1070
     2
1000
-2001160
1002
}
  0
LINE
  5
C17
330
B98
100
AcDbEntity
  8
D35160802
100
AcDbLine
 10
-0.9983532947266056
 20
0.3261939176297552
 30
0.0
 11
-0.9129368657194447
 21
0.4500174020206903
 31
0.0
1001
REVIT
1002
{
1070
     2
1000
-2001160
1002
}
  0
LINE
  5
C18
330
B98
100
AcDbEntity
  8
D35160802
100
AcDbLine
 10
-0.9129368657194447
 20
0.4500174020206903
 30
0.0
 11
-0.8325403794423493
 21
0.5771575869558423
 31
0.0
1001
REVIT
1002
{
1070
     2
1000
-2001160
1002
}
  0
LINE
  5
C19
330
B98
100
AcDbEntity
  8
D35160802
100
AcDbLine
 10
-0.8325403794423493
 20
0.5771575869558423
 30
0.0
 11
-0.7572924531230321
 21
0.7074110752611081
 31
0.0
1001
REVIT
1002
{
1070
     2
1000
-2001160
1002
}
  0
LINE
  5
C1A
330
B98
100
AcDbEntity
  8
D35160802
100
AcDbLine
 10
-0.7572924531230321
 20
0.7074110752611081
 30
0.0
 11
-0.6873134673915651
 21
0.8405694891411297
 31
0.0
1001
REVIT
1002
{
1070
     2
1000
-2001160
1002
}
  0
LINE
  5
C1B
330
B98
100
AcDbEntity
  8
D35160802
100
AcDbLine
 10
-0.6873134673915651
 20
0.8405694891411297
 30
0.0
 11
-0.6227153736970657
 21
0.9764198035393114
 31
0.0
1001
REVIT
1002
{
1070
     2
1000
-2001160
1002
}
  0
LINE
  5
C1C
330
B98
100
AcDbEntity
  8
D35160802
100
AcDbLine
 10
-0.6227153736970657
 20
0.9764198035393114
 30
0.0
 11
-0.5636015152092569
 21
1.114744686932469
 31
0.0
1001
REVIT
1002
{
1070
     2
1000
-2001160
1002
}
  0
LINE
  5
C1D
330
B98
100
AcDbEntity
  8
D35160802
100
AcDbLine
 10
-0.5636015152092569
 20
1.114744686932469
 30
0.0
 11
-0.5100664614914301
 21
1.255322849014911
 31
0.0
1001
REVIT
1002
{
1070
     2
1000
-2001160
1002
}
  0
LINE
  5
C1E
330
B98
100
AcDbEntity
  8
D35160802
100
AcDbLine
 10
-0.5100664614914301
 20
1.255322849014911
 30
0.0
 11
-0.4621958572093341
 21
1.397929394715713
 31
0.0
1001
REVIT
1002
{
1070
     2
1000
-2001160
1002
}
  0
LINE
  5
C1F
330
B98
100
AcDbEntity
  8
D35160802
100
AcDbLine
 10
-0.4621958572093341
 20
1.397929394715713
 30
0.0
 11
-0.4200662851179687
 21
1.542336183982861
 31
0.0
1001
REVIT
1002
{
1070
     2
1000
-2001160
1002
}
  0
LINE
  5
C20
330
B98
100
AcDbEntity
  8
D35160802
100
AcDbLine
 10
-0.4200662851179687
 20
1.542336183982861
 30
0.0
 11
-0.3837451435455215
 21
1.688312196758666
 31
0.0
1001
REVIT
1002
{
1070
     2
1000
-2001160
1002
}
  0
LINE
  5
C21
330
B98
100
AcDbEntity
  8
D35160802
100
AcDbLine
 10
-0.3837451435455215
 20
1.688312196758666
 30
0.0
 11
-0.3532905385704055
 21
1.835623902562575
 31
0.0
1001
REVIT
1002
{
1070
     2
1000
-2001160
1002
}
  0
LINE
  5
C22
330
B98
100
AcDbEntity
  8
D35160802
100
AcDbLine
 10
-0.3532905385704055
 20
1.835623902562575
 30
0.0
 11
-0.3287511910639473
 21
1.984035634090123
 31
0.0
1001
REVIT
1002
{
1070
     2
1000
-2001160
1002
}
  0
LINE
  5
C23
330
B98
100
AcDbEntity
  8
D35160802
100
AcDbLine
 10
-0.3287511910639473
 20
1.984035634090123
 30
0.0
 11
-0.312289823608122
 21
2.113450363926441
 31
0.0
1001
REVIT
1002
{
1070
     2
1000
-2001160
1002
}
  0
LINE
  5
C24
330
B98
100
AcDbEntity
  8
D35160802
100
AcDbLine
 10
0.3284164598543384
 20
2.113450363926414
 30
0.0
 11
0.2938468578184796
 21
2.276087554536991
 31
0.0
1001
REVIT
1002
{
1070
     2
1000
-2001160
1002
}
  0
LINE
  5
C25
330
B98
100
AcDbEntity
  8
D35160802
100
AcDbLine
 10
0.3284164598543349
 20
2.11345036392644
 30
0.0
 11
0.3477937658188743
 21
1.964276835294164
 31
0.0
1001
REVIT
1002
{
1070
     2
1000
-2001160
1002
}
  0
LINE
  5
C26
330
B98
100
AcDbEntity
  8
D35160802
100
AcDbLine
 10
0.3477937658188743
 20
1.964276835294164
 30
0.0
 11
0.3731209220937224
 21
1.815997515137652
 31
0.0
1001
REVIT
1002
{
1070
     2
1000
-2001160
1002
}
  0
LINE
  5
C27
330
B98
100
AcDbEntity
  8
D35160802
100
AcDbLine
 10
0.3731209220937224
 20
1.815997515137652
 30
0.0
 11
0.4043574106316719
 21
1.66884961873792
 31
0.0
1001
REVIT
1002
{
1070
     2
1000
-2001160
1002
}
  0
LINE
  5
C28
330
B98
100
AcDbEntity
  8
D35160802
100
AcDbLine
 10
0.4043574106316719
 20
1.66884961873792
 30
0.0
 11
0.4414532597144963
 21
1.52306855133933
 31
0.0
1001
REVIT
1002
{
1070
     2
1000
-2001160
1002
}
  0
LINE
  5
C29
330
B98
100
AcDbEntity
  8
D35160802
100
AcDbLine
 10
0.4414532597144963
 20
1.52306855133933
 30
0.0
 11
0.4843491238970188
 21
1.378887531551418
 31
0.0
1001
REVIT
1002
{
1070
     2
1000
-2001160
1002
}
  0
LINE
  5
C2A
330
B98
100
AcDbEntity
  8
D35160802
100
AcDbLine
 10
0.4843491238970188
 20
1.378887531551418
 30
0.0
 11
0.5329763789471827
 21
1.236537218248868
 31
0.0
1001
REVIT
1002
{
1070
     2
1000
-2001160
1002
}
  0
LINE
  5
C2B
330
B98
100
AcDbEntity
  8
D35160802
100
AcDbLine
 10
0.5329763789471827
 20
1.236537218248868
 30
0.0
 11
0.5872572316301615
 21
1.096245341566514
 31
0.0
1001
REVIT
1002
{
1070
     2
1000
-2001160
1002
}
  0
LINE
  5
C2C
330
B98
100
AcDbEntity
  8
D35160802
100
AcDbLine
 10
0.5872572316301615
 20
1.096245341566514
 30
0.0
 11
0.647104844160964
 21
0.9582363385797144
 31
0.0
1001
REVIT
1002
{
1070
     2
1000
-2001160
1002
}
  0
LINE
  5
C2D
330
B98
100
AcDbEntity
  8
D35160802
100
AcDbLine
 10
0.647104844160964
 20
0.9582363385797144
 30
0.0
 11
0.7124234731263499
 21
0.8227309942528947
 31
0.0
1001
REVIT
1002
{
1070
     2
1000
-2001160
1002
}
  0
LINE
  5
C2E
330
B98
100
AcDbEntity
  8
D35160802
100
AcDbLine
 10
0.7124234731263499
 20
0.8227309942528947
 30
0.0
 11
0.7831086226538737
 21
0.6899460882307129
 31
0.0
1001
REVIT
1002
{
1070
     2
1000
-2001160
1002
}
  0
LINE
  5
C2F
330
B98
100
AcDbEntity
  8
D35160802
100
AcDbLine
 10
0.7831086226538737
 20
0.6899460882307129
 30
0.0
 11
0.8590472115829825
 21
0.5600940480368691
 31
0.0
1001
REVIT
1002
{
1070
     2
1000
-2001160
1002
}
  0
LINE
  5
C30
330
B98
100
AcDbEntity
  8
D35160802
100
AcDbLine
 10
0.8590472115829825
 20
0.5600940480368691
 30
0.0
 11
0.9401177543707603
 21
0.4333826092353839
 31
0.0
1001
REVIT
1002
{
1070
     2
1000
-2001160
1002
}
  0
LINE
  5
C31
330
B98
100
AcDbEntity
  8
D35160802
100
AcDbLine
 10
0.9401177543707603
 20
0.4333826092353839
 30
0.0
 11
1.014479930972822
 21
0.3261939176297546
 31
0.0
1001
REVIT
1002
{
1070
     2
1000
-2001160
1002
}
  0
LINE
  5
C32
330
B98
100
AcDbEntity
  8
D35160802
100
AcDbLine
 10
-1.106641401110028
 20
0.3261939176297419
 30
0.0
 11
-1.106641401110028
 21
0.2483436452417587
 31
0.0
1001
REVIT
1002
{
1070
     2
1000
-2001160
1002
}
  0
LINE
  5
C33
330
B98
100
AcDbEntity
  8
D35160802
100
AcDbLine
 10
1.106641401110028
 20
0.248343645241728
 30
0.0
 11
1.106641401110032
 21
0.3261939176297119
 31
0.0
1001
REVIT
1002
{
1070
     2
1000
-2001160
1002
}
  0
LINE
  5
C34
330
B98
100
AcDbEntity
  8
D35160802
100
AcDbLine
 10
-1.171856613403964
 20
0.2269956496102059
 30
0.0
 11
-1.171573719868963
 21
0.2280742980384438
 31
0.0
1001
REVIT
1002
{
1070
     2
1000
-2001160
1002
}
  0
LINE
  5
C35
330
B98
100
AcDbEntity
  8
D35160802
100
AcDbLine
 10
-1.171573719868963
 20
0.2280742980384438
 30
0.0
 11
-1.17124791818615
 21
0.2291407709388797
 31
0.0
1001
REVIT
1002
{
1070
     2
1000
-2001160
1002
}
  0
LINE
  5
C36
330
B98
100
AcDbEntity
  8
D35160802
100
AcDbLine
 10
-1.17124791818615
 20
0.2291407709388797
 30
0.0
 11
-1.170879729568717
 21
0.2301933621823724
 31
0.0
1001
REVIT
1002
{
1070
     2
1000
-2001160
1002
}
  0
LINE
  5
C37
330
B98
100
AcDbEntity
  8
D35160802
100
AcDbLine
 10
-1.170879729568717
 20
0.2301933621823724
 30
0.0
 11
-1.170469743039909
 21
0.2312303878474742
 31
0.0
1001
REVIT
1002
{
1070
     2
1000
-2001160
1002
}
  0
LINE
  5
C38
330
B98
100
AcDbEntity
  8
D35160802
100
AcDbLine
 10
-1.170469743039909
 20
0.2312303878474742
 30
0.0
 11
-1.170018614490711
 21
0.2322501889143416
 31
0.0
1001
REVIT
1002
{
1070
     2
1000
-2001160
1002
}
  0
LINE
  5
C39
330
B98
100
AcDbEntity
  8
D35160802
100
AcDbLine
 10
-1.170018614490711
 20
0.2322501889143416
 30
0.0
 11
-1.169527065630568
 21
0.2332511339188141
 31
0.0
1001
REVIT
1002
{
1070
     2
1000
-2001160
1002
}
  0
LINE
  5
C3A
330
B98
100
AcDbEntity
  8
D35160802
100
AcDbLine
 10
-1.169527065630568
 20
0.2332511339188141
 30
0.0
 11
-1.168995882832795
 21
0.2342316215624074
 31
0.0
1001
REVIT
1002
{
1070
     2
1000
-2001160
1002
}
  0
LINE
  5
C3B
330
B98
100
AcDbEntity
  8
D35160802
100
AcDbLine
 10
-1.168995882832795
 20
0.2342316215624074
 30
0.0
 11
-1.168425915876564
 21
0.235190083274051
 31
0.0
1001
REVIT
1002
{
1070
     2
1000
-2001160
1002
}
  0
LINE
  5
C3C
330
B98
100
AcDbEntity
  8
D35160802
100
AcDbLine
 10
-1.168425915876564
 20
0.235190083274051
 30
0.0
 11
-1.167818076587408
 21
0.2361249857194687
 31
0.0
1001
REVIT
1002
{
1070
     2
1000
-2001160
1002
}
  0
LINE
  5
C3D
330
B98
100
AcDbEntity
  8
D35160802
100
AcDbLine
 10
-1.167818076587408
 20
0.2361249857194687
 30
0.0
 11
-1.167173337378532
 21
0.2370348332541803
 31
0.0
1001
REVIT
1002
{
1070
     2
1000
-2001160
1002
}
  0
LINE
  5
C3E
330
B98
100
AcDbEntity
  8
D35160802
100
AcDbLine
 10
-1.167173337378532
 20
0.2370348332541803
 30
0.0
 11
-1.166492729695129
 21
0.2379181703162234
 31
0.0
1001
REVIT
1002
{
1070
     2
1000
-2001160
1002
}
  0
LINE
  5
C3F
330
B98
100
AcDbEntity
  8
D35160802
100
AcDbLine
 10
-1.166492729695129
 20
0.2379181703162234
 30
0.0
 11
-1.165777342364304
 21
0.2387735837547324
 31
0.0
1001
REVIT
1002
{
1070
     2
1000
-2001160
1002
}
  0
LINE
  5
C40
330
B98
100
AcDbEntity
  8
D35160802
100
AcDbLine
 10
-1.165777342364304
 20
0.2387735837547324
 30
0.0
 11
-1.165028319853181
 21
0.2395997050906846
 31
0.0
1001
REVIT
1002
{
1070
     2
1000
-2001160
1002
}
  0
LINE
  5
C41
330
B98
100
AcDbEntity
  8
D35160802
100
AcDbLine
 10
-1.165028319853181
 20
0.2395997050906846
 30
0.0
 11
-1.164246860437991
 21
0.2403952127061721
 31
0.0
1001
REVIT
1002
{
1070
     2
1000
-2001160
1002
}
  0
LINE
  5
C42
330
B98
100
AcDbEntity
  8
D35160802
100
AcDbLine
 10
-1.164246860437991
 20
0.2403952127061721
 30
0.0
 11
-1.1634342142871
 21
0.2411588339587096
 31
0.0
1001
REVIT
1002
{
1070
     2
1000
-2001160
1002
}
  0
LINE
  5
C43
330
B98
100
AcDbEntity
  8
D35160802
100
AcDbLine
 10
-1.1634342142871
 20
0.2411588339587096
 30
0.0
 11
-1.162591681460991
 21
0.2418893472171915
 31
0.0
1001
REVIT
1002
{
1070
     2
1000
-2001160
1002
}
  0
LINE
  5
C44
330
B98
100
AcDbEntity
  8
D35160802
100
AcDbLine
 10
-1.162591681460991
 20
0.2418893472171915
 30
0.0
 11
-1.161720609832457
 21
0.2425855838162358
 31
0.0
1001
REVIT
1002
{
1070
     2
1000
-2001160
1002
}
  0
LINE
  5
C45
330
B98
100
AcDbEntity
  8
D35160802
100
AcDbLine
 10
-1.161720609832457
 20
0.2425855838162358
 30
0.0
 11
-1.160822392930285
 21
0.2432464299258086
 31
0.0
1001
REVIT
1002
{
1070
     2
1000
-2001160
1002
}
  0
LINE
  5
C46
330
B98
100
AcDbEntity
  8
D35160802
100
AcDbLine
 10
-1.160822392930285
 20
0.2432464299258086
 30
0.0
 11
-1.159898467709908
 21
0.2438708283331084
 31
0.0
1001
REVIT
1002
{
1070
     2
1000
-2001160
1002
}
  0
LINE
  5
C47
330
B98
100
AcDbEntity
  8
D35160802
100
AcDbLine
 10
-1.159898467709908
 20
0.2438708283331084
 30
0.0
 11
-1.158950312254585
 21
0.2444577801338785
 31
0.0
1001
REVIT
1002
{
1070
     2
1000
-2001160
1002
}
  0
LINE
  5
C48
330
B98
100
AcDbEntity
  8
D35160802
100
AcDbLine
 10
-1.158950312254585
 20
0.2444577801338785
 30
0.0
 11
-1.157979443410784
 21
0.2450063463304501
 31
0.0
1001
REVIT
1002
{
1070
     2
1000
-2001160
1002
}
  0
LINE
  5
C49
330
B98
100
AcDbEntity
  8
D35160802
100
AcDbLine
 10
-1.157979443410784
 20
0.2450063463304501
 30
0.0
 11
-1.156987414361545
 21
0.2455156493339277
 31
0.0
1001
REVIT
1002
{
1070
     2
1000
-2001160
1002
}
  0
LINE
  5
C4A
330
B98
100
AcDbEntity
  8
D35160802
100
AcDbLine
 10
-1.156987414361545
 20
0.2455156493339277
 30
0.0
 11
-1.155975812141726
 21
0.2459848743681532
 31
0.0
1001
REVIT
1002
{
1070
     2
1000
-2001160
1002
}
  0
LINE
  5
C4B
330
B98
100
AcDbEntity
  8
D35160802
100
AcDbLine
 10
-1.155975812141726
 20
0.2459848743681532
 30
0.0
 11
-1.154946255099083
 21
0.2464132707731672
 31
0.0
1001
REVIT
1002
{
1070
     2
1000
-2001160
1002
}
  0
LINE
  5
C4C
330
B98
100
AcDbEntity
  8
D35160802
100
AcDbLine
 10
-1.154946255099083
 20
0.2464132707731672
 30
0.0
 11
-1.153900390305256
 21
0.2468001532061086
 31
0.0
1001
REVIT
1002
{
1070
     2
1000
-2001160
1002
}
  0
LINE
  5
C4D
330
B98
100
AcDbEntity
  8
D35160802
100
AcDbLine
 10
-1.153900390305256
 20
0.2468001532061086
 30
0.0
 11
-1.152839890920809
 21
0.2471449027376129
 31
0.0
1001
REVIT
1002
{
1070
     2
1000
-2001160
1002
}
  0
LINE
  5
C4E
330
B98
100
AcDbEntity
  8
D35160802
100
AcDbLine
 10
-1.152839890920809
 20
0.2471449027376129
 30
0.0
 11
-1.151766453518529
 21
0.2474469678419744
 31
0.0
1001
REVIT
1002
{
1070
     2
1000
-2001160
1002
}
  0
LINE
  5
C4F
330
B98
100
AcDbEntity
  8
D35160802
100
AcDbLine
 10
-1.151766453518529
 20
0.2474469678419744
 30
0.0
 11
-1.150681795369273
 21
0.2477058652794635
 31
0.0
1001
REVIT
1002
{
1070
     2
1000
-2001160
1002
}
  0
LINE
  5
C50
330
B98
100
AcDbEntity
  8
D35160802
100
AcDbLine
 10
-1.150681795369273
 20
0.2477058652794635
 30
0.0
 11
-1.149587651694698
 21
0.2479211808694077
 31
0.0
1001
REVIT
1002
{
1070
     2
1000
-2001160
1002
}
  0
LINE
  5
C51
330
B98
100
AcDbEntity
  8
D35160802
100
AcDbLine
 10
-1.149587651694698
 20
0.2479211808694077
 30
0.0
 11
-1.148485772891277
 21
0.2480925701527945
 31
0.0
1001
REVIT
1002
{
1070
     2
1000
-2001160
1002
}
  0
LINE
  5
C52
330
B98
100
AcDbEntity
  8
D35160802
100
AcDbLine
 10
-1.148485772891277
 20
0.2480925701527945
 30
0.0
 11
-1.147377921730043
 21
0.2482197589433328
 31
0.0
1001
REVIT
1002
{
1070
     2
1000
-2001160
1002
}
  0
LINE
  5
C53
330
B98
100
AcDbEntity
  8
D35160802
100
AcDbLine
 10
-1.147377921730043
 20
0.2482197589433328
 30
0.0
 11
-1.146265870536524
 21
0.2483025437660884
 31
0.0
1001
REVIT
1002
{
1070
     2
1000
-2001160
1002
}
  0
LINE
  5
C54
330
B98
100
AcDbEntity
  8
D35160802
100
AcDbLine
 10
-1.146265870536524
 20
0.2483025437660884
 30
0.0
 11
-1.145151398355405
 21
0.2483407921830054
 31
0.0
1001
REVIT
1002
{
1070
     2
1000
-2001160
1002
}
  0
LINE
  5
C55
330
B98
100
AcDbEntity
  8
D35160802
100
AcDbLine
 10
-1.145151398355405
 20
0.2483407921830054
 30
0.0
 11
-1.144752551521158
 21
0.248343645241758
 31
0.0
1001
REVIT
1002
{
1070
     2
1000
-2001160
1002
}
  0
LINE
  5
C56
330
B98
100
AcDbEntity
  8
D35160802
100
AcDbLine
 10
1.144752551521158
 20
0.248343645241726
 30
0.0
 11
1.145867456829122
 21
0.2483213441620105
 31
0.0
1001
REVIT
1002
{
1070
     2
1000
-2001160
1002
}
  0
LINE
  5
C57
330
B98
100
AcDbEntity
  8
D35160802
100
AcDbLine
 10
1.145867456829122
 20
0.2483213441620105
 30
0.0
 11
1.146980578526431
 21
0.2482544765998325
 31
0.0
1001
REVIT
1002
{
1070
     2
1000
-2001160
1002
}
  0
LINE
  5
C58
330
B98
100
AcDbEntity
  8
D35160802
100
AcDbLine
 10
1.146980578526431
 20
0.2482544765998325
 30
0.0
 11
1.148090135855817
 21
0.2481431495290285
 31
0.0
1001
REVIT
1002
{
1070
     2
1000
-2001160
1002
}
  0
LINE
  5
C59
330
B98
100
AcDbEntity
  8
D35160802
100
AcDbLine
 10
1.148090135855817
 20
0.2481431495290285
 30
0.0
 11
1.149194353762243
 21
0.2479875410491636
 31
0.0
1001
REVIT
1002
{
1070
     2
1000
-2001160
1002
}
  0
LINE
  5
C5A
330
B98
100
AcDbEntity
  8
D35160802
100
AcDbLine
 10
1.149194353762243
 20
0.2479875410491636
 30
0.0
 11
1.150291465732621
 21
0.2477879001006096
 31
0.0
1001
REVIT
1002
{
1070
     2
1000
-2001160
1002
}
  0
LINE
  5
C5B
330
B98
100
AcDbEntity
  8
D35160802
100
AcDbLine
 10
1.150291465732621
 20
0.2477879001006096
 30
0.0
 11
1.151379716621832
 21
0.2475445460662964
 31
0.0
1001
REVIT
1002
{
1070
     2
1000
-2001160
1002
}
  0
LINE
  5
C5C
330
B98
100
AcDbEntity
  8
D35160802
100
AcDbLine
 10
1.151379716621832
 20
0.2475445460662964
 30
0.0
 11
1.152457365460605
 21
0.2472578682607673
 31
0.0
1001
REVIT
1002
{
1070
     2
1000
-2001160
1002
}
  0
LINE
  5
C5D
330
B98
100
AcDbEntity
  8
D35160802
100
AcDbLine
 10
1.152457365460605
 20
0.2472578682607673
 30
0.0
 11
1.153522688240677
 21
0.2469283253073558
 31
0.0
1001
REVIT
1002
{
1070
     2
1000
-2001160
1002
}
  0
LINE
  5
C5E
330
B98
100
AcDbEntity
  8
D35160802
100
AcDbLine
 10
1.153522688240677
 20
0.2469283253073558
 30
0.0
 11
1.154573980672861
 21
0.2465564444044885
 31
0.0
1001
REVIT
1002
{
1070
     2
1000
-2001160
1002
}
  0
LINE
  5
C5F
330
B98
100
AcDbEntity
  8
D35160802
100
AcDbLine
 10
1.154573980672861
 20
0.2465564444044885
 30
0.0
 11
1.155609560913529
 21
0.2461428204822809
 31
0.0
1001
REVIT
1002
{
1070
     2
1000
-2001160
1002
}
  0
LINE
  5
C60
330
B98
100
AcDbEntity
  8
D35160802
100
AcDbLine
 10
1.155609560913529
 20
0.2461428204822809
 30
0.0
 11
1.156627772255209
 21
0.2456881152507702
 31
0.0
1001
REVIT
1002
{
1070
     2
1000
-2001160
1002
}
  0
LINE
  5
C61
330
B98
100
AcDbEntity
  8
D35160802
100
AcDbLine
 10
1.156627772255209
 20
0.2456881152507702
 30
0.0
 11
1.157626985776957
 21
0.2451930561413322
 31
0.0
1001
REVIT
1002
{
1070
     2
1000
-2001160
1002
}
  0
LINE
  5
C62
330
B98
100
AcDbEntity
  8
D35160802
100
AcDbLine
 10
1.157626985776957
 20
0.2451930561413322
 30
0.0
 11
1.158605602950299
 21
0.2446584351429322
 31
0.0
1001
REVIT
1002
{
1070
     2
1000
-2001160
1002
}
  0
LINE
  5
C63
330
B98
100
AcDbEntity
  8
D35160802
100
AcDbLine
 10
1.158605602950299
 20
0.2446584351429322
 30
0.0
 11
1.159562058196513
 21
0.2440851075351231
 31
0.0
1001
REVIT
1002
{
1070
     2
1000
-2001160
1002
}
  0
LINE
  5
C64
330
B98
100
AcDbEntity
  8
D35160802
100
AcDbLine
 10
1.159562058196513
 20
0.2440851075351231
 30
0.0
 11
1.160494821391239
 21
0.2434739905197729
 31
0.0
1001
REVIT
1002
{
1070
     2
1000
-2001160
1002
}
  0
LINE
  5
C65
330
B98
100
AcDbEntity
  8
D35160802
100
AcDbLine
 10
1.160494821391239
 20
0.2434739905197729
 30
0.0
 11
1.161402400312343
 21
0.2428260617537417
 31
0.0
1001
REVIT
1002
{
1070
     2
1000
-2001160
1002
}
  0
LINE
  5
C66
330
B98
100
AcDbEntity
  8
D35160802
100
AcDbLine
 10
1.161402400312343
 20
0.2428260617537417
 30
0.0
 11
1.162283343027162
 21
0.2421423577848376
 31
0.0
1001
REVIT
1002
{
1070
     2
1000
-2001160
1002
}
  0
LINE
  5
C67
330
B98
100
AcDbEntity
  8
D35160802
100
AcDbLine
 10
1.162283343027162
 20
0.2421423577848376
 30
0.0
 11
1.163136240215273
 21
0.2414239723935623
 31
0.0
1001
REVIT
1002
{
1070
     2
1000
-2001160
1002
}
  0
LINE
  5
C68
330
B98
100
AcDbEntity
  8
D35160802
100
AcDbLine
 10
1.163136240215273
 20
0.2414239723935623
 30
0.0
 11
1.163959727423119
 21
0.2406720548432928
 31
0.0
1001
REVIT
1002
{
1070
     2
1000
-2001160
1002
}
  0
LINE
  5
C69
330
B98
100
AcDbEntity
  8
D35160802
100
AcDbLine
 10
1.163959727423119
 20
0.2406720548432928
 30
0.0
 11
1.164752487246829
 21
0.2398878080417119
 31
0.0
1001
REVIT
1002
{
1070
     2
1000
-2001160
1002
}
  0
LINE
  5
C6A
330
B98
100
AcDbEntity
  8
D35160802
100
AcDbLine
 10
1.164752487246829
 20
0.2398878080417119
 30
0.0
 11
1.165513251439808
 21
0.2390724866164022
 31
0.0
1001
REVIT
1002
{
1070
     2
1000
-2001160
1002
}
  0
LINE
  5
C6B
330
B98
100
AcDbEntity
  8
D35160802
100
AcDbLine
 10
1.165513251439808
 20
0.2390724866164022
 30
0.0
 11
1.166240802941633
 21
0.2382273949077214
 31
0.0
1001
REVIT
1002
{
1070
     2
1000
-2001160
1002
}
  0
LINE
  5
C6C
330
B98
100
AcDbEntity
  8
D35160802
100
AcDbLine
 10
1.166240802941633
 20
0.2382273949077214
 30
0.0
 11
1.166933977825095
 21
0.2373538848821235
 31
0.0
1001
REVIT
1002
{
1070
     2
1000
-2001160
1002
}
  0
LINE
  5
C6D
330
B98
100
AcDbEntity
  8
D35160802
100
AcDbLine
 10
1.166933977825095
 20
0.2373538848821235
 30
0.0
 11
1.167591667158259
 21
0.2364533539693125
 31
0.0
1001
REVIT
1002
{
1070
     2
1000
-2001160
1002
}
  0
LINE
  5
C6E
330
B98
100
AcDbEntity
  8
D35160802
100
AcDbLine
 10
1.167591667158259
 20
0.2364533539693125
 30
0.0
 11
1.168212818778489
 21
0.2355272428266446
 31
0.0
1001
REVIT
1002
{
1070
     2
1000
-2001160
1002
}
  0
LINE
  5
C6F
330
B98
100
AcDbEntity
  8
D35160802
100
AcDbLine
 10
1.168212818778489
 20
0.2355272428266446
 30
0.0
 11
1.168796438975697
 21
0.2345770330343895
 31
0.0
1001
REVIT
1002
{
1070
     2
1000
-2001160
1002
}
  0
LINE
  5
C70
330
B98
100
AcDbEntity
  8
D35160802
100
AcDbLine
 10
1.168796438975697
 20
0.2345770330343895
 30
0.0
 11
1.169341594082066
 21
0.233604244725514
 31
0.0
1001
REVIT
1002
{
1070
     2
1000
-2001160
1002
}
  0
LINE
  5
C71
330
B98
100
AcDbEntity
  8
D35160802
100
AcDbLine
 10
1.169341594082066
 20
0.233604244725514
 30
0.0
 11
1.169847411965719
 21
0.2326104341537947
 31
0.0
1001
REVIT
1002
{
1070
     2
1000
-2001160
1002
}
  0
LINE
  5
C72
330
B98
100
AcDbEntity
  8
D35160802
100
AcDbLine
 10
1.169847411965719
 20
0.2326104341537947
 30
0.0
 11
1.170313083425948
 21
0.2315971912041446
 31
0.0
1001
REVIT
1002
{
1070
     2
1000
-2001160
1002
}
  0
LINE
  5
C73
330
B98
100
AcDbEntity
  8
D35160802
100
AcDbLine
 10
1.170313083425948
 20
0.2315971912041446
 30
0.0
 11
1.170737863487751
 21
0.2305661368491372
 31
0.0
1001
REVIT
1002
{
1070
     2
1000
-2001160
1002
}
  0
LINE
  5
C74
330
B98
100
AcDbEntity
  8
D35160802
100
AcDbLine
 10
1.170737863487751
 20
0.2305661368491372
 30
0.0
 11
1.171121072593646
 21
0.2295189205557928
 31
0.0
1001
REVIT
1002
{
1070
     2
1000
-2001160
1002
}
  0
LINE
  5
C75
330
B98
100
AcDbEntity
  8
D35160802
100
AcDbLine
 10
1.171121072593646
 20
0.2295189205557928
 30
0.0
 11
1.17146209769081
 21
0.2284572176467874
 31
0.0
1001
REVIT
1002
{
1070
     2
1000
-2001160
1002
}
  0
LINE
  5
C76
330
B98
100
AcDbEntity
  8
D35160802
100
AcDbLine
 10
1.17146209769081
 20
0.2284572176467874
 30
0.0
 11
1.17176039321183
 21
0.2273827266202903
 31
0.0
1001
REVIT
1002
{
1070
     2
1000
-2001160
1002
}
  0
LINE
  5
C77
330
B98
100
AcDbEntity
  8
D35160802
100
AcDbLine
 10
1.17176039321183
 20
0.2273827266202903
 30
0.0
 11
1.171856613403967
 21
0.2269956496101739
 31
0.0
1001
REVIT
1002
{
1070
     2
1000
-2001160
1002
}
  0
LINE
  5
C78
330
B98
100
AcDbEntity
  8
D35160802
100
AcDbLine
 10
-1.171856613403964
 20
0.2269956496102072
 30
0.0
 11
-1.226562500000003
 21
0.0000000000000306
 31
0.0
1001
REVIT
1002
{
1070
     2
1000
-2001160
1002
}
  0
LINE
  5
C79
330
B98
100
AcDbEntity
  8
D35160802
100
AcDbLine
 10
1.2265625
 20
-0.0000000000000027
 30
0.0
 11
1.171856613403967
 21
0.2269956496101753
 31
0.0
1001
REVIT
1002
{
1070
     2
1000
-2001160
1002
}
  0
LINE
  5
C7A
330
B98
100
AcDbEntity
  8
D35160802
100
AcDbLine
 10
-0.5260989355347583
 20
2.854963885286248
 30
0.0
 11
-0.5990160223085646
 21
2.782046798512441
 31
0.0
1001
REVIT
1002
{
1070
     2
1000
-2001160
1002
}
  0
LINE
  5
C7B
330
B98
100
AcDbEntity
  8
D35160802
100
AcDbLine
 10
0.5990160226172528
 20
2.782046798203809
 30
0.0
 11
0.5260989355348294
 21
2.854963885286234
 31
0.0
1001
REVIT
1002
{
1070
     2
1000
-2001160
1002
}
  0
LINE
  5
C7C
330
B98
100
AcDbEntity
  8
D35160802
100
AcDbLine
 10
-0.5260989355347299
 20
2.854963885286252
 30
0.0
 11
-0.4204634214093055
 21
2.873897656995352
 31
0.0
1001
REVIT
1002
{
1070
     2
1000
-2001160
1002
}
  0
LINE
  5
C7D
330
B98
100
AcDbEntity
  8
D35160802
100
AcDbLine
 10
-0.4204634214093055
 20
2.873897656995352
 30
0.0
 11
-0.3141552555036995
 21
2.888591989830239
 31
0.0
1001
REVIT
1002
{
1070
     2
1000
-2001160
1002
}
  0
LINE
  5
C7E
330
B98
100
AcDbEntity
  8
D35160802
100
AcDbLine
 10
-0.3141552555036995
 20
2.888591989830239
 30
0.0
 11
-0.2073445082054981
 21
2.899023375993004
 31
0.0
1001
REVIT
1002
{
1070
     2
1000
-2001160
1002
}
  0
LINE
  5
C7F
330
B98
100
AcDbEntity
  8
D35160802
100
AcDbLine
 10
-0.2073445082054981
 20
2.899023375993004
 30
0.0
 11
-0.1002020539253081
 21
2.905175127491029
 31
0.0
1001
REVIT
1002
{
1070
     2
1000
-2001160
1002
}
  0
LINE
  5
C80
330
B98
100
AcDbEntity
  8
D35160802
100
AcDbLine
 10
-0.1002020539253081
 20
2.905175127491029
 30
0.0
 11
0.0000000000000782
 21
2.907046798512437
 31
0.0
1001
REVIT
1002
{
1070
     2
1000
-2001160
1002
}
  0
LINE
  5
C81
330
B98
100
AcDbEntity
  8
D35160802
100
AcDbLine
 10
-0.0000000000000036
 20
2.907046798512437
 30
0.0
 11
0.1072974521136416
 21
2.904900563297836
 31
0.0
1001
REVIT
1002
{
1070
     2
1000
-2001160
1002
}
  0
LINE
  5
C82
330
B98
100
AcDbEntity
  8
D35160802
100
AcDbLine
 10
0.1072974521136416
 20
2.904900563297836
 30
0.0
 11
0.2144232511928052
 21
2.89846529117254
 31
0.0
1001
REVIT
1002
{
1070
     2
1000
-2001160
1002
}
  0
LINE
  5
C83
330
B98
100
AcDbEntity
  8
D35160802
100
AcDbLine
 10
0.2144232511928052
 20
2.89846529117254
 30
0.0
 11
0.3212060188112495
 21
2.887751277199164
 31
0.0
1001
REVIT
1002
{
1070
     2
1000
-2001160
1002
}
  0
LINE
  5
C84
330
B98
100
AcDbEntity
  8
D35160802
100
AcDbLine
 10
0.3212060188112495
 20
2.887751277199164
 30
0.0
 11
0.427474925319892
 21
2.872775661514534
 31
0.0
1001
REVIT
1002
{
1070
     2
1000
-2001160
1002
}
  0
LINE
  5
C85
330
B98
100
AcDbEntity
  8
D35160802
100
AcDbLine
 10
0.427474925319892
 20
2.872775661514534
 30
0.0
 11
0.5260989355348045
 21
2.854963885286238
 31
0.0
1001
REVIT
1002
{
1070
     2
1000
-2001160
1002
}
  0
LINE
  5
C86
330
B98
100
AcDbEntity
  8
D35160802
100
AcDbLine
 10
-1.16273672218546
 20
0.3261939176297275
 30
0.0
 11
1.162736722185467
 21
0.3261939176296954
 31
0.0
1001
REVIT
1002
{
1070
     2
1000
-2001160
1002
}
  0
LINE
  5
C87
330
B98
100
AcDbEntity
  8
D35160802
100
AcDbLine
 10
-1.289062500000003
 20
0.0000000000000178
 30
0.0
 11
1.2890625
 21
-0.0000000000000178
 31
0.0
1001
REVIT
1002
{
1070
     2
1000
-2001160
1002
}
  0
SPLINE
  5
C88
330
B98
100
AcDbEntity
  8
D35160802
100
AcDbSpline
210
0.0
220
0.0
230
1.0
 70
     8
 71
     3
 72
     9
 73
     5
 74
     0
 42
0.000000001
 43
0.0000000001
 40
0.0
 40
0.0
 40
0.0
 40
0.0
 40
0.5
 40
1.0
 40
1.0
 40
1.0
 40
1.0
 10
-0.2617458107095878
 20
4.455664716021991
 30
0.0
 10
-0.3031064787597941
 20
4.525220984079264
 30
0.0
 10
-0.3848896803268538
 20
4.66466646613199
 30
0.0
 10
-0.4659732912638788
 20
4.804777840061071
 30
0.0
 10
-0.5067009443642015
 20
4.874999999994703
 30
0.0
1001
REVIT
1002
{
1070
     2
1000
-2001160
1002
}
  0
LINE
  5
C89
330
B98
100
AcDbEntity
  8
D35160802
100
AcDbLine
 10
-0.2285262508917931
 20
4.385490150729526
 30
0.0
 11
-0.2285262508917931
 21
4.455664716021991
 31
0.0
1001
REVIT
1002
{
1070
     2
1000
-2001160
1002
}
  0
LINE
  5
C8A
330
B98
100
AcDbEntity
  8
D35160802
100
AcDbLine
 10
-0.2411188767000887
 20
4.385490150729526
 30
0.0
 11
0.2475670870368773
 21
4.385490150729526
 31
0.0
1001
REVIT
1002
{
1070
     2
1000
-2001160
1002
}
  0
SPLINE
  5
C8B
330
B98
100
AcDbEntity
  8
D35160802
100
AcDbSpline
210
0.0
220
0.0
230
1.0
 70
     8
 71
     3
 72
     9
 73
     5
 74
     0
 42
0.000000001
 43
0.0000000001
 40
0.0
 40
0.0
 40
0.0
 40
0.0
 40
0.5
 40
1.0
 40
1.0
 40
1.0
 40
1.0
 10
-0.5222414548616854
 20
4.24031163393846
 30
0.0
 10
-0.4726438983175179
 20
4.265025907849245
 30
0.0
 10
-0.3748798620339819
 20
4.313936601225209
 30
0.0
 10
-0.2775442114845354
 20
4.361811585709959
 30
0.0
 10
-0.2285262508918002
 20
4.385490150729526
 30
0.0
1001
REVIT
1002
{
1070
     2
1000
-2001160
1002
}
  0
SPLINE
  5
C8C
330
B98
100
AcDbEntity
  8
D35160802
100
AcDbSpline
210
0.0
220
0.0
230
1.0
 70
     8
 71
     3
 72
     9
 73
     5
 74
     0
 42
0.000000001
 43
0.0000000001
 40
-1.0
 40
-1.0
 40
-1.0
 40
-1.0
 40
-0.5
 40
0.0
 40
0.0
 40
0.0
 40
0.0
 10
0.5299942623494474
 20
4.874999999994703
 30
0.0
 10
0.4891815077372712
 20
4.80478669450071
 30
0.0
 10
0.4062700510498125
 20
4.664684175011265
 30
0.0
 10
0.3226947642518709
 20
4.525229838518904
 30
0.0
 10
0.2812702296674452
 20
4.455664716021991
 30
0.0
1001
REVIT
1002
{
1070
     2
1000
-2001160
1002
}
  0
LINE
  5
C8D
330
B98
100
AcDbEntity
  8
D35160802
100
AcDbLine
 10
-0.2773963050312176
 20
4.455664716021991
 30
0.0
 11
0.2812702296674416
 21
4.455664716021991
 31
0.0
1001
REVIT
1002
{
1070
     2
1000
-2001160
1002
}
  0
LINE
  5
C8E
330
B98
100
AcDbEntity
  8
D35160802
100
AcDbLine
 10
0.2475670870368738
 20
4.455664716021991
 30
0.0
 11
0.2475670870368773
 21
4.385490150729526
 31
0.0
1001
REVIT
1002
{
1070
     2
1000
-2001160
1002
}
  0
SPLINE
  5
C8F
330
B98
100
AcDbEntity
  8
D35160802
100
AcDbSpline
210
0.0
220
0.0
230
1.0
 70
     8
 71
     3
 72
     9
 73
     5
 74
     0
 42
0.000000001
 43
0.0000000001
 40
-1.0
 40
-1.0
 40
-1.0
 40
-1.0
 40
-0.5
 40
0.0
 40
0.0
 40
0.0
 40
0.0
 10
0.2475670870368809
 20
4.385490150729526
 30
0.0
 10
0.2964268495242415
 20
4.361799530214125
 30
0.0
 10
0.3961289430094155
 20
4.313912490233546
 30
0.0
 10
0.4963374327635535
 20
4.265013852353413
 30
0.0
 10
0.5457817909137255
 20
4.240311633938458
 30
0.0
1001
REVIT
1002
{
1070
     2
1000
-2001160
1002
}
  0
SPLINE
  5
C90
330
B98
100
AcDbEntity
  8
D35160802
100
AcDbSpline
210
0.0
220
0.0
230
1.0
 70
     8
 71
     3
 72
     9
 73
     5
 74
     0
 42
0.000000001
 43
0.0000000001
 40
-1.0
 40
-1.0
 40
-1.0
 40
-1.0
 40
-0.5
 40
0.0
 40
0.0
 40
0.0
 40
0.0
 10
0.0000738055486522
 20
4.874999999994702
 30
0.0
 10
0.000639012669172
 20
4.804780766504276
 30
0.0
 10
0.0000855526147774
 20
4.664672319018396
 30
0.0
 10
-0.0004614829435035
 20
4.525223910522466
 30
0.0
 10
0.000096518401218
 20
4.455664716021991
 30
0.0
1001
REVIT
1002
{
1070
     2
1000
-2001160
1002
}
  0
LINE
  5
C91
330
B98
100
AcDbEntity
  8
D35160802
100
AcDbLine
 10
0.000098067197829
 20
4.45566471602199
 30
0.0
 11
0.0000980671978326
 21
4.385490150729526
 31
0.0
1001
REVIT
1002
{
1070
     2
1000
-2001160
1002
}
  0
SPLINE
  5
C92
330
B98
100
AcDbEntity
  8
D35160802
100
AcDbSpline
210
0.0
220
0.0
230
1.0
 70
     8
 71
     3
 72
     9
 73
     5
 74
     0
 42
0.000000001
 43
0.0000000001
 40
-1.0
 40
-1.0
 40
-1.0
 40
-1.0
 40
-0.5
 40
0.0
 40
0.0
 40
0.0
 40
0.0
 10
0.000098067197829
 20
4.385490150729526
 30
0.0
 10
-0.0008041241612453
 20
4.361807691389141
 30
0.0
 10
0.0000771152029699
 20
4.313928812583579
 30
0.0
 10
0.0010021786227341
 20
4.26502201352843
 30
0.0
 10
0.0000718886971427
 20
4.240311633938459
 30
0.0
1001
REVIT
1002
{
1070
     2
1000
-2001160
1002
}
  0
LINE
  5
C93
330
B98
100
AcDbEntity
  8
D35160802
100
AcDbLine
 10
-0.5671951641814062
 20
4.240311633938461
 30
0.0
 11
0.5833217997939287
 21
4.240311633938461
 31
0.0
1001
REVIT
1002
{
1070
     2
1000
-2001160
1002
}
  0
SPLINE
  5
C94
330
B98
100
AcDbEntity
  8
D35160802
100
AcDbSpline
210
0.0
220
0.0
230
1.0
 70
     8
 71
     3
 72
     9
 73
     5
 74
     0
 42
0.000000001
 43
0.0000000001
 40
0.0207741692288205
 40
0.0207741692288205
 40
0.0207741692288205
 40
0.0207741692288205
 40
0.3333333333333333
 40
0.631277389106517
 40
0.631277389106517
 40
0.631277389106517
 40
0.631277389106517
 10
-0.9375769434032363
 20
0.4054515877638658
 30
0.0
 10
-0.8428155969700519
 20
0.8032826678624989
 30
0.0
 10
-0.6913835842619989
 20
1.590441419513388
 30
0.0
 10
-0.5839879387623484
 20
2.38917050993054
 30
0.0
 10
-0.560535987357639
 20
2.781198619180832
 30
0.0
1001
REVIT
1002
{
1070
     2
1000
-2001160
1002
}
  0
SPLINE
  5
C95
330
B98
100
AcDbEntity
  8
D35160802
100
AcDbSpline
210
0.0
220
0.0
230
1.0
 70
     8
 71
     3
 72
     9
 73
     5
 74
     0
 42
0.000000001
 43
0.0000000001
 40
0.6399042293382788
 40
0.6399042293382788
 40
0.6399042293382788
 40
0.6399042293382788
 40
0.6666666666666666
 40
1.0
 40
1.0
 40
1.0
 40
1.0
 10
-0.5609492685501998
 20
2.815359689982951
 30
0.0
 10
-0.5583229075141781
 20
2.850555669619276
 30
0.0
 10
-0.5246252243461349
 20
3.324299485494773
 30
0.0
 10
-0.5129927188629609
 20
3.800189244028902
 30
0.0
 10
-0.5222414548616996
 20
4.240311633938461
 30
0.0
1001
REVIT
1002
{
1070
     2
1000
-2001160
1002
}
  0
SPLINE
  5
C96
330
B98
100
AcDbEntity
  8
D35160802
100
AcDbSpline
210
0.0
220
0.0
230
1.0
 70
     8
 71
     3
 72
     8
 73
     4
 74
     0
 42
0.000000001
 43
0.0000000001
 40
-1.0
 40
-1.0
 40
-1.0
 40
-1.0
 40
-0.9433769249807371
 40
-0.9433769249807371
 40
-0.9433769249807371
 40
-0.9433769249807371
 10
0.5761849879260659
 20
2.939931286022376
 30
0.0
 10
0.5796296289400438
 20
2.889896516255804
 30
0.0
 10
0.5833055562214149
 20
2.83988293916906
 30
0.0
 10
0.5872169223331057
 20
2.789893843058953
 30
0.0
1001
REVIT
1002
{
1070
     2
1000
-2001160
1002
}
  0
SPLINE
  5
C97
330
B98
100
AcDbEntity
  8
D35160802
100
AcDbSpline
210
0.0
220
0.0
230
1.0
 70
     8
 71
     3
 72
    10
 73
     6
 74
     0
 42
0.000000001
 43
0.0000000001
 40
-0.940247696410379
 40
-0.940247696410379
 40
-0.940247696410379
 40
-0.940247696410379
 40
-0.6666666666666666
 40
-0.3333333333333333
 40
-0.0184470571262495
 40
-0.0184470571262495
 40
-0.0184470571262495
 40
-0.0184470571262495
 10
0.5878675556972297
 20
2.781606246688127
 30
0.0
 10
0.606891572811108
 20
2.540091186435942
 30
0.0
 10
0.6614065017094291
 20
2.005620885278904
 30
0.0
 10
0.7881066123936052
 20
1.200714521418734
 30
0.0
 10
0.9099634808657626
 20
0.6426677674070004
 30
0.0
 10
0.9756693537147889
 20
0.3734834344458189
 30
0.0
1001
REVIT
1002
{
1070
     2
1000
-2001160
1002
}
  0
SPLINE
  5
C98
330
B98
100
AcDbEntity
  8
D35160802
100
AcDbSpline
210
0.0
220
0.0
230
1.0
 70
     8
 71
     3
 72
     9
 73
     5
 74
     0
 42
0.000000001
 43
0.0000000001
 40
-1.0
 40
-1.0
 40
-1.0
 40
-1.0
 40
-0.5
 40
0.0
 40
0.0
 40
0.0
 40
0.0
 10
0.5457817909137255
 20
4.240311633938461
 30
0.0
 10
0.544348985897873
 20
4.170795366457086
 30
0.0
 10
0.5424662975576524
 20
4.031745314470965
 30
0.0
 10
0.5425439202248939
 20
3.892694173301728
 30
0.0
 10
0.5433548754453419
 20
3.822019993122756
 30
0.0
1001
REVIT
1002
{
1070
     2
1000
-2001160
1002
}
  0
SPLINE
  5
C99
330
B98
100
AcDbEntity
  8
D35160802
100
AcDbSpline
210
0.0
220
0.0
230
1.0
 70
     8
 71
     3
 72
     9
 73
     5
 74
     0
 42
0.000000001
 43
0.0000000001
 40
-1.0
 40
-1.0
 40
-1.0
 40
-1.0
 40
-0.6666666666666666
 40
-0.6631157129137182
 40
-0.6631157129137182
 40
-0.6631157129137182
 40
-0.6631157129137182
 10
0.0000718886971427
 20
4.240311633938461
 30
0.0
 10
0.0011862347422564
 20
3.80019080204151
 30
0.0
 10
0.0002048038211164
 20
3.354977549820197
 30
0.0
 10
0.0000648746130878
 20
2.911641617630769
 30
0.0
 10
0.0000634906942594
 20
2.906968813269287
 30
0.0
1001
REVIT
1002
{
1070
     2
1000
-2001160
1002
}
  0
LINE
  5
C9A
330
B98
100
AcDbEntity
  8
D35160802
100
AcDbLine
 10
0.5260989355348791
 20
4.947917086771364
 30
0.0
 11
-0.5260989355347477
 21
4.947917086771379
 31
0.0
1001
REVIT
1002
{
1070
     2
1000
-2001160
1002
}
  0
LINE
  5
C9B
330
B98
100
AcDbEntity
  8
D35160802
100
AcDbLine
 10
-0.5990160223085539
 20
4.874999999997573
 30
0.0
 11
0.5990160223115382
 21
4.874999999994701
 31
0.0
1001
REVIT
1002
{
1070
     2
1000
-2001160
1002
}
  0
SPLINE
  5
C9C
330
B98
100
AcDbEntity
  8
D35160802
100
AcDbSpline
210
0.0
220
0.0
230
1.0
 70
    24
 71
     3
 72
     9
 73
     5
 74
     0
 42
0.000000001
 43
0.0000000001
 40
-0.6666666666666666
 40
-0.6666666666666666
 40
-0.6666666666666666
 40
-0.6666666666666666
 40
-0.3333333333333333
 40
0.0
 40
0.0
 40
0.0
 40
0.0
 10
4.809645755148775
 20
3.01121182707182
 30
0.0
 10
4.802801816313216
 20
3.008720837050539
 30
0.0
 10
4.802819701905546
 20
3.00872734687377
 30
0.0
 10
4.830198281288684
 20
3.018692334825729
 30
0.0
 10
4.8507319804893
 20
3.026165990134129
 30
0.0
1001
REVIT
1002
{
1070
     2
1000
-2001160
1002
}
  0
SPLINE
  5
C9D
330
B98
100
AcDbEntity
  8
D35160802
100
AcDbSpline
210
0.0
220
0.0
230
1.0
 70
     8
 71
     3
 72
    23
 73
    19
 74
     0
 42
0.000000001
 43
0.0000000001
 40
0.0
 40
0.0
 40
0.0
 40
0.0
 40
0.05
 40
0.1
 40
0.15
 40
0.175
 40
0.2
 40
0.225
 40
0.25
 40
0.3
 40
0.35
 40
0.4
 40
0.5
 40
0.6
 40
0.7
 40
0.8
 40
0.9
 40
1.0
 40
1.0
 40
1.0
 40
1.0
 10
4.8507319804893
 20
3.026165990134129
 30
0.0
 10
4.815499381355635
 20
3.116147721805365
 30
0.0
 10
4.75238747816426
 20
3.266143925114896
 30
0.0
 10
4.678153392841693
 20
3.409355669922323
 30
0.0
 10
4.635527528466514
 20
3.46875120973039
 30
0.0
 10
4.610338599650223
 20
3.496750189601086
 30
0.0
 10
4.592095067426225
 20
3.513378951076958
 30
0.0
 10
4.57249440725663
 20
3.528197272102638
 30
0.0
 10
4.543764743838718
 20
3.545911227417356
 30
0.0
 10
4.497639270261867
 20
3.565526535824036
 30
0.0
 10
4.413381355479494
 20
3.586237258534424
 30
0.0
 10
4.257543654144347
 20
3.602578434547793
 30
0.0
 10
3.982522283843618
 20
3.594560996554023
 30
0.0
 10
3.540321460214363
 20
3.544393954301696
 30
0.0
 10
3.003990866649953
 20
3.462956822874252
 30
0.0
 10
2.34362543804527
 20
3.339333042799919
 30
0.0
 10
1.534683808802302
 20
3.166734035689652
 30
0.0
 10
0.8798779003207783
 20
3.013914621614179
 30
0.0
 10
0.5194198149619212
 20
2.926848322890352
 30
0.0
1001
REVIT
1002
{
1070
     2
1000
-2001160
1002
}
  0
SPLINE
  5
C9E
330
B98
100
AcDbEntity
  8
D35160802
100
AcDbSpline
210
0.0
220
0.0
230
1.0
 70
     8
 71
     3
 72
     9
 73
     5
 74
     0
 42
0.000000001
 43
0.0000000001
 40
0.3333333333333333
 40
0.3333333333333333
 40
0.3333333333333333
 40
0.3333333333333333
 40
0.6666666666666666
 40
1.0
 40
1.0
 40
1.0
 40
1.0
 10
0.611952482809901
 20
2.947088272404623
 30
0.0
 10
0.6179310796260893
 20
2.948279412037722
 30
0.0
 10
0.6179103956721051
 20
2.948274536599655
 30
0.0
 10
0.5939668935485472
 20
2.943506728224746
 30
0.0
 10
0.5761849879260801
 20
2.939931286022376
 30
0.0
1001
REVIT
1002
{
1070
     2
1000
-2001160
1002
}
  0
SPLINE
  5
C9F
330
B98
100
AcDbEntity
  8
D35160802
100
AcDbSpline
210
0.0
220
0.0
230
1.0
 70
    24
 71
     3
 72
     9
 73
     5
 74
     0
 42
0.000000001
 43
0.0000000001
 40
-1.0
 40
-1.0
 40
-1.0
 40
-1.0
 40
-0.6666666666666666
 40
-0.3333333333333333
 40
-0.3333333333333333
 40
-0.3333333333333333
 40
-0.3333333333333333
 10
5.716643153768107
 20
3.341331882726141
 30
0.0
 10
5.737267555268399
 20
3.348838550971802
 30
0.0
 10
5.764767061976261
 20
3.358847552870467
 30
0.0
 10
5.764784430302125
 20
3.358853874424099
 30
0.0
 10
5.757910239216972
 20
3.356351873484443
 30
0.0
1001
REVIT
1002
{
1070
     2
1000
-2001160
1002
}
  0
SPLINE
  5
CA0
330
B98
100
AcDbEntity
  8
D35160802
100
AcDbSpline
210
0.0
220
0.0
230
1.0
 70
     8
 71
     3
 72
    20
 73
    16
 74
     0
 42
0.000000001
 43
0.0000000001
 40
0.0
 40
0.0
 40
0.0
 40
0.0
 40
0.1
 40
0.2
 40
0.3
 40
0.4
 40
0.5
 40
0.6
 40
0.65
 40
0.7
 40
0.8
 40
0.85
 40
0.9
 40
0.95
 40
1.0
 40
1.0
 40
1.0
 40
1.0
 10
0.4432191067377645
 20
3.797528140036807
 30
0.0
 10
0.7965382317701284
 20
3.884187185163006
 30
0.0
 10
1.440288740585977
 20
4.037029181123703
 30
0.0
 10
2.242595699922492
 20
4.212500626974706
 30
0.0
 10
2.908752404433647
 20
4.340136048324529
 30
0.0
 10
3.4613410092242
 20
4.429909377259937
 30
0.0
 10
3.929371024530817
 20
4.486095178672329
 30
0.0
 10
4.287977315782347
 20
4.502788878238511
 30
0.0
 10
4.569222834359882
 20
4.47622778269952
 30
0.0
 10
4.849592389483472
 20
4.413503632606564
 30
0.0
 10
5.122339219436177
 20
4.274675822259159
 30
0.0
 10
5.345263288432752
 20
4.052887298756652
 30
0.0
 10
5.481642837989909
 20
3.853798603722566
 30
0.0
 10
5.598502492606602
 20
3.626597826361178
 30
0.0
 10
5.675828666806795
 20
3.443717130130897
 30
0.0
 10
5.716643153768107
 20
3.341331882726141
 30
0.0
1001
REVIT
1002
{
1070
     2
1000
-2001160
1002
}
  0
SPLINE
  5
CA1
330
B98
100
AcDbEntity
  8
D35160802
100
AcDbSpline
210
0.0
220
0.0
230
1.0
 70
    24
 71
     3
 72
    10
 73
     6
 74
     0
 42
0.000000001
 43
0.0000000001
 40
-1.0
 40
-1.0
 40
-1.0
 40
-1.0
 40
-0.6666666666666666
 40
-0.3333333333333333
 40
0.0
 40
0.0
 40
0.0
 40
0.0
 10
5.283641435224236
 20
3.183732145790061
 30
0.0
 10
5.340787111384088
 20
3.204531470929264
 30
0.0
 10
5.449121413194875
 20
3.2439619321384
 30
0.0
 10
5.599086824530644
 20
3.298544878034108
 30
0.0
 10
5.680036184208191
 20
3.328008035439642
 30
0.0
 10
5.716643153768107
 20
3.341331882726142
 30
0.0
1001
REVIT
1002
{
1070
     2
1000
-2001160
1002
}
  0
SPLINE
  5
CA2
330
B98
100
AcDbEntity
  8
D35160802
100
AcDbSpline
210
0.0
220
0.0
230
1.0
 70
     8
 71
     3
 72
     9
 73
     5
 74
     0
 42
0.000000001
 43
0.0000000001
 40
0.0
 40
0.0
 40
0.0
 40
0.0
 40
0.5
 40
1.0
 40
1.0
 40
1.0
 40
1.0
 10
0.0353129161981336
 20
3.252211904645375
 30
0.0
 10
0.1205982865485744
 20
3.334447234444104
 30
0.0
 10
0.2735023671482111
 20
3.507578096227124
 30
0.0
 10
0.3915883418361829
 20
3.698005880576989
 30
0.0
 10
0.4432191067377645
 20
3.797528140036804
 30
0.0
1001
REVIT
1002
{
1070
     2
1000
-2001160
1002
}
  0
SPLINE
  5
CA3
330
B98
100
AcDbEntity
  8
D35160802
100
AcDbSpline
210
0.0
220
0.0
230
1.0
 70
     8
 71
     3
 72
    17
 73
    13
 74
     0
 42
0.000000001
 43
0.0000000001
 40
0.0
 40
0.0
 40
0.0
 40
0.0
 40
0.1
 40
0.2
 40
0.3
 40
0.4
 40
0.5
 40
0.6
 40
0.7
 40
0.8
 40
0.9
 40
1.0
 40
1.0
 40
1.0
 40
1.0
 10
0.0353129161981336
 20
3.252211904645377
 30
0.0
 10
0.4341980250484632
 20
3.351507461829876
 30
0.0
 10
1.158493579931338
 20
3.526434917672951
 30
0.0
 10
2.052970437447871
 20
3.726010390283437
 30
0.0
 10
2.784170117145842
 20
3.871296182171062
 30
0.0
 10
3.380110482581647
 20
3.969796830956249
 30
0.0
 10
3.870966251033225
 20
4.032312996248898
 30
0.0
 10
4.278600756037223
 20
4.056946259168126
 30
0.0
 10
4.608912244512938
 20
4.019274057071745
 30
0.0
 10
4.871805115341532
 20
3.896424337388573
 30
0.0
 10
5.071070843293014
 20
3.673203776433334
 30
0.0
 10
5.204321922460923
 20
3.384409151460531
 30
0.0
 10
5.283641435224236
 20
3.183732145790061
 30
0.0
1001
REVIT
1002
{
1070
     2
1000
-2001160
1002
}
  0
SPLINE
  5
CA4
330
B98
100
AcDbEntity
  8
D35160802
100
AcDbSpline
210
0.0
220
0.0
230
1.0
 70
    24
 71
     3
 72
    10
 73
     6
 74
     0
 42
0.000000001
 43
0.0000000001
 40
-1.0
 40
-1.0
 40
-1.0
 40
-1.0
 40
-0.6666666666666666
 40
-0.3333333333333333
 40
0.0
 40
0.0
 40
0.0
 40
0.0
 10
4.8507319804893
 20
3.026165990134129
 30
0.0
 10
4.887318209246812
 20
3.039482288385917
 30
0.0
 10
4.968232637522834
 20
3.068932731801058
 30
0.0
 10
5.118129448356679
 20
3.123490709156009
 30
0.0
 10
5.226478922252141
 20
3.162926692552362
 30
0.0
 10
5.283641435224234
 20
3.183732145790062
 30
0.0
1001
REVIT
1002
{
1070
     2
1000
-2001160
1002
}
  0
SPLINE
  5
CA5
330
B98
100
AcDbEntity
  8
D35160802
100
AcDbSpline
210
0.0
220
0.0
230
1.0
 70
     8
 71
     3
 72
     9
 73
     5
 74
     0
 42
0.000000001
 43
0.0000000001
 40
0.0
 40
0.0
 40
0.0
 40
0.0
 40
0.5
 40
1.0
 40
1.0
 40
1.0
 40
1.0
 10
0.5194198149619176
 20
2.926848322890355
 30
0.0
 10
0.4585018703813937
 20
3.004569127076016
 30
0.0
 10
0.3190076648262661
 20
3.136570246539746
 30
0.0
 10
0.1368126896830191
 20
3.221520099485265
 30
0.0
 10
0.0353129161981336
 20
3.252211904645375
 30
0.0
1001
REVIT
1002
{
1070
     2
1000
-2001160
1002
}
  0
LINE
  5
CA6
330
B98
100
AcDbEntity
  8
D35160802
100
AcDbLine
 10
5.695794172453423
 20
3.182000225706485
 30
0.0
 11
4.961677594981717
 21
2.914803643025401
 31
0.0
1001
REVIT
1002
{
1070
     2
1000
-2001160
1002
}
  0
SPLINE
  5
CA7
330
B98
100
AcDbEntity
  8
D35160802
100
AcDbSpline
210
0.0
220
0.0
230
1.0
 70
     8
 71
     3
 72
     9
 73
     5
 74
     0
 42
0.000000001
 43
0.0000000001
 40
0.2913482784022059
 40
0.2913482784022059
 40
0.2913482784022059
 40
0.2913482784022059
 40
0.5
 40
1.0
 40
1.0
 40
1.0
 40
1.0
 10
-0.3336283729275102
 20
2.484318252510891
 30
0.0
 10
-0.3507018847927092
 20
2.513425282227356
 30
0.0
 10
-0.4085132507799827
 20
2.612381046159109
 30
0.0
 10
-0.4659732912638717
 20
2.711671212509385
 30
0.0
 10
-0.5067009443641979
 20
2.781893372443016
 30
0.0
1001
REVIT
1002
{
1070
     2
1000
-2001160
1002
}
  0
LINE
  5
CA8
330
B98
100
AcDbEntity
  8
D35160802
100
AcDbLine
 10
-0.2620415741106328
 20
2.276087554536988
 30
0.0
 11
-0.2484178820190195
 21
2.282723166570032
 31
0.0
1001
REVIT
1002
{
1070
     2
1000
-2001160
1002
}
  0
SPLINE
  5
CA9
330
B98
100
AcDbEntity
  8
D35160802
100
AcDbSpline
210
0.0
220
0.0
230
1.0
 70
     8
 71
     3
 72
     9
 73
     5
 74
     0
 42
0.000000001
 43
0.0000000001
 40
-1.0
 40
-1.0
 40
-1.0
 40
-1.0
 40
-0.5
 40
-0.2007845240705332
 40
-0.2007845240705332
 40
-0.2007845240705332
 40
-0.2007845240705332
 10
0.5299942623494438
 20
2.781893372443015
 30
0.0
 10
0.4891815077372641
 20
2.711680066949022
 30
0.0
 10
0.4229173884207924
 20
2.599707965156349
 30
0.0
 10
0.3562292506901556
 20
2.488149887256488
 30
0.0
 10
0.3313160644393847
 20
2.44644208191968
 30
0.0
1001
REVIT
1002
{
1070
     2
1000
-2001160
1002
}
  0
LINE
  5
CAA
330
B98
100
AcDbEntity
  8
D35160802
100
AcDbLine
 10
0.253958188020146
 20
2.289327189134587
 30
0.0
 11
0.2645707258690777
 21
2.284245958457954
 31
0.0
1001
REVIT
1002
{
1070
     2
1000
-2001160
1002
}
  0
LINE
  5
CAB
330
B98
100
AcDbEntity
  8
D35160802
100
AcDbLine
 10
0.2645707258690777
 20
2.284245958457954
 30
0.0
 11
0.2815703401244889
 21
2.276087554536988
 31
0.0
1001
REVIT
1002
{
1070
     2
1000
-2001160
1002
}
  0
LINE
  5
CAC
330
B98
100
AcDbEntity
  8
D35160802
100
AcDbLine
 10
-0.2777202215325225
 20
2.276087554536988
 30
0.0
 11
-0.2620415741106328
 21
2.276087554536988
 31
0.0
1001
REVIT
1002
{
1070
     2
1000
-2001160
1002
}
  0
LINE
  5
CAD
330
B98
100
AcDbEntity
  8
D35160802
100
AcDbLine
 10
-0.2935280644160869
 20
2.113450363926413
 30
0.0
 11
-0.2778029002966456
 21
2.194773666884798
 31
0.0
1001
REVIT
1002
{
1070
     2
1000
-2001160
1002
}
  0
LINE
  5
CAE
330
B98
100
AcDbEntity
  8
D35160802
100
AcDbLine
 10
-0.2778029002966456
 20
2.194773666884798
 30
0.0
 11
-0.2620415741106328
 21
2.276087554536988
 31
0.0
1001
REVIT
1002
{
1070
     2
1000
-2001160
1002
}
  0
LINE
  5
CAF
330
B98
100
AcDbEntity
  8
D35160802
100
AcDbLine
 10
-0.3122898235671236
 20
2.113450363926438
 30
0.0
 11
0.3135233800527502
 21
2.113450363926437
 31
0.0
1001
REVIT
1002
{
1070
     2
1000
-2001160
1002
}
  0
SPLINE
  5
CB0
330
B98
100
AcDbEntity
  8
D35160802
100
AcDbSpline
210
0.0
220
0.0
230
1.0
 70
     8
 71
     3
 72
    10
 73
     6
 74
     0
 42
0.000000001
 43
0.0000000001
 40
0.0
 40
0.0
 40
0.0
 40
0.0
 40
0.3333333333333333
 40
0.6666666666666666
 40
1.0
 40
1.0
 40
1.0
 40
1.0
 10
-0.9019990855758095
 20
0.3261939176297568
 30
0.0
 10
-0.7924302707140996
 20
0.5008490644061742
 30
0.0
 10
-0.5971877058492617
 20
0.8717409925944128
 30
0.0
 10
-0.3914957620639754
 20
1.474205302499693
 30
0.0
 10
-0.3143857765231708
 20
1.898802952518417
 30
0.0
 10
-0.2935280644160905
 20
2.113450363926438
 30
0.0
1001
REVIT
1002
{
1070
     2
1000
-2001160
1002
}
  0
LINE
  5
CB1
330
B98
100
AcDbEntity
  8
D35160802
100
AcDbLine
 10
0.2448803308322027
 20
2.276087554536988
 30
0.0
 11
0.2815703401244853
 21
2.276087554536988
 31
0.0
1001
REVIT
1002
{
1070
     2
1000
-2001160
1002
}
  0
LINE
  5
CB2
330
B98
100
AcDbEntity
  8
D35160802
100
AcDbLine
 10
0.2815703401244889
 20
2.276087554536988
 30
0.0
 11
0.2975643302404016
 21
2.194773511538128
 31
0.0
1001
REVIT
1002
{
1070
     2
1000
-2001160
1002
}
  0
LINE
  5
CB3
330
B98
100
AcDbEntity
  8
D35160802
100
AcDbLine
 10
0.2975643302404016
 20
2.194773511538128
 30
0.0
 11
0.3135233800527537
 21
2.113450363926412
 31
0.0
1001
REVIT
1002
{
1070
     2
1000
-2001160
1002
}
  0
SPLINE
  5
CB4
330
B98
100
AcDbEntity
  8
D35160802
100
AcDbSpline
210
0.0
220
0.0
230
1.0
 70
     8
 71
     3
 72
    10
 73
     6
 74
     0
 42
0.000000001
 43
0.0000000001
 40
-1.0
 40
-1.0
 40
-1.0
 40
-1.0
 40
-0.6666666666666666
 40
-0.3333333333333333
 40
0.0
 40
0.0
 40
0.0
 40
0.0
 10
0.3135233800527537
 20
2.113450363926437
 30
0.0
 10
0.3370387247353115
 20
1.898812589158316
 30
0.0
 10
0.4116903090276765
 20
1.474226758193631
 30
0.0
 10
0.6228166661749555
 20
0.8717406741688861
 30
0.0
 10
0.8190564877112329
 20
0.5008490003651445
 30
0.0
 10
0.9317147535747807
 20
0.3261939176297561
 30
0.0
1001
REVIT
1002
{
1070
     2
1000
-2001160
1002
}
  0
LINE
  5
CB5
330
B98
100
AcDbEntity
  8
D35160802
100
AcDbLine
 10
0.0000960645801094
 20
2.166804637263456
 30
0.0
 11
0.0000946015135135
 21
2.113450363926412
 31
0.0
1001
REVIT
1002
{
1070
     2
1000
-2001160
1002
}
  0
SPLINE
  5
CB6
330
B98
100
AcDbEntity
  8
D35160802
100
AcDbSpline
210
0.0
220
0.0
230
1.0
 70
     8
 71
     3
 72
    10
 73
     6
 74
     0
 42
0.000000001
 43
0.0000000001
 40
-1.0
 40
-1.0
 40
-1.0
 40
-1.0
 40
-0.6666666666666666
 40
-0.3333333333333333
 40
0.0
 40
0.0
 40
0.0
 40
0.0
 10
0.000094601513517
 20
2.113450363926437
 30
0.0
 10
0.0024614430477143
 20
1.898806631290355
 30
0.0
 10
-0.0011889394037254
 20
1.474213546384336
 30
0.0
 10
0.0009792637288903
 20
0.8717427976694501
 30
0.0
 10
-0.00125191422282
 20
0.500849783673419
 30
0.0
 10
0.000015594965415
 20
0.3261939176297575
 30
0.0
1001
REVIT
1002
{
1070
     2
1000
-2001160
1002
}
  0
LINE
  5
CB7
330
B98
100
AcDbEntity
  8
D35160802
100
AcDbLine
 10
0.5260989355348294
 20
2.85496388528623
 30
0.0
 11
-0.5260989355347548
 21
2.854963885286244
 31
0.0
1001
REVIT
1002
{
1070
     2
1000
-2001160
1002
}
  0
LINE
  5
CB8
330
B98
100
AcDbEntity
  8
D35160802
100
AcDbLine
 10
-0.5990160223085646
 20
2.782046798512438
 30
0.0
 11
-0.1888272625750034
 21
2.782046798512438
 31
0.0
1001
REVIT
1002
{
1070
     2
1000
-2001160
1002
}
  0
LINE
  5
CB9
330
B98
100
AcDbEntity
  8
D35160802
100
AcDbLine
 10
0.1843448109028003
 20
2.782046798512433
 30
0.0
 11
0.5990130198962583
 21
2.782046798512421
 31
0.0
1001
REVIT
1002
{
1070
     2
1000
-2001160
1002
}
  0
CIRCLE
  5
CBA
330
B98
100
AcDbEntity
  8
D35160802
100
AcDbCircle
 10
0.000000000000032
 20
2.505346217069797
 30
0.0
 40
0.3049656622285577
  0
CIRCLE
  5
CBB
330
B98
100
AcDbEntity
  8
D35160802
100
AcDbCircle
 10
0.000000000000032
 20
2.505346217069796
 30
0.0
 40
0.3385426305231465
  0
ENDBLK
  5
B9A
330
B98
100
AcDbEntity
  8
0
100
AcDbBlockEnd
  0
ENDSEC
  0
SECTION
  2
ENTITIES
  0
INSERT
  5
9D8
330
70
100
AcDbEntity
  8
D35160802
100
AcDbBlockReference
  2
D35160802 Top View
 10
0.0000000000004934
 20
17.50807799163165
 30
0.0
  0
INSERT
  5
B97
330
70
100
AcDbEntity
  8
D35160802
100
AcDbBlockReference
  2
D35160802 Front View
 10
0.0000000000002467
 20
0.0000000000011804
 30
0.0
  0
INSERT
  5
CBC
330
70
100
AcDbEntity
  8
D35160802
100
AcDbBlockReference
  2
D35160802 Side View
 10
-18.31989332037089
 20
0.0000000000023608
 30
0.0
  0
ENDSEC
  0
SECTION
  2
OBJECTS
  0
DICTIONARY
  5
C
330
0
100
AcDbDictionary
281
     1
  3
ACAD_CIP_PREVIOUS_PRODUCT_INFO
350
79
  3
ACAD_COLOR
350
63
  3
ACAD_DETAILVIEWSTYLE
350
6A
  3
ACAD_GROUP
350
D
  3
ACAD_IMAGE_VARS
350
7A
  3
ACAD_LAYOUT
350
62
  3
ACAD_MATERIAL
350
10
  3
ACAD_MLEADERSTYLE
350
66
  3
ACAD_MLINESTYLE
350
5F
  3
ACAD_PLOTSETTINGS
350
61
  3
ACAD_PLOTSTYLENAME
350
E
  3
ACAD_SCALELIST
350
42
  3
ACAD_SECTIONVIEWSTYLE
350
68
  3
ACAD_TABLESTYLE
350
64
  3
ACAD_VISUALSTYLE
350
29
  3
ACDB_RECOMPOSE_DATA
350
CED
  3
AcDbVariableDictionary
350
174
  3
REVIT_DICTIONARY
350
169
  0
DICTIONARY
  5
CC2
330
2
100
AcDbDictionary
280
     1
281
     1
  3
ACAD_LAYERSTATES
360
CC3
  0
DICTIONARY
  5
16C
330
70
100
AcDbDictionary
280
     1
281
     1
  3
ACAD_SORTENTS
360
16D
  0
XRECORD
  5
79
102
{ACAD_REACTORS
330
C
102
}
330
C
100
AcDbXrecord
280
     1
300
ACD
300
2016
300
86445ACD_2016_0F
  0
DICTIONARY
  5
63
102
{ACAD_REACTORS
330
C
102
}
330
C
100
AcDbDictionary
281
     1
  0
DICTIONARY
  5
6A
102
{ACAD_REACTORS
330
C
102
}
330
C
100
AcDbDictionary
281
     1
  3
Imperial24
350
6B
  0
DICTIONARY
  5
D
102
{ACAD_REACTORS
330
C
102
}
330
C
100
AcDbDictionary
281
     1
  0
RASTERVARIABLES
  5
7A
102
{ACAD_REACTORS
330
C
102
}
330
C
100
AcDbRasterVariables
 90
        0
 70
     0
 71
     1
 72
     5
  0
DICTIONARY
  5
62
102
{ACAD_REACTORS
330
C
102
}
330
C
100
AcDbDictionary
281
     1
  3
Layout1
350
6F
  3
Layout2
350
77
  3
Model
350
73
  0
DICTIONARY
  5
10
102
{ACAD_REACTORS
330
C
102
}
330
C
100
AcDbDictionary
281
     1
  3
ByBlock
350
19
  3
ByLayer
350
11
  3
Global
350
21
  0
DICTIONARY
  5
66
102
{ACAD_REACTORS
330
C
102
}
330
C
100
AcDbDictionary
281
     1
  3
Standard
350
67
  0
DICTIONARY
  5
5F
102
{ACAD_REACTORS
330
C
102
}
330
C
100
AcDbDictionary
281
     1
  3
Standard
350
60
  0
DICTIONARY
  5
61
102
{ACAD_REACTORS
330
C
102
}
330
C
100
AcDbDictionary
281
     1
  0
ACDBDICTIONARYWDFLT
  5
E
102
{ACAD_REACTORS
330
C
102
}
330
C
100
AcDbDictionary
281
     1
  3
Normal
350
F
100
AcDbDictionaryWithDefault
340
F
  0
DICTIONARY
  5
42
102
{ACAD_REACTORS
330
C
102
}
330
C
100
AcDbDictionary
281
     1
  3
A0
350
43
  3
A1
350
44
  3
A2
350
45
  3
A3
350
46
  3
A4
350
47
  3
A5
350
48
  3
A6
350
49
  3
A7
350
4A
  3
A8
350
4B
  3
A9
350
4C
  3
B0
350
4D
  3
B1
350
4E
  3
B2
350
4F
  3
B3
350
50
  3
B4
350
51
  3
B5
350
52
  3
B6
350
53
  0
DICTIONARY
  5
68
102
{ACAD_REACTORS
330
C
102
}
330
C
100
AcDbDictionary
281
     1
  3
Imperial24
350
69
  0
DICTIONARY
  5
64
102
{ACAD_REACTORS
330
C
102
}
330
C
100
AcDbDictionary
281
     1
  3
Standard
350
65
  0
DICTIONARY
  5
29
102
{ACAD_REACTORS
330
C
102
}
330
C
100
AcDbDictionary
281
     1
  3
2dWireframe
350
2F
  3
Basic
350
2E
  3
Brighten
350
35
  3
ColorChange
350
39
  3
Conceptual
350
32
  3
Dim
350
34
  3
EdgeColorOff
350
41
  3
Facepattern
350
38
  3
Flat
350
2A
  3
FlatWithEdges
350
2B
  3
Gouraud
350
2C
  3
GouraudWithEdges
350
2D
  3
Hidden
350
31
  3
JitterOff
350
3F
  3
Linepattern
350
37
  3
OverhangOff
350
40
  3
Realistic
350
33
  3
Shaded
350
3E
  3
Shaded with edges
350
3D
  3
Shades of Gray
350
3A
  3
Sketchy
350
3B
  3
Thicken
350
36
  3
Wireframe
350
30
  3
X-Ray
350
3C
  0
XRECORD
  5
CED
102
{ACAD_REACTORS
330
C
102
}
330
C
100
AcDbXrecord
280
     1
 90
        1
330
65
330
69
330
6B
  0
DICTIONARY
  5
174
102
{ACAD_REACTORS
330
C
102
}
330
C
100
AcDbDictionary
281
     1
  3
CANNOSCALE
350
179
  3
CMLEADERSTYLE
350
176
  3
CTABLESTYLE
350
175
  3
CVIEWDETAILSTYLE
350
177
  3
CVIEWSECTIONSTYLE
350
178
  0
DICTIONARY
  5
169
102
{ACAD_REACTORS
330
C
102
}
330
C
100
AcDbDictionary
281
     1
  3
DRAWING_TOOL
350
16B
  3
REVIT_CATEGORY_MAPPING
350
16A
  0
DICTIONARY
  5
CC3
102
{ACAD_REACTORS
330
CC2
102
}
330
CC2
100
AcDbDictionary
281
     1
  0
SORTENTSTABLE
  5
16D
102
{ACAD_REACTORS
330
16C
102
}
330
16C
100
AcDbSortentsTable
330
70
  0
ACDBDETAILVIEWSTYLE
  5
6B
102
{ACAD_XDICTIONARY
360
171
102
}
102
{ACAD_REACTORS
330
6A
102
}
330
6A
100
AcDbModelDocViewStyle
 70
     0
  3
Imperial24
290
     0
100
AcDbDetailViewStyle
 70
     0
 71
     0
 90
        3
 71
     1
340
55
 62
   256
 40
0.24
340
0
 62
   256
 40
0.24
300

 40
0.36
280
     3
 71
     2
340
5D
 90
       25
 62
   256
 71
     3
340
55
 62
   256
 40
0.24
 90
        1
 40
0.75
 90
        1
300
%<\AcVar ViewType \f "%tc1">% %<\AcVar ViewDetailId>%\PSCALE %<\AcVar ViewScale \f "%sn">%
 71
     4
340
5D
 90
       25
 62
   256
340
5D
 90
       25
 62
   256
280
     0
  0
LAYOUT
  5
6F
102
{ACAD_REACTORS
330
62
102
}
330
62
100
AcDbPlotSettings
  1

  2

  4

  6

 40
0.0
 41
0.0
 42
0.0
 43
0.0
 44
0.0
 45
0.0
 46
0.0
 47
0.0
 48
0.0
 49
0.0
140
0.0
141
0.0
142
1.0
143
1.0
 70
   688
 72
     0
 73
     0
 74
     5
  7

 75
    16
147
1.0
 76
     0
 77
     2
 78
   300
148
0.0
149
0.0
100
AcDbLayout
  1
Layout1
 70
     1
 71
     1
 10
0.0
 20
0.0
 11
12.0
 21
9.0
 12
0.0
 22
0.0
 32
0.0
 14
1.000000000000000E+20
 24
1.000000000000000E+20
 34
1.000000000000000E+20
 15
-1.000000000000000E+20
 25
-1.000000000000000E+20
 35
-1.000000000000000E+20
146
0.0
 13
0.0
 23
0.0
 33
0.0
 16
1.0
 26
0.0
 36
0.0
 17
0.0
 27
1.0
 37
0.0
 76
     0
330
6C
  0
LAYOUT
  5
77
102
{ACAD_REACTORS
330
62
102
}
330
62
100
AcDbPlotSettings
  1

  2

  4

  6

 40
0.0
 41
0.0
 42
0.0
 43
0.0
 44
0.0
 45
0.0
 46
0.0
 47
0.0
 48
0.0
 49
0.0
140
0.0
141
0.0
142
1.0
143
1.0
 70
   688
 72
     0
 73
     0
 74
     5
  7

 75
    16
147
1.0
 76
     0
 77
     2
 78
   300
148
0.0
149
0.0
100
AcDbLayout
  1
Layout2
 70
     1
 71
     2
 10
0.0
 20
0.0
 11
12.0
 21
9.0
 12
0.0
 22
0.0
 32
0.0
 14
0.0
 24
0.0
 34
0.0
 15
0.0
 25
0.0
 35
0.0
146
0.0
 13
0.0
 23
0.0
 33
0.0
 16
1.0
 26
0.0
 36
0.0
 17
0.0
 27
1.0
 37
0.0
 76
     0
330
74
  0
LAYOUT
  5
73
102
{ACAD_REACTORS
330
62
102
}
330
62
100
AcDbPlotSettings
  1

  2

  4

  6

 40
0.0
 41
0.0
 42
0.0
 43
0.0
 44
0.0
 45
0.0
 46
0.0
 47
0.0
 48
0.0
 49
0.0
140
0.0
141
0.0
142
1.0
143
1.0
 70
  1712
 72
     0
 73
     0
 74
     0
  7

 75
     0
147
1.0
 76
     0
 77
     2
 78
   300
148
0.0
149
0.0
100
AcDbLayout
  1
Model
 70
     1
 71
     0
 10
0.0
 20
0.0
 11
12.0
 21
9.0
 12
0.0
 22
0.0
 32
0.0
 14
0.0
 24
0.0
 34
0.0
 15
0.0
 25
0.0
 35
0.0
146
0.0
 13
0.0
 23
0.0
 33
0.0
 16
1.0
 26
0.0
 36
0.0
 17
0.0
 27
1.0
 37
0.0
 76
     0
330
70
331
57
  0
MATERIAL
  5
19
102
{ACAD_XDICTIONARY
360
1A
102
}
102
{ACAD_REACTORS
330
10
102
}
330
10
100
AcDbMaterial
  1
ByBlock
 72
     0
 43
0.0208333333333333
 43
0.0
 43
0.0
 43
0.0
 43
0.0
 43
0.0208333333333333
 43
0.0
 43
0.0
 43
0.0
 43
0.0
 43
1.0
 43
0.0
 43
0.0
 43
0.0
 43
0.0
 43
1.0
 77
     0
 47
0.0208333333333333
 47
0.0
 47
0.0
 47
0.0
 47
0.0
 47
0.0208333333333333
 47
0.0
 47
0.0
 47
0.0
 47
0.0
 47
1.0
 47
0.0
 47
0.0
 47
0.0
 47
0.0
 47
1.0
171
     0
 49
0.0208333333333333
 49
0.0
 49
0.0
 49
0.0
 49
0.0
 49
0.0208333333333333
 49
0.0
 49
0.0
 49
0.0
 49
0.0
 49
1.0
 49
0.0
 49
0.0
 49
0.0
 49
0.0
 49
1.0
175
     0
142
0.0208333333333333
142
0.0
142
0.0
142
0.0
142
0.0
142
0.0208333333333333
142
0.0
142
0.0
142
0.0
142
0.0
142
1.0
142
0.0
142
0.0
142
0.0
142
0.0
142
1.0
179
     0
144
0.0208333333333333
144
0.0
144
0.0
144
0.0
144
0.0
144
0.0208333333333333
144
0.0
144
0.0
144
0.0
144
0.0
144
1.0
144
0.0
144
0.0
144
0.0
144
0.0
144
1.0
147
0.0208333333333333
147
0.0
147
0.0
147
0.0
147
0.0
147
0.0208333333333333
147
0.0
147
0.0
147
0.0
147
0.0
147
1.0
147
0.0
147
0.0
147
0.0
147
0.0
147
1.0
  0
MATERIAL
  5
11
102
{ACAD_XDICTIONARY
360
12
102
}
102
{ACAD_REACTORS
330
10
102
}
330
10
100
AcDbMaterial
  1
ByLayer
 72
     0
 43
0.0208333333333333
 43
0.0
 43
0.0
 43
0.0
 43
0.0
 43
0.0208333333333333
 43
0.0
 43
0.0
 43
0.0
 43
0.0
 43
1.0
 43
0.0
 43
0.0
 43
0.0
 43
0.0
 43
1.0
 77
     0
 47
0.0208333333333333
 47
0.0
 47
0.0
 47
0.0
 47
0.0
 47
0.0208333333333333
 47
0.0
 47
0.0
 47
0.0
 47
0.0
 47
1.0
 47
0.0
 47
0.0
 47
0.0
 47
0.0
 47
1.0
171
     0
 49
0.0208333333333333
 49
0.0
 49
0.0
 49
0.0
 49
0.0
 49
0.0208333333333333
 49
0.0
 49
0.0
 49
0.0
 49
0.0
 49
1.0
 49
0.0
 49
0.0
 49
0.0
 49
0.0
 49
1.0
175
     0
142
0.0208333333333333
142
0.0
142
0.0
142
0.0
142
0.0
142
0.0208333333333333
142
0.0
142
0.0
142
0.0
142
0.0
142
1.0
142
0.0
142
0.0
142
0.0
142
0.0
142
1.0
179
     0
144
0.0208333333333333
144
0.0
144
0.0
144
0.0
144
0.0
144
0.0208333333333333
144
0.0
144
0.0
144
0.0
144
0.0
144
1.0
144
0.0
144
0.0
144
0.0
144
0.0
144
1.0
147
0.0208333333333333
147
0.0
147
0.0
147
0.0
147
0.0
147
0.0208333333333333
147
0.0
147
0.0
147
0.0
147
0.0
147
1.0
147
0.0
147
0.0
147
0.0
147
0.0
147
1.0
  0
MATERIAL
  5
21
102
{ACAD_XDICTIONARY
360
22
102
}
102
{ACAD_REACTORS
330
10
102
}
330
10
100
AcDbMaterial
  1
Global
 72
     0
 43
0.0208333333333333
 43
0.0
 43
0.0
 43
0.0
 43
0.0
 43
0.0208333333333333
 43
0.0
 43
0.0
 43
0.0
 43
0.0
 43
1.0
 43
0.0
 43
0.0
 43
0.0
 43
0.0
 43
1.0
 77
     0
 47
0.0208333333333333
 47
0.0
 47
0.0
 47
0.0
 47
0.0
 47
0.0208333333333333
 47
0.0
 47
0.0
 47
0.0
 47
0.0
 47
1.0
 47
0.0
 47
0.0
 47
0.0
 47
0.0
 47
1.0
171
     0
 49
0.0208333333333333
 49
0.0
 49
0.0
 49
0.0
 49
0.0
 49
0.0208333333333333
 49
0.0
 49
0.0
 49
0.0
 49
0.0
 49
1.0
 49
0.0
 49
0.0
 49
0.0
 49
0.0
 49
1.0
175
     0
142
0.0208333333333333
142
0.0
142
0.0
142
0.0
142
0.0
142
0.0208333333333333
142
0.0
142
0.0
142
0.0
142
0.0
142
1.0
142
0.0
142
0.0
142
0.0
142
0.0
142
1.0
179
     0
144
0.0208333333333333
144
0.0
144
0.0
144
0.0
144
0.0
144
0.0208333333333333
144
0.0
144
0.0
144
0.0
144
0.0
144
1.0
144
0.0
144
0.0
144
0.0
144
0.0
144
1.0
147
0.0208333333333333
147
0.0
147
0.0
147
0.0
147
0.0
147
0.0208333333333333
147
0.0
147
0.0
147
0.0
147
0.0
147
1.0
147
0.0
147
0.0
147
0.0
147
0.0
147
1.0
  0
MLEADERSTYLE
  5
67
102
{ACAD_REACTORS
330
66
102
}
330
66
100
AcDbMLeaderStyle
179
     2
170
     2
171
     1
172
     0
 90
        2
 40
0.0
 41
0.0
173
     1
 91
-1056964608
340
5B
 92
       -2
290
     1
 42
0.09
291
     1
 43
0.36
  3
Standard
 44
0.18
300

342
55
174
     1
178
     6
175
     1
176
     0
 93
-1056964608
 45
0.18
292
     0
297
     0
 46
0.18
 94
-1056964608
 47
1.0
 49
1.0
140
1.0
293
     1
141
0.0
294
     1
177
     0
142
1.0
295
     1
296
     0
143
0.125
271
     0
272
     9
273
     9
298
     1
  0
MLINESTYLE
  5
60
102
{ACAD_REACTORS
330
5F
102
}
330
5F
100
AcDbMlineStyle
  2
STANDARD
 70
     0
  3

 62
   256
 51
90.0
 52
90.0
 71
     2
 49
0.5
 62
   256
  6
BYLAYER
 49
-0.5
 62
   256
  6
BYLAYER
  0
ACDBPLACEHOLDER
  5
F
102
{ACAD_REACTORS
330
E
102
}
330
E
  0
SCALE
  5
43
102
{ACAD_REACTORS
330
42
102
}
330
42
100
AcDbScale
 70
     0
300
1:1
140
1.0
141
1.0
290
     1
  0
SCALE
  5
44
102
{ACAD_REACTORS
330
42
102
}
330
42
100
AcDbScale
 70
     0
300
1/128" = 1'-0"
140
0.0078125
141
12.0
290
     0
  0
SCALE
  5
45
102
{ACAD_REACTORS
330
42
102
}
330
42
100
AcDbScale
 70
     0
300
1/64" = 1'-0"
140
0.015625
141
12.0
290
     0
  0
SCALE
  5
46
102
{ACAD_REACTORS
330
42
102
}
330
42
100
AcDbScale
 70
     0
300
1/32" = 1'-0"
140
0.03125
141
12.0
290
     0
  0
SCALE
  5
47
102
{ACAD_REACTORS
330
42
102
}
330
42
100
AcDbScale
 70
     0
300
1/16" = 1'-0"
140
0.0625
141
12.0
290
     0
  0
SCALE
  5
48
102
{ACAD_REACTORS
330
42
102
}
330
42
100
AcDbScale
 70
     0
300
3/32" = 1'-0"
140
0.09375
141
12.0
290
     0
  0
SCALE
  5
49
102
{ACAD_REACTORS
330
42
102
}
330
42
100
AcDbScale
 70
     0
300
1/8" = 1'-0"
140
0.125
141
12.0
290
     0
  0
SCALE
  5
4A
102
{ACAD_REACTORS
330
42
102
}
330
42
100
AcDbScale
 70
     0
300
3/16" = 1'-0"
140
0.1875
141
12.0
290
     0
  0
SCALE
  5
4B
102
{ACAD_REACTORS
330
42
102
}
330
42
100
AcDbScale
 70
     0
300
1/4" = 1'-0"
140
0.25
141
12.0
290
     0
  0
SCALE
  5
4C
102
{ACAD_REACTORS
330
42
102
}
330
42
100
AcDbScale
 70
     0
300
3/8" = 1'-0"
140
0.375
141
12.0
290
     0
  0
SCALE
  5
4D
102
{ACAD_REACTORS
330
42
102
}
330
42
100
AcDbScale
 70
     0
300
1/2" = 1'-0"
140
0.5
141
12.0
290
     0
  0
SCALE
  5
4E
102
{ACAD_REACTORS
330
42
102
}
330
42
100
AcDbScale
 70
     0
300
3/4" = 1'-0"
140
0.75
141
12.0
290
     0
  0
SCALE
  5
4F
102
{ACAD_REACTORS
330
42
102
}
330
42
100
AcDbScale
 70
     0
300
1" = 1'-0"
140
1.0
141
12.0
290
     0
  0
SCALE
  5
50
102
{ACAD_REACTORS
330
42
102
}
330
42
100
AcDbScale
 70
     0
300
1-1/2" = 1'-0"
140
1.5
141
12.0
290
     0
  0
SCALE
  5
51
102
{ACAD_REACTORS
330
42
102
}
330
42
100
AcDbScale
 70
     0
300
3" = 1'-0"
140
3.0
141
12.0
290
     0
  0
SCALE
  5
52
102
{ACAD_REACTORS
330
42
102
}
330
42
100
AcDbScale
 70
     0
300
6" = 1'-0"
140
6.0
141
12.0
290
     0
  0
SCALE
  5
53
102
{ACAD_REACTORS
330
42
102
}
330
42
100
AcDbScale
 70
     0
300
1'-0" = 1'-0"
140
12.0
141
12.0
290
     0
  0
ACDBSECTIONVIEWSTYLE
  5
69
102
{ACAD_XDICTIONARY
360
16F
102
}
102
{ACAD_REACTORS
330
68
102
}
330
68
100
AcDbModelDocViewStyle
 70
     0
  3
Imperial24
290
     0
100
AcDbSectionViewStyle
 70
     0
 71
     0
 90
       78
 71
     1
340
55
 62
   256
 40
0.24
340
0
340
0
 62
   256
 40
0.24
300
I, O, Q, S, X, Z
 40
0.48
 90
        3
 40
0.18
 90
        1
 71
     2
340
5D
 90
       25
 62
   256
340
5D
 90
       50
 62
   256
 40
0.24
 40
0.0
 40
0.24
 71
     3
340
55
 62
   256
 40
0.24
 90
        1
 40
0.75
 90
        1
300
%<\AcVar ViewType \f "%tc1">% %<\AcVar ViewSectionStartId>%-%<\AcVar ViewSectionEndId>%\PSCALE %<\AcVar ViewScale \f "%sn">%
 71
     4
 62
   256
 62
   257
300
ANSI31
 40
1.0
 90
        0
290
     0
290
     0
 90
        6
 40
0.0
 40
1.570796326794896
 40
0.2617993877991494
 40
1.308996938995747
 40
-0.2617993877991494
 40
1.832595714594046
  0
TABLESTYLE
  5
65
102
{ACAD_XDICTIONARY
360
CE9
102
}
102
{ACAD_REACTORS
330
64
102
}
330
64
100
AcDbTableStyle
280
     0
  3
Standard
 70
     0
 71
     0
 40
0.06
 41
0.06
280
     0
281
     0
  7
Standard
140
0.18
170
     2
 62
     0
 63
     7
283
     0
 90
      512
 91
        0
  1

274
    -2
284
     1
 64
     0
275
    -2
285
     1
 65
     0
276
    -2
286
     1
 66
     0
277
    -2
287
     1
 67
     0
278
    -2
288
     1
 68
     0
279
    -2
289
     1
 69
     0
  7
Standard
140
0.25
170
     5
 62
     0
 63
     7
283
     0
 90
      512
 91
        0
  1

274
    -2
284
     1
 64
     0
275
    -2
285
     1
 65
     0
276
    -2
286
     1
 66
     0
277
    -2
287
     1
 67
     0
278
    -2
288
     1
 68
     0
279
    -2
289
     1
 69
     0
  7
Standard
140
0.18
170
     5
 62
     0
 63
     7
283
     0
 90
      512
 91
        0
  1

274
    -2
284
     1
 64
     0
275
    -2
285
     1
 65
     0
276
    -2
286
     1
 66
     0
277
    -2
287
     1
 67
     0
278
    -2
288
     1
 68
     0
279
    -2
289
     1
 69
     0
  0
VISUALSTYLE
  5
2F
102
{ACAD_REACTORS
330
29
102
}
330
29
100
AcDbVisualStyle
  2
2dWireframe
 70
     4
177
     3
291
     0
 70
    58
 90
        0
176
     1
 90
        2
176
     1
 90
        0
176
     1
 90
        0
176
     1
 40
0.6
176
     1
 40
30.0
176
     1
 62
     7
420
 16777215
176
     1
 90
        1
176
     1
 90
        4
176
     1
 62
     7
176
     1
 62
   257
176
     1
 90
        1
176
     1
 90
        1
176
     1
 40
1.0
176
     1
 90
        0
176
     1
 62
   257
176
     1
 40
1.0
176
     1
 90
        1
176
     1
 90
        6
176
     1
 90
        2
176
     1
 62
     7
176
     1
 90
        5
176
     1
 90
        0
176
     1
 90
        0
176
     1
290
     0
176
     1
 90
        1
176
     1
 40
0.0
176
     1
 90
        0
176
     1
290
     1
176
     1
290
     1
176
     1
290
     0
176
     1
290
     0
176
     1
290
     0
176
     1
290
     0
176
     1
290
     0
176
     1
290
     0
176
     1
290
     0
176
     1
 90
       50
176
     1
 40
0.0
176
     1
 40
1.0
176
     1
 90
        0
176
     1
 62
    18
420
        0
176
     1
 90
       50
176
     1
 90
        3
176
     1
 62
     5
420
      255
176
     1
290
     0
176
     1
 90
       50
176
     1
 90
       50
176
     1
 90
       50
176
     1
290
     0
176
     1
 90
       50
176
     1
 62
   256
176
     0
 40
1.0
176
     0
 90
        2
176
     1
  1
strokes_ogs.tif
176
     1
290
     0
176
     1
 40
1.0
176
     1
 40
1.0
176
     1
  0
VISUALSTYLE
  5
2E
102
{ACAD_REACTORS
330
29
102
}
330
29
100
AcDbVisualStyle
  2
Basic
 70
     7
177
     3
291
     1
 70
    58
 90
        1
176
     1
 90
        0
176
     1
 90
        1
176
     1
 90
        0
176
     1
 40
0.6
176
     1
 40
30.0
176
     1
 62
     7
420
 16777215
176
     1
 90
        0
176
     1
 90
        4
176
     1
 62
     7
176
     1
 62
   257
176
     1
 90
        1
176
     1
 90
        1
176
     1
 40
1.0
176
     1
 90
        8
176
     1
 62
     7
176
     1
 40
1.0
176
     1
 90
        1
176
     1
 90
        6
176
     1
 90
        2
176
     1
 62
     7
176
     1
 90
        5
176
     1
 90
        0
176
     1
 90
        0
176
     1
290
     0
176
     1
 90
        1
176
     1
 40
0.0
176
     1
 90
        0
176
     1
290
     0
176
     1
290
     1
176
     1
290
     1
176
     1
290
     0
176
     1
290
     0
176
     1
290
     0
176
     1
290
     0
176
     1
290
     0
176
     1
290
     0
176
     1
 90
       50
176
     1
 40
0.0
176
     1
 40
1.0
176
     1
 90
        0
176
     1
 62
    18
420
        0
176
     1
 90
       50
176
     1
 90
        3
176
     1
 62
     5
420
      255
176
     1
290
     0
176
     1
 90
       50
176
     1
 90
       50
176
     1
 90
       50
176
     1
290
     0
176
     1
 90
       50
176
     1
 62
   256
176
     0
 40
1.0
176
     0
 90
        2
176
     1
  1
strokes_ogs.tif
176
     1
290
     0
176
     1
 40
1.0
176
     1
 40
1.0
176
     1
  0
VISUALSTYLE
  5
35
102
{ACAD_REACTORS
330
29
102
}
330
29
100
AcDbVisualStyle
  2
Brighten
 70
    12
177
     3
291
     1
 70
    58
 90
        2
176
     1
 90
        2
176
     1
 90
        0
176
     1
 90
        0
176
     1
 40
0.6
176
     1
 40
30.0
176
     1
 62
     7
420
 16777215
176
     1
 90
        1
176
     1
 90
        4
176
     1
 62
     7
176
     1
 62
   257
176
     1
 90
        1
176
     1
 90
        1
176
     1
 40
1.0
176
     1
 90
        8
176
     1
 62
     7
176
     1
 40
1.0
176
     1
 90
        1
176
     1
 90
        6
176
     1
 90
        2
176
     1
 62
     7
176
     1
 90
        5
176
     1
 90
        0
176
     1
 90
        0
176
     1
290
     0
176
     1
 90
        1
176
     1
 40
50.0
176
     1
 90
        0
176
     1
290
     0
176
     1
290
     1
176
     1
290
     1
176
     1
290
     0
176
     1
290
     0
176
     1
290
     0
176
     1
290
     0
176
     1
290
     0
176
     1
290
     0
176
     1
 90
       50
176
     1
 40
0.0
176
     1
 40
1.0
176
     1
 90
        0
176
     1
 62
    18
420
        0
176
     1
 90
       50
176
     1
 90
        3
176
     1
 62
     5
420
      255
176
     1
290
     0
176
     1
 90
       50
176
     1
 90
       50
176
     1
 90
       50
176
     1
290
     0
176
     1
 90
       50
176
     1
 62
   256
176
     0
 40
1.0
176
     0
 90
        2
176
     1
  1
strokes_ogs.tif
176
     1
290
     0
176
     1
 40
1.0
176
     1
 40
1.0
176
     1
  0
VISUALSTYLE
  5
39
102
{ACAD_REACTORS
330
29
102
}
330
29
100
AcDbVisualStyle
  2
ColorChange
 70
    16
177
     3
291
     1
 70
    58
 90
        2
176
     1
 90
        2
176
     1
 90
        3
176
     1
 90
        0
176
     1
 40
0.6
176
     1
 40
30.0
176
     1
 62
     8
420
  8421504
176
     1
 90
        1
176
     1
 90
        4
176
     1
 62
     7
176
     1
 62
   257
176
     1
 90
        1
176
     1
 90
        1
176
     1
 40
1.0
176
     1
 90
        8
176
     1
 62
     8
420
  8421504
176
     1
 40
1.0
176
     1
 90
        1
176
     1
 90
        6
176
     1
 90
        2
176
     1
 62
     7
176
     1
 90
        5
176
     1
 90
        0
176
     1
 90
        0
176
     1
290
     0
176
     1
 90
        1
176
     1
 40
0.0
176
     1
 90
        0
176
     1
290
     0
176
     1
290
     1
176
     1
290
     1
176
     1
290
     0
176
     1
290
     0
176
     1
290
     0
176
     1
290
     0
176
     1
290
     0
176
     1
290
     0
176
     1
 90
       50
176
     1
 40
0.0
176
     1
 40
1.0
176
     1
 90
        0
176
     1
 62
    18
420
        0
176
     1
 90
       50
176
     1
 90
        3
176
     1
 62
     5
420
      255
176
     1
290
     0
176
     1
 90
       50
176
     1
 90
       50
176
     1
 90
       50
176
     1
290
     0
176
     1
 90
       50
176
     1
 62
   256
176
     0
 40
1.0
176
     0
 90
        2
176
     1
  1
strokes_ogs.tif
176
     1
290
     0
176
     1
 40
1.0
176
     1
 40
1.0
176
     1
  0
VISUALSTYLE
  5
32
102
{ACAD_REACTORS
330
29
102
}
330
29
100
AcDbVisualStyle
  2
Conceptual
 70
     9
177
     3
291
     0
 70
    58
 90
        3
176
     1
 90
        2
176
     1
 90
        0
176
     1
 90
        0
176
     1
 40
0.6
176
     1
 40
30.0
176
     1
 62
     7
420
 16777215
176
     1
 90
        2
176
     1
 90
        2
176
     1
 62
     7
176
     1
 62
   257
176
     1
 90
        1
176
     1
 90
        1
176
     1
 40
179.0
176
     1
 90
        8
176
     1
 62
     7
176
     1
 40
1.0
176
     1
 90
        1
176
     1
 90
        6
176
     1
 90
        2
176
     1
 62
     7
176
     1
 90
        3
176
     1
 90
        0
176
     1
 90
        0
176
     1
290
     0
176
     1
 90
        1
176
     1
 40
0.0
176
     1
 90
        0
176
     1
290
     0
176
     1
290
     1
176
     1
290
     1
176
     1
290
     0
176
     1
290
     0
176
     1
290
     0
176
     1
290
     0
176
     1
290
     0
176
     1
290
     0
176
     1
 90
       50
176
     1
 40
0.0
176
     1
 40
1.0
176
     1
 90
        0
176
     1
 62
    18
420
        0
176
     1
 90
       50
176
     1
 90
        3
176
     1
 62
     5
420
      255
176
     1
290
     0
176
     1
 90
       50
176
     1
 90
       50
176
     1
 90
       50
176
     1
290
     0
176
     1
 90
       50
176
     1
 62
   256
176
     0
 40
1.0
176
     0
 90
        2
176
     1
  1
strokes_ogs.tif
176
     1
290
     0
176
     1
 40
1.0
176
     1
 40
1.0
176
     1
  0
VISUALSTYLE
  5
34
102
{ACAD_REACTORS
330
29
102
}
330
29
100
AcDbVisualStyle
  2
Dim
 70
    11
177
     3
291
     1
 70
    58
 90
        2
176
     1
 90
        2
176
     1
 90
        0
176
     1
 90
        0
176
     1
 40
0.6
176
     1
 40
30.0
176
     1
 62
     7
420
 16777215
176
     1
 90
        1
176
     1
 90
        4
176
     1
 62
     7
176
     1
 62
   257
176
     1
 90
        1
176
     1
 90
        1
176
     1
 40
1.0
176
     1
 90
        8
176
     1
 62
     7
176
     1
 40
1.0
176
     1
 90
        1
176
     1
 90
        6
176
     1
 90
        2
176
     1
 62
     7
176
     1
 90
        5
176
     1
 90
        0
176
     1
 90
        0
176
     1
290
     0
176
     1
 90
        1
176
     1
 40
-50.0
176
     1
 90
        0
176
     1
290
     0
176
     1
290
     1
176
     1
290
     1
176
     1
290
     0
176
     1
290
     0
176
     1
290
     0
176
     1
290
     0
176
     1
290
     0
176
     1
290
     0
176
     1
 90
       50
176
     1
 40
0.0
176
     1
 40
1.0
176
     1
 90
        0
176
     1
 62
    18
420
        0
176
     1
 90
       50
176
     1
 90
        3
176
     1
 62
     5
420
      255
176
     1
290
     0
176
     1
 90
       50
176
     1
 90
       50
176
     1
 90
       50
176
     1
290
     0
176
     1
 90
       50
176
     1
 62
   256
176
     0
 40
1.0
176
     0
 90
        2
176
     1
  1
strokes_ogs.tif
176
     1
290
     0
176
     1
 40
1.0
176
     1
 40
1.0
176
     1
  0
VISUALSTYLE
  5
41
102
{ACAD_REACTORS
330
29
102
}
330
29
100
AcDbVisualStyle
  2
EdgeColorOff
 70
    22
177
     3
291
     1
 70
    58
 90
        2
176
     0
 90
        2
176
     0
 90
        0
176
     0
 90
        0
176
     0
 40
0.6
176
     0
 40
30.0
176
     0
 62
     7
420
 16777215
176
     0
 90
        1
176
     0
 90
        4
176
     0
 62
     7
176
     0
 62
   257
176
     0
 90
        1
176
     0
 90
        1
176
     0
 40
1.0
176
     0
 90
        8
176
     2
 62
     7
176
     0
 40
1.0
176
     0
 90
        1
176
     0
 90
        6
176
     0
 90
        2
176
     0
 62
     7
176
     0
 90
        5
176
     0
 90
        0
176
     0
 90
        0
176
     0
290
     0
176
     0
 90
        1
176
     0
 40
0.0
176
     0
 90
        0
176
     0
290
     0
176
     0
290
     1
176
     0
290
     1
176
     0
290
     0
176
     0
290
     0
176
     0
290
     0
176
     0
290
     0
176
     0
290
     0
176
     0
290
     0
176
     0
 90
       50
176
     0
 40
0.0
176
     0
 40
1.0
176
     0
 90
        0
176
     0
 62
    18
420
        0
176
     0
 90
       50
176
     0
 90
        3
176
     0
 62
     5
420
      255
176
     0
290
     0
176
     0
 90
       50
176
     0
 90
       50
176
     0
 90
       50
176
     0
290
     0
176
     0
 90
       50
176
     0
 62
   256
176
     0
 40
1.0
176
     0
 90
        2
176
     0
  1
strokes_ogs.tif
176
     0
290
     0
176
     0
 40
1.0
176
     0
 40
1.0
176
     0
  0
VISUALSTYLE
  5
38
102
{ACAD_REACTORS
330
29
102
}
330
29
100
AcDbVisualStyle
  2
Facepattern
 70
    15
177
     3
291
     1
 70
    58
 90
        2
176
     1
 90
        2
176
     1
 90
        0
176
     1
 90
        0
176
     1
 40
0.6
176
     1
 40
30.0
176
     1
 62
     7
420
 16777215
176
     1
 90
        1
176
     1
 90
        4
176
     1
 62
     7
176
     1
 62
   257
176
     1
 90
        1
176
     1
 90
        1
176
     1
 40
1.0
176
     1
 90
        8
176
     1
 62
     7
176
     1
 40
1.0
176
     1
 90
        1
176
     1
 90
        6
176
     1
 90
        2
176
     1
 62
     7
176
     1
 90
        5
176
     1
 90
        0
176
     1
 90
        0
176
     1
290
     0
176
     1
 90
        1
176
     1
 40
0.0
176
     1
 90
        0
176
     1
290
     0
176
     1
290
     1
176
     1
290
     1
176
     1
290
     0
176
     1
290
     0
176
     1
290
     0
176
     1
290
     0
176
     1
290
     0
176
     1
290
     0
176
     1
 90
       50
176
     1
 40
0.0
176
     1
 40
1.0
176
     1
 90
        0
176
     1
 62
    18
420
        0
176
     1
 90
       50
176
     1
 90
        3
176
     1
 62
     5
420
      255
176
     1
290
     0
176
     1
 90
       50
176
     1
 90
       50
176
     1
 90
       50
176
     1
290
     0
176
     1
 90
       50
176
     1
 62
   256
176
     0
 40
1.0
176
     0
 90
        2
176
     1
  1
strokes_ogs.tif
176
     1
290
     0
176
     1
 40
1.0
176
     1
 40
1.0
176
     1
  0
VISUALSTYLE
  5
2A
102
{ACAD_REACTORS
330
29
102
}
330
29
100
AcDbVisualStyle
  2
Flat
 70
     0
177
     3
291
     1
 70
    58
 90
        2
176
     1
 90
        1
176
     1
 90
        1
176
     1
 90
        2
176
     1
 40
0.6
176
     1
 40
30.0
176
     1
 62
     7
420
 16777215
176
     1
 90
        0
176
     1
 90
        0
176
     1
 62
     7
176
     1
 62
   257
176
     1
 90
        1
176
     1
 90
        1
176
     1
 40
1.0
176
     1
 90
        8
176
     1
 62
     7
176
     1
 40
1.0
176
     1
 90
        1
176
     1
 90
        6
176
     1
 90
        2
176
     1
 62
     7
176
     1
 90
        5
176
     1
 90
        0
176
     1
 90
        0
176
     1
290
     0
176
     1
 90
       13
176
     1
 40
0.0
176
     1
 90
        0
176
     1
290
     0
176
     1
290
     1
176
     1
290
     1
176
     1
290
     0
176
     1
290
     0
176
     1
290
     0
176
     1
290
     0
176
     1
290
     0
176
     1
290
     0
176
     1
 90
       50
176
     1
 40
0.0
176
     1
 40
1.0
176
     1
 90
        0
176
     1
 62
    18
420
        0
176
     1
 90
       50
176
     1
 90
        3
176
     1
 62
     5
420
      255
176
     1
290
     0
176
     1
 90
       50
176
     1
 90
       50
176
     1
 90
       50
176
     1
290
     0
176
     1
 90
       50
176
     1
 62
   256
176
     0
 40
1.0
176
     0
 90
        2
176
     1
  1
strokes_ogs.tif
176
     1
290
     0
176
     1
 40
1.0
176
     1
 40
1.0
176
     1
  0
VISUALSTYLE
  5
2B
102
{ACAD_REACTORS
330
29
102
}
330
29
100
AcDbVisualStyle
  2
FlatWithEdges
 70
     1
177
     3
291
     1
 70
    58
 90
        2
176
     1
 90
        1
176
     1
 90
        1
176
     1
 90
        2
176
     1
 40
0.6
176
     1
 40
30.0
176
     1
 62
     7
420
 16777215
176
     1
 90
        1
176
     1
 90
        0
176
     1
 62
     7
176
     1
 62
   257
176
     1
 90
        1
176
     1
 90
        1
176
     1
 40
1.0
176
     1
 90
        0
176
     1
 62
   257
176
     1
 40
1.0
176
     1
 90
        1
176
     1
 90
        6
176
     1
 90
        2
176
     1
 62
     7
176
     1
 90
        5
176
     1
 90
        0
176
     1
 90
        0
176
     1
290
     0
176
     1
 90
       13
176
     1
 40
0.0
176
     1
 90
        0
176
     1
290
     0
176
     1
290
     1
176
     1
290
     1
176
     1
290
     0
176
     1
290
     0
176
     1
290
     0
176
     1
290
     0
176
     1
290
     0
176
     1
290
     0
176
     1
 90
       50
176
     1
 40
0.0
176
     1
 40
1.0
176
     1
 90
        0
176
     1
 62
    18
420
        0
176
     1
 90
       50
176
     1
 90
        3
176
     1
 62
     5
420
      255
176
     1
290
     0
176
     1
 90
       50
176
     1
 90
       50
176
     1
 90
       50
176
     1
290
     0
176
     1
 90
       50
176
     1
 62
   256
176
     0
 40
1.0
176
     0
 90
        2
176
     1
  1
strokes_ogs.tif
176
     1
290
     0
176
     1
 40
1.0
176
     1
 40
1.0
176
     1
  0
VISUALSTYLE
  5
2C
102
{ACAD_REACTORS
330
29
102
}
330
29
100
AcDbVisualStyle
  2
Gouraud
 70
     2
177
     3
291
     1
 70
    58
 90
        2
176
     1
 90
        2
176
     1
 90
        1
176
     1
 90
        2
176
     1
 40
0.6
176
     1
 40
30.0
176
     1
 62
     7
420
 16777215
176
     1
 90
        0
176
     1
 90
        0
176
     1
 62
     7
176
     1
 62
   257
176
     1
 90
        1
176
     1
 90
        1
176
     1
 40
1.0
176
     1
 90
        0
176
     1
 62
     7
176
     1
 40
1.0
176
     1
 90
        1
176
     1
 90
        6
176
     1
 90
        2
176
     1
 62
     7
176
     1
 90
        5
176
     1
 90
        0
176
     1
 90
        0
176
     1
290
     0
176
     1
 90
       13
176
     1
 40
0.0
176
     1
 90
        0
176
     1
290
     0
176
     1
290
     1
176
     1
290
     1
176
     1
290
     0
176
     1
290
     0
176
     1
290
     0
176
     1
290
     0
176
     1
290
     0
176
     1
290
     0
176
     1
 90
       50
176
     1
 40
0.0
176
     1
 40
1.0
176
     1
 90
        0
176
     1
 62
    18
420
        0
176
     1
 90
       50
176
     1
 90
        3
176
     1
 62
     5
420
      255
176
     1
290
     0
176
     1
 90
       50
176
     1
 90
       50
176
     1
 90
       50
176
     1
290
     0
176
     1
 90
       50
176
     1
 62
   256
176
     0
 40
1.0
176
     0
 90
        2
176
     1
  1
strokes_ogs.tif
176
     1
290
     0
176
     1
 40
1.0
176
     1
 40
1.0
176
     1
  0
VISUALSTYLE
  5
2D
102
{ACAD_REACTORS
330
29
102
}
330
29
100
AcDbVisualStyle
  2
GouraudWithEdges
 70
     3
177
     3
291
     1
 70
    58
 90
        2
176
     1
 90
        2
176
     1
 90
        1
176
     1
 90
        2
176
     1
 40
0.6
176
     1
 40
30.0
176
     1
 62
     7
420
 16777215
176
     1
 90
        1
176
     1
 90
        0
176
     1
 62
     7
176
     1
 62
   257
176
     1
 90
        1
176
     1
 90
        1
176
     1
 40
1.0
176
     1
 90
        0
176
     1
 62
   257
176
     1
 40
1.0
176
     1
 90
        1
176
     1
 90
        6
176
     1
 90
        2
176
     1
 62
     7
176
     1
 90
        5
176
     1
 90
        0
176
     1
 90
        0
176
     1
290
     0
176
     1
 90
       13
176
     1
 40
0.0
176
     1
 90
        0
176
     1
290
     0
176
     1
290
     1
176
     1
290
     1
176
     1
290
     0
176
     1
290
     0
176
     1
290
     0
176
     1
290
     0
176
     1
290
     0
176
     1
290
     0
176
     1
 90
       50
176
     1
 40
0.0
176
     1
 40
1.0
176
     1
 90
        0
176
     1
 62
    18
420
        0
176
     1
 90
       50
176
     1
 90
        3
176
     1
 62
     5
420
      255
176
     1
290
     0
176
     1
 90
       50
176
     1
 90
       50
176
     1
 90
       50
176
     1
290
     0
176
     1
 90
       50
176
     1
 62
   256
176
     0
 40
1.0
176
     0
 90
        2
176
     1
  1
strokes_ogs.tif
176
     1
290
     0
176
     1
 40
1.0
176
     1
 40
1.0
176
     1
  0
VISUALSTYLE
  5
31
102
{ACAD_REACTORS
330
29
102
}
330
29
100
AcDbVisualStyle
  2
Hidden
 70
     6
177
     3
291
     0
 70
    58
 90
        1
176
     1
 90
        2
176
     1
 90
        2
176
     1
 90
        0
176
     1
 40
0.6
176
     1
 40
30.0
176
     1
 62
     7
420
 16777215
176
     1
 90
        2
176
     1
 90
        2
176
     1
 62
     7
176
     1
 62
   257
176
     1
 90
        2
176
     1
 90
        1
176
     1
 40
40.0
176
     1
 90
        0
176
     1
 62
   257
176
     1
 40
1.0
176
     1
 90
        1
176
     1
 90
        6
176
     1
 90
        2
176
     1
 62
     7
176
     1
 90
        3
176
     1
 90
        0
176
     1
 90
        0
176
     1
290
     0
176
     1
 90
        1
176
     1
 40
0.0
176
     1
 90
        0
176
     1
290
     0
176
     1
290
     1
176
     1
290
     1
176
     1
290
     0
176
     1
290
     0
176
     1
290
     0
176
     1
290
     0
176
     1
290
     0
176
     1
290
     0
176
     1
 90
       50
176
     1
 40
0.0
176
     1
 40
1.0
176
     1
 90
        0
176
     1
 62
    18
420
        0
176
     1
 90
       50
176
     1
 90
        3
176
     1
 62
     5
420
      255
176
     1
290
     0
176
     1
 90
       50
176
     1
 90
       50
176
     1
 90
       50
176
     1
290
     0
176
     1
 90
       50
176
     1
 62
   256
176
     0
 40
1.0
176
     0
 90
        2
176
     1
  1
strokes_ogs.tif
176
     1
290
     0
176
     1
 40
1.0
176
     1
 40
1.0
176
     1
  0
VISUALSTYLE
  5
3F
102
{ACAD_REACTORS
330
29
102
}
330
29
100
AcDbVisualStyle
  2
JitterOff
 70
    20
177
     3
291
     1
 70
    58
 90
        2
176
     0
 90
        2
176
     0
 90
        0
176
     0
 90
        0
176
     0
 40
0.6
176
     0
 40
30.0
176
     0
 62
     7
420
 16777215
176
     0
 90
        1
176
     0
 90
        4
176
     0
 62
     7
176
     0
 62
   257
176
     0
 90
        1
176
     0
 90
        1
176
     0
 40
1.0
176
     0
 90
       10
176
     2
 62
     7
176
     0
 40
1.0
176
     0
 90
        1
176
     0
 90
        6
176
     0
 90
        2
176
     0
 62
     7
176
     0
 90
        5
176
     0
 90
        0
176
     0
 90
        0
176
     0
290
     0
176
     0
 90
        1
176
     0
 40
0.0
176
     0
 90
        0
176
     0
290
     0
176
     0
290
     1
176
     0
290
     1
176
     0
290
     0
176
     0
290
     0
176
     0
290
     0
176
     0
290
     0
176
     0
290
     0
176
     0
290
     0
176
     0
 90
       50
176
     0
 40
0.0
176
     0
 40
1.0
176
     0
 90
        0
176
     0
 62
    18
420
        0
176
     0
 90
       50
176
     0
 90
        3
176
     0
 62
     5
420
      255
176
     0
290
     0
176
     0
 90
       50
176
     0
 90
       50
176
     0
 90
       50
176
     0
290
     0
176
     0
 90
       50
176
     0
 62
   256
176
     0
 40
1.0
176
     0
 90
        2
176
     0
  1
strokes_ogs.tif
176
     0
290
     0
176
     0
 40
1.0
176
     0
 40
1.0
176
     0
  0
VISUALSTYLE
  5
37
102
{ACAD_REACTORS
330
29
102
}
330
29
100
AcDbVisualStyle
  2
Linepattern
 70
    14
177
     3
291
     1
 70
    58
 90
        2
176
     1
 90
        2
176
     1
 90
        0
176
     1
 90
        0
176
     1
 40
0.6
176
     1
 40
30.0
176
     1
 62
     7
420
 16777215
176
     1
 90
        1
176
     1
 90
        4
176
     1
 62
     7
176
     1
 62
   257
176
     1
 90
        7
176
     1
 90
        7
176
     1
 40
1.0
176
     1
 90
        8
176
     1
 62
     7
176
     1
 40
1.0
176
     1
 90
        1
176
     1
 90
        6
176
     1
 90
        2
176
     1
 62
     7
176
     1
 90
        5
176
     1
 90
        0
176
     1
 90
        0
176
     1
290
     0
176
     1
 90
        1
176
     1
 40
0.0
176
     1
 90
        0
176
     1
290
     0
176
     1
290
     1
176
     1
290
     1
176
     1
290
     0
176
     1
290
     0
176
     1
290
     0
176
     1
290
     0
176
     1
290
     0
176
     1
290
     0
176
     1
 90
       50
176
     1
 40
0.0
176
     1
 40
1.0
176
     1
 90
        0
176
     1
 62
    18
420
        0
176
     1
 90
       50
176
     1
 90
        3
176
     1
 62
     5
420
      255
176
     1
290
     0
176
     1
 90
       50
176
     1
 90
       50
176
     1
 90
       50
176
     1
290
     0
176
     1
 90
       50
176
     1
 62
   256
176
     0
 40
1.0
176
     0
 90
        2
176
     1
  1
strokes_ogs.tif
176
     1
290
     0
176
     1
 40
1.0
176
     1
 40
1.0
176
     1
  0
VISUALSTYLE
  5
40
102
{ACAD_REACTORS
330
29
102
}
330
29
100
AcDbVisualStyle
  2
OverhangOff
 70
    21
177
     3
291
     1
 70
    58
 90
        2
176
     0
 90
        2
176
     0
 90
        0
176
     0
 90
        0
176
     0
 40
0.6
176
     0
 40
30.0
176
     0
 62
     7
420
 16777215
176
     0
 90
        1
176
     0
 90
        4
176
     0
 62
     7
176
     0
 62
   257
176
     0
 90
        1
176
     0
 90
        1
176
     0
 40
1.0
176
     0
 90
        9
176
     2
 62
     7
176
     0
 40
1.0
176
     0
 90
        1
176
     0
 90
        6
176
     0
 90
        2
176
     0
 62
     7
176
     0
 90
        5
176
     0
 90
        0
176
     0
 90
        0
176
     0
290
     0
176
     0
 90
        1
176
     0
 40
0.0
176
     0
 90
        0
176
     0
290
     0
176
     0
290
     1
176
     0
290
     1
176
     0
290
     0
176
     0
290
     0
176
     0
290
     0
176
     0
290
     0
176
     0
290
     0
176
     0
290
     0
176
     0
 90
       50
176
     0
 40
0.0
176
     0
 40
1.0
176
     0
 90
        0
176
     0
 62
    18
420
        0
176
     0
 90
       50
176
     0
 90
        3
176
     0
 62
     5
420
      255
176
     0
290
     0
176
     0
 90
       50
176
     0
 90
       50
176
     0
 90
       50
176
     0
290
     0
176
     0
 90
       50
176
     0
 62
   256
176
     0
 40
1.0
176
     0
 90
        2
176
     0
  1
strokes_ogs.tif
176
     0
290
     0
176
     0
 40
1.0
176
     0
 40
1.0
176
     0
  0
VISUALSTYLE
  5
33
102
{ACAD_REACTORS
330
29
102
}
330
29
100
AcDbVisualStyle
  2
Realistic
 70
     8
177
     3
291
     0
 70
    58
 90
        2
176
     1
 90
        3
176
     1
 90
        0
176
     1
 90
        2
176
     1
 40
0.6
176
     1
 40
30.0
176
     1
 62
     7
420
 16777215
176
     1
 90
        0
176
     1
 90
        0
176
     1
 62
     7
176
     1
 62
   257
176
     1
 90
        1
176
     1
 90
        1
176
     1
 40
1.0
176
     1
 90
        8
176
     1
 62
   257
176
     1
 40
1.0
176
     1
 90
        1
176
     1
 90
        6
176
     1
 90
        2
176
     1
 62
     7
176
     1
 90
        3
176
     1
 90
        0
176
     1
 90
        0
176
     1
290
     0
176
     1
 90
       13
176
     1
 40
0.0
176
     1
 90
        0
176
     1
290
     0
176
     1
290
     1
176
     1
290
     1
176
     1
290
     0
176
     1
290
     0
176
     1
290
     0
176
     1
290
     0
176
     1
290
     0
176
     1
290
     0
176
     1
 90
       50
176
     1
 40
0.0
176
     1
 40
1.0
176
     1
 90
        0
176
     1
 62
    18
420
        0
176
     1
 90
       50
176
     1
 90
        3
176
     1
 62
     5
420
      255
176
     1
290
     0
176
     1
 90
       50
176
     1
 90
       50
176
     1
 90
       50
176
     1
290
     0
176
     1
 90
       50
176
     1
 62
   256
176
     0
 40
1.0
176
     0
 90
        2
176
     1
  1
strokes_ogs.tif
176
     1
290
     0
176
     1
 40
1.0
176
     1
 40
1.0
176
     1
  0
VISUALSTYLE
  5
3E
102
{ACAD_REACTORS
330
29
102
}
330
29
100
AcDbVisualStyle
  2
Shaded
 70
    27
177
     3
291
     0
 70
    58
 90
        2
176
     1
 90
        2
176
     1
 90
        1
176
     1
 90
        2
176
     1
 40
0.6
176
     1
 40
30.0
176
     1
 62
     7
420
 16777215
176
     1
 90
        0
176
     1
 90
        4
176
     1
 62
     7
176
     1
 62
   257
176
     1
 90
        1
176
     1
 90
        1
176
     1
 40
1.0
176
     1
 90
        8
176
     1
 62
   257
176
     1
 40
1.0
176
     1
 90
        1
176
     1
 90
        6
176
     1
 90
        2
176
     1
 62
     8
420
  7895160
176
     1
 90
        3
176
     1
 90
        0
176
     1
 90
        0
176
     1
290
     0
176
     1
 90
        5
176
     1
 40
0.0
176
     1
 90
        0
176
     1
290
     0
176
     1
290
     1
176
     1
290
     1
176
     1
290
     0
176
     1
290
     0
176
     1
290
     0
176
     1
290
     0
176
     1
290
     0
176
     1
290
     0
176
     1
 90
       50
176
     1
 40
0.0
176
     1
 40
1.0
176
     1
 90
        0
176
     1
 62
    18
420
        0
176
     1
 90
       50
176
     1
 90
        3
176
     1
 62
     5
420
      255
176
     1
290
     0
176
     1
 90
       50
176
     1
 90
       50
176
     1
 90
       50
176
     1
290
     0
176
     1
 90
       50
176
     1
 62
   256
176
     0
 40
1.0
176
     0
 90
        2
176
     1
  1
strokes_ogs.tif
176
     1
290
     0
176
     1
 40
1.0
176
     1
 40
1.0
176
     1
  0
VISUALSTYLE
  5
3D
102
{ACAD_REACTORS
330
29
102
}
330
29
100
AcDbVisualStyle
  2
Shaded with edges
 70
    26
177
     3
291
     0
 70
    58
 90
        2
176
     1
 90
        2
176
     1
 90
        1
176
     1
 90
        2
176
     1
 40
0.6
176
     1
 40
30.0
176
     1
 62
     7
420
 16777215
176
     1
 90
        1
176
     1
 90
       10
176
     1
 62
     7
176
     1
 62
   257
176
     1
 90
        2
176
     1
 90
        1
176
     1
 40
1.0
176
     1
 90
        8
176
     1
 62
   257
176
     1
 40
1.0
176
     1
 90
        1
176
     1
 90
        6
176
     1
 90
        2
176
     1
 62
     7
176
     1
 90
        3
176
     1
 90
        0
176
     1
 90
        0
176
     1
290
     0
176
     1
 90
        5
176
     1
 40
0.0
176
     1
 90
        0
176
     1
290
     0
176
     1
290
     1
176
     1
290
     1
176
     1
290
     0
176
     1
290
     0
176
     1
290
     0
176
     1
290
     0
176
     1
290
     0
176
     1
290
     0
176
     1
 90
       50
176
     1
 40
0.0
176
     1
 40
1.0
176
     1
 90
        0
176
     1
 62
    18
420
        0
176
     1
 90
       50
176
     1
 90
        3
176
     1
 62
     5
420
      255
176
     1
290
     0
176
     1
 90
       50
176
     1
 90
       50
176
     1
 90
       50
176
     1
290
     0
176
     1
 90
       50
176
     1
 62
   256
176
     0
 40
1.0
176
     0
 90
        2
176
     1
  1
strokes_ogs.tif
176
     1
290
     0
176
     1
 40
1.0
176
     1
 40
1.0
176
     1
  0
VISUALSTYLE
  5
3A
102
{ACAD_REACTORS
330
29
102
}
330
29
100
AcDbVisualStyle
  2
Shades of Gray
 70
    23
177
     3
291
     0
 70
    58
 90
        2
176
     1
 90
        2
176
     1
 90
        3
176
     1
 90
        0
176
     1
 40
0.6
176
     1
 40
30.0
176
     1
 62
     7
420
 16777215
176
     1
 90
        2
176
     1
 90
        2
176
     1
 62
     7
176
     1
 62
     7
176
     1
 90
        1
176
     1
 90
        1
176
     1
 40
40.0
176
     1
 90
        8
176
     1
 62
     7
176
     1
 40
1.0
176
     1
 90
        1
176
     1
 90
        6
176
     1
 90
        2
176
     1
 62
     7
176
     1
 90
        3
176
     1
 90
        0
176
     1
 90
        0
176
     1
290
     0
176
     1
 90
        1
176
     1
 40
0.0
176
     1
 90
        0
176
     1
290
     0
176
     1
290
     1
176
     1
290
     1
176
     1
290
     0
176
     1
290
     0
176
     1
290
     0
176
     1
290
     0
176
     1
290
     0
176
     1
290
     0
176
     1
 90
       50
176
     1
 40
0.0
176
     1
 40
1.0
176
     1
 90
        0
176
     1
 62
    18
420
        0
176
     1
 90
       50
176
     1
 90
        3
176
     1
 62
     5
420
      255
176
     1
290
     0
176
     1
 90
       50
176
     1
 90
       50
176
     1
 90
       50
176
     1
290
     0
176
     1
 90
       50
176
     1
 62
   256
176
     0
 40
1.0
176
     0
 90
        2
176
     1
  1
strokes_ogs.tif
176
     1
290
     0
176
     1
 40
1.0
176
     1
 40
1.0
176
     1
  0
VISUALSTYLE
  5
3B
102
{ACAD_REACTORS
330
29
102
}
330
29
100
AcDbVisualStyle
  2
Sketchy
 70
    24
177
     3
291
     0
 70
    58
 90
        1
176
     1
 90
        2
176
     1
 90
        2
176
     1
 90
        0
176
     1
 40
0.6
176
     1
 40
30.0
176
     1
 62
     7
420
 16777215
176
     1
 90
        2
176
     1
 90
        2
176
     1
 62
     7
176
     1
 62
     7
176
     1
 90
        1
176
     1
 90
        1
176
     1
 40
40.0
176
     1
 90
       11
176
     1
 62
     7
176
     1
 40
1.0
176
     1
 90
        1
176
     1
 90
        6
176
     1
 90
        2
176
     1
 62
     7
176
     1
 90
        6
176
     1
 90
        0
176
     1
 90
        0
176
     1
290
     0
176
     1
 90
        1
176
     1
 40
0.0
176
     1
 90
        0
176
     1
290
     0
176
     1
290
     1
176
     1
290
     1
176
     1
290
     0
176
     1
290
     0
176
     1
290
     0
176
     1
290
     0
176
     1
290
     0
176
     1
290
     0
176
     1
 90
       50
176
     1
 40
0.0
176
     1
 40
1.0
176
     1
 90
        0
176
     1
 62
    18
420
        0
176
     1
 90
       50
176
     1
 90
        3
176
     1
 62
     5
420
      255
176
     1
290
     0
176
     1
 90
       50
176
     1
 90
       50
176
     1
 90
       50
176
     1
290
     0
176
     1
 90
       50
176
     1
 62
   256
176
     0
 40
1.0
176
     0
 90
        2
176
     1
  1
strokes_ogs.tif
176
     1
290
     0
176
     1
 40
1.0
176
     1
 40
1.0
176
     1
  0
VISUALSTYLE
  5
36
102
{ACAD_REACTORS
330
29
102
}
330
29
100
AcDbVisualStyle
  2
Thicken
 70
    13
177
     3
291
     1
 70
    58
 90
        2
176
     1
 90
        2
176
     1
 90
        0
176
     1
 90
        0
176
     1
 40
0.6
176
     1
 40
30.0
176
     1
 62
     7
420
 16777215
176
     1
 90
        1
176
     1
 90
        4
176
     1
 62
     7
176
     1
 62
   257
176
     1
 90
        1
176
     1
 90
        1
176
     1
 40
1.0
176
     1
 90
       12
176
     1
 62
     7
176
     1
 40
1.0
176
     1
 90
        1
176
     1
 90
        6
176
     1
 90
        2
176
     1
 62
     7
176
     1
 90
        5
176
     1
 90
        0
176
     1
 90
        0
176
     1
290
     0
176
     1
 90
        1
176
     1
 40
0.0
176
     1
 90
        0
176
     1
290
     0
176
     1
290
     1
176
     1
290
     1
176
     1
290
     0
176
     1
290
     0
176
     1
290
     0
176
     1
290
     0
176
     1
290
     0
176
     1
290
     0
176
     1
 90
       50
176
     1
 40
0.0
176
     1
 40
1.0
176
     1
 90
        0
176
     1
 62
    18
420
        0
176
     1
 90
       50
176
     1
 90
        3
176
     1
 62
     5
420
      255
176
     1
290
     0
176
     1
 90
       50
176
     1
 90
       50
176
     1
 90
       50
176
     1
290
     0
176
     1
 90
       50
176
     1
 62
   256
176
     0
 40
1.0
176
     0
 90
        2
176
     1
  1
strokes_ogs.tif
176
     1
290
     0
176
     1
 40
1.0
176
     1
 40
1.0
176
     1
  0
VISUALSTYLE
  5
30
102
{ACAD_REACTORS
330
29
102
}
330
29
100
AcDbVisualStyle
  2
Wireframe
 70
     5
177
     3
291
     0
 70
    58
 90
        0
176
     1
 90
        2
176
     1
 90
        0
176
     1
 90
        0
176
     1
 40
0.6
176
     1
 40
30.0
176
     1
 62
     7
420
 16777215
176
     1
 90
        1
176
     1
 90
        4
176
     1
 62
     7
176
     1
 62
   257
176
     1
 90
        1
176
     1
 90
        1
176
     1
 40
1.0
176
     1
 90
        0
176
     1
 62
   257
176
     1
 40
1.0
176
     1
 90
        1
176
     1
 90
        6
176
     1
 90
        2
176
     1
 62
     7
176
     1
 90
        3
176
     1
 90
        0
176
     1
 90
        0
176
     1
290
     0
176
     1
 90
        1
176
     1
 40
0.0
176
     1
 90
        0
176
     1
290
     0
176
     1
290
     1
176
     1
290
     1
176
     1
290
     0
176
     1
290
     0
176
     1
290
     0
176
     1
290
     0
176
     1
290
     0
176
     1
290
     0
176
     1
 90
       50
176
     1
 40
0.0
176
     1
 40
1.0
176
     1
 90
        0
176
     1
 62
    18
420
        0
176
     1
 90
       50
176
     1
 90
        3
176
     1
 62
     5
420
      255
176
     1
290
     0
176
     1
 90
       50
176
     1
 90
       50
176
     1
 90
       50
176
     1
290
     0
176
     1
 90
       50
176
     1
 62
   256
176
     0
 40
1.0
176
     0
 90
        2
176
     1
  1
strokes_ogs.tif
176
     1
290
     0
176
     1
 40
1.0
176
     1
 40
1.0
176
     1
  0
VISUALSTYLE
  5
3C
102
{ACAD_REACTORS
330
29
102
}
330
29
100
AcDbVisualStyle
  2
X-Ray
 70
    25
177
     3
291
     0
 70
    58
 90
        2
176
     1
 90
        2
176
     1
 90
        1
176
     1
 90
        1
176
     1
 40
0.5
176
     1
 40
30.0
176
     1
 62
     7
420
 16777215
176
     1
 90
        1
176
     1
 90
        0
176
     1
 62
     7
176
     1
 62
   257
176
     1
 90
        1
176
     1
 90
        1
176
     1
 40
1.0
176
     1
 90
        8
176
     1
 62
     7
176
     1
 40
1.0
176
     1
 90
        1
176
     1
 90
        6
176
     1
 90
        2
176
     1
 62
     7
176
     1
 90
        3
176
     1
 90
        0
176
     1
 90
        0
176
     1
290
     0
176
     1
 90
       13
176
     1
 40
0.0
176
     1
 90
        0
176
     1
290
     0
176
     1
290
     1
176
     1
290
     1
176
     1
290
     0
176
     1
290
     0
176
     1
290
     0
176
     1
290
     0
176
     1
290
     0
176
     1
290
     0
176
     1
 90
       50
176
     1
 40
0.0
176
     1
 40
1.0
176
     1
 90
        0
176
     1
 62
    18
420
        0
176
     1
 90
       50
176
     1
 90
        3
176
     1
 62
     5
420
      255
176
     1
290
     0
176
     1
 90
       50
176
     1
 90
       50
176
     1
 90
       50
176
     1
290
     0
176
     1
 90
       50
176
     1
 62
   256
176
     0
 40
1.0
176
     0
 90
        2
176
     1
  1
strokes_ogs.tif
176
     1
290
     0
176
     1
 40
1.0
176
     1
 40
1.0
176
     1
  0
DICTIONARYVAR
  5
179
102
{ACAD_REACTORS
330
174
102
}
330
174
100
DictionaryVariables
280
     0
  1
1:1
  0
DICTIONARYVAR
  5
176
102
{ACAD_REACTORS
330
174
102
}
330
174
100
DictionaryVariables
280
     0
  1
STANDARD
  0
DICTIONARYVAR
  5
175
102
{ACAD_REACTORS
330
174
102
}
330
174
100
DictionaryVariables
280
     0
  1
STANDARD
  0
DICTIONARYVAR
  5
177
102
{ACAD_REACTORS
330
174
102
}
330
174
100
DictionaryVariables
280
     0
  1
Imperial24
  0
DICTIONARYVAR
  5
178
102
{ACAD_REACTORS
330
174
102
}
330
174
100
DictionaryVariables
280
     0
  1
Imperial24
  0
XRECORD
  5
16B
102
{ACAD_REACTORS
330
169
102
}
330
169
100
AcDbXrecord
280
     1
  1
BUILDING_ID
  1
Faucet_Lavatory-DXV-Fitzgerald-D35160802_Series
  1
FLOOR_ID
  1
35
  0
XRECORD
  5
16A
102
{ACAD_REACTORS
330
169
102
}
330
169
100
AcDbXrecord
280
     1
  1
-2001160
  1
Plumbing Fixtures
  1
-2007000
  1
Connector Element
  0
DICTIONARY
  5
171
330
6B
100
AcDbDictionary
280
     1
281
     1
  3
ACAD_XREC_ROUNDTRIP
360
CEC
  0
DICTIONARY
  5
1A
330
19
100
AcDbDictionary
280
     1
281
     1
  3
BUMPTILE
360
1C
  3
DIFFUSETILE
360
1B
  3
OPACITYTILE
360
1F
  3
REFLECTIONTILE
360
1E
  3
REFRACTIONTILE
360
20
  3
SPECULARTILE
360
1D
  0
DICTIONARY
  5
12
330
11
100
AcDbDictionary
280
     1
281
     1
  3
BUMPTILE
360
14
  3
DIFFUSETILE
360
13
  3
OPACITYTILE
360
17
  3
REFLECTIONTILE
360
16
  3
REFRACTIONTILE
360
18
  3
SPECULARTILE
360
15
  0
DICTIONARY
  5
22
330
21
100
AcDbDictionary
280
     1
281
     1
  3
BUMPTILE
360
24
  3
DIFFUSETILE
360
23
  3
OPACITYTILE
360
27
  3
REFLECTIONTILE
360
26
  3
REFRACTIONTILE
360
28
  3
SPECULARTILE
360
25
  0
DICTIONARY
  5
16F
330
69
100
AcDbDictionary
280
     1
281
     1
  3
ACAD_XREC_ROUNDTRIP
360
CEB
  0
DICTIONARY
  5
CE9
330
65
100
AcDbDictionary
280
     1
281
     1
  3
ACAD_ROUNDTRIP_2008_TABLESTYLE_CELLSTYLEMAP
360
CEA
  0
XRECORD
  5
CEC
102
{ACAD_REACTORS
330
171
102
}
330
171
100
AcDbXrecord
280
     1
102
DISPLAYNAME
  1
Imperial24
102
FLAGS
 90
        0
  0
XRECORD
  5
1C
102
{ACAD_REACTORS
330
1A
102
}
330
1A
100
AcDbXrecord
280
     1
270
     1
271
     1
  0
XRECORD
  5
1B
102
{ACAD_REACTORS
330
1A
102
}
330
1A
100
AcDbXrecord
280
     1
270
     1
271
     1
  0
XRECORD
  5
1F
102
{ACAD_REACTORS
330
1A
102
}
330
1A
100
AcDbXrecord
280
     1
270
     1
271
     1
  0
XRECORD
  5
1E
102
{ACAD_REACTORS
330
1A
102
}
330
1A
100
AcDbXrecord
280
     1
270
     1
271
     1
  0
XRECORD
  5
20
102
{ACAD_REACTORS
330
1A
102
}
330
1A
100
AcDbXrecord
280
     1
270
     1
271
     1
  0
XRECORD
  5
1D
102
{ACAD_REACTORS
330
1A
102
}
330
1A
100
AcDbXrecord
280
     1
270
     1
271
     1
  0
XRECORD
  5
14
102
{ACAD_REACTORS
330
12
102
}
330
12
100
AcDbXrecord
280
     1
270
     1
271
     1
  0
XRECORD
  5
13
102
{ACAD_REACTORS
330
12
102
}
330
12
100
AcDbXrecord
280
     1
270
     1
271
     1
  0
XRECORD
  5
17
102
{ACAD_REACTORS
330
12
102
}
330
12
100
AcDbXrecord
280
     1
270
     1
271
     1
  0
XRECORD
  5
16
102
{ACAD_REACTORS
330
12
102
}
330
12
100
AcDbXrecord
280
     1
270
     1
271
     1
  0
XRECORD
  5
18
102
{ACAD_REACTORS
330
12
102
}
330
12
100
AcDbXrecord
280
     1
270
     1
271
     1
  0
XRECORD
  5
15
102
{ACAD_REACTORS
330
12
102
}
330
12
100
AcDbXrecord
280
     1
270
     1
271
     1
  0
XRECORD
  5
24
102
{ACAD_REACTORS
330
22
102
}
330
22
100
AcDbXrecord
280
     1
270
     1
271
     1
  0
XRECORD
  5
23
102
{ACAD_REACTORS
330
22
102
}
330
22
100
AcDbXrecord
280
     1
270
     1
271
     1
  0
XRECORD
  5
27
102
{ACAD_REACTORS
330
22
102
}
330
22
100
AcDbXrecord
280
     1
270
     1
271
     1
  0
XRECORD
  5
26
102
{ACAD_REACTORS
330
22
102
}
330
22
100
AcDbXrecord
280
     1
270
     1
271
     1
  0
XRECORD
  5
28
102
{ACAD_REACTORS
330
22
102
}
330
22
100
AcDbXrecord
280
     1
270
     1
271
     1
  0
XRECORD
  5
25
102
{ACAD_REACTORS
330
22
102
}
330
22
100
AcDbXrecord
280
     1
270
     1
271
     1
  0
XRECORD
  5
CEB
102
{ACAD_REACTORS
330
16F
102
}
330
16F
100
AcDbXrecord
280
     1
102
DISPLAYNAME
  1
Imperial24
102
FLAGS
 90
        0
  0
CELLSTYLEMAP
  5
CEA
102
{ACAD_REACTORS
330
CE9
102
}
330
CE9
100
AcDbCellStyleMap
 90
        3
300
CELLSTYLE
  1
TABLEFORMAT_BEGIN
 90
        5
170
     1
 91
        0
 92
    32768
 62
   257
 93
        1
300
CONTENTFORMAT
  1
CONTENTFORMAT_BEGIN
 90
        0
 91
        0
 92
      512
 93
        0
300

 40
0.0
140
1.0
 94
        5
 62
     0
340
55
144
0.25
309
CONTENTFORMAT_END
171
     0
 94
        0
309
TABLEFORMAT_END
  1
CELLSTYLE_BEGIN
 90
        1
 91
        1
300
_TITLE
309
CELLSTYLE_END
300
CELLSTYLE
  1
TABLEFORMAT_BEGIN
 90
        5
170
     1
 91
        0
 92
        0
 62
   257
 93
        1
300
CONTENTFORMAT
  1
CONTENTFORMAT_BEGIN
 90
        0
 91
        0
 92
      512
 93
        0
300

 40
0.0
140
1.0
 94
        5
 62
     0
340
55
144
0.18
309
CONTENTFORMAT_END
171
     0
 94
        0
309
TABLEFORMAT_END
  1
CELLSTYLE_BEGIN
 90
        2
 91
        1
300
_HEADER
309
CELLSTYLE_END
300
CELLSTYLE
  1
TABLEFORMAT_BEGIN
 90
        5
170
     1
 91
        0
 92
        0
 62
   257
 93
        1
300
CONTENTFORMAT
  1
CONTENTFORMAT_BEGIN
 90
        0
 91
        0
 92
      512
 93
        0
300

 40
0.0
140
1.0
 94
        2
 62
     0
340
55
144
0.18
309
CONTENTFORMAT_END
171
     0
 94
        0
309
TABLEFORMAT_END
  1
CELLSTYLE_BEGIN
 90
        3
 91
        2
300
_DATA
309
CELLSTYLE_END
  0
ENDSEC
  0
SECTION
  2
ACDSDATA
 70
     2
 71
     8
  0
ACDSSCHEMA
 90
        0
  1
AcDb_Thumbnail_Schema
  2
AcDbDs::ID
280
    10
 91
        8
  2
Thumbnail_Data
280
    15
 91
        0
101
ACDSRECORD
 95
        0
 90
        1
  2
AcDbDs::TreatedAsObjectData
280
     1
291
     1
101
ACDSRECORD
 95
        0
 90
        2
  2
AcDbDs::Legacy
280
     1
291
     1
101
ACDSRECORD
  1
AcDbDs::ID
 90
        3
  2
AcDs:Indexable
280
     1
291
     1
101
ACDSRECORD
  1
AcDbDs::ID
 90
        4
  2
AcDbDs::HandleAttribute
280
     7
282
     1
  0
ACDSSCHEMA
 90
        1
  1
AcDbDs::TreatedAsObjectDataSchema
  2
AcDbDs::TreatedAsObjectData
280
     1
 91
        0
  0
ACDSSCHEMA
 90
        2
  1
AcDbDs::LegacySchema
  2
AcDbDs::Legacy
280
     1
 91
        0
  0
ACDSSCHEMA
 90
        3
  1
AcDbDs::IndexedPropertySchema
  2
AcDs:Indexable
280
     1
 91
        0
  0
ACDSSCHEMA
 90
        4
  1
AcDbDs::HandleAttributeSchema
  2
AcDbDs::HandleAttribute
280
     7
 91
        1
284
     1
  0
ACDSRECORD
 90
        0
  2
AcDbDs::ID
280
    10
320
73
  2
Thumbnail_Data
280
    15
 94
     1627
310
89504E470D0A1A0A0000000D494844520000010000000084080300000048FA052E00000300504C5445212830000000C8C8C80000000000000000000000000000000000000000000000000000330000660000990000CC0000FF0033000033330033660033990033CC0033FF0066000066330066660066990066CC0066FF0099
310
000099330099660099990099CC0099FF00CC0000CC3300CC6600CC9900CCCC00CCFF00FF0000FF3300FF6600FF9900FFCC00FFFF3300003300333300663300993300CC3300FF3333003333333333663333993333CC3333FF3366003366333366663366993366CC3366FF3399003399333399663399993399CC3399FF33CC00
310
33CC3333CC6633CC9933CCCC33CCFF33FF0033FF3333FF6633FF9933FFCC33FFFF6600006600336600666600996600CC6600FF6633006633336633666633996633CC6633FF6666006666336666666666996666CC6666FF6699006699336699666699996699CC6699FF66CC0066CC3366CC6666CC9966CCCC66CCFF66FF0066
310
FF3366FF6666FF9966FFCC66FFFF9900009900339900669900999900CC9900FF9933009933339933669933999933CC9933FF9966009966339966669966999966CC9966FF9999009999339999669999999999CC9999FF99CC0099CC3399CC6699CC9999CCCC99CCFF99FF0099FF3399FF6699FF9999FFCC99FFFFCC0000CC00
310
33CC0066CC0099CC00CCCC00FFCC3300CC3333CC3366CC3399CC33CCCC33FFCC6600CC6633CC6666CC6699CC66CCCC66FFCC9900CC9933CC9966CC9999CC99CCCC99FFCCCC00CCCC33CCCC66CCCC99CCCCCCCCCCFFCCFF00CCFF33CCFF66CCFF99CCFFCCCCFFFFFF0000FF0033FF0066FF0099FF00CCFF00FFFF3300FF3333
310
FF3366FF3399FF33CCFF33FFFF6600FF6633FF6666FF6699FF66CCFF66FFFF9900FF9933FF9966FF9999FF99CCFF99FFFFCC00FFCC33FFCC66FFCC99FFCCCCFFCCFFFFFF00FFFF33FFFF66FFFF99FFFFCCFFFFFF0000000D0D0D1A1A1A2828283535354343435050505D5D5D6B6B6B787878868686939393A1A1A1AEAEAEBB
310
BBBBC9C9C9D6D6D6E4E4E4F1F1F1FFFFFF000000000000000000000000000000000000000000000000000000000000B21171F6000003124944415478DAED9DDB9A83200C84F3FEEF3BF7FBED6A3542126D9708D499AB6E5317F313C2A1154428AAA3000426DF185D3899FF8E9BEB9BB69BF0AF9BB1FA2D57B02BBA6E76FFC5
310
73135B04D431A0AE999CC0AF074BF557AEBC2C585E56D5FFB24D45A0ACE8CD9125124CFF97CF54004CDBE859616FEF2A7EFFDEAC43409B4A02071B8A5C313281AA99AFC1BF258322003653C946D9AA3A9F09C0A1AF3B7AA2FE46DD7094ED52210302D0ED606FD64E2D9F45C081D0D8008ADB8D730056D35F3F10E58012E95C
310
C320A74747D0D9EB5E60F2A110746F8F6A88B4BB1A8C1E2607E00E78757AC0F5CB6624604F0504C1781FC17593CE062C93E0643628DF321F760C12CFF8BE643D20202378849F04700A4008800008800008800008800008800008800008800008800008800008800008E0010096AFC08500E4B90408E0C95F0CC9F2CB9827FB
310
BF00902703F88A1F845314455114455114455114455114455114455114455114455114455114455114455183A9F39E85DDB74CECBC69E3007B462E5B1676BB81B574F46E03FDEAA7FF1323E61D145B03E7DD62F7A7C6EA4AD67B98A7EF67BE3D38898E29403DB8B56FE47A7825929525060250ED607F68025904208300285B
310
3C8C4FE18B016CE597BEBF606485C0284D0055AE47B1B57552080C02C0F6BD6E26899D50C79198EE869D9B09F6C66E310CE83A10D823106743C2D46148C72670E916FE75834101DB2934E835516A5D8A792248709CD6BA89CA250029070EB4DEC4DFE948BC195F04609D290266566E3C12C900702CE40300EEF8AB3180B593
310
4B8D0037059C00B0FF41EB08304EB9699B54DD91F42980FA98B1C63900EAB8B70E8B1E3B00BB81DCD109DCB12875210204EFA40E02689B03913D1D71BBC121008834ED06FC42E0AEC678006E386E725B13471700DB529C98D61BF61903EE035097A00158D67C006AB92771E5DBEDEB4300B863B94C2D77A69156831D7800AC
310
F8D897AB6F02807400026B2DC20710E487B60B32EEC1D0EDBAC07A5C5B0110BC91201B2F48652E4B05611E01505FD6481A01E0C2842DAF88B76C59ADF3E48DD4223EB525D6CEAD11804FA383FA443FF2BF06224D5F7E7A0000000049454E44AE426082AE426082
  0
ENDSEC
  0
EOF
