  0
SECTION
  2
HEADER
  9
$ACADVER
  1
AC1027
  9
$ACADMAINTVER
 70
   105
  9
$DWGCODEPAGE
  3
ANSI_1252
  9
$LASTSAVEDBY
  1
Ibrahim
  9
$REQUIREDVERSIONS
160
                 0
  9
$INSBASE
 10
0.0
 20
0.0
 30
0.0
  9
$EXTMIN
 10
-18.20929774569582
 20
-0.0010050943433555
 30
-0.0000000000022887
  9
$EXTMAX
 10
1.313506860120561
 20
24.65404021097086
 30
0.0000000000000001
  9
$LIMMIN
 10
0.0
 20
0.0
  9
$LIMMAX
 10
12.0
 20
9.0
  9
$ORTHOMODE
 70
     1
  9
$REGENMODE
 70
     1
  9
$FILLMODE
 70
     1
  9
$QTEXTMODE
 70
     0
  9
$MIRRTEXT
 70
     0
  9
$LTSCALE
 40
1.0
  9
$ATTMODE
 70
     1
  9
$TEXTSIZE
 40
0.2
  9
$TRACEWID
 40
0.05
  9
$TEXTSTYLE
  7
Standard
  9
$CLAYER
  8
D35160152
  9
$CELTYPE
  6
ByLayer
  9
$CECOLOR
 62
   256
  9
$CELTSCALE
 40
1.0
  9
$DISPSILH
 70
     0
  9
$DIMSCALE
 40
1.0
  9
$DIMASZ
 40
0.18
  9
$DIMEXO
 40
0.0625
  9
$DIMDLI
 40
0.38
  9
$DIMRND
 40
0.0
  9
$DIMDLE
 40
0.0
  9
$DIMEXE
 40
0.18
  9
$DIMTP
 40
0.0
  9
$DIMTM
 40
0.0
  9
$DIMTXT
 40
0.18
  9
$DIMCEN
 40
0.09
  9
$DIMTSZ
 40
0.0
  9
$DIMTOL
 70
     0
  9
$DIMLIM
 70
     0
  9
$DIMTIH
 70
     1
  9
$DIMTOH
 70
     1
  9
$DIMSE1
 70
     0
  9
$DIMSE2
 70
     0
  9
$DIMTAD
 70
     0
  9
$DIMZIN
 70
     0
  9
$DIMBLK
  1

  9
$DIMASO
 70
     1
  9
$DIMSHO
 70
     1
  9
$DIMPOST
  1

  9
$DIMAPOST
  1

  9
$DIMALT
 70
     0
  9
$DIMALTD
 70
     2
  9
$DIMALTF
 40
25.4
  9
$DIMLFAC
 40
1.0
  9
$DIMTOFL
 70
     0
  9
$DIMTVP
 40
0.0
  9
$DIMTIX
 70
     0
  9
$DIMSOXD
 70
     0
  9
$DIMSAH
 70
     0
  9
$DIMBLK1
  1

  9
$DIMBLK2
  1

  9
$DIMSTYLE
  2
Standard
  9
$DIMCLRD
 70
     0
  9
$DIMCLRE
 70
     0
  9
$DIMCLRT
 70
     0
  9
$DIMTFAC
 40
1.0
  9
$DIMGAP
 40
0.09
  9
$DIMJUST
 70
     0
  9
$DIMSD1
 70
     0
  9
$DIMSD2
 70
     0
  9
$DIMTOLJ
 70
     1
  9
$DIMTZIN
 70
     0
  9
$DIMALTZ
 70
     0
  9
$DIMALTTZ
 70
     0
  9
$DIMUPT
 70
     0
  9
$DIMDEC
 70
     4
  9
$DIMTDEC
 70
     4
  9
$DIMALTU
 70
     4
  9
$DIMALTTD
 70
     2
  9
$DIMTXSTY
  7
Standard
  9
$DIMAUNIT
 70
     0
  9
$DIMADEC
 70
     0
  9
$DIMALTRND
 40
0.0
  9
$DIMAZIN
 70
     0
  9
$DIMDSEP
 70
    46
  9
$DIMATFIT
 70
     3
  9
$DIMFRAC
 70
     0
  9
$DIMLDRBLK
  1

  9
$DIMLUNIT
 70
     4
  9
$DIMLWD
 70
    -2
  9
$DIMLWE
 70
    -2
  9
$DIMTMOVE
 70
     0
  9
$DIMFXL
 40
1.0
  9
$DIMFXLON
 70
     0
  9
$DIMJOGANG
 40
0.7853981633974483
  9
$DIMTFILL
 70
     0
  9
$DIMTFILLCLR
 70
     0
  9
$DIMARCSYM
 70
     0
  9
$DIMLTYPE
  6

  9
$DIMLTEX1
  6

  9
$DIMLTEX2
  6

  9
$DIMTXTDIRECTION
 70
     0
  9
$LUNITS
 70
     4
  9
$LUPREC
 70
     4
  9
$SKETCHINC
 40
0.1
  9
$FILLETRAD
 40
0.0
  9
$AUNITS
 70
     0
  9
$AUPREC
 70
     0
  9
$MENU
  1
.
  9
$ELEVATION
 40
0.0
  9
$PELEVATION
 40
0.0
  9
$THICKNESS
 40
0.0
  9
$LIMCHECK
 70
     0
  9
$CHAMFERA
 40
0.0
  9
$CHAMFERB
 40
0.0
  9
$CHAMFERC
 40
0.0
  9
$CHAMFERD
 40
0.0
  9
$SKPOLY
 70
     0
  9
$TDCREATE
 40
2458417.504712523
  9
$TDUCREATE
 40
2458417.671379190
  9
$TDUPDATE
 40
2458424.698434618
  9
$TDUUPDATE
 40
2458424.865101285
  9
$TDINDWG
 40
0.0057246181
  9
$TDUSRTIMER
 40
0.0057246181
  9
$USRTIMER
 70
     1
  9
$ANGBASE
 50
0.0
  9
$ANGDIR
 70
     0
  9
$PDMODE
 70
     0
  9
$PDSIZE
 40
0.0
  9
$PLINEWID
 40
0.0
  9
$SPLFRAME
 70
     0
  9
$SPLINETYPE
 70
     6
  9
$SPLINESEGS
 70
     8
  9
$HANDSEED
  5
4EA
  9
$SURFTAB1
 70
     6
  9
$SURFTAB2
 70
     6
  9
$SURFTYPE
 70
     6
  9
$SURFU
 70
     6
  9
$SURFV
 70
     6
  9
$UCSBASE
  2

  9
$UCSNAME
  2

  9
$UCSORG
 10
0.0
 20
0.0
 30
0.0
  9
$UCSXDIR
 10
1.0
 20
0.0
 30
0.0
  9
$UCSYDIR
 10
0.0
 20
1.0
 30
0.0
  9
$UCSORTHOREF
  2

  9
$UCSORTHOVIEW
 70
     0
  9
$UCSORGTOP
 10
0.0
 20
0.0
 30
0.0
  9
$UCSORGBOTTOM
 10
0.0
 20
0.0
 30
0.0
  9
$UCSORGLEFT
 10
0.0
 20
0.0
 30
0.0
  9
$UCSORGRIGHT
 10
0.0
 20
0.0
 30
0.0
  9
$UCSORGFRONT
 10
0.0
 20
0.0
 30
0.0
  9
$UCSORGBACK
 10
0.0
 20
0.0
 30
0.0
  9
$PUCSBASE
  2

  9
$PUCSNAME
  2

  9
$PUCSORG
 10
0.0
 20
0.0
 30
0.0
  9
$PUCSXDIR
 10
1.0
 20
0.0
 30
0.0
  9
$PUCSYDIR
 10
0.0
 20
1.0
 30
0.0
  9
$PUCSORTHOREF
  2

  9
$PUCSORTHOVIEW
 70
     0
  9
$PUCSORGTOP
 10
0.0
 20
0.0
 30
0.0
  9
$PUCSORGBOTTOM
 10
0.0
 20
0.0
 30
0.0
  9
$PUCSORGLEFT
 10
0.0
 20
0.0
 30
0.0
  9
$PUCSORGRIGHT
 10
0.0
 20
0.0
 30
0.0
  9
$PUCSORGFRONT
 10
0.0
 20
0.0
 30
0.0
  9
$PUCSORGBACK
 10
0.0
 20
0.0
 30
0.0
  9
$USERI1
 70
     0
  9
$USERI2
 70
     0
  9
$USERI3
 70
     0
  9
$USERI4
 70
     0
  9
$USERI5
 70
     0
  9
$USERR1
 40
0.0
  9
$USERR2
 40
0.0
  9
$USERR3
 40
0.0
  9
$USERR4
 40
0.0
  9
$USERR5
 40
0.0
  9
$WORLDVIEW
 70
     1
  9
$SHADEDGE
 70
     3
  9
$SHADEDIF
 70
    70
  9
$TILEMODE
 70
     1
  9
$MAXACTVP
 70
    64
  9
$PINSBASE
 10
0.0
 20
0.0
 30
0.0
  9
$PLIMCHECK
 70
     0
  9
$PEXTMIN
 10
1.000000000000000E+20
 20
1.000000000000000E+20
 30
1.000000000000000E+20
  9
$PEXTMAX
 10
-1.000000000000000E+20
 20
-1.000000000000000E+20
 30
-1.000000000000000E+20
  9
$PLIMMIN
 10
0.0
 20
0.0
  9
$PLIMMAX
 10
12.0
 20
9.0
  9
$UNITMODE
 70
     0
  9
$VISRETAIN
 70
     1
  9
$PLINEGEN
 70
     0
  9
$PSLTSCALE
 70
     1
  9
$TREEDEPTH
 70
  3020
  9
$CMLSTYLE
  2
Standard
  9
$CMLJUST
 70
     0
  9
$CMLSCALE
 40
1.0
  9
$PROXYGRAPHICS
 70
     1
  9
$MEASUREMENT
 70
     0
  9
$CELWEIGHT
370
    -1
  9
$ENDCAPS
280
     0
  9
$JOINSTYLE
280
     0
  9
$LWDISPLAY
290
     0
  9
$INSUNITS
 70
     1
  9
$HYPERLINKBASE
  1

  9
$STYLESHEET
  1

  9
$XEDIT
290
     1
  9
$CEPSNTYPE
380
     0
  9
$PSTYLEMODE
290
     1
  9
$FINGERPRINTGUID
  2
{6387EF11-C7E3-45C5-B929-1058329F6378}
  9
$VERSIONGUID
  2
{92FB3859-0118-4B95-B266-323FF76B0BAE}
  9
$EXTNAMES
290
     1
  9
$PSVPSCALE
 40
0.0
  9
$OLESTARTUP
290
     0
  9
$SORTENTS
280
   127
  9
$INDEXCTL
280
     0
  9
$HIDETEXT
280
     1
  9
$XCLIPFRAME
280
     2
  9
$HALOGAP
280
     0
  9
$OBSCOLOR
 70
   257
  9
$OBSLTYPE
280
     0
  9
$INTERSECTIONDISPLAY
280
     0
  9
$INTERSECTIONCOLOR
 70
   257
  9
$DIMASSOC
280
     2
  9
$PROJECTNAME
  1

  9
$CAMERADISPLAY
290
     0
  9
$LENSLENGTH
 40
50.0
  9
$CAMERAHEIGHT
 40
0.0
  9
$STEPSPERSEC
 40
2.0
  9
$STEPSIZE
 40
6.0
  9
$3DDWFPREC
 40
2.0
  9
$PSOLWIDTH
 40
0.25
  9
$PSOLHEIGHT
 40
4.0
  9
$LOFTANG1
 40
1.570796326794896
  9
$LOFTANG2
 40
1.570796326794896
  9
$LOFTMAG1
 40
0.0
  9
$LOFTMAG2
 40
0.0
  9
$LOFTPARAM
 70
     7
  9
$LOFTNORMALS
280
     1
  9
$LATITUDE
 40
0.0
  9
$LONGITUDE
 40
0.0
  9
$NORTHDIRECTION
 40
0.0
  9
$TIMEZONE
 70
     0
  9
$LIGHTGLYPHDISPLAY
280
     1
  9
$TILEMODELIGHTSYNCH
280
     1
  9
$CMATERIAL
347
11
  9
$SOLIDHIST
280
     0
  9
$SHOWHIST
280
     1
  9
$DWFFRAME
280
     2
  9
$DGNFRAME
280
     0
  9
$REALWORLDSCALE
290
     1
  9
$INTERFERECOLOR
 62
     1
  9
$INTERFEREOBJVS
345
33
  9
$INTERFEREVPVS
346
30
  9
$CSHADOW
280
     0
  9
$SHADOWPLANELOCATION
 40
0.0
  0
ENDSEC
  0
SECTION
  2
CLASSES
  0
CLASS
  1
ACDBDICTIONARYWDFLT
  2
AcDbDictionaryWithDefault
  3
ObjectDBX Classes
 90
        0
 91
        1
280
     0
281
     0
  0
CLASS
  1
MATERIAL
  2
AcDbMaterial
  3
ObjectDBX Classes
 90
     1153
 91
        3
280
     0
281
     0
  0
CLASS
  1
VISUALSTYLE
  2
AcDbVisualStyle
  3
ObjectDBX Classes
 90
     4095
 91
       24
280
     0
281
     0
  0
CLASS
  1
SCALE
  2
AcDbScale
  3
ObjectDBX Classes
 90
     1153
 91
       17
280
     0
281
     0
  0
CLASS
  1
TABLESTYLE
  2
AcDbTableStyle
  3
ObjectDBX Classes
 90
     4095
 91
        1
280
     0
281
     0
  0
CLASS
  1
MLEADERSTYLE
  2
AcDbMLeaderStyle
  3
ACDB_MLEADERSTYLE_CLASS
 90
     4095
 91
        1
280
     0
281
     0
  0
CLASS
  1
ACDBSECTIONVIEWSTYLE
  2
AcDbSectionViewStyle
  3
ObjectDBX Classes
 90
     1025
 91
        1
280
     0
281
     0
  0
CLASS
  1
ACDBDETAILVIEWSTYLE
  2
AcDbDetailViewStyle
  3
ObjectDBX Classes
 90
     1025
 91
        1
280
     0
281
     0
  0
CLASS
  1
RASTERVARIABLES
  2
AcDbRasterVariables
  3
ISM
 90
        0
 91
        1
280
     0
281
     0
  0
CLASS
  1
DICTIONARYVAR
  2
AcDbDictionaryVar
  3
ObjectDBX Classes
 90
        0
 91
        5
280
     0
281
     0
  0
CLASS
  1
SORTENTSTABLE
  2
AcDbSortentsTable
  3
ObjectDBX Classes
 90
        0
 91
        3
280
     0
281
     0
  0
CLASS
  1
CELLSTYLEMAP
  2
AcDbCellStyleMap
  3
ObjectDBX Classes
 90
     1152
 91
        1
280
     0
281
     0
  0
ENDSEC
  0
SECTION
  2
TABLES
  0
TABLE
  2
VPORT
  5
8
330
0
100
AcDbSymbolTable
 70
     1
  0
VPORT
  5
57
330
8
100
AcDbSymbolTableRecord
100
AcDbViewportTableRecord
  2
*Active
 70
     0
 10
0.0
 20
0.0
 11
1.0
 21
1.0
 12
-3.10464887284791
 22
12.32651755831375
 13
0.0
 23
0.0
 14
1.0
 24
1.0
 15
0.0
 25
0.0
 16
0.0
 26
0.0
 36
1.0
 17
0.0
 27
0.0
 37
0.0
 40
24.85387631584094
 41
1.927321668909824
 42
50.0
 43
0.0
 44
0.0
 50
0.0
 51
0.0
 71
     0
 72
  1000
 73
     1
 74
     1
 75
     0
 76
     0
 77
     0
 78
     0
281
     0
 65
     1
110
0.0
120
0.0
130
0.0
111
1.0
121
0.0
131
0.0
112
0.0
122
1.0
132
0.0
 79
     0
146
0.0
348
2F
 60
     3
 61
     5
292
     1
282
     1
141
0.0
142
0.0
 63
   250
421
  3355443
1001
ACAD_NAV_VCDISPLAY
1070
     3
  0
ENDTAB
  0
TABLE
  2
LTYPE
  5
5
330
0
100
AcDbSymbolTable
 70
     1
  0
LTYPE
  5
5B
330
5
100
AcDbSymbolTableRecord
100
AcDbLinetypeTableRecord
  2
ByBlock
 70
     0
  3

 72
    65
 73
     0
 40
0.0
  0
LTYPE
  5
5C
330
5
100
AcDbSymbolTableRecord
100
AcDbLinetypeTableRecord
  2
ByLayer
 70
     0
  3

 72
    65
 73
     0
 40
0.0
  0
LTYPE
  5
5D
330
5
100
AcDbSymbolTableRecord
100
AcDbLinetypeTableRecord
  2
Continuous
 70
     0
  3
Solid line
 72
    65
 73
     0
 40
0.0
  0
ENDTAB
  0
TABLE
  2
LAYER
  5
2
102
{ACAD_XDICTIONARY
360
4D1
102
}
330
0
100
AcDbSymbolTable
 70
     3
  0
LAYER
  5
54
330
2
100
AcDbSymbolTableRecord
100
AcDbLayerTableRecord
  2
0
 70
     0
 62
     7
  6
Continuous
370
    -3
390
F
347
21
348
0
  0
LAYER
  5
8A
330
2
100
AcDbSymbolTableRecord
100
AcDbLayerTableRecord
  2
D35160152
 70
     0
 62
     7
  6
Continuous
370
     9
390
F
347
21
348
0
  0
ENDTAB
  0
TABLE
  2
STYLE
  5
3
330
0
100
AcDbSymbolTable
 70
     3
  0
STYLE
  5
55
330
3
100
AcDbSymbolTableRecord
100
AcDbTextStyleTableRecord
  2
Standard
 70
     0
 40
0.0
 41
1.0
 50
0.0
 71
     0
 42
0.2
  3
txt
  4

  0
ENDTAB
  0
TABLE
  2
VIEW
  5
6
330
0
100
AcDbSymbolTable
 70
     2
  0
ENDTAB
  0
TABLE
  2
UCS
  5
7
330
0
100
AcDbSymbolTable
 70
     0
  0
ENDTAB
  0
TABLE
  2
APPID
  5
9
330
0
100
AcDbSymbolTable
 70
     4
  0
APPID
  5
56
330
9
100
AcDbSymbolTableRecord
100
AcDbRegAppTableRecord
  2
ACAD
 70
     0
  0
APPID
  5
5E
330
9
100
AcDbSymbolTableRecord
100
AcDbRegAppTableRecord
  2
AcadAnnotative
 70
     0
  0
APPID
  5
78
330
9
100
AcDbSymbolTableRecord
100
AcDbRegAppTableRecord
  2
REVIT
 70
     0
  0
APPID
  5
1F9
330
9
100
AcDbSymbolTableRecord
100
AcDbRegAppTableRecord
  2
ACAD_NAV_VCDISPLAY
 70
     0
  0
ENDTAB
  0
TABLE
  2
DIMSTYLE
  5
A
330
0
100
AcDbSymbolTable
 70
     2
100
AcDbDimStyleTable
 71
     0
  0
DIMSTYLE
105
58
330
A
100
AcDbSymbolTableRecord
100
AcDbDimStyleTableRecord
  2
Standard
 70
     0
340
55
  0
ENDTAB
  0
TABLE
  2
BLOCK_RECORD
  5
1
330
0
100
AcDbSymbolTable
 70
    12
  0
BLOCK_RECORD
  5
70
102
{ACAD_XDICTIONARY
360
10B
102
}
330
1
100
AcDbSymbolTableRecord
100
AcDbBlockTableRecord
  2
*Model_Space
340
73
 70
     0
280
     1
281
     0
  0
BLOCK_RECORD
  5
6C
330
1
100
AcDbSymbolTableRecord
100
AcDbBlockTableRecord
  2
*Paper_Space
340
6F
 70
     0
280
     1
281
     0
  0
BLOCK_RECORD
  5
74
330
1
100
AcDbSymbolTableRecord
100
AcDbBlockTableRecord
  2
*Paper_Space0
340
77
 70
     0
280
     1
281
     0
  0
BLOCK_RECORD
  5
388
330
1
100
AcDbSymbolTableRecord
100
AcDbBlockTableRecord
  2
D35160152 Top View
340
0
310
28000000200000002000000001002000000000000010000001000000010000000000000000000000302821FF302821FF302821FF302821FF302821FF302821FF302821FF302821FF302821FF302821FF302821FF302821FF302821FF302821FF302821FF302821FF302821FF302821FF302821FF302821FF302821FF302821
310
FF302821FF302821FF302821FF302821FF302821FF302821FF302821FF302821FF302821FF302821FF302821FF302821FF302821FF302821FF302821FF302821FF302821FF302821FF302821FF302821FF302821FF302821FF302821FF302821FFFFFFFFFFFFFFFFFFFFFFFFFFFFFFFFFF302821FF302821FF302821FF3028
310
21FF302821FF302821FF302821FF302821FF302821FF302821FF302821FF302821FF302821FF302821FF302821FF302821FF302821FF302821FF302821FF302821FF302821FF302821FF302821FF302821FF302821FF302821FF302821FF302821FFFFFFFFFF302821FF302821FFFFFFFFFFFFFFFFFF302821FF302821FF30
310
2821FF302821FF302821FF302821FF302821FF302821FF302821FF302821FF302821FF302821FF302821FF302821FF302821FF302821FF302821FF302821FF302821FF302821FF302821FF302821FF302821FF302821FF302821FF302821FFFFFFFFFFFFFFFFFF302821FF302821FFFFFFFFFFFFFFFFFF302821FF302821FF
310
302821FF302821FF302821FF302821FF302821FF302821FF302821FF302821FF302821FF302821FF302821FF302821FF302821FF302821FF302821FF302821FF302821FF302821FF302821FF302821FF302821FF302821FF302821FF302821FFFFFFFFFFFFFFFFFF302821FF302821FFFFFFFFFFFFFFFFFF302821FF302821
310
FF302821FF302821FF302821FF302821FF302821FF302821FF302821FF302821FF302821FF302821FF302821FF302821FF302821FF302821FF302821FF302821FF302821FF302821FF302821FF302821FF302821FF302821FF302821FF302821FFFFFFFFFFFFFFFFFF302821FF302821FFFFFFFFFFFFFFFFFF302821FF3028
310
21FF302821FF302821FF302821FF302821FF302821FF302821FF302821FF302821FF302821FF302821FF302821FF302821FF302821FF302821FF302821FF302821FF302821FF302821FF302821FF302821FF302821FF302821FF302821FF302821FFFFFFFFFFFFFFFFFF302821FF302821FFFFFFFFFFFFFFFFFF302821FF30
310
2821FF302821FF302821FF302821FF302821FF302821FF302821FF302821FF302821FF302821FF302821FF302821FF302821FF302821FF302821FF302821FF302821FF302821FF302821FF302821FF302821FF302821FF302821FF302821FF302821FFFFFFFFFFFFFFFFFF302821FF302821FFFFFFFFFFFFFFFFFF302821FF
310
302821FF302821FF302821FF302821FF302821FF302821FF302821FF302821FF302821FF302821FF302821FF302821FF302821FF302821FF302821FF302821FF302821FF302821FF302821FF302821FF302821FF302821FF302821FF302821FF302821FFFFFFFFFFFFFFFFFF302821FF302821FFFFFFFFFFFFFFFFFF302821
310
FF302821FF302821FF302821FF302821FF302821FF302821FF302821FF302821FF302821FF302821FF302821FF302821FF302821FF302821FF302821FF302821FF302821FF302821FF302821FF302821FF302821FF302821FF302821FF302821FF302821FFFFFFFFFFFFFFFFFF302821FF302821FFFFFFFFFFFFFFFFFF3028
310
21FF302821FF302821FF302821FF302821FF302821FF302821FF302821FF302821FF302821FF302821FF302821FF302821FF302821FF302821FF302821FF302821FF302821FF302821FF302821FF302821FF302821FF302821FF302821FF302821FF302821FFFFFFFFFFFFFFFFFFFFFFFFFFFFFFFFFFFFFFFFFFFFFFFFFF30
310
2821FF302821FF302821FF302821FF302821FF302821FF302821FF302821FF302821FF302821FF302821FF302821FF302821FF302821FF302821FF302821FF302821FF302821FF302821FF302821FF302821FF302821FF302821FF302821FF302821FF302821FFFFFFFFFFFFFFFFFFFFFFFFFFFFFFFFFFFFFFFFFFFFFFFFFF
310
302821FF302821FF302821FF302821FF302821FF302821FF302821FF302821FF302821FF302821FF302821FF302821FF302821FF302821FF302821FF302821FF302821FF302821FF302821FF302821FF302821FF302821FF302821FF302821FF302821FF302821FFFFFFFFFFFFFFFFFF302821FF302821FFFFFFFFFFFFFFFF
310
FF302821FF302821FF302821FF302821FF302821FF302821FF302821FF302821FF302821FF302821FF302821FF302821FF302821FF302821FF302821FF302821FF302821FF302821FF302821FF302821FF302821FF302821FF302821FF302821FF302821FF302821FFFFFFFFFFFFFFFFFF302821FF302821FFFFFFFFFFFFFF
310
FFFF302821FF302821FF302821FF302821FF302821FF302821FF302821FF302821FF302821FF302821FF302821FF302821FF302821FF302821FF302821FF302821FF302821FF302821FF302821FF302821FF302821FF302821FF302821FF302821FF302821FF302821FFFFFFFFFFFFFFFFFF302821FF302821FFFFFFFFFFFF
310
FFFFFF302821FF302821FF302821FF302821FF302821FF302821FF302821FF302821FF302821FF302821FF302821FF302821FF302821FF302821FF302821FF302821FF302821FF302821FF302821FF302821FF302821FF302821FF302821FF302821FF302821FF302821FFFFFFFFFFFFFFFFFF302821FF302821FFFFFFFFFF
310
FFFFFFFF302821FF302821FF302821FF302821FF302821FF302821FF302821FF302821FF302821FF302821FF302821FF302821FF302821FF302821FF302821FF302821FF302821FF302821FF302821FF302821FF302821FF302821FF302821FF302821FF302821FF302821FFFFFFFFFFFFFFFFFF302821FF302821FFFFFFFF
310
FFFFFFFFFFFFFFFFFF302821FF302821FF302821FF302821FF302821FF302821FF302821FF302821FF302821FF302821FF302821FF302821FF302821FF302821FF302821FF302821FF302821FF302821FF302821FF302821FF302821FF302821FF302821FF302821FFFFFFFFFFFFFFFFFFFFFFFFFFFFFFFFFFFFFFFFFFFFFF
310
FFFFFFFFFFFFFFFFFFFF302821FF302821FF302821FF302821FF302821FF302821FF302821FF302821FF302821FF302821FF302821FF302821FF302821FF302821FF302821FF302821FF302821FF302821FF302821FF302821FF302821FF302821FF302821FF302821FFFFFFFFFFFFFFFFFFFFFFFFFFFFFFFFFFFFFFFFFFFF
310
FFFFFFFFFFFFFFFFFFFFFF302821FF302821FF302821FF302821FF302821FF302821FF302821FF302821FF302821FF302821FF302821FF302821FF302821FF302821FF302821FF302821FF302821FF302821FF302821FF302821FF302821FF302821FF302821FF302821FFFFFFFFFF302821FFFFFFFFFFFFFFFFFFFFFFFFFF
310
FFFFFFFF302821FFFFFFFFFF302821FF302821FF302821FF302821FF302821FF302821FF302821FF302821FF302821FF302821FF302821FF302821FF302821FF302821FF302821FF302821FF302821FF302821FF302821FF302821FF302821FF302821FF302821FF302821FFFFFFFFFF302821FFFFFFFFFFFFFFFFFFFFFFFF
310
FFFFFFFFFF302821FFFFFFFFFF302821FF302821FF302821FF302821FF302821FF302821FF302821FF302821FF302821FF302821FF302821FF302821FF302821FF302821FF302821FF302821FF302821FF302821FF302821FF302821FF302821FF302821FF302821FF302821FFFFFFFFFF302821FFFFFFFFFFFFFFFFFFFFFF
310
FFFFFFFFFFFF302821FFFFFFFFFF302821FF302821FF302821FF302821FF302821FF302821FF302821FF302821FF302821FF302821FF302821FF302821FF302821FF302821FF302821FF302821FF302821FF302821FF302821FF302821FF302821FF302821FF302821FFFFFFFFFFFFFFFFFFFFFFFFFFFFFFFFFFFFFFFFFFFF
310
FFFFFFFFFFFFFFFFFFFFFFFFFFFFFFFFFFFFFF302821FF302821FF302821FF302821FF302821FF302821FF302821FF302821FF302821FF302821FF302821FF302821FF302821FF302821FF302821FF302821FF302821FF302821FF302821FF302821FF302821FF302821FFFFFFFFFFFFFFFFFF302821FFFFFFFFFF302821FF
310
302821FFFFFFFFFF302821FFFFFFFFFFFFFFFFFF302821FF302821FF302821FF302821FF302821FF302821FF302821FF302821FF302821FF302821FF302821FF302821FF302821FF302821FF302821FF302821FF302821FF302821FF302821FF302821FF302821FFFFFFFFFFFFFFFFFFFFFFFFFFFFFFFFFF302821FF302821
310
FF302821FF302821FFFFFFFFFFFFFFFFFFFFFFFFFFFFFFFFFF302821FF302821FF302821FF302821FF302821FF302821FF302821FF302821FF302821FF302821FF302821FF302821FF302821FF302821FF302821FF302821FF302821FF302821FF302821FF302821FFFFFFFFFFFFFFFFFFFFFFFFFFFFFFFFFF302821FF3028
310
21FF302821FF302821FFFFFFFFFFFFFFFFFFFFFFFFFFFFFFFFFF302821FF302821FF302821FF302821FF302821FF302821FF302821FF302821FF302821FF302821FF302821FF302821FF302821FF302821FF302821FF302821FF302821FF302821FF302821FF302821FFFFFFFFFFFFFFFFFFFFFFFFFF302821FFFFFFFFFF30
310
2821FF302821FFFFFFFFFF302821FFFFFFFFFFFFFFFFFFFFFFFFFF302821FF302821FF302821FF302821FF302821FF302821FF302821FF302821FF302821FF302821FF302821FF302821FF302821FF302821FF302821FF302821FF302821FF302821FF302821FF302821FF302821FFFFFFFFFFFFFFFFFFFFFFFFFFFFFFFFFF
310
FFFFFFFFFFFFFFFFFFFFFFFFFFFFFFFFFFFFFFFFFFFFFFFF302821FF302821FF302821FF302821FF302821FF302821FF302821FF302821FF302821FF302821FF302821FF302821FF302821FF302821FF302821FF302821FF302821FF302821FF302821FF302821FF302821FF302821FF302821FFFFFFFFFFFFFFFFFFFFFFFF
310
FFFFFFFFFFFFFFFFFFFFFFFFFFFFFFFFFFFFFFFFFF302821FF302821FF302821FF302821FF302821FF302821FF302821FF302821FF302821FF302821FF302821FF302821FF302821FF302821FF302821FF302821FF302821FF302821FF302821FF302821FF302821FF302821FF302821FF302821FF302821FFFFFFFFFFFFFF
310
FFFFFFFFFFFFFFFFFFFFFFFFFFFFFFFFFFFF302821FF302821FF302821FF302821FF302821FF302821FF302821FF302821FF302821FF302821FF302821FF302821FF302821FF302821FF302821FF302821FF302821FF302821FF302821FF302821FF302821FF302821FF302821FF302821FF302821FF302821FF302821FF30
310
2821FF302821FFFFFFFFFF302821FF302821FF302821FF302821FF302821FF302821FF302821FF302821FF302821FF302821FF302821FF302821FF302821FF302821FF302821FF302821FF302821FF302821FF302821FF302821FF302821FF302821FF302821FF302821FF302821FF302821FF302821FF302821FF302821FF
310
302821FF302821FF302821FF302821FF302821FF302821FF302821FF302821FF302821FF302821FF302821FF302821FF302821FF302821FF302821FF302821FF302821FF302821FF
102
{BLKREFS
331
3C1
102
}
 70
     1
280
     1
281
     1
  0
BLOCK_RECORD
  5
3C2
330
1
100
AcDbSymbolTableRecord
100
AcDbBlockTableRecord
  2
D35160152 Front View
340
0
310
28000000200000002000000001002000000000000010000001000000010000000000000000000000302821FF302821FF302821FF302821FF302821FF302821FF302821FF302821FF302821FF302821FF302821FF302821FF302821FF302821FF302821FF302821FF302821FF302821FF302821FF302821FF302821FF302821
310
FF302821FF302821FF302821FF302821FF302821FF302821FF302821FF302821FF302821FF302821FF302821FF302821FF302821FF302821FF302821FF302821FF302821FF302821FF302821FF302821FF302821FF302821FFFFFFFFFFFFFFFFFFFFFFFFFFFFFFFFFFFFFFFFFFFFFFFFFFFFFFFFFFFFFFFFFF302821FF3028
310
21FF302821FF302821FF302821FF302821FF302821FF302821FF302821FF302821FF302821FF302821FF302821FF302821FF302821FF302821FF302821FF302821FF302821FF302821FF302821FF302821FF302821FF302821FFFFFFFFFFFFFFFFFFFFFFFFFFFFFFFFFFFFFFFFFFFFFFFFFFFFFFFFFFFFFFFFFF302821FF30
310
2821FF302821FF302821FF302821FF302821FF302821FF302821FF302821FF302821FF302821FF302821FF302821FF302821FF302821FF302821FF302821FF302821FF302821FF302821FF302821FF302821FF302821FF302821FFFFFFFFFF302821FFFFFFFFFF302821FF302821FFFFFFFFFF302821FFFFFFFFFF302821FF
310
302821FF302821FF302821FF302821FF302821FF302821FF302821FF302821FF302821FF302821FF302821FF302821FF302821FF302821FF302821FF302821FF302821FF302821FF302821FF302821FF302821FF302821FF302821FF302821FFFFFFFFFFFFFFFFFF302821FF302821FFFFFFFFFFFFFFFFFF302821FF302821
310
FF302821FF302821FF302821FF302821FF302821FF302821FF302821FF302821FF302821FF302821FF302821FF302821FF302821FF302821FF302821FF302821FF302821FF302821FF302821FF302821FF302821FF302821FF302821FF302821FFFFFFFFFFFFFFFFFF302821FF302821FFFFFFFFFFFFFFFFFF302821FF3028
310
21FF302821FF302821FF302821FF302821FF302821FF302821FF302821FF302821FF302821FF302821FF302821FF302821FF302821FF302821FF302821FF302821FF302821FF302821FF302821FF302821FF302821FF302821FF302821FF302821FFFFFFFFFFFFFFFFFF302821FF302821FFFFFFFFFFFFFFFFFF302821FF30
310
2821FF302821FF302821FF302821FF302821FF302821FF302821FF302821FF302821FF302821FF302821FF302821FF302821FF302821FF302821FF302821FF302821FF302821FF302821FF302821FF302821FF302821FF302821FF302821FF302821FFFFFFFFFFFFFFFFFF302821FF302821FFFFFFFFFFFFFFFFFF302821FF
310
302821FF302821FF302821FF302821FF302821FF302821FF302821FF302821FF302821FF302821FF302821FF302821FF302821FF302821FF302821FF302821FF302821FF302821FF302821FF302821FF302821FF302821FF302821FF302821FF302821FFFFFFFFFFFFFFFFFF302821FF302821FFFFFFFFFFFFFFFFFF302821
310
FF302821FF302821FF302821FF302821FF302821FF302821FF302821FF302821FF302821FF302821FF302821FF302821FF302821FF302821FF302821FF302821FF302821FF302821FF302821FF302821FF302821FF302821FF302821FF302821FF302821FFFFFFFFFFFFFFFFFF302821FF302821FFFFFFFFFFFFFFFFFF3028
310
21FF302821FF302821FF302821FF302821FF302821FF302821FF302821FF302821FF302821FF302821FF302821FF302821FF302821FF302821FF302821FF302821FF302821FF302821FF302821FF302821FF302821FF302821FF302821FF302821FF302821FFFFFFFFFFFFFFFFFF302821FF302821FFFFFFFFFFFFFFFFFF30
310
2821FF302821FF302821FF302821FF302821FF302821FF302821FF302821FF302821FF302821FF302821FF302821FF302821FF302821FF302821FF302821FF302821FF302821FF302821FF302821FF302821FF302821FF302821FF302821FF302821FF302821FFFFFFFFFFFFFFFFFF302821FF302821FFFFFFFFFFFFFFFFFF
310
302821FF302821FF302821FF302821FF302821FF302821FF302821FF302821FF302821FF302821FF302821FF302821FF302821FF302821FF302821FF302821FF302821FF302821FF302821FF302821FF302821FF302821FF302821FF302821FF302821FF302821FFFFFFFFFFFFFFFFFF302821FF302821FFFFFFFFFFFFFFFF
310
FF302821FF302821FF302821FF302821FF302821FF302821FF302821FF302821FF302821FF302821FF302821FF302821FF302821FF302821FF302821FF302821FF302821FF302821FF302821FF302821FF302821FF302821FF302821FF302821FF302821FF302821FFFFFFFFFFFFFFFFFF302821FF302821FFFFFFFFFFFFFF
310
FFFF302821FF302821FF302821FF302821FF302821FF302821FF302821FF302821FF302821FF302821FF302821FF302821FF302821FF302821FF302821FF302821FF302821FF302821FF302821FF302821FF302821FF302821FF302821FF302821FF302821FF302821FFFFFFFFFFFFFFFFFF302821FF302821FFFFFFFFFFFF
310
FFFFFF302821FF302821FF302821FF302821FF302821FF302821FF302821FF302821FF302821FF302821FF302821FF302821FF302821FF302821FF302821FF302821FF302821FF302821FF302821FF302821FF302821FF302821FF302821FF302821FF302821FF302821FFFFFFFFFFFFFFFFFF302821FF302821FFFFFFFFFF
310
FFFFFFFF302821FF302821FF302821FF302821FF302821FF302821FF302821FF302821FF302821FF302821FF302821FF302821FF302821FF302821FF302821FF302821FF302821FF302821FF302821FF302821FF302821FF302821FF302821FF302821FF302821FF302821FFFFFFFFFFFFFFFFFF302821FF302821FFFFFFFF
310
FFFFFFFFFF302821FF302821FF302821FF302821FF302821FF302821FF302821FF302821FF302821FF302821FF302821FF302821FF302821FF302821FF302821FF302821FF302821FF302821FF302821FF302821FF302821FF302821FF302821FF302821FF302821FF302821FFFFFFFFFFFFFFFFFF302821FF302821FFFFFF
310
FFFFFFFFFFFF302821FF302821FF302821FF302821FF302821FF302821FF302821FF302821FF302821FF302821FF302821FF302821FF302821FF302821FF302821FF302821FF302821FF302821FF302821FF302821FF302821FF302821FF302821FF302821FF302821FF302821FFFFFFFFFFFFFFFFFF302821FF302821FFFF
310
FFFFFFFFFFFFFF302821FF302821FF302821FF302821FF302821FF302821FF302821FF302821FF302821FF302821FF302821FF302821FF302821FF302821FF302821FF302821FF302821FF302821FF302821FF302821FF302821FF302821FF302821FF302821FF302821FF302821FFFFFFFFFFFFFFFFFFFFFFFFFFFFFFFFFF
310
FFFFFFFFFFFFFFFF302821FF302821FF302821FF302821FF302821FF302821FF302821FF302821FF302821FF302821FF302821FF302821FF302821FF302821FF302821FF302821FF302821FF302821FF302821FF302821FF302821FF302821FF302821FF302821FF302821FF302821FFFFFFFFFFFFFFFFFFFFFFFFFFFFFFFF
310
FFFFFFFFFFFFFFFFFF302821FF302821FF302821FF302821FF302821FF302821FF302821FF302821FF302821FF302821FF302821FF302821FF302821FF302821FF302821FF302821FF302821FF302821FF302821FF302821FF302821FF302821FF302821FF302821FF302821FF302821FFFFFFFFFFFFFFFFFFFFFFFFFFFFFF
310
FFFFFFFFFFFFFFFFFFFF302821FF302821FF302821FF302821FF302821FF302821FF302821FF302821FF302821FF302821FF302821FF302821FF302821FF302821FF302821FF302821FF302821FF302821FF302821FF302821FF302821FF302821FF302821FF302821FF302821FF302821FFFFFFFFFFFFFFFFFFFFFFFFFFFF
310
FFFFFFFFFFFFFFFFFFFFFF302821FF302821FF302821FF302821FF302821FF302821FF302821FF302821FF302821FF302821FF302821FF302821FF302821FF302821FF302821FF302821FF302821FF302821FF302821FF302821FF302821FF302821FF302821FF302821FF302821FF302821FFFFFFFFFFFFFFFFFFFFFFFFFF
310
FFFFFFFFFFFFFFFFFFFFFFFF302821FF302821FF302821FF302821FF302821FF302821FF302821FF302821FF302821FF302821FF302821FF302821FF302821FF302821FF302821FF302821FF302821FF302821FF302821FF302821FF302821FF302821FF302821FF302821FF302821FF302821FFFFFFFFFFFFFFFFFFFFFFFF
310
FFFFFFFFFFFFFFFFFFFFFFFFFF302821FF302821FF302821FF302821FF302821FF302821FF302821FF302821FF302821FF302821FF302821FF302821FF302821FF302821FF302821FF302821FF302821FF302821FF302821FF302821FF302821FF302821FF302821FF302821FF302821FF302821FF302821FFFFFFFFFFFFFF
310
FFFFFFFFFFFFFFFFFFFF302821FF302821FF302821FF302821FF302821FF302821FF302821FF302821FF302821FF302821FF302821FF302821FF302821FF302821FF302821FF302821FF302821FF302821FF302821FF302821FF302821FF302821FF302821FF302821FF302821FF302821FF302821FF302821FF302821FFFF
310
FFFFFFFFFFFFFF302821FF302821FF302821FF302821FF302821FF302821FF302821FF302821FF302821FF302821FF302821FF302821FF302821FF302821FF302821FF302821FF302821FF302821FF302821FF302821FF302821FF302821FF302821FF302821FF302821FF302821FF302821FF302821FF302821FF302821FF
310
FFFFFFFFFFFFFFFFFFFFFFFF302821FF302821FF302821FF302821FF302821FF302821FF302821FF302821FF302821FF302821FF302821FF302821FF302821FF302821FF302821FF302821FF302821FF302821FF302821FF302821FF302821FF302821FF302821FF302821FF302821FF302821FF302821FF302821FFFFFFFF
310
FFFFFFFFFFFFFFFFFFFFFFFFFF302821FF302821FF302821FF302821FF302821FF302821FF302821FF302821FF302821FF302821FF302821FF302821FF302821FF302821FF302821FF302821FF302821FF302821FF302821FF302821FF302821FF302821FF302821FF302821FF302821FF302821FF302821FF302821FF3028
310
21FFFFFFFFFFFFFFFFFF302821FF302821FF302821FF302821FF302821FF302821FF302821FF302821FF302821FF302821FF302821FF302821FF302821FF302821FF302821FF302821FF302821FF302821FF302821FF302821FF302821FF302821FF302821FF302821FF302821FF302821FF302821FF302821FF302821FF30
310
2821FFFFFFFFFFFFFFFFFF302821FF302821FF302821FF302821FF302821FF302821FF302821FF302821FF302821FF302821FF302821FF302821FF302821FF302821FF302821FF302821FF302821FF302821FF302821FF302821FF302821FF302821FF302821FF302821FF302821FF302821FF302821FF302821FF302821FF
310
302821FF302821FF302821FF302821FF302821FF302821FF302821FF302821FF302821FF302821FF302821FF302821FF302821FF302821FF302821FF302821FF302821FF302821FF
102
{BLKREFS
331
461
102
}
 70
     1
280
     1
281
     1
  0
BLOCK_RECORD
  5
462
330
1
100
AcDbSymbolTableRecord
100
AcDbBlockTableRecord
  2
D35160152 Side View
340
0
310
28000000200000002000000001002000000000000010000001000000010000000000000000000000302821FF302821FF302821FF302821FF302821FF302821FF302821FF302821FF302821FF302821FF302821FF302821FF302821FF302821FF302821FF302821FF302821FF302821FF302821FF302821FF302821FF302821
310
FF302821FF302821FF302821FF302821FF302821FF302821FF302821FF302821FF302821FF302821FF302821FF302821FF302821FF302821FF302821FF302821FFFFFFFFFFFFFFFFFFFFFFFFFFFFFFFFFFFFFFFFFFFFFFFFFFFFFFFFFFFFFFFFFF302821FF302821FF302821FF302821FF302821FF302821FF302821FF3028
310
21FF302821FF302821FF302821FF302821FF302821FF302821FF302821FF302821FF302821FF302821FF302821FF302821FF302821FF302821FF302821FF302821FFFFFFFFFFFFFFFFFFFFFFFFFFFFFFFFFFFFFFFFFFFFFFFFFFFFFFFFFFFFFFFFFF302821FF302821FF302821FF302821FF302821FF302821FF302821FF30
310
2821FF302821FF302821FF302821FF302821FF302821FF302821FF302821FF302821FF302821FF302821FF302821FF302821FF302821FF302821FF302821FF302821FF302821FFFFFFFFFF302821FFFFFFFFFF302821FF302821FFFFFFFFFF302821FF302821FF302821FF302821FF302821FF302821FF302821FF302821FF
310
302821FF302821FF302821FF302821FF302821FF302821FF302821FF302821FF302821FF302821FF302821FF302821FF302821FF302821FF302821FF302821FF302821FF302821FFFFFFFFFF302821FFFFFFFFFF302821FF302821FFFFFFFFFF302821FF302821FF302821FF302821FF302821FF302821FF302821FF302821
310
FF302821FF302821FF302821FF302821FF302821FF302821FF302821FF302821FF302821FF302821FF302821FF302821FF302821FF302821FF302821FF302821FF302821FF302821FFFFFFFFFF302821FFFFFFFFFF302821FF302821FFFFFFFFFF302821FF302821FF302821FF302821FF302821FF302821FF302821FF3028
310
21FF302821FF302821FF302821FF302821FF302821FF302821FF302821FF302821FF302821FF302821FF302821FF302821FF302821FF302821FF302821FF302821FF302821FF302821FFFFFFFFFF302821FFFFFFFFFF302821FF302821FFFFFFFFFF302821FF302821FF302821FF302821FF302821FF302821FF302821FF30
310
2821FF302821FF302821FF302821FF302821FF302821FF302821FF302821FF302821FF302821FF302821FF302821FF302821FF302821FF302821FF302821FF302821FF302821FF302821FFFFFFFFFF302821FFFFFFFFFF302821FF302821FFFFFFFFFF302821FF302821FF302821FF302821FF302821FF302821FF302821FF
310
302821FF302821FF302821FF302821FF302821FF302821FF302821FF302821FF302821FF302821FF302821FF302821FF302821FF302821FF302821FF302821FF302821FF302821FF302821FFFFFFFFFF302821FFFFFFFFFF302821FFFFFFFFFFFFFFFFFF302821FF302821FF302821FF302821FF302821FF302821FF302821
310
FF302821FF302821FF302821FF302821FF302821FF302821FF302821FF302821FF302821FF302821FF302821FF302821FF302821FF302821FF302821FF302821FF302821FF302821FF302821FFFFFFFFFF302821FFFFFFFFFF302821FFFFFFFFFFFFFFFFFF302821FF302821FF302821FF302821FF302821FF302821FF3028
310
21FF302821FF302821FF302821FF302821FF302821FF302821FF302821FF302821FF302821FF302821FF302821FF302821FF302821FF302821FF302821FF302821FF302821FF302821FF302821FFFFFFFFFF302821FFFFFFFFFF302821FFFFFFFFFFFFFFFFFF302821FF302821FF302821FF302821FF302821FF302821FF30
310
2821FF302821FF302821FF302821FF302821FF302821FF302821FF302821FF302821FF302821FF302821FF302821FF302821FF302821FF302821FF302821FF302821FF302821FF302821FF302821FFFFFFFFFF302821FFFFFFFFFF302821FFFFFFFFFFFFFFFFFF302821FF302821FF302821FF302821FF302821FF302821FF
310
302821FF302821FF302821FF302821FF302821FF302821FF302821FF302821FF302821FF302821FF302821FF302821FF302821FF302821FF302821FF302821FF302821FF302821FF302821FF302821FFFFFFFFFF302821FFFFFFFFFF302821FFFFFFFFFFFFFFFFFF302821FF302821FF302821FF302821FF302821FF302821
310
FF302821FF302821FF302821FF302821FF302821FF302821FF302821FF302821FF302821FF302821FF302821FF302821FF302821FF302821FF302821FF302821FF302821FF302821FF302821FF302821FFFFFFFFFF302821FFFFFFFFFF302821FFFFFFFFFFFFFFFFFF302821FF302821FF302821FF302821FF302821FF3028
310
21FF302821FF302821FF302821FF302821FF302821FF302821FF302821FF302821FF302821FF302821FF302821FF302821FF302821FF302821FF302821FF302821FF302821FF302821FF302821FF302821FFFFFFFFFF302821FFFFFFFFFF302821FFFFFFFFFFFFFFFFFF302821FF302821FF302821FF302821FF302821FF30
310
2821FF302821FF302821FF302821FF302821FF302821FF302821FF302821FF302821FF302821FF302821FF302821FF302821FF302821FF302821FF302821FF302821FF302821FF302821FF302821FF302821FFFFFFFFFF302821FFFFFFFFFF302821FFFFFFFFFFFFFFFFFF302821FF302821FF302821FF302821FF302821FF
310
302821FF302821FF302821FF302821FF302821FF302821FF302821FF302821FF302821FF302821FF302821FF302821FF302821FF302821FF302821FF302821FF302821FF302821FF302821FF302821FF302821FFFFFFFFFF302821FFFFFFFFFF302821FFFFFFFFFFFFFFFFFF302821FF302821FF302821FF302821FF302821
310
FF302821FF302821FF302821FF302821FF302821FF302821FF302821FF302821FF302821FF302821FF302821FF302821FF302821FF302821FF302821FF302821FF302821FF302821FF302821FF302821FF302821FFFFFFFFFF302821FFFFFFFFFF302821FFFFFFFFFFFFFFFFFF302821FF302821FF302821FF302821FF3028
310
21FF302821FF302821FF302821FF302821FF302821FF302821FF302821FF302821FF302821FF302821FF302821FF302821FF302821FF302821FF302821FF302821FF302821FF302821FF302821FF302821FF302821FFFFFFFFFF302821FFFFFFFFFF302821FFFFFFFFFFFFFFFFFF302821FF302821FF302821FF302821FF30
310
2821FF302821FF302821FF302821FF302821FF302821FF302821FF302821FF302821FF302821FF302821FF302821FF302821FF302821FF302821FF302821FF302821FF302821FF302821FF302821FF302821FF302821FFFFFFFFFF302821FFFFFFFFFF302821FFFFFFFFFFFFFFFFFFFFFFFFFFFFFFFFFFFFFFFFFF302821FF
310
302821FF302821FF302821FF302821FF302821FF302821FFFFFFFFFFFFFFFFFF302821FF302821FF302821FF302821FF302821FF302821FF302821FF302821FF302821FF302821FF302821FF302821FF302821FF302821FFFFFFFFFF302821FFFFFFFFFFFFFFFFFFFFFFFFFFFFFFFFFF302821FF302821FFFFFFFFFFFFFFFF
310
FFFFFFFFFFFFFFFFFFFFFFFFFFFFFFFFFF302821FFFFFFFFFFFFFFFFFFFFFFFFFFFFFFFFFF302821FF302821FF302821FF302821FF302821FF302821FF302821FF302821FF302821FF302821FF302821FF302821FF302821FFFFFFFFFF302821FFFFFFFFFF302821FF302821FF302821FFFFFFFFFFFFFFFFFFFFFFFFFFFFFF
310
FFFFFFFFFFFF302821FF302821FFFFFFFFFFFFFFFFFFFFFFFFFFFFFFFFFFFFFFFFFFFFFFFFFF302821FF302821FF302821FF302821FF302821FF302821FF302821FF302821FF302821FF302821FF302821FF302821FF302821FFFFFFFFFF302821FFFFFFFFFF302821FF302821FFFFFFFFFFFFFFFFFFFFFFFFFF302821FF30
310
2821FFFFFFFFFFFFFFFFFFFFFFFFFFFFFFFFFFFFFFFFFFFFFFFFFFFFFFFFFFFFFFFFFF302821FF302821FF302821FF302821FF302821FF302821FF302821FF302821FF302821FF302821FF302821FF302821FF302821FF302821FFFFFFFFFFFFFFFFFFFFFFFFFFFFFFFFFFFFFFFFFFFFFFFFFF302821FF302821FFFFFFFFFF
310
FFFFFFFFFFFFFFFFFFFFFFFFFFFFFFFFFFFFFFFFFFFFFFFFFFFFFFFFFFFFFFFF302821FF302821FF302821FF302821FF302821FF302821FF302821FF302821FF302821FF302821FF302821FF302821FF302821FF302821FF302821FFFFFFFFFFFFFFFFFFFFFFFFFFFFFFFFFFFFFFFFFFFFFFFFFF302821FF302821FF302821
310
FF302821FF302821FF302821FF302821FF302821FF302821FF302821FF302821FF302821FF302821FF302821FF302821FF302821FF302821FF302821FF302821FF302821FF302821FF302821FF302821FF302821FF302821FF302821FF302821FFFFFFFFFFFFFFFFFFFFFFFFFF302821FF302821FF302821FF302821FF3028
310
21FF302821FF302821FF302821FF302821FF302821FF302821FF302821FF302821FF302821FF302821FF302821FF302821FF302821FF302821FF302821FF302821FF302821FF302821FF302821FF302821FF302821FF302821FF302821FF302821FFFFFFFFFFFFFFFFFFFFFFFFFFFFFFFFFFFFFFFFFF302821FF302821FF30
310
2821FF302821FF302821FF302821FF302821FF302821FF302821FF302821FF302821FF302821FF302821FF302821FF302821FF302821FF302821FF302821FF302821FF302821FF302821FF302821FF302821FF302821FF302821FF302821FF302821FFFFFFFFFFFFFFFFFFFFFFFFFFFFFFFFFFFFFFFFFFFFFFFFFFFFFFFFFF
310
FFFFFFFFFFFFFFFF302821FF302821FF302821FF302821FF302821FF302821FF302821FF302821FF302821FF302821FF302821FF302821FF302821FF302821FF302821FF302821FF302821FF302821FF302821FF302821FF302821FF302821FF302821FFFFFFFFFFFFFFFFFFFFFFFFFFFFFFFFFF302821FFFFFFFFFFFFFFFF
310
FFFFFFFFFF302821FFFFFFFFFFFFFFFFFFFFFFFFFF302821FF302821FF302821FF302821FF302821FF302821FF302821FF302821FF302821FF302821FF302821FF302821FF302821FF302821FF302821FF302821FF302821FF302821FF302821FF302821FF302821FF302821FF302821FF302821FF302821FF302821FF3028
310
21FF302821FFFFFFFFFFFFFFFFFF302821FFFFFFFFFF302821FF302821FF302821FF302821FF302821FF302821FF302821FF302821FF302821FF302821FF302821FF302821FF302821FF302821FF302821FF302821FF302821FF302821FF302821FF302821FF302821FF302821FF302821FF302821FF302821FF302821FF30
310
2821FF302821FF302821FF302821FFFFFFFFFFFFFFFFFF302821FF302821FF302821FF302821FF302821FF302821FF302821FF302821FF302821FF302821FF302821FF302821FF302821FF302821FF302821FF302821FF302821FF302821FF302821FF302821FF302821FF302821FF302821FF302821FF302821FF302821FF
310
302821FF302821FF302821FF302821FF302821FF302821FF302821FF302821FF302821FF302821FF302821FF302821FF302821FF302821FF302821FF302821FF302821FF302821FF
102
{BLKREFS
331
4CD
102
}
 70
     1
280
     1
281
     1
  0
ENDTAB
  0
ENDSEC
  0
SECTION
  2
BLOCKS
  0
BLOCK
  5
71
330
70
100
AcDbEntity
  8
0
100
AcDbBlockBegin
  2
*Model_Space
 70
     0
 10
0.0
 20
0.0
 30
0.0
  3
*Model_Space
  1

  0
ENDBLK
  5
72
330
70
100
AcDbEntity
  8
0
100
AcDbBlockEnd
  0
BLOCK
  5
6D
330
6C
100
AcDbEntity
 67
     1
  8
0
100
AcDbBlockBegin
  2
*Paper_Space
 70
     0
 10
0.0
 20
0.0
 30
0.0
  3
*Paper_Space
  1

  0
ENDBLK
  5
6E
330
6C
100
AcDbEntity
 67
     1
  8
0
100
AcDbBlockEnd
  0
BLOCK
  5
75
330
74
100
AcDbEntity
 67
     1
  8
0
100
AcDbBlockBegin
  2
*Paper_Space0
 70
     0
 10
0.0
 20
0.0
 30
0.0
  3
*Paper_Space0
  1

  0
ENDBLK
  5
76
330
74
100
AcDbEntity
 67
     1
  8
0
100
AcDbBlockEnd
  0
BLOCK
  5
389
330
388
100
AcDbEntity
  8
0
100
AcDbBlockBegin
  2
D35160152 Top View
 70
     0
 10
0.0
 20
0.0
 30
0.0
  3
D35160152 Top View
  1

  0
SPLINE
  5
38B
330
388
100
AcDbEntity
  8
D35160152
100
AcDbSpline
210
0.0
220
0.0
230
1.0
 70
     8
 71
     3
 72
    13
 73
     9
 74
     0
 42
0.000000001
 43
0.0000000001
 40
0.1337503700181881
 40
0.1337503700181881
 40
0.1337503700181881
 40
0.1337503700181881
 40
0.2
 40
0.4
 40
0.5
 40
0.6
 40
0.7
 40
0.750000000000012
 40
0.750000000000012
 40
0.750000000000012
 40
0.750000000000012
 10
0.7699801285672355
 20
-1.413147562674677
 30
0.0
 10
0.7642496721352953
 20
-1.630871746974555
 30
0.0
 10
0.7412196063463262
 20
-2.447516726774573
 30
0.0
 10
0.7095394919869286
 20
-3.278231670720391
 30
0.0
 10
0.6749410444234481
 20
-3.937231639196536
 30
0.0
 10
0.6489903890797436
 20
-4.334383630453078
 30
0.0
 10
0.6273726673289845
 20
-4.604227600765348
 30
0.0
 10
0.6143693636807227
 20
-4.747925364004135
 30
0.0
 10
0.6100367104136446
 20
-4.794271433057609
 30
0.0
  0
SPLINE
  5
38C
330
388
100
AcDbEntity
  8
D35160152
100
AcDbSpline
210
0.0
220
0.0
230
1.0
 70
     8
 71
     3
 72
    14
 73
    10
 74
     0
 42
0.000000001
 43
0.0000000001
 40
-0.7505926498991891
 40
-0.7505926498991891
 40
-0.7505926498991891
 40
-0.7505926498991891
 40
-0.75
 40
-0.7
 40
-0.6
 40
-0.5
 40
-0.4
 40
-0.2
 40
-0.1337503699969239
 40
-0.1337503699969239
 40
-0.1337503699969239
 40
-0.1337503699969239
 10
-0.609884832825528
 20
-4.795854283630241
 30
0.0
 10
-0.6099361880119299
 20
-4.795305522132171
 30
0.0
 10
-0.6143202228440713
 20
-4.748441022311517
 30
0.0
 10
-0.6273705531145037
 20
-4.604357520348784
 30
0.0
 10
-0.6489911061839626
 20
-4.333773386406285
 30
0.0
 10
-0.6749408564803556
 20
-3.939394663104287
 30
0.0
 10
-0.7095396008536618
 20
-3.266788193972118
 30
0.0
 10
-0.7412196061006931
 20
-2.511974565419063
 30
0.0
 10
-0.764249663625326
 20
-1.58715036676935
 30
0.0
 10
-0.7699801200184375
 20
-1.347976648240209
 30
0.0
  0
ARC
  5
38D
330
388
100
AcDbEntity
  8
D35160152
100
AcDbCircle
 10
72.53786988841014
 20
0.3088779933504639
 30
0.0
 40
73.33177128816372
100
AcDbArc
 50
181.0656224803776
 51
184.4575372918874
1001
REVIT
1002
{
1070
     1
1000
55884
1002
}
1002
{
1070
     2
1000
-2001160
1002
}
  0
LINE
  5
38E
330
388
100
AcDbEntity
  8
D35160152
100
AcDbLine
 10
-0.5720879777957176
 20
-5.390485222058348
 30
0.0
 11
-0.2748259809769116
 21
-5.875294117835903
 31
0.0
1001
REVIT
1002
{
1070
     1
1000
55884
1002
}
1002
{
1070
     2
1000
-2001160
1002
}
  0
LINE
  5
38F
330
388
100
AcDbEntity
  8
D35160152
100
AcDbLine
 10
-0.2748259809769116
 20
-5.875294117835903
 30
0.0
 11
0.2748259809774036
 21
-5.875294117835903
 31
0.0
1001
REVIT
1002
{
1070
     1
1000
55884
1002
}
1002
{
1070
     2
1000
-2001160
1002
}
  0
LINE
  5
390
330
388
100
AcDbEntity
  8
D35160152
100
AcDbLine
 10
0.2748259809774036
 20
-5.875294117835903
 30
0.0
 11
0.5720879777962172
 21
-5.390485222058337
 31
0.0
1001
REVIT
1002
{
1070
     1
1000
55884
1002
}
1002
{
1070
     2
1000
-2001160
1002
}
  0
ARC
  5
391
330
388
100
AcDbEntity
  8
D35160152
100
AcDbCircle
 10
-72.53786988843152
 20
0.3088779933514587
 30
0.0
 40
73.33177128818561
100
AcDbArc
 50
355.542462708112
 51
358.934377519621
1001
REVIT
1002
{
1070
     1
1000
55884
1002
}
1002
{
1070
     2
1000
-2001160
1002
}
  0
ARC
  5
392
330
388
100
AcDbEntity
  8
D35160152
100
AcDbCircle
 10
0.0
 20
0.0
 30
0.0
 40
1.312685995479514
100
AcDbArc
 50
306.5218946324188
 51
233.4781053676066
1001
REVIT
1002
{
1070
     1
1000
55884
1002
}
1002
{
1070
     2
1000
-2001160
1002
}
  0
ARC
  5
393
330
388
100
AcDbEntity
  8
D35160152
100
AcDbCircle
 10
23.0056617908884
 20
-0.2319181856834263
 30
0.0
 40
23.80111352551755
100
AcDbArc
 50
180.7734956992587
 51
181.9815687151719
1001
REVIT
1002
{
1070
     1
1000
56238
1002
}
1002
{
1070
     2
1000
-2001160
1002
}
  0
ARC
  5
394
330
388
100
AcDbEntity
  8
D35160152
100
AcDbCircle
 10
-23.0056617908879
 20
-0.2319181856834263
 30
0.0
 40
23.80111352551756
100
AcDbArc
 50
358.0184312848276
 51
359.2265043007405
1001
REVIT
1002
{
1070
     1
1000
56265
1002
}
1002
{
1070
     2
1000
-2001160
1002
}
  0
ARC
  5
395
330
388
100
AcDbEntity
  8
D35160152
100
AcDbCircle
 10
0.7996180109659044
 20
-0.3855836077405037
 30
0.0
 40
1.854583583466815
100
AcDbArc
 50
154.172595019311
 51
167.9950806364856
1001
REVIT
1002
{
1070
     1
1000
56357
1002
}
1002
{
1070
     2
1000
-2001160
1002
}
  0
ARC
  5
396
330
388
100
AcDbEntity
  8
D35160152
100
AcDbCircle
 10
0.3731583403089251
 20
-0.828451764656986
 30
0.0
 40
1.76332799190512
100
AcDbArc
 50
117.0368051964005
 51
134.816911286673
1001
REVIT
1002
{
1070
     1
1000
56407
1002
}
1002
{
1070
     2
1000
-2001160
1002
}
  0
ARC
  5
397
330
388
100
AcDbEntity
  8
D35160152
100
AcDbCircle
 10
0.0000000000009646
 20
-1.27340606173275
 30
0.0
 40
2.060597525693969
100
AcDbArc
 50
78.00106346365061
 51
101.9989365363489
1001
REVIT
1002
{
1070
     1
1000
56463
1002
}
1002
{
1070
     2
1000
-2001160
1002
}
  0
ARC
  5
398
330
388
100
AcDbEntity
  8
D35160152
100
AcDbCircle
 10
-0.4750038612251002
 20
0.2744296026231012
 30
0.0
 40
1.514451279284184
100
AcDbArc
 50
310.4338660670903
 51
348.9312972346713
1001
REVIT
1002
{
1070
     1
1000
56508
1002
}
1002
{
1070
     2
1000
-2001160
1002
}
  0
ARC
  5
399
330
388
100
AcDbEntity
  8
D35160152
100
AcDbCircle
 10
-0.7996180109654114
 20
-0.3855836077405037
 30
0.0
 40
1.854583583466815
100
AcDbArc
 50
12.00491936351441
 51
25.82740498068897
1001
REVIT
1002
{
1070
     1
1000
56509
1002
}
1002
{
1070
     2
1000
-2001160
1002
}
  0
ARC
  5
39A
330
388
100
AcDbEntity
  8
D35160152
100
AcDbCircle
 10
-0.3731583403084318
 20
-0.828451764656986
 30
0.0
 40
1.76332799190512
100
AcDbArc
 50
45.18308871332697
 51
62.96319480363698
1001
REVIT
1002
{
1070
     1
1000
56510
1002
}
1002
{
1070
     2
1000
-2001160
1002
}
  0
LINE
  5
39B
330
388
100
AcDbEntity
  8
D35160152
100
AcDbLine
 10
-0.2437623212795192
 20
-0.526411385216143
 30
0.0
 11
-0.3504403178513908
 21
-3.548535958999661
 31
0.0
1001
REVIT
1002
{
1070
     1
1000
56690
1002
}
1002
{
1070
     2
1000
-2001160
1002
}
  0
LINE
  5
39C
330
388
100
AcDbEntity
  8
D35160152
100
AcDbLine
 10
-0.3504403178513908
 20
-3.548535958999661
 30
0.0
 11
-0.2790818789992668
 21
-3.688584780747284
 31
0.0
1001
REVIT
1002
{
1070
     1
1000
56795
1002
}
1002
{
1070
     2
1000
-2001160
1002
}
  0
LINE
  5
39D
330
388
100
AcDbEntity
  8
D35160152
100
AcDbLine
 10
0.2437620674488441
 20
-0.5264041943292029
 30
0.0
 11
0.3504403178518842
 21
-3.548535958999661
 31
0.0
1001
REVIT
1002
{
1070
     1
1000
56856
1002
}
1002
{
1070
     2
1000
-2001160
1002
}
  0
LINE
  5
39E
330
388
100
AcDbEntity
  8
D35160152
100
AcDbLine
 10
0.3504403178518851
 20
-3.548535958999657
 30
0.0
 11
0.2790818789997593
 21
-3.688584780747287
 31
0.0
1001
REVIT
1002
{
1070
     1
1000
56857
1002
}
1002
{
1070
     2
1000
-2001160
1002
}
  0
ARC
  5
39F
330
388
100
AcDbEntity
  8
D35160152
100
AcDbCircle
 10
0.0000000000002478
 20
-3.114239461956927
 30
0.0
 40
0.6385602872104535
100
AcDbArc
 50
244.0842787657306
 51
295.9157212342681
1001
REVIT
1002
{
1070
     1
1000
56934
1002
}
1002
{
1070
     2
1000
-2001160
1002
}
  0
ARC
  5
3A0
330
388
100
AcDbEntity
  8
D35160152
100
AcDbCircle
 10
0.0000000000002496
 20
0.5500678513754558
 30
0.0
 40
1.515756665350956
100
AcDbArc
 50
250.4497184609277
 51
260.1812618954634
1001
REVIT
1002
{
1070
     1
1000
57034
1002
}
1002
{
1070
     2
1000
-2001160
1002
}
  0
ARC
  5
3A1
330
388
100
AcDbEntity
  8
D35160152
100
AcDbCircle
 10
0.0000000000002496
 20
0.5500678513754558
 30
0.0
 40
1.515756665350957
100
AcDbArc
 50
279.8187381045356
 51
289.5502815390711
1001
REVIT
1002
{
1070
     1
1000
57140
1002
}
1002
{
1070
     2
1000
-2001160
1002
}
  0
ARC
  5
3A2
330
388
100
AcDbEntity
  8
D35160152
100
AcDbCircle
 10
0.0000000000218079
 20
-0.5750562258456356
 30
0.0
 40
1.126245655707075
100
AcDbArc
 50
74.79612885210295
 51
105.2038711510995
1001
REVIT
1002
{
1070
     1
1000
57278
1002
}
1002
{
1070
     2
1000
-2001160
1002
}
  0
ARC
  5
3A3
330
388
100
AcDbEntity
  8
D35160152
100
AcDbCircle
 10
-0.4004884406203813
 20
-0.2310361134628138
 30
0.0
 40
1.017825691415304
100
AcDbArc
 50
13.1306681649609
 51
46.86933182784611
1001
REVIT
1002
{
1070
     1
1000
57352
1002
}
1002
{
1070
     2
1000
-2001160
1002
}
  0
ARC
  5
3A4
330
388
100
AcDbEntity
  8
D35160152
100
AcDbCircle
 10
-0.4518932217799594
 20
0.2610866630182897
 30
0.0
 40
1.074766658728438
100
AcDbArc
 50
314.0489637084538
 51
345.9510373756764
1001
REVIT
1002
{
1070
     1
1000
57427
1002
}
1002
{
1070
     2
1000
-2001160
1002
}
  0
ARC
  5
3A5
330
388
100
AcDbEntity
  8
D35160152
100
AcDbCircle
 10
0.4004884406208742
 20
-0.2310361134628138
 30
0.0
 40
1.017825691415304
100
AcDbArc
 50
133.1306681735131
 51
166.8693318350391
1001
REVIT
1002
{
1070
     1
1000
57590
1002
}
1002
{
1070
     2
1000
-2001160
1002
}
  0
ARC
  5
3A6
330
388
100
AcDbEntity
  8
D35160152
100
AcDbCircle
 10
0.4518932217804528
 20
0.2610866630182897
 30
0.0
 40
1.074766658728439
100
AcDbArc
 50
194.0489626243227
 51
225.9520621979064
1001
REVIT
1002
{
1070
     1
1000
57591
1002
}
1002
{
1070
     2
1000
-2001160
1002
}
  0
ARC
  5
3A7
330
388
100
AcDbEntity
  8
D35160152
100
AcDbCircle
 10
0.5285300724896445
 20
-0.3261941192471909
 30
0.0
 40
1.586018772123174
100
AcDbArc
 50
130.7021939354606
 51
151.836593624364
1001
REVIT
1002
{
1070
     1
1000
57875
1002
}
1002
{
1070
     2
1000
-2001160
1002
}
  0
ARC
  5
3A8
330
388
100
AcDbEntity
  8
D35160152
100
AcDbCircle
 10
0.0000000000005338
 20
-0.5496958604201759
 30
0.0
 40
1.512916339267021
100
AcDbArc
 50
70.47049133752563
 51
109.5295086624743
1001
REVIT
1002
{
1070
     1
1000
57962
1002
}
1002
{
1070
     2
1000
-2001160
1002
}
  0
ARC
  5
3A9
330
388
100
AcDbEntity
  8
D35160152
100
AcDbCircle
 10
-0.541905147239258
 20
-0.336921310180756
 30
0.0
 40
1.602876493184796
100
AcDbArc
 50
28.27580040160298
 51
49.18541203848418
1001
REVIT
1002
{
1070
     1
1000
58059
1002
}
1002
{
1070
     2
1000
-2001160
1002
}
  0
ARC
  5
3AA
330
388
100
AcDbEntity
  8
D35160152
100
AcDbCircle
 10
0.0000000000005445
 20
-0.5056419338996819
 30
0.0
 40
1.359878593002086
100
AcDbArc
 50
70.71843443434916
 51
109.2815655656946
1001
REVIT
1002
{
1070
     1
1000
58174
1002
}
1002
{
1070
     2
1000
-2001160
1002
}
  0
ARC
  5
3AB
330
388
100
AcDbEntity
  8
D35160152
100
AcDbCircle
 10
-0.5033595982922155
 20
-0.2904288040943434
 30
0.0
 40
1.431267359216916
100
AcDbArc
 50
42.0336366248399
 51
48.28479340883515
1001
REVIT
1002
{
1070
     1
1000
58285
1002
}
1002
{
1070
     2
1000
-2001160
1002
}
  0
ARC
  5
3AC
330
388
100
AcDbEntity
  8
D35160152
100
AcDbCircle
 10
0.5033595982927089
 20
-0.2904288040943434
 30
0.0
 40
1.431267359216916
100
AcDbArc
 50
131.7152065911856
 51
137.9663633751601
1001
REVIT
1002
{
1070
     1
1000
58387
1002
}
1002
{
1070
     2
1000
-2001160
1002
}
  0
ARC
  5
3AD
330
388
100
AcDbEntity
  8
D35160152
100
AcDbCircle
 10
0.0
 20
-0.5496958604201723
 30
0.0
 40
1.683593750000333
100
AcDbArc
 50
69.39883954461561
 51
110.6011604553849
1001
REVIT
1002
{
1070
     1
1000
58677
1002
}
1002
{
1070
     2
1000
-2001160
1002
}
  0
ARC
  5
3AE
330
388
100
AcDbEntity
  8
D35160152
100
AcDbCircle
 10
-0.476211656281278
 20
-0.274754932467669
 30
0.0
 40
1.683593749996387
100
AcDbArc
 50
9.39883954459896
 51
50.60116045547275
1001
REVIT
1002
{
1070
     1
1000
58787
1002
}
1002
{
1070
     2
1000
-2001160
1002
}
  0
ARC
  5
3AF
330
388
100
AcDbEntity
  8
D35160152
100
AcDbCircle
 10
-0.4762116562851322
 20
0.2751269234265479
 30
0.0
 40
1.68359375000033
100
AcDbArc
 50
318.6560235646494
 51
350.6011604553927
1001
REVIT
1002
{
1070
     1
1000
58900
1002
}
1002
{
1070
     2
1000
-2001160
1002
}
  0
ARC
  5
3B0
330
388
100
AcDbEntity
  8
D35160152
100
AcDbCircle
 10
0.4762116562860764
 20
-0.274754932468749
 30
0.0
 40
1.68359375000035
100
AcDbArc
 50
129.398839544634
 51
170.6011604553911
1001
REVIT
1002
{
1070
     1
1000
59027
1002
}
1002
{
1070
     2
1000
-2001160
1002
}
  0
ARC
  5
3B1
330
388
100
AcDbEntity
  8
D35160152
100
AcDbCircle
 10
0.4750038612255559
 20
0.2744296026230835
 30
0.0
 40
1.682288363934997
100
AcDbArc
 50
189.3821265042187
 51
221.3558449816691
1001
REVIT
1002
{
1070
     1
1000
59149
1002
}
1002
{
1070
     2
1000
-2001160
1002
}
  0
ARC
  5
3B2
330
388
100
AcDbEntity
  8
D35160152
100
AcDbCircle
 10
0.00000000000025
 20
0.000185995479498
 30
0.0
 40
1.192578901110029
100
AcDbArc
 50
311.2402602407393
 51
228.7597397592603
1001
REVIT
1002
{
1070
     1
1000
59274
1002
}
1002
{
1070
     2
1000
-2001160
1002
}
  0
ARC
  5
3B3
330
388
100
AcDbEntity
  8
D35160152
100
AcDbCircle
 10
-0.0000139098349137
 20
0.4080401439155388
 30
0.0
 40
0.9657188764740515
100
AcDbArc
 50
252.1925605553985
 51
287.0518553605425
1001
REVIT
1002
{
1070
     1
1000
59653
1002
}
1002
{
1070
     2
1000
-2001160
1002
}
  0
ARC
  5
3B4
330
388
100
AcDbEntity
  8
D35160152
100
AcDbCircle
 10
0.4750038612255936
 20
0.2744296026231012
 30
0.0
 40
1.514451279284184
100
AcDbArc
 50
190.4338660671147
 51
230.3290336425909
1001
REVIT
1002
{
1070
     1
1000
59692
1002
}
1002
{
1070
     2
1000
-2001160
1002
}
  0
LINE
  5
3B5
330
388
100
AcDbEntity
  8
D35160152
100
AcDbLine
 10
-0.4490464833338188
 20
0.7779573195709553
 30
0.0
 11
-0.5923903189252489
 21
1.026236125769042
 31
0.0
1001
REVIT
1002
{
1070
     1
1000
60125
1002
}
1002
{
1070
     2
1000
-2001160
1002
}
  0
LINE
  5
3B6
330
388
100
AcDbEntity
  8
D35160152
100
AcDbLine
 10
0.4490464833339285
 20
0.7779573195712999
 30
0.0
 11
0.5923903189251157
 21
1.026236125769042
 31
0.0
1001
REVIT
1002
{
1070
     1
1000
60270
1002
}
1002
{
1070
     2
1000
-2001160
1002
}
  0
LINE
  5
3B7
330
388
100
AcDbEntity
  8
D35160152
100
AcDbLine
 10
0.5907256996424764
 20
0.0001859954790007
 30
0.0
 11
1.184780637850971
 21
0.0001859954790007
 31
0.0
1001
REVIT
1002
{
1070
     1
1000
60422
1002
}
1002
{
1070
     2
1000
-2001160
1002
}
  0
LINE
  5
3B8
330
388
100
AcDbEntity
  8
D35160152
100
AcDbLine
 10
0.2953628547045599
 20
0.5117694552425114
 30
0.0
 11
0.4283849047382109
 21
0.7421704156774674
 31
0.0
1001
REVIT
1002
{
1070
     1
1000
60567
1002
}
1002
{
1070
     2
1000
-2001160
1002
}
  0
LINE
  5
3B9
330
388
100
AcDbEntity
  8
D35160152
100
AcDbLine
 10
-0.2953628547216889
 20
0.511769455226002
 30
0.0
 11
-0.4283849047363031
 21
0.7421704156774567
 31
0.0
1001
REVIT
1002
{
1070
     1
1000
60709
1002
}
1002
{
1070
     2
1000
-2001160
1002
}
  0
LINE
  5
3BA
330
388
100
AcDbEntity
  8
D35160152
100
AcDbLine
 10
-0.5907256996419834
 20
0.0001859954788586
 30
0.0
 11
-1.184780637850033
 21
0.0001859954788586
 31
0.0
1001
REVIT
1002
{
1070
     1
1000
60855
1002
}
1002
{
1070
     2
1000
-2001160
1002
}
  0
LINE
  5
3BB
330
388
100
AcDbEntity
  8
D35160152
100
AcDbLine
 10
-0.2953490228698232
 20
-0.5114108441131649
 30
0.0
 11
-0.5072236741310819
 21
-0.8783026933210393
 31
0.0
1001
REVIT
1002
{
1070
     1
1000
60998
1002
}
1002
{
1070
     2
1000
-2001160
1002
}
  0
LINE
  5
3BC
330
388
100
AcDbEntity
  8
D35160152
100
AcDbLine
 10
0.2953628546612448
 20
-0.5113974642853023
 30
0.0
 11
0.5072236741315708
 21
-0.8783026933210464
 31
0.0
1001
REVIT
1002
{
1070
     1
1000
61141
1002
}
1002
{
1070
     2
1000
-2001160
1002
}
  0
LINE
  5
3BD
330
388
100
AcDbEntity
  8
D35160152
100
AcDbLine
 10
-0.3504403178513908
 20
-3.548535958999661
 30
0.0
 11
0.3504403178518842
 21
-3.548535958999661
 31
0.0
1001
REVIT
1002
{
1070
     1
1000
61295
1002
}
1002
{
1070
     2
1000
-2001160
1002
}
  0
LINE
  5
3BE
330
388
100
AcDbEntity
  8
D35160152
100
AcDbLine
 10
-0.2790818789992668
 20
-3.688584780747284
 30
0.0
 11
0.2790818789997589
 21
-3.688584780747287
 31
0.0
1001
REVIT
1002
{
1070
     1
1000
61433
1002
}
1002
{
1070
     2
1000
-2001160
1002
}
  0
ARC
  5
3BF
330
388
100
AcDbEntity
  8
D35160152
100
AcDbCircle
 10
155.3751342262338
 20
3.837166684695418
 30
0.0
 40
155.9536634902574
100
AcDbArc
 50
181.7326792601747
 51
183.5698427129947
1001
REVIT
1002
{
1070
     1
1000
63831
1002
}
1002
{
1070
     2
1000
-2001160
1002
}
  0
ARC
  5
3C0
330
388
100
AcDbEntity
  8
D35160152
100
AcDbCircle
 10
-155.3751335575842
 20
3.837166684695418
 30
0.0
 40
155.9536634902574
100
AcDbArc
 50
356.4301572870046
 51
358.2673207398244
1001
REVIT
1002
{
1070
     1
1000
63971
1002
}
1002
{
1070
     2
1000
-2001160
1002
}
  0
ENDBLK
  5
38A
330
388
100
AcDbEntity
  8
0
100
AcDbBlockEnd
  0
BLOCK
  5
3C3
330
3C2
100
AcDbEntity
  8
0
100
AcDbBlockBegin
  2
D35160152 Front View
 70
     0
 10
0.0
 20
0.0
 30
0.0
  3
D35160152 Front View
  1

  0
LINE
  5
3C5
330
3C2
100
AcDbEntity
  8
D35160152
100
AcDbLine
 10
-1.192578901109778
 20
0.3261939176309063
 30
0.0
 11
-1.19257890110978
 21
0.248343645242921
 31
0.0
1001
REVIT
1002
{
1070
     2
1000
-2001160
1002
}
  0
LINE
  5
3C6
330
3C2
100
AcDbEntity
  8
D35160152
100
AcDbLine
 10
1.192578901110278
 20
0.2483436452428984
 30
0.0
 11
1.192578901110278
 21
0.3261939176308823
 31
0.0
1001
REVIT
1002
{
1070
     2
1000
-2001160
1002
}
  0
LINE
  5
3C7
330
3C2
100
AcDbEntity
  8
D35160152
100
AcDbLine
 10
1.230690051521409
 20
0.248343645242897
 30
0.0
 11
1.231804956829374
 21
0.2483213441631808
 31
0.0
1001
REVIT
1002
{
1070
     2
1000
-2001160
1002
}
  0
LINE
  5
3C8
330
3C2
100
AcDbEntity
  8
D35160152
100
AcDbLine
 10
1.231804956829374
 20
0.2483213441631808
 30
0.0
 11
1.232918078526681
 21
0.2482544766010041
 31
0.0
1001
REVIT
1002
{
1070
     2
1000
-2001160
1002
}
  0
LINE
  5
3C9
330
3C2
100
AcDbEntity
  8
D35160152
100
AcDbLine
 10
1.234027635856066
 20
0.2481431495302008
 30
0.0
 11
1.235131853762496
 21
0.247987541050334
 31
0.0
1001
REVIT
1002
{
1070
     2
1000
-2001160
1002
}
  0
LINE
  5
3CA
330
3C2
100
AcDbEntity
  8
D35160152
100
AcDbLine
 10
1.235131853762496
 20
0.247987541050334
 30
0.0
 11
1.236228965732874
 21
0.2477879001017799
 31
0.0
1001
REVIT
1002
{
1070
     2
1000
-2001160
1002
}
  0
LINE
  5
3CB
330
3C2
100
AcDbEntity
  8
D35160152
100
AcDbLine
 10
1.236228965732874
 20
0.2477879001017799
 30
0.0
 11
1.237317216622084
 21
0.2475445460674681
 31
0.0
1001
REVIT
1002
{
1070
     2
1000
-2001160
1002
}
  0
LINE
  5
3CC
330
3C2
100
AcDbEntity
  8
D35160152
100
AcDbLine
 10
1.232918078526681
 20
0.2482544766010041
 30
0.0
 11
1.234027635856066
 21
0.2481431495302008
 31
0.0
1001
REVIT
1002
{
1070
     2
1000
-2001160
1002
}
  0
LINE
  5
3CD
330
3C2
100
AcDbEntity
  8
D35160152
100
AcDbLine
 10
1.237317216622084
 20
0.2475445460674681
 30
0.0
 11
1.238394865460854
 21
0.2472578682619377
 31
0.0
1001
REVIT
1002
{
1070
     2
1000
-2001160
1002
}
  0
LINE
  5
3CE
330
3C2
100
AcDbEntity
  8
D35160152
100
AcDbLine
 10
1.238394865460854
 20
0.2472578682619377
 30
0.0
 11
1.239460188240927
 21
0.2469283253085268
 31
0.0
1001
REVIT
1002
{
1070
     2
1000
-2001160
1002
}
  0
LINE
  5
3CF
330
3C2
100
AcDbEntity
  8
D35160152
100
AcDbLine
 10
1.239460188240927
 20
0.2469283253085268
 30
0.0
 11
1.240511480673111
 21
0.2465564444056602
 31
0.0
1001
REVIT
1002
{
1070
     2
1000
-2001160
1002
}
  0
LINE
  5
3D0
330
3C2
100
AcDbEntity
  8
D35160152
100
AcDbLine
 10
1.240511480673111
 20
0.2465564444056602
 30
0.0
 11
1.24154706091378
 21
0.2461428204834499
 31
0.0
1001
REVIT
1002
{
1070
     2
1000
-2001160
1002
}
  0
LINE
  5
3D1
330
3C2
100
AcDbEntity
  8
D35160152
100
AcDbLine
 10
1.24154706091378
 20
0.2461428204834499
 30
0.0
 11
1.242565272255461
 21
0.2456881152519425
 31
0.0
1001
REVIT
1002
{
1070
     2
1000
-2001160
1002
}
  0
LINE
  5
3D2
330
3C2
100
AcDbEntity
  8
D35160152
100
AcDbLine
 10
1.242565272255461
 20
0.2456881152519425
 30
0.0
 11
1.243564485777209
 21
0.2451930561425026
 31
0.0
1001
REVIT
1002
{
1070
     2
1000
-2001160
1002
}
  0
LINE
  5
3D3
330
3C2
100
AcDbEntity
  8
D35160152
100
AcDbLine
 10
1.243564485777209
 20
0.2451930561425026
 30
0.0
 11
1.24454310295055
 21
0.2446584351441032
 31
0.0
1001
REVIT
1002
{
1070
     2
1000
-2001160
1002
}
  0
LINE
  5
3D4
330
3C2
100
AcDbEntity
  8
D35160152
100
AcDbLine
 10
1.24454310295055
 20
0.2446584351441032
 30
0.0
 11
1.245499558196762
 21
0.2440851075362928
 31
0.0
1001
REVIT
1002
{
1070
     2
1000
-2001160
1002
}
  0
LINE
  5
3D5
330
3C2
100
AcDbEntity
  8
D35160152
100
AcDbLine
 10
1.245499558196762
 20
0.2440851075362928
 30
0.0
 11
1.246432321391489
 21
0.2434739905209433
 31
0.0
1001
REVIT
1002
{
1070
     2
1000
-2001160
1002
}
  0
LINE
  5
3D6
330
3C2
100
AcDbEntity
  8
D35160152
100
AcDbLine
 10
1.250689987247083
 20
0.2398878080428823
 30
0.0
 11
1.25145075144006
 21
0.2390724866175739
 31
0.0
1001
REVIT
1002
{
1070
     2
1000
-2001160
1002
}
  0
LINE
  5
3D7
330
3C2
100
AcDbEntity
  8
D35160152
100
AcDbLine
 10
1.246432321391489
 20
0.2434739905209433
 30
0.0
 11
1.247339900312595
 21
0.2428260617549127
 31
0.0
1001
REVIT
1002
{
1070
     2
1000
-2001160
1002
}
  0
LINE
  5
3D8
330
3C2
100
AcDbEntity
  8
D35160152
100
AcDbLine
 10
1.247339900312595
 20
0.2428260617549127
 30
0.0
 11
1.248220843027412
 21
0.2421423577860073
 31
0.0
1001
REVIT
1002
{
1070
     2
1000
-2001160
1002
}
  0
LINE
  5
3D9
330
3C2
100
AcDbEntity
  8
D35160152
100
AcDbLine
 10
1.248220843027412
 20
0.2421423577860073
 30
0.0
 11
1.249073740215522
 21
0.2414239723947333
 31
0.0
1001
REVIT
1002
{
1070
     2
1000
-2001160
1002
}
  0
LINE
  5
3DA
330
3C2
100
AcDbEntity
  8
D35160152
100
AcDbLine
 10
1.249073740215522
 20
0.2414239723947333
 30
0.0
 11
1.249897227423369
 21
0.2406720548444645
 31
0.0
1001
REVIT
1002
{
1070
     2
1000
-2001160
1002
}
  0
LINE
  5
3DB
330
3C2
100
AcDbEntity
  8
D35160152
100
AcDbLine
 10
1.249897227423369
 20
0.2406720548444645
 30
0.0
 11
1.250689987247083
 21
0.2398878080428823
 31
0.0
1001
REVIT
1002
{
1070
     2
1000
-2001160
1002
}
  0
LINE
  5
3DC
330
3C2
100
AcDbEntity
  8
D35160152
100
AcDbLine
 10
1.25145075144006
 20
0.2390724866175739
 30
0.0
 11
1.252178302941883
 21
0.2382273949088911
 31
0.0
1001
REVIT
1002
{
1070
     2
1000
-2001160
1002
}
  0
LINE
  5
3DD
330
3C2
100
AcDbEntity
  8
D35160152
100
AcDbLine
 10
1.252178302941883
 20
0.2382273949088911
 30
0.0
 11
1.252871477825348
 21
0.2373538848832938
 31
0.0
1001
REVIT
1002
{
1070
     2
1000
-2001160
1002
}
  0
LINE
  5
3DE
330
3C2
100
AcDbEntity
  8
D35160152
100
AcDbLine
 10
1.25352916715851
 20
0.2364533539704822
 30
0.0
 11
1.254150318778739
 21
0.235527242827815
 31
0.0
1001
REVIT
1002
{
1070
     2
1000
-2001160
1002
}
  0
LINE
  5
3DF
330
3C2
100
AcDbEntity
  8
D35160152
100
AcDbLine
 10
1.252871477825348
 20
0.2373538848832938
 30
0.0
 11
1.25352916715851
 21
0.2364533539704822
 31
0.0
1001
REVIT
1002
{
1070
     2
1000
-2001160
1002
}
  0
LINE
  5
3E0
330
3C2
100
AcDbEntity
  8
D35160152
100
AcDbLine
 10
1.255279094082315
 20
0.2336042447266843
 30
0.0
 11
1.255784911965972
 21
0.232610434154965
 31
0.0
1001
REVIT
1002
{
1070
     2
1000
-2001160
1002
}
  0
LINE
  5
3E1
330
3C2
100
AcDbEntity
  8
D35160152
100
AcDbLine
 10
1.254733938975947
 20
0.2345770330355612
 30
0.0
 11
1.255279094082315
 21
0.2336042447266843
 31
0.0
1001
REVIT
1002
{
1070
     2
1000
-2001160
1002
}
  0
LINE
  5
3E2
330
3C2
100
AcDbEntity
  8
D35160152
100
AcDbLine
 10
1.254150318778739
 20
0.235527242827815
 30
0.0
 11
1.254733938975947
 21
0.2345770330355612
 31
0.0
1001
REVIT
1002
{
1070
     2
1000
-2001160
1002
}
  0
LINE
  5
3E3
330
3C2
100
AcDbEntity
  8
D35160152
100
AcDbLine
 10
1.255784911965972
 20
0.232610434154965
 30
0.0
 11
1.256250583426199
 21
0.2315971912053162
 31
0.0
1001
REVIT
1002
{
1070
     2
1000
-2001160
1002
}
  0
LINE
  5
3E4
330
3C2
100
AcDbEntity
  8
D35160152
100
AcDbLine
 10
1.257058572593894
 20
0.2295189205569645
 30
0.0
 11
1.257399597691057
 21
0.2284572176479584
 31
0.0
1001
REVIT
1002
{
1070
     2
1000
-2001160
1002
}
  0
LINE
  5
3E5
330
3C2
100
AcDbEntity
  8
D35160152
100
AcDbLine
 10
1.256675363488003
 20
0.2305661368503075
 30
0.0
 11
1.257058572593894
 21
0.2295189205569645
 31
0.0
1001
REVIT
1002
{
1070
     2
1000
-2001160
1002
}
  0
LINE
  5
3E6
330
3C2
100
AcDbEntity
  8
D35160152
100
AcDbLine
 10
1.256250583426199
 20
0.2315971912053162
 30
0.0
 11
1.256675363488003
 21
0.2305661368503075
 31
0.0
1001
REVIT
1002
{
1070
     2
1000
-2001160
1002
}
  0
LINE
  5
3E7
330
3C2
100
AcDbEntity
  8
D35160152
100
AcDbLine
 10
-1.257511219868718
 20
0.2280742980396088
 30
0.0
 11
-1.257185418185905
 21
0.2291407709400434
 31
0.0
1001
REVIT
1002
{
1070
     2
1000
-2001160
1002
}
  0
LINE
  5
3E8
330
3C2
100
AcDbEntity
  8
D35160152
100
AcDbLine
 10
-1.256407243039662
 20
0.2312303878486385
 30
0.0
 11
-1.255956114490464
 21
0.2322501889155059
 31
0.0
1001
REVIT
1002
{
1070
     2
1000
-2001160
1002
}
  0
LINE
  5
3E9
330
3C2
100
AcDbEntity
  8
D35160152
100
AcDbLine
 10
-1.257794113403719
 20
0.2269956496113709
 30
0.0
 11
-1.257511219868718
 21
0.2280742980396088
 31
0.0
1001
REVIT
1002
{
1070
     2
1000
-2001160
1002
}
  0
LINE
  5
3EA
330
3C2
100
AcDbEntity
  8
D35160152
100
AcDbLine
 10
1.257697893212081
 20
0.2273827266214607
 30
0.0
 11
1.257794113404216
 21
0.2269956496113456
 31
0.0
1001
REVIT
1002
{
1070
     2
1000
-2001160
1002
}
  0
LINE
  5
3EB
330
3C2
100
AcDbEntity
  8
D35160152
100
AcDbLine
 10
1.257399597691057
 20
0.2284572176479584
 30
0.0
 11
1.257697893212081
 21
0.2273827266214607
 31
0.0
1001
REVIT
1002
{
1070
     2
1000
-2001160
1002
}
  0
LINE
  5
3EC
330
3C2
100
AcDbEntity
  8
D35160152
100
AcDbLine
 10
-1.257185418185905
 20
0.2291407709400434
 30
0.0
 11
-1.256817229568471
 21
0.2301933621835354
 31
0.0
1001
REVIT
1002
{
1070
     2
1000
-2001160
1002
}
  0
LINE
  5
3ED
330
3C2
100
AcDbEntity
  8
D35160152
100
AcDbLine
 10
-1.256817229568471
 20
0.2301933621835354
 30
0.0
 11
-1.256407243039662
 21
0.2312303878486385
 31
0.0
1001
REVIT
1002
{
1070
     2
1000
-2001160
1002
}
  0
LINE
  5
3EE
330
3C2
100
AcDbEntity
  8
D35160152
100
AcDbLine
 10
-1.25546456563032
 20
0.2332511339199792
 30
0.0
 11
-1.254933382832551
 21
0.2342316215635724
 31
0.0
1001
REVIT
1002
{
1070
     2
1000
-2001160
1002
}
  0
LINE
  5
3EF
330
3C2
100
AcDbEntity
  8
D35160152
100
AcDbLine
 10
-1.255956114490464
 20
0.2322501889155059
 30
0.0
 11
-1.25546456563032
 21
0.2332511339199792
 31
0.0
1001
REVIT
1002
{
1070
     2
1000
-2001160
1002
}
  0
LINE
  5
3F0
330
3C2
100
AcDbEntity
  8
D35160152
100
AcDbLine
 10
-1.254933382832551
 20
0.2342316215635724
 30
0.0
 11
-1.254363415876316
 21
0.2351900832752154
 31
0.0
1001
REVIT
1002
{
1070
     2
1000
-2001160
1002
}
  0
LINE
  5
3F1
330
3C2
100
AcDbEntity
  8
D35160152
100
AcDbLine
 10
-1.254363415876316
 20
0.2351900832752154
 30
0.0
 11
-1.253755576587162
 21
0.2361249857206337
 31
0.0
1001
REVIT
1002
{
1070
     2
1000
-2001160
1002
}
  0
LINE
  5
3F2
330
3C2
100
AcDbEntity
  8
D35160152
100
AcDbLine
 10
-1.253110837378285
 20
0.2370348332553446
 30
0.0
 11
-1.252430229694881
 21
0.2379181703173878
 31
0.0
1001
REVIT
1002
{
1070
     2
1000
-2001160
1002
}
  0
LINE
  5
3F3
330
3C2
100
AcDbEntity
  8
D35160152
100
AcDbLine
 10
-1.252430229694881
 20
0.2379181703173878
 30
0.0
 11
-1.251714842364056
 21
0.2387735837558975
 31
0.0
1001
REVIT
1002
{
1070
     2
1000
-2001160
1002
}
  0
LINE
  5
3F4
330
3C2
100
AcDbEntity
  8
D35160152
100
AcDbLine
 10
-1.253755576587162
 20
0.2361249857206337
 30
0.0
 11
-1.253110837378285
 21
0.2370348332553446
 31
0.0
1001
REVIT
1002
{
1070
     2
1000
-2001160
1002
}
  0
LINE
  5
3F5
330
3C2
100
AcDbEntity
  8
D35160152
100
AcDbLine
 10
-1.251714842364056
 20
0.2387735837558975
 30
0.0
 11
-1.250965819852933
 21
0.239599705091849
 31
0.0
1001
REVIT
1002
{
1070
     2
1000
-2001160
1002
}
  0
LINE
  5
3F6
330
3C2
100
AcDbEntity
  8
D35160152
100
AcDbLine
 10
-1.250184360437745
 20
0.2403952127073365
 30
0.0
 11
-1.249371714286853
 21
0.241158833959874
 31
0.0
1001
REVIT
1002
{
1070
     2
1000
-2001160
1002
}
  0
LINE
  5
3F7
330
3C2
100
AcDbEntity
  8
D35160152
100
AcDbLine
 10
-1.250965819852933
 20
0.239599705091849
 30
0.0
 11
-1.250184360437745
 21
0.2403952127073365
 31
0.0
1001
REVIT
1002
{
1070
     2
1000
-2001160
1002
}
  0
LINE
  5
3F8
330
3C2
100
AcDbEntity
  8
D35160152
100
AcDbLine
 10
-1.247658109832212
 20
0.2425855838174002
 30
0.0
 11
-1.246759892930039
 21
0.2432464299269723
 31
0.0
1001
REVIT
1002
{
1070
     2
1000
-2001160
1002
}
  0
LINE
  5
3F9
330
3C2
100
AcDbEntity
  8
D35160152
100
AcDbLine
 10
-1.249371714286853
 20
0.241158833959874
 30
0.0
 11
-1.248529181460745
 21
0.2418893472183558
 31
0.0
1001
REVIT
1002
{
1070
     2
1000
-2001160
1002
}
  0
LINE
  5
3FA
330
3C2
100
AcDbEntity
  8
D35160152
100
AcDbLine
 10
-1.248529181460745
 20
0.2418893472183558
 30
0.0
 11
-1.247658109832212
 21
0.2425855838174002
 31
0.0
1001
REVIT
1002
{
1070
     2
1000
-2001160
1002
}
  0
LINE
  5
3FB
330
3C2
100
AcDbEntity
  8
D35160152
100
AcDbLine
 10
-1.24488781225434
 20
0.2444577801350416
 30
0.0
 11
-1.243916943410537
 21
0.2450063463316132
 31
0.0
1001
REVIT
1002
{
1070
     2
1000
-2001160
1002
}
  0
LINE
  5
3FC
330
3C2
100
AcDbEntity
  8
D35160152
100
AcDbLine
 10
-1.246759892930039
 20
0.2432464299269723
 30
0.0
 11
-1.245835967709663
 21
0.243870828334272
 31
0.0
1001
REVIT
1002
{
1070
     2
1000
-2001160
1002
}
  0
LINE
  5
3FD
330
3C2
100
AcDbEntity
  8
D35160152
100
AcDbLine
 10
-1.24191331214148
 20
0.2459848743693182
 30
0.0
 11
-1.240883755098837
 21
0.2464132707743322
 31
0.0
1001
REVIT
1002
{
1070
     2
1000
-2001160
1002
}
  0
LINE
  5
3FE
330
3C2
100
AcDbEntity
  8
D35160152
100
AcDbLine
 10
-1.245835967709663
 20
0.243870828334272
 30
0.0
 11
-1.24488781225434
 21
0.2444577801350416
 31
0.0
1001
REVIT
1002
{
1070
     2
1000
-2001160
1002
}
  0
LINE
  5
3FF
330
3C2
100
AcDbEntity
  8
D35160152
100
AcDbLine
 10
-1.243916943410537
 20
0.2450063463316132
 30
0.0
 11
-1.242924914361299
 21
0.245515649335092
 31
0.0
1001
REVIT
1002
{
1070
     2
1000
-2001160
1002
}
  0
LINE
  5
400
330
3C2
100
AcDbEntity
  8
D35160152
100
AcDbLine
 10
-1.242924914361299
 20
0.245515649335092
 30
0.0
 11
-1.24191331214148
 21
0.2459848743693182
 31
0.0
1001
REVIT
1002
{
1070
     2
1000
-2001160
1002
}
  0
LINE
  5
401
330
3C2
100
AcDbEntity
  8
D35160152
100
AcDbLine
 10
-1.240883755098837
 20
0.2464132707743322
 30
0.0
 11
-1.23983789030501
 21
0.2468001532072716
 31
0.0
1001
REVIT
1002
{
1070
     2
1000
-2001160
1002
}
  0
LINE
  5
402
330
3C2
100
AcDbEntity
  8
D35160152
100
AcDbLine
 10
-1.238777390920562
 20
0.2471449027387766
 30
0.0
 11
-1.237703953518282
 21
0.2474469678431394
 31
0.0
1001
REVIT
1002
{
1070
     2
1000
-2001160
1002
}
  0
LINE
  5
403
330
3C2
100
AcDbEntity
  8
D35160152
100
AcDbLine
 10
-1.23983789030501
 20
0.2468001532072716
 30
0.0
 11
-1.238777390920562
 21
0.2471449027387766
 31
0.0
1001
REVIT
1002
{
1070
     2
1000
-2001160
1002
}
  0
LINE
  5
404
330
3C2
100
AcDbEntity
  8
D35160152
100
AcDbLine
 10
-1.236619295369026
 20
0.2477058652806292
 30
0.0
 11
-1.235525151694452
 21
0.2479211808705721
 31
0.0
1001
REVIT
1002
{
1070
     2
1000
-2001160
1002
}
  0
LINE
  5
405
330
3C2
100
AcDbEntity
  8
D35160152
100
AcDbLine
 10
-1.237703953518282
 20
0.2474469678431394
 30
0.0
 11
-1.236619295369026
 21
0.2477058652806292
 31
0.0
1001
REVIT
1002
{
1070
     2
1000
-2001160
1002
}
  0
LINE
  5
406
330
3C2
100
AcDbEntity
  8
D35160152
100
AcDbLine
 10
-1.235525151694452
 20
0.2479211808705721
 30
0.0
 11
-1.234423272891032
 21
0.2480925701539589
 31
0.0
1001
REVIT
1002
{
1070
     2
1000
-2001160
1002
}
  0
LINE
  5
407
330
3C2
100
AcDbEntity
  8
D35160152
100
AcDbLine
 10
-1.234423272891032
 20
0.2480925701539589
 30
0.0
 11
-1.233315421729798
 21
0.2482197589444972
 31
0.0
1001
REVIT
1002
{
1070
     2
1000
-2001160
1002
}
  0
LINE
  5
408
330
3C2
100
AcDbEntity
  8
D35160152
100
AcDbLine
 10
-1.232203370536279
 20
0.2483025437672528
 30
0.0
 11
-1.231088898355159
 21
0.2483407921841704
 31
0.0
1001
REVIT
1002
{
1070
     2
1000
-2001160
1002
}
  0
LINE
  5
409
330
3C2
100
AcDbEntity
  8
D35160152
100
AcDbLine
 10
-1.233315421729798
 20
0.2482197589444972
 30
0.0
 11
-1.232203370536279
 21
0.2483025437672528
 31
0.0
1001
REVIT
1002
{
1070
     2
1000
-2001160
1002
}
  0
LINE
  5
40A
330
3C2
100
AcDbEntity
  8
D35160152
100
AcDbLine
 10
-1.231088898355159
 20
0.2483407921841704
 30
0.0
 11
-1.23069005152091
 21
0.2483436452429237
 31
0.0
1001
REVIT
1002
{
1070
     2
1000
-2001160
1002
}
  0
LINE
  5
40B
330
3C2
100
AcDbEntity
  8
D35160152
100
AcDbLine
 10
1.221839711209896
 20
0.2483436452428944
 30
0.0
 11
-1.218373916646514
 21
0.2483436452429197
 31
0.0
1001
REVIT
1002
{
1070
     2
1000
-2001160
1002
}
  0
LINE
  5
40C
330
3C2
100
AcDbEntity
  8
D35160152
100
AcDbLine
 10
1.312500000000248
 20
0.0000000000011671
 30
0.0
 11
1.257794113404215
 21
0.2269956496113456
 31
0.0
1001
REVIT
1002
{
1070
     2
1000
-2001160
1002
}
  0
LINE
  5
40D
330
3C2
100
AcDbEntity
  8
D35160152
100
AcDbLine
 10
-1.257794113403717
 20
0.2269956496113709
 30
0.0
 11
-1.312499999999755
 21
0.000000000001195
 31
0.0
1001
REVIT
1002
{
1070
     2
1000
-2001160
1002
}
  0
LINE
  5
40E
330
3C2
100
AcDbEntity
  8
D35160152
100
AcDbLine
 10
0.4475373725099554
 20
9.898660529099071
 30
0.0
 11
0.3253032872711254
 21
9.898660529099071
 31
0.0
1001
REVIT
1002
{
1070
     2
1000
-2001160
1002
}
  0
LINE
  5
40F
330
3C2
100
AcDbEntity
  8
D35160152
100
AcDbLine
 10
-0.3277857286551326
 20
9.898660529099071
 30
0.0
 11
-0.4357765640130375
 21
9.898660529099071
 31
0.0
1001
REVIT
1002
{
1070
     2
1000
-2001160
1002
}
  0
SPLINE
  5
410
330
3C2
100
AcDbEntity
  8
D35160152
100
AcDbSpline
210
0.0
220
0.0
230
1.0
 70
     8
 71
     3
 72
     9
 73
     5
 74
     0
 42
0.000000001
 43
0.0000000001
 40
-1.0
 40
-1.0
 40
-1.0
 40
-1.0
 40
-0.5
 40
0.0
 40
0.0
 40
0.0
 40
0.0
 10
0.9179320656065732
 20
2.330374948513708
 30
0.0
 10
0.9371678484084315
 20
1.993479784069702
 30
0.0
 10
1.000925539182906
 20
1.321310477721008
 30
0.0
 10
1.115142941150649
 20
0.6561214932348091
 30
0.0
 10
1.184780637850994
 20
0.3261939176308874
 30
0.0
1001
REVIT
1002
{
1070
     2
1000
-2001160
1002
}
  0
SPLINE
  5
411
330
3C2
100
AcDbEntity
  8
D35160152
100
AcDbSpline
210
0.0
220
0.0
230
1.0
 70
     8
 71
     3
 72
     9
 73
     5
 74
     0
 42
0.000000001
 43
0.0000000001
 40
-1.0
 40
-1.0
 40
-1.0
 40
-1.0
 40
-0.5
 40
0.0
 40
0.0
 40
0.0
 40
0.0
 10
0.4589660328032201
 20
2.330374948513708
 30
0.0
 10
0.4690979202950342
 20
1.993479784069702
 30
0.0
 10
0.5005311296077874
 20
1.321310477721008
 30
0.0
 10
0.5569207544515828
 20
0.6561214932348091
 30
0.0
 10
0.592390318925415
 20
0.3261939176308874
 30
0.0
1001
REVIT
1002
{
1070
     2
1000
-2001160
1002
}
  0
LINE
  5
412
330
3C2
100
AcDbEntity
  8
D35160152
100
AcDbLine
 10
-0.3482310396937728
 20
10.03665932567685
 30
0.0
 11
-0.2365816830967637
 21
9.325716626742091
 31
0.0
1001
REVIT
1002
{
1070
     2
1000
-2001160
1002
}
  0
SPLINE
  5
413
330
3C2
100
AcDbEntity
  8
D35160152
100
AcDbSpline
210
0.0
220
0.0
230
1.0
 70
     8
 71
     3
 72
     9
 73
     5
 74
     0
 42
0.000000001
 43
0.0000000001
 40
-1.0
 40
-1.0
 40
-1.0
 40
-1.0
 40
-0.5
 40
0.0
 40
0.0
 40
0.0
 40
0.0
 10
-0.4590020441048869
 20
2.330374948513708
 30
0.0
 10
-0.4681018195841518
 20
1.993565046216268
 30
0.0
 10
-0.5004081010571056
 20
1.321480053962149
 30
0.0
 10
-0.5582224559175587
 20
0.6562051003068993
 30
0.0
 10
-0.5923903189240144
 20
0.3261939176308876
 30
0.0
1001
REVIT
1002
{
1070
     2
1000
-2001160
1002
}
  0
LINE
  5
414
330
3C2
100
AcDbEntity
  8
D35160152
100
AcDbLine
 10
0.2365788415113434
 20
9.325698532550074
 30
0.0
 11
0.3482310396944736
 21
10.03665932567685
 31
0.0
1001
REVIT
1002
{
1070
     2
1000
-2001160
1002
}
  0
SPLINE
  5
415
330
3C2
100
AcDbEntity
  8
D35160152
100
AcDbSpline
210
0.0
220
0.0
230
1.0
 70
     8
 71
     3
 72
     9
 73
     5
 74
     0
 42
0.000000001
 43
0.0000000001
 40
-1.0
 40
-1.0
 40
-1.0
 40
-1.0
 40
-0.5
 40
0.0
 40
0.0
 40
0.0
 40
0.0
 10
-0.9179394273703879
 20
2.330374948513707
 30
0.0
 10
-0.9371694819292612
 20
1.993565044850414
 30
0.0
 10
-1.000907739901101
 20
1.321480051245627
 30
0.0
 10
-1.115127194831638
 20
0.6562050989675596
 30
0.0
 10
-1.184780637850034
 20
0.3261939176308868
 30
0.0
1001
REVIT
1002
{
1070
     2
1000
-2001160
1002
}
  0
SPLINE
  5
416
330
3C2
100
AcDbEntity
  8
D35160152
100
AcDbSpline
210
0.0
220
0.0
230
1.0
 70
     8
 71
     3
 72
    10
 73
     6
 74
     0
 42
0.000000001
 43
0.0000000001
 40
-1.0
 40
-1.0
 40
-1.0
 40
-1.0
 40
-0.6666666666666666
 40
-0.3333333333333333
 40
0.0
 40
0.0
 40
0.0
 40
0.0
 10
0.4592803710005685
 20
9.898660529099061
 30
0.0
 10
0.4628422661735537
 20
9.898660529099061
 30
0.0
 10
0.4699613082015782
 20
9.897735145905514
 30
0.0
 10
0.4799278538275109
 20
9.893631307822063
 30
0.0
 10
0.4855880053007552
 20
9.889245113157254
 30
0.0
 10
0.4880715878890163
 20
9.886713301942201
 30
0.0
1001
REVIT
1002
{
1070
     2
1000
-2001160
1002
}
  0
LINE
  5
417
330
3C2
100
AcDbEntity
  8
D35160152
100
AcDbLine
 10
-1.312499999999753
 20
0.0000000000011937
 30
0.0
 11
1.312500000000247
 21
0.0000000000011667
 31
0.0
1001
REVIT
1002
{
1070
     2
1000
-2001160
1002
}
  0
SPLINE
  5
418
330
3C2
100
AcDbEntity
  8
D35160152
100
AcDbSpline
210
0.0
220
0.0
230
1.0
 70
     8
 71
     3
 72
    10
 73
     6
 74
     0
 42
0.000000001
 43
0.0000000001
 40
-1.0
 40
-1.0
 40
-1.0
 40
-1.0
 40
-0.6666666666666666
 40
-0.3333333333333333
 40
0.0
 40
0.0
 40
0.0
 40
0.0
 10
1.014400887165012
 20
8.074135698590641
 30
0.0
 10
0.9567631501923058
 20
7.437816514889171
 30
0.0
 10
0.8728920095248533
 20
6.162450735212252
 30
0.0
 10
0.8405218474192594
 20
4.245470102101752
 30
0.0
 10
0.8816716981951353
 20
2.968155040468086
 30
0.0
 10
0.9179320656066071
 20
2.330374948513965
 30
0.0
1001
REVIT
1002
{
1070
     2
1000
-2001160
1002
}
  0
LINE
  5
419
330
3C2
100
AcDbEntity
  8
D35160152
100
AcDbLine
 10
-1.192578901109778
 20
0.3261939176309052
 30
0.0
 11
1.192578901110278
 21
0.3261939176308807
 31
0.0
1001
REVIT
1002
{
1070
     2
1000
-2001160
1002
}
  0
SPLINE
  5
41A
330
3C2
100
AcDbEntity
  8
D35160152
100
AcDbSpline
210
0.0
220
0.0
230
1.0
 70
     8
 71
     3
 72
     9
 73
     5
 74
     0
 42
0.000000001
 43
0.0000000001
 40
-1.0
 40
-1.0
 40
-1.0
 40
-1.0
 40
-0.5
 40
0.0
 40
0.0
 40
0.0
 40
0.0
 10
0.4880715878890164
 20
9.886713301942201
 30
0.0
 10
0.5035494945724269
 20
9.870897963288991
 30
0.0
 10
0.5344863526135362
 20
9.839242816590328
 30
0.0
 10
0.5653727349532463
 20
9.807538731107175
 30
0.0
 10
0.5808006664191287
 20
9.791674453669481
 30
0.0
1001
REVIT
1002
{
1070
     2
1000
-2001160
1002
}
  0
SPLINE
  5
41B
330
3C2
100
AcDbEntity
  8
D35160152
100
AcDbSpline
210
0.0
220
0.0
230
1.0
 70
     8
 71
     3
 72
     9
 73
     5
 74
     0
 42
0.000000001
 43
0.0000000001
 40
-1.0
 40
-1.0
 40
-1.0
 40
-1.0
 40
-0.5
 40
0.0
 40
0.0
 40
0.0
 40
0.0
 10
0.580800666419128
 20
9.791674453669482
 30
0.0
 10
0.5858763059530653
 20
9.786461875432189
 30
0.0
 10
0.5932374692898094
 20
9.773343637909707
 30
0.0
 10
0.5928371118706132
 20
9.758308705269604
 30
0.0
 10
0.5907199770701342
 20
9.751375660532771
 30
0.0
1001
REVIT
1002
{
1070
     2
1000
-2001160
1002
}
  0
SPLINE
  5
41C
330
3C2
100
AcDbEntity
  8
D35160152
100
AcDbSpline
210
0.0
220
0.0
230
1.0
 70
     8
 71
     3
 72
     8
 73
     4
 74
     0
 42
0.000000001
 43
0.0000000001
 40
0.5
 40
0.5
 40
0.5
 40
0.5
 40
1.0
 40
1.0
 40
1.0
 40
1.0
 10
0.2372041444579512
 20
9.329883720688679
 30
0.0
 10
0.2341074694967368
 20
9.310099177094503
 30
0.0
 10
0.2288524472949779
 20
9.29012472142635
 30
0.0
 10
0.221526020391639
 20
9.269960353684222
 30
0.0
1001
REVIT
1002
{
1070
     2
1000
-2001160
1002
}
  0
SPLINE
  5
41D
330
3C2
100
AcDbEntity
  8
D35160152
100
AcDbSpline
210
0.0
220
0.0
230
1.0
 70
     8
 71
     3
 72
     9
 73
     5
 74
     0
 42
0.000000001
 43
0.0000000001
 40
-1.0
 40
-1.0
 40
-1.0
 40
-1.0
 40
-0.5
 40
0.0
 40
0.0
 40
0.0
 40
0.0
 10
0.5907199770701345
 20
9.751375660532769
 30
0.0
 10
0.5500173611187027
 20
9.617718853655164
 30
0.0
 10
0.4680991423960611
 20
9.350525437949537
 30
0.0
 10
0.3853761925221768
 20
9.083572418343063
 30
0.0
 10
0.3439054761964289
 20
8.950156007564611
 30
0.0
1001
REVIT
1002
{
1070
     2
1000
-2001160
1002
}
  0
LINE
  5
41E
330
3C2
100
AcDbEntity
  8
D35160152
100
AcDbLine
 10
0.3439054761963971
 20
8.950156007564624
 30
0.0
 11
0.3439054761964009
 21
8.908329345539833
 31
0.0
1001
REVIT
1002
{
1070
     2
1000
-2001160
1002
}
  0
SPLINE
  5
41F
330
3C2
100
AcDbEntity
  8
D35160152
100
AcDbSpline
210
0.0
220
0.0
230
1.0
 70
     8
 71
     3
 72
     9
 73
     5
 74
     0
 42
0.000000001
 43
0.0000000001
 40
-1.0
 40
-1.0
 40
-1.0
 40
-1.0
 40
-0.5
 40
0.0
 40
0.0
 40
0.0
 40
0.0
 10
0.3439054761964355
 20
8.908329345539833
 30
0.0
 10
0.455912815446968
 20
8.799927707844958
 30
0.0
 10
0.6811326528504439
 20
8.582184494938678
 30
0.0
 10
0.9039441712503752
 20
8.362561406999333
 30
0.0
 10
1.014400887164944
 20
8.25227989427139
 30
0.0
1001
REVIT
1002
{
1070
     2
1000
-2001160
1002
}
  0
SPLINE
  5
420
330
3C2
100
AcDbEntity
  8
D35160152
100
AcDbSpline
210
0.0
220
0.0
230
1.0
 70
     8
 71
     3
 72
     8
 73
     4
 74
     0
 42
0.000000001
 43
0.0000000001
 40
-1.0
 40
-1.0
 40
-1.0
 40
-1.0
 40
-0.9712205378545775
 40
-0.9712205378545775
 40
-0.9712205378545775
 40
-0.9712205378545775
 10
0.5072004435824208
 20
8.074135698590641
 30
0.0
 10
0.5046515272175927
 20
8.019196927011416
 30
0.0
 10
0.5021700804572258
 20
7.964247989934388
 30
0.0
 10
0.4997551030960163
 20
7.909289343267733
 30
0.0
1001
REVIT
1002
{
1070
     2
1000
-2001160
1002
}
  0
LINE
  5
421
330
3C2
100
AcDbEntity
  8
D35160152
100
AcDbLine
 10
1.014400887164939
 20
8.252279894271387
 30
0.0
 11
1.014400887164939
 21
8.087343616170244
 31
0.0
1001
REVIT
1002
{
1070
     2
1000
-2001160
1002
}
  0
LINE
  5
422
330
3C2
100
AcDbEntity
  8
D35160152
100
AcDbLine
 10
0.2215260203916389
 20
9.26996035368422
 30
0.0
 11
0.196797122873964
 21
9.110015520276689
 31
0.0
1001
REVIT
1002
{
1070
     2
1000
-2001160
1002
}
  0
LINE
  5
423
330
3C2
100
AcDbEntity
  8
D35160152
100
AcDbLine
 10
0.4116689416482044
 20
8.074135698590641
 30
0.0
 11
1.014400887165011
 21
8.074135698590641
 31
0.0
1001
REVIT
1002
{
1070
     2
1000
-2001160
1002
}
  0
SPLINE
  5
424
330
3C2
100
AcDbEntity
  8
D35160152
100
AcDbSpline
210
0.0
220
0.0
230
1.0
 70
     8
 71
     3
 72
    10
 73
     6
 74
     0
 42
0.000000001
 43
0.0000000001
 40
-0.7059574666530038
 40
-0.7059574666530038
 40
-0.7059574666530038
 40
-0.7059574666530038
 40
-0.6666666666666666
 40
-0.3333333333333333
 40
0.0
 40
0.0
 40
0.0
 40
0.0
 10
0.4491353651859727
 20
6.387494305576108
 30
0.0
 10
0.4473951789395774
 20
6.312271218164465
 30
0.0
 10
0.4319036746402475
 20
5.598776893475346
 30
0.0
 10
0.4203033369385503
 20
4.245470102101741
 30
0.0
 10
0.4405439546522077
 20
2.968155040468079
 30
0.0
 10
0.4589660328032228
 20
2.330374948513965
 30
0.0
1001
REVIT
1002
{
1070
     2
1000
-2001160
1002
}
  0
SPLINE
  5
425
330
3C2
100
AcDbEntity
  8
D35160152
100
AcDbSpline
210
0.0
220
0.0
230
1.0
 70
     8
 71
     3
 72
    12
 73
     8
 74
     0
 42
0.000000001
 43
0.0000000001
 40
0.0
 40
0.0
 40
0.0
 40
0.0
 40
0.2
 40
0.4
 40
0.55
 40
0.7
 40
1.0
 40
1.0
 40
1.0
 40
1.0
 10
0.2215260203916389
 20
9.26996035368422
 30
0.0
 10
0.2146260989996382
 20
9.251911696029729
 30
0.0
 10
0.1971242849258471
 20
9.218285622734676
 30
0.0
 10
0.1626504088946457
 20
9.177502648610916
 30
0.0
 10
0.1241492262783205
 20
9.147969712260618
 30
0.0
 10
0.0722031870562169
 20
9.121680925401008
 30
0.0
 10
0.0295966339550719
 20
9.113466914141337
 30
0.0
 10
0.0000000000003395
 20
9.113355277571628
 30
0.0
1001
REVIT
1002
{
1070
     2
1000
-2001160
1002
}
  0
LINE
  5
426
330
3C2
100
AcDbEntity
  8
D35160152
100
AcDbLine
 10
0.196797122873964
 20
9.110015520276689
 30
0.0
 11
0.1719527380981815
 21
8.950156007564615
 31
0.0
1001
REVIT
1002
{
1070
     2
1000
-2001160
1002
}
  0
SPLINE
  5
427
330
3C2
100
AcDbEntity
  8
D35160152
100
AcDbSpline
210
0.0
220
0.0
230
1.0
 70
     8
 71
     3
 72
    13
 73
     9
 74
     0
 42
0.000000001
 43
0.0000000001
 40
0.0
 40
0.0
 40
0.0
 40
0.0
 40
0.2
 40
0.4
 40
0.55
 40
0.625
 40
0.7
 40
1.0
 40
1.0
 40
1.0
 40
1.0
 10
0.0000000000003395
 20
9.113355277571629
 30
0.0
 10
-0.0197622130079599
 20
9.113430261847604
 30
0.0
 10
-0.0577296237869131
 20
9.118213494197632
 30
0.0
 10
-0.1078195331453941
 20
9.137910907180776
 30
0.0
 10
-0.1420449862021351
 20
9.161234108294596
 30
0.0
 10
-0.1634800424808183
 20
9.180368468043567
 30
0.0
 10
-0.1930878783022043
 20
9.212439712280158
 30
0.0
 10
-0.2113570687504805
 20
9.243225943000059
 30
0.0
 10
-0.2216780673728686
 20
9.270353935092947
 30
0.0
1001
REVIT
1002
{
1070
     2
1000
-2001160
1002
}
  0
LINE
  5
428
330
3C2
100
AcDbEntity
  8
D35160152
100
AcDbLine
 10
0.1719527380981749
 20
8.950156007564624
 30
0.0
 11
0.171952738098187
 21
8.908329345539833
 31
0.0
1001
REVIT
1002
{
1070
     2
1000
-2001160
1002
}
  0
LINE
  5
429
330
3C2
100
AcDbEntity
  8
D35160152
100
AcDbLine
 10
-1.01440535850303
 20
8.074135698590641
 30
0.0
 11
-0.4115333624292765
 21
8.074135698590641
 31
0.0
1001
REVIT
1002
{
1070
     2
1000
-2001160
1002
}
  0
LINE
  5
42A
330
3C2
100
AcDbEntity
  8
D35160152
100
AcDbLine
 10
-0.2216780673728685
 20
9.270353935092947
 30
0.0
 11
-0.1969232006904371
 21
9.110210887718139
 31
0.0
1001
REVIT
1002
{
1070
     2
1000
-2001160
1002
}
  0
SPLINE
  5
42B
330
3C2
100
AcDbEntity
  8
D35160152
100
AcDbSpline
210
0.0
220
0.0
230
1.0
 70
     8
 71
     3
 72
     9
 73
     5
 74
     0
 42
0.000000001
 43
0.0000000001
 40
-1.0
 40
-1.0
 40
-1.0
 40
-1.0
 40
-0.5
 40
0.0
 40
0.0
 40
0.0
 40
0.0
 10
0.1719527380981942
 20
8.908329345539833
 30
0.0
 10
0.224325813365875
 20
8.799927707844956
 30
0.0
 10
0.340540328449515
 20
8.582184494938674
 30
0.0
 10
0.4556546759340453
 20
8.362561406999331
 30
0.0
 10
0.5072004435824016
 20
8.25227989427139
 30
0.0
1001
REVIT
1002
{
1070
     2
1000
-2001160
1002
}
  0
LINE
  5
42C
330
3C2
100
AcDbEntity
  8
D35160152
100
AcDbLine
 10
0.5072004435823997
 20
8.252279894271387
 30
0.0
 11
0.5072004435823997
 21
8.087343616170244
 31
0.0
1001
REVIT
1002
{
1070
     2
1000
-2001160
1002
}
  0
SPLINE
  5
42D
330
3C2
100
AcDbEntity
  8
D35160152
100
AcDbSpline
210
0.0
220
0.0
230
1.0
 70
     8
 71
     3
 72
    10
 73
     6
 74
     0
 42
0.000000001
 43
0.0000000001
 40
-0.7059601627317342
 40
-0.7059601627317342
 40
-0.7059601627317342
 40
-0.7059601627317342
 40
-0.6666666666666666
 40
-0.3333333333333333
 40
0.0
 40
0.0
 40
0.0
 40
0.0
 10
-0.4493393213001734
 20
6.38748113236872
 30
0.0
 10
-0.4475394595630747
 20
6.312252811205747
 30
0.0
 10
-0.4315128865581527
 20
5.598754492217285
 30
0.0
 10
-0.4202647898273449
 20
4.245480537008249
 30
0.0
 10
-0.4411683096628941
 20
2.968159774733306
 30
0.0
 10
-0.4590020441048852
 20
2.330374948513966
 30
0.0
1001
REVIT
1002
{
1070
     2
1000
-2001160
1002
}
  0
SPLINE
  5
42E
330
3C2
100
AcDbEntity
  8
D35160152
100
AcDbSpline
210
0.0
220
0.0
230
1.0
 70
     8
 71
     3
 72
     8
 73
     4
 74
     0
 42
0.000000001
 43
0.0000000001
 40
-1.0
 40
-1.0
 40
-1.0
 40
-1.0
 40
-0.9712261775517065
 40
-0.9712261775517065
 40
-0.9712261775517065
 40
-0.9712261775517065
 10
-0.5072236741310655
 20
8.074135698590641
 30
0.0
 10
-0.5047973016987939
 20
8.019206070221605
 30
0.0
 10
-0.5024204805007975
 20
7.964266328762387
 30
0.0
 10
-0.5000941264011738
 20
7.90931693540009
 30
0.0
1001
REVIT
1002
{
1070
     2
1000
-2001160
1002
}
  0
SPLINE
  5
42F
330
3C2
100
AcDbEntity
  8
D35160152
100
AcDbSpline
210
0.0
220
0.0
230
1.0
 70
     8
 71
     3
 72
     8
 73
     4
 74
     0
 42
0.000000001
 43
0.0000000001
 40
0.0
 40
0.0
 40
0.0
 40
0.0
 40
0.5
 40
0.5
 40
0.5
 40
0.5
 10
-0.2216780673728685
 20
9.270353935092947
 30
0.0
 10
-0.2289236982821202
 20
9.290374099612479
 30
0.0
 10
-0.2341264770762398
 20
9.310208645583067
 30
0.0
 10
-0.2372007119236789
 20
9.329857573004707
 30
0.0
1001
REVIT
1002
{
1070
     2
1000
-2001160
1002
}
  0
LINE
  5
430
330
3C2
100
AcDbEntity
  8
D35160152
100
AcDbLine
 10
-0.1969232006904371
 20
9.110210887718139
 30
0.0
 11
-0.1720525747313475
 21
8.950156007564613
 31
0.0
1001
REVIT
1002
{
1070
     2
1000
-2001160
1002
}
  0
LINE
  5
431
330
3C2
100
AcDbEntity
  8
D35160152
100
AcDbLine
 10
-0.3439378511758409
 20
8.950156007564624
 30
0.0
 11
0.3439054761963954
 21
8.950156007564624
 31
0.0
1001
REVIT
1002
{
1070
     2
1000
-2001160
1002
}
  0
SPLINE
  5
432
330
3C2
100
AcDbEntity
  8
D35160152
100
AcDbSpline
210
0.0
220
0.0
230
1.0
 70
     8
 71
     3
 72
     9
 73
     5
 74
     0
 42
0.000000001
 43
0.0000000001
 40
-1.0
 40
-1.0
 40
-1.0
 40
-1.0
 40
-0.5
 40
0.0
 40
0.0
 40
0.0
 40
0.0
 10
-0.1720525747313417
 20
8.908329345539833
 30
0.0
 10
-0.2312047928947611
 20
8.800684504462992
 30
0.0
 10
-0.3398975300445561
 20
8.583698088174749
 30
0.0
 10
-0.4480098945172543
 20
8.363318203617367
 30
0.0
 10
-0.5072236741310621
 20
8.25227989427139
 30
0.0
1001
REVIT
1002
{
1070
     2
1000
-2001160
1002
}
  0
LINE
  5
433
330
3C2
100
AcDbEntity
  8
D35160152
100
AcDbLine
 10
-0.1720525747313223
 20
8.950156007564624
 30
0.0
 11
-0.1720525747313146
 21
8.908329345539833
 31
0.0
1001
REVIT
1002
{
1070
     2
1000
-2001160
1002
}
  0
LINE
  5
434
330
3C2
100
AcDbEntity
  8
D35160152
100
AcDbLine
 10
-0.343937851175879
 20
8.908329345539833
 30
0.0
 11
0.3439054761964338
 21
8.908329345539833
 31
0.0
1001
REVIT
1002
{
1070
     2
1000
-2001160
1002
}
  0
LINE
  5
435
330
3C2
100
AcDbEntity
  8
D35160152
100
AcDbLine
 10
-0.5072236741310591
 20
8.252279894271387
 30
0.0
 11
-0.5072236741310591
 21
8.087343616170244
 31
0.0
1001
REVIT
1002
{
1070
     2
1000
-2001160
1002
}
  0
LINE
  5
436
330
3C2
100
AcDbEntity
  8
D35160152
100
AcDbLine
 10
-1.014405358503016
 20
8.252279894271387
 30
0.0
 11
1.014400887164937
 21
8.252279894271387
 31
0.0
1001
REVIT
1002
{
1070
     2
1000
-2001160
1002
}
  0
LINE
  5
437
330
3C2
100
AcDbEntity
  8
D35160152
100
AcDbLine
 10
0.4043953105940559
 20
8.087343616170244
 30
0.0
 11
1.014400887164937
 21
8.087343616170244
 31
0.0
1001
REVIT
1002
{
1070
     2
1000
-2001160
1002
}
  0
LINE
  5
438
330
3C2
100
AcDbEntity
  8
D35160152
100
AcDbLine
 10
-1.014405358503016
 20
8.087343616170244
 30
0.0
 11
-0.4043953798647156
 21
8.087343616170244
 31
0.0
1001
REVIT
1002
{
1070
     2
1000
-2001160
1002
}
  0
SPLINE
  5
439
330
3C2
100
AcDbEntity
  8
D35160152
100
AcDbSpline
210
0.0
220
0.0
230
1.0
 70
     8
 71
     3
 72
    10
 73
     6
 74
     0
 42
0.000000001
 43
0.0000000001
 40
-1.0
 40
-1.0
 40
-1.0
 40
-1.0
 40
-0.6666666666666666
 40
-0.3333333333333333
 40
0.0
 40
0.0
 40
0.0
 40
0.0
 10
-1.014405358503013
 20
8.074135698590641
 30
0.0
 10
-0.956767700653822
 20
7.437797717264779
 30
0.0
 10
-0.8728993128901587
 20
6.162407338860164
 30
0.0
 10
-0.8405322639598439
 20
4.245480536651649
 30
0.0
 10
-0.8816799992021849
 20
2.968159774566307
 30
0.0
 10
-0.9179394273703746
 20
2.330374948513964
 30
0.0
1001
REVIT
1002
{
1070
     2
1000
-2001160
1002
}
  0
SPLINE
  5
43A
330
3C2
100
AcDbEntity
  8
D35160152
100
AcDbSpline
210
0.0
220
0.0
230
1.0
 70
     8
 71
     3
 72
    10
 73
     6
 74
     0
 42
0.000000001
 43
0.0000000001
 40
-1.0
 40
-1.0
 40
-1.0
 40
-1.0
 40
-0.6666666666666666
 40
-0.3333333333333333
 40
0.0
 40
0.0
 40
0.0
 40
0.0
 10
-0.4593064225182623
 20
9.898660529099061
 30
0.0
 10
-0.4628648122852572
 20
9.898660529099061
 30
0.0
 10
-0.4699790286991278
 20
9.897736653757245
 30
0.0
 10
-0.4799430666460568
 20
9.893637195520273
 30
0.0
 10
-0.4856093038906006
 20
9.889248543680713
 30
0.0
 10
-0.4880961716474365
 20
9.886713301942199
 30
0.0
1001
REVIT
1002
{
1070
     2
1000
-2001160
1002
}
  0
SPLINE
  5
43B
330
3C2
100
AcDbEntity
  8
D35160152
100
AcDbSpline
210
0.0
220
0.0
230
1.0
 70
     8
 71
     3
 72
     9
 73
     5
 74
     0
 42
0.000000001
 43
0.0000000001
 40
-1.0
 40
-1.0
 40
-1.0
 40
-1.0
 40
-0.5
 40
0.0
 40
0.0
 40
0.0
 40
0.0
 10
-0.4880961716474361
 20
9.886713301942199
 30
0.0
 10
-0.503570536735411
 20
9.870900807598193
 30
0.0
 10
-0.5345030940211424
 20
9.839248505208738
 30
0.0
 10
-0.5653908047751927
 20
9.807541575416383
 30
0.0
 10
-0.5808208199139287
 20
9.791674453669481
 30
0.0
1001
REVIT
1002
{
1070
     2
1000
-2001160
1002
}
  0
SPLINE
  5
43C
330
3C2
100
AcDbEntity
  8
D35160152
100
AcDbSpline
210
0.0
220
0.0
230
1.0
 70
     8
 71
     3
 72
     9
 73
     5
 74
     0
 42
0.000000001
 43
0.0000000001
 40
-1.0
 40
-1.0
 40
-1.0
 40
-1.0
 40
-0.5
 40
0.0
 40
0.0
 40
0.0
 40
0.0
 10
-0.5808208199139284
 20
9.791674453669481
 30
0.0
 10
-0.5858954805597012
 20
9.786462654463916
 30
0.0
 10
-0.5932573941618956
 20
9.773343486254324
 30
0.0
 10
-0.5928567041051199
 20
9.758308643117571
 30
0.0
 10
-0.5907396827255646
 20
9.751375660532769
 30
0.0
1001
REVIT
1002
{
1070
     2
1000
-2001160
1002
}
  0
SPLINE
  5
43D
330
3C2
100
AcDbEntity
  8
D35160152
100
AcDbSpline
210
0.0
220
0.0
230
1.0
 70
     8
 71
     3
 72
     9
 73
     5
 74
     0
 42
0.000000001
 43
0.0000000001
 40
-1.0
 40
-1.0
 40
-1.0
 40
-1.0
 40
-0.5
 40
0.0
 40
0.0
 40
0.0
 40
0.0
 10
-0.5907396827255659
 20
9.751375660532769
 30
0.0
 10
-0.5500371378990728
 20
9.617713289500629
 30
0.0
 10
-0.4681211688970692
 20
9.350514309640466
 30
0.0
 10
-0.385404516174711
 20
9.08356685418853
 30
0.0
 10
-0.3439378511758726
 20
8.950156007564615
 30
0.0
1001
REVIT
1002
{
1070
     2
1000
-2001160
1002
}
  0
LINE
  5
43E
330
3C2
100
AcDbEntity
  8
D35160152
100
AcDbLine
 10
-0.3439378511758395
 20
8.950156007564622
 30
0.0
 11
-0.3439378511758431
 21
8.908329345539831
 31
0.0
1001
REVIT
1002
{
1070
     2
1000
-2001160
1002
}
  0
SPLINE
  5
43F
330
3C2
100
AcDbEntity
  8
D35160152
100
AcDbSpline
210
0.0
220
0.0
230
1.0
 70
     8
 71
     3
 72
     9
 73
     5
 74
     0
 42
0.000000001
 43
0.0000000001
 40
-1.0
 40
-1.0
 40
-1.0
 40
-1.0
 40
-0.5
 40
0.0
 40
0.0
 40
0.0
 40
0.0
 10
-0.3439378511758773
 20
8.908329345539831
 30
0.0
 10
-0.4551863117616139
 20
8.800684453252911
 30
0.0
 10
-0.6795989965697002
 20
8.58369798575458
 30
0.0
 10
-0.9031720386402916
 20
8.363318152407281
 30
0.0
 10
-1.014405358503018
 20
8.25227989427139
 30
0.0
1001
REVIT
1002
{
1070
     2
1000
-2001160
1002
}
  0
LINE
  5
440
330
3C2
100
AcDbEntity
  8
D35160152
100
AcDbLine
 10
-1.014405358503014
 20
8.252279894271385
 30
0.0
 11
-1.014405358503014
 21
8.087343616170244
 31
0.0
1001
REVIT
1002
{
1070
     2
1000
-2001160
1002
}
  0
ELLIPSE
  5
441
330
3C2
100
AcDbEntity
  8
D35160152
100
AcDbEllipse
 10
0.0000000000003503
 20
10.08857959914704
 30
0.0
 11
0.352284336481705
 21
0.0
 31
0.0
210
0.0
220
0.0
230
1.0
 40
0.9743700647852362
 41
1.570796326794893
 42
4.712388980384677
1001
REVIT
1002
{
1070
     2
1000
-2001160
1002
}
  0
ELLIPSE
  5
442
330
3C2
100
AcDbEntity
  8
D35160152
100
AcDbEllipse
 10
0.0000000000003503
 20
10.08857959914704
 30
0.0
 11
-0.3522843364817051
 21
0.0000000000000023
 31
0.0
210
0.0
220
0.0
230
1.0
 40
0.9743700647852358
 41
1.570796326794897
 42
4.712388980384681
1001
REVIT
1002
{
1070
     2
1000
-2001160
1002
}
  0
ELLIPSE
  5
443
330
3C2
100
AcDbEntity
  8
D35160152
100
AcDbEllipse
 10
0.0000000000003506
 20
10.12166406093475
 30
0.0
 11
-0.2837025823639188
 21
0.0000000000000005
 31
0.0
210
0.0
220
0.0
230
1.0
 40
0.9743700647852355
 41
4.712388980384682
 42
7.85398163397448
1001
REVIT
1002
{
1070
     2
1000
-2001160
1002
}
  0
ELLIPSE
  5
444
330
3C2
100
AcDbEntity
  8
D35160152
100
AcDbEllipse
 10
0.0000000000003506
 20
10.12166406093475
 30
0.0
 11
0.2837025823639175
 21
0.0
 31
0.0
210
0.0
220
0.0
230
1.0
 40
0.9743700647852339
 41
4.712388980384676
 42
7.853981633974473
1001
REVIT
1002
{
1070
     2
1000
-2001160
1002
}
  0
LINE
  5
445
330
3C2
100
AcDbEntity
  8
D35160152
100
AcDbLine
 10
0.6767685354505381
 20
7.592975209156156
 30
0.0
 11
0.3867271826733862
 21
8.117067043429816
 31
0.0
1001
REVIT
1002
{
1070
     2
1000
-2001160
1002
}
  0
LINE
  5
446
330
3C2
100
AcDbEntity
  8
D35160152
100
AcDbLine
 10
0.3685486568277922
 20
8.135240150693242
 30
0.0
 11
-0.3685486568271207
 21
8.135240150693254
 31
0.0
1001
REVIT
1002
{
1070
     2
1000
-2001160
1002
}
  0
LINE
  5
447
330
3C2
100
AcDbEntity
  8
D35160152
100
AcDbLine
 10
-0.3867271826727241
 20
8.117067043429816
 30
0.0
 11
-0.6767685354498846
 21
7.592975209156189
 31
0.0
1001
REVIT
1002
{
1070
     2
1000
-2001160
1002
}
  0
LINE
  5
448
330
3C2
100
AcDbEntity
  8
D35160152
100
AcDbLine
 10
-0.4315961446488127
 20
6.724297100706972
 30
0.0
 11
-0.3867840186263329
 21
6.615673738036147
 31
0.0
1001
REVIT
1002
{
1070
     2
1000
-2001160
1002
}
  0
LINE
  5
449
330
3C2
100
AcDbEntity
  8
D35160152
100
AcDbLine
 10
0.386784018626963
 20
6.615673738036139
 30
0.0
 11
0.4315961446494442
 21
6.724297100706963
 31
0.0
1001
REVIT
1002
{
1070
     2
1000
-2001160
1002
}
  0
SPLINE
  5
44A
330
3C2
100
AcDbEntity
  8
D35160152
100
AcDbSpline
210
0.0
220
0.0
230
1.0
 70
     8
 71
     3
 72
     9
 73
     5
 74
     0
 42
0.000000001
 43
0.0000000001
 40
0.0621028917646738
 40
0.0621028917646738
 40
0.0621028917646738
 40
0.0621028917646738
 40
0.0909090909090909
 40
0.177297822418976
 40
0.177297822418976
 40
0.177297822418976
 40
0.177297822418976
 10
0.453987984448227
 20
6.392574988772412
 30
0.0
 10
0.4521660092425195
 20
6.420927985308725
 30
0.0
 10
0.444880015940216
 20
6.529726915505316
 30
0.0
 10
0.4375942110664792
 20
6.621006388982062
 30
0.0
 10
0.4321298691900332
 20
6.680980856391273
 30
0.0
1001
REVIT
1002
{
1070
     2
1000
-2001160
1002
}
  0
SPLINE
  5
44B
330
3C2
100
AcDbEntity
  8
D35160152
100
AcDbSpline
210
0.0
220
0.0
230
1.0
 70
     8
 71
     3
 72
     9
 73
     5
 74
     0
 42
0.000000001
 43
0.0000000001
 40
0.822702177581022
 40
0.822702177581022
 40
0.822702177581022
 40
0.822702177581022
 40
0.9090909090909089
 40
0.9384453982680266
 40
0.9384453982680266
 40
0.9384453982680266
 40
0.9384453982680266
 10
-0.4321298691893994
 20
6.680980856415294
 30
0.0
 10
-0.4375942110658716
 20
6.621006389144057
 30
0.0
 10
-0.4449147071423523
 20
6.534318166178074
 30
0.0
 10
-0.4522353581694323
 20
6.416476467616765
 30
0.0
 10
-0.4540920079407376
 20
6.385770078658521
 30
0.0
1001
REVIT
1002
{
1070
     2
1000
-2001160
1002
}
  0
SPLINE
  5
44C
330
3C2
100
AcDbEntity
  8
D35160152
100
AcDbSpline
210
0.0
220
0.0
230
1.0
 70
     8
 71
     3
 72
    10
 73
     6
 74
     0
 42
0.000000001
 43
0.0000000001
 40
0.0405479013538496
 40
0.0405479013538496
 40
0.0405479013538496
 40
0.0405479013538496
 40
0.2
 40
0.4
 40
0.4929562126392222
 40
0.4929562126392222
 40
0.4929562126392222
 40
0.4929562126392222
 10
0.7941655753522486
 20
6.891057436000093
 30
0.0
 10
0.7803733088347322
 20
7.053768654417789
 30
0.0
 10
0.749281496203759
 20
7.338459666969488
 30
0.0
 10
0.7101487754461248
 20
7.51803320419955
 30
0.0
 10
0.6848091724548146
 20
7.578718249918909
 30
0.0
 10
0.6767685806668812
 20
7.593018776029702
 30
0.0
1001
REVIT
1002
{
1070
     2
1000
-2001160
1002
}
  0
SPLINE
  5
44D
330
3C2
100
AcDbEntity
  8
D35160152
100
AcDbSpline
210
0.0
220
0.0
230
1.0
 70
     8
 71
     3
 72
    13
 73
     9
 74
     0
 42
0.000000001
 43
0.0000000001
 40
0.5
 40
0.5
 40
0.5
 40
0.5
 40
0.6
 40
0.7
 40
0.8
 40
0.85
 40
0.9
 40
1.0
 40
1.0
 40
1.0
 40
1.0
 10
0.6749407411449324
 20
7.596184581839047
 30
0.0
 10
0.666290829603751
 20
7.610688488828394
 30
0.0
 10
0.6489904120071551
 20
7.628087431541374
 30
0.0
 10
0.623049037290587
 20
7.592122489410412
 30
0.0
 10
0.6013590521395568
 20
7.490893523586112
 30
0.0
 10
0.5840924161153209
 20
7.356356337697015
 30
0.0
 10
0.5668267992245517
 20
7.1732078059233
 30
0.0
 10
0.5538481124247899
 20
6.952880646949568
 30
0.0
 10
0.5451933746282347
 20
6.746844818967262
 30
0.0
1001
REVIT
1002
{
1070
     2
1000
-2001160
1002
}
  0
LINE
  5
44E
330
3C2
100
AcDbEntity
  8
D35160152
100
AcDbLine
 10
0.5451933746313102
 20
6.746844818969164
 30
0.0
 11
0.4045616290039788
 21
6.663179762311691
 31
0.0
1001
REVIT
1002
{
1070
     2
1000
-2001160
1002
}
  0
SPLINE
  5
44F
330
3C2
100
AcDbEntity
  8
D35160152
100
AcDbSpline
210
0.0
220
0.0
230
1.0
 70
     8
 71
     3
 72
     8
 73
     4
 74
     0
 42
0.000000001
 43
0.0000000001
 40
0.5
 40
0.5
 40
0.5
 40
0.5
 40
0.5407962262831465
 40
0.5407962262831465
 40
0.5407962262831465
 40
0.5407962262831465
 10
0.38424344141742
 20
8.121316837999099
 30
0.0
 10
0.3812973965591631
 20
8.126089370738981
 30
0.0
 10
0.3783513517009063
 20
8.129869003885122
 30
0.0
 10
0.3754053068426494
 20
8.132288064827806
 30
0.0
1001
REVIT
1002
{
1070
     2
1000
-2001160
1002
}
  0
SPLINE
  5
450
330
3C2
100
AcDbEntity
  8
D35160152
100
AcDbSpline
210
0.0
220
0.0
230
1.0
 70
     8
 71
     3
 72
    17
 73
    13
 74
     0
 42
0.000000001
 43
0.0000000001
 40
0.55
 40
0.55
 40
0.55
 40
0.55
 40
0.6
 40
0.65
 40
0.7
 40
0.75
 40
0.8
 40
0.825
 40
0.85
 40
0.9
 40
0.95
 40
1.0
 40
1.0
 40
1.0
 40
1.0
 10
0.3734113922550423
 20
8.133713342280451
 30
0.0
 10
0.3698007092009164
 20
8.135902627801224
 30
0.0
 10
0.3625793430926645
 20
8.135943798556477
 30
0.0
 10
0.3517472939302863
 20
8.116163949134124
 30
0.0
 10
0.3409152447679081
 20
8.068389787480631
 30
0.0
 10
0.3300831956055297
 20
7.983426037156186
 30
0.0
 10
0.3210564879702138
 20
7.881257529849905
 30
0.0
 10
0.3138351218619612
 20
7.782544887833478
 30
0.0
 10
0.3066137557537083
 20
7.670221772790819
 30
0.0
 10
0.2975870481183926
 20
7.495086445647356
 30
0.0
 10
0.2867549989560124
 20
7.23647362080135
 30
0.0
 10
0.2795336328477588
 20
7.025078528847171
 30
0.0
 10
0.2759229497936318
 20
6.906723791154558
 30
0.0
1001
REVIT
1002
{
1070
     2
1000
-2001160
1002
}
  0
LINE
  5
451
330
3C2
100
AcDbEntity
  8
D35160152
100
AcDbLine
 10
0.2759229497936318
 20
6.906723791154558
 30
0.0
 11
0.4105589962393602
 21
6.826784471147234
 31
0.0
1001
REVIT
1002
{
1070
     2
1000
-2001160
1002
}
  0
LINE
  5
452
330
3C2
100
AcDbEntity
  8
D35160152
100
AcDbLine
 10
0.4105589962393602
 20
6.826784471147234
 30
0.0
 11
0.5451933746282349
 21
6.746844818967262
 31
0.0
1001
REVIT
1002
{
1070
     2
1000
-2001160
1002
}
  0
SPLINE
  5
453
330
3C2
100
AcDbEntity
  8
D35160152
100
AcDbSpline
210
0.0
220
0.0
230
1.0
 70
     8
 71
     3
 72
     8
 73
     4
 74
     0
 42
0.000000001
 43
0.0000000001
 40
0.5
 40
0.5
 40
0.5
 40
0.5
 40
0.5407962262831073
 40
0.5407962262831073
 40
0.5407962262831073
 40
0.5407962262831073
 10
-0.3842434414167526
 20
8.121316837999106
 30
0.0
 10
-0.3812973965584981
 20
8.126131581926347
 30
0.0
 10
-0.3783513517002435
 20
8.130013312574286
 30
0.0
 10
-0.3754053068419891
 20
8.132468545182478
 30
0.0
1001
REVIT
1002
{
1070
     2
1000
-2001160
1002
}
  0
SPLINE
  5
454
330
3C2
100
AcDbEntity
  8
D35160152
100
AcDbSpline
210
0.0
220
0.0
230
1.0
 70
     8
 71
     3
 72
    17
 73
    13
 74
     0
 42
0.000000001
 43
0.0000000001
 40
0.55
 40
0.55
 40
0.55
 40
0.55
 40
0.6
 40
0.65
 40
0.7
 40
0.75
 40
0.8
 40
0.825
 40
0.85
 40
0.9
 40
0.95
 40
1.0
 40
1.0
 40
1.0
 40
1.0
 10
-0.3734113922543733
 20
8.13390606216296
 30
0.0
 10
-0.3698007092002468
 20
8.136095322103432
 30
0.0
 10
-0.3625793430919941
 20
8.135854367974529
 30
0.0
 10
-0.3517472939296151
 20
8.116187914717695
 30
0.0
 10
-0.3409152447672362
 20
8.068383355728343
 30
0.0
 10
-0.3300831956048575
 20
7.983427798581851
 30
0.0
 10
-0.3210564879695425
 20
7.881257311795618
 30
0.0
 10
-0.3138351218612903
 20
7.782544928046102
 30
0.0
 10
-0.3066137557530383
 20
7.670221749569464
 30
0.0
 10
-0.2975870481177236
 20
7.495086453576616
 30
0.0
 10
-0.2867549989553464
 20
7.236473618535858
 30
0.0
 10
-0.2795336328470955
 20
7.025078528847187
 30
0.0
 10
-0.2759229497929702
 20
6.906723791154569
 30
0.0
1001
REVIT
1002
{
1070
     2
1000
-2001160
1002
}
  0
LINE
  5
455
330
3C2
100
AcDbEntity
  8
D35160152
100
AcDbLine
 10
-0.2759229497929702
 20
6.906723791154569
 30
0.0
 11
0.2759229497936318
 21
6.906723791154559
 31
0.0
1001
REVIT
1002
{
1070
     2
1000
-2001160
1002
}
  0
LINE
  5
456
330
3C2
100
AcDbEntity
  8
D35160152
100
AcDbLine
 10
-0.4045616289968165
 20
6.663179762307875
 30
0.0
 11
-0.5451933746243184
 21
6.746844818965455
 31
0.0
1001
REVIT
1002
{
1070
     2
1000
-2001160
1002
}
  0
SPLINE
  5
457
330
3C2
100
AcDbEntity
  8
D35160152
100
AcDbSpline
210
0.0
220
0.0
230
1.0
 70
     8
 71
     3
 72
    14
 73
    10
 74
     0
 42
0.000000001
 43
0.0000000001
 40
-1.0
 40
-1.0
 40
-1.0
 40
-1.0
 40
-0.9
 40
-0.85
 40
-0.8
 40
-0.75
 40
-0.7
 40
-0.6
 40
-0.5
 40
-0.5
 40
-0.5
 40
-0.5
 10
-0.5451933746276039
 20
6.746844818967281
 30
0.0
 10
-0.553848179152433
 20
6.952855779688929
 30
0.0
 10
-0.5668266899765233
 20
7.173088850823732
 30
0.0
 10
-0.5840925759792328
 20
7.356562885644241
 30
0.0
 10
-0.5970414632797651
 20
7.457149854957337
 30
0.0
 10
-0.6100385913233632
 20
7.531615954181212
 30
0.0
 10
-0.6273705531143808
 20
7.597983377182519
 30
0.0
 10
-0.6489911061843547
 20
7.628132633895949
 30
0.0
 10
-0.6662909397140738
 20
7.6106956590481
 30
0.0
 10
-0.6749407411442869
 20
7.596184581839063
 30
0.0
1001
REVIT
1002
{
1070
     2
1000
-2001160
1002
}
  0
SPLINE
  5
458
330
3C2
100
AcDbEntity
  8
D35160152
100
AcDbSpline
210
0.0
220
0.0
230
1.0
 70
     8
 71
     3
 72
    10
 73
     6
 74
     0
 42
0.000000001
 43
0.0000000001
 40
-0.4929562126392639
 40
-0.4929562126392639
 40
-0.4929562126392639
 40
-0.4929562126392639
 40
-0.4
 40
-0.2
 40
-0.0397490638587044
 40
-0.0397490638587044
 40
-0.0397490638587044
 40
-0.0397490638587044
 10
-0.6767685603453791
 20
7.593031741742793
 30
0.0
 10
-0.6848090738201055
 20
7.578781174941082
 30
0.0
 10
-0.7101488776779699
 20
7.516548872629472
 30
0.0
 10
-0.7493505644673643
 20
7.348385032775425
 30
0.0
 10
-0.7805115042571651
 20
7.03549773945787
 30
0.0
 10
-0.7943728702211477
 20
6.879050269183658
 30
0.0
1001
REVIT
1002
{
1070
     2
1000
-2001160
1002
}
  0
LINE
  5
459
330
3C2
100
AcDbEntity
  8
D35160152
100
AcDbLine
 10
-0.5451933746276039
 20
6.746844818967281
 30
0.0
 11
-0.4105589962387153
 21
6.826784471147251
 31
0.0
1001
REVIT
1002
{
1070
     2
1000
-2001160
1002
}
  0
LINE
  5
45A
330
3C2
100
AcDbEntity
  8
D35160152
100
AcDbLine
 10
-0.4105589962387153
 20
6.826784471147251
 30
0.0
 11
-0.2759229497929701
 21
6.906723791154569
 31
0.0
1001
REVIT
1002
{
1070
     2
1000
-2001160
1002
}
  0
ELLIPSE
  5
45B
330
3C2
100
AcDbEntity
  8
D35160152
100
AcDbEllipse
 10
0.0000000000003156
 20
6.745125372263412
 30
0.0
 11
0.435871280482501
 21
0.0
 31
0.0
210
0.0
220
0.0
230
1.0
 40
0.3420201433256722
 41
1.570796326794899
 42
3.399800811578933
1001
REVIT
1002
{
1070
     2
1000
-2001160
1002
}
  0
ELLIPSE
  5
45C
330
3C2
100
AcDbEntity
  8
D35160152
100
AcDbEllipse
 10
0.0000000000003156
 20
6.745125372263411
 30
0.0
 11
-0.4358712804825016
 21
0.0000000000000035
 31
0.0
210
0.0
220
0.0
230
1.0
 40
0.3420201433256722
 41
2.883384495600618
 42
4.71238898038469
1001
REVIT
1002
{
1070
     2
1000
-2001160
1002
}
  0
ELLIPSE
  5
45D
330
3C2
100
AcDbEntity
  8
D35160152
100
AcDbEllipse
 10
0.0000000000003145
 20
6.634339434367134
 30
0.0
 11
-0.3906152720757505
 21
0.0000000000000035
 31
0.0
210
0.0
220
0.0
230
1.0
 40
0.3420201433256723
 41
4.712388980384684
 42
7.853981633974481
1001
REVIT
1002
{
1070
     2
1000
-2001160
1002
}
  0
ELLIPSE
  5
45E
330
3C2
100
AcDbEntity
  8
D35160152
100
AcDbEllipse
 10
0.0000000000003145
 20
6.634339434367137
 30
0.0
 11
-0.3906152720757524
 21
0.000000000000004
 31
0.0
210
0.0
220
0.0
230
1.0
 40
0.3420201433256752
 41
1.570796326794894
 42
4.712388980384679
1001
REVIT
1002
{
1070
     2
1000
-2001160
1002
}
  0
LINE
  5
45F
330
3C2
100
AcDbEntity
  8
D35160152
100
AcDbLine
 10
-0.7496268694356211
 20
8.074135698590648
 30
0.0
 11
-0.7486381077690677
 21
8.083705094345781
 31
0.0
1001
REVIT
1002
{
1070
     1
1000
61737
1002
}
1002
{
1070
     2
1000
-2001160
1002
}
  0
LINE
  5
460
330
3C2
100
AcDbEntity
  8
D35160152
100
AcDbLine
 10
0.7481376822528642
 20
8.087343616170251
 30
0.0
 11
0.7496070886575982
 21
8.074135698590648
 31
0.0
1001
REVIT
1002
{
1070
     1
1000
61737
1002
}
1002
{
1070
     2
1000
-2001160
1002
}
  0
ENDBLK
  5
3C4
330
3C2
100
AcDbEntity
  8
0
100
AcDbBlockEnd
  0
BLOCK
  5
463
330
462
100
AcDbEntity
  8
0
100
AcDbBlockBegin
  2
D35160152 Side View
 70
     0
 10
0.0
 20
0.0
 30
0.0
  3
D35160152 Side View
  1

  0
LWPOLYLINE
  5
465
330
462
100
AcDbEntity
  8
D35160152
100
AcDbPolyline
 90
        5
 70
   128
 43
0.0
 10
-1.133711894103949
 20
0.3261939176297328
 10
-1.034056964081354
 20
0.8588695913758169
 10
-0.9557830929040136
 20
1.395104315698642
 10
-0.8990155020682664
 20
1.934040229429923
 10
-0.8711140030527815
 20
2.33037494851253
1001
REVIT
1002
{
1070
     2
1000
-2001160
1002
}
  0
LWPOLYLINE
  5
466
330
462
100
AcDbEntity
  8
D35160152
100
AcDbPolyline
 90
        5
 70
   128
 43
0.0
 10
0.8711140030547213
 20
2.33037494851253
 10
0.9120547505825182
 20
1.790006246910994
 10
0.9745717344714126
 20
1.251706975869223
 10
1.058564940883433
 20
0.7163382993898349
 10
1.133711894105889
 20
0.3261939176297195
1001
REVIT
1002
{
1070
     2
1000
-2001160
1002
}
  0
LINE
  5
467
330
462
100
AcDbEntity
  8
D35160152
100
AcDbLine
 10
-1.192578901110024
 20
0.3261939176297302
 30
0.0
 11
-1.192578901110024
 21
0.2483436452417462
 31
0.0
1001
REVIT
1002
{
1070
     2
1000
-2001160
1002
}
  0
LINE
  5
468
330
462
100
AcDbEntity
  8
D35160152
100
AcDbLine
 10
1.192578901110035
 20
0.2483436452417129
 30
0.0
 11
1.192578901110035
 21
0.3261939176296968
 31
0.0
1001
REVIT
1002
{
1070
     2
1000
-2001160
1002
}
  0
LWPOLYLINE
  5
469
330
462
100
AcDbEntity
  8
D35160152
100
AcDbPolyline
 90
       35
 70
   128
 43
0.0
 10
-1.257794113403964
 20
0.2269956496101948
 10
-1.257511219868963
 20
0.2280742980384327
 10
-1.25718541818615
 20
0.2291407709388686
 10
-1.256817229568714
 20
0.2301933621823606
 10
-1.256407243039905
 20
0.2312303878474637
 10
-1.255956114490707
 20
0.2322501889143311
 10
-1.255464565630564
 20
0.233251133918803
 10
-1.254933382832795
 20
0.234231621562395
 10
-1.254363415876561
 20
0.2351900832740392
 10
-1.253755576587405
 20
0.2361249857194563
 10
-1.253110837378528
 20
0.2370348332541698
 10
-1.252430229695125
 20
0.2379181703162116
 10
-1.2517148423643
 20
0.2387735837547213
 10
-1.250965819853178
 20
0.2395997050906728
 10
-1.250184360437991
 20
0.2403952127061604
 10
-1.249371714287097
 20
0.2411588339586992
 10
-1.248529181460991
 20
0.2418893472171797
 10
-1.247658109832457
 20
0.2425855838162241
 10
-1.246759892930285
 20
0.2432464299257975
 10
-1.245835967709904
 20
0.2438708283330973
 10
-1.244887812254585
 20
0.2444577801338668
 10
-1.243916943410784
 20
0.2450063463304384
 10
-1.242924914361545
 20
0.2455156493339172
 10
-1.241913312141726
 20
0.2459848743681434
 10
-1.24088375509908
 20
0.2464132707731561
 10
-1.239837890305256
 20
0.2468001532060968
 10
-1.238777390920809
 20
0.2471449027376018
 10
-1.237703953518526
 20
0.2474469678419633
 10
-1.236619295369269
 20
0.2477058652794517
 10
-1.235525151694695
 20
0.247921180869396
 10
-1.234423272891277
 20
0.2480925701527827
 10
-1.233315421730043
 20
0.248219758943321
 10
-1.232203370536524
 20
0.2483025437660766
 10
-1.231088898355402
 20
0.2483407921829943
 10
-1.230690051521154
 20
0.2483436452417462
1001
REVIT
1002
{
1070
     2
1000
-2001160
1002
}
  0
LWPOLYLINE
  5
46A
330
462
100
AcDbEntity
  8
D35160152
100
AcDbPolyline
 90
        3
 70
   128
 43
0.0
 10
0.0000000000000036
 20
0.2483436452417436
 10
-1.212783178971005
 20
0.2483436452417476
 10
-1.230690051521154
 20
0.2483436452417462
1001
REVIT
1002
{
1070
     2
1000
-2001160
1002
}
  0
LWPOLYLINE
  5
46B
330
462
100
AcDbEntity
  8
D35160152
100
AcDbPolyline
 90
        2
 70
   128
 43
0.0
 10
-1.230690051521154
 20
0.2483436452417462
 10
-1.186045829108156
 20
0.2483436452417436
1001
REVIT
1002
{
1070
     2
1000
-2001160
1002
}
  0
LWPOLYLINE
  5
46C
330
462
100
AcDbEntity
  8
D35160152
100
AcDbPolyline
 90
       35
 70
   128
 43
0.0
 10
1.230690051521165
 20
0.2483436452417129
 10
1.23180495682913
 20
0.2483213441619967
 10
1.232918078526436
 20
0.2482544765998187
 10
1.234027635855822
 20
0.2481431495290154
 10
1.235131853762252
 20
0.2479875410491499
 10
1.236228965732628
 20
0.2477879001005958
 10
1.237317216621839
 20
0.2475445460662826
 10
1.238394865460611
 20
0.2472578682607549
 10
1.239460188240684
 20
0.2469283253073426
 10
1.240511480672868
 20
0.2465564444044748
 10
1.241547060913537
 20
0.2461428204822671
 10
1.242565272255216
 20
0.2456881152507571
 10
1.243564485776966
 20
0.2451930561413198
 10
1.244543102950306
 20
0.2446584351429191
 10
1.245499558196518
 20
0.24408510753511
 10
1.246432321391246
 20
0.2434739905197578
 10
1.247339900312351
 20
0.2428260617537272
 10
1.248220843027169
 20
0.2421423577848245
 10
1.24907374021528
 20
0.2414239723935478
 10
1.249897227423124
 20
0.2406720548432804
 10
1.250689987246836
 20
0.2398878080416982
 10
1.251450751439817
 20
0.2390724866163885
 10
1.252178302941638
 20
0.2382273949077083
 10
1.252871477825102
 20
0.2373538848821097
 10
1.253529167158268
 20
0.2364533539692994
 10
1.254150318778496
 20
0.2355272428266322
 10
1.254733938975704
 20
0.2345770330343757
 10
1.255279094082073
 20
0.2336042447255002
 10
1.255784911965728
 20
0.2326104341537809
 10
1.256250583425956
 20
0.2315971912041308
 10
1.256675363487758
 20
0.2305661368491247
 10
1.257058572593653
 20
0.229518920555779
 10
1.257399597690815
 20
0.228457217646773
 10
1.257697893211837
 20
0.2273827266202752
 10
1.257794113403974
 20
0.2269956496101602
1001
REVIT
1002
{
1070
     2
1000
-2001160
1002
}
  0
LWPOLYLINE
  5
46D
330
462
100
AcDbEntity
  8
D35160152
100
AcDbPolyline
 90
        2
 70
   128
 43
0.0
 10
1.186045829108165
 20
0.2483436452417103
 10
1.230690051521165
 20
0.2483436452417129
1001
REVIT
1002
{
1070
     2
1000
-2001160
1002
}
  0
LWPOLYLINE
  5
46E
330
462
100
AcDbEntity
  8
D35160152
100
AcDbPolyline
 90
        4
 70
   128
 43
0.0
 10
1.230690051521165
 20
0.2483436452417129
 10
1.221839711209652
 20
0.2483436452417143
 10
0.0132866738586763
 20
0.2483436452417409
 10
0.0000000000000107
 20
0.2483436452417436
1001
REVIT
1002
{
1070
     2
1000
-2001160
1002
}
  0
LINE
  5
46F
330
462
100
AcDbEntity
  8
D35160152
100
AcDbLine
 10
-1.257794113403964
 20
0.2269956496101948
 30
0.0
 11
-1.3125
 21
0.0000000000000175
 31
0.0
1001
REVIT
1002
{
1070
     2
1000
-2001160
1002
}
  0
LINE
  5
470
330
462
100
AcDbEntity
  8
D35160152
100
AcDbLine
 10
1.312500000000003
 20
-0.0000000000000171
 30
0.0
 11
1.257794113403971
 21
0.2269956496101602
 31
0.0
1001
REVIT
1002
{
1070
     2
1000
-2001160
1002
}
  0
LWPOLYLINE
  5
471
330
462
100
AcDbEntity
  8
D35160152
100
AcDbPolyline
 90
        5
 70
   128
 43
0.0
 10
-0.871114003052785
 20
2.33037494851279
 10
-0.814333383074711
 20
3.923766554695153
 10
-0.8213168509661521
 20
5.518154236732906
 10
-0.8920532346682001
 20
7.110987314452686
 10
-0.9658748094531155
 20
8.074135698589469
1001
REVIT
1002
{
1070
     2
1000
-2001160
1002
}
  0
LWPOLYLINE
  5
472
330
462
100
AcDbEntity
  8
D35160152
100
AcDbPolyline
 90
       22
 70
   128
 43
0.0
 10
-0.4528318065495398
 20
9.886713301941028
 10
-0.4517685381436217
 20
9.887798413015016
 10
-0.4506627273696538
 20
9.888840136720268
 10
-0.4495161432889781
 20
9.889836806521079
 10
-0.4483306201915341
 20
9.890786827958381
 10
-0.4471080546613777
 20
9.891688681200532
 10
-0.4458504025425541
 20
9.892540923474731
 10
-0.4445596758101793
 20
9.893342191375143
 10
-0.4432379393516719
 20
9.894091203044053
 10
-0.4418873076634178
 20
9.894786760222576
 10
-0.4405099414679974
 20
9.895427750167597
 10
-0.4391080442574982
 20
9.896013147431943
 10
-0.4376838587684056
 20
9.896542015504872
 10
-0.436239663393689
 20
9.897013508310287
 10
-0.4347777685378738
 20
9.897426871560275
 10
-0.4333005129208694
 20
9.89778144396182
 10
-0.4318102598365315
 20
9.898076658274714
 10
-0.4303093933718998
 20
9.898312042219034
 10
-0.4288003145931399
 20
9.898487219230679
 10
-0.4272854377043842
 20
9.898601909063803
 10
-0.4257671861854995
 20
9.898655928239138
 10
-0.4251760126303026
 20
9.898660529097892
1001
REVIT
1002
{
1070
     2
1000
-2001160
1002
}
  0
LWPOLYLINE
  5
473
330
462
100
AcDbEntity
  8
D35160152
100
AcDbPolyline
 90
        3
 70
   128
 43
0.0
 10
-0.3977484687447195
 20
9.898660529097892
 10
-0.4061736236808145
 20
9.898660529097892
 10
-0.4251760126303026
 20
9.898660529097892
1001
REVIT
1002
{
1070
     2
1000
-2001160
1002
}
  0
LWPOLYLINE
  5
474
330
462
100
AcDbEntity
  8
D35160152
100
AcDbPolyline
 90
        2
 70
   128
 43
0.0
 10
-0.4251760126303026
 20
9.898660529097892
 10
-0.4068956608352999
 20
9.898660529097892
1001
REVIT
1002
{
1070
     2
1000
-2001160
1002
}
  0
LINE
  5
475
330
462
100
AcDbEntity
  8
D35160152
100
AcDbLine
 10
-0.4528318065495398
 20
9.886713301941028
 30
0.0
 11
-0.5423029106194975
 21
9.79167445366831
 31
0.0
1001
REVIT
1002
{
1070
     2
1000
-2001160
1002
}
  0
LWPOLYLINE
  5
476
330
462
100
AcDbEntity
  8
D35160152
100
AcDbPolyline
 90
       28
 70
   128
 43
0.0
 10
-0.5519056118644521
 20
9.751375660531598
 10
-0.5523451414562964
 20
9.752980130458947
 10
-0.5527201577872348
 20
9.754600893477222
 10
-0.5530300609111336
 20
9.756235356711339
 10
-0.5532743550491013
 20
9.757880905368788
 10
-0.5534526493826313
 20
9.759534906922752
 10
-0.5535646586788268
 20
9.761194715323574
 10
-0.5536102037467075
 20
9.762857675231892
 10
-0.5535892117238746
 20
9.764521126266595
 10
-0.5535017161930967
 20
9.766182407260881
 10
-0.5533478571285464
 20
9.767838860519542
 10
-0.5531278806719158
 20
9.769487836070728
 10
-0.5528421387386047
 20
9.771126695905318
 10
-0.552491088454751
 20
9.772752818197178
 10
-0.5520752914259255
 20
9.774363601497531
 10
-0.551595412838676
 20
9.775956468896712
 10
-0.5510522203963646
 20
9.777528872146676
 10
-0.5504465830910342
 20
9.779078295737651
 10
-0.5497794698131742
 20
9.780602260922417
 10
-0.5490519478017184
 20
9.782098329681776
 10
-0.5482651809366921
 20
9.783564108624853
 10
-0.5474204278772384
 20
9.784997252818024
 10
-0.5465190400480538
 20
9.786395469536305
 10
-0.5455624594773774
 20
9.787756521931211
 10
-0.544552216490061
 20
9.789078232609256
 10
-0.5434899272593761
 20
9.790358487115305
 10
-0.542377291221488
 20
9.791595237315252
 10
-0.5423029106194975
 20
9.79167445366831
1001
REVIT
1002
{
1070
     2
1000
-2001160
1002
}
  0
LINE
  5
477
330
462
100
AcDbEntity
  8
D35160152
100
AcDbLine
 10
-0.5519056118644521
 20
9.751375660531598
 30
0.0
 11
-0.3150948055520502
 21
8.950156007563442
 31
0.0
1001
REVIT
1002
{
1070
     2
1000
-2001160
1002
}
  0
LINE
  5
478
330
462
100
AcDbEntity
  8
D35160152
100
AcDbLine
 10
-0.3150948055520182
 20
8.950156007563453
 30
0.0
 11
-0.3150948055520182
 21
8.90832934553866
 31
0.0
1001
REVIT
1002
{
1070
     2
1000
-2001160
1002
}
  0
LINE
  5
479
330
462
100
AcDbEntity
  8
D35160152
100
AcDbLine
 10
-0.3150948055520502
 20
8.90832934553866
 30
0.0
 11
-0.7886038616704916
 21
8.430986227165327
 31
0.0
1001
REVIT
1002
{
1070
     2
1000
-2001160
1002
}
  0
LINE
  5
47A
330
462
100
AcDbEntity
  8
D35160152
100
AcDbLine
 10
0.9658748094550588
 20
8.074135698589469
 30
0.0
 11
0.934502255247759
 21
7.617614816402491
 31
0.0
1001
REVIT
1002
{
1070
     2
1000
-2001160
1002
}
  0
LWPOLYLINE
  5
47B
330
462
100
AcDbEntity
  8
D35160152
100
AcDbPolyline
 90
        4
 70
   128
 43
0.0
 10
0.8543604433692308
 20
6.40650310645626
 10
0.8109491464190057
 20
4.889733935982566
 10
0.8291040810017484
 20
3.295434325555527
 10
0.8711140030547284
 20
2.33037494851279
1001
REVIT
1002
{
1070
     2
1000
-2001160
1002
}
  0
LWPOLYLINE
  5
47C
330
462
100
AcDbEntity
  8
D35160152
100
AcDbPolyline
 90
       22
 70
   128
 43
0.0
 10
0.4251760126322104
 20
9.898660529097892
 10
0.4266949210121638
 20
9.89863014687922
 10
0.4282113994627253
 20
9.898539048828279
 10
0.4297230219418751
 20
9.898387380682517
 10
0.4312273701761065
 20
9.898175385078614
 10
0.4327220375291532
 20
9.897903401164306
 10
0.4342046328520972
 20
9.897571864055844
 10
0.435672784308693
 20
9.897181304141874
 10
0.4371241431698003
 20
9.896732346234941
 10
0.438556387570845
 20
9.896225708571925
 10
0.4399672262263153
 20
9.895662201665013
 10
0.4413544020953247
 20
9.895042727005044
 10
0.4427156959923977
 20
9.894368275619328
 10
0.4440489301376971
 20
9.893639926486208
 10
0.4453519716409958
 20
9.892858844808921
 10
0.4466227359138522
 20
9.892026280151529
 10
0.4478591900045146
 20
9.891143564439884
 10
0.4490593558502063
 20
9.890212109830819
 10
0.4502213134415883
 20
9.889233406453007
 10
0.4513432038943855
 20
9.888209020023076
 10
0.4524232324232003
 20
9.887140589340789
 10
0.4528318065514441
 20
9.886713301941028
1001
REVIT
1002
{
1070
     2
1000
-2001160
1002
}
  0
LWPOLYLINE
  5
47D
330
462
100
AcDbEntity
  8
D35160152
100
AcDbPolyline
 90
        2
 70
   128
 43
0.0
 10
0.4068677962653844
 20
9.898660529097892
 10
0.4251760126322069
 20
9.898660529097892
1001
REVIT
1002
{
1070
     2
1000
-2001160
1002
}
  0
LWPOLYLINE
  5
47E
330
462
100
AcDbEntity
  8
D35160152
100
AcDbPolyline
 90
        4
 70
   128
 43
0.0
 10
0.4251760126322069
 20
9.898660529097892
 10
0.4127218747851487
 20
9.898660529097892
 10
0.4057397725096444
 20
9.898660529097892
 10
0.3977267018520791
 20
9.898660529097892
1001
REVIT
1002
{
1070
     2
1000
-2001160
1002
}
  0
LINE
  5
47F
330
462
100
AcDbEntity
  8
D35160152
100
AcDbLine
 10
0.5423029106214017
 20
9.79167445366831
 30
0.0
 11
0.4528318065514441
 21
9.886713301941028
 31
0.0
1001
REVIT
1002
{
1070
     2
1000
-2001160
1002
}
  0
LWPOLYLINE
  5
480
330
462
100
AcDbEntity
  8
D35160152
100
AcDbPolyline
 90
       28
 70
   128
 43
0.0
 10
0.5423029106214017
 20
9.79167445366831
 10
0.5434187739650547
 20
9.79044061453448
 10
0.5444844043315982
 20
9.789163139708199
 10
0.5454980969397632
 20
9.787844072876675
 10
0.546458230097624
 20
9.786485524265451
 10
0.5473632677969427
 20
9.7850896672625
 10
0.5482117621704674
 20
9.783658734941258
 10
0.5490023558082023
 20
9.78219501648819
 10
0.5497337839289785
 20
9.780700853540578
 10
0.5504048764038317
 20
9.7791786364404
 10
0.5510145596279586
 20
9.777630800410294
 10
0.5515618582382622
 20
9.776059821657721
 10
0.5520458966737181
 20
9.774468213413559
 10
0.5524659005760811
 20
9.772858521911476
 10
0.5528211980287061
 20
9.771233322314493
 10
0.5531112206314646
 20
9.769595214595273
 10
0.5533355044100539
 20
9.767946819376721
 10
0.5534936905582768
 20
9.766290773739553
 10
0.5535855260120428
 20
9.764629727003512
 10
0.5536108638542139
 20
9.762966336489041
 10
0.553569663549645
 20
9.761303263266125
 10
0.5534619910100389
 20
9.759643167897149
 10
0.553288018488491
 20
9.757988706180572
 10
0.5530480243039158
 20
9.756342524902203
 10
0.5527423923958211
 20
9.754707257600923
 10
0.5523716117100577
 20
9.753085520355577
 10
0.551936275416626
 20
9.751479907599804
 10
0.5519056118663564
 20
9.751375660531598
1001
REVIT
1002
{
1070
     2
1000
-2001160
1002
}
  0
LINE
  5
481
330
462
100
AcDbEntity
  8
D35160152
100
AcDbLine
 10
0.3150948055539544
 20
8.950156007563442
 30
0.0
 11
0.3633304555118499
 21
9.113355277570459
 31
0.0
1001
REVIT
1002
{
1070
     2
1000
-2001160
1002
}
  0
LINE
  5
482
330
462
100
AcDbEntity
  8
D35160152
100
AcDbLine
 10
0.5205455085861353
 20
9.645272685509095
 30
0.0
 11
0.5519056118663564
 21
9.751375660531598
 31
0.0
1001
REVIT
1002
{
1070
     2
1000
-2001160
1002
}
  0
LINE
  5
483
330
462
100
AcDbEntity
  8
D35160152
100
AcDbLine
 10
0.3150948055539189
 20
8.90832934553866
 30
0.0
 11
0.3150948055539189
 21
8.950156007563453
 31
0.0
1001
REVIT
1002
{
1070
     2
1000
-2001160
1002
}
  0
LINE
  5
484
330
462
100
AcDbEntity
  8
D35160152
100
AcDbLine
 10
0.9658748094550109
 20
8.252279894270218
 30
0.0
 11
0.315094805553958
 21
8.90832934553866
 31
0.0
1001
REVIT
1002
{
1070
     2
1000
-2001160
1002
}
  0
LINE
  5
485
330
462
100
AcDbEntity
  8
D35160152
100
AcDbLine
 10
0.9658748094550073
 20
8.087343616169071
 30
0.0
 11
0.9658748094550073
 21
8.252279894270214
 31
0.0
1001
REVIT
1002
{
1070
     2
1000
-2001160
1002
}
  0
LWPOLYLINE
  5
486
330
462
100
AcDbEntity
  8
D35160152
100
AcDbPolyline
 90
        2
 70
   128
 43
0.0
 10
0.3977267018520791
 20
9.898660529097892
 10
0.0000886563439231
 20
9.898660529097892
1001
REVIT
1002
{
1070
     2
1000
-2001160
1002
}
  0
LWPOLYLINE
  5
487
330
462
100
AcDbEntity
  8
D35160152
100
AcDbPolyline
 90
        3
 70
   128
 43
0.0
 10
0.0000886563439231
 20
9.89866052909789
 10
-0.372206191971042
 20
9.89866052909789
 10
-0.3977484687447195
 20
9.89866052909789
1001
REVIT
1002
{
1070
     2
1000
-2001160
1002
}
  0
LINE
  5
488
330
462
100
AcDbEntity
  8
D35160152
100
AcDbLine
 10
0.3633304555118535
 20
9.113355277570457
 30
0.0
 11
3.614529162923959
 21
9.74532428738536
 31
0.0
1001
REVIT
1002
{
1070
     2
1000
-2001160
1002
}
  0
LINE
  5
489
330
462
100
AcDbEntity
  8
D35160152
100
AcDbLine
 10
3.45603569708318
 20
10.43183491090637
 30
0.0
 11
0.5205455085861388
 21
9.645272685509096
 31
0.0
1001
REVIT
1002
{
1070
     2
1000
-2001160
1002
}
  0
LINE
  5
48A
330
462
100
AcDbEntity
  8
D35160152
100
AcDbLine
 10
3.614529162923952
 20
9.745324287385363
 30
0.0
 11
3.742406173073572
 21
9.845232757375912
 31
0.0
1001
REVIT
1002
{
1070
     2
1000
-2001160
1002
}
  0
LINE
  5
48B
330
462
100
AcDbEntity
  8
D35160152
100
AcDbLine
 10
3.614767783027888
 20
10.39809536449125
 30
0.0
 11
3.456035697083175
 21
10.43183491090637
 31
0.0
1001
REVIT
1002
{
1070
     2
1000
-2001160
1002
}
  0
LWPOLYLINE
  5
48C
330
462
100
AcDbEntity
  8
D35160152
100
AcDbPolyline
 90
       26
 70
   128
 43
0.0
 10
3.73723217413528
 20
10.12437872764714
 10
3.737230276303767
 20
10.12438694805855
 10
3.737215111863573
 20
10.12445263246539
 10
3.737201869514759
 20
10.1245099913798
 10
3.737139774045466
 20
10.12477895640695
 10
3.737111729797865
 20
10.12490042938885
 10
3.737080082572489
 20
10.12503750858205
 10
3.737044882998144
 20
10.1251899746891
 10
3.737006187386647
 20
10.12535758379675
 10
3.736964057642714
 20
10.12554006776618
 10
3.736918561164953
 20
10.12573713466198
 10
3.736869770738019
 20
10.12594846921913
 10
3.73676262539849
 20
10.12641256667235
 10
3.736704441895577
 20
10.12666458711149
 10
3.73664330698865
 20
10.12692939148593
 10
3.736579318480515
 20
10.12720655616513
 10
3.735807043667172
 20
10.13055164588746
 10
3.735719300496448
 20
10.13093170331457
 10
3.7328770457037
 20
10.14324286137794
 10
3.732826509258249
 20
10.14346175877217
 10
3.732567680373936
 20
10.14458286984015
 10
3.732544976114546
 20
10.14468121279193
 10
3.732525974709087
 20
10.14476351692127
 10
3.73251070655575
 20
10.14482965055909
 10
3.732499196080325
 20
10.14487950790569
 10
3.732487515779489
 20
10.14493010084696
1001
REVIT
1002
{
1070
     2
1000
-2001160
1002
}
  0
LWPOLYLINE
  5
48D
330
462
100
AcDbEntity
  8
D35160152
100
AcDbPolyline
 90
       12
 70
   128
 43
0.0
 10
3.614767783027888
 20
10.39809536449125
 10
3.630530518617071
 20
10.37618370808881
 10
3.64540441314859
 20
10.3536592373732
 10
3.659365671564124
 20
10.33055798669261
 10
3.672391958828455
 20
10.30691691312012
 10
3.684462435660748
 20
10.28277383733027
 10
3.695557791872971
 20
10.2581673830941
 10
3.705660277262065
 20
10.23313691548928
 10
3.714753730006494
 20
10.20772247792443
 10
3.722823602521696
 20
10.18196472807819
 10
3.729856984733132
 20
10.15590487285563
 10
3.732486962695944
 20
10.144932496515
1001
REVIT
1002
{
1070
     2
1000
-2001160
1002
}
  0
LWPOLYLINE
  5
48E
330
462
100
AcDbEntity
  8
D35160152
100
AcDbPolyline
 90
       12
 70
   128
 43
0.0
 10
3.73723217413528
 20
10.12437872764714
 10
3.742776932405622
 20
10.09796206292056
 10
3.747260870626908
 20
10.07134479751668
 10
3.750676815454507
 20
10.0445695133821
 10
3.753019302105396
 20
10.01767904525967
 10
3.754284583100631
 20
9.990716412162065
 10
3.754470634260535
 20
9.96372474855052
 10
3.75357715794294
 20
9.936747235328896
 10
3.751605583519353
 20
9.909827030763453
 10
3.748559065088279
 20
9.883007201438829
 10
3.744442476429313
 20
9.856330653360679
 10
3.742406173073572
 20
9.845232757375912
1001
REVIT
1002
{
1070
     2
1000
-2001160
1002
}
  0
SPLINE
  5
48F
330
462
100
AcDbEntity
  8
D35160152
100
AcDbSpline
210
0.0
220
0.0
230
1.0
 70
     8
 71
     3
 72
     9
 73
     5
 74
     0
 42
0.000000001
 43
0.0000000001
 40
0.0
 40
0.0
 40
0.0
 40
0.0
 40
0.5
 40
1.0
 40
1.0
 40
1.0
 40
1.0
 10
-1.026050130289544
 20
0.3261939176297075
 30
0.0
 10
-0.9661178070151734
 20
0.6561214932336253
 30
0.0
 10
-0.8667874765538172
 20
1.321310477719819
 30
0.0
 10
-0.8113144085489274
 20
1.993479784068518
 30
0.0
 10
-0.7949524877622772
 20
2.330374948512528
 30
0.0
1001
REVIT
1002
{
1070
     2
1000
-2001160
1002
}
  0
SPLINE
  5
490
330
462
100
AcDbEntity
  8
D35160152
100
AcDbSpline
210
0.0
220
0.0
230
1.0
 70
     8
 71
     3
 72
     9
 73
     5
 74
     0
 42
0.000000001
 43
0.0000000001
 40
-1.0
 40
-1.0
 40
-1.0
 40
-1.0
 40
-0.5
 40
0.0
 40
0.0
 40
0.0
 40
0.0
 10
0.7949401972628252
 20
2.330374948512528
 30
0.0
 10
0.8118912545631644
 20
1.993565046215087
 30
0.0
 10
0.8668379232381511
 20
1.321480053960969
 30
0.0
 10
0.9653482871098972
 20
0.6562051003057191
 30
0.0
 10
1.026050130291894
 20
0.3261939176297075
 30
0.0
1001
REVIT
1002
{
1070
     2
1000
-2001160
1002
}
  0
SPLINE
  5
491
330
462
100
AcDbEntity
  8
D35160152
100
AcDbSpline
210
0.0
220
0.0
230
1.0
 70
     8
 71
     3
 72
     9
 73
     5
 74
     0
 42
0.000000001
 43
0.0000000001
 40
-1.0
 40
-1.0
 40
-1.0
 40
-1.0
 40
-0.5
 40
0.0
 40
0.0
 40
0.0
 40
0.0
 10
0.0000373319546618
 20
2.330374948512527
 30
0.0
 10
0.0006269270183843
 20
1.993565044849234
 30
0.0
 10
0.0001053109610609
 20
1.321480051244447
 30
0.0
 10
-0.0007400923509486
 20
0.6562050989663795
 30
0.0
 10
0.0000000000006501
 20
0.3261939176297066
 30
0.0
1001
REVIT
1002
{
1070
     2
1000
-2001160
1002
}
  0
LINE
  5
492
330
462
100
AcDbEntity
  8
D35160152
100
AcDbLine
 10
-1.186045829108152
 20
0.3261939176297279
 30
0.0
 11
1.186045829108163
 21
0.3261939176296951
 31
0.0
1001
REVIT
1002
{
1070
     2
1000
-2001160
1002
}
  0
LINE
  5
493
330
462
100
AcDbEntity
  8
D35160152
100
AcDbLine
 10
-1.3125
 20
0.0000000000000182
 30
0.0
 11
1.312500000000001
 21
-0.0000000000000181
 31
0.0
1001
REVIT
1002
{
1070
     2
1000
-2001160
1002
}
  0
SPLINE
  5
494
330
462
100
AcDbEntity
  8
D35160152
100
AcDbSpline
210
0.0
220
0.0
230
1.0
 70
     8
 71
     3
 72
    10
 73
     6
 74
     0
 42
0.000000001
 43
0.0000000001
 40
0.0
 40
0.0
 40
0.0
 40
0.0
 40
0.3333333333333333
 40
0.6666666666666666
 40
1.0
 40
1.0
 40
1.0
 40
1.0
 10
-0.7949524877622807
 20
2.330374948512786
 30
0.0
 10
-0.7637186137699459
 20
2.968155040466905
 30
0.0
 10
-0.7278887850103644
 20
4.245470102100569
 30
0.0
 10
-0.7557795725148644
 20
6.162450735211067
 30
0.0
 10
-0.8289873774791622
 20
7.43781651488799
 30
0.0
 10
-0.8784969379050053
 20
8.074135698589461
 30
0.0
1001
REVIT
1002
{
1070
     2
1000
-2001160
1002
}
  0
LINE
  5
495
330
462
100
AcDbEntity
  8
D35160152
100
AcDbLine
 10
-0.9658748094531155
 20
8.074135698589461
 30
0.0
 11
0.9658748094049407
 21
8.074135698589461
 31
0.0
1001
REVIT
1002
{
1070
     2
1000
-2001160
1002
}
  0
SPLINE
  5
496
330
462
100
AcDbEntity
  8
D35160152
100
AcDbSpline
210
0.0
220
0.0
230
1.0
 70
     8
 71
     3
 72
    10
 73
     6
 74
     0
 42
0.000000001
 43
0.0000000001
 40
0.0
 40
0.0
 40
0.0
 40
0.0
 40
0.3333333333333333
 40
0.6666666666666666
 40
1.0
 40
1.0
 40
1.0
 40
1.0
 10
-0.4226823939759825
 20
9.886713301941021
 30
0.0
 10
-0.4205404979130912
 20
9.889245113156077
 30
0.0
 10
-0.4156240893978663
 20
9.893631307820882
 30
0.0
 10
-0.4070046913677423
 20
9.897735145904334
 30
0.0
 10
-0.4008223038845671
 20
9.898660529097885
 30
0.0
 10
-0.3977484687447195
 20
9.898660529097881
 30
0.0
1001
REVIT
1002
{
1070
     2
1000
-2001160
1002
}
  0
SPLINE
  5
497
330
462
100
AcDbEntity
  8
D35160152
100
AcDbSpline
210
0.0
220
0.0
230
1.0
 70
     8
 71
     3
 72
     9
 73
     5
 74
     0
 42
0.000000001
 43
0.0000000001
 40
0.0
 40
0.0
 40
0.0
 40
0.0
 40
0.5
 40
1.0
 40
1.0
 40
1.0
 40
1.0
 10
-0.5029881316525824
 20
9.791674453668303
 30
0.0
 10
-0.4896196187013047
 20
9.807538731105999
 30
0.0
 10
-0.4628787684036304
 20
9.83924281658915
 30
0.0
 10
-0.4360941686041145
 20
9.870897963287813
 30
0.0
 10
-0.4226823939759825
 20
9.886713301941021
 30
0.0
1001
REVIT
1002
{
1070
     2
1000
-2001160
1002
}
  0
SPLINE
  5
498
330
462
100
AcDbEntity
  8
D35160152
100
AcDbSpline
210
0.0
220
0.0
230
1.0
 70
     8
 71
     3
 72
     9
 73
     5
 74
     0
 42
0.000000001
 43
0.0000000001
 40
0.0
 40
0.0
 40
0.0
 40
0.0
 40
0.5
 40
1.0
 40
1.0
 40
1.0
 40
1.0
 10
-0.5115785066643852
 20
9.751375660531589
 30
0.0
 10
-0.5134099816783931
 20
9.758308705268422
 30
0.0
 10
-0.5137646730352188
 20
9.773343637908526
 30
0.0
 10
-0.5073738736263281
 20
9.786461875431012
 30
0.0
 10
-0.5029881316525824
 20
9.791674453668301
 30
0.0
1001
REVIT
1002
{
1070
     2
1000
-2001160
1002
}
  0
SPLINE
  5
499
330
462
100
AcDbEntity
  8
D35160152
100
AcDbSpline
210
0.0
220
0.0
230
1.0
 70
     8
 71
     3
 72
     9
 73
     5
 74
     0
 42
0.000000001
 43
0.0000000001
 40
0.0
 40
0.0
 40
0.0
 40
0.0
 40
0.5
 40
1.0
 40
1.0
 40
1.0
 40
1.0
 10
-0.2978308788853745
 20
8.950156007563435
 30
0.0
 10
-0.333923300460949
 20
9.08357241834188
 30
0.0
 10
-0.405386082992461
 20
9.350525437948354
 30
0.0
 10
-0.4761506111474496
 20
9.617718853653986
 30
0.0
 10
-0.5115785066643852
 20
9.751375660531589
 30
0.0
1001
REVIT
1002
{
1070
     2
1000
-2001160
1002
}
  0
LINE
  5
49A
330
462
100
AcDbEntity
  8
D35160152
100
AcDbLine
 10
-0.3150948055520146
 20
8.950156007563444
 30
0.0
 11
0.2978106215870291
 21
8.950156007563444
 31
0.0
1001
REVIT
1002
{
1070
     2
1000
-2001160
1002
}
  0
LINE
  5
49B
330
462
100
AcDbEntity
  8
D35160152
100
AcDbLine
 10
-0.297830878885339
 20
8.908329345538653
 30
0.0
 11
-0.2978308788853425
 21
8.950156007563444
 31
0.0
1001
REVIT
1002
{
1070
     2
1000
-2001160
1002
}
  0
LINE
  5
49C
330
462
100
AcDbEntity
  8
D35160152
100
AcDbLine
 10
-0.3150948055520537
 20
8.908329345538653
 30
0.0
 11
0.297810621587061
 21
8.908329345538653
 31
0.0
1001
REVIT
1002
{
1070
     2
1000
-2001160
1002
}
  0
SPLINE
  5
49D
330
462
100
AcDbEntity
  8
D35160152
100
AcDbSpline
210
0.0
220
0.0
230
1.0
 70
    24
 71
     3
 72
     8
 73
     4
 74
     0
 42
0.000000001
 43
0.0000000001
 40
-0.499417195798204
 40
-0.499417195798204
 40
-0.499417195798204
 40
-0.499417195798204
 40
0.0
 40
0.0
 40
0.0
 40
0.0
 10
-0.7886036744671472
 20
8.43098622716532
 30
0.0
 10
-0.788567490114307
 20
8.430968578877244
 30
0.0
 10
-0.7730277386912335
 20
8.423389335690002
 30
0.0
 10
-0.7419844201979267
 20
8.408248497603587
 30
0.0
1001
REVIT
1002
{
1070
     2
1000
-2001160
1002
}
  0
SPLINE
  5
49E
330
462
100
AcDbEntity
  8
D35160152
100
AcDbSpline
210
0.0
220
0.0
230
1.0
 70
     8
 71
     3
 72
     9
 73
     5
 74
     0
 42
0.000000001
 43
0.0000000001
 40
0.0
 40
0.0
 40
0.0
 40
0.0
 40
0.5
 40
1.0
 40
1.0
 40
1.0
 40
1.0
 10
-0.7419844201979267
 20
8.408248497603587
 30
0.0
 10
-0.6674961800192243
 20
8.492347958655546
 30
0.0
 10
-0.5209063751084422
 20
8.659794227696686
 30
0.0
 10
-0.3731295040387117
 20
8.825735190612258
 30
0.0
 10
-0.2978308788853745
 20
8.90832934553865
 30
0.0
1001
REVIT
1002
{
1070
     2
1000
-2001160
1002
}
  0
SPLINE
  5
49F
330
462
100
AcDbEntity
  8
D35160152
100
AcDbSpline
210
0.0
220
0.0
230
1.0
 70
     8
 71
     3
 72
    19
 73
    15
 74
     0
 42
0.000000001
 43
0.0000000001
 40
0.0
 40
0.0
 40
0.0
 40
0.0
 40
0.3333333333333333
 40
0.5
 40
0.5416666666666666
 40
0.5833333333333333
 40
0.625
 40
0.6666666666666666
 40
0.7083333333333333
 40
0.75
 40
0.8333333333333332
 40
0.875
 40
0.9166666666666666
 40
1.0
 40
1.0
 40
1.0
 40
1.0
 10
0.4152255403804759
 20
9.388247499621614
 30
0.0
 10
0.4290014270107641
 20
9.431310930344317
 30
0.0
 10
0.451887762833195
 20
9.492742580181776
 30
0.0
 10
0.4765527225286626
 20
9.550374737876289
 30
0.0
 10
0.4870227844367676
 20
9.573830501928222
 30
0.0
 10
0.4921190887885239
 20
9.585127723095983
 30
0.0
 10
0.4969573864538255
 20
9.595705016686702
 30
0.0
 10
0.5014218672414899
 20
9.605285684188078
 30
0.0
 10
0.5055501393656101
 20
9.614030098791324
 30
0.0
 10
0.5106304482032016
 20
9.624774125178911
 30
0.0
 10
0.5147499329952545
 20
9.633381038272789
 30
0.0
 10
0.5176257517653724
 20
9.639227701797313
 30
0.0
 10
0.5197665744806024
 20
9.643579001474472
 30
0.0
 10
0.5204835972267255
 20
9.645063216191889
 30
0.0
 10
0.5205455085861353
 20
9.645272685509086
 30
0.0
1001
REVIT
1002
{
1070
     2
1000
-2001160
1002
}
  0
SPLINE
  5
4A0
330
462
100
AcDbEntity
  8
D35160152
100
AcDbSpline
210
0.0
220
0.0
230
1.0
 70
     8
 71
     3
 72
    13
 73
     9
 74
     0
 42
0.000000001
 43
0.0000000001
 40
0.0
 40
0.0
 40
0.0
 40
0.0
 40
0.2
 40
0.4
 40
0.55
 40
0.625
 40
0.7
 40
1.0
 40
1.0
 40
1.0
 40
1.0
 10
0.3633304555118464
 20
9.11335527757045
 30
0.0
 10
0.3633526180821178
 20
9.113430261846424
 30
0.0
 10
0.3635135673422525
 20
9.118213494196453
 30
0.0
 10
0.3646139543193669
 20
9.137910907179596
 30
0.0
 10
0.3666480069811016
 20
9.161234108293417
 30
0.0
 10
0.3687438694502205
 20
9.180368468042388
 30
0.0
 10
0.3728643309023738
 20
9.212439712278978
 30
0.0
 10
0.3779873710124093
 20
9.243225942998879
 30
0.0
 10
0.3837777929601458
 20
9.270353935091767
 30
0.0
1001
REVIT
1002
{
1070
     2
1000
-2001160
1002
}
  0
SPLINE
  5
4A1
330
462
100
AcDbEntity
  8
D35160152
100
AcDbSpline
210
0.0
220
0.0
230
1.0
 70
     8
 71
     3
 72
     8
 73
     4
 74
     0
 42
0.000000001
 43
0.0000000001
 40
-1.0
 40
-1.0
 40
-1.0
 40
-1.0
 40
-0.910825415897573
 40
-0.910825415897573
 40
-0.910825415897573
 40
-0.910825415897573
 10
0.8784886888005658
 20
8.074135698589461
 30
0.0
 10
0.865025404375153
 20
7.903900173799107
 30
0.0
 10
0.8525850659161271
 20
7.733567515081943
 30
0.0
 10
0.8411490475045475
 20
7.563151450453234
 30
0.0
1001
REVIT
1002
{
1070
     2
1000
-2001160
1002
}
  0
SPLINE
  5
4A2
330
462
100
AcDbEntity
  8
D35160152
100
AcDbSpline
210
0.0
220
0.0
230
1.0
 70
     8
 71
     3
 72
    10
 73
     6
 74
     0
 42
0.000000001
 43
0.0000000001
 40
-0.7059522234263877
 40
-0.7059522234263877
 40
-0.7059522234263877
 40
-0.7059522234263877
 40
-0.6666666666666666
 40
-0.3333333333333333
 40
0.0
 40
0.0
 40
0.0
 40
0.0
 10
0.7780055965924575
 20
6.387435532406601
 30
0.0
 10
0.7749571898782932
 20
6.31222240716149
 30
0.0
 10
0.7478134279791249
 20
5.598739273148914
 30
0.0
 10
0.7279230609187444
 20
4.245480537007107
 30
0.0
 10
0.7633677948792688
 20
2.968159774732125
 30
0.0
 10
0.7949401972628252
 20
2.330374948512785
 30
0.0
1001
REVIT
1002
{
1070
     2
1000
-2001160
1002
}
  0
SPLINE
  5
4A3
330
462
100
AcDbEntity
  8
D35160152
100
AcDbSpline
210
0.0
220
0.0
230
1.0
 70
     8
 71
     3
 72
    10
 73
     6
 74
     0
 42
0.000000001
 43
0.0000000001
 40
-1.0
 40
-1.0
 40
-1.0
 40
-1.0
 40
-0.6666666666666666
 40
-0.3333333333333333
 40
0.0
 40
0.0
 40
0.0
 40
0.0
 10
0.3977267018520791
 20
9.898660529097881
 30
0.0
 10
0.4008193486891969
 20
9.898660529097881
 30
0.0
 10
0.4069636206140395
 20
9.897736653854073
 30
0.0
 10
0.4156050824093747
 20
9.893637195863277
 30
0.0
 10
0.4204977283373133
 20
9.889248543878718
 30
0.0
 10
0.4226605662803138
 20
9.886713301941023
 30
0.0
1001
REVIT
1002
{
1070
     2
1000
-2001160
1002
}
  0
SPLINE
  5
4A4
330
462
100
AcDbEntity
  8
D35160152
100
AcDbSpline
210
0.0
220
0.0
230
1.0
 70
     8
 71
     3
 72
     9
 73
     5
 74
     0
 42
0.000000001
 43
0.0000000001
 40
-1.0
 40
-1.0
 40
-1.0
 40
-1.0
 40
-0.5
 40
0.0
 40
0.0
 40
0.0
 40
0.0
 10
0.4226605662803138
 20
9.886713301941021
 30
0.0
 10
0.4360549375839043
 20
9.87090080785664
 30
0.0
 10
0.4628522059625802
 20
9.839248505726805
 30
0.0
 10
0.4896107843988809
 20
9.807541575674827
 30
0.0
 10
0.5029668391366578
 20
9.791674453668301
 30
0.0
1001
REVIT
1002
{
1070
     2
1000
-2001160
1002
}
  0
SPLINE
  5
4A5
330
462
100
AcDbEntity
  8
D35160152
100
AcDbSpline
210
0.0
220
0.0
230
1.0
 70
     8
 71
     3
 72
     9
 73
     5
 74
     0
 42
0.000000001
 43
0.0000000001
 40
-1.0
 40
-1.0
 40
-1.0
 40
-1.0
 40
-0.5
 40
0.0
 40
0.0
 40
0.0
 40
0.0
 10
0.5029668391366578
 20
9.791674453668303
 30
0.0
 10
0.5073717872038977
 20
9.786462654498881
 30
0.0
 10
0.5137319010135784
 20
9.773343486253093
 30
0.0
 10
0.513392852940509
 20
9.758308643115046
 30
0.0
 10
0.5115573318567357
 20
9.751375660531589
 30
0.0
1001
REVIT
1002
{
1070
     2
1000
-2001160
1002
}
  0
LWPOLYLINE
  5
4A6
330
462
100
AcDbEntity
  8
D35160152
100
AcDbPolyline
 90
        3
 70
   128
 43
0.0
 10
0.3837777929601458
 20
9.270353935091767
 10
0.3408938888066189
 20
9.110210887716959
 10
0.2978106215870539
 20
8.950156007563434
1001
REVIT
1002
{
1070
     2
1000
-2001160
1002
}
  0
SPLINE
  5
4A7
330
462
100
AcDbEntity
  8
D35160152
100
AcDbSpline
210
0.0
220
0.0
230
1.0
 70
     8
 71
     3
 72
     9
 73
     5
 74
     0
 42
0.000000001
 43
0.0000000001
 40
0.0
 40
0.0
 40
0.0
 40
0.0
 40
0.5
 40
1.0
 40
1.0
 40
1.0
 40
1.0
 10
0.3837777929601458
 20
9.270353935091767
 30
0.0
 10
0.3847240060154284
 20
9.2903740996113
 30
0.0
 10
0.3907376834936471
 20
9.330043191552473
 30
0.0
 10
0.4055773561419401
 20
9.368969809297864
 30
0.0
 10
0.4152255403804759
 20
9.388247499621614
 30
0.0
1001
REVIT
1002
{
1070
     2
1000
-2001160
1002
}
  0
LWPOLYLINE
  5
4A8
330
462
100
AcDbEntity
  8
D35160152
100
AcDbPolyline
 90
        3
 70
   128
 43
0.0
 10
0.5115573318567357
 20
9.751375660531589
 10
0.4634759599049119
 20
9.569786423757044
 10
0.4152255403804759
 20
9.388247499621614
1001
REVIT
1002
{
1070
     2
1000
-2001160
1002
}
  0
SPLINE
  5
4A9
330
462
100
AcDbEntity
  8
D35160152
100
AcDbSpline
210
0.0
220
0.0
230
1.0
 70
     8
 71
     3
 72
     9
 73
     5
 74
     0
 42
0.000000001
 43
0.0000000001
 40
-1.0
 40
-1.0
 40
-1.0
 40
-1.0
 40
-0.5
 40
0.0
 40
0.0
 40
0.0
 40
0.0
 10
0.2978106215870646
 20
8.908329345538653
 30
0.0
 10
0.3921167025043708
 20
8.800684504461813
 30
0.0
 10
0.5884938538859466
 20
8.583698088173569
 30
0.0
 10
0.7842343573869855
 20
8.363318203616188
 30
0.0
 10
0.8784886888005587
 20
8.252279894270211
 30
0.0
1001
REVIT
1002
{
1070
     2
1000
-2001160
1002
}
  0
LINE
  5
4AA
330
462
100
AcDbEntity
  8
D35160152
100
AcDbLine
 10
0.8784886888005516
 20
8.252279894270207
 30
0.0
 11
0.8784886888005516
 21
8.087343616169064
 31
0.0
1001
REVIT
1002
{
1070
     2
1000
-2001160
1002
}
  0
LINE
  5
4AB
330
462
100
AcDbEntity
  8
D35160152
100
AcDbLine
 10
0.965874809404891
 20
8.087343616169064
 30
0.0
 11
-0.0840319090111628
 21
8.087343616169064
 31
0.0
1001
REVIT
1002
{
1070
     2
1000
-2001160
1002
}
  0
SPLINE
  5
4AC
330
462
100
AcDbEntity
  8
D35160152
100
AcDbSpline
210
0.0
220
0.0
230
1.0
 70
     8
 71
     3
 72
    10
 73
     6
 74
     0
 42
0.000000001
 43
0.0000000001
 40
-1.0
 40
-1.0
 40
-1.0
 40
-1.0
 40
-0.6666666666666666
 40
-0.3333333333333333
 40
0.0
 40
0.0
 40
0.0
 40
0.0
 10
0.0000242428004213
 20
8.074135698589461
 30
0.0
 10
-0.0007794972232098
 20
7.437797717263598
 30
0.0
 10
0.0003772089122123
 20
6.162407338858984
 30
0.0
 10
0.0000963301110453
 20
4.245480536650469
 30
0.0
 10
-0.000294609751208
 20
2.968159774565127
 30
0.0
 10
0.0000373319546654
 20
2.330374948512784
 30
0.0
1001
REVIT
1002
{
1070
     2
1000
-2001160
1002
}
  0
SPLINE
  5
4AD
330
462
100
AcDbEntity
  8
D35160152
100
AcDbSpline
210
0.0
220
0.0
230
1.0
 70
     8
 71
     3
 72
    10
 73
     6
 74
     0
 42
0.000000001
 43
0.0000000001
 40
-1.0
 40
-1.0
 40
-1.0
 40
-1.0
 40
-0.6666666666666666
 40
-0.3333333333333333
 40
0.0
 40
0.0
 40
0.0
 40
0.0
 10
0.0000886563439231
 20
9.898660529097881
 30
0.0
 10
0.000110067197415
 20
9.898660529097881
 30
0.0
 10
0.0000752420604258
 20
9.897736653756066
 30
0.0
 10
0.0000982730896766
 20
9.893637195519094
 30
0.0
 10
0.0000683649963662
 20
9.889248543679533
 30
0.0
 10
0.0000862357163705
 20
9.88671330194102
 30
0.0
1001
REVIT
1002
{
1070
     2
1000
-2001160
1002
}
  0
SPLINE
  5
4AE
330
462
100
AcDbEntity
  8
D35160152
100
AcDbSpline
210
0.0
220
0.0
230
1.0
 70
     8
 71
     3
 72
     9
 73
     5
 74
     0
 42
0.000000001
 43
0.0000000001
 40
-1.0
 40
-1.0
 40
-1.0
 40
-1.0
 40
-0.5
 40
0.0
 40
0.0
 40
0.0
 40
0.0
 10
0.0000862357163705
 20
9.88671330194102
 30
0.0
 10
0.0000699300677347
 20
9.870900807597013
 30
0.0
 10
0.0000820645583275
 20
9.839248505207558
 30
0.0
 10
0.0000940565007177
 20
9.807541575415203
 30
0.0
 10
0.000077491915274
 20
9.791674453668301
 30
0.0
1001
REVIT
1002
{
1070
     2
1000
-2001160
1002
}
  0
SPLINE
  5
4AF
330
462
100
AcDbEntity
  8
D35160152
100
AcDbSpline
210
0.0
220
0.0
230
1.0
 70
     8
 71
     3
 72
     9
 73
     5
 74
     0
 42
0.000000001
 43
0.0000000001
 40
-1.0
 40
-1.0
 40
-1.0
 40
-1.0
 40
-0.5
 40
0.0
 40
0.0
 40
0.0
 40
0.0
 10
0.000077491915274
 20
9.791674453668301
 30
0.0
 10
0.00009680095555
 20
9.786462654462736
 30
0.0
 10
0.0000642916409497
 20
9.773343486253144
 30
0.0
 10
0.0000803021009155
 20
9.758308643116391
 30
0.0
 10
0.000076480818187
 20
9.751375660531589
 30
0.0
1001
REVIT
1002
{
1070
     2
1000
-2001160
1002
}
  0
SPLINE
  5
4B0
330
462
100
AcDbEntity
  8
D35160152
100
AcDbSpline
210
0.0
220
0.0
230
1.0
 70
     8
 71
     3
 72
     9
 73
     5
 74
     0
 42
0.000000001
 43
0.0000000001
 40
-1.0
 40
-1.0
 40
-1.0
 40
-1.0
 40
-0.5
 40
0.0
 40
0.0
 40
0.0
 40
0.0
 10
0.000076480818187
 20
9.751375660531589
 30
0.0
 10
0.0004373224951628
 20
9.61771328949945
 30
0.0
 10
0.0000877449634658
 20
9.350514309639287
 30
0.0
 10
-0.0002610193536405
 20
9.083566854187351
 30
0.0
 10
0.0000965897121894
 20
8.950156007563435
 30
0.0
1001
REVIT
1002
{
1070
     2
1000
-2001160
1002
}
  0
LINE
  5
4B1
330
462
100
AcDbEntity
  8
D35160152
100
AcDbLine
 10
0.0000965897122036
 20
8.950156007563442
 30
0.0
 11
0.0000965897122143
 21
8.908329345538652
 31
0.0
1001
REVIT
1002
{
1070
     2
1000
-2001160
1002
}
  0
SPLINE
  5
4B2
330
462
100
AcDbEntity
  8
D35160152
100
AcDbSpline
210
0.0
220
0.0
230
1.0
 70
     8
 71
     3
 72
     9
 73
     5
 74
     0
 42
0.000000001
 43
0.0000000001
 40
-1.0
 40
-1.0
 40
-1.0
 40
-1.0
 40
-0.5
 40
0.0
 40
0.0
 40
0.0
 40
0.0
 10
0.0000965897122001
 20
8.908329345538652
 30
0.0
 10
-0.0039860086817853
 20
8.800684453251731
 30
0.0
 10
0.000025233210355
 20
8.583697985753401
 30
0.0
 10
0.0042031237290061
 20
8.363318152406101
 30
0.0
 10
0.0000242428004213
 20
8.252279894270211
 30
0.0
1001
REVIT
1002
{
1070
     2
1000
-2001160
1002
}
  0
SPLINE
  5
4B3
330
462
100
AcDbEntity
  8
D35160152
100
AcDbSpline
210
0.0
220
0.0
230
1.0
 70
    24
 71
     3
 72
     9
 73
     5
 74
     0
 42
0.000000001
 43
0.0000000001
 40
-1.0
 40
-1.0
 40
-1.0
 40
-1.0
 40
-0.5
 40
0.0
 40
0.0
 40
0.0
 40
0.0
 10
-0.7419844201979267
 20
8.408248497603587
 30
0.0
 10
-0.698405283471157
 20
8.386993532440374
 30
0.0
 10
-0.601528975647689
 20
8.339743800054932
 30
0.0
 10
-0.4852165990843674
 20
8.283014463551458
 30
0.0
 10
-0.422201393617744
 20
8.252279894270213
 30
0.0
1001
REVIT
1002
{
1070
     2
1000
-2001160
1002
}
  0
LINE
  5
4B4
330
462
100
AcDbEntity
  8
D35160152
100
AcDbLine
 10
0.0000242428004213
 20
8.252279894270206
 30
0.0
 11
0.0000242428004213
 21
8.087343616169064
 31
0.0
1001
REVIT
1002
{
1070
     2
1000
-2001160
1002
}
  0
LINE
  5
4B5
330
462
100
AcDbEntity
  8
D35160152
100
AcDbLine
 10
-0.4222013936177511
 20
8.252279894270206
 30
0.0
 11
0.9560829134093964
 21
8.252279894270207
 31
0.0
1001
REVIT
1002
{
1070
     2
1000
-2001160
1002
}
  0
LWPOLYLINE
  5
4B6
330
462
100
AcDbEntity
  8
D35160152
100
AcDbPolyline
 90
        2
 70
   128
 43
0.0
 10
-0.422201393617744
 20
8.252279894270214
 10
-0.0840319090111628
 20
8.087343616169064
1001
REVIT
1002
{
1070
     2
1000
-2001160
1002
}
  0
LINE
  5
4B7
330
462
100
AcDbEntity
  8
D35160152
100
AcDbLine
 10
3.614529162923949
 20
9.745324287385354
 30
0.0
 11
3.456035697083173
 21
10.43183491090636
 31
0.0
1001
REVIT
1002
{
1070
     2
1000
-2001160
1002
}
  0
LINE
  5
4B8
330
462
100
AcDbEntity
  8
D35160152
100
AcDbLine
 10
3.742406173073566
 20
9.845232757375901
 30
0.0
 11
3.614767783027886
 21
10.39809536449124
 31
0.0
1001
REVIT
1002
{
1070
     2
1000
-2001160
1002
}
  0
LINE
  5
4B9
330
462
100
AcDbEntity
  8
D35160152
100
AcDbLine
 10
5.019933187381571
 20
6.596048614440062
 30
0.0
 11
5.102782708297123
 21
6.500741143025415
 31
0.0
1001
REVIT
1002
{
1070
     2
1000
-2001160
1002
}
  0
LINE
  5
4BA
330
462
100
AcDbEntity
  8
D35160152
100
AcDbLine
 10
5.836899285768849
 20
6.767937725706507
 30
0.0
 11
5.839103239145387
 21
6.8942021300844
 31
0.0
1001
REVIT
1002
{
1070
     2
1000
-2001160
1002
}
  0
SPLINE
  5
4BB
330
462
100
AcDbEntity
  8
D35160152
100
AcDbSpline
210
0.0
220
0.0
230
1.0
 70
     8
 71
     3
 72
    25
 73
    21
 74
     0
 42
0.000000001
 43
0.0000000001
 40
0.0
 40
0.0
 40
0.0
 40
0.0
 40
0.0454545454545455
 40
0.0909090909090909
 40
0.1363636363636363
 40
0.1590909090909091
 40
0.1818181818181818
 40
0.2045454545454545
 40
0.2272727272727272
 40
0.2727272727272727
 40
0.3181818181818182
 40
0.3636363636363637
 40
0.4090909090909091
 40
0.4545454545454545
 40
0.5454545454545455
 40
0.6363636363636364
 40
0.7272727272727274
 40
0.8181818181818181
 40
0.9090909090909089
 40
0.9374439198644417
 40
0.9374439198644417
 40
0.9374439198644417
 40
0.9374439198644417
 10
4.994168331138151
 20
6.586670973677305
 30
0.0
 10
4.958951395987085
 20
6.665466598095813
 30
0.0
 10
4.892161547468829
 20
6.794971676538323
 30
0.0
 10
4.807521521703455
 20
6.918204147559521
 30
0.0
 10
4.751591397100483
 20
6.976084159404158
 30
0.0
 10
4.708728822587662
 20
7.010394404556164
 30
0.0
 10
4.677054811583566
 20
7.032102247125707
 30
0.0
 10
4.646371423865074
 20
7.049911286745485
 30
0.0
 10
4.607327566980551
 20
7.069282659116827
 30
0.0
 10
4.559782554733867
 20
7.086396282761831
 30
0.0
 10
4.492736149534081
 20
7.097986899886532
 30
0.0
 10
4.404134444724975
 20
7.103524110130547
 30
0.0
 10
4.288151933912509
 20
7.103093261968515
 30
0.0
 10
4.096908437232459
 20
7.088612378914507
 30
0.0
 10
3.780010159125081
 20
7.046803482196279
 30
0.0
 10
3.30716524720229
 20
6.970778249181295
 30
0.0
 10
2.723706709876781
 20
6.858254167516991
 30
0.0
 10
2.00667130714002
 20
6.699636239511844
 30
0.0
 10
1.335570190064563
 20
6.534352687648696
 30
0.0
 10
0.9046760163139122
 20
6.421783765887819
 30
0.0
 10
0.7993033576238205
 20
6.393912313211695
 30
0.0
1001
REVIT
1002
{
1070
     2
1000
-2001160
1002
}
  0
SPLINE
  5
4BC
330
462
100
AcDbEntity
  8
D35160152
100
AcDbSpline
210
0.0
220
0.0
230
1.0
 70
     8
 71
     3
 72
    23
 73
    19
 74
     0
 42
0.000000001
 43
0.0000000001
 40
0.0929558273054163
 40
0.0929558273054163
 40
0.0929558273054163
 40
0.0929558273054163
 40
0.1
 40
0.2
 40
0.3
 40
0.4
 40
0.45
 40
0.5
 40
0.6
 40
0.65
 40
0.7
 40
0.75
 40
0.8
 40
0.825
 40
0.85
 40
0.9
 40
0.95
 40
1.0
 40
1.0
 40
1.0
 40
1.0
 10
0.8595874896694652
 20
7.59984885587061
 30
0.0
 10
0.8851387171737776
 20
7.605836344990611
 30
0.0
 10
1.270794970155504
 20
7.695823836649668
 30
0.0
 10
1.94035995625529
 20
7.840843817082839
 30
0.0
 10
2.731965125620334
 20
7.985015098794705
 30
0.0
 10
3.266269914459851
 20
8.060831449015731
 30
0.0
 10
3.631493771536719
 20
8.100809995498769
 30
0.0
 10
3.9601329785136
 20
8.13002174594111
 30
0.0
 10
4.26251777548971
 20
8.142409852392288
 30
0.0
 10
4.56189431001677
 20
8.116187914716521
 30
0.0
 10
4.787125747425957
 20
8.068383355727165
 30
0.0
 10
5.008553082213961
 20
7.983427798580668
 30
0.0
 10
5.179975910882344
 20
7.881257311794438
 30
0.0
 10
5.306683699746159
 20
7.782544928044923
 30
0.0
 10
5.429459768373085
 20
7.670221749568283
 30
0.0
 10
5.577706580655988
 20
7.495086453575436
 30
0.0
 10
5.733500953491361
 20
7.236473618534676
 30
0.0
 10
5.827252072775166
 20
7.025078528846006
 30
0.0
 10
5.873506220186513
 20
6.906723791153388
 30
0.0
1001
REVIT
1002
{
1070
     2
1000
-2001160
1002
}
  0
LINE
  5
4BD
330
462
100
AcDbEntity
  8
D35160152
100
AcDbLine
 10
4.994168331132879
 20
6.586670973675365
 30
0.0
 11
5.873506220186513
 21
6.906723791153389
 31
0.0
1001
REVIT
1002
{
1070
     2
1000
-2001160
1002
}
  0
SPLINE
  5
4BE
330
462
100
AcDbEntity
  8
D35160152
100
AcDbSpline
210
0.0
220
0.0
230
1.0
 70
     8
 71
     3
 72
    17
 73
    13
 74
     0
 42
0.000000001
 43
0.0000000001
 40
-1.0
 40
-1.0
 40
-1.0
 40
-1.0
 40
-0.9
 40
-0.85
 40
-0.8
 40
-0.75
 40
-0.7
 40
-0.6
 40
-0.5
 40
-0.4
 40
-0.2
 40
-0.039749063858704
 40
-0.039749063858704
 40
-0.039749063858704
 40
-0.039749063858704
 10
5.434242354256326
 20
6.746844818966101
 30
0.0
 10
5.348827310299466
 20
6.952855779687749
 30
0.0
 10
5.225114788680468
 20
7.17308885082255
 30
0.0
 10
5.058592790925274
 20
7.35656288564306
 30
0.0
 10
4.930329567389513
 20
7.457149854956155
 30
0.0
 10
4.795925528953301
 20
7.531615954180032
 30
0.0
 10
4.604462716954877
 20
7.597983377181338
 30
0.0
 10
4.334552962605902
 20
7.628132633894771
 30
0.0
 10
3.937422010474231
 20
7.601977171622993
 30
0.0
 10
3.278415087778988
 20
7.520762503646426
 30
0.0
 10
2.234493175675197
 20
7.338162085166493
 30
0.0
 10
1.027894037372124
 20
7.052502083509968
 30
0.0
 10
0.3949819940730386
 20
6.888609079403102
 30
0.0
1001
REVIT
1002
{
1070
     2
1000
-2001160
1002
}
  0
LWPOLYLINE
  5
4BF
330
462
100
AcDbEntity
  8
D35160152
100
AcDbPolyline
 90
        2
 70
   128
 43
0.0
 10
5.434242354256326
 20
6.746844818966101
 10
5.873506220186513
 20
6.906723791153389
1001
REVIT
1002
{
1070
     2
1000
-2001160
1002
}
  0
LINE
  5
4C0
330
462
100
AcDbEntity
  8
D35160152
100
AcDbLine
 10
5.836899285768843
 20
6.767937725706499
 30
0.0
 11
5.102782708297119
 21
6.500741143025409
 31
0.0
1001
REVIT
1002
{
1070
     2
1000
-2001160
1002
}
  0
LINE
  5
4C1
330
462
100
AcDbEntity
  8
D35160152
100
AcDbLine
 10
-0.7495338716963609
 20
8.074135698589469
 30
0.0
 11
-0.7485451100298093
 21
8.083705094344594
 31
0.0
1001
REVIT
1002
{
1070
     1
1000
61737
1002
}
1002
{
1070
     2
1000
-2001160
1002
}
  0
LINE
  5
4C2
330
462
100
AcDbEntity
  8
D35160152
100
AcDbLine
 10
-0.7485451100298093
 20
8.083705094344594
 30
0.0
 11
-0.7442470277756357
 21
8.113564918516752
 31
0.0
1001
REVIT
1002
{
1070
     1
1000
61737
1002
}
1002
{
1070
     2
1000
-2001160
1002
}
  0
LINE
  5
4C3
330
462
100
AcDbEntity
  8
D35160152
100
AcDbLine
 10
-0.7442470277756357
 20
8.113564918516752
 30
0.0
 11
-0.738758309041252
 21
8.143228980566826
 31
0.0
1001
REVIT
1002
{
1070
     1
1000
61737
1002
}
1002
{
1070
     2
1000
-2001160
1002
}
  0
LINE
  5
4C4
330
462
100
AcDbEntity
  8
D35160152
100
AcDbLine
 10
-0.738758309041252
 20
8.143228980566826
 30
0.0
 11
-0.7320877346057735
 21
8.172649824323531
 31
0.0
1001
REVIT
1002
{
1070
     1
1000
61737
1002
}
1002
{
1070
     2
1000
-2001160
1002
}
  0
LINE
  5
4C5
330
462
100
AcDbEntity
  8
D35160152
100
AcDbLine
 10
-0.7320877346057735
 20
8.172649824323531
 30
0.0
 11
-0.7242459759653137
 21
8.201780382712971
 31
0.0
1001
REVIT
1002
{
1070
     1
1000
61737
1002
}
1002
{
1070
     2
1000
-2001160
1002
}
  0
LINE
  5
4C6
330
462
100
AcDbEntity
  8
D35160152
100
AcDbLine
 10
-0.7242459759653137
 20
8.201780382712971
 30
0.0
 11
-0.7152455782608734
 21
8.23057405305591
 31
0.0
1001
REVIT
1002
{
1070
     1
1000
61737
1002
}
1002
{
1070
     2
1000
-2001160
1002
}
  0
LINE
  5
4C7
330
462
100
AcDbEntity
  8
D35160152
100
AcDbLine
 10
-0.7152455782608734
 20
8.23057405305591
 30
0.0
 11
-0.7051009402088085
 21
8.258984771622118
 31
0.0
1001
REVIT
1002
{
1070
     1
1000
61737
1002
}
1002
{
1070
     2
1000
-2001160
1002
}
  0
LINE
  5
4C8
330
462
100
AcDbEntity
  8
D35160152
100
AcDbLine
 10
-0.7051009402088085
 20
8.258984771622118
 30
0.0
 11
-0.6938282910659162
 21
8.286967087322523
 31
0.0
1001
REVIT
1002
{
1070
     1
1000
61737
1002
}
1002
{
1070
     2
1000
-2001160
1002
}
  0
LINE
  5
4C9
330
462
100
AcDbEntity
  8
D35160152
100
AcDbLine
 10
-0.6938282910659162
 20
8.286967087322523
 30
0.0
 11
-0.681445664666132
 21
8.314476234421244
 31
0.0
1001
REVIT
1002
{
1070
     1
1000
61737
1002
}
1002
{
1070
     2
1000
-2001160
1002
}
  0
LINE
  5
4CA
330
462
100
AcDbEntity
  8
D35160152
100
AcDbLine
 10
-0.681445664666132
 20
8.314476234421244
 30
0.0
 11
-0.6679728705701998
 21
8.341468204151228
 31
0.0
1001
REVIT
1002
{
1070
     1
1000
61737
1002
}
1002
{
1070
     2
1000
-2001160
1002
}
  0
LINE
  5
4CB
330
462
100
AcDbEntity
  8
D35160152
100
AcDbLine
 10
-0.6679728705701998
 20
8.341468204151228
 30
0.0
 11
-0.6546639889166528
 21
8.365659477620093
 31
0.0
1001
REVIT
1002
{
1070
     1
1000
61737
1002
}
1002
{
1070
     2
1000
-2001160
1002
}
  0
LINE
  5
4CC
330
462
100
AcDbEntity
  8
D35160152
100
AcDbLine
 10
0.7482306799921262
 20
8.087343616169071
 30
0.0
 11
0.7497000863968602
 21
8.074135698589469
 31
0.0
1001
REVIT
1002
{
1070
     1
1000
61737
1002
}
1002
{
1070
     2
1000
-2001160
1002
}
  0
ENDBLK
  5
464
330
462
100
AcDbEntity
  8
0
100
AcDbBlockEnd
  0
ENDSEC
  0
SECTION
  2
ENTITIES
  0
INSERT
  5
3C1
330
70
100
AcDbEntity
  8
D35160152
100
AcDbBlockReference
  2
D35160152 Top View
 10
-0.0010121716196281
 20
23.34087630763258
 30
0.0
  0
INSERT
  5
461
330
70
100
AcDbEntity
  8
D35160152
100
AcDbBlockReference
  2
D35160152 Front View
 10
0.0000000000002467
 20
0.0000000000011802
 30
0.0
  0
INSERT
  5
4CD
330
70
100
AcDbEntity
  8
D35160152
100
AcDbBlockReference
  2
D35160152 Side View
 10
-16.89646233155878
 20
0.0000000000023588
 30
0.0
  0
ENDSEC
  0
SECTION
  2
OBJECTS
  0
DICTIONARY
  5
C
330
0
100
AcDbDictionary
281
     1
  3
ACAD_CIP_PREVIOUS_PRODUCT_INFO
350
79
  3
ACAD_COLOR
350
63
  3
ACAD_DETAILVIEWSTYLE
350
6A
  3
ACAD_GROUP
350
D
  3
ACAD_IMAGE_VARS
350
7A
  3
ACAD_LAYOUT
350
62
  3
ACAD_MATERIAL
350
10
  3
ACAD_MLEADERSTYLE
350
66
  3
ACAD_MLINESTYLE
350
5F
  3
ACAD_PLOTSETTINGS
350
61
  3
ACAD_PLOTSTYLENAME
350
E
  3
ACAD_SCALELIST
350
42
  3
ACAD_SECTIONVIEWSTYLE
350
68
  3
ACAD_TABLESTYLE
350
64
  3
ACAD_VISUALSTYLE
350
29
  3
ACDB_RECOMPOSE_DATA
350
4E9
  3
AcDbVariableDictionary
350
113
  3
REVIT_DICTIONARY
350
108
  0
DICTIONARY
  5
4D1
330
2
100
AcDbDictionary
280
     1
281
     1
  3
ACAD_LAYERSTATES
360
4D2
  0
DICTIONARY
  5
10B
330
70
100
AcDbDictionary
280
     1
281
     1
  3
ACAD_SORTENTS
360
10C
  0
XRECORD
  5
79
102
{ACAD_REACTORS
330
C
102
}
330
C
100
AcDbXrecord
280
     1
300
ACD
300
2016
300
86445ACD_2016_0F
  0
DICTIONARY
  5
63
102
{ACAD_REACTORS
330
C
102
}
330
C
100
AcDbDictionary
281
     1
  0
DICTIONARY
  5
6A
102
{ACAD_REACTORS
330
C
102
}
330
C
100
AcDbDictionary
281
     1
  3
Imperial24
350
6B
  0
DICTIONARY
  5
D
102
{ACAD_REACTORS
330
C
102
}
330
C
100
AcDbDictionary
281
     1
  0
RASTERVARIABLES
  5
7A
102
{ACAD_REACTORS
330
C
102
}
330
C
100
AcDbRasterVariables
 90
        0
 70
     0
 71
     1
 72
     5
  0
DICTIONARY
  5
62
102
{ACAD_REACTORS
330
C
102
}
330
C
100
AcDbDictionary
281
     1
  3
Layout1
350
6F
  3
Layout2
350
77
  3
Model
350
73
  0
DICTIONARY
  5
10
102
{ACAD_REACTORS
330
C
102
}
330
C
100
AcDbDictionary
281
     1
  3
ByBlock
350
19
  3
ByLayer
350
11
  3
Global
350
21
  0
DICTIONARY
  5
66
102
{ACAD_REACTORS
330
C
102
}
330
C
100
AcDbDictionary
281
     1
  3
Standard
350
67
  0
DICTIONARY
  5
5F
102
{ACAD_REACTORS
330
C
102
}
330
C
100
AcDbDictionary
281
     1
  3
Standard
350
60
  0
DICTIONARY
  5
61
102
{ACAD_REACTORS
330
C
102
}
330
C
100
AcDbDictionary
281
     1
  0
ACDBDICTIONARYWDFLT
  5
E
102
{ACAD_REACTORS
330
C
102
}
330
C
100
AcDbDictionary
281
     1
  3
Normal
350
F
100
AcDbDictionaryWithDefault
340
F
  0
DICTIONARY
  5
42
102
{ACAD_REACTORS
330
C
102
}
330
C
100
AcDbDictionary
281
     1
  3
A0
350
43
  3
A1
350
44
  3
A2
350
45
  3
A3
350
46
  3
A4
350
47
  3
A5
350
48
  3
A6
350
49
  3
A7
350
4A
  3
A8
350
4B
  3
A9
350
4C
  3
B0
350
4D
  3
B1
350
4E
  3
B2
350
4F
  3
B3
350
50
  3
B4
350
51
  3
B5
350
52
  3
B6
350
53
  0
DICTIONARY
  5
68
102
{ACAD_REACTORS
330
C
102
}
330
C
100
AcDbDictionary
281
     1
  3
Imperial24
350
69
  0
DICTIONARY
  5
64
102
{ACAD_REACTORS
330
C
102
}
330
C
100
AcDbDictionary
281
     1
  3
Standard
350
65
  0
DICTIONARY
  5
29
102
{ACAD_REACTORS
330
C
102
}
330
C
100
AcDbDictionary
281
     1
  3
2dWireframe
350
2F
  3
Basic
350
2E
  3
Brighten
350
35
  3
ColorChange
350
39
  3
Conceptual
350
32
  3
Dim
350
34
  3
EdgeColorOff
350
41
  3
Facepattern
350
38
  3
Flat
350
2A
  3
FlatWithEdges
350
2B
  3
Gouraud
350
2C
  3
GouraudWithEdges
350
2D
  3
Hidden
350
31
  3
JitterOff
350
3F
  3
Linepattern
350
37
  3
OverhangOff
350
40
  3
Realistic
350
33
  3
Shaded
350
3E
  3
Shaded with edges
350
3D
  3
Shades of Gray
350
3A
  3
Sketchy
350
3B
  3
Thicken
350
36
  3
Wireframe
350
30
  3
X-Ray
350
3C
  0
XRECORD
  5
4E9
102
{ACAD_REACTORS
330
C
102
}
330
C
100
AcDbXrecord
280
     1
 90
        1
330
65
330
69
330
6B
  0
DICTIONARY
  5
113
102
{ACAD_REACTORS
330
C
102
}
330
C
100
AcDbDictionary
281
     1
  3
CANNOSCALE
350
118
  3
CMLEADERSTYLE
350
115
  3
CTABLESTYLE
350
114
  3
CVIEWDETAILSTYLE
350
116
  3
CVIEWSECTIONSTYLE
350
117
  0
DICTIONARY
  5
108
102
{ACAD_REACTORS
330
C
102
}
330
C
100
AcDbDictionary
281
     1
  3
DRAWING_TOOL
350
10A
  3
REVIT_CATEGORY_MAPPING
350
109
  0
DICTIONARY
  5
4D2
102
{ACAD_REACTORS
330
4D1
102
}
330
4D1
100
AcDbDictionary
281
     1
  0
SORTENTSTABLE
  5
10C
102
{ACAD_REACTORS
330
10B
102
}
330
10B
100
AcDbSortentsTable
330
70
  0
ACDBDETAILVIEWSTYLE
  5
6B
102
{ACAD_XDICTIONARY
360
110
102
}
102
{ACAD_REACTORS
330
6A
102
}
330
6A
100
AcDbModelDocViewStyle
 70
     0
  3
Imperial24
290
     0
100
AcDbDetailViewStyle
 70
     0
 71
     0
 90
        3
 71
     1
340
55
 62
   256
 40
0.24
340
0
 62
   256
 40
0.24
300

 40
0.36
280
     3
 71
     2
340
5D
 90
       25
 62
   256
 71
     3
340
55
 62
   256
 40
0.24
 90
        1
 40
0.75
 90
        1
300
%<\AcVar ViewType \f "%tc1">% %<\AcVar ViewDetailId>%\PSCALE %<\AcVar ViewScale \f "%sn">%
 71
     4
340
5D
 90
       25
 62
   256
340
5D
 90
       25
 62
   256
280
     0
  0
LAYOUT
  5
6F
102
{ACAD_REACTORS
330
62
102
}
330
62
100
AcDbPlotSettings
  1

  2

  4

  6

 40
0.0
 41
0.0
 42
0.0
 43
0.0
 44
0.0
 45
0.0
 46
0.0
 47
0.0
 48
0.0
 49
0.0
140
0.0
141
0.0
142
1.0
143
1.0
 70
   688
 72
     0
 73
     0
 74
     5
  7

 75
    16
147
1.0
 76
     0
 77
     2
 78
   300
148
0.0
149
0.0
100
AcDbLayout
  1
Layout1
 70
     1
 71
     1
 10
0.0
 20
0.0
 11
12.0
 21
9.0
 12
0.0
 22
0.0
 32
0.0
 14
1.000000000000000E+20
 24
1.000000000000000E+20
 34
1.000000000000000E+20
 15
-1.000000000000000E+20
 25
-1.000000000000000E+20
 35
-1.000000000000000E+20
146
0.0
 13
0.0
 23
0.0
 33
0.0
 16
1.0
 26
0.0
 36
0.0
 17
0.0
 27
1.0
 37
0.0
 76
     0
330
6C
  0
LAYOUT
  5
77
102
{ACAD_REACTORS
330
62
102
}
330
62
100
AcDbPlotSettings
  1

  2

  4

  6

 40
0.0
 41
0.0
 42
0.0
 43
0.0
 44
0.0
 45
0.0
 46
0.0
 47
0.0
 48
0.0
 49
0.0
140
0.0
141
0.0
142
1.0
143
1.0
 70
   688
 72
     0
 73
     0
 74
     5
  7

 75
    16
147
1.0
 76
     0
 77
     2
 78
   300
148
0.0
149
0.0
100
AcDbLayout
  1
Layout2
 70
     1
 71
     2
 10
0.0
 20
0.0
 11
12.0
 21
9.0
 12
0.0
 22
0.0
 32
0.0
 14
0.0
 24
0.0
 34
0.0
 15
0.0
 25
0.0
 35
0.0
146
0.0
 13
0.0
 23
0.0
 33
0.0
 16
1.0
 26
0.0
 36
0.0
 17
0.0
 27
1.0
 37
0.0
 76
     0
330
74
  0
LAYOUT
  5
73
102
{ACAD_REACTORS
330
62
102
}
330
62
100
AcDbPlotSettings
  1

  2

  4

  6

 40
0.0
 41
0.0
 42
0.0
 43
0.0
 44
0.0
 45
0.0
 46
0.0
 47
0.0
 48
0.0
 49
0.0
140
0.0
141
0.0
142
1.0
143
1.0
 70
  1712
 72
     0
 73
     0
 74
     0
  7

 75
     0
147
1.0
 76
     0
 77
     2
 78
   300
148
0.0
149
0.0
100
AcDbLayout
  1
Model
 70
     1
 71
     0
 10
0.0
 20
0.0
 11
12.0
 21
9.0
 12
0.0
 22
0.0
 32
0.0
 14
0.0
 24
0.0
 34
0.0
 15
0.0
 25
0.0
 35
0.0
146
0.0
 13
0.0
 23
0.0
 33
0.0
 16
1.0
 26
0.0
 36
0.0
 17
0.0
 27
1.0
 37
0.0
 76
     0
330
70
331
57
  0
MATERIAL
  5
19
102
{ACAD_XDICTIONARY
360
1A
102
}
102
{ACAD_REACTORS
330
10
102
}
330
10
100
AcDbMaterial
  1
ByBlock
 72
     0
 43
0.0208333333333333
 43
0.0
 43
0.0
 43
0.0
 43
0.0
 43
0.0208333333333333
 43
0.0
 43
0.0
 43
0.0
 43
0.0
 43
1.0
 43
0.0
 43
0.0
 43
0.0
 43
0.0
 43
1.0
 77
     0
 47
0.0208333333333333
 47
0.0
 47
0.0
 47
0.0
 47
0.0
 47
0.0208333333333333
 47
0.0
 47
0.0
 47
0.0
 47
0.0
 47
1.0
 47
0.0
 47
0.0
 47
0.0
 47
0.0
 47
1.0
171
     0
 49
0.0208333333333333
 49
0.0
 49
0.0
 49
0.0
 49
0.0
 49
0.0208333333333333
 49
0.0
 49
0.0
 49
0.0
 49
0.0
 49
1.0
 49
0.0
 49
0.0
 49
0.0
 49
0.0
 49
1.0
175
     0
142
0.0208333333333333
142
0.0
142
0.0
142
0.0
142
0.0
142
0.0208333333333333
142
0.0
142
0.0
142
0.0
142
0.0
142
1.0
142
0.0
142
0.0
142
0.0
142
0.0
142
1.0
179
     0
144
0.0208333333333333
144
0.0
144
0.0
144
0.0
144
0.0
144
0.0208333333333333
144
0.0
144
0.0
144
0.0
144
0.0
144
1.0
144
0.0
144
0.0
144
0.0
144
0.0
144
1.0
147
0.0208333333333333
147
0.0
147
0.0
147
0.0
147
0.0
147
0.0208333333333333
147
0.0
147
0.0
147
0.0
147
0.0
147
1.0
147
0.0
147
0.0
147
0.0
147
0.0
147
1.0
  0
MATERIAL
  5
11
102
{ACAD_XDICTIONARY
360
12
102
}
102
{ACAD_REACTORS
330
10
102
}
330
10
100
AcDbMaterial
  1
ByLayer
 72
     0
 43
0.0208333333333333
 43
0.0
 43
0.0
 43
0.0
 43
0.0
 43
0.0208333333333333
 43
0.0
 43
0.0
 43
0.0
 43
0.0
 43
1.0
 43
0.0
 43
0.0
 43
0.0
 43
0.0
 43
1.0
 77
     0
 47
0.0208333333333333
 47
0.0
 47
0.0
 47
0.0
 47
0.0
 47
0.0208333333333333
 47
0.0
 47
0.0
 47
0.0
 47
0.0
 47
1.0
 47
0.0
 47
0.0
 47
0.0
 47
0.0
 47
1.0
171
     0
 49
0.0208333333333333
 49
0.0
 49
0.0
 49
0.0
 49
0.0
 49
0.0208333333333333
 49
0.0
 49
0.0
 49
0.0
 49
0.0
 49
1.0
 49
0.0
 49
0.0
 49
0.0
 49
0.0
 49
1.0
175
     0
142
0.0208333333333333
142
0.0
142
0.0
142
0.0
142
0.0
142
0.0208333333333333
142
0.0
142
0.0
142
0.0
142
0.0
142
1.0
142
0.0
142
0.0
142
0.0
142
0.0
142
1.0
179
     0
144
0.0208333333333333
144
0.0
144
0.0
144
0.0
144
0.0
144
0.0208333333333333
144
0.0
144
0.0
144
0.0
144
0.0
144
1.0
144
0.0
144
0.0
144
0.0
144
0.0
144
1.0
147
0.0208333333333333
147
0.0
147
0.0
147
0.0
147
0.0
147
0.0208333333333333
147
0.0
147
0.0
147
0.0
147
0.0
147
1.0
147
0.0
147
0.0
147
0.0
147
0.0
147
1.0
  0
MATERIAL
  5
21
102
{ACAD_XDICTIONARY
360
22
102
}
102
{ACAD_REACTORS
330
10
102
}
330
10
100
AcDbMaterial
  1
Global
 72
     0
 43
0.0208333333333333
 43
0.0
 43
0.0
 43
0.0
 43
0.0
 43
0.0208333333333333
 43
0.0
 43
0.0
 43
0.0
 43
0.0
 43
1.0
 43
0.0
 43
0.0
 43
0.0
 43
0.0
 43
1.0
 77
     0
 47
0.0208333333333333
 47
0.0
 47
0.0
 47
0.0
 47
0.0
 47
0.0208333333333333
 47
0.0
 47
0.0
 47
0.0
 47
0.0
 47
1.0
 47
0.0
 47
0.0
 47
0.0
 47
0.0
 47
1.0
171
     0
 49
0.0208333333333333
 49
0.0
 49
0.0
 49
0.0
 49
0.0
 49
0.0208333333333333
 49
0.0
 49
0.0
 49
0.0
 49
0.0
 49
1.0
 49
0.0
 49
0.0
 49
0.0
 49
0.0
 49
1.0
175
     0
142
0.0208333333333333
142
0.0
142
0.0
142
0.0
142
0.0
142
0.0208333333333333
142
0.0
142
0.0
142
0.0
142
0.0
142
1.0
142
0.0
142
0.0
142
0.0
142
0.0
142
1.0
179
     0
144
0.0208333333333333
144
0.0
144
0.0
144
0.0
144
0.0
144
0.0208333333333333
144
0.0
144
0.0
144
0.0
144
0.0
144
1.0
144
0.0
144
0.0
144
0.0
144
0.0
144
1.0
147
0.0208333333333333
147
0.0
147
0.0
147
0.0
147
0.0
147
0.0208333333333333
147
0.0
147
0.0
147
0.0
147
0.0
147
1.0
147
0.0
147
0.0
147
0.0
147
0.0
147
1.0
  0
MLEADERSTYLE
  5
67
102
{ACAD_REACTORS
330
66
102
}
330
66
100
AcDbMLeaderStyle
179
     2
170
     2
171
     1
172
     0
 90
        2
 40
0.0
 41
0.0
173
     1
 91
-1056964608
340
5B
 92
       -2
290
     1
 42
0.09
291
     1
 43
0.36
  3
Standard
 44
0.18
300

342
55
174
     1
178
     6
175
     1
176
     0
 93
-1056964608
 45
0.18
292
     0
297
     0
 46
0.18
 94
-1056964608
 47
1.0
 49
1.0
140
1.0
293
     1
141
0.0
294
     1
177
     0
142
1.0
295
     1
296
     0
143
0.125
271
     0
272
     9
273
     9
298
     1
  0
MLINESTYLE
  5
60
102
{ACAD_REACTORS
330
5F
102
}
330
5F
100
AcDbMlineStyle
  2
STANDARD
 70
     0
  3

 62
   256
 51
90.0
 52
90.0
 71
     2
 49
0.5
 62
   256
  6
BYLAYER
 49
-0.5
 62
   256
  6
BYLAYER
  0
ACDBPLACEHOLDER
  5
F
102
{ACAD_REACTORS
330
E
102
}
330
E
  0
SCALE
  5
43
102
{ACAD_REACTORS
330
42
102
}
330
42
100
AcDbScale
 70
     0
300
1:1
140
1.0
141
1.0
290
     1
  0
SCALE
  5
44
102
{ACAD_REACTORS
330
42
102
}
330
42
100
AcDbScale
 70
     0
300
1/128" = 1'-0"
140
0.0078125
141
12.0
290
     0
  0
SCALE
  5
45
102
{ACAD_REACTORS
330
42
102
}
330
42
100
AcDbScale
 70
     0
300
1/64" = 1'-0"
140
0.015625
141
12.0
290
     0
  0
SCALE
  5
46
102
{ACAD_REACTORS
330
42
102
}
330
42
100
AcDbScale
 70
     0
300
1/32" = 1'-0"
140
0.03125
141
12.0
290
     0
  0
SCALE
  5
47
102
{ACAD_REACTORS
330
42
102
}
330
42
100
AcDbScale
 70
     0
300
1/16" = 1'-0"
140
0.0625
141
12.0
290
     0
  0
SCALE
  5
48
102
{ACAD_REACTORS
330
42
102
}
330
42
100
AcDbScale
 70
     0
300
3/32" = 1'-0"
140
0.09375
141
12.0
290
     0
  0
SCALE
  5
49
102
{ACAD_REACTORS
330
42
102
}
330
42
100
AcDbScale
 70
     0
300
1/8" = 1'-0"
140
0.125
141
12.0
290
     0
  0
SCALE
  5
4A
102
{ACAD_REACTORS
330
42
102
}
330
42
100
AcDbScale
 70
     0
300
3/16" = 1'-0"
140
0.1875
141
12.0
290
     0
  0
SCALE
  5
4B
102
{ACAD_REACTORS
330
42
102
}
330
42
100
AcDbScale
 70
     0
300
1/4" = 1'-0"
140
0.25
141
12.0
290
     0
  0
SCALE
  5
4C
102
{ACAD_REACTORS
330
42
102
}
330
42
100
AcDbScale
 70
     0
300
3/8" = 1'-0"
140
0.375
141
12.0
290
     0
  0
SCALE
  5
4D
102
{ACAD_REACTORS
330
42
102
}
330
42
100
AcDbScale
 70
     0
300
1/2" = 1'-0"
140
0.5
141
12.0
290
     0
  0
SCALE
  5
4E
102
{ACAD_REACTORS
330
42
102
}
330
42
100
AcDbScale
 70
     0
300
3/4" = 1'-0"
140
0.75
141
12.0
290
     0
  0
SCALE
  5
4F
102
{ACAD_REACTORS
330
42
102
}
330
42
100
AcDbScale
 70
     0
300
1" = 1'-0"
140
1.0
141
12.0
290
     0
  0
SCALE
  5
50
102
{ACAD_REACTORS
330
42
102
}
330
42
100
AcDbScale
 70
     0
300
1-1/2" = 1'-0"
140
1.5
141
12.0
290
     0
  0
SCALE
  5
51
102
{ACAD_REACTORS
330
42
102
}
330
42
100
AcDbScale
 70
     0
300
3" = 1'-0"
140
3.0
141
12.0
290
     0
  0
SCALE
  5
52
102
{ACAD_REACTORS
330
42
102
}
330
42
100
AcDbScale
 70
     0
300
6" = 1'-0"
140
6.0
141
12.0
290
     0
  0
SCALE
  5
53
102
{ACAD_REACTORS
330
42
102
}
330
42
100
AcDbScale
 70
     0
300
1'-0" = 1'-0"
140
12.0
141
12.0
290
     0
  0
ACDBSECTIONVIEWSTYLE
  5
69
102
{ACAD_XDICTIONARY
360
10E
102
}
102
{ACAD_REACTORS
330
68
102
}
330
68
100
AcDbModelDocViewStyle
 70
     0
  3
Imperial24
290
     0
100
AcDbSectionViewStyle
 70
     0
 71
     0
 90
       78
 71
     1
340
55
 62
   256
 40
0.24
340
0
340
0
 62
   256
 40
0.24
300
I, O, Q, S, X, Z
 40
0.48
 90
        3
 40
0.18
 90
        1
 71
     2
340
5D
 90
       25
 62
   256
340
5D
 90
       50
 62
   256
 40
0.24
 40
0.0
 40
0.24
 71
     3
340
55
 62
   256
 40
0.24
 90
        1
 40
0.75
 90
        1
300
%<\AcVar ViewType \f "%tc1">% %<\AcVar ViewSectionStartId>%-%<\AcVar ViewSectionEndId>%\PSCALE %<\AcVar ViewScale \f "%sn">%
 71
     4
 62
   256
 62
   257
300
ANSI31
 40
1.0
 90
        0
290
     0
290
     0
 90
        6
 40
0.0
 40
1.570796326794896
 40
0.2617993877991494
 40
1.308996938995747
 40
-0.2617993877991494
 40
1.832595714594046
  0
TABLESTYLE
  5
65
102
{ACAD_XDICTIONARY
360
4E5
102
}
102
{ACAD_REACTORS
330
64
102
}
330
64
100
AcDbTableStyle
280
     0
  3
Standard
 70
     0
 71
     0
 40
0.06
 41
0.06
280
     0
281
     0
  7
Standard
140
0.18
170
     2
 62
     0
 63
     7
283
     0
 90
      512
 91
        0
  1

274
    -2
284
     1
 64
     0
275
    -2
285
     1
 65
     0
276
    -2
286
     1
 66
     0
277
    -2
287
     1
 67
     0
278
    -2
288
     1
 68
     0
279
    -2
289
     1
 69
     0
  7
Standard
140
0.25
170
     5
 62
     0
 63
     7
283
     0
 90
      512
 91
        0
  1

274
    -2
284
     1
 64
     0
275
    -2
285
     1
 65
     0
276
    -2
286
     1
 66
     0
277
    -2
287
     1
 67
     0
278
    -2
288
     1
 68
     0
279
    -2
289
     1
 69
     0
  7
Standard
140
0.18
170
     5
 62
     0
 63
     7
283
     0
 90
      512
 91
        0
  1

274
    -2
284
     1
 64
     0
275
    -2
285
     1
 65
     0
276
    -2
286
     1
 66
     0
277
    -2
287
     1
 67
     0
278
    -2
288
     1
 68
     0
279
    -2
289
     1
 69
     0
  0
VISUALSTYLE
  5
2F
102
{ACAD_REACTORS
330
29
102
}
330
29
100
AcDbVisualStyle
  2
2dWireframe
 70
     4
177
     3
291
     0
 70
    58
 90
        0
176
     1
 90
        2
176
     1
 90
        0
176
     1
 90
        0
176
     1
 40
0.6
176
     1
 40
30.0
176
     1
 62
     7
420
 16777215
176
     1
 90
        1
176
     1
 90
        4
176
     1
 62
     7
176
     1
 62
   257
176
     1
 90
        1
176
     1
 90
        1
176
     1
 40
1.0
176
     1
 90
        0
176
     1
 62
   257
176
     1
 40
1.0
176
     1
 90
        1
176
     1
 90
        6
176
     1
 90
        2
176
     1
 62
     7
176
     1
 90
        5
176
     1
 90
        0
176
     1
 90
        0
176
     1
290
     0
176
     1
 90
        1
176
     1
 40
0.0
176
     1
 90
        0
176
     1
290
     1
176
     1
290
     1
176
     1
290
     0
176
     1
290
     0
176
     1
290
     0
176
     1
290
     0
176
     1
290
     0
176
     1
290
     0
176
     1
290
     0
176
     1
 90
       50
176
     1
 40
0.0
176
     1
 40
1.0
176
     1
 90
        0
176
     1
 62
    18
420
        0
176
     1
 90
       50
176
     1
 90
        3
176
     1
 62
     5
420
      255
176
     1
290
     0
176
     1
 90
       50
176
     1
 90
       50
176
     1
 90
       50
176
     1
290
     0
176
     1
 90
       50
176
     1
 62
   256
176
     0
 40
1.0
176
     0
 90
        2
176
     1
  1
strokes_ogs.tif
176
     1
290
     0
176
     1
 40
1.0
176
     1
 40
1.0
176
     1
  0
VISUALSTYLE
  5
2E
102
{ACAD_REACTORS
330
29
102
}
330
29
100
AcDbVisualStyle
  2
Basic
 70
     7
177
     3
291
     1
 70
    58
 90
        1
176
     1
 90
        0
176
     1
 90
        1
176
     1
 90
        0
176
     1
 40
0.6
176
     1
 40
30.0
176
     1
 62
     7
420
 16777215
176
     1
 90
        0
176
     1
 90
        4
176
     1
 62
     7
176
     1
 62
   257
176
     1
 90
        1
176
     1
 90
        1
176
     1
 40
1.0
176
     1
 90
        8
176
     1
 62
     7
176
     1
 40
1.0
176
     1
 90
        1
176
     1
 90
        6
176
     1
 90
        2
176
     1
 62
     7
176
     1
 90
        5
176
     1
 90
        0
176
     1
 90
        0
176
     1
290
     0
176
     1
 90
        1
176
     1
 40
0.0
176
     1
 90
        0
176
     1
290
     0
176
     1
290
     1
176
     1
290
     1
176
     1
290
     0
176
     1
290
     0
176
     1
290
     0
176
     1
290
     0
176
     1
290
     0
176
     1
290
     0
176
     1
 90
       50
176
     1
 40
0.0
176
     1
 40
1.0
176
     1
 90
        0
176
     1
 62
    18
420
        0
176
     1
 90
       50
176
     1
 90
        3
176
     1
 62
     5
420
      255
176
     1
290
     0
176
     1
 90
       50
176
     1
 90
       50
176
     1
 90
       50
176
     1
290
     0
176
     1
 90
       50
176
     1
 62
   256
176
     0
 40
1.0
176
     0
 90
        2
176
     1
  1
strokes_ogs.tif
176
     1
290
     0
176
     1
 40
1.0
176
     1
 40
1.0
176
     1
  0
VISUALSTYLE
  5
35
102
{ACAD_REACTORS
330
29
102
}
330
29
100
AcDbVisualStyle
  2
Brighten
 70
    12
177
     3
291
     1
 70
    58
 90
        2
176
     1
 90
        2
176
     1
 90
        0
176
     1
 90
        0
176
     1
 40
0.6
176
     1
 40
30.0
176
     1
 62
     7
420
 16777215
176
     1
 90
        1
176
     1
 90
        4
176
     1
 62
     7
176
     1
 62
   257
176
     1
 90
        1
176
     1
 90
        1
176
     1
 40
1.0
176
     1
 90
        8
176
     1
 62
     7
176
     1
 40
1.0
176
     1
 90
        1
176
     1
 90
        6
176
     1
 90
        2
176
     1
 62
     7
176
     1
 90
        5
176
     1
 90
        0
176
     1
 90
        0
176
     1
290
     0
176
     1
 90
        1
176
     1
 40
50.0
176
     1
 90
        0
176
     1
290
     0
176
     1
290
     1
176
     1
290
     1
176
     1
290
     0
176
     1
290
     0
176
     1
290
     0
176
     1
290
     0
176
     1
290
     0
176
     1
290
     0
176
     1
 90
       50
176
     1
 40
0.0
176
     1
 40
1.0
176
     1
 90
        0
176
     1
 62
    18
420
        0
176
     1
 90
       50
176
     1
 90
        3
176
     1
 62
     5
420
      255
176
     1
290
     0
176
     1
 90
       50
176
     1
 90
       50
176
     1
 90
       50
176
     1
290
     0
176
     1
 90
       50
176
     1
 62
   256
176
     0
 40
1.0
176
     0
 90
        2
176
     1
  1
strokes_ogs.tif
176
     1
290
     0
176
     1
 40
1.0
176
     1
 40
1.0
176
     1
  0
VISUALSTYLE
  5
39
102
{ACAD_REACTORS
330
29
102
}
330
29
100
AcDbVisualStyle
  2
ColorChange
 70
    16
177
     3
291
     1
 70
    58
 90
        2
176
     1
 90
        2
176
     1
 90
        3
176
     1
 90
        0
176
     1
 40
0.6
176
     1
 40
30.0
176
     1
 62
     8
420
  8421504
176
     1
 90
        1
176
     1
 90
        4
176
     1
 62
     7
176
     1
 62
   257
176
     1
 90
        1
176
     1
 90
        1
176
     1
 40
1.0
176
     1
 90
        8
176
     1
 62
     8
420
  8421504
176
     1
 40
1.0
176
     1
 90
        1
176
     1
 90
        6
176
     1
 90
        2
176
     1
 62
     7
176
     1
 90
        5
176
     1
 90
        0
176
     1
 90
        0
176
     1
290
     0
176
     1
 90
        1
176
     1
 40
0.0
176
     1
 90
        0
176
     1
290
     0
176
     1
290
     1
176
     1
290
     1
176
     1
290
     0
176
     1
290
     0
176
     1
290
     0
176
     1
290
     0
176
     1
290
     0
176
     1
290
     0
176
     1
 90
       50
176
     1
 40
0.0
176
     1
 40
1.0
176
     1
 90
        0
176
     1
 62
    18
420
        0
176
     1
 90
       50
176
     1
 90
        3
176
     1
 62
     5
420
      255
176
     1
290
     0
176
     1
 90
       50
176
     1
 90
       50
176
     1
 90
       50
176
     1
290
     0
176
     1
 90
       50
176
     1
 62
   256
176
     0
 40
1.0
176
     0
 90
        2
176
     1
  1
strokes_ogs.tif
176
     1
290
     0
176
     1
 40
1.0
176
     1
 40
1.0
176
     1
  0
VISUALSTYLE
  5
32
102
{ACAD_REACTORS
330
29
102
}
330
29
100
AcDbVisualStyle
  2
Conceptual
 70
     9
177
     3
291
     0
 70
    58
 90
        3
176
     1
 90
        2
176
     1
 90
        0
176
     1
 90
        0
176
     1
 40
0.6
176
     1
 40
30.0
176
     1
 62
     7
420
 16777215
176
     1
 90
        2
176
     1
 90
        2
176
     1
 62
     7
176
     1
 62
   257
176
     1
 90
        1
176
     1
 90
        1
176
     1
 40
179.0
176
     1
 90
        8
176
     1
 62
     7
176
     1
 40
1.0
176
     1
 90
        1
176
     1
 90
        6
176
     1
 90
        2
176
     1
 62
     7
176
     1
 90
        3
176
     1
 90
        0
176
     1
 90
        0
176
     1
290
     0
176
     1
 90
        1
176
     1
 40
0.0
176
     1
 90
        0
176
     1
290
     0
176
     1
290
     1
176
     1
290
     1
176
     1
290
     0
176
     1
290
     0
176
     1
290
     0
176
     1
290
     0
176
     1
290
     0
176
     1
290
     0
176
     1
 90
       50
176
     1
 40
0.0
176
     1
 40
1.0
176
     1
 90
        0
176
     1
 62
    18
420
        0
176
     1
 90
       50
176
     1
 90
        3
176
     1
 62
     5
420
      255
176
     1
290
     0
176
     1
 90
       50
176
     1
 90
       50
176
     1
 90
       50
176
     1
290
     0
176
     1
 90
       50
176
     1
 62
   256
176
     0
 40
1.0
176
     0
 90
        2
176
     1
  1
strokes_ogs.tif
176
     1
290
     0
176
     1
 40
1.0
176
     1
 40
1.0
176
     1
  0
VISUALSTYLE
  5
34
102
{ACAD_REACTORS
330
29
102
}
330
29
100
AcDbVisualStyle
  2
Dim
 70
    11
177
     3
291
     1
 70
    58
 90
        2
176
     1
 90
        2
176
     1
 90
        0
176
     1
 90
        0
176
     1
 40
0.6
176
     1
 40
30.0
176
     1
 62
     7
420
 16777215
176
     1
 90
        1
176
     1
 90
        4
176
     1
 62
     7
176
     1
 62
   257
176
     1
 90
        1
176
     1
 90
        1
176
     1
 40
1.0
176
     1
 90
        8
176
     1
 62
     7
176
     1
 40
1.0
176
     1
 90
        1
176
     1
 90
        6
176
     1
 90
        2
176
     1
 62
     7
176
     1
 90
        5
176
     1
 90
        0
176
     1
 90
        0
176
     1
290
     0
176
     1
 90
        1
176
     1
 40
-50.0
176
     1
 90
        0
176
     1
290
     0
176
     1
290
     1
176
     1
290
     1
176
     1
290
     0
176
     1
290
     0
176
     1
290
     0
176
     1
290
     0
176
     1
290
     0
176
     1
290
     0
176
     1
 90
       50
176
     1
 40
0.0
176
     1
 40
1.0
176
     1
 90
        0
176
     1
 62
    18
420
        0
176
     1
 90
       50
176
     1
 90
        3
176
     1
 62
     5
420
      255
176
     1
290
     0
176
     1
 90
       50
176
     1
 90
       50
176
     1
 90
       50
176
     1
290
     0
176
     1
 90
       50
176
     1
 62
   256
176
     0
 40
1.0
176
     0
 90
        2
176
     1
  1
strokes_ogs.tif
176
     1
290
     0
176
     1
 40
1.0
176
     1
 40
1.0
176
     1
  0
VISUALSTYLE
  5
41
102
{ACAD_REACTORS
330
29
102
}
330
29
100
AcDbVisualStyle
  2
EdgeColorOff
 70
    22
177
     3
291
     1
 70
    58
 90
        2
176
     0
 90
        2
176
     0
 90
        0
176
     0
 90
        0
176
     0
 40
0.6
176
     0
 40
30.0
176
     0
 62
     7
420
 16777215
176
     0
 90
        1
176
     0
 90
        4
176
     0
 62
     7
176
     0
 62
   257
176
     0
 90
        1
176
     0
 90
        1
176
     0
 40
1.0
176
     0
 90
        8
176
     2
 62
     7
176
     0
 40
1.0
176
     0
 90
        1
176
     0
 90
        6
176
     0
 90
        2
176
     0
 62
     7
176
     0
 90
        5
176
     0
 90
        0
176
     0
 90
        0
176
     0
290
     0
176
     0
 90
        1
176
     0
 40
0.0
176
     0
 90
        0
176
     0
290
     0
176
     0
290
     1
176
     0
290
     1
176
     0
290
     0
176
     0
290
     0
176
     0
290
     0
176
     0
290
     0
176
     0
290
     0
176
     0
290
     0
176
     0
 90
       50
176
     0
 40
0.0
176
     0
 40
1.0
176
     0
 90
        0
176
     0
 62
    18
420
        0
176
     0
 90
       50
176
     0
 90
        3
176
     0
 62
     5
420
      255
176
     0
290
     0
176
     0
 90
       50
176
     0
 90
       50
176
     0
 90
       50
176
     0
290
     0
176
     0
 90
       50
176
     0
 62
   256
176
     0
 40
1.0
176
     0
 90
        2
176
     0
  1
strokes_ogs.tif
176
     0
290
     0
176
     0
 40
1.0
176
     0
 40
1.0
176
     0
  0
VISUALSTYLE
  5
38
102
{ACAD_REACTORS
330
29
102
}
330
29
100
AcDbVisualStyle
  2
Facepattern
 70
    15
177
     3
291
     1
 70
    58
 90
        2
176
     1
 90
        2
176
     1
 90
        0
176
     1
 90
        0
176
     1
 40
0.6
176
     1
 40
30.0
176
     1
 62
     7
420
 16777215
176
     1
 90
        1
176
     1
 90
        4
176
     1
 62
     7
176
     1
 62
   257
176
     1
 90
        1
176
     1
 90
        1
176
     1
 40
1.0
176
     1
 90
        8
176
     1
 62
     7
176
     1
 40
1.0
176
     1
 90
        1
176
     1
 90
        6
176
     1
 90
        2
176
     1
 62
     7
176
     1
 90
        5
176
     1
 90
        0
176
     1
 90
        0
176
     1
290
     0
176
     1
 90
        1
176
     1
 40
0.0
176
     1
 90
        0
176
     1
290
     0
176
     1
290
     1
176
     1
290
     1
176
     1
290
     0
176
     1
290
     0
176
     1
290
     0
176
     1
290
     0
176
     1
290
     0
176
     1
290
     0
176
     1
 90
       50
176
     1
 40
0.0
176
     1
 40
1.0
176
     1
 90
        0
176
     1
 62
    18
420
        0
176
     1
 90
       50
176
     1
 90
        3
176
     1
 62
     5
420
      255
176
     1
290
     0
176
     1
 90
       50
176
     1
 90
       50
176
     1
 90
       50
176
     1
290
     0
176
     1
 90
       50
176
     1
 62
   256
176
     0
 40
1.0
176
     0
 90
        2
176
     1
  1
strokes_ogs.tif
176
     1
290
     0
176
     1
 40
1.0
176
     1
 40
1.0
176
     1
  0
VISUALSTYLE
  5
2A
102
{ACAD_REACTORS
330
29
102
}
330
29
100
AcDbVisualStyle
  2
Flat
 70
     0
177
     3
291
     1
 70
    58
 90
        2
176
     1
 90
        1
176
     1
 90
        1
176
     1
 90
        2
176
     1
 40
0.6
176
     1
 40
30.0
176
     1
 62
     7
420
 16777215
176
     1
 90
        0
176
     1
 90
        0
176
     1
 62
     7
176
     1
 62
   257
176
     1
 90
        1
176
     1
 90
        1
176
     1
 40
1.0
176
     1
 90
        8
176
     1
 62
     7
176
     1
 40
1.0
176
     1
 90
        1
176
     1
 90
        6
176
     1
 90
        2
176
     1
 62
     7
176
     1
 90
        5
176
     1
 90
        0
176
     1
 90
        0
176
     1
290
     0
176
     1
 90
       13
176
     1
 40
0.0
176
     1
 90
        0
176
     1
290
     0
176
     1
290
     1
176
     1
290
     1
176
     1
290
     0
176
     1
290
     0
176
     1
290
     0
176
     1
290
     0
176
     1
290
     0
176
     1
290
     0
176
     1
 90
       50
176
     1
 40
0.0
176
     1
 40
1.0
176
     1
 90
        0
176
     1
 62
    18
420
        0
176
     1
 90
       50
176
     1
 90
        3
176
     1
 62
     5
420
      255
176
     1
290
     0
176
     1
 90
       50
176
     1
 90
       50
176
     1
 90
       50
176
     1
290
     0
176
     1
 90
       50
176
     1
 62
   256
176
     0
 40
1.0
176
     0
 90
        2
176
     1
  1
strokes_ogs.tif
176
     1
290
     0
176
     1
 40
1.0
176
     1
 40
1.0
176
     1
  0
VISUALSTYLE
  5
2B
102
{ACAD_REACTORS
330
29
102
}
330
29
100
AcDbVisualStyle
  2
FlatWithEdges
 70
     1
177
     3
291
     1
 70
    58
 90
        2
176
     1
 90
        1
176
     1
 90
        1
176
     1
 90
        2
176
     1
 40
0.6
176
     1
 40
30.0
176
     1
 62
     7
420
 16777215
176
     1
 90
        1
176
     1
 90
        0
176
     1
 62
     7
176
     1
 62
   257
176
     1
 90
        1
176
     1
 90
        1
176
     1
 40
1.0
176
     1
 90
        0
176
     1
 62
   257
176
     1
 40
1.0
176
     1
 90
        1
176
     1
 90
        6
176
     1
 90
        2
176
     1
 62
     7
176
     1
 90
        5
176
     1
 90
        0
176
     1
 90
        0
176
     1
290
     0
176
     1
 90
       13
176
     1
 40
0.0
176
     1
 90
        0
176
     1
290
     0
176
     1
290
     1
176
     1
290
     1
176
     1
290
     0
176
     1
290
     0
176
     1
290
     0
176
     1
290
     0
176
     1
290
     0
176
     1
290
     0
176
     1
 90
       50
176
     1
 40
0.0
176
     1
 40
1.0
176
     1
 90
        0
176
     1
 62
    18
420
        0
176
     1
 90
       50
176
     1
 90
        3
176
     1
 62
     5
420
      255
176
     1
290
     0
176
     1
 90
       50
176
     1
 90
       50
176
     1
 90
       50
176
     1
290
     0
176
     1
 90
       50
176
     1
 62
   256
176
     0
 40
1.0
176
     0
 90
        2
176
     1
  1
strokes_ogs.tif
176
     1
290
     0
176
     1
 40
1.0
176
     1
 40
1.0
176
     1
  0
VISUALSTYLE
  5
2C
102
{ACAD_REACTORS
330
29
102
}
330
29
100
AcDbVisualStyle
  2
Gouraud
 70
     2
177
     3
291
     1
 70
    58
 90
        2
176
     1
 90
        2
176
     1
 90
        1
176
     1
 90
        2
176
     1
 40
0.6
176
     1
 40
30.0
176
     1
 62
     7
420
 16777215
176
     1
 90
        0
176
     1
 90
        0
176
     1
 62
     7
176
     1
 62
   257
176
     1
 90
        1
176
     1
 90
        1
176
     1
 40
1.0
176
     1
 90
        0
176
     1
 62
     7
176
     1
 40
1.0
176
     1
 90
        1
176
     1
 90
        6
176
     1
 90
        2
176
     1
 62
     7
176
     1
 90
        5
176
     1
 90
        0
176
     1
 90
        0
176
     1
290
     0
176
     1
 90
       13
176
     1
 40
0.0
176
     1
 90
        0
176
     1
290
     0
176
     1
290
     1
176
     1
290
     1
176
     1
290
     0
176
     1
290
     0
176
     1
290
     0
176
     1
290
     0
176
     1
290
     0
176
     1
290
     0
176
     1
 90
       50
176
     1
 40
0.0
176
     1
 40
1.0
176
     1
 90
        0
176
     1
 62
    18
420
        0
176
     1
 90
       50
176
     1
 90
        3
176
     1
 62
     5
420
      255
176
     1
290
     0
176
     1
 90
       50
176
     1
 90
       50
176
     1
 90
       50
176
     1
290
     0
176
     1
 90
       50
176
     1
 62
   256
176
     0
 40
1.0
176
     0
 90
        2
176
     1
  1
strokes_ogs.tif
176
     1
290
     0
176
     1
 40
1.0
176
     1
 40
1.0
176
     1
  0
VISUALSTYLE
  5
2D
102
{ACAD_REACTORS
330
29
102
}
330
29
100
AcDbVisualStyle
  2
GouraudWithEdges
 70
     3
177
     3
291
     1
 70
    58
 90
        2
176
     1
 90
        2
176
     1
 90
        1
176
     1
 90
        2
176
     1
 40
0.6
176
     1
 40
30.0
176
     1
 62
     7
420
 16777215
176
     1
 90
        1
176
     1
 90
        0
176
     1
 62
     7
176
     1
 62
   257
176
     1
 90
        1
176
     1
 90
        1
176
     1
 40
1.0
176
     1
 90
        0
176
     1
 62
   257
176
     1
 40
1.0
176
     1
 90
        1
176
     1
 90
        6
176
     1
 90
        2
176
     1
 62
     7
176
     1
 90
        5
176
     1
 90
        0
176
     1
 90
        0
176
     1
290
     0
176
     1
 90
       13
176
     1
 40
0.0
176
     1
 90
        0
176
     1
290
     0
176
     1
290
     1
176
     1
290
     1
176
     1
290
     0
176
     1
290
     0
176
     1
290
     0
176
     1
290
     0
176
     1
290
     0
176
     1
290
     0
176
     1
 90
       50
176
     1
 40
0.0
176
     1
 40
1.0
176
     1
 90
        0
176
     1
 62
    18
420
        0
176
     1
 90
       50
176
     1
 90
        3
176
     1
 62
     5
420
      255
176
     1
290
     0
176
     1
 90
       50
176
     1
 90
       50
176
     1
 90
       50
176
     1
290
     0
176
     1
 90
       50
176
     1
 62
   256
176
     0
 40
1.0
176
     0
 90
        2
176
     1
  1
strokes_ogs.tif
176
     1
290
     0
176
     1
 40
1.0
176
     1
 40
1.0
176
     1
  0
VISUALSTYLE
  5
31
102
{ACAD_REACTORS
330
29
102
}
330
29
100
AcDbVisualStyle
  2
Hidden
 70
     6
177
     3
291
     0
 70
    58
 90
        1
176
     1
 90
        2
176
     1
 90
        2
176
     1
 90
        0
176
     1
 40
0.6
176
     1
 40
30.0
176
     1
 62
     7
420
 16777215
176
     1
 90
        2
176
     1
 90
        2
176
     1
 62
     7
176
     1
 62
   257
176
     1
 90
        2
176
     1
 90
        1
176
     1
 40
40.0
176
     1
 90
        0
176
     1
 62
   257
176
     1
 40
1.0
176
     1
 90
        1
176
     1
 90
        6
176
     1
 90
        2
176
     1
 62
     7
176
     1
 90
        3
176
     1
 90
        0
176
     1
 90
        0
176
     1
290
     0
176
     1
 90
        1
176
     1
 40
0.0
176
     1
 90
        0
176
     1
290
     0
176
     1
290
     1
176
     1
290
     1
176
     1
290
     0
176
     1
290
     0
176
     1
290
     0
176
     1
290
     0
176
     1
290
     0
176
     1
290
     0
176
     1
 90
       50
176
     1
 40
0.0
176
     1
 40
1.0
176
     1
 90
        0
176
     1
 62
    18
420
        0
176
     1
 90
       50
176
     1
 90
        3
176
     1
 62
     5
420
      255
176
     1
290
     0
176
     1
 90
       50
176
     1
 90
       50
176
     1
 90
       50
176
     1
290
     0
176
     1
 90
       50
176
     1
 62
   256
176
     0
 40
1.0
176
     0
 90
        2
176
     1
  1
strokes_ogs.tif
176
     1
290
     0
176
     1
 40
1.0
176
     1
 40
1.0
176
     1
  0
VISUALSTYLE
  5
3F
102
{ACAD_REACTORS
330
29
102
}
330
29
100
AcDbVisualStyle
  2
JitterOff
 70
    20
177
     3
291
     1
 70
    58
 90
        2
176
     0
 90
        2
176
     0
 90
        0
176
     0
 90
        0
176
     0
 40
0.6
176
     0
 40
30.0
176
     0
 62
     7
420
 16777215
176
     0
 90
        1
176
     0
 90
        4
176
     0
 62
     7
176
     0
 62
   257
176
     0
 90
        1
176
     0
 90
        1
176
     0
 40
1.0
176
     0
 90
       10
176
     2
 62
     7
176
     0
 40
1.0
176
     0
 90
        1
176
     0
 90
        6
176
     0
 90
        2
176
     0
 62
     7
176
     0
 90
        5
176
     0
 90
        0
176
     0
 90
        0
176
     0
290
     0
176
     0
 90
        1
176
     0
 40
0.0
176
     0
 90
        0
176
     0
290
     0
176
     0
290
     1
176
     0
290
     1
176
     0
290
     0
176
     0
290
     0
176
     0
290
     0
176
     0
290
     0
176
     0
290
     0
176
     0
290
     0
176
     0
 90
       50
176
     0
 40
0.0
176
     0
 40
1.0
176
     0
 90
        0
176
     0
 62
    18
420
        0
176
     0
 90
       50
176
     0
 90
        3
176
     0
 62
     5
420
      255
176
     0
290
     0
176
     0
 90
       50
176
     0
 90
       50
176
     0
 90
       50
176
     0
290
     0
176
     0
 90
       50
176
     0
 62
   256
176
     0
 40
1.0
176
     0
 90
        2
176
     0
  1
strokes_ogs.tif
176
     0
290
     0
176
     0
 40
1.0
176
     0
 40
1.0
176
     0
  0
VISUALSTYLE
  5
37
102
{ACAD_REACTORS
330
29
102
}
330
29
100
AcDbVisualStyle
  2
Linepattern
 70
    14
177
     3
291
     1
 70
    58
 90
        2
176
     1
 90
        2
176
     1
 90
        0
176
     1
 90
        0
176
     1
 40
0.6
176
     1
 40
30.0
176
     1
 62
     7
420
 16777215
176
     1
 90
        1
176
     1
 90
        4
176
     1
 62
     7
176
     1
 62
   257
176
     1
 90
        7
176
     1
 90
        7
176
     1
 40
1.0
176
     1
 90
        8
176
     1
 62
     7
176
     1
 40
1.0
176
     1
 90
        1
176
     1
 90
        6
176
     1
 90
        2
176
     1
 62
     7
176
     1
 90
        5
176
     1
 90
        0
176
     1
 90
        0
176
     1
290
     0
176
     1
 90
        1
176
     1
 40
0.0
176
     1
 90
        0
176
     1
290
     0
176
     1
290
     1
176
     1
290
     1
176
     1
290
     0
176
     1
290
     0
176
     1
290
     0
176
     1
290
     0
176
     1
290
     0
176
     1
290
     0
176
     1
 90
       50
176
     1
 40
0.0
176
     1
 40
1.0
176
     1
 90
        0
176
     1
 62
    18
420
        0
176
     1
 90
       50
176
     1
 90
        3
176
     1
 62
     5
420
      255
176
     1
290
     0
176
     1
 90
       50
176
     1
 90
       50
176
     1
 90
       50
176
     1
290
     0
176
     1
 90
       50
176
     1
 62
   256
176
     0
 40
1.0
176
     0
 90
        2
176
     1
  1
strokes_ogs.tif
176
     1
290
     0
176
     1
 40
1.0
176
     1
 40
1.0
176
     1
  0
VISUALSTYLE
  5
40
102
{ACAD_REACTORS
330
29
102
}
330
29
100
AcDbVisualStyle
  2
OverhangOff
 70
    21
177
     3
291
     1
 70
    58
 90
        2
176
     0
 90
        2
176
     0
 90
        0
176
     0
 90
        0
176
     0
 40
0.6
176
     0
 40
30.0
176
     0
 62
     7
420
 16777215
176
     0
 90
        1
176
     0
 90
        4
176
     0
 62
     7
176
     0
 62
   257
176
     0
 90
        1
176
     0
 90
        1
176
     0
 40
1.0
176
     0
 90
        9
176
     2
 62
     7
176
     0
 40
1.0
176
     0
 90
        1
176
     0
 90
        6
176
     0
 90
        2
176
     0
 62
     7
176
     0
 90
        5
176
     0
 90
        0
176
     0
 90
        0
176
     0
290
     0
176
     0
 90
        1
176
     0
 40
0.0
176
     0
 90
        0
176
     0
290
     0
176
     0
290
     1
176
     0
290
     1
176
     0
290
     0
176
     0
290
     0
176
     0
290
     0
176
     0
290
     0
176
     0
290
     0
176
     0
290
     0
176
     0
 90
       50
176
     0
 40
0.0
176
     0
 40
1.0
176
     0
 90
        0
176
     0
 62
    18
420
        0
176
     0
 90
       50
176
     0
 90
        3
176
     0
 62
     5
420
      255
176
     0
290
     0
176
     0
 90
       50
176
     0
 90
       50
176
     0
 90
       50
176
     0
290
     0
176
     0
 90
       50
176
     0
 62
   256
176
     0
 40
1.0
176
     0
 90
        2
176
     0
  1
strokes_ogs.tif
176
     0
290
     0
176
     0
 40
1.0
176
     0
 40
1.0
176
     0
  0
VISUALSTYLE
  5
33
102
{ACAD_REACTORS
330
29
102
}
330
29
100
AcDbVisualStyle
  2
Realistic
 70
     8
177
     3
291
     0
 70
    58
 90
        2
176
     1
 90
        3
176
     1
 90
        0
176
     1
 90
        2
176
     1
 40
0.6
176
     1
 40
30.0
176
     1
 62
     7
420
 16777215
176
     1
 90
        0
176
     1
 90
        0
176
     1
 62
     7
176
     1
 62
   257
176
     1
 90
        1
176
     1
 90
        1
176
     1
 40
1.0
176
     1
 90
        8
176
     1
 62
   257
176
     1
 40
1.0
176
     1
 90
        1
176
     1
 90
        6
176
     1
 90
        2
176
     1
 62
     7
176
     1
 90
        3
176
     1
 90
        0
176
     1
 90
        0
176
     1
290
     0
176
     1
 90
       13
176
     1
 40
0.0
176
     1
 90
        0
176
     1
290
     0
176
     1
290
     1
176
     1
290
     1
176
     1
290
     0
176
     1
290
     0
176
     1
290
     0
176
     1
290
     0
176
     1
290
     0
176
     1
290
     0
176
     1
 90
       50
176
     1
 40
0.0
176
     1
 40
1.0
176
     1
 90
        0
176
     1
 62
    18
420
        0
176
     1
 90
       50
176
     1
 90
        3
176
     1
 62
     5
420
      255
176
     1
290
     0
176
     1
 90
       50
176
     1
 90
       50
176
     1
 90
       50
176
     1
290
     0
176
     1
 90
       50
176
     1
 62
   256
176
     0
 40
1.0
176
     0
 90
        2
176
     1
  1
strokes_ogs.tif
176
     1
290
     0
176
     1
 40
1.0
176
     1
 40
1.0
176
     1
  0
VISUALSTYLE
  5
3E
102
{ACAD_REACTORS
330
29
102
}
330
29
100
AcDbVisualStyle
  2
Shaded
 70
    27
177
     3
291
     0
 70
    58
 90
        2
176
     1
 90
        2
176
     1
 90
        1
176
     1
 90
        2
176
     1
 40
0.6
176
     1
 40
30.0
176
     1
 62
     7
420
 16777215
176
     1
 90
        0
176
     1
 90
        4
176
     1
 62
     7
176
     1
 62
   257
176
     1
 90
        1
176
     1
 90
        1
176
     1
 40
1.0
176
     1
 90
        8
176
     1
 62
   257
176
     1
 40
1.0
176
     1
 90
        1
176
     1
 90
        6
176
     1
 90
        2
176
     1
 62
     8
420
  7895160
176
     1
 90
        3
176
     1
 90
        0
176
     1
 90
        0
176
     1
290
     0
176
     1
 90
        5
176
     1
 40
0.0
176
     1
 90
        0
176
     1
290
     0
176
     1
290
     1
176
     1
290
     1
176
     1
290
     0
176
     1
290
     0
176
     1
290
     0
176
     1
290
     0
176
     1
290
     0
176
     1
290
     0
176
     1
 90
       50
176
     1
 40
0.0
176
     1
 40
1.0
176
     1
 90
        0
176
     1
 62
    18
420
        0
176
     1
 90
       50
176
     1
 90
        3
176
     1
 62
     5
420
      255
176
     1
290
     0
176
     1
 90
       50
176
     1
 90
       50
176
     1
 90
       50
176
     1
290
     0
176
     1
 90
       50
176
     1
 62
   256
176
     0
 40
1.0
176
     0
 90
        2
176
     1
  1
strokes_ogs.tif
176
     1
290
     0
176
     1
 40
1.0
176
     1
 40
1.0
176
     1
  0
VISUALSTYLE
  5
3D
102
{ACAD_REACTORS
330
29
102
}
330
29
100
AcDbVisualStyle
  2
Shaded with edges
 70
    26
177
     3
291
     0
 70
    58
 90
        2
176
     1
 90
        2
176
     1
 90
        1
176
     1
 90
        2
176
     1
 40
0.6
176
     1
 40
30.0
176
     1
 62
     7
420
 16777215
176
     1
 90
        1
176
     1
 90
       10
176
     1
 62
     7
176
     1
 62
   257
176
     1
 90
        2
176
     1
 90
        1
176
     1
 40
1.0
176
     1
 90
        8
176
     1
 62
   257
176
     1
 40
1.0
176
     1
 90
        1
176
     1
 90
        6
176
     1
 90
        2
176
     1
 62
     7
176
     1
 90
        3
176
     1
 90
        0
176
     1
 90
        0
176
     1
290
     0
176
     1
 90
        5
176
     1
 40
0.0
176
     1
 90
        0
176
     1
290
     0
176
     1
290
     1
176
     1
290
     1
176
     1
290
     0
176
     1
290
     0
176
     1
290
     0
176
     1
290
     0
176
     1
290
     0
176
     1
290
     0
176
     1
 90
       50
176
     1
 40
0.0
176
     1
 40
1.0
176
     1
 90
        0
176
     1
 62
    18
420
        0
176
     1
 90
       50
176
     1
 90
        3
176
     1
 62
     5
420
      255
176
     1
290
     0
176
     1
 90
       50
176
     1
 90
       50
176
     1
 90
       50
176
     1
290
     0
176
     1
 90
       50
176
     1
 62
   256
176
     0
 40
1.0
176
     0
 90
        2
176
     1
  1
strokes_ogs.tif
176
     1
290
     0
176
     1
 40
1.0
176
     1
 40
1.0
176
     1
  0
VISUALSTYLE
  5
3A
102
{ACAD_REACTORS
330
29
102
}
330
29
100
AcDbVisualStyle
  2
Shades of Gray
 70
    23
177
     3
291
     0
 70
    58
 90
        2
176
     1
 90
        2
176
     1
 90
        3
176
     1
 90
        0
176
     1
 40
0.6
176
     1
 40
30.0
176
     1
 62
     7
420
 16777215
176
     1
 90
        2
176
     1
 90
        2
176
     1
 62
     7
176
     1
 62
     7
176
     1
 90
        1
176
     1
 90
        1
176
     1
 40
40.0
176
     1
 90
        8
176
     1
 62
     7
176
     1
 40
1.0
176
     1
 90
        1
176
     1
 90
        6
176
     1
 90
        2
176
     1
 62
     7
176
     1
 90
        3
176
     1
 90
        0
176
     1
 90
        0
176
     1
290
     0
176
     1
 90
        1
176
     1
 40
0.0
176
     1
 90
        0
176
     1
290
     0
176
     1
290
     1
176
     1
290
     1
176
     1
290
     0
176
     1
290
     0
176
     1
290
     0
176
     1
290
     0
176
     1
290
     0
176
     1
290
     0
176
     1
 90
       50
176
     1
 40
0.0
176
     1
 40
1.0
176
     1
 90
        0
176
     1
 62
    18
420
        0
176
     1
 90
       50
176
     1
 90
        3
176
     1
 62
     5
420
      255
176
     1
290
     0
176
     1
 90
       50
176
     1
 90
       50
176
     1
 90
       50
176
     1
290
     0
176
     1
 90
       50
176
     1
 62
   256
176
     0
 40
1.0
176
     0
 90
        2
176
     1
  1
strokes_ogs.tif
176
     1
290
     0
176
     1
 40
1.0
176
     1
 40
1.0
176
     1
  0
VISUALSTYLE
  5
3B
102
{ACAD_REACTORS
330
29
102
}
330
29
100
AcDbVisualStyle
  2
Sketchy
 70
    24
177
     3
291
     0
 70
    58
 90
        1
176
     1
 90
        2
176
     1
 90
        2
176
     1
 90
        0
176
     1
 40
0.6
176
     1
 40
30.0
176
     1
 62
     7
420
 16777215
176
     1
 90
        2
176
     1
 90
        2
176
     1
 62
     7
176
     1
 62
     7
176
     1
 90
        1
176
     1
 90
        1
176
     1
 40
40.0
176
     1
 90
       11
176
     1
 62
     7
176
     1
 40
1.0
176
     1
 90
        1
176
     1
 90
        6
176
     1
 90
        2
176
     1
 62
     7
176
     1
 90
        6
176
     1
 90
        0
176
     1
 90
        0
176
     1
290
     0
176
     1
 90
        1
176
     1
 40
0.0
176
     1
 90
        0
176
     1
290
     0
176
     1
290
     1
176
     1
290
     1
176
     1
290
     0
176
     1
290
     0
176
     1
290
     0
176
     1
290
     0
176
     1
290
     0
176
     1
290
     0
176
     1
 90
       50
176
     1
 40
0.0
176
     1
 40
1.0
176
     1
 90
        0
176
     1
 62
    18
420
        0
176
     1
 90
       50
176
     1
 90
        3
176
     1
 62
     5
420
      255
176
     1
290
     0
176
     1
 90
       50
176
     1
 90
       50
176
     1
 90
       50
176
     1
290
     0
176
     1
 90
       50
176
     1
 62
   256
176
     0
 40
1.0
176
     0
 90
        2
176
     1
  1
strokes_ogs.tif
176
     1
290
     0
176
     1
 40
1.0
176
     1
 40
1.0
176
     1
  0
VISUALSTYLE
  5
36
102
{ACAD_REACTORS
330
29
102
}
330
29
100
AcDbVisualStyle
  2
Thicken
 70
    13
177
     3
291
     1
 70
    58
 90
        2
176
     1
 90
        2
176
     1
 90
        0
176
     1
 90
        0
176
     1
 40
0.6
176
     1
 40
30.0
176
     1
 62
     7
420
 16777215
176
     1
 90
        1
176
     1
 90
        4
176
     1
 62
     7
176
     1
 62
   257
176
     1
 90
        1
176
     1
 90
        1
176
     1
 40
1.0
176
     1
 90
       12
176
     1
 62
     7
176
     1
 40
1.0
176
     1
 90
        1
176
     1
 90
        6
176
     1
 90
        2
176
     1
 62
     7
176
     1
 90
        5
176
     1
 90
        0
176
     1
 90
        0
176
     1
290
     0
176
     1
 90
        1
176
     1
 40
0.0
176
     1
 90
        0
176
     1
290
     0
176
     1
290
     1
176
     1
290
     1
176
     1
290
     0
176
     1
290
     0
176
     1
290
     0
176
     1
290
     0
176
     1
290
     0
176
     1
290
     0
176
     1
 90
       50
176
     1
 40
0.0
176
     1
 40
1.0
176
     1
 90
        0
176
     1
 62
    18
420
        0
176
     1
 90
       50
176
     1
 90
        3
176
     1
 62
     5
420
      255
176
     1
290
     0
176
     1
 90
       50
176
     1
 90
       50
176
     1
 90
       50
176
     1
290
     0
176
     1
 90
       50
176
     1
 62
   256
176
     0
 40
1.0
176
     0
 90
        2
176
     1
  1
strokes_ogs.tif
176
     1
290
     0
176
     1
 40
1.0
176
     1
 40
1.0
176
     1
  0
VISUALSTYLE
  5
30
102
{ACAD_REACTORS
330
29
102
}
330
29
100
AcDbVisualStyle
  2
Wireframe
 70
     5
177
     3
291
     0
 70
    58
 90
        0
176
     1
 90
        2
176
     1
 90
        0
176
     1
 90
        0
176
     1
 40
0.6
176
     1
 40
30.0
176
     1
 62
     7
420
 16777215
176
     1
 90
        1
176
     1
 90
        4
176
     1
 62
     7
176
     1
 62
   257
176
     1
 90
        1
176
     1
 90
        1
176
     1
 40
1.0
176
     1
 90
        0
176
     1
 62
   257
176
     1
 40
1.0
176
     1
 90
        1
176
     1
 90
        6
176
     1
 90
        2
176
     1
 62
     7
176
     1
 90
        3
176
     1
 90
        0
176
     1
 90
        0
176
     1
290
     0
176
     1
 90
        1
176
     1
 40
0.0
176
     1
 90
        0
176
     1
290
     0
176
     1
290
     1
176
     1
290
     1
176
     1
290
     0
176
     1
290
     0
176
     1
290
     0
176
     1
290
     0
176
     1
290
     0
176
     1
290
     0
176
     1
 90
       50
176
     1
 40
0.0
176
     1
 40
1.0
176
     1
 90
        0
176
     1
 62
    18
420
        0
176
     1
 90
       50
176
     1
 90
        3
176
     1
 62
     5
420
      255
176
     1
290
     0
176
     1
 90
       50
176
     1
 90
       50
176
     1
 90
       50
176
     1
290
     0
176
     1
 90
       50
176
     1
 62
   256
176
     0
 40
1.0
176
     0
 90
        2
176
     1
  1
strokes_ogs.tif
176
     1
290
     0
176
     1
 40
1.0
176
     1
 40
1.0
176
     1
  0
VISUALSTYLE
  5
3C
102
{ACAD_REACTORS
330
29
102
}
330
29
100
AcDbVisualStyle
  2
X-Ray
 70
    25
177
     3
291
     0
 70
    58
 90
        2
176
     1
 90
        2
176
     1
 90
        1
176
     1
 90
        1
176
     1
 40
0.5
176
     1
 40
30.0
176
     1
 62
     7
420
 16777215
176
     1
 90
        1
176
     1
 90
        0
176
     1
 62
     7
176
     1
 62
   257
176
     1
 90
        1
176
     1
 90
        1
176
     1
 40
1.0
176
     1
 90
        8
176
     1
 62
     7
176
     1
 40
1.0
176
     1
 90
        1
176
     1
 90
        6
176
     1
 90
        2
176
     1
 62
     7
176
     1
 90
        3
176
     1
 90
        0
176
     1
 90
        0
176
     1
290
     0
176
     1
 90
       13
176
     1
 40
0.0
176
     1
 90
        0
176
     1
290
     0
176
     1
290
     1
176
     1
290
     1
176
     1
290
     0
176
     1
290
     0
176
     1
290
     0
176
     1
290
     0
176
     1
290
     0
176
     1
290
     0
176
     1
 90
       50
176
     1
 40
0.0
176
     1
 40
1.0
176
     1
 90
        0
176
     1
 62
    18
420
        0
176
     1
 90
       50
176
     1
 90
        3
176
     1
 62
     5
420
      255
176
     1
290
     0
176
     1
 90
       50
176
     1
 90
       50
176
     1
 90
       50
176
     1
290
     0
176
     1
 90
       50
176
     1
 62
   256
176
     0
 40
1.0
176
     0
 90
        2
176
     1
  1
strokes_ogs.tif
176
     1
290
     0
176
     1
 40
1.0
176
     1
 40
1.0
176
     1
  0
DICTIONARYVAR
  5
118
102
{ACAD_REACTORS
330
113
102
}
330
113
100
DictionaryVariables
280
     0
  1
1:1
  0
DICTIONARYVAR
  5
115
102
{ACAD_REACTORS
330
113
102
}
330
113
100
DictionaryVariables
280
     0
  1
STANDARD
  0
DICTIONARYVAR
  5
114
102
{ACAD_REACTORS
330
113
102
}
330
113
100
DictionaryVariables
280
     0
  1
STANDARD
  0
DICTIONARYVAR
  5
116
102
{ACAD_REACTORS
330
113
102
}
330
113
100
DictionaryVariables
280
     0
  1
Imperial24
  0
DICTIONARYVAR
  5
117
102
{ACAD_REACTORS
330
113
102
}
330
113
100
DictionaryVariables
280
     0
  1
Imperial24
  0
XRECORD
  5
10A
102
{ACAD_REACTORS
330
108
102
}
330
108
100
AcDbXrecord
280
     1
  1
BUILDING_ID
  1
Faucet_Vessel-DXV-Fitzgerald-D35160152_Series
  1
FLOOR_ID
  1
35
  0
XRECORD
  5
109
102
{ACAD_REACTORS
330
108
102
}
330
108
100
AcDbXrecord
280
     1
  1
-2001160
  1
Plumbing Fixtures
  1
-2007000
  1
Connector Element
  0
DICTIONARY
  5
110
330
6B
100
AcDbDictionary
280
     1
281
     1
  3
ACAD_XREC_ROUNDTRIP
360
4E8
  0
DICTIONARY
  5
1A
330
19
100
AcDbDictionary
280
     1
281
     1
  3
BUMPTILE
360
1C
  3
DIFFUSETILE
360
1B
  3
OPACITYTILE
360
1F
  3
REFLECTIONTILE
360
1E
  3
REFRACTIONTILE
360
20
  3
SPECULARTILE
360
1D
  0
DICTIONARY
  5
12
330
11
100
AcDbDictionary
280
     1
281
     1
  3
BUMPTILE
360
14
  3
DIFFUSETILE
360
13
  3
OPACITYTILE
360
17
  3
REFLECTIONTILE
360
16
  3
REFRACTIONTILE
360
18
  3
SPECULARTILE
360
15
  0
DICTIONARY
  5
22
330
21
100
AcDbDictionary
280
     1
281
     1
  3
BUMPTILE
360
24
  3
DIFFUSETILE
360
23
  3
OPACITYTILE
360
27
  3
REFLECTIONTILE
360
26
  3
REFRACTIONTILE
360
28
  3
SPECULARTILE
360
25
  0
DICTIONARY
  5
10E
330
69
100
AcDbDictionary
280
     1
281
     1
  3
ACAD_XREC_ROUNDTRIP
360
4E7
  0
DICTIONARY
  5
4E5
330
65
100
AcDbDictionary
280
     1
281
     1
  3
ACAD_ROUNDTRIP_2008_TABLESTYLE_CELLSTYLEMAP
360
4E6
  0
XRECORD
  5
4E8
102
{ACAD_REACTORS
330
110
102
}
330
110
100
AcDbXrecord
280
     1
102
DISPLAYNAME
  1
Imperial24
102
FLAGS
 90
        0
  0
XRECORD
  5
1C
102
{ACAD_REACTORS
330
1A
102
}
330
1A
100
AcDbXrecord
280
     1
270
     1
271
     1
  0
XRECORD
  5
1B
102
{ACAD_REACTORS
330
1A
102
}
330
1A
100
AcDbXrecord
280
     1
270
     1
271
     1
  0
XRECORD
  5
1F
102
{ACAD_REACTORS
330
1A
102
}
330
1A
100
AcDbXrecord
280
     1
270
     1
271
     1
  0
XRECORD
  5
1E
102
{ACAD_REACTORS
330
1A
102
}
330
1A
100
AcDbXrecord
280
     1
270
     1
271
     1
  0
XRECORD
  5
20
102
{ACAD_REACTORS
330
1A
102
}
330
1A
100
AcDbXrecord
280
     1
270
     1
271
     1
  0
XRECORD
  5
1D
102
{ACAD_REACTORS
330
1A
102
}
330
1A
100
AcDbXrecord
280
     1
270
     1
271
     1
  0
XRECORD
  5
14
102
{ACAD_REACTORS
330
12
102
}
330
12
100
AcDbXrecord
280
     1
270
     1
271
     1
  0
XRECORD
  5
13
102
{ACAD_REACTORS
330
12
102
}
330
12
100
AcDbXrecord
280
     1
270
     1
271
     1
  0
XRECORD
  5
17
102
{ACAD_REACTORS
330
12
102
}
330
12
100
AcDbXrecord
280
     1
270
     1
271
     1
  0
XRECORD
  5
16
102
{ACAD_REACTORS
330
12
102
}
330
12
100
AcDbXrecord
280
     1
270
     1
271
     1
  0
XRECORD
  5
18
102
{ACAD_REACTORS
330
12
102
}
330
12
100
AcDbXrecord
280
     1
270
     1
271
     1
  0
XRECORD
  5
15
102
{ACAD_REACTORS
330
12
102
}
330
12
100
AcDbXrecord
280
     1
270
     1
271
     1
  0
XRECORD
  5
24
102
{ACAD_REACTORS
330
22
102
}
330
22
100
AcDbXrecord
280
     1
270
     1
271
     1
  0
XRECORD
  5
23
102
{ACAD_REACTORS
330
22
102
}
330
22
100
AcDbXrecord
280
     1
270
     1
271
     1
  0
XRECORD
  5
27
102
{ACAD_REACTORS
330
22
102
}
330
22
100
AcDbXrecord
280
     1
270
     1
271
     1
  0
XRECORD
  5
26
102
{ACAD_REACTORS
330
22
102
}
330
22
100
AcDbXrecord
280
     1
270
     1
271
     1
  0
XRECORD
  5
28
102
{ACAD_REACTORS
330
22
102
}
330
22
100
AcDbXrecord
280
     1
270
     1
271
     1
  0
XRECORD
  5
25
102
{ACAD_REACTORS
330
22
102
}
330
22
100
AcDbXrecord
280
     1
270
     1
271
     1
  0
XRECORD
  5
4E7
102
{ACAD_REACTORS
330
10E
102
}
330
10E
100
AcDbXrecord
280
     1
102
DISPLAYNAME
  1
Imperial24
102
FLAGS
 90
        0
  0
CELLSTYLEMAP
  5
4E6
102
{ACAD_REACTORS
330
4E5
102
}
330
4E5
100
AcDbCellStyleMap
 90
        3
300
CELLSTYLE
  1
TABLEFORMAT_BEGIN
 90
        5
170
     1
 91
        0
 92
    32768
 62
   257
 93
        1
300
CONTENTFORMAT
  1
CONTENTFORMAT_BEGIN
 90
        0
 91
        0
 92
      512
 93
        0
300

 40
0.0
140
1.0
 94
        5
 62
     0
340
55
144
0.25
309
CONTENTFORMAT_END
171
     0
 94
        0
309
TABLEFORMAT_END
  1
CELLSTYLE_BEGIN
 90
        1
 91
        1
300
_TITLE
309
CELLSTYLE_END
300
CELLSTYLE
  1
TABLEFORMAT_BEGIN
 90
        5
170
     1
 91
        0
 92
        0
 62
   257
 93
        1
300
CONTENTFORMAT
  1
CONTENTFORMAT_BEGIN
 90
        0
 91
        0
 92
      512
 93
        0
300

 40
0.0
140
1.0
 94
        5
 62
     0
340
55
144
0.18
309
CONTENTFORMAT_END
171
     0
 94
        0
309
TABLEFORMAT_END
  1
CELLSTYLE_BEGIN
 90
        2
 91
        1
300
_HEADER
309
CELLSTYLE_END
300
CELLSTYLE
  1
TABLEFORMAT_BEGIN
 90
        5
170
     1
 91
        0
 92
        0
 62
   257
 93
        1
300
CONTENTFORMAT
  1
CONTENTFORMAT_BEGIN
 90
        0
 91
        0
 92
      512
 93
        0
300

 40
0.0
140
1.0
 94
        2
 62
     0
340
55
144
0.18
309
CONTENTFORMAT_END
171
     0
 94
        0
309
TABLEFORMAT_END
  1
CELLSTYLE_BEGIN
 90
        3
 91
        2
300
_DATA
309
CELLSTYLE_END
  0
ENDSEC
  0
SECTION
  2
ACDSDATA
 70
     2
 71
     8
  0
ACDSSCHEMA
 90
        0
  1
AcDb_Thumbnail_Schema
  2
AcDbDs::ID
280
    10
 91
        8
  2
Thumbnail_Data
280
    15
 91
        0
101
ACDSRECORD
 95
        0
 90
        1
  2
AcDbDs::TreatedAsObjectData
280
     1
291
     1
101
ACDSRECORD
 95
        0
 90
        2
  2
AcDbDs::Legacy
280
     1
291
     1
101
ACDSRECORD
  1
AcDbDs::ID
 90
        3
  2
AcDs:Indexable
280
     1
291
     1
101
ACDSRECORD
  1
AcDbDs::ID
 90
        4
  2
AcDbDs::HandleAttribute
280
     7
282
     1
  0
ACDSSCHEMA
 90
        1
  1
AcDbDs::TreatedAsObjectDataSchema
  2
AcDbDs::TreatedAsObjectData
280
     1
 91
        0
  0
ACDSSCHEMA
 90
        2
  1
AcDbDs::LegacySchema
  2
AcDbDs::Legacy
280
     1
 91
        0
  0
ACDSSCHEMA
 90
        3
  1
AcDbDs::IndexedPropertySchema
  2
AcDs:Indexable
280
     1
 91
        0
  0
ACDSSCHEMA
 90
        4
  1
AcDbDs::HandleAttributeSchema
  2
AcDbDs::HandleAttribute
280
     7
 91
        1
284
     1
  0
ACDSRECORD
 90
        0
  2
AcDbDs::ID
280
    10
320
73
  2
Thumbnail_Data
280
    15
 94
     1276
310
89504E470D0A1A0A0000000D494844520000010000000084080300000048FA052E00000300504C5445212830000000C8C8C80000000000000000000000000000000000000000000000000000330000660000990000CC0000FF0033000033330033660033990033CC0033FF0066000066330066660066990066CC0066FF0099
310
000099330099660099990099CC0099FF00CC0000CC3300CC6600CC9900CCCC00CCFF00FF0000FF3300FF6600FF9900FFCC00FFFF3300003300333300663300993300CC3300FF3333003333333333663333993333CC3333FF3366003366333366663366993366CC3366FF3399003399333399663399993399CC3399FF33CC00
310
33CC3333CC6633CC9933CCCC33CCFF33FF0033FF3333FF6633FF9933FFCC33FFFF6600006600336600666600996600CC6600FF6633006633336633666633996633CC6633FF6666006666336666666666996666CC6666FF6699006699336699666699996699CC6699FF66CC0066CC3366CC6666CC9966CCCC66CCFF66FF0066
310
FF3366FF6666FF9966FFCC66FFFF9900009900339900669900999900CC9900FF9933009933339933669933999933CC9933FF9966009966339966669966999966CC9966FF9999009999339999669999999999CC9999FF99CC0099CC3399CC6699CC9999CCCC99CCFF99FF0099FF3399FF6699FF9999FFCC99FFFFCC0000CC00
310
33CC0066CC0099CC00CCCC00FFCC3300CC3333CC3366CC3399CC33CCCC33FFCC6600CC6633CC6666CC6699CC66CCCC66FFCC9900CC9933CC9966CC9999CC99CCCC99FFCCCC00CCCC33CCCC66CCCC99CCCCCCCCCCFFCCFF00CCFF33CCFF66CCFF99CCFFCCCCFFFFFF0000FF0033FF0066FF0099FF00CCFF00FFFF3300FF3333
310
FF3366FF3399FF33CCFF33FFFF6600FF6633FF6666FF6699FF66CCFF66FFFF9900FF9933FF9966FF9999FF99CCFF99FFFFCC00FFCC33FFCC66FFCC99FFCCCCFFCCFFFFFF00FFFF33FFFF66FFFF99FFFFCCFFFFFF0000000D0D0D1A1A1A2828283535354343435050505D5D5D6B6B6B787878868686939393A1A1A1AEAEAEBB
310
BBBBC9C9C9D6D6D6E4E4E4F1F1F1FFFFFF000000000000000000000000000000000000000000000000000000000000B21171F6000001AC4944415478DAED9DC16EC4200C05FDFFFFFBEE5553C89216F5C0E20AF7CD68B57B8BE2C1C4260AD90838097DE21CFFF06D3BFEC639A06EC0350724F31468437F25827305B04D017B
310
01D10584EB5550D4C1AB0422C0B719D6D7F4470002108000E7C5807315E88B2104200001084080E76228BCCBA0F9ED00043005DC050402D4BF8C1B01E3360001084080BB80EBA69873FCDE4D0000000000000000000000000000000000001C8CF7B34D6DDBFF9E63958C7E630EA848CC77D4DA39095463EFB4DA67CCFA3D3B
310
7D8AEC177846BF739B53956785DB5926ECF052210129995A64D35CDE6922A084805E0592FAC9E30DA845AF04B3AAD056A7BDF7B1C81B2527A7A907FF5F404F7F4DDBA0F5B3D77D0DA822E0197A77B16C6078A3649D0C1873F75E1DC944C0BC72AF6770BD0CD0F7F5601F7FAD0AE84B8C02027EC67E8FFF6A00E5AAC0740ABC
310
23A0C6ABB50701D350DF2983F19A45672F0522A5677FB5D8084000021050404020000108400002108000042000010840808F0021C07C398C000420204D801EBF08385C40B80A08042020458086BFDE560D014280A1000DD9EF28409B1E8AFCCB2323007EE103ECC34E32338820570000000049454E44AE4260820000004945
310
4E44AE426082
  0
ENDSEC
  0
EOF
