  0
SECTION
  2
HEADER
  9
$ACADVER
  1
AC1027
  9
$ACADMAINTVER
 70
   105
  9
$DWGCODEPAGE
  3
ANSI_1252
  9
$LASTSAVEDBY
  1
Ibrahim
  9
$REQUIREDVERSIONS
160
                 0
  9
$INSBASE
 10
0.0
 20
0.0
 30
0.0
  9
$EXTMIN
 10
-15.98876927046632
 20
-2.490234098502526
 30
-0.0000000000022887
  9
$EXTMAX
 10
1.428222825551017
 20
18.64746112684628
 30
0.0000000000000001
  9
$LIMMIN
 10
0.0
 20
0.0
  9
$LIMMAX
 10
12.0
 20
9.0
  9
$ORTHOMODE
 70
     1
  9
$REGENMODE
 70
     1
  9
$FILLMODE
 70
     1
  9
$QTEXTMODE
 70
     0
  9
$MIRRTEXT
 70
     0
  9
$LTSCALE
 40
1.0
  9
$ATTMODE
 70
     1
  9
$TEXTSIZE
 40
0.2
  9
$TRACEWID
 40
0.05
  9
$TEXTSTYLE
  7
Standard
  9
$CLAYER
  8
D35160210
  9
$CELTYPE
  6
ByLayer
  9
$CECOLOR
 62
   256
  9
$CELTSCALE
 40
1.0
  9
$DISPSILH
 70
     0
  9
$DIMSCALE
 40
1.0
  9
$DIMASZ
 40
0.18
  9
$DIMEXO
 40
0.0625
  9
$DIMDLI
 40
0.38
  9
$DIMRND
 40
0.0
  9
$DIMDLE
 40
0.0
  9
$DIMEXE
 40
0.18
  9
$DIMTP
 40
0.0
  9
$DIMTM
 40
0.0
  9
$DIMTXT
 40
0.18
  9
$DIMCEN
 40
0.09
  9
$DIMTSZ
 40
0.0
  9
$DIMTOL
 70
     0
  9
$DIMLIM
 70
     0
  9
$DIMTIH
 70
     1
  9
$DIMTOH
 70
     1
  9
$DIMSE1
 70
     0
  9
$DIMSE2
 70
     0
  9
$DIMTAD
 70
     0
  9
$DIMZIN
 70
     0
  9
$DIMBLK
  1

  9
$DIMASO
 70
     1
  9
$DIMSHO
 70
     1
  9
$DIMPOST
  1

  9
$DIMAPOST
  1

  9
$DIMALT
 70
     0
  9
$DIMALTD
 70
     2
  9
$DIMALTF
 40
25.4
  9
$DIMLFAC
 40
1.0
  9
$DIMTOFL
 70
     0
  9
$DIMTVP
 40
0.0
  9
$DIMTIX
 70
     0
  9
$DIMSOXD
 70
     0
  9
$DIMSAH
 70
     0
  9
$DIMBLK1
  1

  9
$DIMBLK2
  1

  9
$DIMSTYLE
  2
Standard
  9
$DIMCLRD
 70
     0
  9
$DIMCLRE
 70
     0
  9
$DIMCLRT
 70
     0
  9
$DIMTFAC
 40
1.0
  9
$DIMGAP
 40
0.09
  9
$DIMJUST
 70
     0
  9
$DIMSD1
 70
     0
  9
$DIMSD2
 70
     0
  9
$DIMTOLJ
 70
     1
  9
$DIMTZIN
 70
     0
  9
$DIMALTZ
 70
     0
  9
$DIMALTTZ
 70
     0
  9
$DIMUPT
 70
     0
  9
$DIMDEC
 70
     4
  9
$DIMTDEC
 70
     4
  9
$DIMALTU
 70
     4
  9
$DIMALTTD
 70
     2
  9
$DIMTXSTY
  7
Standard
  9
$DIMAUNIT
 70
     0
  9
$DIMADEC
 70
     0
  9
$DIMALTRND
 40
0.0
  9
$DIMAZIN
 70
     0
  9
$DIMDSEP
 70
    46
  9
$DIMATFIT
 70
     3
  9
$DIMFRAC
 70
     0
  9
$DIMLDRBLK
  1

  9
$DIMLUNIT
 70
     4
  9
$DIMLWD
 70
    -2
  9
$DIMLWE
 70
    -2
  9
$DIMTMOVE
 70
     0
  9
$DIMFXL
 40
1.0
  9
$DIMFXLON
 70
     0
  9
$DIMJOGANG
 40
0.7853981633974483
  9
$DIMTFILL
 70
     0
  9
$DIMTFILLCLR
 70
     0
  9
$DIMARCSYM
 70
     0
  9
$DIMLTYPE
  6

  9
$DIMLTEX1
  6

  9
$DIMLTEX2
  6

  9
$DIMTXTDIRECTION
 70
     0
  9
$LUNITS
 70
     4
  9
$LUPREC
 70
     4
  9
$SKETCHINC
 40
0.1
  9
$FILLETRAD
 40
0.0
  9
$AUNITS
 70
     0
  9
$AUPREC
 70
     0
  9
$MENU
  1
.
  9
$ELEVATION
 40
0.0
  9
$PELEVATION
 40
0.0
  9
$THICKNESS
 40
0.0
  9
$LIMCHECK
 70
     0
  9
$CHAMFERA
 40
0.0
  9
$CHAMFERB
 40
0.0
  9
$CHAMFERC
 40
0.0
  9
$CHAMFERD
 40
0.0
  9
$SKPOLY
 70
     0
  9
$TDCREATE
 40
2458417.723490440
  9
$TDUCREATE
 40
2458417.890157106
  9
$TDUPDATE
 40
2458424.715553854
  9
$TDUUPDATE
 40
2458424.882220521
  9
$TDINDWG
 40
0.0050946759
  9
$TDUSRTIMER
 40
0.0050946759
  9
$USRTIMER
 70
     1
  9
$ANGBASE
 50
0.0
  9
$ANGDIR
 70
     0
  9
$PDMODE
 70
     0
  9
$PDSIZE
 40
0.0
  9
$PLINEWID
 40
0.0
  9
$SPLFRAME
 70
     0
  9
$SPLINETYPE
 70
     6
  9
$SPLINESEGS
 70
     8
  9
$HANDSEED
  5
A53
  9
$SURFTAB1
 70
     6
  9
$SURFTAB2
 70
     6
  9
$SURFTYPE
 70
     6
  9
$SURFU
 70
     6
  9
$SURFV
 70
     6
  9
$UCSBASE
  2

  9
$UCSNAME
  2

  9
$UCSORG
 10
0.0
 20
0.0
 30
0.0
  9
$UCSXDIR
 10
1.0
 20
0.0
 30
0.0
  9
$UCSYDIR
 10
0.0
 20
1.0
 30
0.0
  9
$UCSORTHOREF
  2

  9
$UCSORTHOVIEW
 70
     0
  9
$UCSORGTOP
 10
0.0
 20
0.0
 30
0.0
  9
$UCSORGBOTTOM
 10
0.0
 20
0.0
 30
0.0
  9
$UCSORGLEFT
 10
0.0
 20
0.0
 30
0.0
  9
$UCSORGRIGHT
 10
0.0
 20
0.0
 30
0.0
  9
$UCSORGFRONT
 10
0.0
 20
0.0
 30
0.0
  9
$UCSORGBACK
 10
0.0
 20
0.0
 30
0.0
  9
$PUCSBASE
  2

  9
$PUCSNAME
  2

  9
$PUCSORG
 10
0.0
 20
0.0
 30
0.0
  9
$PUCSXDIR
 10
1.0
 20
0.0
 30
0.0
  9
$PUCSYDIR
 10
0.0
 20
1.0
 30
0.0
  9
$PUCSORTHOREF
  2

  9
$PUCSORTHOVIEW
 70
     0
  9
$PUCSORGTOP
 10
0.0
 20
0.0
 30
0.0
  9
$PUCSORGBOTTOM
 10
0.0
 20
0.0
 30
0.0
  9
$PUCSORGLEFT
 10
0.0
 20
0.0
 30
0.0
  9
$PUCSORGRIGHT
 10
0.0
 20
0.0
 30
0.0
  9
$PUCSORGFRONT
 10
0.0
 20
0.0
 30
0.0
  9
$PUCSORGBACK
 10
0.0
 20
0.0
 30
0.0
  9
$USERI1
 70
     0
  9
$USERI2
 70
     0
  9
$USERI3
 70
     0
  9
$USERI4
 70
     0
  9
$USERI5
 70
     0
  9
$USERR1
 40
0.0
  9
$USERR2
 40
0.0
  9
$USERR3
 40
0.0
  9
$USERR4
 40
0.0
  9
$USERR5
 40
0.0
  9
$WORLDVIEW
 70
     1
  9
$SHADEDGE
 70
     3
  9
$SHADEDIF
 70
    70
  9
$TILEMODE
 70
     1
  9
$MAXACTVP
 70
    64
  9
$PINSBASE
 10
0.0
 20
0.0
 30
0.0
  9
$PLIMCHECK
 70
     0
  9
$PEXTMIN
 10
1.000000000000000E+20
 20
1.000000000000000E+20
 30
1.000000000000000E+20
  9
$PEXTMAX
 10
-1.000000000000000E+20
 20
-1.000000000000000E+20
 30
-1.000000000000000E+20
  9
$PLIMMIN
 10
0.0
 20
0.0
  9
$PLIMMAX
 10
12.0
 20
9.0
  9
$UNITMODE
 70
     0
  9
$VISRETAIN
 70
     1
  9
$PLINEGEN
 70
     0
  9
$PSLTSCALE
 70
     1
  9
$TREEDEPTH
 70
  3020
  9
$CMLSTYLE
  2
Standard
  9
$CMLJUST
 70
     0
  9
$CMLSCALE
 40
1.0
  9
$PROXYGRAPHICS
 70
     1
  9
$MEASUREMENT
 70
     0
  9
$CELWEIGHT
370
    -1
  9
$ENDCAPS
280
     0
  9
$JOINSTYLE
280
     0
  9
$LWDISPLAY
290
     0
  9
$INSUNITS
 70
     1
  9
$HYPERLINKBASE
  1

  9
$STYLESHEET
  1

  9
$XEDIT
290
     1
  9
$CEPSNTYPE
380
     0
  9
$PSTYLEMODE
290
     1
  9
$FINGERPRINTGUID
  2
{D5A7DF04-FCCB-46C2-ABBD-95C850375504}
  9
$VERSIONGUID
  2
{A51764D8-EC7F-45D0-AD05-85060E129FB6}
  9
$EXTNAMES
290
     1
  9
$PSVPSCALE
 40
0.0
  9
$OLESTARTUP
290
     0
  9
$SORTENTS
280
   127
  9
$INDEXCTL
280
     0
  9
$HIDETEXT
280
     1
  9
$XCLIPFRAME
280
     2
  9
$HALOGAP
280
     0
  9
$OBSCOLOR
 70
   257
  9
$OBSLTYPE
280
     0
  9
$INTERSECTIONDISPLAY
280
     0
  9
$INTERSECTIONCOLOR
 70
   257
  9
$DIMASSOC
280
     2
  9
$PROJECTNAME
  1

  9
$CAMERADISPLAY
290
     0
  9
$LENSLENGTH
 40
50.0
  9
$CAMERAHEIGHT
 40
0.0
  9
$STEPSPERSEC
 40
2.0
  9
$STEPSIZE
 40
6.0
  9
$3DDWFPREC
 40
2.0
  9
$PSOLWIDTH
 40
0.25
  9
$PSOLHEIGHT
 40
4.0
  9
$LOFTANG1
 40
1.570796326794896
  9
$LOFTANG2
 40
1.570796326794896
  9
$LOFTMAG1
 40
0.0
  9
$LOFTMAG2
 40
0.0
  9
$LOFTPARAM
 70
     7
  9
$LOFTNORMALS
280
     1
  9
$LATITUDE
 40
0.0
  9
$LONGITUDE
 40
0.0
  9
$NORTHDIRECTION
 40
0.0
  9
$TIMEZONE
 70
     0
  9
$LIGHTGLYPHDISPLAY
280
     1
  9
$TILEMODELIGHTSYNCH
280
     1
  9
$CMATERIAL
347
11
  9
$SOLIDHIST
280
     0
  9
$SHOWHIST
280
     1
  9
$DWFFRAME
280
     2
  9
$DGNFRAME
280
     0
  9
$REALWORLDSCALE
290
     1
  9
$INTERFERECOLOR
 62
     1
  9
$INTERFEREOBJVS
345
33
  9
$INTERFEREVPVS
346
30
  9
$CSHADOW
280
     0
  9
$SHADOWPLANELOCATION
 40
0.0
  0
ENDSEC
  0
SECTION
  2
CLASSES
  0
CLASS
  1
ACDBDICTIONARYWDFLT
  2
AcDbDictionaryWithDefault
  3
ObjectDBX Classes
 90
        0
 91
        1
280
     0
281
     0
  0
CLASS
  1
MATERIAL
  2
AcDbMaterial
  3
ObjectDBX Classes
 90
     1153
 91
        3
280
     0
281
     0
  0
CLASS
  1
VISUALSTYLE
  2
AcDbVisualStyle
  3
ObjectDBX Classes
 90
     4095
 91
       24
280
     0
281
     0
  0
CLASS
  1
SCALE
  2
AcDbScale
  3
ObjectDBX Classes
 90
     1153
 91
       17
280
     0
281
     0
  0
CLASS
  1
TABLESTYLE
  2
AcDbTableStyle
  3
ObjectDBX Classes
 90
     4095
 91
        1
280
     0
281
     0
  0
CLASS
  1
MLEADERSTYLE
  2
AcDbMLeaderStyle
  3
ACDB_MLEADERSTYLE_CLASS
 90
     4095
 91
        1
280
     0
281
     0
  0
CLASS
  1
ACDBSECTIONVIEWSTYLE
  2
AcDbSectionViewStyle
  3
ObjectDBX Classes
 90
     1025
 91
        1
280
     0
281
     0
  0
CLASS
  1
ACDBDETAILVIEWSTYLE
  2
AcDbDetailViewStyle
  3
ObjectDBX Classes
 90
     1025
 91
        1
280
     0
281
     0
  0
CLASS
  1
RASTERVARIABLES
  2
AcDbRasterVariables
  3
ISM
 90
        0
 91
        1
280
     0
281
     0
  0
CLASS
  1
DICTIONARYVAR
  2
AcDbDictionaryVar
  3
ObjectDBX Classes
 90
        0
 91
        5
280
     0
281
     0
  0
CLASS
  1
SORTENTSTABLE
  2
AcDbSortentsTable
  3
ObjectDBX Classes
 90
        0
 91
        3
280
     0
281
     0
  0
CLASS
  1
CELLSTYLEMAP
  2
AcDbCellStyleMap
  3
ObjectDBX Classes
 90
     1152
 91
        1
280
     0
281
     0
  0
ENDSEC
  0
SECTION
  2
TABLES
  0
TABLE
  2
VPORT
  5
8
330
0
100
AcDbSymbolTable
 70
     1
  0
VPORT
  5
57
330
8
100
AcDbSymbolTableRecord
100
AcDbViewportTableRecord
  2
*Active
 70
     0
 10
0.0
 20
0.0
 11
1.0
 21
1.0
 12
-1.994384635233159
 22
8.078613514171875
 13
0.0
 23
0.0
 14
1.0
 24
1.0
 15
0.0
 25
0.0
 16
0.0
 26
0.0
 36
1.0
 17
0.0
 27
0.0
 37
0.0
 40
21.3081605094242
 41
1.927321668909824
 42
50.0
 43
0.0
 44
0.0
 50
0.0
 51
0.0
 71
     0
 72
  1000
 73
     1
 74
     1
 75
     0
 76
     0
 77
     0
 78
     0
281
     0
 65
     1
110
0.0
120
0.0
130
0.0
111
1.0
121
0.0
131
0.0
112
0.0
122
1.0
132
0.0
 79
     0
146
0.0
348
2F
 60
     3
 61
     5
292
     1
282
     1
141
0.0
142
0.0
 63
   250
421
  3355443
1001
ACAD_NAV_VCDISPLAY
1070
     3
  0
ENDTAB
  0
TABLE
  2
LTYPE
  5
5
330
0
100
AcDbSymbolTable
 70
     1
  0
LTYPE
  5
5B
330
5
100
AcDbSymbolTableRecord
100
AcDbLinetypeTableRecord
  2
ByBlock
 70
     0
  3

 72
    65
 73
     0
 40
0.0
  0
LTYPE
  5
5C
330
5
100
AcDbSymbolTableRecord
100
AcDbLinetypeTableRecord
  2
ByLayer
 70
     0
  3

 72
    65
 73
     0
 40
0.0
  0
LTYPE
  5
5D
330
5
100
AcDbSymbolTableRecord
100
AcDbLinetypeTableRecord
  2
Continuous
 70
     0
  3
Solid line
 72
    65
 73
     0
 40
0.0
  0
ENDTAB
  0
TABLE
  2
LAYER
  5
2
102
{ACAD_XDICTIONARY
360
A45
102
}
330
0
100
AcDbSymbolTable
 70
     3
  0
LAYER
  5
54
330
2
100
AcDbSymbolTableRecord
100
AcDbLayerTableRecord
  2
0
 70
     0
 62
     7
  6
Continuous
370
    -3
390
F
347
21
348
0
  0
LAYER
  5
86
330
2
100
AcDbSymbolTableRecord
100
AcDbLayerTableRecord
  2
D35160210
 70
     0
 62
     7
  6
Continuous
370
     9
390
F
347
21
348
0
  0
ENDTAB
  0
TABLE
  2
STYLE
  5
3
330
0
100
AcDbSymbolTable
 70
     2
  0
STYLE
  5
55
330
3
100
AcDbSymbolTableRecord
100
AcDbTextStyleTableRecord
  2
Standard
 70
     0
 40
0.0
 41
1.0
 50
0.0
 71
     0
 42
0.2
  3
txt
  4

  0
ENDTAB
  0
TABLE
  2
VIEW
  5
6
330
0
100
AcDbSymbolTable
 70
     1
  0
ENDTAB
  0
TABLE
  2
UCS
  5
7
330
0
100
AcDbSymbolTable
 70
     0
  0
ENDTAB
  0
TABLE
  2
APPID
  5
9
330
0
100
AcDbSymbolTable
 70
     4
  0
APPID
  5
56
330
9
100
AcDbSymbolTableRecord
100
AcDbRegAppTableRecord
  2
ACAD
 70
     0
  0
APPID
  5
5E
330
9
100
AcDbSymbolTableRecord
100
AcDbRegAppTableRecord
  2
AcadAnnotative
 70
     0
  0
APPID
  5
78
330
9
100
AcDbSymbolTableRecord
100
AcDbRegAppTableRecord
  2
REVIT
 70
     0
  0
APPID
  5
FD
330
9
100
AcDbSymbolTableRecord
100
AcDbRegAppTableRecord
  2
ACAD_NAV_VCDISPLAY
 70
     0
  0
ENDTAB
  0
TABLE
  2
DIMSTYLE
  5
A
330
0
100
AcDbSymbolTable
 70
     2
100
AcDbDimStyleTable
 71
     0
  0
DIMSTYLE
105
58
330
A
100
AcDbSymbolTableRecord
100
AcDbDimStyleTableRecord
  2
Standard
 70
     0
340
55
  0
ENDTAB
  0
TABLE
  2
BLOCK_RECORD
  5
1
330
0
100
AcDbSymbolTable
 70
     8
  0
BLOCK_RECORD
  5
70
102
{ACAD_XDICTIONARY
360
EC
102
}
330
1
100
AcDbSymbolTableRecord
100
AcDbBlockTableRecord
  2
*Model_Space
340
73
 70
     0
280
     1
281
     0
  0
BLOCK_RECORD
  5
6C
330
1
100
AcDbSymbolTableRecord
100
AcDbBlockTableRecord
  2
*Paper_Space
340
6F
 70
     0
280
     1
281
     0
  0
BLOCK_RECORD
  5
74
330
1
100
AcDbSymbolTableRecord
100
AcDbBlockTableRecord
  2
*Paper_Space0
340
77
 70
     0
280
     1
281
     0
  0
BLOCK_RECORD
  5
616
330
1
100
AcDbSymbolTableRecord
100
AcDbBlockTableRecord
  2
D35160210 Top View
340
0
310
28000000200000002000000001002000000000000010000001000000010000000000000000000000302821FF302821FF302821FF302821FF302821FF302821FF302821FF302821FF302821FF302821FF302821FF302821FF302821FF302821FF302821FF302821FF302821FF302821FF302821FF302821FF302821FF302821
310
FF302821FF302821FF302821FF302821FF302821FF302821FF302821FF302821FF302821FF302821FF302821FF302821FF302821FF302821FF302821FF302821FF302821FF302821FF302821FF302821FF302821FF302821FF302821FF302821FF302821FF302821FF302821FF302821FF302821FF302821FF302821FF3028
310
21FF302821FF302821FF302821FF302821FF302821FF302821FF302821FF302821FF302821FF302821FF302821FF302821FF302821FF302821FF302821FF302821FF302821FF302821FF302821FF302821FF302821FF302821FF302821FF302821FF302821FF302821FF302821FF302821FF302821FF302821FF302821FF30
310
2821FF302821FF302821FF302821FF302821FF302821FF302821FF302821FF302821FF302821FF302821FF302821FF302821FF302821FF302821FF302821FF302821FF302821FF302821FF302821FF302821FF302821FF302821FF302821FF302821FF302821FF302821FF302821FF302821FF302821FF302821FF302821FF
310
302821FF302821FF302821FF302821FF302821FF302821FF302821FF302821FF302821FF302821FF302821FF302821FF302821FF302821FF302821FF302821FF302821FF302821FF302821FF302821FF302821FF302821FF302821FF302821FF302821FF302821FF302821FF302821FF302821FF302821FF302821FF302821
310
FF302821FF302821FF302821FF302821FF302821FF302821FF302821FF302821FF302821FF302821FF302821FF302821FF302821FF302821FF302821FF302821FF302821FF302821FF302821FF302821FF302821FF302821FF302821FF302821FF302821FF302821FF302821FF302821FF302821FF302821FF302821FF3028
310
21FF302821FF302821FF302821FF302821FF302821FF302821FF302821FF302821FF302821FF302821FF302821FF302821FF302821FF302821FF302821FF302821FF302821FF302821FF302821FF302821FF302821FF302821FF302821FF302821FF302821FF302821FFFFFFFFFFFFFFFFFFFFFFFFFF302821FF302821FF30
310
2821FF302821FF302821FF302821FF302821FF302821FF302821FF302821FF302821FF302821FF302821FF302821FF302821FF302821FFFFFFFFFFFFFFFFFFFFFFFFFF302821FF302821FF302821FF302821FF302821FF302821FF302821FF302821FFFFFFFFFFFFFFFFFF302821FF302821FFFFFFFFFFFFFFFFFF302821FF
310
302821FF302821FF302821FF302821FF302821FF302821FF302821FFFFFFFFFFFFFFFFFFFFFFFFFF302821FF302821FF302821FFFFFFFFFFFFFFFFFF302821FFFFFFFFFFFFFFFFFFFFFFFFFFFFFFFFFFFFFFFFFFFFFFFFFFFFFFFFFFFFFFFFFFFFFFFFFFFFFFFFFF302821FF302821FF302821FF302821FFFFFFFFFFFFFFFF
310
FFFFFFFFFFFFFFFFFFFFFFFFFFFFFFFFFFFFFFFFFFFFFFFFFFFFFFFFFFFFFFFFFF302821FFFFFFFFFFFFFFFFFF302821FF302821FFFFFFFFFFFFFFFFFF302821FF302821FFFFFFFFFFFFFFFFFFFFFFFFFFFFFFFFFFFFFFFFFFFFFFFFFFFFFFFFFFFFFFFFFFFFFFFFFF302821FF302821FF302821FF302821FFFFFFFFFFFFFF
310
FFFFFFFFFFFFFFFFFFFFFFFFFFFFFFFFFFFFFFFFFFFFFFFFFFFFFFFFFFFF302821FF302821FFFFFFFFFFFFFFFFFF302821FF302821FF302821FFFFFFFFFF302821FFFFFFFFFFFFFFFFFFFFFFFFFFFFFFFFFFFFFFFFFFFFFFFFFFFFFFFFFFFFFFFFFFFFFFFFFFFFFFFFFF302821FF302821FF302821FF302821FFFFFFFFFFFF
310
FFFFFFFFFFFFFFFFFFFFFFFFFFFFFFFFFFFFFFFFFFFFFFFFFFFFFFFFFFFFFFFFFFFFFF302821FFFFFFFFFF302821FF302821FF302821FF302821FFFFFFFFFFFFFFFFFFFFFFFFFF302821FF302821FF302821FF302821FF302821FF302821FF302821FF302821FF302821FFFFFFFFFFFFFFFFFFFFFFFFFFFFFFFFFFFFFFFFFF
310
302821FF302821FF302821FF302821FF302821FF302821FF302821FF302821FFFFFFFFFFFFFFFFFFFFFFFFFF302821FF302821FF302821FF302821FF302821FF302821FF302821FF302821FF302821FF302821FF302821FF302821FF302821FF302821FF302821FF302821FFFFFFFFFFFFFFFFFFFFFFFFFFFFFFFFFFFFFFFF
310
FF302821FF302821FF302821FF302821FF302821FF302821FF302821FF302821FF302821FF302821FF302821FF302821FF302821FF302821FF302821FF302821FF302821FF302821FF302821FF302821FF302821FF302821FF302821FF302821FF302821FF302821FFFFFFFFFFFFFFFFFF302821FF302821FFFFFFFFFFFFFF
310
FFFF302821FF302821FF302821FF302821FF302821FF302821FF302821FF302821FF302821FF302821FF302821FF302821FF302821FF302821FF302821FF302821FF302821FF302821FF302821FF302821FF302821FF302821FF302821FF302821FF302821FF302821FFFFFFFFFFFFFFFFFF302821FF302821FFFFFFFFFFFF
310
FFFFFF302821FF302821FF302821FF302821FF302821FF302821FF302821FF302821FF302821FF302821FF302821FF302821FF302821FF302821FF302821FF302821FF302821FF302821FF302821FF302821FF302821FF302821FF302821FF302821FF302821FF302821FFFFFFFFFFFFFFFFFF302821FF302821FFFFFFFFFF
310
FFFFFFFF302821FF302821FF302821FF302821FF302821FF302821FF302821FF302821FF302821FF302821FF302821FF302821FF302821FF302821FF302821FF302821FF302821FF302821FF302821FF302821FF302821FF302821FF302821FF302821FF302821FF302821FFFFFFFFFFFFFFFFFF302821FF302821FFFFFFFF
310
FFFFFFFFFF302821FF302821FF302821FF302821FF302821FF302821FF302821FF302821FF302821FF302821FF302821FF302821FF302821FF302821FF302821FF302821FF302821FF302821FF302821FF302821FF302821FF302821FF302821FF302821FF302821FF302821FFFFFFFFFFFFFFFFFF302821FF302821FFFFFF
310
FFFFFFFFFFFF302821FF302821FF302821FF302821FF302821FF302821FF302821FF302821FF302821FF302821FF302821FF302821FF302821FF302821FF302821FF302821FF302821FF302821FF302821FF302821FF302821FF302821FF302821FF302821FF302821FF302821FFFFFFFFFFFFFFFFFF302821FF302821FFFF
310
FFFFFFFFFFFFFF302821FF302821FF302821FF302821FF302821FF302821FF302821FF302821FF302821FF302821FF302821FF302821FF302821FF302821FF302821FF302821FF302821FF302821FF302821FF302821FF302821FF302821FF302821FF302821FF302821FFFFFFFFFF302821FFFFFFFFFF302821FF302821FF
310
FFFFFFFF302821FFFFFFFFFF302821FF302821FF302821FF302821FF302821FF302821FF302821FF302821FF302821FF302821FF302821FF302821FF302821FF302821FF302821FF302821FF302821FF302821FF302821FF302821FF302821FF302821FF302821FF302821FFFFFFFFFF302821FFFFFFFFFF302821FF302821
310
FFFFFFFFFF302821FFFFFFFFFF302821FF302821FF302821FF302821FF302821FF302821FF302821FF302821FF302821FF302821FF302821FF302821FF302821FF302821FF302821FF302821FF302821FF302821FF302821FF302821FF302821FF302821FF302821FFFFFFFFFF302821FFFFFFFFFF302821FF302821FF3028
310
21FF302821FFFFFFFFFF302821FFFFFFFFFF302821FF302821FF302821FF302821FF302821FF302821FF302821FF302821FF302821FF302821FF302821FF302821FF302821FF302821FF302821FF302821FF302821FF302821FF302821FF302821FF302821FFFFFFFFFFFFFFFFFFFFFFFFFFFFFFFFFFFFFFFFFFFFFFFFFFFF
310
FFFFFFFFFFFFFFFFFFFFFFFFFFFFFFFFFFFFFFFFFFFFFF302821FF302821FF302821FF302821FF302821FF302821FF302821FF302821FF302821FF302821FF302821FF302821FF302821FF302821FF302821FF302821FF302821FF302821FF302821FFFFFFFFFFFFFFFFFF302821FF302821FF302821FF302821FF302821FF
310
302821FF302821FF302821FF302821FF302821FFFFFFFFFFFFFFFFFF302821FF302821FF302821FF302821FF302821FF302821FF302821FF302821FF302821FF302821FF302821FF302821FF302821FF302821FF302821FF302821FF302821FF302821FFFFFFFFFF302821FF302821FF302821FF302821FF302821FF302821
310
FF302821FF302821FF302821FF302821FF302821FF302821FFFFFFFFFF302821FF302821FF302821FF302821FF302821FF302821FF302821FF302821FF302821FF302821FF302821FF302821FF302821FF302821FF302821FF302821FF302821FF302821FFFFFFFFFFFFFFFFFFFFFFFFFFFFFFFFFFFFFFFFFFFFFFFFFFFFFF
310
FFFFFFFFFFFFFFFFFFFFFFFFFFFFFFFFFFFFFFFFFFFFFFFFFFFFFFFFFFFFFFFFFFFF302821FF302821FF302821FF302821FF302821FF302821FF302821FF302821FF302821FF302821FF302821FF302821FF302821FF302821FF302821FF302821FF302821FF302821FF302821FF302821FF302821FF302821FF302821FF30
310
2821FF302821FF302821FF302821FF302821FF302821FF302821FF302821FF302821FF302821FF302821FF302821FF302821FF302821FF302821FF302821FF302821FF302821FF302821FF302821FF302821FF302821FF302821FF302821FF302821FF302821FF302821FF302821FF302821FF302821FF302821FF302821FF
310
302821FF302821FF302821FF302821FF302821FF302821FF302821FF302821FF302821FF302821FF302821FF302821FF302821FF302821FF302821FF302821FF302821FF302821FF302821FF302821FF302821FF302821FF302821FF302821FF302821FF302821FF302821FF302821FF302821FF302821FF302821FF302821
310
FF302821FF302821FF302821FF302821FF302821FF302821FF302821FF302821FF302821FF302821FF302821FF302821FF302821FF302821FF302821FF302821FF302821FF302821FF302821FF302821FF302821FF302821FF302821FF302821FF302821FF302821FF302821FF302821FF302821FF302821FF302821FF3028
310
21FF302821FF302821FF302821FF302821FF302821FF302821FF302821FF302821FF302821FF302821FF302821FF302821FF302821FF302821FF302821FF302821FF302821FF302821FF302821FF302821FF302821FF302821FF302821FF302821FF302821FF302821FF302821FF302821FF302821FF302821FF302821FF30
310
2821FF302821FF302821FF302821FF302821FF302821FF302821FF302821FF302821FF302821FF302821FF302821FF302821FF302821FF302821FF302821FF302821FF302821FF302821FF302821FF302821FF302821FF302821FF302821FF302821FF302821FF302821FF302821FF302821FF302821FF302821FF302821FF
310
302821FF302821FF302821FF302821FF302821FF302821FF302821FF302821FF302821FF302821FF302821FF302821FF302821FF302821FF302821FF302821FF302821FF302821FF
102
{BLKREFS
331
779
102
}
 70
     1
280
     1
281
     1
  0
BLOCK_RECORD
  5
77B
330
1
100
AcDbSymbolTableRecord
100
AcDbBlockTableRecord
  2
D35160210 Front View
340
0
310
28000000200000002000000001002000000000000010000001000000010000000000000000000000302821FF302821FF302821FF302821FF302821FF302821FF302821FF302821FF302821FF302821FF302821FF302821FF302821FF302821FF302821FF302821FF302821FF302821FF302821FF302821FF302821FF302821
310
FF302821FF302821FF302821FF302821FF302821FF302821FF302821FF302821FF302821FF302821FF302821FF302821FF302821FF302821FF302821FF302821FF302821FF302821FF302821FFFFFFFFFFFFFFFFFF302821FF302821FF302821FF302821FF302821FF302821FF302821FF302821FF302821FF302821FFFFFF
310
FFFFFFFFFFFF302821FF302821FF302821FF302821FF302821FF302821FF302821FF302821FF302821FF302821FF302821FF302821FF302821FF302821FF302821FFFFFFFFFFFFFFFFFFFFFFFFFFFFFFFFFFFFFFFFFFFFFFFFFFFFFFFFFFFFFFFFFF302821FF302821FF302821FF302821FFFFFFFFFFFFFFFFFFFFFFFFFFFF
310
FFFFFFFFFFFFFFFFFFFFFFFFFFFFFFFFFFFFFF302821FF302821FF302821FF302821FF302821FF302821FF302821FF302821FF302821FF302821FF302821FFFFFFFFFFFFFFFFFF302821FF302821FF302821FF302821FF302821FFFFFFFFFFFFFFFFFFFFFFFFFFFFFFFFFFFFFFFFFFFFFFFFFFFFFFFFFFFFFFFFFF302821FF
310
302821FF302821FF302821FF302821FFFFFFFFFFFFFFFFFF302821FF302821FF302821FF302821FF302821FF302821FF302821FF302821FF302821FFFFFFFFFFFFFFFFFF302821FFFFFFFFFFFFFFFFFFFFFFFFFFFFFFFFFFFFFFFFFFFFFFFFFF302821FFFFFFFFFF302821FFFFFFFFFFFFFFFFFF302821FFFFFFFFFFFFFFFF
310
FFFFFFFFFFFFFFFFFFFFFFFFFFFFFFFFFF302821FFFFFFFFFFFFFFFFFF302821FF302821FF302821FF302821FF302821FF302821FF302821FFFFFFFFFFFFFFFFFF302821FFFFFFFFFFFFFFFFFFFFFFFFFFFFFFFFFFFFFFFFFFFFFFFFFFFFFFFFFFFFFFFFFF302821FFFFFFFFFFFFFFFFFF302821FFFFFFFFFFFFFFFFFFFFFF
310
FFFFFFFFFFFFFFFFFFFFFFFFFFFFFFFFFFFFFFFFFFFF302821FFFFFFFFFFFFFFFFFF302821FF302821FF302821FF302821FF302821FF302821FFFFFFFFFFFFFFFFFFFFFFFFFFFFFFFFFF302821FF302821FF302821FF302821FF302821FF302821FFFFFFFFFFFFFFFFFF302821FFFFFFFFFFFFFFFFFFFFFFFFFF302821FF30
310
2821FF302821FF302821FF302821FF302821FFFFFFFFFFFFFFFFFFFFFFFFFF302821FFFFFFFFFF302821FF302821FF302821FF302821FFFFFFFFFFFFFFFFFF302821FFFFFFFFFFFFFFFFFF302821FF302821FF302821FF302821FF302821FF302821FFFFFFFFFFFFFFFFFF302821FF302821FFFFFFFFFFFFFFFFFF302821FF
310
302821FF302821FF302821FF302821FF302821FFFFFFFFFF302821FFFFFFFFFFFFFFFFFFFFFFFFFF302821FF302821FF302821FF302821FFFFFFFFFFFFFFFFFFFFFFFFFFFFFFFFFF302821FF302821FF302821FF302821FF302821FF302821FF302821FF302821FFFFFFFFFFFFFFFFFFFFFFFFFFFFFFFFFF302821FF302821
310
FF302821FF302821FF302821FF302821FF302821FF302821FFFFFFFFFFFFFFFFFFFFFFFFFFFFFFFFFF302821FF302821FF302821FFFFFFFFFFFFFFFFFFFFFFFFFFFFFFFFFFFFFFFFFF302821FF302821FF302821FF302821FF302821FF302821FF302821FF302821FFFFFFFFFFFFFFFFFFFFFFFFFFFFFFFFFF302821FF3028
310
21FF302821FF302821FF302821FF302821FF302821FF302821FFFFFFFFFFFFFFFFFFFFFFFFFFFFFFFFFFFFFFFFFF302821FF302821FF302821FF302821FFFFFFFFFFFFFFFFFFFFFFFFFF302821FF302821FF302821FF302821FF302821FF302821FF302821FF302821FFFFFFFFFFFFFFFFFFFFFFFFFFFFFFFFFF302821FF30
310
2821FF302821FF302821FF302821FF302821FF302821FF302821FFFFFFFFFFFFFFFFFFFFFFFFFF302821FF302821FF302821FF302821FF302821FF302821FF302821FF302821FF302821FF302821FF302821FF302821FF302821FF302821FF302821FF302821FF302821FFFFFFFFFFFFFFFFFFFFFFFFFFFFFFFFFF302821FF
310
302821FF302821FF302821FF302821FF302821FF302821FF302821FF302821FF302821FF302821FF302821FF302821FF302821FF302821FF302821FF302821FF302821FF302821FF302821FF302821FF302821FF302821FF302821FF302821FF302821FF302821FF302821FFFFFFFFFFFFFFFFFFFFFFFFFFFFFFFFFF302821
310
FF302821FF302821FF302821FF302821FF302821FF302821FF302821FF302821FF302821FF302821FF302821FF302821FF302821FF302821FF302821FF302821FF302821FF302821FF302821FF302821FF302821FF302821FF302821FF302821FF302821FF302821FFFFFFFFFFFFFFFFFFFFFFFFFFFFFFFFFFFFFFFFFFFFFF
310
FFFFFFFFFFFF302821FF302821FF302821FF302821FF302821FF302821FF302821FF302821FF302821FF302821FF302821FF302821FF302821FF302821FF302821FF302821FF302821FF302821FF302821FF302821FF302821FF302821FFFFFFFFFFFFFFFFFFFFFFFFFFFFFFFFFFFFFFFFFFFFFFFFFFFFFFFFFFFFFFFFFFFF
310
FFFFFF302821FFFFFFFFFF302821FF302821FF302821FF302821FF302821FF302821FF302821FF302821FF302821FF302821FF302821FF302821FF302821FF302821FF302821FF302821FF302821FF302821FF302821FF302821FF302821FFFFFFFFFF302821FFFFFFFFFFFFFFFFFFFFFFFFFFFFFFFFFFFFFFFFFFFFFFFFFF
310
FFFFFFFFFFFFFFFF302821FFFFFFFFFF302821FF302821FF302821FF302821FF302821FF302821FF302821FF302821FF302821FF302821FF302821FF302821FF302821FF302821FF302821FF302821FF302821FF302821FF302821FF302821FFFFFFFFFFFFFFFFFF302821FFFFFFFFFFFFFFFFFFFFFFFFFFFFFFFFFFFFFFFF
310
FFFFFFFFFFFFFFFFFFFFFFFFFFFFFFFFFF302821FF302821FF302821FF302821FF302821FF302821FF302821FF302821FF302821FF302821FF302821FF302821FF302821FF302821FF302821FF302821FF302821FF302821FF302821FFFFFFFFFFFFFFFFFF302821FFFFFFFFFFFFFFFFFFFFFFFFFFFFFFFFFFFFFFFFFFFFFF
310
FFFFFFFFFFFFFFFFFFFF302821FFFFFFFFFFFFFFFFFF302821FF302821FF302821FF302821FF302821FF302821FF302821FF302821FF302821FF302821FF302821FF302821FF302821FF302821FF302821FF302821FF302821FF302821FFFFFFFFFFFFFFFFFFFFFFFFFF302821FFFFFFFFFF302821FF302821FFFFFFFFFF30
310
2821FFFFFFFFFF302821FFFFFFFFFFFFFFFFFFFFFFFFFF302821FF302821FF302821FF302821FF302821FF302821FF302821FF302821FF302821FF302821FF302821FF302821FF302821FF302821FF302821FF302821FF302821FFFFFFFFFF302821FFFFFFFFFFFFFFFFFFFFFFFFFFFFFFFFFF302821FF302821FFFFFFFFFF
310
302821FFFFFFFFFFFFFFFFFFFFFFFFFFFFFFFFFF302821FFFFFFFFFF302821FF302821FF302821FF302821FF302821FF302821FF302821FF302821FF302821FF302821FF302821FF302821FF302821FF302821FF302821FF302821FF302821FFFFFFFFFFFFFFFFFFFFFFFFFF302821FFFFFFFFFF302821FF302821FFFFFFFF
310
FF302821FFFFFFFFFF302821FFFFFFFFFFFFFFFFFF302821FFFFFFFFFF302821FF302821FF302821FF302821FF302821FF302821FF302821FF302821FF302821FF302821FF302821FF302821FF302821FF302821FF302821FF302821FF302821FFFFFFFFFFFFFFFFFFFFFFFFFF302821FFFFFFFFFF302821FF302821FFFFFF
310
FFFF302821FFFFFFFFFF302821FFFFFFFFFFFFFFFFFFFFFFFFFF302821FF302821FF302821FF302821FF302821FF302821FF302821FF302821FF302821FF302821FF302821FF302821FF302821FF302821FF302821FF302821FF302821FF302821FFFFFFFFFFFFFFFFFFFFFFFFFFFFFFFFFFFFFFFFFFFFFFFFFFFFFFFFFFFF
310
FFFFFFFFFFFFFFFFFFFFFFFFFFFFFFFFFFFFFF302821FFFFFFFFFF302821FF302821FF302821FF302821FF302821FF302821FF302821FF302821FF302821FF302821FF302821FF302821FF302821FF302821FF302821FF302821FF302821FF302821FF302821FFFFFFFFFFFFFFFFFF302821FFFFFFFFFFFFFFFFFFFFFFFFFF
310
FFFFFFFFFFFFFFFFFFFFFFFFFFFFFFFFFFFFFFFFFFFFFFFF302821FF302821FF302821FF302821FF302821FF302821FF302821FF302821FF302821FF302821FF302821FF302821FF302821FF302821FF302821FF302821FF302821FF302821FF302821FF302821FFFFFFFFFF302821FFFFFFFFFFFFFFFFFFFFFFFFFFFFFFFF
310
FFFFFFFFFFFFFFFFFFFFFFFFFFFFFFFFFF302821FFFFFFFFFF302821FF302821FF302821FF302821FF302821FF302821FF302821FF302821FF302821FF302821FF302821FF302821FF302821FF302821FF302821FF302821FF302821FF302821FF302821FF302821FF302821FFFFFFFFFFFFFFFFFFFFFFFFFFFFFFFFFFFFFF
310
FFFFFFFFFFFFFFFFFFFFFFFFFFFFFFFFFFFFFFFFFFFF302821FF302821FF302821FF302821FF302821FF302821FF302821FF302821FF302821FF302821FF302821FF302821FF302821FF302821FF302821FF302821FF302821FF302821FF302821FF302821FF302821FF302821FF302821FF302821FFFFFFFFFFFFFFFFFFFF
310
FFFFFFFFFFFFFFFFFFFFFFFFFFFFFF302821FF302821FF302821FF302821FF302821FF302821FF302821FF302821FF302821FF302821FF302821FF302821FF302821FF302821FF302821FF302821FF302821FF302821FF302821FF302821FF302821FF302821FF302821FF302821FF302821FF302821FF302821FFFFFFFFFF
310
302821FF302821FF302821FFFFFFFFFF302821FF302821FF302821FF302821FF302821FF302821FF302821FF302821FF302821FF302821FF302821FF302821FF302821FF302821FF302821FF302821FF302821FF302821FF302821FF302821FF302821FF302821FF302821FF302821FF302821FF302821FFFFFFFFFF302821
310
FF302821FF302821FF302821FFFFFFFFFF302821FF302821FF302821FF302821FF302821FF302821FF302821FF302821FF302821FF302821FF302821FF302821FF302821FF302821FF302821FF302821FF302821FF302821FF302821FF302821FF302821FF302821FF302821FF302821FF302821FF302821FFFFFFFFFFFFFF
310
FFFF302821FF302821FFFFFFFFFFFFFFFFFF302821FF302821FF302821FF302821FF302821FF302821FF302821FF302821FF302821FF302821FF302821FF302821FF302821FF302821FF302821FF302821FF302821FF302821FF302821FF302821FF302821FF302821FF302821FF302821FF302821FF302821FF302821FFFF
310
FFFFFFFFFFFFFFFFFFFFFF302821FF302821FF302821FF302821FF302821FF302821FF302821FF302821FF302821FF302821FF302821FF302821FF302821FF302821FF302821FF302821FF302821FF302821FF302821FF302821FF302821FF302821FF302821FF302821FF302821FF302821FF302821FF302821FF302821FF
310
302821FF302821FF302821FF302821FF302821FF302821FF302821FF302821FF302821FF302821FF302821FF302821FF302821FF302821FF302821FF302821FF302821FF302821FF
102
{BLKREFS
331
8FF
102
}
 70
     1
280
     1
281
     1
  0
BLOCK_RECORD
  5
900
330
1
100
AcDbSymbolTableRecord
100
AcDbBlockTableRecord
  2
D35160210 Side View
340
0
310
28000000200000002000000001002000000000000010000001000000010000000000000000000000302821FF302821FF302821FF302821FF302821FF302821FF302821FF302821FF302821FF302821FF302821FF302821FF302821FF302821FF302821FF302821FF302821FF302821FF302821FF302821FF302821FF302821
310
FF302821FF302821FF302821FF302821FF302821FF302821FF302821FF302821FF302821FF302821FF302821FF302821FF302821FF302821FF302821FF302821FF302821FF302821FF302821FF302821FF302821FF302821FF302821FF302821FF302821FF302821FF302821FF302821FF302821FF302821FF302821FF3028
310
21FFFFFFFFFF302821FF302821FF302821FF302821FF302821FF302821FF302821FF302821FF302821FF302821FF302821FF302821FF302821FF302821FF302821FF302821FF302821FF302821FF302821FF302821FF302821FF302821FF302821FF302821FF302821FF302821FF302821FF302821FF302821FF302821FFFF
310
FFFFFFFFFFFFFFFFFFFFFF302821FF302821FF302821FF302821FF302821FF302821FF302821FF302821FF302821FF302821FF302821FF302821FF302821FF302821FF302821FF302821FF302821FF302821FF302821FF302821FF302821FF302821FF302821FF302821FF302821FF302821FF302821FF302821FF302821FF
310
FFFFFFFFFFFFFFFFFFFFFFFF302821FF302821FF302821FF302821FF302821FF302821FF302821FF302821FF302821FF302821FF302821FF302821FF302821FF302821FF302821FF302821FF302821FF302821FF302821FF302821FF302821FF302821FF302821FF302821FF302821FF302821FF302821FF302821FF302821
310
FFFFFFFFFFFFFFFFFFFFFFFFFF302821FF302821FF302821FF302821FF302821FF302821FF302821FF302821FF302821FF302821FF302821FF302821FF302821FF302821FF302821FF302821FF302821FF302821FF302821FF302821FF302821FF302821FF302821FF302821FF302821FF302821FF302821FF302821FF3028
310
21FFFFFFFFFFFFFFFFFFFFFFFFFF302821FF302821FF302821FF302821FF302821FF302821FF302821FF302821FF302821FF302821FF302821FF302821FF302821FF302821FF302821FF302821FF302821FF302821FF302821FF302821FF302821FF302821FF302821FF302821FF302821FF302821FF302821FF302821FF30
310
2821FFFFFFFFFFFFFFFFFFFFFFFFFF302821FF302821FF302821FF302821FF302821FF302821FF302821FF302821FF302821FF302821FF302821FF302821FF302821FF302821FF302821FF302821FF302821FF302821FF302821FF302821FF302821FF302821FF302821FF302821FF302821FF302821FF302821FF302821FF
310
302821FFFFFFFFFFFFFFFFFFFFFFFFFF302821FF302821FF302821FF302821FF302821FF302821FF302821FF302821FF302821FF302821FF302821FF302821FF302821FF302821FF302821FF302821FF302821FF302821FF302821FF302821FF302821FF302821FF302821FF302821FF302821FF302821FF302821FF302821
310
FF302821FFFFFFFFFFFFFFFFFFFFFFFFFFFFFFFFFF302821FF302821FF302821FF302821FF302821FF302821FF302821FF302821FF302821FF302821FF302821FF302821FF302821FF302821FF302821FF302821FF302821FF302821FF302821FF302821FF302821FF302821FF302821FF302821FF302821FF302821FF3028
310
21FFFFFFFFFFFFFFFFFF302821FFFFFFFFFFFFFFFFFF302821FF302821FF302821FF302821FF302821FF302821FF302821FF302821FF302821FF302821FF302821FF302821FF302821FF302821FF302821FF302821FF302821FF302821FF302821FF302821FF302821FF302821FF302821FF302821FF302821FF302821FF30
310
2821FF302821FFFFFFFFFFFFFFFFFFFFFFFFFF302821FF302821FF302821FF302821FF302821FF302821FF302821FF302821FF302821FF302821FF302821FF302821FF302821FF302821FF302821FF302821FF302821FF302821FF302821FF302821FF302821FF302821FF302821FF302821FF302821FF302821FF302821FF
310
302821FF302821FFFFFFFFFFFFFFFFFFFFFFFFFF302821FF302821FF302821FF302821FF302821FF302821FF302821FF302821FF302821FF302821FF302821FF302821FF302821FF302821FFFFFFFFFF302821FF302821FF302821FF302821FF302821FF302821FF302821FF302821FF302821FF302821FF302821FF302821
310
FF302821FF302821FFFFFFFFFFFFFFFFFFFFFFFFFF302821FF302821FF302821FF302821FF302821FF302821FF302821FF302821FF302821FF302821FF302821FF302821FF302821FF302821FFFFFFFFFFFFFFFFFFFFFFFFFF302821FF302821FF302821FF302821FF302821FF302821FF302821FF302821FF302821FF3028
310
21FF302821FF302821FFFFFFFFFFFFFFFFFFFFFFFFFF302821FF302821FF302821FF302821FF302821FF302821FF302821FF302821FF302821FF302821FF302821FF302821FF302821FF302821FFFFFFFFFF302821FFFFFFFFFFFFFFFFFF302821FF302821FF302821FF302821FF302821FF302821FF302821FF302821FF30
310
2821FF302821FF302821FFFFFFFFFFFFFFFFFFFFFFFFFF302821FF302821FF302821FF302821FF302821FF302821FF302821FF302821FF302821FF302821FF302821FF302821FF302821FF302821FFFFFFFFFF302821FF302821FFFFFFFFFF302821FF302821FF302821FF302821FF302821FF302821FF302821FF302821FF
310
302821FF302821FF302821FFFFFFFFFFFFFFFFFFFFFFFFFF302821FF302821FF302821FF302821FF302821FF302821FF302821FF302821FF302821FF302821FF302821FF302821FF302821FF302821FFFFFFFFFF302821FF302821FFFFFFFFFFFFFFFFFFFFFFFFFFFFFFFFFFFFFFFFFF302821FF302821FF302821FF302821
310
FF302821FF302821FF302821FFFFFFFFFFFFFFFFFFFFFFFFFF302821FF302821FF302821FF302821FF302821FF302821FF302821FF302821FF302821FF302821FF302821FF302821FF302821FF302821FFFFFFFFFF302821FF302821FFFFFFFFFF302821FF302821FF302821FF302821FFFFFFFFFFFFFFFFFFFFFFFFFFFFFF
310
FFFFFFFFFFFFFFFFFFFFFFFFFFFFFFFFFFFFFFFFFFFFFFFFFFFFFFFFFFFFFFFFFFFF302821FF302821FF302821FF302821FF302821FF302821FF302821FF302821FF302821FF302821FF302821FF302821FFFFFFFFFF302821FF302821FFFFFFFFFF302821FF302821FF302821FF302821FF302821FF302821FF302821FF30
310
2821FF302821FFFFFFFFFFFFFFFFFFFFFFFFFF302821FFFFFFFFFF302821FFFFFFFFFF302821FF302821FF302821FF302821FF302821FF302821FF302821FF302821FF302821FF302821FF302821FF302821FFFFFFFFFF302821FF302821FFFFFFFFFFFFFFFFFFFFFFFFFFFFFFFFFFFFFFFFFFFFFFFFFFFFFFFFFFFFFFFFFF
310
FFFFFFFFFFFFFFFFFFFFFFFFFFFFFFFFFFFFFFFF302821FFFFFFFFFF302821FFFFFFFFFF302821FF302821FF302821FF302821FF302821FF302821FF302821FF302821FF302821FF302821FF302821FF302821FFFFFFFFFF302821FF302821FFFFFFFFFF302821FF302821FF302821FF302821FF302821FF302821FF302821
310
FF302821FF302821FF302821FF302821FFFFFFFFFF302821FFFFFFFFFF302821FFFFFFFFFF302821FF302821FF302821FF302821FF302821FF302821FF302821FF302821FF302821FF302821FF302821FF302821FFFFFFFFFF302821FF302821FFFFFFFFFF302821FF302821FF302821FF302821FF302821FF302821FF3028
310
21FF302821FFFFFFFFFFFFFFFFFFFFFFFFFFFFFFFFFF302821FFFFFFFFFF302821FFFFFFFFFF302821FF302821FF302821FF302821FF302821FF302821FF302821FF302821FF302821FF302821FF302821FF302821FFFFFFFFFF302821FF302821FFFFFFFFFF302821FF302821FFFFFFFFFFFFFFFFFFFFFFFFFFFFFFFFFFFF
310
FFFFFFFFFFFFFF302821FFFFFFFFFFFFFFFFFFFFFFFFFFFFFFFFFFFFFFFFFFFFFFFFFFFFFFFFFF302821FF302821FF302821FF302821FF302821FF302821FF302821FF302821FF302821FF302821FF302821FF302821FFFFFFFFFF302821FF302821FFFFFFFFFFFFFFFFFFFFFFFFFF302821FF302821FF302821FF302821FF
310
302821FF302821FF302821FF302821FF302821FFFFFFFFFFFFFFFFFFFFFFFFFF302821FF302821FF302821FF302821FF302821FF302821FF302821FF302821FF302821FF302821FF302821FF302821FF302821FF302821FFFFFFFFFF302821FF302821FFFFFFFFFFFFFFFFFF302821FF302821FF302821FF302821FF302821
310
FF302821FF302821FF302821FF302821FF302821FFFFFFFFFFFFFFFFFFFFFFFFFF302821FF302821FF302821FF302821FF302821FF302821FF302821FF302821FF302821FF302821FF302821FF302821FF302821FF302821FFFFFFFFFF302821FFFFFFFFFFFFFFFFFF302821FF302821FF302821FF302821FF302821FF3028
310
21FF302821FF302821FF302821FF302821FF302821FFFFFFFFFFFFFFFFFFFFFFFFFF302821FF302821FF302821FF302821FF302821FF302821FF302821FF302821FF302821FF302821FF302821FF302821FF302821FF302821FFFFFFFFFFFFFFFFFFFFFFFFFF302821FF302821FF302821FF302821FF302821FF302821FF30
310
2821FF302821FF302821FF302821FF302821FF302821FFFFFFFFFFFFFFFFFFFFFFFFFFFFFFFFFF302821FF302821FF302821FF302821FF302821FF302821FF302821FF302821FF302821FF302821FF302821FF302821FF302821FFFFFFFFFF302821FF302821FF302821FF302821FF302821FF302821FF302821FF302821FF
310
302821FF302821FF302821FF302821FF302821FF302821FFFFFFFFFF302821FF302821FF302821FFFFFFFFFF302821FF302821FF302821FF302821FF302821FF302821FF302821FF302821FF302821FF302821FF302821FF302821FF302821FF302821FF302821FF302821FF302821FF302821FF302821FF302821FF302821
310
FF302821FF302821FF302821FF302821FFFFFFFFFFFFFFFFFF302821FF302821FF302821FF302821FFFFFFFFFF302821FF302821FF302821FF302821FF302821FF302821FF302821FF302821FF302821FF302821FF302821FF302821FF302821FF302821FF302821FF302821FF302821FF302821FF302821FF302821FF3028
310
21FF302821FF302821FF302821FF302821FFFFFFFFFFFFFFFFFFFFFFFFFF302821FFFFFFFFFFFFFFFFFFFFFFFFFF302821FF302821FF302821FF302821FF302821FF302821FF302821FF302821FF302821FF302821FF302821FF302821FF302821FF302821FF302821FF302821FF302821FF302821FF302821FF302821FF30
310
2821FF302821FF302821FF302821FF302821FF302821FF302821FFFFFFFFFFFFFFFFFFFFFFFFFF302821FF302821FF302821FF302821FF302821FF302821FF302821FF302821FF302821FF302821FF302821FF302821FF302821FF302821FF302821FF302821FF302821FF302821FF302821FF302821FF302821FF302821FF
310
302821FF302821FF302821FF302821FF302821FF302821FF302821FF302821FF302821FF302821FF302821FF302821FF302821FF302821FF302821FF302821FF302821FF302821FF
102
{BLKREFS
331
A3E
102
}
 70
     1
280
     1
281
     1
  0
ENDTAB
  0
ENDSEC
  0
SECTION
  2
BLOCKS
  0
BLOCK
  5
71
330
70
100
AcDbEntity
  8
0
100
AcDbBlockBegin
  2
*Model_Space
 70
     0
 10
0.0
 20
0.0
 30
0.0
  3
*Model_Space
  1

  0
ENDBLK
  5
72
330
70
100
AcDbEntity
  8
0
100
AcDbBlockEnd
  0
BLOCK
  5
6D
330
6C
100
AcDbEntity
 67
     1
  8
0
100
AcDbBlockBegin
  2
*Paper_Space
 70
     0
 10
0.0
 20
0.0
 30
0.0
  3
*Paper_Space
  1

  0
ENDBLK
  5
6E
330
6C
100
AcDbEntity
 67
     1
  8
0
100
AcDbBlockEnd
  0
BLOCK
  5
75
330
74
100
AcDbEntity
 67
     1
  8
0
100
AcDbBlockBegin
  2
*Paper_Space0
 70
     0
 10
0.0
 20
0.0
 30
0.0
  3
*Paper_Space0
  1

  0
ENDBLK
  5
76
330
74
100
AcDbEntity
 67
     1
  8
0
100
AcDbBlockEnd
  0
BLOCK
  5
617
330
616
100
AcDbEntity
  8
0
100
AcDbBlockBegin
  2
D35160210 Top View
 70
     0
 10
0.0
 20
0.0
 30
0.0
  3
D35160210 Top View
  1

  0
LINE
  5
619
330
616
100
AcDbEntity
  8
D35160210
100
AcDbLine
 10
-0.3224960972579396
 20
-2.439862767839667
 30
0.0
 11
-0.3192624369972492
 21
-2.445391830657381
 31
0.0
  0
LINE
  5
61A
330
616
100
AcDbEntity
  8
D35160210
100
AcDbLine
 10
-0.2935757172203779
 20
-2.482206307889324
 30
0.0
 11
-0.2840551123132542
 21
-2.493760465075379
 31
0.0
  0
LINE
  5
61B
330
616
100
AcDbEntity
  8
D35160210
100
AcDbLine
 10
-0.2528312652390952
 20
-2.526012359293314
 30
0.0
 11
-0.2415914767187104
 21
-2.5359021328041
 31
0.0
  0
LINE
  5
61C
330
616
100
AcDbEntity
  8
D35160210
100
AcDbLine
 10
-0.2415914767187104
 20
-2.5359021328041
 30
0.0
 11
-0.2299651933723368
 21
-2.545334523891607
 31
0.0
  0
LINE
  5
61D
330
616
100
AcDbEntity
  8
D35160210
100
AcDbLine
 10
-0.1929562821821804
 20
-2.570740306683607
 30
0.0
 11
-0.1799757464262512
 21
-2.578199941900333
 31
0.0
  0
LINE
  5
61E
330
616
100
AcDbEntity
  8
D35160210
100
AcDbLine
 10
-0.2740800798216156
 20
-2.504924657516763
 30
0.0
 11
-0.2636665776695537
 21
-2.515681024887147
 31
0.0
  0
LINE
  5
61F
330
616
100
AcDbEntity
  8
D35160210
100
AcDbLine
 10
-0.1393919358192619
 20
-2.597385030468547
 30
0.0
 11
-0.1253887410634178
 21
-2.602681350200999
 31
0.0
  0
LINE
  5
620
330
616
100
AcDbEntity
  8
D35160210
100
AcDbLine
 10
-0.2636665776695537
 20
-2.515681024887147
 30
0.0
 11
-0.2528312652390952
 21
-2.526012359293314
 31
0.0
  0
LINE
  5
621
330
616
100
AcDbEntity
  8
D35160210
100
AcDbLine
 10
-0.2840551123132542
 20
-2.493760465075379
 30
0.0
 11
-0.2740800798216156
 21
-2.504924657516763
 31
0.0
  0
LINE
  5
622
330
616
100
AcDbEntity
  8
D35160210
100
AcDbLine
 10
-0.3026266636061194
 20
-2.47028067014536
 30
0.0
 11
-0.2935757172203779
 21
-2.482206307889324
 31
0.0
  0
LINE
  5
623
330
616
100
AcDbEntity
  8
D35160210
100
AcDbLine
 10
-0.3111934718869946
 20
-2.458002630319864
 30
0.0
 11
-0.3026266636061194
 21
-2.47028067014536
 31
0.0
  0
LINE
  5
624
330
616
100
AcDbEntity
  8
D35160210
100
AcDbLine
 10
-0.3192624369972492
 20
-2.445391830657381
 30
0.0
 11
-0.3111934718869946
 21
-2.458002630319864
 31
0.0
  0
LINE
  5
625
330
616
100
AcDbEntity
  8
D35160210
100
AcDbLine
 10
-0.1253887410634178
 20
-2.602681350200999
 30
0.0
 11
-0.1111849510700864
 21
-2.607413455007804
 31
0.0
  0
LINE
  5
626
330
616
100
AcDbEntity
  8
D35160210
100
AcDbLine
 10
-0.2179710147732266
 20
-2.554294442742229
 30
0.0
 11
-0.205628129048435
 21
-2.56276755539714
 31
0.0
  0
LINE
  5
627
330
616
100
AcDbEntity
  8
D35160210
100
AcDbLine
 10
-0.205628129048435
 20
-2.56276755539714
 30
0.0
 11
-0.1929562821821804
 21
-2.570740306683607
 31
0.0
  0
LINE
  5
628
330
616
100
AcDbEntity
  8
D35160210
100
AcDbLine
 10
-0.1111849510700864
 20
-2.607413455007804
 30
0.0
 11
-0.0968032888732324
 21
-2.611573774530729
 31
0.0
  0
LINE
  5
629
330
616
100
AcDbEntity
  8
D35160210
100
AcDbLine
 10
-0.0968032888732324
 20
-2.611573774530729
 30
0.0
 11
-0.0822667620644353
 21
-2.615155653146036
 31
0.0
  0
LINE
  5
62A
330
616
100
AcDbEntity
  8
D35160210
100
AcDbLine
 10
-0.1531721332131184
 20
-2.591532968792197
 30
0.0
 11
-0.1393919358192619
 21
-2.597385030468547
 31
0.0
  0
LINE
  5
62B
330
616
100
AcDbEntity
  8
D35160210
100
AcDbLine
 10
-0.0230400482306976
 20
-2.623598216460681
 30
0.0
 11
-0.0080816747200032
 21
-2.624220733924243
 31
0.0
  0
LINE
  5
62C
330
616
100
AcDbEntity
  8
D35160210
100
AcDbLine
 10
0.044809235654796
 20
-2.621616204658938
 30
0.0
 11
0.0596340776429116
 21
-2.619527059832915
 31
0.0
  0
LINE
  5
62D
330
616
100
AcDbEntity
  8
D35160210
100
AcDbLine
 10
-0.0675986259856387
 20
-2.61815336061203
 30
0.0
 11
-0.0528223465255309
 21
-2.620562101236235
 31
0.0
  0
LINE
  5
62E
330
616
100
AcDbEntity
  8
D35160210
100
AcDbLine
 10
-0.0822667620644353
 20
-2.615155653146036
 30
0.0
 11
-0.0675986259856387
 21
-2.61815336061203
 31
0.0
  0
LINE
  5
62F
330
616
100
AcDbEntity
  8
D35160210
100
AcDbLine
 10
-0.1667072878688174
 20
-2.585134527222269
 30
0.0
 11
-0.1531721332131184
 21
-2.591532968792197
 31
0.0
  0
LINE
  5
630
330
616
100
AcDbEntity
  8
D35160210
100
AcDbLine
 10
-0.0080816747200032
 20
-2.624220733924243
 30
0.0
 11
-0.0000000000009805
 21
-2.624307989715784
 31
0.0
  0
LINE
  5
631
330
616
100
AcDbEntity
  8
D35160210
100
AcDbLine
 10
-0.1799757464262512
 20
-2.578199941900333
 30
0.0
 11
-0.1667072878688174
 21
-2.585134527222269
 31
0.0
  0
LINE
  5
632
330
616
100
AcDbEntity
  8
D35160210
100
AcDbLine
 10
-0.2299651933723368
 20
-2.545334523891607
 30
0.0
 11
-0.2179710147732266
 21
-2.554294442742229
 31
0.0
  0
LINE
  5
633
330
616
100
AcDbEntity
  8
D35160210
100
AcDbLine
 10
0.1318590600858869
 20
-2.600313658652286
 30
0.0
 11
0.1457623968680224
 21
-2.594760489070846
 31
0.0
  0
LINE
  5
634
330
616
100
AcDbEntity
  8
D35160210
100
AcDbLine
 10
0.1034421272606636
 20
-2.609730729119537
 30
0.0
 11
0.1177447769360498
 21
-2.605306401109469
 31
0.0
  0
LINE
  5
635
330
616
100
AcDbEntity
  8
D35160210
100
AcDbLine
 10
0.0743635178281039
 20
-2.616846750539391
 30
0.0
 11
0.0889739922481425
 21
-2.613579564701471
 31
0.0
  0
LINE
  5
636
330
616
100
AcDbEntity
  8
D35160210
100
AcDbLine
 10
0.0000000000000142
 20
-2.624307989715791
 30
0.0
 11
0.0149683272894805
 21
-2.624008583248073
 31
0.0
  0
LINE
  5
637
330
616
100
AcDbEntity
  8
D35160210
100
AcDbLine
 10
-0.0379615625791559
 20
-2.622378021547493
 30
0.0
 11
-0.0230400482306976
 21
-2.623598216460681
 31
0.0
  0
LINE
  5
638
330
616
100
AcDbEntity
  8
D35160210
100
AcDbLine
 10
-0.0528223465255309
 20
-2.620562101236235
 30
0.0
 11
-0.0379615625791559
 21
-2.622378021547493
 31
0.0
  0
LINE
  5
639
330
616
100
AcDbEntity
  8
D35160210
100
AcDbLine
 10
0.1177447769360498
 20
-2.605306401109469
 30
0.0
 11
0.1318590600858869
 21
-2.600313658652286
 31
0.0
  0
LINE
  5
63A
330
616
100
AcDbEntity
  8
D35160210
100
AcDbLine
 10
0.2113501891246727
 20
-2.558929714857686
 30
0.0
 11
0.2235350251238088
 21
-2.550230850693235
 31
0.0
  0
LINE
  5
63B
330
616
100
AcDbEntity
  8
D35160210
100
AcDbLine
 10
0.1594325449094782
 20
-2.588655776251886
 30
0.0
 11
0.1728476348895498
 21
-2.582009286433628
 31
0.0
  0
LINE
  5
63C
330
616
100
AcDbEntity
  8
D35160210
100
AcDbLine
 10
0.0889739922481425
 20
-2.613579564701471
 30
0.0
 11
0.1034421272606636
 21
-2.609730729119537
 31
0.0
  0
LINE
  5
63D
330
616
100
AcDbEntity
  8
D35160210
100
AcDbLine
 10
0.1457623968680224
 20
-2.594760489070846
 30
0.0
 11
0.1594325449094782
 21
-2.588655776251886
 31
0.0
  0
LINE
  5
63E
330
616
100
AcDbEntity
  8
D35160210
100
AcDbLine
 10
0.0596340776429116
 20
-2.619527059832915
 30
0.0
 11
0.0743635178281039
 21
-2.616846750539391
 31
0.0
  0
LINE
  5
63F
330
616
100
AcDbEntity
  8
D35160210
100
AcDbLine
 10
0.0149683272894805
 20
-2.624008583248073
 30
0.0
 11
0.0299127084483786
 21
-2.623110842831405
 31
0.0
  0
LINE
  5
640
330
616
100
AcDbEntity
  8
D35160210
100
AcDbLine
 10
0.0299127084483786
 20
-2.623110842831405
 30
0.0
 11
0.044809235654796
 21
-2.621616204658938
 31
0.0
  0
LINE
  5
641
330
616
100
AcDbEntity
  8
D35160210
100
AcDbLine
 10
0.1859862055260208
 20
-2.574831652581952
 30
0.0
 11
0.19882723790856
 21
-2.56713435737986
 31
0.0
  0
LINE
  5
642
330
616
100
AcDbEntity
  8
D35160210
100
AcDbLine
 10
0.2787258692919892
 20
-2.499836668550681
 30
0.0
 11
0.2884937203564988
 21
-2.488490763930091
 31
0.0
  0
LINE
  5
643
330
616
100
AcDbEntity
  8
D35160210
100
AcDbLine
 10
0.19882723790856
 20
-2.56713435737986
 30
0.0
 11
0.2113501891246727
 21
-2.558929714857686
 31
0.0
  0
LINE
  5
644
330
616
100
AcDbEntity
  8
D35160210
100
AcDbLine
 10
0.2235350251238088
 20
-2.550230850693235
 30
0.0
 11
0.235362252767672
 21
-2.541051681213506
 31
0.0
  0
LINE
  5
645
330
616
100
AcDbEntity
  8
D35160210
100
AcDbLine
 10
0.3066299491228932
 20
-2.464673113048615
 30
0.0
 11
0.3149693127276265
 21
-2.452239469948313
 31
0.0
  0
LINE
  5
646
330
616
100
AcDbEntity
  8
D35160210
100
AcDbLine
 10
0.235362252767672
 20
-2.541051681213506
 30
0.0
 11
0.246812951015059
 21
-2.531406891131542
 31
0.0
  0
LINE
  5
647
330
616
100
AcDbEntity
  8
D35160210
100
AcDbLine
 10
0.2578688011914352
 20
-2.521311910054041
 30
0.0
 11
0.2685121162949855
 21
-2.510782887797244
 31
0.0
  0
LINE
  5
648
330
616
100
AcDbEntity
  8
D35160210
100
AcDbLine
 10
0.2685121162949855
 20
-2.510782887797244
 30
0.0
 11
0.2787258692919892
 21
-2.499836668550681
 31
0.0
  0
LINE
  5
649
330
616
100
AcDbEntity
  8
D35160210
100
AcDbLine
 10
0.1728476348895498
 20
-2.582009286433628
 30
0.0
 11
0.1859862055260208
 21
-2.574831652581952
 31
0.0
  0
LINE
  5
64A
330
616
100
AcDbEntity
  8
D35160210
100
AcDbLine
 10
0.3149693127276265
 20
-2.452239469948313
 30
0.0
 11
0.3225711006530929
 21
-2.43986276783966
 31
0.0
  0
LINE
  5
64B
330
616
100
AcDbEntity
  8
D35160210
100
AcDbLine
 10
0.9522666538763502
 20
-0.1734249252995816
 30
0.0
 11
0.9511312053583793
 21
-0.1755963698402176
 31
0.0
  0
LINE
  5
64C
330
616
100
AcDbEntity
  8
D35160210
100
AcDbLine
 10
0.246812951015059
 20
-2.531406891131542
 30
0.0
 11
0.2578688011914352
 21
-2.521311910054041
 31
0.0
  0
LINE
  5
64D
330
616
100
AcDbEntity
  8
D35160210
100
AcDbLine
 10
0.2978000430104401
 20
-2.476763324962522
 30
0.0
 11
0.3066299491228932
 21
-2.464673113048615
 31
0.0
  0
LINE
  5
64E
330
616
100
AcDbEntity
  8
D35160210
100
AcDbLine
 10
0.9565963917200264
 20
-0.1619844713345024
 30
0.0
 11
0.9559149760104475
 21
-0.1643382103516338
 31
0.0
  0
LINE
  5
64F
330
616
100
AcDbEntity
  8
D35160210
100
AcDbLine
 10
0.2884937203564988
 20
-2.488490763930091
 30
0.0
 11
0.2978000430104401
 21
-2.476763324962522
 31
0.0
  0
LINE
  5
650
330
616
100
AcDbEntity
  8
D35160210
100
AcDbLine
 10
0.9486044831106568
 20
-0.1797944322290128
 30
0.0
 11
0.947217251597479
 21
-0.181814334072893
 31
0.0
  0
LINE
  5
651
330
616
100
AcDbEntity
  8
D35160210
100
AcDbLine
 10
0.955139980904633
 20
-0.1666628172680795
 30
0.0
 11
0.95427264622937
 21
-0.1689545732086479
 31
0.0
  0
LINE
  5
652
330
616
100
AcDbEntity
  8
D35160210
100
AcDbLine
 10
0.9559149760104475
 20
-0.1643382103516338
 30
0.0
 11
0.955139980904633
 21
-0.1666628172680795
 31
0.0
  0
LINE
  5
653
330
616
100
AcDbEntity
  8
D35160210
100
AcDbLine
 10
-1.000000000000497
 20
-0.0000000000000036
 30
0.0
 11
-0.9565963917200264
 21
-0.1619844713345238
 31
0.0
  0
LINE
  5
654
330
616
100
AcDbEntity
  8
D35160210
100
AcDbLine
 10
0.9334636593960539
 20
-0.1956672764261178
 30
0.0
 11
0.9314537944558338
 21
-0.1970690102282653
 31
0.0
  0
LINE
  5
655
330
616
100
AcDbEntity
  8
D35160210
100
AcDbLine
 10
0.9533143595351845
 20
-0.1712098118527301
 30
0.0
 11
0.9522666538763502
 21
-0.1734249252995816
 31
0.0
  0
LINE
  5
656
330
616
100
AcDbEntity
  8
D35160210
100
AcDbLine
 10
-0.9301491545980837
 20
-0.1979168825683608
 30
0.0
 11
-0.9321939689613856
 21
-0.1965666422380359
 31
0.0
  0
LINE
  5
657
330
616
100
AcDbEntity
  8
D35160210
100
AcDbLine
 10
0.9565963917200264
 20
-0.1619844713345024
 30
0.0
 11
1.000000000000497
 21
0.0000000000000036
 31
0.0
  0
LINE
  5
658
330
616
100
AcDbEntity
  8
D35160210
100
AcDbLine
 10
0.9425870782801979
 20
-0.1875190346165745
 30
0.0
 11
0.9408957583427053
 21
-0.1892921255897484
 31
0.0
  0
LINE
  5
659
330
616
100
AcDbEntity
  8
D35160210
100
AcDbLine
 10
0.9511312053583793
 20
-0.1755963698402176
 30
0.0
 11
0.9499098304567183
 21
-0.1777206716265987
 31
0.0
  0
LINE
  5
65A
330
616
100
AcDbEntity
  8
D35160210
100
AcDbLine
 10
0.9499098304567183
 20
-0.1777206716265987
 30
0.0
 11
0.9486044831106568
 21
-0.1797944322290128
 31
0.0
  0
LINE
  5
65B
330
616
100
AcDbEntity
  8
D35160210
100
AcDbLine
 10
0.9457503551916914
 20
-0.1837771457461592
 30
0.0
 11
0.9442061406146393
 21
-0.185679727168857
 31
0.0
  0
LINE
  5
65C
330
616
100
AcDbEntity
  8
D35160210
100
AcDbLine
 10
0.9391348865533331
 20
-0.1909961635210742
 30
0.0
 11
0.9373072799312893
 21
-0.1926284223133585
 31
0.0
  0
LINE
  5
65D
330
616
100
AcDbEntity
  8
D35160210
100
AcDbLine
 10
0.9373072799312893
 20
-0.1926284223133585
 30
0.0
 11
0.9354158622572441
 21
-0.1941862907007383
 31
0.0
  0
LINE
  5
65E
330
616
100
AcDbEntity
  8
D35160210
100
AcDbLine
 10
0.9354158622572441
 20
-0.1941862907007383
 30
0.0
 11
0.9334636593960539
 21
-0.1956672764261178
 31
0.0
  0
LINE
  5
65F
330
616
100
AcDbEntity
  8
D35160210
100
AcDbLine
 10
0.947217251597479
 20
-0.181814334072893
 30
0.0
 11
0.9457503551916914
 21
-0.1837771457461592
 31
0.0
  0
LINE
  5
660
330
616
100
AcDbEntity
  8
D35160210
100
AcDbLine
 10
0.9314537944558338
 20
-0.1970690102282653
 30
0.0
 11
0.9293894827917341
 21
-0.1983892496321111
 31
0.0
  0
LINE
  5
661
330
616
100
AcDbEntity
  8
D35160210
100
AcDbLine
 10
0.95427264622937
 20
-0.1689545732086479
 30
0.0
 11
0.9533143595351845
 21
-0.1712098118527301
 31
0.0
  0
LINE
  5
662
330
616
100
AcDbEntity
  8
D35160210
100
AcDbLine
 10
0.9442061406146393
 20
-0.185679727168857
 30
0.0
 11
0.9425870782801979
 21
-0.1875190346165745
 31
0.0
  0
LINE
  5
663
330
616
100
AcDbEntity
  8
D35160210
100
AcDbLine
 10
-0.9361135228831614
 20
-0.1936263786117926
 30
0.0
 11
-0.9379819919914353
 21
-0.1920410591104478
 31
0.0
  0
LINE
  5
664
330
616
100
AcDbEntity
  8
D35160210
100
AcDbLine
 10
0.9408957583427053
 20
-0.1892921255897484
 30
0.0
 11
0.9391348865533331
 21
-0.1909961635210742
 31
0.0
  0
LINE
  5
665
330
616
100
AcDbEntity
  8
D35160210
100
AcDbLine
 10
-0.9462949268770586
 20
-0.1830674461084634
 30
0.0
 11
-0.9477330072676153
 21
-0.1810834250600912
 31
0.0
  0
LINE
  5
666
330
616
100
AcDbEntity
  8
D35160210
100
AcDbLine
 10
-0.9280519806563489
 20
-0.1991842720855068
 30
0.0
 11
-0.9301491545980837
 21
-0.1979168825683608
 31
0.0
  0
LINE
  5
667
330
616
100
AcDbEntity
  8
D35160210
100
AcDbLine
 10
-0.950365526218647
 20
-0.1769508838189431
 30
0.0
 11
-0.9515557533104157
 21
-0.1748089748105919
 31
0.0
  0
LINE
  5
668
330
616
100
AcDbEntity
  8
D35160210
100
AcDbLine
 10
-0.9341831524795196
 20
-0.1951357111910461
 30
0.0
 11
-0.9361135228831614
 21
-0.1936263786117926
 31
0.0
  0
LINE
  5
669
330
616
100
AcDbEntity
  8
D35160210
100
AcDbLine
 10
-0.9379819919914353
 20
-0.1920410591104478
 30
0.0
 11
-0.939785570652404
 21
-0.1903822888600182
 31
0.0
  0
LINE
  5
66A
330
616
100
AcDbEntity
  8
D35160210
100
AcDbLine
 10
0.9293894827917341
 20
-0.1983892496321111
 30
0.0
 11
0.9280519806563489
 21
-0.1991842720854855
 31
0.0
  0
LINE
  5
66B
330
616
100
AcDbEntity
  8
D35160210
100
AcDbLine
 10
-0.9415213735249352
 20
-0.1886527215390607
 30
0.0
 11
-0.9431866236947286
 21
-0.1868551240863319
 31
0.0
  0
LINE
  5
66C
330
616
100
AcDbEntity
  8
D35160210
100
AcDbLine
 10
-0.939785570652404
 20
-0.1903822888600182
 30
0.0
 11
-0.9415213735249352
 21
-0.1886527215390607
 31
0.0
  0
LINE
  5
66D
330
616
100
AcDbEntity
  8
D35160210
100
AcDbLine
 10
-0.9431866236947286
 20
-0.1868551240863319
 30
0.0
 11
-0.9447786571167142
 21
-0.1849923722742908
 31
0.0
  0
LINE
  5
66E
330
616
100
AcDbEntity
  8
D35160210
100
AcDbLine
 10
-0.9561746300253304
 20
-0.1634821661420212
 30
0.0
 11
-0.9565963917200264
 21
-0.1619844713345238
 31
0.0
  0
LINE
  5
66F
330
616
100
AcDbEntity
  8
D35160210
100
AcDbLine
 10
-0.9447786571167142
 20
-0.1849923722742908
 30
0.0
 11
-0.9462949268770586
 21
-0.1830674461084634
 31
0.0
  0
LINE
  5
670
330
616
100
AcDbEntity
  8
D35160210
100
AcDbLine
 10
-1.57901508433737
 20
-2.05992790053791
 30
0.0
 11
-1.586638179007636
 21
-2.053251921325891
 31
0.0
  0
LINE
  5
671
330
616
100
AcDbEntity
  8
D35160210
100
AcDbLine
 10
-0.9321939689613856
 20
-0.1965666422380359
 30
0.0
 11
-0.9341831524795196
 21
-0.1951357111910461
 31
0.0
  0
LINE
  5
672
330
616
100
AcDbEntity
  8
D35160210
100
AcDbLine
 10
-0.9515557533104157
 20
-0.1748089748105919
 30
0.0
 11
-0.9526593748323222
 21
-0.1726211827120601
 31
0.0
  0
LINE
  5
673
330
616
100
AcDbEntity
  8
D35160210
100
AcDbLine
 10
-0.9477330072676153
 20
-0.1810834250600912
 30
0.0
 11
-0.9490905976664834
 21
-0.1790434831396119
 31
0.0
  0
LINE
  5
674
330
616
100
AcDbEntity
  8
D35160210
100
AcDbLine
 10
-0.9545998803055084
 20
-0.1681220170509725
 30
0.0
 11
-0.9554336598619528
 21
-0.1658178411936966
 31
0.0
  0
LINE
  5
675
330
616
100
AcDbEntity
  8
D35160210
100
AcDbLine
 10
-0.9554336598619528
 20
-0.1658178411936966
 30
0.0
 11
-0.9561746300253304
 21
-0.1634821661420212
 31
0.0
  0
LINE
  5
676
330
616
100
AcDbEntity
  8
D35160210
100
AcDbLine
 10
-0.9280519806563489
 20
-0.1991842720855068
 30
0.0
 11
-0.9231067502420984
 21
-0.2020394021963803
 31
0.0
  0
LINE
  5
677
330
616
100
AcDbEntity
  8
D35160210
100
AcDbLine
 10
0.9231067502420984
 20
-0.2020394021963661
 30
0.0
 11
0.9280519806563489
 21
-0.1991842720854855
 31
0.0
  0
LINE
  5
678
330
616
100
AcDbEntity
  8
D35160210
100
AcDbLine
 10
-0.9490905976664834
 20
-0.1790434831396119
 30
0.0
 11
-0.950365526218647
 21
-0.1769508838189431
 31
0.0
  0
LINE
  5
679
330
616
100
AcDbEntity
  8
D35160210
100
AcDbLine
 10
-0.9526593748323222
 20
-0.1726211827120601
 30
0.0
 11
-0.9536746252253607
 21
-0.1703910075239996
 31
0.0
  0
LINE
  5
67A
330
616
100
AcDbEntity
  8
D35160210
100
AcDbLine
 10
-1.619584944156642
 20
-2.029788606746873
 30
0.0
 11
-1.628369609812082
 21
-2.024780763455243
 31
0.0
  0
LINE
  5
67B
330
616
100
AcDbEntity
  8
D35160210
100
AcDbLine
 10
-1.602646342092199
 20
-2.04085221869008
 30
0.0
 11
-1.611005953778928
 21
-2.035148680252564
 31
0.0
  0
LINE
  5
67C
330
616
100
AcDbEntity
  8
D35160210
100
AcDbLine
 10
-1.611005953778928
 20
-2.035148680252564
 30
0.0
 11
-1.619584944156642
 21
-2.029788606746873
 31
0.0
  0
LINE
  5
67D
330
616
100
AcDbEntity
  8
D35160210
100
AcDbLine
 10
-1.63734589502188
 20
-2.020133353747926
 30
0.0
 11
-1.646499414134112
 21
-2.01585400311777
 31
0.0
  0
LINE
  5
67E
330
616
100
AcDbEntity
  8
D35160210
100
AcDbLine
 10
-1.646499414134112
 20
-2.01585400311777
 30
0.0
 11
-1.655815474832664
 21
-2.011949744131737
 31
0.0
  0
LINE
  5
67F
330
616
100
AcDbEntity
  8
D35160210
100
AcDbLine
 10
-1.655815474832664
 20
-2.011949744131737
 30
0.0
 11
-1.66527910224876
 21
-2.008427002368417
 31
0.0
  0
LINE
  5
680
330
616
100
AcDbEntity
  8
D35160210
100
AcDbLine
 10
-1.66527910224876
 20
-2.008427002368417
 30
0.0
 11
-1.674875063876172
 21
-2.005291583409867
 31
0.0
  0
LINE
  5
681
330
616
100
AcDbEntity
  8
D35160210
100
AcDbLine
 10
-1.674875063876172
 20
-2.005291583409867
 30
0.0
 11
-1.684587895239289
 21
-2.002548660953568
 31
0.0
  0
LINE
  5
682
330
616
100
AcDbEntity
  8
D35160210
100
AcDbLine
 10
-1.628369609812082
 20
-2.024780763455243
 30
0.0
 11
-1.63734589502188
 21
-2.020133353747926
 31
0.0
  0
LINE
  5
683
330
616
100
AcDbEntity
  8
D35160210
100
AcDbLine
 10
-0.9536746252253607
 20
-0.1703910075239996
 30
0.0
 11
-0.9545998803055084
 21
-0.1681220170509725
 31
0.0
  0
LINE
  5
684
330
616
100
AcDbEntity
  8
D35160210
100
AcDbLine
 10
-1.586638179007636
 20
-2.053251921325891
 30
0.0
 11
-1.594519438729648
 21
-2.046889911677826
 31
0.0
  0
LINE
  5
685
330
616
100
AcDbEntity
  8
D35160210
100
AcDbLine
 10
-1.684587895239289
 20
-2.002548660953568
 30
0.0
 11
-1.694401926256048
 21
-2.000202766107445
 31
0.0
  0
LINE
  5
686
330
616
100
AcDbEntity
  8
D35160210
100
AcDbLine
 10
-1.7444306758522
 20
-1.99454123160682
 30
0.0
 11
-1.754514783666579
 21
-1.994635645231472
 31
0.0
  0
LINE
  5
687
330
616
100
AcDbEntity
  8
D35160210
100
AcDbLine
 10
-1.594519438729648
 20
-2.046889911677826
 30
0.0
 11
-1.602646342092199
 21
-2.04085221869008
 31
0.0
  0
LINE
  5
688
330
616
100
AcDbEntity
  8
D35160210
100
AcDbLine
 10
-1.794569221521285
 20
-1.999102813500595
 30
0.0
 11
-1.804431305181694
 21
-2.001232732269119
 31
0.0
  0
LINE
  5
689
330
616
100
AcDbEntity
  8
D35160210
100
AcDbLine
 10
-1.774630930847976
 20
-1.996054015622366
 30
0.0
 11
-1.784630406848506
 21
-1.997375621447677
 31
0.0
  0
LINE
  5
68A
330
616
100
AcDbEntity
  8
D35160210
100
AcDbLine
 10
-1.754514783666579
 20
-1.994635645231472
 30
0.0
 11
-1.76458697093777
 21
-1.995140185378627
 31
0.0
  0
LINE
  5
68B
330
616
100
AcDbEntity
  8
D35160210
100
AcDbLine
 10
-1.694401926256048
 20
-2.000202766107445
 30
0.0
 11
-1.704301308230512
 21
-1.998257777926514
 31
0.0
  0
LINE
  5
68C
330
616
100
AcDbEntity
  8
D35160210
100
AcDbLine
 10
-1.704301308230512
 20
-1.998257777926514
 30
0.0
 11
-1.714270041402741
 21
-1.996716915244864
 31
0.0
  0
LINE
  5
68D
330
616
100
AcDbEntity
  8
D35160210
100
AcDbLine
 10
-1.734350975554505
 20
-1.99485710104231
 30
0.0
 11
-1.7444306758522
 21
-1.99454123160682
 31
0.0
  0
LINE
  5
68E
330
616
100
AcDbEntity
  8
D35160210
100
AcDbLine
 10
-1.724292002978458
 20
-1.995582729850266
 30
0.0
 11
-1.734350975554505
 21
-1.99485710104231
 31
0.0
  0
LINE
  5
68F
330
616
100
AcDbEntity
  8
D35160210
100
AcDbLine
 10
-1.714270041402741
 20
-1.996716915244864
 30
0.0
 11
-1.724292002978458
 21
-1.995582729850266
 31
0.0
  0
LINE
  5
690
330
616
100
AcDbEntity
  8
D35160210
100
AcDbLine
 10
-1.870003019555369
 20
-2.027041005284242
 30
0.0
 11
-1.87869476184413
 21
-2.032211992435822
 31
0.0
  0
LINE
  5
691
330
616
100
AcDbEntity
  8
D35160210
100
AcDbLine
 10
-1.842796276078658
 20
-2.013699407261395
 30
0.0
 11
-1.852039381272632
 21
-2.017777112407824
 31
0.0
  0
LINE
  5
692
330
616
100
AcDbEntity
  8
D35160210
100
AcDbLine
 10
-1.804431305181694
 20
-2.001232732269119
 30
0.0
 11
-1.814200724132618
 21
-2.003761854166324
 31
0.0
  0
LINE
  5
693
330
616
100
AcDbEntity
  8
D35160210
100
AcDbLine
 10
-1.784630406848506
 20
-1.997375621447677
 30
0.0
 11
-1.794569221521285
 21
-1.999102813500595
 31
0.0
  0
LINE
  5
694
330
616
100
AcDbEntity
  8
D35160210
100
AcDbLine
 10
-1.887174477689328
 20
-2.037731244957907
 30
0.0
 11
-1.895428633074445
 21
-2.043589744585528
 31
0.0
  0
LINE
  5
695
330
616
100
AcDbEntity
  8
D35160210
100
AcDbLine
 10
-1.87869476184413
 20
-2.032211992435822
 30
0.0
 11
-1.887174477689328
 21
-2.037731244957907
 31
0.0
  0
LINE
  5
696
330
616
100
AcDbEntity
  8
D35160210
100
AcDbLine
 10
-1.833398679452372
 20
-2.01000033863843
 30
0.0
 11
-1.842796276078658
 21
-2.013699407261395
 31
0.0
  0
LINE
  5
697
330
616
100
AcDbEntity
  8
D35160210
100
AcDbLine
 10
-1.86111314714445
 20
-2.022226747491988
 30
0.0
 11
-1.870003019555369
 21
-2.027041005284242
 31
0.0
  0
LINE
  5
698
330
616
100
AcDbEntity
  8
D35160210
100
AcDbLine
 10
-1.852039381272632
 20
-2.017777112407824
 30
0.0
 11
-1.86111314714445
 21
-2.022226747491988
 31
0.0
  0
LINE
  5
699
330
616
100
AcDbEntity
  8
D35160210
100
AcDbLine
 10
-1.814200724132618
 20
-2.003761854166324
 30
0.0
 11
-1.823861708483363
 21
-2.006685998979069
 31
0.0
  0
LINE
  5
69A
330
616
100
AcDbEntity
  8
D35160210
100
AcDbLine
 10
-1.945840538413122
 20
-2.093232489100952
 30
0.0
 11
-1.951852967601794
 21
-2.101419779274454
 31
0.0
  0
LINE
  5
69B
330
616
100
AcDbEntity
  8
D35160210
100
AcDbLine
 10
-1.951852967601794
 20
-2.101419779274454
 30
0.0
 11
-1.957537492206384
 21
-2.109843261298284
 31
0.0
  0
LINE
  5
69C
330
616
100
AcDbEntity
  8
D35160210
100
AcDbLine
 10
-1.76458697093777
 20
-1.995140185378627
 30
0.0
 11
-1.774630930847976
 21
-1.996054015622366
 31
0.0
  0
LINE
  5
69D
330
616
100
AcDbEntity
  8
D35160210
100
AcDbLine
 10
-1.823861708483363
 20
-2.006685998979069
 30
0.0
 11
-1.833398679452372
 21
-2.01000033863843
 31
0.0
  0
LINE
  5
69E
330
616
100
AcDbEntity
  8
D35160210
100
AcDbLine
 10
-1.925932802312146
 20
-2.070217431617447
 30
0.0
 11
-1.932870245821405
 21
-2.077618735675731
 31
0.0
  0
LINE
  5
69F
330
616
100
AcDbEntity
  8
D35160210
100
AcDbLine
 10
-1.895428633074445
 20
-2.043589744585528
 30
0.0
 11
-1.903444077330689
 21
-2.049777935956928
 31
0.0
  0
LINE
  5
6A0
330
616
100
AcDbEntity
  8
D35160210
100
AcDbLine
 10
-1.918708266177631
 20
-2.063102595238955
 30
0.0
 11
-1.925932802312146
 21
-2.070217431617447
 31
0.0
  0
LINE
  5
6A1
330
616
100
AcDbEntity
  8
D35160210
100
AcDbLine
 10
-1.976826521539763
 20
-2.145623955571348
 30
0.0
 11
-1.980748853440033
 21
-2.155019342453687
 31
0.0
  0
LINE
  5
6A2
330
616
100
AcDbEntity
  8
D35160210
100
AcDbLine
 10
-1.939509645167262
 20
-2.085294548124597
 30
0.0
 11
-1.945840538413122
 21
-2.093232489100952
 31
0.0
  0
LINE
  5
6A3
330
616
100
AcDbEntity
  8
D35160210
100
AcDbLine
 10
-1.987468877234718
 20
-2.17424656636761
 30
0.0
 11
-1.990256130141389
 21
-2.184047841078257
 31
0.0
  0
LINE
  5
6A4
330
616
100
AcDbEntity
  8
D35160210
100
AcDbLine
 10
-1.957537492206384
 20
-2.109843261298284
 30
0.0
 11
-1.962885201668839
 21
-2.118489421561275
 31
0.0
  0
LINE
  5
6A5
330
616
100
AcDbEntity
  8
D35160210
100
AcDbLine
 10
-1.911208063238873
 20
-2.056285744539973
 30
0.0
 11
-1.918708266177631
 21
-2.063102595238955
 31
0.0
  0
LINE
  5
6A6
330
616
100
AcDbEntity
  8
D35160210
100
AcDbLine
 10
-1.903444077330689
 20
-2.049777935956928
 30
0.0
 11
-1.911208063238873
 21
-2.056285744539973
 31
0.0
  0
LINE
  5
6A7
330
616
100
AcDbEntity
  8
D35160210
100
AcDbLine
 10
-1.984298144113935
 20
-2.164565273376314
 30
0.0
 11
-1.987468877234718
 21
-2.17424656636761
 31
0.0
  0
LINE
  5
6A8
330
616
100
AcDbEntity
  8
D35160210
100
AcDbLine
 10
-1.980748853440033
 20
-2.155019342453687
 30
0.0
 11
-1.984298144113935
 21
-2.164565273376314
 31
0.0
  0
LINE
  5
6A9
330
616
100
AcDbEntity
  8
D35160210
100
AcDbLine
 10
-1.972537251761892
 20
-2.136394073352402
 30
0.0
 11
-1.976826521539763
 21
-2.145623955571348
 31
0.0
  0
LINE
  5
6AA
330
616
100
AcDbEntity
  8
D35160210
100
AcDbLine
 10
-1.962885201668839
 20
-2.118489421561275
 30
0.0
 11
-1.967887727043361
 21
-2.127344412202386
 31
0.0
  0
LINE
  5
6AB
330
616
100
AcDbEntity
  8
D35160210
100
AcDbLine
 10
-1.967887727043361
 20
-2.127344412202386
 30
0.0
 11
-1.972537251761892
 21
-2.136394073352402
 31
0.0
  0
LINE
  5
6AC
330
616
100
AcDbEntity
  8
D35160210
100
AcDbLine
 10
-1.994663507445594
 20
-2.203947960776734
 30
0.0
 11
-1.996276803870372
 21
-2.214015261017802
 31
0.0
  0
LINE
  5
6AD
330
616
100
AcDbEntity
  8
D35160210
100
AcDbLine
 10
-1.995583580793763
 20
-2.290625584255668
 30
0.0
 11
-1.993788334245621
 21
-2.300661320054228
 31
0.0
  0
LINE
  5
6AE
330
616
100
AcDbEntity
  8
D35160210
100
AcDbLine
 10
-1.990256130141389
 20
-2.184047841078257
 30
0.0
 11
-1.992655579706976
 21
-2.193953541837007
 31
0.0
  0
LINE
  5
6AF
330
616
100
AcDbEntity
  8
D35160210
100
AcDbLine
 10
-1.932870245821405
 20
-2.077618735675731
 30
0.0
 11
-1.939509645167262
 21
-2.085294548124597
 31
0.0
  0
LINE
  5
6B0
330
616
100
AcDbEntity
  8
D35160210
100
AcDbLine
 10
-1.997492972112937
 20
-2.224139499897471
 30
0.0
 11
-1.998310130813607
 21
-2.234304652235305
 31
0.0
  0
LINE
  5
6B1
330
616
100
AcDbEntity
  8
D35160210
100
AcDbLine
 10
-1.998727016289691
 20
-2.244494633625539
 30
0.0
 11
-1.998785448843776
 21
-2.250000000000024
 31
0.0
  0
LINE
  5
6B2
330
616
100
AcDbEntity
  8
D35160210
100
AcDbLine
 10
-1.989021402575403
 20
-2.320476460101733
 30
0.0
 11
-1.986057105003695
 21
-2.33022444325233
 31
0.0
  0
LINE
  5
6B3
330
616
100
AcDbEntity
  8
D35160210
100
AcDbLine
 10
-1.998584944786259
 20
-2.26019668611384
 30
0.0
 11
-1.997983742599373
 21
-2.270377242213232
 31
0.0
  0
LINE
  5
6B4
330
616
100
AcDbEntity
  8
D35160210
100
AcDbLine
 10
-1.998310130813607
 20
-2.234304652235305
 30
0.0
 11
-1.998727016289691
 21
-2.244494633625539
 31
0.0
  0
LINE
  5
6B5
330
616
100
AcDbEntity
  8
D35160210
100
AcDbLine
 10
-1.992655579706976
 20
-2.193953541837007
 30
0.0
 11
-1.994663507445594
 21
-2.203947960776734
 31
0.0
  0
LINE
  5
6B6
330
616
100
AcDbEntity
  8
D35160210
100
AcDbLine
 10
-1.954962875562713
 20
-2.394061570760779
 30
0.0
 11
-1.949126315549293
 21
-2.40237801861544
 31
0.0
  0
LINE
  5
6B7
330
616
100
AcDbEntity
  8
D35160210
100
AcDbLine
 10
-1.949126315549293
 20
-2.40237801861544
 30
0.0
 11
-1.942966130238957
 21
-2.410452174251549
 31
0.0
  0
LINE
  5
6B8
330
616
100
AcDbEntity
  8
D35160210
100
AcDbLine
 10
-1.998785448843776
 20
-2.250000000000024
 30
0.0
 11
-1.998584944786259
 21
-2.26019668611384
 31
0.0
  0
LINE
  5
6B9
330
616
100
AcDbEntity
  8
D35160210
100
AcDbLine
 10
-1.993788334245621
 20
-2.300661320054228
 30
0.0
 11
-1.99159981142877
 21
-2.310616872133888
 31
0.0
  0
LINE
  5
6BA
330
616
100
AcDbEntity
  8
D35160210
100
AcDbLine
 10
-1.970441937400508
 20
-2.367793697633334
 30
0.0
 11
-1.965629032299247
 21
-2.376755552340608
 31
0.0
  0
LINE
  5
6BB
330
616
100
AcDbEntity
  8
D35160210
100
AcDbLine
 10
-1.922643167944542
 20
-2.433092988041831
 30
0.0
 11
-1.915290327201418
 21
-2.440072099462138
 31
0.0
  0
LINE
  5
6BC
330
616
100
AcDbEntity
  8
D35160210
100
AcDbLine
 10
-1.978989839445191
 20
-2.349323869605374
 30
0.0
 11
-1.974897855427386
 21
-2.358644937931682
 31
0.0
  0
LINE
  5
6BD
330
616
100
AcDbEntity
  8
D35160210
100
AcDbLine
 10
-1.974897855427386
 20
-2.358644937931682
 30
0.0
 11
-1.970441937400508
 21
-2.367793697633334
 31
0.0
  0
LINE
  5
6BE
330
616
100
AcDbEntity
  8
D35160210
100
AcDbLine
 10
-1.960466654338247
 20
-2.385516183071057
 30
0.0
 11
-1.954962875562713
 21
-2.394061570760779
 31
0.0
  0
LINE
  5
6BF
330
616
100
AcDbEntity
  8
D35160210
100
AcDbLine
 10
-1.965629032299247
 20
-2.376755552340608
 30
0.0
 11
-1.960466654338247
 21
-2.385516183071057
 31
0.0
  0
LINE
  5
6C0
330
616
100
AcDbEntity
  8
D35160210
100
AcDbLine
 10
-1.986057105003695
 20
-2.33022444325233
 30
0.0
 11
-1.982711518416394
 21
-2.339845343726235
 31
0.0
  0
LINE
  5
6C1
330
616
100
AcDbEntity
  8
D35160210
100
AcDbLine
 10
-1.936491999883784
 20
-2.418271051594796
 30
0.0
 11
-1.929714116090437
 21
-2.425822052498542
 31
0.0
  0
LINE
  5
6C2
330
616
100
AcDbEntity
  8
D35160210
100
AcDbLine
 10
-1.883299457759889
 20
-2.464851319747477
 30
0.0
 11
-1.874720467382175
 21
-2.470211393253176
 31
0.0
  0
LINE
  5
6C3
330
616
100
AcDbEntity
  8
D35160210
100
AcDbLine
 10
-1.942966130238957
 20
-2.410452174251549
 30
0.0
 11
-1.936491999883784
 21
-2.418271051594796
 31
0.0
  0
LINE
  5
6C4
330
616
100
AcDbEntity
  8
D35160210
100
AcDbLine
 10
-1.899785972809141
 20
-2.453110088322215
 30
0.0
 11
-1.891659069446589
 21
-2.459147781309962
 31
0.0
  0
LINE
  5
6C5
330
616
100
AcDbEntity
  8
D35160210
100
AcDbLine
 10
-1.891659069446589
 20
-2.459147781309962
 30
0.0
 11
-1.883299457759889
 21
-2.464851319747477
 31
0.0
  0
LINE
  5
6C6
330
616
100
AcDbEntity
  8
D35160210
100
AcDbLine
 10
-1.915290327201418
 20
-2.440072099462138
 30
0.0
 11
-1.907667232531181
 21
-2.446748078674151
 31
0.0
  0
LINE
  5
6C7
330
616
100
AcDbEntity
  8
D35160210
100
AcDbLine
 10
-1.907667232531181
 20
-2.446748078674151
 30
0.0
 11
-1.899785972809141
 21
-2.453110088322215
 31
0.0
  0
LINE
  5
6C8
330
616
100
AcDbEntity
  8
D35160210
100
AcDbLine
 10
-1.99159981142877
 20
-2.310616872133888
 30
0.0
 11
-1.989021402575403
 21
-2.320476460101733
 31
0.0
  0
LINE
  5
6C9
330
616
100
AcDbEntity
  8
D35160210
100
AcDbLine
 10
-1.874720467382175
 20
-2.470211393253176
 30
0.0
 11
-1.865935801726706
 21
-2.475219236544798
 31
0.0
  0
LINE
  5
6CA
330
616
100
AcDbEntity
  8
D35160210
100
AcDbLine
 10
-1.929714116090437
 20
-2.425822052498542
 30
0.0
 11
-1.922643167944542
 21
-2.433092988041831
 31
0.0
  0
LINE
  5
6CB
330
616
100
AcDbEntity
  8
D35160210
100
AcDbLine
 10
-1.847805997404677
 20
-2.484145996882272
 30
0.0
 11
-1.838489936706153
 21
-2.488050255868305
 31
0.0
  0
LINE
  5
6CC
330
616
100
AcDbEntity
  8
D35160210
100
AcDbLine
 10
-1.856959516516909
 20
-2.479866646252123
 30
0.0
 11
-1.847805997404677
 21
-2.484145996882272
 31
0.0
  0
LINE
  5
6CD
330
616
100
AcDbEntity
  8
D35160210
100
AcDbLine
 10
-1.770013408560359
 20
-2.504417270149776
 30
0.0
 11
-1.759954435984283
 21
-2.505142898957732
 31
0.0
  0
LINE
  5
6CE
330
616
100
AcDbEntity
  8
D35160210
100
AcDbLine
 10
-1.819430347662645
 20
-2.494708416590174
 30
0.0
 11
-1.809717516299528
 21
-2.497451339046474
 31
0.0
  0
LINE
  5
6CF
330
616
100
AcDbEntity
  8
D35160210
100
AcDbLine
 10
-1.809717516299528
 20
-2.497451339046474
 30
0.0
 11
-1.79990348528274
 21
-2.499797233892603
 31
0.0
  0
LINE
  5
6D0
330
616
100
AcDbEntity
  8
D35160210
100
AcDbLine
 10
-1.829026309290028
 20
-2.491572997631624
 30
0.0
 11
-1.819430347662645
 21
-2.494708416590174
 31
0.0
  0
LINE
  5
6D1
330
616
100
AcDbEntity
  8
D35160210
100
AcDbLine
 10
-1.865935801726706
 20
-2.475219236544798
 30
0.0
 11
-1.856959516516909
 21
-2.479866646252123
 31
0.0
  0
LINE
  5
6D2
330
616
100
AcDbEntity
  8
D35160210
100
AcDbLine
 10
-1.79990348528274
 20
-2.499797233892603
 30
0.0
 11
-1.790004103308305
 21
-2.501742222073527
 31
0.0
  0
LINE
  5
6D3
330
616
100
AcDbEntity
  8
D35160210
100
AcDbLine
 10
-1.73979062787221
 20
-2.50536435476857
 30
0.0
 11
-1.729718440601018
 21
-2.504859814621415
 31
0.0
  0
LINE
  5
6D4
330
616
100
AcDbEntity
  8
D35160210
100
AcDbLine
 10
-1.838489936706153
 20
-2.488050255868305
 30
0.0
 11
-1.829026309290028
 21
-2.491572997631624
 31
0.0
  0
LINE
  5
6D5
330
616
100
AcDbEntity
  8
D35160210
100
AcDbLine
 10
-1.790004103308305
 20
-2.501742222073527
 30
0.0
 11
-1.780035370136076
 21
-2.503283084755178
 31
0.0
  0
LINE
  5
6D6
330
616
100
AcDbEntity
  8
D35160210
100
AcDbLine
 10
-1.729718440601018
 20
-2.504859814621415
 30
0.0
 11
-1.719674480690812
 21
-2.503945984377683
 31
0.0
  0
LINE
  5
6D7
330
616
100
AcDbEntity
  8
D35160210
100
AcDbLine
 10
-1.759954435984283
 20
-2.505142898957732
 30
0.0
 11
-1.749874735686617
 21
-2.505458768393229
 31
0.0
  0
LINE
  5
6D8
330
616
100
AcDbEntity
  8
D35160210
100
AcDbLine
 10
-1.780035370136076
 20
-2.503283084755178
 30
0.0
 11
-1.770013408560359
 21
-2.504417270149776
 31
0.0
  0
LINE
  5
6D9
330
616
100
AcDbEntity
  8
D35160210
100
AcDbLine
 10
-1.719674480690812
 20
-2.503945984377683
 30
0.0
 11
-1.709675004690311
 21
-2.502624378552372
 31
0.0
  0
LINE
  5
6DA
330
616
100
AcDbEntity
  8
D35160210
100
AcDbLine
 10
-1.749874735686617
 20
-2.505458768393229
 30
0.0
 11
-1.73979062787221
 21
-2.50536435476857
 31
0.0
  0
LINE
  5
6DB
330
616
100
AcDbEntity
  8
D35160210
100
AcDbLine
 10
-1.689874106357123
 20
-2.498767267730922
 30
0.0
 11
-1.680104687406171
 21
-2.496238145833718
 31
0.0
  0
LINE
  5
6DC
330
616
100
AcDbEntity
  8
D35160210
100
AcDbLine
 10
-1.709675004690311
 20
-2.502624378552372
 30
0.0
 11
-1.699736190017532
 21
-2.500897186499447
 31
0.0
  0
LINE
  5
6DD
330
616
100
AcDbEntity
  8
D35160210
100
AcDbLine
 10
-1.699736190017532
 20
-2.500897186499447
 30
0.0
 11
-1.689874106357123
 21
-2.498767267730922
 31
0.0
  0
LINE
  5
6DE
330
616
100
AcDbEntity
  8
D35160210
100
AcDbLine
 10
-1.642266030266156
 20
-2.482222887592218
 30
0.0
 11
-1.633192264394338
 21
-2.477773252508061
 31
0.0
  0
LINE
  5
6DF
330
616
100
AcDbEntity
  8
D35160210
100
AcDbLine
 10
-1.670443703055454
 20
-2.493314001020973
 30
0.0
 11
-1.660906732086445
 21
-2.489999661361611
 31
0.0
  0
LINE
  5
6E0
330
616
100
AcDbEntity
  8
D35160210
100
AcDbLine
 10
-1.660906732086445
 20
-2.489999661361611
 30
0.0
 11
-1.651509135460131
 21
-2.486300592738647
 31
0.0
  0
LINE
  5
6E1
330
616
100
AcDbEntity
  8
D35160210
100
AcDbLine
 10
-1.680104687406171
 20
-2.496238145833718
 30
0.0
 11
-1.670443703055454
 21
-2.493314001020973
 31
0.0
  0
LINE
  5
6E2
330
616
100
AcDbEntity
  8
D35160210
100
AcDbLine
 10
-1.624302391983448
 20
-2.472958994715799
 30
0.0
 11
-1.615610649694659
 21
-2.46778800756422
 31
0.0
  0
LINE
  5
6E3
330
616
100
AcDbEntity
  8
D35160210
100
AcDbLine
 10
-1.651509135460131
 20
-2.486300592738647
 30
0.0
 11
-1.642266030266156
 21
-2.482222887592218
 31
0.0
  0
LINE
  5
6E4
330
616
100
AcDbEntity
  8
D35160210
100
AcDbLine
 10
-1.615610649694659
 20
-2.46778800756422
 30
0.0
 11
-1.607130933849461
 21
-2.462268755042142
 31
0.0
  0
LINE
  5
6E5
330
616
100
AcDbEntity
  8
D35160210
100
AcDbLine
 10
-1.607130933849461
 20
-2.462268755042142
 30
0.0
 11
-1.598876778464372
 21
-2.456410255414514
 31
0.0
  0
LINE
  5
6E6
330
616
100
AcDbEntity
  8
D35160210
100
AcDbLine
 10
-1.590861334208099
 20
-2.450222064043114
 30
0.0
 11
-1.583097348299943
 21
-2.443714255460069
 31
0.0
  0
LINE
  5
6E7
330
616
100
AcDbEntity
  8
D35160210
100
AcDbLine
 10
-1.633192264394338
 20
-2.477773252508061
 30
0.0
 11
-1.624302391983448
 21
-2.472958994715799
 31
0.0
  0
LINE
  5
6E8
330
616
100
AcDbEntity
  8
D35160210
100
AcDbLine
 10
1.998584944786259
 20
-2.239803313886202
 30
0.0
 11
1.997983742599373
 21
-2.229622757786817
 31
0.0
  0
LINE
  5
6E9
330
616
100
AcDbEntity
  8
D35160210
100
AcDbLine
 10
-1.583097348299943
 20
-2.443714255460069
 30
0.0
 11
-1.578859769974613
 21
-2.439862767839688
 31
0.0
  0
LINE
  5
6EA
330
616
100
AcDbEntity
  8
D35160210
100
AcDbLine
 10
1.995583580793763
 20
-2.209374415744374
 30
0.0
 11
1.993788334245621
 21
-2.199338679945821
 31
0.0
  0
LINE
  5
6EB
330
616
100
AcDbEntity
  8
D35160210
100
AcDbLine
 10
1.993788334245621
 20
-2.199338679945821
 30
0.0
 11
1.99159981142877
 21
-2.189383127866161
 31
0.0
  0
LINE
  5
6EC
330
616
100
AcDbEntity
  8
D35160210
100
AcDbLine
 10
-1.598876778464372
 20
-2.456410255414514
 30
0.0
 11
-1.590861334208099
 21
-2.450222064043114
 31
0.0
  0
LINE
  5
6ED
330
616
100
AcDbEntity
  8
D35160210
100
AcDbLine
 10
1.998785448843776
 20
-2.250000000000024
 30
0.0
 11
1.998584944786259
 21
-2.239803313886202
 31
0.0
  0
LINE
  5
6EE
330
616
100
AcDbEntity
  8
D35160210
100
AcDbLine
 10
1.99159981142877
 20
-2.189383127866161
 30
0.0
 11
1.989021402575403
 21
-2.179523539898315
 31
0.0
  0
LINE
  5
6EF
330
616
100
AcDbEntity
  8
D35160210
100
AcDbLine
 10
1.949126315549293
 20
-2.097621981384609
 30
0.0
 11
1.942966130238957
 21
-2.089547825748493
 31
0.0
  0
LINE
  5
6F0
330
616
100
AcDbEntity
  8
D35160210
100
AcDbLine
 10
1.960466654338247
 20
-2.114483816928984
 30
0.0
 11
1.954962875562713
 21
-2.105938429239269
 31
0.0
  0
LINE
  5
6F1
330
616
100
AcDbEntity
  8
D35160210
100
AcDbLine
 10
1.986057105003695
 20
-2.169775556747712
 30
0.0
 11
1.982711518416365
 21
-2.160154656273807
 31
0.0
  0
LINE
  5
6F2
330
616
100
AcDbEntity
  8
D35160210
100
AcDbLine
 10
1.989021402575403
 20
-2.179523539898315
 30
0.0
 11
1.986057105003695
 21
-2.169775556747712
 31
0.0
  0
LINE
  5
6F3
330
616
100
AcDbEntity
  8
D35160210
100
AcDbLine
 10
1.978989839445191
 20
-2.150676130394668
 30
0.0
 11
1.974897855427386
 21
-2.14135506206836
 31
0.0
  0
LINE
  5
6F4
330
616
100
AcDbEntity
  8
D35160210
100
AcDbLine
 10
1.970441937400508
 20
-2.132206302366707
 30
0.0
 11
1.965629032299247
 21
-2.123244447659434
 31
0.0
  0
LINE
  5
6F5
330
616
100
AcDbEntity
  8
D35160210
100
AcDbLine
 10
1.942966130238957
 20
-2.089547825748493
 30
0.0
 11
1.936491999883784
 21
-2.081728948405245
 31
0.0
  0
LINE
  5
6F6
330
616
100
AcDbEntity
  8
D35160210
100
AcDbLine
 10
1.974897855427386
 20
-2.14135506206836
 30
0.0
 11
1.970441937400508
 21
-2.132206302366707
 31
0.0
  0
LINE
  5
6F7
330
616
100
AcDbEntity
  8
D35160210
100
AcDbLine
 10
1.936491999883784
 20
-2.081728948405245
 30
0.0
 11
1.929714116090408
 21
-2.0741779475015
 31
0.0
  0
LINE
  5
6F8
330
616
100
AcDbEntity
  8
D35160210
100
AcDbLine
 10
1.965629032299247
 20
-2.123244447659434
 30
0.0
 11
1.960466654338247
 21
-2.114483816928984
 31
0.0
  0
LINE
  5
6F9
330
616
100
AcDbEntity
  8
D35160210
100
AcDbLine
 10
1.899785972809141
 20
-2.046889911677826
 30
0.0
 11
1.891659069446589
 21
-2.04085221869008
 31
0.0
  0
LINE
  5
6FA
330
616
100
AcDbEntity
  8
D35160210
100
AcDbLine
 10
1.907667232531181
 20
-2.053251921325891
 30
0.0
 11
1.899785972809141
 21
-2.046889911677826
 31
0.0
  0
LINE
  5
6FB
330
616
100
AcDbEntity
  8
D35160210
100
AcDbLine
 10
1.954962875562713
 20
-2.105938429239269
 30
0.0
 11
1.949126315549293
 21
-2.097621981384609
 31
0.0
  0
LINE
  5
6FC
330
616
100
AcDbEntity
  8
D35160210
100
AcDbLine
 10
1.874720467382175
 20
-2.029788606746866
 30
0.0
 11
1.865935801726706
 21
-2.024780763455243
 31
0.0
  0
LINE
  5
6FD
330
616
100
AcDbEntity
  8
D35160210
100
AcDbLine
 10
1.929714116090408
 20
-2.0741779475015
 30
0.0
 11
1.922643167944542
 21
-2.06690701195821
 31
0.0
  0
LINE
  5
6FE
330
616
100
AcDbEntity
  8
D35160210
100
AcDbLine
 10
1.915290327201418
 20
-2.059927900537903
 30
0.0
 11
1.907667232531181
 21
-2.053251921325891
 31
0.0
  0
LINE
  5
6FF
330
616
100
AcDbEntity
  8
D35160210
100
AcDbLine
 10
1.883299457759889
 20
-2.035148680252564
 30
0.0
 11
1.874720467382175
 21
-2.029788606746866
 31
0.0
  0
LINE
  5
700
330
616
100
AcDbEntity
  8
D35160210
100
AcDbLine
 10
1.856959516516909
 20
-2.020133353747919
 30
0.0
 11
1.847805997404677
 21
-2.01585400311777
 31
0.0
  0
LINE
  5
701
330
616
100
AcDbEntity
  8
D35160210
100
AcDbLine
 10
1.891659069446589
 20
-2.04085221869008
 30
0.0
 11
1.883299457759889
 21
-2.035148680252564
 31
0.0
  0
LINE
  5
702
330
616
100
AcDbEntity
  8
D35160210
100
AcDbLine
 10
1.819430347662617
 20
-2.005291583409867
 30
0.0
 11
1.809717516299528
 21
-2.002548660953568
 31
0.0
  0
LINE
  5
703
330
616
100
AcDbEntity
  8
D35160210
100
AcDbLine
 10
1.922643167944542
 20
-2.06690701195821
 30
0.0
 11
1.915290327201418
 21
-2.059927900537903
 31
0.0
  0
LINE
  5
704
330
616
100
AcDbEntity
  8
D35160210
100
AcDbLine
 10
1.847805997404677
 20
-2.01585400311777
 30
0.0
 11
1.838489936706153
 21
-2.011949744131737
 31
0.0
  0
LINE
  5
705
330
616
100
AcDbEntity
  8
D35160210
100
AcDbLine
 10
1.838489936706153
 20
-2.011949744131737
 30
0.0
 11
1.829026309290028
 21
-2.008427002368417
 31
0.0
  0
LINE
  5
706
330
616
100
AcDbEntity
  8
D35160210
100
AcDbLine
 10
1.865935801726706
 20
-2.024780763455243
 30
0.0
 11
1.856959516516909
 21
-2.020133353747919
 31
0.0
  0
LINE
  5
707
330
616
100
AcDbEntity
  8
D35160210
100
AcDbLine
 10
1.79990348528274
 20
-2.000202766107438
 30
0.0
 11
1.790004103308305
 21
-1.998257777926514
 31
0.0
  0
LINE
  5
708
330
616
100
AcDbEntity
  8
D35160210
100
AcDbLine
 10
1.829026309290028
 20
-2.008427002368417
 30
0.0
 11
1.819430347662617
 21
-2.005291583409867
 31
0.0
  0
LINE
  5
709
330
616
100
AcDbEntity
  8
D35160210
100
AcDbLine
 10
1.790004103308305
 20
-1.998257777926514
 30
0.0
 11
1.780035370136076
 21
-1.996716915244864
 31
0.0
  0
LINE
  5
70A
330
616
100
AcDbEntity
  8
D35160210
100
AcDbLine
 10
1.809717516299528
 20
-2.002548660953568
 30
0.0
 11
1.79990348528274
 21
-2.000202766107438
 31
0.0
  0
LINE
  5
70B
330
616
100
AcDbEntity
  8
D35160210
100
AcDbLine
 10
1.780035370136076
 20
-1.996716915244864
 30
0.0
 11
1.770013408560359
 21
-1.995582729850266
 31
0.0
  0
LINE
  5
70C
330
616
100
AcDbEntity
  8
D35160210
100
AcDbLine
 10
1.759954435984283
 20
-1.99485710104231
 30
0.0
 11
1.749874735686617
 21
-1.994541231606813
 31
0.0
  0
LINE
  5
70D
330
616
100
AcDbEntity
  8
D35160210
100
AcDbLine
 10
1.770013408560359
 20
-1.995582729850266
 30
0.0
 11
1.759954435984283
 21
-1.99485710104231
 31
0.0
  0
LINE
  5
70E
330
616
100
AcDbEntity
  8
D35160210
100
AcDbLine
 10
1.709675004690282
 20
-1.99737562144767
 30
0.0
 11
1.699736190017532
 21
-1.999102813500595
 31
0.0
  0
LINE
  5
70F
330
616
100
AcDbEntity
  8
D35160210
100
AcDbLine
 10
1.749874735686617
 20
-1.994541231606813
 30
0.0
 11
1.73979062787221
 21
-1.994635645231472
 31
0.0
  0
LINE
  5
710
330
616
100
AcDbEntity
  8
D35160210
100
AcDbLine
 10
1.670443703055454
 20
-2.006685998979069
 30
0.0
 11
1.660906732086417
 21
-2.01000033863843
 31
0.0
  0
LINE
  5
711
330
616
100
AcDbEntity
  8
D35160210
100
AcDbLine
 10
1.689874106357123
 20
-2.001232732269119
 30
0.0
 11
1.680104687406171
 21
-2.003761854166324
 31
0.0
  0
LINE
  5
712
330
616
100
AcDbEntity
  8
D35160210
100
AcDbLine
 10
1.719674480690812
 20
-1.996054015622359
 30
0.0
 11
1.709675004690282
 21
-1.99737562144767
 31
0.0
  0
LINE
  5
713
330
616
100
AcDbEntity
  8
D35160210
100
AcDbLine
 10
1.699736190017532
 20
-1.999102813500595
 30
0.0
 11
1.689874106357123
 21
-2.001232732269119
 31
0.0
  0
LINE
  5
714
330
616
100
AcDbEntity
  8
D35160210
100
AcDbLine
 10
1.73979062787221
 20
-1.994635645231472
 30
0.0
 11
1.729718440601018
 21
-1.995140185378627
 31
0.0
  0
LINE
  5
715
330
616
100
AcDbEntity
  8
D35160210
100
AcDbLine
 10
1.729718440601018
 20
-1.995140185378627
 30
0.0
 11
1.719674480690812
 21
-1.996054015622359
 31
0.0
  0
LINE
  5
716
330
616
100
AcDbEntity
  8
D35160210
100
AcDbLine
 10
1.651509135460131
 20
-2.013699407261395
 30
0.0
 11
1.642266030266156
 21
-2.017777112407816
 31
0.0
  0
LINE
  5
717
330
616
100
AcDbEntity
  8
D35160210
100
AcDbLine
 10
1.680104687406171
 20
-2.003761854166324
 30
0.0
 11
1.670443703055454
 21
-2.006685998979069
 31
0.0
  0
LINE
  5
718
330
616
100
AcDbEntity
  8
D35160210
100
AcDbLine
 10
1.660906732086417
 20
-2.01000033863843
 30
0.0
 11
1.651509135460131
 21
-2.013699407261395
 31
0.0
  0
LINE
  5
719
330
616
100
AcDbEntity
  8
D35160210
100
AcDbLine
 10
1.62430239198342
 20
-2.027041005284242
 30
0.0
 11
1.615610649694659
 21
-2.032211992435822
 31
0.0
  0
LINE
  5
71A
330
616
100
AcDbEntity
  8
D35160210
100
AcDbLine
 10
1.633192264394338
 20
-2.022226747491981
 30
0.0
 11
1.62430239198342
 21
-2.027041005284242
 31
0.0
  0
LINE
  5
71B
330
616
100
AcDbEntity
  8
D35160210
100
AcDbLine
 10
1.642266030266156
 20
-2.017777112407816
 30
0.0
 11
1.633192264394338
 21
-2.022226747491981
 31
0.0
  0
LINE
  5
71C
330
616
100
AcDbEntity
  8
D35160210
100
AcDbLine
 10
1.607130933849461
 20
-2.0377312449579
 30
0.0
 11
1.598876778464372
 21
-2.043589744585521
 31
0.0
  0
LINE
  5
71D
330
616
100
AcDbEntity
  8
D35160210
100
AcDbLine
 10
1.615610649694659
 20
-2.032211992435822
 30
0.0
 11
1.607130933849461
 21
-2.0377312449579
 31
0.0
  0
LINE
  5
71E
330
616
100
AcDbEntity
  8
D35160210
100
AcDbLine
 10
1.57901508433737
 20
-2.440072099462138
 30
0.0
 11
1.586638179007636
 21
-2.446748078674151
 31
0.0
  0
LINE
  5
71F
330
616
100
AcDbEntity
  8
D35160210
100
AcDbLine
 10
1.583097348299943
 20
-2.056285744539973
 30
0.0
 11
1.578859769974584
 21
-2.060137232160389
 31
0.0
  0
LINE
  5
720
330
616
100
AcDbEntity
  8
D35160210
100
AcDbLine
 10
1.598876778464372
 20
-2.043589744585521
 30
0.0
 11
1.590861334208099
 21
-2.049777935956921
 31
0.0
  0
LINE
  5
721
330
616
100
AcDbEntity
  8
D35160210
100
AcDbLine
 10
1.602646342092199
 20
-2.459147781309962
 30
0.0
 11
1.611005953778899
 21
-2.464851319747477
 31
0.0
  0
LINE
  5
722
330
616
100
AcDbEntity
  8
D35160210
100
AcDbLine
 10
1.590861334208099
 20
-2.049777935956921
 30
0.0
 11
1.583097348299943
 21
-2.056285744539973
 31
0.0
  0
LINE
  5
723
330
616
100
AcDbEntity
  8
D35160210
100
AcDbLine
 10
1.594519438729648
 20
-2.453110088322222
 30
0.0
 11
1.602646342092199
 21
-2.459147781309962
 31
0.0
  0
LINE
  5
724
330
616
100
AcDbEntity
  8
D35160210
100
AcDbLine
 10
1.586638179007636
 20
-2.446748078674151
 30
0.0
 11
1.594519438729648
 21
-2.453110088322222
 31
0.0
  0
LINE
  5
725
330
616
100
AcDbEntity
  8
D35160210
100
AcDbLine
 10
1.611005953778899
 20
-2.464851319747477
 30
0.0
 11
1.619584944156613
 21
-2.470211393253176
 31
0.0
  0
LINE
  5
726
330
616
100
AcDbEntity
  8
D35160210
100
AcDbLine
 10
1.619584944156613
 20
-2.470211393253176
 30
0.0
 11
1.628369609812054
 21
-2.475219236544806
 31
0.0
  0
LINE
  5
727
330
616
100
AcDbEntity
  8
D35160210
100
AcDbLine
 10
1.628369609812054
 20
-2.475219236544806
 30
0.0
 11
1.63734589502188
 21
-2.479866646252123
 31
0.0
  0
LINE
  5
728
330
616
100
AcDbEntity
  8
D35160210
100
AcDbLine
 10
1.63734589502188
 20
-2.479866646252123
 30
0.0
 11
1.646499414134112
 21
-2.484145996882272
 31
0.0
  0
LINE
  5
729
330
616
100
AcDbEntity
  8
D35160210
100
AcDbLine
 10
1.66527910224876
 20
-2.491572997631624
 30
0.0
 11
1.674875063876172
 21
-2.494708416590182
 31
0.0
  0
LINE
  5
72A
330
616
100
AcDbEntity
  8
D35160210
100
AcDbLine
 10
1.646499414134112
 20
-2.484145996882272
 30
0.0
 11
1.655815474832664
 21
-2.488050255868305
 31
0.0
  0
LINE
  5
72B
330
616
100
AcDbEntity
  8
D35160210
100
AcDbLine
 10
1.655815474832664
 20
-2.488050255868305
 30
0.0
 11
1.66527910224876
 21
-2.491572997631624
 31
0.0
  0
LINE
  5
72C
330
616
100
AcDbEntity
  8
D35160210
100
AcDbLine
 10
1.684587895239261
 20
-2.497451339046481
 30
0.0
 11
1.694401926256048
 21
-2.499797233892603
 31
0.0
  0
LINE
  5
72D
330
616
100
AcDbEntity
  8
D35160210
100
AcDbLine
 10
1.674875063876172
 20
-2.494708416590182
 30
0.0
 11
1.684587895239261
 21
-2.497451339046481
 31
0.0
  0
LINE
  5
72E
330
616
100
AcDbEntity
  8
D35160210
100
AcDbLine
 10
1.704301308230483
 20
-2.501742222073527
 30
0.0
 11
1.714270041402713
 21
-2.503283084755185
 31
0.0
  0
LINE
  5
72F
330
616
100
AcDbEntity
  8
D35160210
100
AcDbLine
 10
1.694401926256048
 20
-2.499797233892603
 30
0.0
 11
1.704301308230483
 21
-2.501742222073527
 31
0.0
  0
LINE
  5
730
330
616
100
AcDbEntity
  8
D35160210
100
AcDbLine
 10
1.734350975554505
 20
-2.505142898957732
 30
0.0
 11
1.744430675852171
 21
-2.505458768393229
 31
0.0
  0
LINE
  5
731
330
616
100
AcDbEntity
  8
D35160210
100
AcDbLine
 10
1.714270041402713
 20
-2.503283084755185
 30
0.0
 11
1.72429200297843
 21
-2.504417270149776
 31
0.0
  0
LINE
  5
732
330
616
100
AcDbEntity
  8
D35160210
100
AcDbLine
 10
1.72429200297843
 20
-2.504417270149776
 30
0.0
 11
1.734350975554505
 21
-2.505142898957732
 31
0.0
  0
LINE
  5
733
330
616
100
AcDbEntity
  8
D35160210
100
AcDbLine
 10
1.744430675852171
 20
-2.505458768393229
 30
0.0
 11
1.754514783666579
 21
-2.505364354768577
 31
0.0
  0
LINE
  5
734
330
616
100
AcDbEntity
  8
D35160210
100
AcDbLine
 10
1.754514783666579
 20
-2.505364354768577
 30
0.0
 11
1.76458697093777
 21
-2.504859814621415
 31
0.0
  0
LINE
  5
735
330
616
100
AcDbEntity
  8
D35160210
100
AcDbLine
 10
1.76458697093777
 20
-2.504859814621415
 30
0.0
 11
1.774630930847976
 21
-2.503945984377683
 31
0.0
  0
LINE
  5
736
330
616
100
AcDbEntity
  8
D35160210
100
AcDbLine
 10
1.784630406848506
 20
-2.502624378552372
 30
0.0
 11
1.794569221521257
 21
-2.500897186499454
 31
0.0
  0
LINE
  5
737
330
616
100
AcDbEntity
  8
D35160210
100
AcDbLine
 10
1.794569221521257
 20
-2.500897186499454
 30
0.0
 11
1.804431305181665
 21
-2.498767267730929
 31
0.0
  0
LINE
  5
738
330
616
100
AcDbEntity
  8
D35160210
100
AcDbLine
 10
1.804431305181665
 20
-2.498767267730929
 30
0.0
 11
1.814200724132618
 21
-2.496238145833725
 31
0.0
  0
LINE
  5
739
330
616
100
AcDbEntity
  8
D35160210
100
AcDbLine
 10
1.814200724132618
 20
-2.496238145833725
 30
0.0
 11
1.823861708483363
 21
-2.49331400102098
 31
0.0
  0
LINE
  5
73A
330
616
100
AcDbEntity
  8
D35160210
100
AcDbLine
 10
1.774630930847976
 20
-2.503945984377683
 30
0.0
 11
1.784630406848506
 21
-2.502624378552372
 31
0.0
  0
LINE
  5
73B
330
616
100
AcDbEntity
  8
D35160210
100
AcDbLine
 10
1.852039381272632
 20
-2.482222887592225
 30
0.0
 11
1.86111314714445
 21
-2.477773252508061
 31
0.0
  0
LINE
  5
73C
330
616
100
AcDbEntity
  8
D35160210
100
AcDbLine
 10
1.823861708483363
 20
-2.49331400102098
 30
0.0
 11
1.833398679452372
 21
-2.489999661361618
 31
0.0
  0
LINE
  5
73D
330
616
100
AcDbEntity
  8
D35160210
100
AcDbLine
 10
1.833398679452372
 20
-2.489999661361618
 30
0.0
 11
1.842796276078658
 21
-2.486300592738654
 31
0.0
  0
LINE
  5
73E
330
616
100
AcDbEntity
  8
D35160210
100
AcDbLine
 10
1.842796276078658
 20
-2.486300592738654
 30
0.0
 11
1.852039381272632
 21
-2.482222887592225
 31
0.0
  0
LINE
  5
73F
330
616
100
AcDbEntity
  8
D35160210
100
AcDbLine
 10
1.86111314714445
 20
-2.477773252508061
 30
0.0
 11
1.870003019555369
 21
-2.472958994715806
 31
0.0
  0
LINE
  5
740
330
616
100
AcDbEntity
  8
D35160210
100
AcDbLine
 10
1.870003019555369
 20
-2.472958994715806
 30
0.0
 11
1.87869476184413
 21
-2.467788007564227
 31
0.0
  0
LINE
  5
741
330
616
100
AcDbEntity
  8
D35160210
100
AcDbLine
 10
1.87869476184413
 20
-2.467788007564227
 30
0.0
 11
1.887174477689328
 21
-2.462268755042142
 31
0.0
  0
LINE
  5
742
330
616
100
AcDbEntity
  8
D35160210
100
AcDbLine
 10
1.903444077330689
 20
-2.450222064043121
 30
0.0
 11
1.911208063238873
 21
-2.443714255460076
 31
0.0
  0
LINE
  5
743
330
616
100
AcDbEntity
  8
D35160210
100
AcDbLine
 10
1.895428633074445
 20
-2.456410255414521
 30
0.0
 11
1.903444077330689
 21
-2.450222064043121
 31
0.0
  0
LINE
  5
744
330
616
100
AcDbEntity
  8
D35160210
100
AcDbLine
 10
1.887174477689328
 20
-2.462268755042142
 30
0.0
 11
1.895428633074445
 21
-2.456410255414521
 31
0.0
  0
LINE
  5
745
330
616
100
AcDbEntity
  8
D35160210
100
AcDbLine
 10
1.911208063238873
 20
-2.443714255460076
 30
0.0
 11
1.918708266177631
 21
-2.436897404761094
 31
0.0
  0
LINE
  5
746
330
616
100
AcDbEntity
  8
D35160210
100
AcDbLine
 10
1.925932802312146
 20
-2.429782568382602
 30
0.0
 11
1.932870245821405
 21
-2.422381264324318
 31
0.0
  0
LINE
  5
747
330
616
100
AcDbEntity
  8
D35160210
100
AcDbLine
 10
1.932870245821405
 20
-2.422381264324318
 30
0.0
 11
1.939509645167262
 21
-2.414705451875452
 31
0.0
  0
LINE
  5
748
330
616
100
AcDbEntity
  8
D35160210
100
AcDbLine
 10
1.918708266177631
 20
-2.436897404761094
 30
0.0
 11
1.925932802312146
 21
-2.429782568382602
 31
0.0
  0
LINE
  5
749
330
616
100
AcDbEntity
  8
D35160210
100
AcDbLine
 10
1.945840538413122
 20
-2.406767510899097
 30
0.0
 11
1.951852967601823
 21
-2.398580220725595
 31
0.0
  0
LINE
  5
74A
330
616
100
AcDbEntity
  8
D35160210
100
AcDbLine
 10
1.939509645167262
 20
-2.414705451875452
 30
0.0
 11
1.945840538413122
 21
-2.406767510899097
 31
0.0
  0
LINE
  5
74B
330
616
100
AcDbEntity
  8
D35160210
100
AcDbLine
 10
1.951852967601823
 20
-2.398580220725595
 30
0.0
 11
1.957537492206384
 21
-2.390156738701765
 31
0.0
  0
LINE
  5
74C
330
616
100
AcDbEntity
  8
D35160210
100
AcDbLine
 10
1.957537492206384
 20
-2.390156738701765
 30
0.0
 11
1.962885201668839
 21
-2.381510578438774
 31
0.0
  0
LINE
  5
74D
330
616
100
AcDbEntity
  8
D35160210
100
AcDbLine
 10
1.962885201668839
 20
-2.381510578438774
 30
0.0
 11
1.967887727043361
 21
-2.372655587797655
 31
0.0
  0
LINE
  5
74E
330
616
100
AcDbEntity
  8
D35160210
100
AcDbLine
 10
1.967887727043361
 20
-2.372655587797655
 30
0.0
 11
1.972537251761892
 21
-2.363605926647647
 31
0.0
  0
LINE
  5
74F
330
616
100
AcDbEntity
  8
D35160210
100
AcDbLine
 10
1.972537251761892
 20
-2.363605926647647
 30
0.0
 11
1.976826521539763
 21
-2.3543760444287
 31
0.0
  0
LINE
  5
750
330
616
100
AcDbEntity
  8
D35160210
100
AcDbLine
 10
1.976826521539763
 20
-2.3543760444287
 30
0.0
 11
1.980748853440033
 21
-2.344980657546361
 31
0.0
  0
LINE
  5
751
330
616
100
AcDbEntity
  8
D35160210
100
AcDbLine
 10
1.984298144113935
 20
-2.335434726623734
 30
0.0
 11
1.987468877234718
 21
-2.325753433632439
 31
0.0
  0
LINE
  5
752
330
616
100
AcDbEntity
  8
D35160210
100
AcDbLine
 10
1.980748853440033
 20
-2.344980657546361
 30
0.0
 11
1.984298144113935
 21
-2.335434726623734
 31
0.0
  0
LINE
  5
753
330
616
100
AcDbEntity
  8
D35160210
100
AcDbLine
 10
1.987468877234718
 20
-2.325753433632439
 30
0.0
 11
1.990256130141389
 21
-2.315952158921792
 31
0.0
  0
LINE
  5
754
330
616
100
AcDbEntity
  8
D35160210
100
AcDbLine
 10
1.990256130141389
 20
-2.315952158921792
 30
0.0
 11
1.992655579706948
 21
-2.306046458163034
 31
0.0
  0
LINE
  5
755
330
616
100
AcDbEntity
  8
D35160210
100
AcDbLine
 10
1.992655579706948
 20
-2.306046458163034
 30
0.0
 11
1.994663507445565
 21
-2.296052039223308
 31
0.0
  0
LINE
  5
756
330
616
100
AcDbEntity
  8
D35160210
100
AcDbLine
 10
1.994663507445565
 20
-2.296052039223308
 30
0.0
 11
1.996276803870372
 21
-2.285984738982246
 31
0.0
  0
LINE
  5
757
330
616
100
AcDbEntity
  8
D35160210
100
AcDbLine
 10
1.997492972112937
 20
-2.275860500102577
 30
0.0
 11
1.998310130813607
 21
-2.265695347764737
 31
0.0
  0
ARC
  5
758
330
616
100
AcDbEntity
  8
D35160210
100
AcDbCircle
 10
0.8685823221600941
 20
-0.1231721167262485
 30
0.0
 40
0.0950604394226177
100
AcDbArc
 50
305.000000000001
 51
344.9999999999996
1001
REVIT
1002
{
1070
     1
1000
22915
1002
}
1002
{
1070
     2
1000
-2001350
1002
}
  0
LINE
  5
759
330
616
100
AcDbEntity
  8
D35160210
100
AcDbLine
 10
1.998310130813607
 20
-2.265695347764737
 30
0.0
 11
1.998727016289691
 21
-2.255505366374503
 31
0.0
  0
SPLINE
  5
75A
330
616
100
AcDbEntity
  8
D35160210
100
AcDbSpline
210
0.0
220
0.0
230
1.0
 70
     8
 71
     3
 72
     8
 73
     4
 74
     0
 42
0.000000001
 43
0.0000000001
 40
-0.4541660112309886
 40
-0.4541660112309886
 40
-0.4541660112309886
 40
-0.4541660112309886
 40
-0.0423336013627609
 40
-0.0423336013627609
 40
-0.0423336013627609
 40
-0.0423336013627609
 10
0.3065847364759548
 20
-1.664777436624579
 30
0.0
 10
0.3155351740015959
 20
-1.571729547948212
 30
0.0
 10
0.3259737858579257
 20
-1.478822059444521
 30
0.0
 10
0.3372569617981043
 20
-1.386007764820892
 30
0.0
  0
LINE
  5
75B
330
616
100
AcDbEntity
  8
D35160210
100
AcDbLine
 10
1.998727016289691
 20
-2.255505366374503
 30
0.0
 11
1.998785448843776
 21
-2.250000000000024
 31
0.0
  0
LINE
  5
75C
330
616
100
AcDbEntity
  8
D35160210
100
AcDbLine
 10
0.9231067502420984
 20
-0.2010410700102945
 30
0.0
 11
0.8681776806436829
 21
-0.2395028186099388
 31
0.0
1001
REVIT
1002
{
1070
     1
1000
22915
1002
}
1002
{
1070
     2
1000
-2001350
1002
}
  0
SPLINE
  5
75D
330
616
100
AcDbEntity
  8
D35160210
100
AcDbSpline
210
0.0
220
0.0
230
1.0
 70
     8
 71
     3
 72
     8
 73
     4
 74
     0
 42
0.000000001
 43
0.0000000001
 40
-0.4539609055759815
 40
-0.4539609055759815
 40
-0.4539609055759815
 40
-0.4539609055759815
 40
-0.0423650184679735
 40
-0.0423650184679735
 40
-0.0423650184679735
 40
-0.0423650184679735
 10
-0.3065941515366006
 20
-1.664637361303054
 30
0.0
 10
-0.3155407080870844
 20
-1.571643343204112
 30
0.0
 10
-0.3259739954229275
 20
-1.47878960719704
 30
0.0
 10
-0.3372504760899204
 20
-1.386028912396835
 30
0.0
  0
LINE
  5
75E
330
616
100
AcDbEntity
  8
D35160210
100
AcDbLine
 10
0.8283533066642547
 20
-0.2963779189284388
 30
0.0
 11
0.8113632505448009
 21
-0.3597856715896661
 31
0.0
1001
REVIT
1002
{
1070
     1
1000
22915
1002
}
1002
{
1070
     2
1000
-2001350
1002
}
  0
ARC
  5
75F
330
616
100
AcDbEntity
  8
D35160210
100
AcDbCircle
 10
-0.0000000000000142
 20
-2.25000000000006
 30
0.0
 40
0.3749999999999798
100
AcDbArc
 50
30.41773479634929
 51
41.69607978344511
1001
REVIT
1002
{
1070
     1
1000
22915
1002
}
1002
{
1070
     2
1000
-2001350
1002
}
  0
ARC
  5
760
330
616
100
AcDbEntity
  8
D35160210
100
AcDbCircle
 10
0.9263970205811205
 20
-0.3226486528954062
 30
0.0
 40
0.1015023216570695
100
AcDbArc
 50
124.9999999999991
 51
165.0
1001
REVIT
1002
{
1070
     1
1000
22915
1002
}
1002
{
1070
     2
1000
-2001350
1002
}
  0
LINE
  5
761
330
616
100
AcDbEntity
  8
D35160210
100
AcDbLine
 10
0.3233838731109557
 20
-2.060137232160389
 30
0.0
 11
1.590916738747111
 21
-2.060137232160382
 31
0.0
1001
REVIT
1002
{
1070
     1
1000
22915
1002
}
1002
{
1070
     2
1000
-2001350
1002
}
  0
ARC
  5
762
330
616
100
AcDbEntity
  8
D35160210
100
AcDbCircle
 10
1.751399037171736
 20
-2.250000000000017
 30
0.0
 40
0.2486009628287408
100
AcDbArc
 50
229.7936944721656
 51
130.206305527836
1001
REVIT
1002
{
1070
     1
1000
22915
1002
}
1002
{
1070
     2
1000
-2001350
1002
}
  0
ARC
  5
763
330
616
100
AcDbEntity
  8
D35160210
100
AcDbCircle
 10
3.066916884642623
 20
-1.934674214517603
 30
0.0
 40
2.787689145300323
100
AcDbArc
 50
145.6015902051735
 51
181.3542404609201
1001
REVIT
1002
{
1070
     1
1000
22915
1002
}
1002
{
1070
     2
1000
-2001350
1002
}
  0
ARC
  5
764
330
616
100
AcDbEntity
  8
D35160210
100
AcDbCircle
 10
-0.0000000000000142
 20
-2.250000000000053
 30
0.0
 40
0.3749999999999658
100
AcDbArc
 50
210.4177347963403
 51
329.5822652036601
1001
REVIT
1002
{
1070
     1
1000
22915
1002
}
1002
{
1070
     2
1000
-2001350
1002
}
  0
LINE
  5
765
330
616
100
AcDbEntity
  8
D35160210
100
AcDbLine
 10
1.590916738747139
 20
-2.439862767839652
 30
0.0
 11
0.3233838731109841
 21
-2.43986276783966
 31
0.0
1001
REVIT
1002
{
1070
     1
1000
22915
1002
}
1002
{
1070
     2
1000
-2001350
1002
}
  0
LINE
  5
766
330
616
100
AcDbEntity
  8
D35160210
100
AcDbLine
 10
-1.590916738747054
 20
-2.060137232160418
 30
0.0
 11
-0.3233838731109557
 21
-2.060137232160396
 31
0.0
1001
REVIT
1002
{
1070
     1
1000
22915
1002
}
1002
{
1070
     2
1000
-2001350
1002
}
  0
LINE
  5
767
330
616
100
AcDbEntity
  8
D35160210
100
AcDbLine
 10
-0.3233838731109841
 20
-2.439862767839667
 30
0.0
 11
-1.590916738747139
 21
-2.439862767839688
 31
0.0
1001
REVIT
1002
{
1070
     1
1000
22915
1002
}
1002
{
1070
     2
1000
-2001350
1002
}
  0
ARC
  5
768
330
616
100
AcDbEntity
  8
D35160210
100
AcDbCircle
 10
-3.066916884642594
 20
-1.934674214517603
 30
0.0
 40
2.787689145300318
100
AcDbArc
 50
358.6457595390799
 51
34.39840979482602
1001
REVIT
1002
{
1070
     1
1000
22915
1002
}
1002
{
1070
     2
1000
-2001350
1002
}
  0
LINE
  5
769
330
616
100
AcDbEntity
  8
D35160210
100
AcDbLine
 10
-0.8113632505448009
 20
-0.3597856715896803
 30
0.0
 11
-0.8283533066642547
 21
-0.296377918928453
 31
0.0
1001
REVIT
1002
{
1070
     1
1000
22915
1002
}
1002
{
1070
     2
1000
-2001350
1002
}
  0
ARC
  5
76A
330
616
100
AcDbEntity
  8
D35160210
100
AcDbCircle
 10
-0.0000000000000142
 20
-2.250000000000053
 30
0.0
 40
0.3749999999999673
100
AcDbArc
 50
138.3039202165454
 51
149.5822652036526
1001
REVIT
1002
{
1070
     1
1000
22915
1002
}
1002
{
1070
     2
1000
-2001350
1002
}
  0
LINE
  5
76B
330
616
100
AcDbEntity
  8
D35160210
100
AcDbLine
 10
0.8113632505448009
 20
-0.3597856715896661
 30
0.0
 11
-0.8113632505448009
 21
-0.3597856715896803
 31
0.0
1001
REVIT
1002
{
1070
     1
1000
22915
1002
}
1002
{
1070
     2
1000
-2001350
1002
}
  0
LINE
  5
76C
330
616
100
AcDbEntity
  8
D35160210
100
AcDbLine
 10
-0.8681776806436829
 20
-0.2395028186099601
 30
0.0
 11
-0.9231067502420984
 21
-0.2010410700103158
 31
0.0
1001
REVIT
1002
{
1070
     1
1000
22915
1002
}
1002
{
1070
     2
1000
-2001350
1002
}
  0
ARC
  5
76D
330
616
100
AcDbEntity
  8
D35160210
100
AcDbCircle
 10
-0.9263970205811205
 20
-0.3226486528954062
 30
0.0
 40
0.1015023216570679
100
AcDbArc
 50
14.99999999999911
 51
55.00000000000087
1001
REVIT
1002
{
1070
     1
1000
22915
1002
}
1002
{
1070
     2
1000
-2001350
1002
}
  0
LINE
  5
76E
330
616
100
AcDbEntity
  8
D35160210
100
AcDbLine
 10
-1.000000000000497
 20
-0.0000000000000036
 30
0.0
 11
1.000000000000497
 21
0.0000000000000036
 31
0.0
1001
REVIT
1002
{
1070
     1
1000
22915
1002
}
1002
{
1070
     2
1000
-2001350
1002
}
  0
ARC
  5
76F
330
616
100
AcDbEntity
  8
D35160210
100
AcDbCircle
 10
-0.8685823221601225
 20
-0.1231721167262485
 30
0.0
 40
0.0950604394226166
100
AcDbArc
 50
195.0000000000014
 51
235.0000000000011
1001
REVIT
1002
{
1070
     1
1000
22915
1002
}
1002
{
1070
     2
1000
-2001350
1002
}
  0
ARC
  5
770
330
616
100
AcDbEntity
  8
D35160210
100
AcDbCircle
 10
-0.0039210534591092
 20
-2.250000000000053
 30
0.0
 40
0.3783865557452753
100
AcDbArc
 50
329.8828729938506
 51
30.11712700614751
1001
REVIT
1002
{
1070
     1
1000
24051
1002
}
1002
{
1070
     2
1000
-2001350
1002
}
  0
ARC
  5
771
330
616
100
AcDbEntity
  8
D35160210
100
AcDbCircle
 10
0.0000000000000142
 20
-2.250359262513658
 30
0.0
 40
0.3752390698625105
100
AcDbArc
 50
41.73704008934309
 51
138.2629599106562
1001
REVIT
1002
{
1070
     1
1000
24090
1002
}
1002
{
1070
     2
1000
-2001350
1002
}
  0
ARC
  5
772
330
616
100
AcDbEntity
  8
D35160210
100
AcDbCircle
 10
0.003921053459166
 20
-2.250000000000053
 30
0.0
 40
0.3783865557452752
100
AcDbArc
 50
149.8828729938527
 51
210.1171270061501
1001
REVIT
1002
{
1070
     1
1000
24128
1002
}
1002
{
1070
     2
1000
-2001350
1002
}
  0
ARC
  5
773
330
616
100
AcDbEntity
  8
D35160210
100
AcDbCircle
 10
1.760248026419944
 20
-2.250000000000017
 30
0.0
 40
0.2544031359803924
100
AcDbArc
 50
131.7285413361676
 51
228.2714586638324
1001
REVIT
1002
{
1070
     1
1000
24178
1002
}
1002
{
1070
     2
1000
-2001350
1002
}
  0
ARC
  5
774
330
616
100
AcDbEntity
  8
D35160210
100
AcDbCircle
 10
3.81586868437246
 20
-1.634071247541395
 30
0.0
 40
3.6744524602817
100
AcDbArc
 50
159.7079553291814
 51
184.2612021814389
1001
REVIT
1002
{
1070
     1
1000
24260
1002
}
1002
{
1070
     2
1000
-2001350
1002
}
  0
LINE
  5
775
330
616
100
AcDbEntity
  8
D35160210
100
AcDbLine
 10
1.505844890439547
 20
-2.250000000000017
 30
0.0
 11
0.3744655022861565
 21
-2.250000000000017
 31
0.0
1001
REVIT
1002
{
1070
     1
1000
24315
1002
}
1002
{
1070
     2
1000
-2001350
1002
}
  0
ARC
  5
776
330
616
100
AcDbEntity
  8
D35160210
100
AcDbCircle
 10
-3.815868684372432
 20
-1.634071247541474
 30
0.0
 40
3.6744524602817
100
AcDbArc
 50
355.7387978185623
 51
20.29204467081881
1001
REVIT
1002
{
1070
     1
1000
24472
1002
}
1002
{
1070
     2
1000
-2001350
1002
}
  0
LINE
  5
777
330
616
100
AcDbEntity
  8
D35160210
100
AcDbLine
 10
-0.3744655022861281
 20
-2.250000000000017
 30
0.0
 11
-1.50584489043949
 21
-2.250000000000017
 31
0.0
1001
REVIT
1002
{
1070
     1
1000
24410
1002
}
1002
{
1070
     2
1000
-2001350
1002
}
  0
ARC
  5
778
330
616
100
AcDbEntity
  8
D35160210
100
AcDbCircle
 10
-1.760248026419887
 20
-2.25000000000006
 30
0.0
 40
0.2544031359803927
100
AcDbArc
 50
311.7285413361679
 51
308.6417469176706
1001
REVIT
1002
{
1070
     1
1000
24704
1002
}
1002
{
1070
     2
1000
-2001350
1002
}
  0
ENDBLK
  5
618
330
616
100
AcDbEntity
  8
0
100
AcDbBlockEnd
  0
BLOCK
  5
77C
330
77B
100
AcDbEntity
  8
0
100
AcDbBlockBegin
  2
D35160210 Front View
 70
     0
 10
0.0
 20
0.0
 30
0.0
  3
D35160210 Front View
  1

  0
LINE
  5
77E
330
77B
100
AcDbEntity
  8
D35160210
100
AcDbLine
 10
-0.309584768064866
 20
1.386645979421686
 30
0.0
 11
-0.2790667538940923
 21
1.397170413156174
 31
0.0
1001
REVIT
1002
{
1070
     2
1000
-2001350
1002
}
  0
LINE
  5
77F
330
77B
100
AcDbEntity
  8
D35160210
100
AcDbLine
 10
-0.2790667538940923
 20
1.397170413156174
 30
0.0
 11
-0.2481522857818454
 21
1.406466033398817
 31
0.0
1001
REVIT
1002
{
1070
     2
1000
-2001350
1002
}
  0
LINE
  5
780
330
77B
100
AcDbEntity
  8
D35160210
100
AcDbLine
 10
-0.2481522857818454
 20
1.406466033398817
 30
0.0
 11
-0.216890820282348
 21
1.41451796914022
 31
0.0
1001
REVIT
1002
{
1070
     2
1000
-2001350
1002
}
  0
LINE
  5
781
330
77B
100
AcDbEntity
  8
D35160210
100
AcDbLine
 10
-0.216890820282348
 20
1.41451796914022
 30
0.0
 11
-0.1853323690716806
 21
1.421313339000825
 31
0.0
1001
REVIT
1002
{
1070
     2
1000
-2001350
1002
}
  0
LINE
  5
782
330
77B
100
AcDbEntity
  8
D35160210
100
AcDbLine
 10
-0.1853323690716806
 20
1.421313339000825
 30
0.0
 11
-0.1535274189396425
 21
1.42684127183848
 31
0.0
1001
REVIT
1002
{
1070
     2
1000
-2001350
1002
}
  0
LINE
  5
783
330
77B
100
AcDbEntity
  8
D35160210
100
AcDbLine
 10
-0.1535274189396425
 20
1.42684127183848
 30
0.0
 11
-0.121526851021752
 21
1.431092924139839
 31
0.0
1001
REVIT
1002
{
1070
     2
1000
-2001350
1002
}
  0
LINE
  5
784
330
77B
100
AcDbEntity
  8
D35160210
100
AcDbLine
 10
-0.121526851021752
 20
1.431092924139839
 30
0.0
 11
-0.0893818594002731
 21
1.434061494168225
 31
0.0
1001
REVIT
1002
{
1070
     2
1000
-2001350
1002
}
  0
LINE
  5
785
330
77B
100
AcDbEntity
  8
D35160210
100
AcDbLine
 10
-0.0893818594002731
 20
1.434061494168225
 30
0.0
 11
-0.0571438692045341
 21
1.435742232844834
 31
0.0
1001
REVIT
1002
{
1070
     2
1000
-2001350
1002
}
  0
LINE
  5
786
330
77B
100
AcDbEntity
  8
D35160210
100
AcDbLine
 10
-0.0571438692045341
 20
1.435742232844834
 30
0.0
 11
-0.0312499999987459
 21
1.436157712110418
 31
0.0
1001
REVIT
1002
{
1070
     2
1000
-2001350
1002
}
  0
LINE
  5
787
330
77B
100
AcDbEntity
  8
D35160210
100
AcDbLine
 10
0.0000000000002451
 20
1.436157712110418
 30
0.0
 11
-0.0144305992344087
 21
1.436157712110418
 31
0.0
1001
REVIT
1002
{
1070
     2
1000
-2001350
1002
}
  0
LINE
  5
788
330
77B
100
AcDbEntity
  8
D35160210
100
AcDbLine
 10
-0.0144305992344087
 20
1.436157712110418
 30
0.0
 11
-0.0155275043063554
 21
1.436157712110418
 31
0.0
1001
REVIT
1002
{
1070
     2
1000
-2001350
1002
}
  0
LINE
  5
789
330
77B
100
AcDbEntity
  8
D35160210
100
AcDbLine
 10
-0.0155275043063554
 20
1.436157712110418
 30
0.0
 11
-0.0312481787559307
 21
1.436157712110418
 31
0.0
1001
REVIT
1002
{
1070
     2
1000
-2001350
1002
}
  0
LINE
  5
78A
330
77B
100
AcDbEntity
  8
D35160210
100
AcDbLine
 10
-0.0312499999987459
 20
1.436157712110418
 30
0.0
 11
0.0000000000002451
 21
1.436157712110418
 31
0.0
1001
REVIT
1002
{
1070
     2
1000
-2001350
1002
}
  0
LINE
  5
78B
330
77B
100
AcDbEntity
  8
D35160210
100
AcDbLine
 10
0.0312500000012612
 20
1.436157712110418
 30
0.0
 11
0.0635253172696864
 21
1.435512119683764
 31
0.0
1001
REVIT
1002
{
1070
     2
1000
-2001350
1002
}
  0
LINE
  5
78C
330
77B
100
AcDbEntity
  8
D35160210
100
AcDbLine
 10
0.0635253172696864
 20
1.435512119683764
 30
0.0
 11
0.095749000915518
 21
1.43357637521397
 31
0.0
1001
REVIT
1002
{
1070
     2
1000
-2001350
1002
}
  0
LINE
  5
78D
330
77B
100
AcDbEntity
  8
D35160210
100
AcDbLine
 10
0.095749000915518
 20
1.43357637521397
 30
0.0
 11
0.1278694999189404
 21
1.430353575479241
 31
0.0
1001
REVIT
1002
{
1070
     2
1000
-2001350
1002
}
  0
LINE
  5
78E
330
77B
100
AcDbEntity
  8
D35160210
100
AcDbLine
 10
0.1278694999189404
 20
1.430353575479241
 30
0.0
 11
0.1598354283335545
 21
1.425848876271657
 31
0.0
1001
REVIT
1002
{
1070
     2
1000
-2001350
1002
}
  0
LINE
  5
78F
330
77B
100
AcDbEntity
  8
D35160210
100
AcDbLine
 10
0.1598354283335545
 20
1.425848876271657
 30
0.0
 11
0.1915956474929281
 21
1.420069484149013
 31
0.0
1001
REVIT
1002
{
1070
     2
1000
-2001350
1002
}
  0
LINE
  5
790
330
77B
100
AcDbEntity
  8
D35160210
100
AcDbLine
 10
0.2851360861896203
 20
1.395185712433164
 30
0.0
 11
0.3095847680673813
 21
1.386645979421686
 31
0.0
1001
REVIT
1002
{
1070
     2
1000
-2001350
1002
}
  0
LINE
  5
791
330
77B
100
AcDbEntity
  8
D35160210
100
AcDbLine
 10
0.0312500000012612
 20
1.436157712110418
 30
0.0
 11
0.0158193830397835
 21
1.436157712110418
 31
0.0
1001
REVIT
1002
{
1070
     2
1000
-2001350
1002
}
  0
LINE
  5
792
330
77B
100
AcDbEntity
  8
D35160210
100
AcDbLine
 10
0.0147290113816894
 20
1.436157712110418
 30
0.0
 11
0.0000000000012577
 21
1.436157712110418
 31
0.0
1001
REVIT
1002
{
1070
     2
1000
-2001350
1002
}
  0
LINE
  5
793
330
77B
100
AcDbEntity
  8
D35160210
100
AcDbLine
 10
0.0000000000012577
 20
1.436157712110418
 30
0.0
 11
0.031248178758446
 21
1.436157712110418
 31
0.0
1001
REVIT
1002
{
1070
     2
1000
-2001350
1002
}
  0
LINE
  5
794
330
77B
100
AcDbEntity
  8
D35160210
100
AcDbLine
 10
0.0158193830397835
 20
1.436157712110418
 30
0.0
 11
0.0147290113816894
 21
1.436157712110418
 31
0.0
1001
REVIT
1002
{
1070
     2
1000
-2001350
1002
}
  0
LINE
  5
795
330
77B
100
AcDbEntity
  8
D35160210
100
AcDbLine
 10
-0.3656162766540909
 20
1.253394435930452
 30
0.0
 11
-0.3671645438062718
 21
1.257029927811931
 31
0.0
1001
REVIT
1002
{
1070
     2
1000
-2001350
1002
}
  0
LINE
  5
796
330
77B
100
AcDbEntity
  8
D35160210
100
AcDbLine
 10
0.1915956474929281
 20
1.420069484149013
 30
0.0
 11
0.2230993478215701
 21
1.413024644905828
 31
0.0
1001
REVIT
1002
{
1070
     2
1000
-2001350
1002
}
  0
LINE
  5
797
330
77B
100
AcDbEntity
  8
D35160210
100
AcDbLine
 10
-0.3671645438062718
 20
1.257029927811931
 30
0.0
 11
-0.3685661916100784
 21
1.260724425860231
 31
0.0
1001
REVIT
1002
{
1070
     2
1000
-2001350
1002
}
  0
LINE
  5
798
330
77B
100
AcDbEntity
  8
D35160210
100
AcDbLine
 10
0.2230993478215701
 20
1.413024644905828
 30
0.0
 11
0.2542961301193713
 21
1.404725628782063
 31
0.0
1001
REVIT
1002
{
1070
     2
1000
-2001350
1002
}
  0
LINE
  5
799
330
77B
100
AcDbEntity
  8
D35160210
100
AcDbLine
 10
0.2542961301193713
 20
1.404725628782063
 30
0.0
 11
0.2851360861896203
 21
1.395185712433164
 31
0.0
1001
REVIT
1002
{
1070
     2
1000
-2001350
1002
}
  0
LINE
  5
79A
330
77B
100
AcDbEntity
  8
D35160210
100
AcDbLine
 10
-0.3742827342440158
 20
1.291679985850592
 30
0.0
 11
-0.3742930555042143
 21
1.295631419244489
 31
0.0
1001
REVIT
1002
{
1070
     2
1000
-2001350
1002
}
  0
LINE
  5
79B
330
77B
100
AcDbEntity
  8
D35160210
100
AcDbLine
 10
-0.3733050583592323
 20
1.279872373576605
 30
0.0
 11
-0.3737883402090247
 21
1.283794155193234
 31
0.0
1001
REVIT
1002
{
1070
     2
1000
-2001350
1002
}
  0
LINE
  5
79C
330
77B
100
AcDbEntity
  8
D35160210
100
AcDbLine
 10
-0.3698189777280482
 20
1.264472019666594
 30
0.0
 11
-0.3709208979696185
 21
1.268266713880372
 31
0.0
1001
REVIT
1002
{
1070
     2
1000
-2001350
1002
}
  0
LINE
  5
79D
330
77B
100
AcDbEntity
  8
D35160210
100
AcDbLine
 10
-0.3738398639773699
 20
1.303519725023192
 30
0.0
 11
-0.3733770762000858
 21
1.307443977801497
 31
0.0
1001
REVIT
1002
{
1070
     2
1000
-2001350
1002
}
  0
LINE
  5
79E
330
77B
100
AcDbEntity
  8
D35160210
100
AcDbLine
 10
-0.3741453533179992
 20
1.299580104653454
 30
0.0
 11
-0.3738398639773699
 21
1.303519725023192
 31
0.0
1001
REVIT
1002
{
1070
     2
1000
-2001350
1002
}
  0
LINE
  5
79F
330
77B
100
AcDbEntity
  8
D35160210
100
AcDbLine
 10
-0.3742930555042143
 20
1.295631419244489
 30
0.0
 11
-0.3741453533179992
 21
1.299580104653454
 31
0.0
1001
REVIT
1002
{
1070
     2
1000
-2001350
1002
}
  0
LINE
  5
7A0
330
77B
100
AcDbEntity
  8
D35160210
100
AcDbLine
 10
-0.3741144060492196
 20
1.28773212592226
 30
0.0
 11
-0.3742827342440158
 21
1.291679985850592
 31
0.0
1001
REVIT
1002
{
1070
     2
1000
-2001350
1002
}
  0
LINE
  5
7A1
330
77B
100
AcDbEntity
  8
D35160210
100
AcDbLine
 10
-0.3737883402090247
 20
1.283794155193234
 30
0.0
 11
-0.3741144060492196
 21
1.28773212592226
 31
0.0
1001
REVIT
1002
{
1070
     2
1000
-2001350
1002
}
  0
LINE
  5
7A2
330
77B
100
AcDbEntity
  8
D35160210
100
AcDbLine
 10
-0.3726653336476921
 20
1.275973055086374
 30
0.0
 11
-0.3733050583592323
 21
1.279872373576605
 31
0.0
1001
REVIT
1002
{
1070
     2
1000
-2001350
1002
}
  0
LINE
  5
7A3
330
77B
100
AcDbEntity
  8
D35160210
100
AcDbLine
 10
-0.3709208979696185
 20
1.268266713880372
 30
0.0
 11
-0.3718701894974785
 21
1.272102437800309
 31
0.0
1001
REVIT
1002
{
1070
     2
1000
-2001350
1002
}
  0
LINE
  5
7A4
330
77B
100
AcDbEntity
  8
D35160210
100
AcDbLine
 10
-0.3537186908577218
 20
1.354281141259864
 30
0.0
 11
-0.3512420826351245
 21
1.35736015800333
 31
0.0
1001
REVIT
1002
{
1070
     2
1000
-2001350
1002
}
  0
LINE
  5
7A5
330
77B
100
AcDbEntity
  8
D35160210
100
AcDbLine
 10
-0.3560701902283902
 20
1.351105549487517
 30
0.0
 11
-0.3537186908577218
 21
1.354281141259864
 31
0.0
1001
REVIT
1002
{
1070
     2
1000
-2001350
1002
}
  0
LINE
  5
7A6
330
77B
100
AcDbEntity
  8
D35160210
100
AcDbLine
 10
-0.3685661916100784
 20
1.260724425860231
 30
0.0
 11
-0.3698189777280482
 21
1.264472019666594
 31
0.0
1001
REVIT
1002
{
1070
     2
1000
-2001350
1002
}
  0
LINE
  5
7A7
330
77B
100
AcDbEntity
  8
D35160210
100
AcDbLine
 10
-0.3658267207701761
 20
1.333961720521894
 30
0.0
 11
-0.3641529875214644
 21
1.337541182689171
 31
0.0
1001
REVIT
1002
{
1070
     2
1000
-2001350
1002
}
  0
LINE
  5
7A8
330
77B
100
AcDbEntity
  8
D35160210
100
AcDbLine
 10
-0.3699714949430124
 20
1.322862332934974
 30
0.0
 11
-0.3687383034365225
 21
1.326616420187981
 31
0.0
1001
REVIT
1002
{
1070
     2
1000
-2001350
1002
}
  0
LINE
  5
7A9
330
77B
100
AcDbEntity
  8
D35160210
100
AcDbLine
 10
-0.3710535765780917
 20
1.319061934044092
 30
0.0
 11
-0.3699714949430124
 21
1.322862332934974
 31
0.0
1001
REVIT
1002
{
1070
     2
1000
-2001350
1002
}
  0
LINE
  5
7AA
330
77B
100
AcDbEntity
  8
D35160210
100
AcDbLine
 10
-0.3719828172419958
 20
1.315221303342837
 30
0.0
 11
-0.3710535765780917
 21
1.319061934044092
 31
0.0
1001
REVIT
1002
{
1070
     2
1000
-2001350
1002
}
  0
LINE
  5
7AB
330
77B
100
AcDbEntity
  8
D35160210
100
AcDbLine
 10
-0.3718701894974785
 20
1.272102437800309
 30
0.0
 11
-0.3726653336476921
 21
1.275973055086374
 31
0.0
1001
REVIT
1002
{
1070
     2
1000
-2001350
1002
}
  0
LINE
  5
7AC
330
77B
100
AcDbEntity
  8
D35160210
100
AcDbLine
 10
-0.3673559749019936
 20
1.330318190064328
 30
0.0
 11
-0.3658267207701761
 21
1.333961720521894
 31
0.0
1001
REVIT
1002
{
1070
     2
1000
-2001350
1002
}
  0
LINE
  5
7AD
330
77B
100
AcDbEntity
  8
D35160210
100
AcDbLine
 10
-0.358292818849744
 20
1.347838462955699
 30
0.0
 11
-0.3560701902283902
 21
1.351105549487517
 31
0.0
1001
REVIT
1002
{
1070
     2
1000
-2001350
1002
}
  0
LINE
  5
7AE
330
77B
100
AcDbEntity
  8
D35160210
100
AcDbLine
 10
-0.3603830209901275
 20
1.344485108305921
 30
0.0
 11
-0.358292818849744
 21
1.347838462955699
 31
0.0
1001
REVIT
1002
{
1070
     2
1000
-2001350
1002
}
  0
LINE
  5
7AF
330
77B
100
AcDbEntity
  8
D35160210
100
AcDbLine
 10
-0.3641529875214644
 20
1.337541182689171
 30
0.0
 11
-0.3623374527720137
 21
1.341050850190285
 31
0.0
1001
REVIT
1002
{
1070
     2
1000
-2001350
1002
}
  0
LINE
  5
7B0
330
77B
100
AcDbEntity
  8
D35160210
100
AcDbLine
 10
-0.3339902079440584
 20
1.373542125347593
 30
0.0
 11
-0.330759146474076
 21
1.375816806461962
 31
0.0
1001
REVIT
1002
{
1070
     2
1000
-2001350
1002
}
  0
LINE
  5
7B1
330
77B
100
AcDbEntity
  8
D35160210
100
AcDbLine
 10
-0.3623374527720137
 20
1.341050850190285
 30
0.0
 11
-0.3603830209901275
 21
1.344485108305921
 31
0.0
1001
REVIT
1002
{
1070
     2
1000
-2001350
1002
}
  0
LINE
  5
7B2
330
77B
100
AcDbEntity
  8
D35160210
100
AcDbLine
 10
-0.3687383034365225
 20
1.326616420187981
 30
0.0
 11
-0.3673559749019936
 21
1.330318190064328
 31
0.0
1001
REVIT
1002
{
1070
     2
1000
-2001350
1002
}
  0
LINE
  5
7B3
330
77B
100
AcDbEntity
  8
D35160210
100
AcDbLine
 10
-0.3274397065253928
 20
1.377960460077154
 30
0.0
 11
-0.3240371984938121
 21
1.379969656804675
 31
0.0
1001
REVIT
1002
{
1070
     2
1000
-2001350
1002
}
  0
LINE
  5
7B4
330
77B
100
AcDbEntity
  8
D35160210
100
AcDbLine
 10
-0.34592958162251
 20
1.363208925703385
 30
0.0
 11
-0.3431021877008433
 21
1.365969319879322
 31
0.0
1001
REVIT
1002
{
1070
     2
1000
-2001350
1002
}
  0
LINE
  5
7B5
330
77B
100
AcDbEntity
  8
D35160210
100
AcDbLine
 10
-0.3431021877008433
 20
1.365969319879322
 30
0.0
 11
-0.3401666690675497
 21
1.368614440433944
 31
0.0
1001
REVIT
1002
{
1070
     2
1000
-2001350
1002
}
  0
LINE
  5
7B6
330
77B
100
AcDbEntity
  8
D35160210
100
AcDbLine
 10
-0.3733770762000858
 20
1.307443977801497
 30
0.0
 11
-0.3727577303478817
 21
1.311346585021059
 31
0.0
1001
REVIT
1002
{
1070
     2
1000
-2001350
1002
}
  0
LINE
  5
7B7
330
77B
100
AcDbEntity
  8
D35160210
100
AcDbLine
 10
-0.3727577303478817
 20
1.311346585021059
 30
0.0
 11
-0.3719828172419958
 21
1.315221303342837
 31
0.0
1001
REVIT
1002
{
1070
     2
1000
-2001350
1002
}
  0
LINE
  5
7B8
330
77B
100
AcDbEntity
  8
D35160210
100
AcDbLine
 10
-0.3512420826351245
 20
1.35736015800333
 30
0.0
 11
-0.3486443276054238
 21
1.360337673947959
 31
0.0
1001
REVIT
1002
{
1070
     2
1000
-2001350
1002
}
  0
LINE
  5
7B9
330
77B
100
AcDbEntity
  8
D35160210
100
AcDbLine
 10
0.3095847680673813
 20
1.386645979421686
 30
0.0
 11
0.3132658181980545
 21
1.385209385418409
 31
0.0
1001
REVIT
1002
{
1070
     2
1000
-2001350
1002
}
  0
LINE
  5
7BA
330
77B
100
AcDbEntity
  8
D35160210
100
AcDbLine
 10
-0.3240371984938121
 20
1.379969656804675
 30
0.0
 11
-0.3205570656663603
 21
1.381841182358374
 31
0.0
1001
REVIT
1002
{
1070
     2
1000
-2001350
1002
}
  0
LINE
  5
7BB
330
77B
100
AcDbEntity
  8
D35160210
100
AcDbLine
 10
0.3132658181980545
 20
1.385209385418409
 30
0.0
 11
0.3168864754435709
 21
1.383626737793264
 31
0.0
1001
REVIT
1002
{
1070
     2
1000
-2001350
1002
}
  0
LINE
  5
7BC
330
77B
100
AcDbEntity
  8
D35160210
100
AcDbLine
 10
-0.3205570656663603
 20
1.381841182358374
 30
0.0
 11
-0.3170048755131809
 21
1.383572042696598
 31
0.0
1001
REVIT
1002
{
1070
     2
1000
-2001350
1002
}
  0
LINE
  5
7BD
330
77B
100
AcDbEntity
  8
D35160210
100
AcDbLine
 10
-0.3133863107807393
 20
1.38515946881203
 30
0.0
 11
-0.3097071604006949
 21
1.386600921161534
 31
0.0
1001
REVIT
1002
{
1070
     2
1000
-2001350
1002
}
  0
LINE
  5
7BE
330
77B
100
AcDbEntity
  8
D35160210
100
AcDbLine
 10
-0.3401666690675497
 20
1.368614440433944
 30
0.0
 11
-0.3371277219262367
 21
1.371140055738603
 31
0.0
1001
REVIT
1002
{
1070
     2
1000
-2001350
1002
}
  0
LINE
  5
7BF
330
77B
100
AcDbEntity
  8
D35160210
100
AcDbLine
 10
-0.3486443276054238
 20
1.360337673947959
 30
0.0
 11
-0.34592958162251
 21
1.363208925703385
 31
0.0
1001
REVIT
1002
{
1070
     2
1000
-2001350
1002
}
  0
LINE
  5
7C0
330
77B
100
AcDbEntity
  8
D35160210
100
AcDbLine
 10
0.3370257166105972
 20
1.371221327171141
 30
0.0
 11
0.3400679953357617
 21
1.368699725982764
 31
0.0
1001
REVIT
1002
{
1070
     2
1000
-2001350
1002
}
  0
LINE
  5
7C1
330
77B
100
AcDbEntity
  8
D35160210
100
AcDbLine
 10
0.3168864754435709
 20
1.383626737793264
 30
0.0
 11
0.3204409475246876
 21
1.381900568444844
 31
0.0
1001
REVIT
1002
{
1070
     2
1000
-2001350
1002
}
  0
LINE
  5
7C2
330
77B
100
AcDbEntity
  8
D35160210
100
AcDbLine
 10
0.3400679953357617
 20
1.368699725982764
 30
0.0
 11
0.3430070034098342
 21
1.366058483105746
 31
0.0
1001
REVIT
1002
{
1070
     2
1000
-2001350
1002
}
  0
LINE
  5
7C3
330
77B
100
AcDbEntity
  8
D35160210
100
AcDbLine
 10
-0.3170048755131809
 20
1.383572042696598
 30
0.0
 11
-0.3133863107807393
 21
1.38515946881203
 31
0.0
1001
REVIT
1002
{
1070
     2
1000
-2001350
1002
}
  0
LINE
  5
7C4
330
77B
100
AcDbEntity
  8
D35160210
100
AcDbLine
 10
0.3485565731936866
 20
1.360434158627874
 30
0.0
 11
0.3511582567756761
 21
1.357460074746402
 31
0.0
1001
REVIT
1002
{
1070
     2
1000
-2001350
1002
}
  0
LINE
  5
7C5
330
77B
100
AcDbEntity
  8
D35160210
100
AcDbLine
 10
-0.3097071604006949
 20
1.386600921161534
 30
0.0
 11
-0.309584768064866
 21
1.386645979421686
 31
0.0
1001
REVIT
1002
{
1070
     2
1000
-2001350
1002
}
  0
LINE
  5
7C6
330
77B
100
AcDbEntity
  8
D35160210
100
AcDbLine
 10
0.3686950491751446
 20
1.3267394616417
 30
0.0
 11
0.3699331956262383
 21
1.322987005677876
 31
0.0
1001
REVIT
1002
{
1070
     2
1000
-2001350
1002
}
  0
LINE
  5
7C7
330
77B
100
AcDbEntity
  8
D35160210
100
AcDbLine
 10
0.3204409475246876
 20
1.381900568444844
 30
0.0
 11
0.3239235480443234
 21
1.380033638875889
 31
0.0
1001
REVIT
1002
{
1070
     2
1000
-2001350
1002
}
  0
LINE
  5
7C8
330
77B
100
AcDbEntity
  8
D35160210
100
AcDbLine
 10
0.3239235480443234
 20
1.380033638875889
 30
0.0
 11
0.3273287055845699
 21
1.378028935775439
 31
0.0
1001
REVIT
1002
{
1070
     2
1000
-2001350
1002
}
  0
LINE
  5
7C9
330
77B
100
AcDbEntity
  8
D35160210
100
AcDbLine
 10
0.3273287055845699
 20
1.378028935775439
 30
0.0
 11
0.3306509726197432
 21
1.375889666240812
 31
0.0
1001
REVIT
1002
{
1070
     2
1000
-2001350
1002
}
  0
LINE
  5
7CA
330
77B
100
AcDbEntity
  8
D35160210
100
AcDbLine
 10
0.3306509726197432
 20
1.375889666240812
 30
0.0
 11
0.3338850342313222
 21
1.373619252646903
 31
0.0
1001
REVIT
1002
{
1070
     2
1000
-2001350
1002
}
  0
LINE
  5
7CB
330
77B
100
AcDbEntity
  8
D35160210
100
AcDbLine
 10
-0.330759146474076
 20
1.375816806461962
 30
0.0
 11
-0.3274397065253928
 21
1.377960460077154
 31
0.0
1001
REVIT
1002
{
1070
     2
1000
-2001350
1002
}
  0
LINE
  5
7CC
330
77B
100
AcDbEntity
  8
D35160210
100
AcDbLine
 10
-0.3371277219262367
 20
1.371140055738603
 30
0.0
 11
-0.3339902079440584
 21
1.373542125347593
 31
0.0
1001
REVIT
1002
{
1070
     2
1000
-2001350
1002
}
  0
LINE
  5
7CD
330
77B
100
AcDbEntity
  8
D35160210
100
AcDbLine
 10
0.3710202934766648
 20
1.319188038626368
 30
0.0
 11
0.3719546036017931
 21
1.315348638024069
 31
0.0
1001
REVIT
1002
{
1070
     2
1000
-2001350
1002
}
  0
LINE
  5
7CE
330
77B
100
AcDbEntity
  8
D35160210
100
AcDbLine
 10
0.3338850342313222
 20
1.373619252646903
 30
0.0
 11
0.3370257166105972
 21
1.371221327171141
 31
0.0
1001
REVIT
1002
{
1070
     2
1000
-2001350
1002
}
  0
LINE
  5
7CF
330
77B
100
AcDbEntity
  8
D35160210
100
AcDbLine
 10
0.3622751482413377
 20
1.341165428878635
 30
0.0
 11
0.3640953147532286
 21
1.337658161243588
 31
0.0
1001
REVIT
1002
{
1070
     2
1000
-2001350
1002
}
  0
LINE
  5
7D0
330
77B
100
AcDbEntity
  8
D35160210
100
AcDbLine
 10
0.3536389276540532
 20
1.354384330220589
 30
0.0
 11
0.3559946172846153
 21
1.351211845585595
 31
0.0
1001
REVIT
1002
{
1070
     2
1000
-2001350
1002
}
  0
LINE
  5
7D1
330
77B
100
AcDbEntity
  8
D35160210
100
AcDbLine
 10
0.3559946172846153
 20
1.351211845585595
 30
0.0
 11
0.3582215570664537
 21
1.347947696140042
 31
0.0
1001
REVIT
1002
{
1070
     2
1000
-2001350
1002
}
  0
LINE
  5
7D2
330
77B
100
AcDbEntity
  8
D35160210
100
AcDbLine
 10
0.3699331956262383
 20
1.322987005677876
 30
0.0
 11
0.3710202934766648
 21
1.319188038626368
 31
0.0
1001
REVIT
1002
{
1070
     2
1000
-2001350
1002
}
  0
LINE
  5
7D3
330
77B
100
AcDbEntity
  8
D35160210
100
AcDbLine
 10
0.3673078348935874
 20
1.330439403388794
 30
0.0
 11
0.3686950491751446
 21
1.3267394616417
 31
0.0
1001
REVIT
1002
{
1070
     2
1000
-2001350
1002
}
  0
LINE
  5
7D4
330
77B
100
AcDbEntity
  8
D35160210
100
AcDbLine
 10
0.3511582567756761
 20
1.357460074746402
 30
0.0
 11
0.3536389276540532
 21
1.354384330220589
 31
0.0
1001
REVIT
1002
{
1070
     2
1000
-2001350
1002
}
  0
LINE
  5
7D5
330
77B
100
AcDbEntity
  8
D35160210
100
AcDbLine
 10
0.3603161843709763
 20
1.344597103826735
 30
0.0
 11
0.3622751482413377
 21
1.341165428878635
 31
0.0
1001
REVIT
1002
{
1070
     2
1000
-2001350
1002
}
  0
LINE
  5
7D6
330
77B
100
AcDbEntity
  8
D35160210
100
AcDbLine
 10
0.3582215570664537
 20
1.347947696140042
 30
0.0
 11
0.3603161843709763
 21
1.344597103826735
 31
0.0
1001
REVIT
1002
{
1070
     2
1000
-2001350
1002
}
  0
LINE
  5
7D7
330
77B
100
AcDbEntity
  8
D35160210
100
AcDbLine
 10
0.3640953147532286
 20
1.337658161243588
 30
0.0
 11
0.3657737720285076
 21
1.334080911801642
 31
0.0
1001
REVIT
1002
{
1070
     2
1000
-2001350
1002
}
  0
LINE
  5
7D8
330
77B
100
AcDbEntity
  8
D35160210
100
AcDbLine
 10
0.3727346313047021
 20
1.31147494609291
 30
0.0
 11
0.3733591287074737
 21
1.30757315991364
 31
0.0
1001
REVIT
1002
{
1070
     2
1000
-2001350
1002
}
  0
LINE
  5
7D9
330
77B
100
AcDbEntity
  8
D35160210
100
AcDbLine
 10
0.3719546036017931
 20
1.315348638024069
 30
0.0
 11
0.3727346313047021
 21
1.31147494609291
 31
0.0
1001
REVIT
1002
{
1070
     2
1000
-2001350
1002
}
  0
LINE
  5
7DA
330
77B
100
AcDbEntity
  8
D35160210
100
AcDbLine
 10
0.3430070034098342
 20
1.366058483105746
 30
0.0
 11
0.3458380390468462
 21
1.363301823965258
 31
0.0
1001
REVIT
1002
{
1070
     2
1000
-2001350
1002
}
  0
LINE
  5
7DB
330
77B
100
AcDbEntity
  8
D35160210
100
AcDbLine
 10
0.3458380390468462
 20
1.363301823965258
 30
0.0
 11
0.3485565731936866
 21
1.360434158627874
 31
0.0
1001
REVIT
1002
{
1070
     2
1000
-2001350
1002
}
  0
LINE
  5
7DC
330
77B
100
AcDbEntity
  8
D35160210
100
AcDbLine
 10
0.3657737720285076
 20
1.334080911801642
 30
0.0
 11
0.3673078348935874
 21
1.330439403388794
 31
0.0
1001
REVIT
1002
{
1070
     2
1000
-2001350
1002
}
  0
LINE
  5
7DD
330
77B
100
AcDbEntity
  8
D35160210
100
AcDbLine
 10
0.3738270967474939
 20
1.3036495215118
 30
0.0
 11
0.3741377867757051
 21
1.299710307871847
 31
0.0
1001
REVIT
1002
{
1070
     2
1000
-2001350
1002
}
  0
LINE
  5
7DE
330
77B
100
AcDbEntity
  8
D35160210
100
AcDbLine
 10
0.3742907017543579
 20
1.295761820895279
 30
0.0
 11
0.3742855970521077
 21
1.291810377318956
 31
0.0
1001
REVIT
1002
{
1070
     2
1000
-2001350
1002
}
  0
LINE
  5
7DF
330
77B
100
AcDbEntity
  8
D35160210
100
AcDbLine
 10
0.3738016140553241
 20
1.283923900851153
 30
0.0
 11
0.3733235100303353
 21
1.280001484639672
 31
0.0
1001
REVIT
1002
{
1070
     2
1000
-2001350
1002
}
  0
LINE
  5
7E0
330
77B
100
AcDbEntity
  8
D35160210
100
AcDbLine
 10
0.3733591287074737
 20
1.30757315991364
 30
0.0
 11
0.3738270967474939
 21
1.3036495215118
 31
0.0
1001
REVIT
1002
{
1070
     2
1000
-2001350
1002
}
  0
LINE
  5
7E1
330
77B
100
AcDbEntity
  8
D35160210
100
AcDbLine
 10
0.3733235100303353
 20
1.280001484639672
 30
0.0
 11
0.3726889336248753
 21
1.276101325004411
 31
0.0
1001
REVIT
1002
{
1070
     2
1000
-2001350
1002
}
  0
LINE
  5
7E2
330
77B
100
AcDbEntity
  8
D35160210
100
AcDbLine
 10
0.3742855970521077
 20
1.291810377318956
 30
0.0
 11
0.3741224808353713
 21
1.287862298609674
 31
0.0
1001
REVIT
1002
{
1070
     2
1000
-2001350
1002
}
  0
LINE
  5
7E3
330
77B
100
AcDbEntity
  8
D35160210
100
AcDbLine
 10
0.3741224808353713
 20
1.287862298609674
 30
0.0
 11
0.3738016140553241
 21
1.283923900851153
 31
0.0
1001
REVIT
1002
{
1070
     2
1000
-2001350
1002
}
  0
LINE
  5
7E4
330
77B
100
AcDbEntity
  8
D35160210
100
AcDbLine
 10
0.3709546731183976
 20
1.26839268756878
 30
0.0
 11
0.369857763464239
 21
1.264596541943894
 31
0.0
1001
REVIT
1002
{
1070
     2
1000
-2001350
1002
}
  0
LINE
  5
7E5
330
77B
100
AcDbEntity
  8
D35160210
100
AcDbLine
 10
0.3726889336248753
 20
1.276101325004411
 30
0.0
 11
0.3718989000258225
 21
1.272229661368821
 31
0.0
1001
REVIT
1002
{
1070
     2
1000
-2001350
1002
}
  0
LINE
  5
7E6
330
77B
100
AcDbEntity
  8
D35160210
100
AcDbLine
 10
0.3686099258847868
 20
1.260847297517326
 30
0.0
 11
0.3672131566539817
 21
1.257150952280372
 31
0.0
1001
REVIT
1002
{
1070
     2
1000
-2001350
1002
}
  0
LINE
  5
7E7
330
77B
100
AcDbEntity
  8
D35160210
100
AcDbLine
 10
-1.737420524672866
 20
-1.400043377819848
 30
0.0
 11
-1.713646812717534
 21
-1.397071031084845
 31
0.0
1001
REVIT
1002
{
1070
     2
1000
-2001350
1002
}
  0
LINE
  5
7E8
330
77B
100
AcDbEntity
  8
D35160210
100
AcDbLine
 10
0.3656696903046281
 20
1.253513419596913
 30
0.0
 11
0.3656162766566168
 21
1.253394435930452
 31
0.0
1001
REVIT
1002
{
1070
     2
1000
-2001350
1002
}
  0
LINE
  5
7E9
330
77B
100
AcDbEntity
  8
D35160210
100
AcDbLine
 10
0.3741377867757051
 20
1.299710307871847
 30
0.0
 11
0.3742907017543579
 21
1.295761820895279
 31
0.0
1001
REVIT
1002
{
1070
     2
1000
-2001350
1002
}
  0
LINE
  5
7EA
330
77B
100
AcDbEntity
  8
D35160210
100
AcDbLine
 10
0.369857763464239
 20
1.264596541943894
 30
0.0
 11
0.3686099258847868
 21
1.260847297517326
 31
0.0
1001
REVIT
1002
{
1070
     2
1000
-2001350
1002
}
  0
LINE
  5
7EB
330
77B
100
AcDbEntity
  8
D35160210
100
AcDbLine
 10
0.3718989000258225
 20
1.272229661368821
 30
0.0
 11
0.3709546731183976
 21
1.26839268756878
 31
0.0
1001
REVIT
1002
{
1070
     2
1000
-2001350
1002
}
  0
LINE
  5
7EC
330
77B
100
AcDbEntity
  8
D35160210
100
AcDbLine
 10
-1.924184032063994
 20
-1.459611832246426
 30
0.0
 11
-1.902643032054175
 21
-1.449123288790591
 31
0.0
1001
REVIT
1002
{
1070
     2
1000
-2001350
1002
}
  0
LINE
  5
7ED
330
77B
100
AcDbEntity
  8
D35160210
100
AcDbLine
 10
-1.641879471483193
 20
-1.393883817467059
 30
0.0
 11
-1.617935865462527
 21
-1.394737020827907
 31
0.0
1001
REVIT
1002
{
1070
     2
1000
-2001350
1002
}
  0
LINE
  5
7EE
330
77B
100
AcDbEntity
  8
D35160210
100
AcDbLine
 10
0.3672131566539817
 20
1.257150952280372
 30
0.0
 11
0.3656696903046281
 21
1.253513419596913
 31
0.0
1001
REVIT
1002
{
1070
     2
1000
-2001350
1002
}
  0
LINE
  5
7EF
330
77B
100
AcDbEntity
  8
D35160210
100
AcDbLine
 10
0.2189201045376805
 20
0.9271921023184821
 30
0.0
 11
0.3656162766566168
 21
1.253394435930452
 31
0.0
1001
REVIT
1002
{
1070
     2
1000
-2001350
1002
}
  0
LINE
  5
7F0
330
77B
100
AcDbEntity
  8
D35160210
100
AcDbLine
 10
-0.3656162766541015
 20
1.253394435930452
 30
0.0
 11
-0.2189201045351651
 21
0.9271921023184821
 31
0.0
1001
REVIT
1002
{
1070
     2
1000
-2001350
1002
}
  0
LINE
  5
7F1
330
77B
100
AcDbEntity
  8
D35160210
100
AcDbLine
 10
-1.665838044207223
 20
-1.3939887854407
 30
0.0
 11
-1.641879471483193
 21
-1.393883817467059
 31
0.0
1001
REVIT
1002
{
1070
     2
1000
-2001350
1002
}
  0
LINE
  5
7F2
330
77B
100
AcDbEntity
  8
D35160210
100
AcDbLine
 10
-1.594045530807143
 20
-1.396547030579863
 30
0.0
 11
-1.570246686956174
 21
-1.399310951093443
 31
0.0
1001
REVIT
1002
{
1070
     2
1000
-2001350
1002
}
  0
LINE
  5
7F3
330
77B
100
AcDbEntity
  8
D35160210
100
AcDbLine
 10
-1.713646812717534
 20
-1.397071031084845
 30
0.0
 11
-1.689773255029144
 21
-1.395051756822443
 31
0.0
1001
REVIT
1002
{
1070
     2
1000
-2001350
1002
}
  0
LINE
  5
7F4
330
77B
100
AcDbEntity
  8
D35160210
100
AcDbLine
 10
-1.761056358027459
 20
-1.403964041906728
 30
0.0
 11
-1.737420524672866
 21
-1.400043377819848
 31
0.0
1001
REVIT
1002
{
1070
     2
1000
-2001350
1002
}
  0
LINE
  5
7F5
330
77B
100
AcDbEntity
  8
D35160210
100
AcDbLine
 10
-1.986052772673129
 20
-1.49612167385019
 30
0.0
 11
-1.965922288526801
 21
-1.483129836671313
 31
0.0
1001
REVIT
1002
{
1070
     2
1000
-2001350
1002
}
  0
LINE
  5
7F6
330
77B
100
AcDbEntity
  8
D35160210
100
AcDbLine
 10
-1.689773255029144
 20
-1.395051756822443
 30
0.0
 11
-1.665838044207223
 21
-1.3939887854407
 31
0.0
1001
REVIT
1002
{
1070
     2
1000
-2001350
1002
}
  0
LINE
  5
7F7
330
77B
100
AcDbEntity
  8
D35160210
100
AcDbLine
 10
-1.52307555668629
 20
-1.407681318692602
 30
0.0
 11
-1.517966254372982
 21
-1.408823798493585
 31
0.0
1001
REVIT
1002
{
1070
     2
1000
-2001350
1002
}
  0
LINE
  5
7F8
330
77B
100
AcDbEntity
  8
D35160210
100
AcDbLine
 10
-1.516845868472053
 20
-1.409103157484245
 30
0.0
 11
-1.515737550140393
 21
-1.409427096503726
 31
0.0
1001
REVIT
1002
{
1070
     2
1000
-2001350
1002
}
  0
LINE
  5
7F9
330
77B
100
AcDbEntity
  8
D35160210
100
AcDbLine
 10
-1.546577406982965
 20
-1.403024360685414
 30
0.0
 11
-1.52307555668629
 21
-1.407681318692602
 31
0.0
1001
REVIT
1002
{
1070
     2
1000
-2001350
1002
}
  0
LINE
  5
7FA
330
77B
100
AcDbEntity
  8
D35160210
100
AcDbLine
 10
-1.617935865462527
 20
-1.394737020827907
 30
0.0
 11
-1.594045530807143
 21
-1.396547030579863
 31
0.0
1001
REVIT
1002
{
1070
     2
1000
-2001350
1002
}
  0
LINE
  5
7FB
330
77B
100
AcDbEntity
  8
D35160210
100
AcDbLine
 10
-1.965922288526801
 20
-1.483129836671313
 30
0.0
 11
-1.945288371702005
 21
-1.470953396234328
 31
0.0
1001
REVIT
1002
{
1070
     2
1000
-2001350
1002
}
  0
LINE
  5
7FC
330
77B
100
AcDbEntity
  8
D35160210
100
AcDbLine
 10
-1.515737550140393
 20
-1.409427096503726
 30
0.0
 11
-1.51464307245088
 21
-1.409795097318688
 31
0.0
1001
REVIT
1002
{
1070
     2
1000
-2001350
1002
}
  0
LINE
  5
7FD
330
77B
100
AcDbEntity
  8
D35160210
100
AcDbLine
 10
-1.945288371702005
 20
-1.470953396234328
 30
0.0
 11
-1.924184032063994
 21
-1.459611832246426
 31
0.0
1001
REVIT
1002
{
1070
     2
1000
-2001350
1002
}
  0
LINE
  5
7FE
330
77B
100
AcDbEntity
  8
D35160210
100
AcDbLine
 10
-1.570246686956174
 20
-1.399310951093443
 30
0.0
 11
-1.546577406982965
 21
-1.403024360685414
 31
0.0
1001
REVIT
1002
{
1070
     2
1000
-2001350
1002
}
  0
LINE
  5
7FF
330
77B
100
AcDbEntity
  8
D35160210
100
AcDbLine
 10
-1.51464307245088
 20
-1.409795097318688
 30
0.0
 11
-1.513564186334359
 21
-1.410206571206334
 31
0.0
1001
REVIT
1002
{
1070
     2
1000
-2001350
1002
}
  0
LINE
  5
800
330
77B
100
AcDbEntity
  8
D35160210
100
AcDbLine
 10
-1.511460065066408
 20
-1.411157236623367
 30
0.0
 11
-1.510438196060153
 21
-1.411694907290875
 31
0.0
1001
REVIT
1002
{
1070
     2
1000
-2001350
1002
}
  0
LINE
  5
801
330
77B
100
AcDbEntity
  8
D35160210
100
AcDbLine
 10
-1.812810961994397
 20
-1.416013891074736
 30
0.0
 11
-1.78961559592211
 21
-1.410013956240042
 31
0.0
1001
REVIT
1002
{
1070
     2
1000
-2001350
1002
}
  0
LINE
  5
802
330
77B
100
AcDbEntity
  8
D35160210
100
AcDbLine
 10
-1.766198850269439
 20
-1.404946387958698
 30
0.0
 11
-1.76105635802747
 21
-1.403964041906728
 31
0.0
1001
REVIT
1002
{
1070
     2
1000
-2001350
1002
}
  0
LINE
  5
803
330
77B
100
AcDbEntity
  8
D35160210
100
AcDbLine
 10
-1.902643032054175
 20
-1.449123288790591
 30
0.0
 11
-1.880699832677404
 21
-1.439504545298905
 31
0.0
1001
REVIT
1002
{
1070
     2
1000
-2001350
1002
}
  0
LINE
  5
804
330
77B
100
AcDbEntity
  8
D35160210
100
AcDbLine
 10
-1.835747840848664
 20
-1.422936593846969
 30
0.0
 11
-1.812810961994397
 21
-1.416013891074736
 31
0.0
1001
REVIT
1002
{
1070
     2
1000
-2001350
1002
}
  0
LINE
  5
805
330
77B
100
AcDbEntity
  8
D35160210
100
AcDbLine
 10
-1.517966254372971
 20
-1.408823798493585
 30
0.0
 11
-1.516845868472053
 21
-1.409103157484245
 31
0.0
1001
REVIT
1002
{
1070
     2
1000
-2001350
1002
}
  0
LINE
  5
806
330
77B
100
AcDbEntity
  8
D35160210
100
AcDbLine
 10
-1.506589701681668
 20
-1.414240364894251
 30
0.0
 11
-1.505695020693408
 21
-1.414970331976988
 31
0.0
1001
REVIT
1002
{
1070
     2
1000
-2001350
1002
}
  0
LINE
  5
807
330
77B
100
AcDbEntity
  8
D35160210
100
AcDbLine
 10
-1.880699832677404
 20
-1.439504545298905
 30
0.0
 11
-1.858389538371692
 21
-1.430770989709067
 31
0.0
1001
REVIT
1002
{
1070
     2
1000
-2001350
1002
}
  0
LINE
  5
808
330
77B
100
AcDbEntity
  8
D35160210
100
AcDbLine
 10
-1.78961559592211
 20
-1.410013956240042
 30
0.0
 11
-1.766198850269439
 21
-1.404946387958698
 31
0.0
1001
REVIT
1002
{
1070
     2
1000
-2001350
1002
}
  0
LINE
  5
809
330
77B
100
AcDbEntity
  8
D35160210
100
AcDbLine
 10
-1.505695020693408
 20
-1.414970331976988
 30
0.0
 11
-1.504830246252126
 21
-1.415735492860953
 31
0.0
1001
REVIT
1002
{
1070
     2
1000
-2001350
1002
}
  0
LINE
  5
80A
330
77B
100
AcDbEntity
  8
D35160210
100
AcDbLine
 10
-1.512502617778451
 20
-1.410660859896232
 30
0.0
 11
-1.511460065066408
 21
-1.411157236623367
 31
0.0
1001
REVIT
1002
{
1070
     2
1000
-2001350
1002
}
  0
LINE
  5
80B
330
77B
100
AcDbEntity
  8
D35160210
100
AcDbLine
 10
-1.858389538371692
 20
-1.430770989709067
 30
0.0
 11
-1.835747840848664
 21
-1.422936593846969
 31
0.0
1001
REVIT
1002
{
1070
     2
1000
-2001350
1002
}
  0
LINE
  5
80C
330
77B
100
AcDbEntity
  8
D35160210
100
AcDbLine
 10
-1.507512857918179
 20
-1.413546759404343
 30
0.0
 11
-1.506589701681668
 21
-1.414240364894251
 31
0.0
1001
REVIT
1002
{
1070
     2
1000
-2001350
1002
}
  0
LINE
  5
80D
330
77B
100
AcDbEntity
  8
D35160210
100
AcDbLine
 10
-1.50846301254991
 20
-1.412890625128099
 30
0.0
 11
-1.507512857918179
 21
-1.413546759404343
 31
0.0
1001
REVIT
1002
{
1070
     2
1000
-2001350
1002
}
  0
LINE
  5
80E
330
77B
100
AcDbEntity
  8
D35160210
100
AcDbLine
 10
-1.50943864553211
 20
-1.412273011740381
 30
0.0
 11
-1.50846301254991
 21
-1.412890625128099
 31
0.0
1001
REVIT
1002
{
1070
     2
1000
-2001350
1002
}
  0
LINE
  5
80F
330
77B
100
AcDbEntity
  8
D35160210
100
AcDbLine
 10
-1.513564186334359
 20
-1.410206571206334
 30
0.0
 11
-1.512502617778451
 21
-1.410660859896232
 31
0.0
1001
REVIT
1002
{
1070
     2
1000
-2001350
1002
}
  0
LINE
  5
810
330
77B
100
AcDbEntity
  8
D35160210
100
AcDbLine
 10
-1.510438196060153
 20
-1.411694907290875
 30
0.0
 11
-1.50943864553211
 21
-1.412273011740381
 31
0.0
1001
REVIT
1002
{
1070
     2
1000
-2001350
1002
}
  0
LINE
  5
811
330
77B
100
AcDbEntity
  8
D35160210
100
AcDbLine
 10
-1.503195900771703
 20
-1.417366445311518
 30
0.0
 11
-1.502428944336681
 21
-1.418229627702117
 31
0.0
1001
REVIT
1002
{
1070
     2
1000
-2001350
1002
}
  0
LINE
  5
812
330
77B
100
AcDbEntity
  8
D35160210
100
AcDbLine
 10
-1.499723849797486
 20
-1.421967638794359
 30
0.0
 11
-1.499143669296756
 21
-1.422965985727653
 31
0.0
1001
REVIT
1002
{
1070
     2
1000
-2001350
1002
}
  0
LINE
  5
813
330
77B
100
AcDbEntity
  8
D35160210
100
AcDbLine
 10
-1.499143669296756
 20
-1.422965985727653
 30
0.0
 11
-1.498603876107697
 21
-1.423986735121814
 31
0.0
1001
REVIT
1002
{
1070
     2
1000
-2001350
1002
}
  0
LINE
  5
814
330
77B
100
AcDbEntity
  8
D35160210
100
AcDbLine
 10
-1.503996761812451
 20
-1.416534623451955
 30
0.0
 11
-1.503195900771703
 21
-1.417366445311518
 31
0.0
1001
REVIT
1002
{
1070
     2
1000
-2001350
1002
}
  0
LINE
  5
815
330
77B
100
AcDbEntity
  8
D35160210
100
AcDbLine
 10
-1.504830246252126
 20
-1.415735492860953
 30
0.0
 11
-1.503996761812451
 21
-1.416534623451955
 31
0.0
1001
REVIT
1002
{
1070
     2
1000
-2001350
1002
}
  0
LINE
  5
816
330
77B
100
AcDbEntity
  8
D35160210
100
AcDbLine
 10
-1.500343489444844
 20
-1.420993291464053
 30
0.0
 11
-1.499723849797486
 21
-1.421967638794359
 31
0.0
1001
REVIT
1002
{
1070
     2
1000
-2001350
1002
}
  0
LINE
  5
817
330
77B
100
AcDbEntity
  8
D35160210
100
AcDbLine
 10
-1.501001596947588
 20
-1.420044502484628
 30
0.0
 11
-1.500343489444844
 21
-1.420993291464053
 31
0.0
1001
REVIT
1002
{
1070
     2
1000
-2001350
1002
}
  0
LINE
  5
818
330
77B
100
AcDbEntity
  8
D35160210
100
AcDbLine
 10
-1.496256921634767
 20
-1.430488060948167
 30
0.0
 11
-1.496020240315711
 21
-1.431618232601443
 31
0.0
1001
REVIT
1002
{
1070
     2
1000
-2001350
1002
}
  0
LINE
  5
819
330
77B
100
AcDbEntity
  8
D35160210
100
AcDbLine
 10
-1.501697119474083
 20
-1.419122789716045
 30
0.0
 11
-1.501001596947588
 21
-1.420044502484628
 31
0.0
1001
REVIT
1002
{
1070
     2
1000
-2001350
1002
}
  0
LINE
  5
81A
330
77B
100
AcDbEntity
  8
D35160210
100
AcDbLine
 10
-1.502428944336681
 20
-1.418229627702117
 30
0.0
 11
-1.501697119474083
 21
-1.419122789716045
 31
0.0
1001
REVIT
1002
{
1070
     2
1000
-2001350
1002
}
  0
LINE
  5
81B
330
77B
100
AcDbEntity
  8
D35160210
100
AcDbLine
 10
-1.496020240315711
 20
-1.431618232601443
 30
0.0
 11
-1.495828943128383
 21
-1.432756964966294
 31
0.0
1001
REVIT
1002
{
1070
     2
1000
-2001350
1002
}
  0
LINE
  5
81C
330
77B
100
AcDbEntity
  8
D35160210
100
AcDbLine
 10
-1.496864850110444
 20
-1.428260615322834
 30
0.0
 11
-1.496538608445955
 21
-1.429368258040039
 31
0.0
1001
REVIT
1002
{
1070
     2
1000
-2001350
1002
}
  0
LINE
  5
81D
330
77B
100
AcDbEntity
  8
D35160210
100
AcDbLine
 10
-1.497648839887798
 20
-1.426088876140884
 30
0.0
 11
-1.497235124711185
 21
-1.427166904788599
 31
0.0
1001
REVIT
1002
{
1070
     2
1000
-2001350
1002
}
  0
LINE
  5
81E
330
77B
100
AcDbEntity
  8
D35160210
100
AcDbLine
 10
-1.498105333784252
 20
-1.425028253995573
 30
0.0
 11
-1.497648839887798
 21
-1.426088876140884
 31
0.0
1001
REVIT
1002
{
1070
     2
1000
-2001350
1002
}
  0
LINE
  5
81F
330
77B
100
AcDbEntity
  8
D35160210
100
AcDbLine
 10
-1.495683336107489
 20
-1.433902436313861
 30
0.0
 11
-1.495583652193204
 21
-1.435052814134351
 31
0.0
1001
REVIT
1002
{
1070
     2
1000
-2001350
1002
}
  0
LINE
  5
820
330
77B
100
AcDbEntity
  8
D35160210
100
AcDbLine
 10
-1.495828943128383
 20
-1.432756964966294
 30
0.0
 11
-1.495683336107489
 21
-1.433902436313861
 31
0.0
1001
REVIT
1002
{
1070
     2
1000
-2001350
1002
}
  0
LINE
  5
821
330
77B
100
AcDbEntity
  8
D35160210
100
AcDbLine
 10
-1.496538608445955
 20
-1.429368258040039
 30
0.0
 11
-1.496256921634767
 21
-1.430488060948167
 31
0.0
1001
REVIT
1002
{
1070
     2
1000
-2001350
1002
}
  0
LINE
  5
822
330
77B
100
AcDbEntity
  8
D35160210
100
AcDbLine
 10
-1.495646230522687
 20
-1.439666527101628
 30
0.0
 11
-1.495777078441704
 21
-1.440813778091932
 31
0.0
1001
REVIT
1002
{
1070
     2
1000
-2001350
1002
}
  0
LINE
  5
823
330
77B
100
AcDbEntity
  8
D35160210
100
AcDbLine
 10
-1.497235124711185
 20
-1.427166904788599
 30
0.0
 11
-1.496864850110444
 21
-1.428260615322834
 31
0.0
1001
REVIT
1002
{
1070
     2
1000
-2001350
1002
}
  0
LINE
  5
824
330
77B
100
AcDbEntity
  8
D35160210
100
AcDbLine
 10
-1.498603876107697
 20
-1.423986735121814
 30
0.0
 11
-1.498105333784252
 21
-1.425028253995573
 31
0.0
1001
REVIT
1002
{
1070
     2
1000
-2001350
1002
}
  0
LINE
  5
825
330
77B
100
AcDbEntity
  8
D35160210
100
AcDbLine
 10
-1.495522617854149
 20
-1.437360922852519
 30
0.0
 11
-1.495561365071296
 21
-1.438514961268601
 31
0.0
1001
REVIT
1002
{
1070
     2
1000
-2001350
1002
}
  0
LINE
  5
826
330
77B
100
AcDbEntity
  8
D35160210
100
AcDbLine
 10
-1.495530050858526
 20
-1.436206258068658
 30
0.0
 11
-1.495522617854149
 21
-1.437360922852519
 31
0.0
1001
REVIT
1002
{
1070
     2
1000
-2001350
1002
}
  0
LINE
  5
827
330
77B
100
AcDbEntity
  8
D35160210
100
AcDbLine
 10
-1.495777078441704
 20
-1.440813778091932
 30
0.0
 11
-1.495953699499601
 21
-1.441954878882643
 31
0.0
1001
REVIT
1002
{
1070
     2
1000
-2001350
1002
}
  0
LINE
  5
828
330
77B
100
AcDbEntity
  8
D35160210
100
AcDbLine
 10
-1.495561365071296
 20
-1.438514961268601
 30
0.0
 11
-1.495646230522687
 21
-1.439666527101628
 31
0.0
1001
REVIT
1002
{
1070
     2
1000
-2001350
1002
}
  0
LINE
  5
829
330
77B
100
AcDbEntity
  8
D35160210
100
AcDbLine
 10
-1.496175811140339
 20
-1.443088003955924
 30
0.0
 11
-1.496443058032688
 21
-1.444211340553373
 31
0.0
1001
REVIT
1002
{
1070
     2
1000
-2001350
1002
}
  0
LINE
  5
82A
330
77B
100
AcDbEntity
  8
D35160210
100
AcDbLine
 10
-1.495953699499601
 20
-1.441954878882643
 30
0.0
 11
-1.496175811140339
 21
-1.443088003955924
 31
0.0
1001
REVIT
1002
{
1070
     2
1000
-2001350
1002
}
  0
LINE
  5
82B
330
77B
100
AcDbEntity
  8
D35160210
100
AcDbLine
 10
-1.994462807600079
 20
-1.535255250357405
 30
0.0
 11
-1.995050822316421
 21
-1.53426149751791
 31
0.0
1001
REVIT
1002
{
1070
     2
1000
-2001350
1002
}
  0
LINE
  5
82C
330
77B
100
AcDbEntity
  8
D35160210
100
AcDbLine
 10
-1.496443058032688
 20
-1.444211340553373
 30
0.0
 11
-1.496755012638622
 21
-1.445323091576071
 31
0.0
1001
REVIT
1002
{
1070
     2
1000
-2001350
1002
}
  0
LINE
  5
82D
330
77B
100
AcDbEntity
  8
D35160210
100
AcDbLine
 10
-1.495583652193204
 20
-1.435052814134351
 30
0.0
 11
-1.495530050858526
 21
-1.436206258068658
 31
0.0
1001
REVIT
1002
{
1070
     2
1000
-2001350
1002
}
  0
LINE
  5
82E
330
77B
100
AcDbEntity
  8
D35160210
100
AcDbLine
 10
-1.496755012638622
 20
-1.445323091576071
 30
0.0
 11
-1.497111175897327
 21
-1.446421478459544
 31
0.0
1001
REVIT
1002
{
1070
     2
1000
-2001350
1002
}
  0
LINE
  5
82F
330
77B
100
AcDbEntity
  8
D35160210
100
AcDbLine
 10
-1.992467223757436
 20
-1.538084491354908
 30
0.0
 11
-1.993169974191751
 21
-1.537168277493574
 31
0.0
1001
REVIT
1002
{
1070
     2
1000
-2001350
1002
}
  0
LINE
  5
830
330
77B
100
AcDbEntity
  8
D35160210
100
AcDbLine
 10
-1.995050822316421
 20
-1.53426149751791
 30
0.0
 11
-1.995598627169325
 21
-1.533245025257702
 31
0.0
1001
REVIT
1002
{
1070
     2
1000
-2001350
1002
}
  0
LINE
  5
831
330
77B
100
AcDbEntity
  8
D35160210
100
AcDbLine
 10
-1.991728396666228
 20
-1.538971869820922
 30
0.0
 11
-1.992467223757436
 21
-1.538084491354908
 31
0.0
1001
REVIT
1002
{
1070
     2
1000
-2001350
1002
}
  0
LINE
  5
832
330
77B
100
AcDbEntity
  8
D35160210
100
AcDbLine
 10
-1.993169974191751
 20
-1.537168277493574
 30
0.0
 11
-1.993835523718388
 21
-1.536224693983623
 31
0.0
1001
REVIT
1002
{
1070
     2
1000
-2001350
1002
}
  0
LINE
  5
833
330
77B
100
AcDbEntity
  8
D35160210
100
AcDbLine
 10
-1.497111175897327
 20
-1.446421478459544
 30
0.0
 11
-1.497226341277023
 21
-1.446747511487096
 31
0.0
1001
REVIT
1002
{
1070
     2
1000
-2001350
1002
}
  0
LINE
  5
834
330
77B
100
AcDbEntity
  8
D35160210
100
AcDbLine
 10
-1.99657016753035
 20
-1.53115046077498
 30
0.0
 11
-1.996992348781141
 21
-1.530075719408827
 31
0.0
1001
REVIT
1002
{
1070
     2
1000
-2001350
1002
}
  0
LINE
  5
835
330
77B
100
AcDbEntity
  8
D35160210
100
AcDbLine
 10
-1.995598627169325
 20
-1.533245025257702
 30
0.0
 11
-1.996105345787856
 21
-1.532207459715546
 31
0.0
1001
REVIT
1002
{
1070
     2
1000
-2001350
1002
}
  0
LINE
  5
836
330
77B
100
AcDbEntity
  8
D35160210
100
AcDbLine
 10
-1.996105345787856
 20
-1.532207459715546
 30
0.0
 11
-1.99657016753035
 21
-1.53115046077498
 31
0.0
1001
REVIT
1002
{
1070
     2
1000
-2001350
1002
}
  0
LINE
  5
837
330
77B
100
AcDbEntity
  8
D35160210
100
AcDbLine
 10
-1.996992348781141
 20
-1.530075719408827
 30
0.0
 11
-1.997371214140311
 21
-1.52898495497401
 31
0.0
1001
REVIT
1002
{
1070
     2
1000
-2001350
1002
}
  0
LINE
  5
838
330
77B
100
AcDbEntity
  8
D35160210
100
AcDbLine
 10
-1.997371214140311
 20
-1.52898495497401
 30
0.0
 11
-1.997706157504108
 21
-1.527879912460931
 31
0.0
1001
REVIT
1002
{
1070
     2
1000
-2001350
1002
}
  0
LINE
  5
839
330
77B
100
AcDbEntity
  8
D35160210
100
AcDbLine
 10
-1.993835523718388
 20
-1.536224693983623
 30
0.0
 11
-1.994462807600079
 21
-1.535255250357405
 31
0.0
1001
REVIT
1002
{
1070
     2
1000
-2001350
1002
}
  0
LINE
  5
83A
330
77B
100
AcDbEntity
  8
D35160210
100
AcDbLine
 10
-1.997706157504108
 20
-1.527879912460931
 30
0.0
 11
-1.997996643034596
 21
-1.526762359701905
 31
0.0
1001
REVIT
1002
{
1070
     2
1000
-2001350
1002
}
  0
LINE
  5
83B
330
77B
100
AcDbEntity
  8
D35160210
100
AcDbLine
 10
-1.998705794178057
 20
-1.522203043081233
 30
0.0
 11
-1.998768465879059
 21
-1.521050056407194
 31
0.0
1001
REVIT
1002
{
1070
     2
1000
-2001350
1002
}
  0
LINE
  5
83C
330
77B
100
AcDbEntity
  8
D35160210
100
AcDbLine
 10
-1.998242206016886
 20
-1.525634084542929
 30
0.0
 11
-1.998442453602599
 21
-1.524496891983566
 31
0.0
1001
REVIT
1002
{
1070
     2
1000
-2001350
1002
}
  0
LINE
  5
83D
330
77B
100
AcDbEntity
  8
D35160210
100
AcDbLine
 10
-1.998755310961264
 20
-1.518741178326052
 30
0.0
 11
-1.998679505387521
 21
-1.517588980631369
 31
0.0
1001
REVIT
1002
{
1070
     2
1000
-2001350
1002
}
  0
LINE
  5
83E
330
77B
100
AcDbEntity
  8
D35160210
100
AcDbLine
 10
-1.998442453602599
 20
-1.524496891983566
 30
0.0
 11
-1.998597065438296
 21
-1.523352601289324
 31
0.0
1001
REVIT
1002
{
1070
     2
1000
-2001350
1002
}
  0
LINE
  5
83F
330
77B
100
AcDbEntity
  8
D35160210
100
AcDbLine
 10
-1.997996643034596
 20
-1.526762359701905
 30
0.0
 11
-1.998242206016886
 21
-1.525634084542929
 31
0.0
1001
REVIT
1002
{
1070
     2
1000
-2001350
1002
}
  0
LINE
  5
840
330
77B
100
AcDbEntity
  8
D35160210
100
AcDbLine
 10
-1.998768465879059
 20
-1.521050056407194
 30
0.0
 11
-1.998784980279967
 21
-1.519895485799903
 31
0.0
1001
REVIT
1002
{
1070
     2
1000
-2001350
1002
}
  0
LINE
  5
841
330
77B
100
AcDbEntity
  8
D35160210
100
AcDbLine
 10
-1.998784980279967
 20
-1.519895485799903
 30
0.0
 11
-1.998755310961264
 21
-1.518741178326052
 31
0.0
1001
REVIT
1002
{
1070
     2
1000
-2001350
1002
}
  0
LINE
  5
842
330
77B
100
AcDbEntity
  8
D35160210
100
AcDbLine
 10
-1.998597065438296
 20
-1.523352601289324
 30
0.0
 11
-1.998705794178057
 21
-1.522203043081233
 31
0.0
1001
REVIT
1002
{
1070
     2
1000
-2001350
1002
}
  0
LINE
  5
843
330
77B
100
AcDbEntity
  8
D35160210
100
AcDbLine
 10
-1.998679505387521
 20
-1.517588980631369
 30
0.0
 11
-1.998557684831489
 21
-1.516440735986371
 31
0.0
1001
REVIT
1002
{
1070
     2
1000
-2001350
1002
}
  0
LINE
  5
844
330
77B
100
AcDbEntity
  8
D35160210
100
AcDbLine
 10
-1.998390044180069
 20
-1.515298281337546
 30
0.0
 11
-1.998176851622552
 21
-1.514163444368605
 31
0.0
1001
REVIT
1002
{
1070
     2
1000
-2001350
1002
}
  0
LINE
  5
845
330
77B
100
AcDbEntity
  8
D35160210
100
AcDbLine
 10
-1.998176851622552
 20
-1.514163444368605
 30
0.0
 11
-1.99791844822154
 21
-1.513038040576635
 31
0.0
1001
REVIT
1002
{
1070
     2
1000
-2001350
1002
}
  0
LINE
  5
846
330
77B
100
AcDbEntity
  8
D35160210
100
AcDbLine
 10
-1.998557684831489
 20
-1.516440735986371
 30
0.0
 11
-1.998390044180069
 21
-1.515298281337546
 31
0.0
1001
REVIT
1002
{
1070
     2
1000
-2001350
1002
}
  0
LINE
  5
847
330
77B
100
AcDbEntity
  8
D35160210
100
AcDbLine
 10
-1.99791844822154
 20
-1.513038040576635
 30
0.0
 11
-1.997615247367356
 21
-1.511923870367613
 31
0.0
1001
REVIT
1002
{
1070
     2
1000
-2001350
1002
}
  0
LINE
  5
848
330
77B
100
AcDbEntity
  8
D35160210
100
AcDbLine
 10
-1.997267734116689
 20
-1.5108227161762
 30
0.0
 11
-1.996876464416594
 21
-1.50973633961421
 31
0.0
1001
REVIT
1002
{
1070
     2
1000
-2001350
1002
}
  0
LINE
  5
849
330
77B
100
AcDbEntity
  8
D35160210
100
AcDbLine
 10
-1.996876464416594
 20
-1.50973633961421
 30
0.0
 11
-1.996442064215152
 21
-1.508666478652393
 31
0.0
1001
REVIT
1002
{
1070
     2
1000
-2001350
1002
}
  0
LINE
  5
84A
330
77B
100
AcDbEntity
  8
D35160210
100
AcDbLine
 10
-1.997615247367356
 20
-1.511923870367613
 30
0.0
 11
-1.997267734116689
 21
-1.5108227161762
 31
0.0
1001
REVIT
1002
{
1070
     2
1000
-2001350
1002
}
  0
LINE
  5
84B
330
77B
100
AcDbEntity
  8
D35160210
100
AcDbLine
 10
-1.995965228459993
 20
-1.507614844840062
 30
0.0
 11
-1.995446719986609
 21
-1.506583120566975
 31
0.0
1001
REVIT
1002
{
1070
     2
1000
-2001350
1002
}
  0
LINE
  5
84C
330
77B
100
AcDbEntity
  8
D35160210
100
AcDbLine
 10
-1.996442064215152
 20
-1.508666478652393
 30
0.0
 11
-1.995965228459993
 21
-1.507614844840062
 31
0.0
1001
REVIT
1002
{
1070
     2
1000
-2001350
1002
}
  0
LINE
  5
84D
330
77B
100
AcDbEntity
  8
D35160210
100
AcDbLine
 10
-1.99428806823743
 20
-1.504585968301991
 30
0.0
 11
-1.993649778557248
 21
-1.5036237353277
 31
0.0
1001
REVIT
1002
{
1070
     2
1000
-2001350
1002
}
  0
LINE
  5
84E
330
77B
100
AcDbEntity
  8
D35160210
100
AcDbLine
 10
-1.993649778557248
 20
-1.5036237353277
 30
0.0
 11
-1.992973520384758
 21
-1.502687796816484
 31
0.0
1001
REVIT
1002
{
1070
     2
1000
-2001350
1002
}
  0
LINE
  5
84F
330
77B
100
AcDbEntity
  8
D35160210
100
AcDbLine
 10
-1.995446719986609
 20
-1.506583120566975
 30
0.0
 11
-1.994887368297973
 21
-1.505572956371878
 31
0.0
1001
REVIT
1002
{
1070
     2
1000
-2001350
1002
}
  0
LINE
  5
850
330
77B
100
AcDbEntity
  8
D35160210
100
AcDbLine
 10
-1.994887368297973
 20
-1.505572956371878
 30
0.0
 11
-1.99428806823743
 21
-1.504585968301991
 31
0.0
1001
REVIT
1002
{
1070
     2
1000
-2001350
1002
}
  0
LINE
  5
851
330
77B
100
AcDbEntity
  8
D35160210
100
AcDbLine
 10
-1.992973520384758
 20
-1.502687796816484
 30
0.0
 11
-1.992260375588784
 21
-1.501779650070296
 31
0.0
1001
REVIT
1002
{
1070
     2
1000
-2001350
1002
}
  0
LINE
  5
852
330
77B
100
AcDbEntity
  8
D35160210
100
AcDbLine
 10
-1.991511485048846
 20
-1.500900747930216
 30
0.0
 11
-1.990728046830067
 21
-1.500052496452166
 31
0.0
1001
REVIT
1002
{
1070
     2
1000
-2001350
1002
}
  0
LINE
  5
853
330
77B
100
AcDbEntity
  8
D35160210
100
AcDbLine
 10
-1.986338327013718
 20
-1.496316659281191
 30
0.0
 11
-1.98605277267314
 21
-1.49612167385019
 31
0.0
1001
REVIT
1002
{
1070
     2
1000
-2001350
1002
}
  0
LINE
  5
854
330
77B
100
AcDbEntity
  8
D35160210
100
AcDbLine
 10
-1.989911314266471
 20
-1.499236252657585
 30
0.0
 11
-1.989062593955928
 21
-1.498453322362397
 31
0.0
1001
REVIT
1002
{
1070
     2
1000
-2001350
1002
}
  0
LINE
  5
855
330
77B
100
AcDbEntity
  8
D35160210
100
AcDbLine
 10
-1.992260375588784
 20
-1.501779650070296
 30
0.0
 11
-1.991511485048846
 21
-1.500900747930216
 31
0.0
1001
REVIT
1002
{
1070
     2
1000
-2001350
1002
}
  0
LINE
  5
856
330
77B
100
AcDbEntity
  8
D35160210
100
AcDbLine
 10
-1.990728046830067
 20
-1.500052496452166
 30
0.0
 11
-1.989911314266471
 21
-1.499236252657585
 31
0.0
1001
REVIT
1002
{
1070
     2
1000
-2001350
1002
}
  0
LINE
  5
857
330
77B
100
AcDbEntity
  8
D35160210
100
AcDbLine
 10
-1.991728396666228
 20
-1.538971869820922
 30
0.0
 11
-1.949893588650301
 21
-1.587222147348899
 31
0.0
1001
REVIT
1002
{
1070
     2
1000
-2001350
1002
}
  0
LINE
  5
858
330
77B
100
AcDbEntity
  8
D35160210
100
AcDbLine
 10
-1.987274670181242
 20
-1.496992357057781
 30
0.0
 11
-1.986338327013718
 21
-1.496316659281191
 31
0.0
1001
REVIT
1002
{
1070
     2
1000
-2001350
1002
}
  0
LINE
  5
859
330
77B
100
AcDbEntity
  8
D35160210
100
AcDbLine
 10
-1.988183243669901
 20
-1.49770495808806
 30
0.0
 11
-1.987274670181242
 21
-1.496992357057781
 31
0.0
1001
REVIT
1002
{
1070
     2
1000
-2001350
1002
}
  0
LINE
  5
85A
330
77B
100
AcDbEntity
  8
D35160210
100
AcDbLine
 10
-1.989062593955928
 20
-1.498453322362397
 30
0.0
 11
-1.988183243669901
 21
-1.49770495808806
 31
0.0
1001
REVIT
1002
{
1070
     2
1000
-2001350
1002
}
  0
LINE
  5
85B
330
77B
100
AcDbEntity
  8
D35160210
100
AcDbLine
 10
1.517966254375444
 20
-1.408823798493585
 30
0.0
 11
1.541426504562437
 21
-1.403961609026751
 31
0.0
1001
REVIT
1002
{
1070
     2
1000
-2001350
1002
}
  0
LINE
  5
85C
330
77B
100
AcDbEntity
  8
D35160210
100
AcDbLine
 10
1.541426504562437
 20
-1.403961609026751
 30
0.0
 11
1.565062424771063
 21
-1.400041468577707
 31
0.0
1001
REVIT
1002
{
1070
     2
1000
-2001350
1002
}
  0
LINE
  5
85D
330
77B
100
AcDbEntity
  8
D35160210
100
AcDbLine
 10
-1.518856411348227
 20
-1.506833953485038
 30
0.0
 11
-1.497226341277013
 21
-1.446747511487096
 31
0.0
1001
REVIT
1002
{
1070
     2
1000
-2001350
1002
}
  0
LINE
  5
85E
330
77B
100
AcDbEntity
  8
D35160210
100
AcDbLine
 10
1.565062424771063
 20
-1.400041468577707
 30
0.0
 11
1.588836202571005
 21
-1.397069648534941
 31
0.0
1001
REVIT
1002
{
1070
     2
1000
-2001350
1002
}
  0
LINE
  5
85F
330
77B
100
AcDbEntity
  8
D35160210
100
AcDbLine
 10
1.588836202571005
 20
-1.397069648534941
 30
0.0
 11
1.612709804989289
 21
-1.395050903176542
 31
0.0
1001
REVIT
1002
{
1070
     2
1000
-2001350
1002
}
  0
LINE
  5
860
330
77B
100
AcDbEntity
  8
D35160210
100
AcDbLine
 10
1.684547201511047
 20
-1.394737758693835
 30
0.0
 11
1.708437496060945
 21
-1.396548297720538
 31
0.0
1001
REVIT
1002
{
1070
     2
1000
-2001350
1002
}
  0
LINE
  5
861
330
77B
100
AcDbEntity
  8
D35160210
100
AcDbLine
 10
1.660603614398436
 20
-1.393884024877809
 30
0.0
 11
1.684547201511047
 21
-1.394737758693835
 31
0.0
1001
REVIT
1002
{
1070
     2
1000
-2001350
1002
}
  0
LINE
  5
862
330
77B
100
AcDbEntity
  8
D35160210
100
AcDbLine
 10
1.612709804989289
 20
-1.395050903176542
 30
0.0
 11
1.636645039354789
 21
-1.393988462064452
 31
0.0
1001
REVIT
1002
{
1070
     2
1000
-2001350
1002
}
  0
LINE
  5
863
330
77B
100
AcDbEntity
  8
D35160210
100
AcDbLine
 10
1.636645039354789
 20
-1.393988462064452
 30
0.0
 11
1.660603614398436
 21
-1.393884024877809
 31
0.0
1001
REVIT
1002
{
1070
     2
1000
-2001350
1002
}
  0
LINE
  5
864
330
77B
100
AcDbEntity
  8
D35160210
100
AcDbLine
 10
1.784516500492472
 20
-1.408826751119324
 30
0.0
 11
1.807763420839549
 21
-1.414623726160204
 31
0.0
1001
REVIT
1002
{
1070
     2
1000
-2001350
1002
}
  0
LINE
  5
865
330
77B
100
AcDbEntity
  8
D35160210
100
AcDbLine
 10
1.708437496060945
 20
-1.396548297720538
 30
0.0
 11
1.732236278673177
 21
-1.399312745481708
 31
0.0
1001
REVIT
1002
{
1070
     2
1000
-2001350
1002
}
  0
LINE
  5
866
330
77B
100
AcDbEntity
  8
D35160210
100
AcDbLine
 10
1.732236278673177
 20
-1.399312745481708
 30
0.0
 11
1.755905476372337
 21
-1.403026679450647
 31
0.0
1001
REVIT
1002
{
1070
     2
1000
-2001350
1002
}
  0
LINE
  5
867
330
77B
100
AcDbEntity
  8
D35160210
100
AcDbLine
 10
1.755905476372337
 20
-1.403026679450647
 30
0.0
 11
1.761056358029921
 21
-1.403964041906728
 31
0.0
1001
REVIT
1002
{
1070
     2
1000
-2001350
1002
}
  0
LINE
  5
868
330
77B
100
AcDbEntity
  8
D35160210
100
AcDbLine
 10
1.761056358029943
 20
-1.403964041906728
 30
0.0
 11
1.784516500492472
 21
-1.408826751119324
 31
0.0
1001
REVIT
1002
{
1070
     2
1000
-2001350
1002
}
  0
LINE
  5
869
330
77B
100
AcDbEntity
  8
D35160210
100
AcDbLine
 10
1.807763420839549
 20
-1.414623726160204
 30
0.0
 11
1.830759928957711
 21
-1.421345693105926
 31
0.0
1001
REVIT
1002
{
1070
     2
1000
-2001350
1002
}
  0
LINE
  5
86A
330
77B
100
AcDbEntity
  8
D35160210
100
AcDbLine
 10
1.853469235339623
 20
-1.428981898243339
 30
0.0
 11
1.875855009939467
 21
-1.437520125273163
 31
0.0
1001
REVIT
1002
{
1070
     2
1000
-2001350
1002
}
  0
LINE
  5
86B
330
77B
100
AcDbEntity
  8
D35160210
100
AcDbLine
 10
1.830759928957711
 20
-1.421345693105926
 30
0.0
 11
1.853469235339623
 21
-1.428981898243339
 31
0.0
1001
REVIT
1002
{
1070
     2
1000
-2001350
1002
}
  0
LINE
  5
86C
330
77B
100
AcDbEntity
  8
D35160210
100
AcDbLine
 10
1.897881440293261
 20
-1.446946714853581
 30
0.0
 11
1.919513288811167
 21
-1.457246586452121
 31
0.0
1001
REVIT
1002
{
1070
     2
1000
-2001350
1002
}
  0
LINE
  5
86D
330
77B
100
AcDbEntity
  8
D35160210
100
AcDbLine
 10
1.875855009939467
 20
-1.437520125273163
 30
0.0
 11
1.897881440293261
 21
-1.446946714853581
 31
0.0
1001
REVIT
1002
{
1070
     2
1000
-2001350
1002
}
  0
LINE
  5
86E
330
77B
100
AcDbEntity
  8
D35160210
100
AcDbLine
 10
1.919513288811167
 20
-1.457246586452121
 30
0.0
 11
1.940715949150092
 21
-1.46840326247144
 31
0.0
1001
REVIT
1002
{
1070
     2
1000
-2001350
1002
}
  0
LINE
  5
86F
330
77B
100
AcDbEntity
  8
D35160210
100
AcDbLine
 10
1.940715949150092
 20
-1.46840326247144
 30
0.0
 11
1.961455501576498
 21
-1.480398894609873
 31
0.0
1001
REVIT
1002
{
1070
     2
1000
-2001350
1002
}
  0
LINE
  5
870
330
77B
100
AcDbEntity
  8
D35160210
100
AcDbLine
 10
1.961455501576498
 20
-1.480398894609873
 30
0.0
 11
1.981698767230703
 21
-1.493214292414908
 31
0.0
1001
REVIT
1002
{
1070
     2
1000
-2001350
1002
}
  0
LINE
  5
871
330
77B
100
AcDbEntity
  8
D35160210
100
AcDbLine
 10
1.496857048057073
 20
-1.445653469198823
 30
0.0
 11
1.496531800252522
 21
-1.444545534237619
 31
0.0
1001
REVIT
1002
{
1070
     2
1000
-2001350
1002
}
  0
LINE
  5
872
330
77B
100
AcDbEntity
  8
D35160210
100
AcDbLine
 10
1.981698767230703
 20
-1.493214292414908
 30
0.0
 11
1.986052772675613
 21
-1.49612167385019
 31
0.0
1001
REVIT
1002
{
1070
     2
1000
-2001350
1002
}
  0
LINE
  5
873
330
77B
100
AcDbEntity
  8
D35160210
100
AcDbLine
 10
1.497226341279485
 20
-1.446747511487096
 30
0.0
 11
1.496857048057073
 21
-1.445653469198823
 31
0.0
1001
REVIT
1002
{
1070
     2
1000
-2001350
1002
}
  0
LINE
  5
874
330
77B
100
AcDbEntity
  8
D35160210
100
AcDbLine
 10
1.496531800252522
 20
-1.444545534237619
 30
0.0
 11
1.496251118192944
 21
-1.443425479063048
 31
0.0
1001
REVIT
1002
{
1070
     2
1000
-2001350
1002
}
  0
LINE
  5
875
330
77B
100
AcDbEntity
  8
D35160210
100
AcDbLine
 10
1.496015450909751
 20
-1.442295095524467
 30
0.0
 11
1.495825175420339
 21
-1.441156191994412
 31
0.0
1001
REVIT
1002
{
1070
     2
1000
-2001350
1002
}
  0
LINE
  5
876
330
77B
100
AcDbEntity
  8
D35160210
100
AcDbLine
 10
1.496251118192944
 20
-1.443425479063048
 30
0.0
 11
1.496015450909751
 21
-1.442295095524467
 31
0.0
1001
REVIT
1002
{
1070
     2
1000
-2001350
1002
}
  0
LINE
  5
877
330
77B
100
AcDbEntity
  8
D35160210
100
AcDbLine
 10
1.495825175420339
 20
-1.441156191994412
 30
0.0
 11
1.495680596124891
 21
-1.44001059047558
 31
0.0
1001
REVIT
1002
{
1070
     2
1000
-2001350
1002
}
  0
LINE
  5
878
330
77B
100
AcDbEntity
  8
D35160210
100
AcDbLine
 10
1.495680596124891
 20
-1.44001059047558
 30
0.0
 11
1.495581944319446
 21
-1.438860123685991
 31
0.0
1001
REVIT
1002
{
1070
     2
1000
-2001350
1002
}
  0
LINE
  5
879
330
77B
100
AcDbEntity
  8
D35160210
100
AcDbLine
 10
1.495581944319446
 20
-1.438860123685991
 30
0.0
 11
1.495529377825835
 21
-1.437706632127124
 31
0.0
1001
REVIT
1002
{
1070
     2
1000
-2001350
1002
}
  0
LINE
  5
87A
330
77B
100
AcDbEntity
  8
D35160210
100
AcDbLine
 10
1.495562763293633
 20
-1.435397957950044
 30
0.0
 11
1.495648661845436
 21
-1.434246468718025
 31
0.0
1001
REVIT
1002
{
1070
     2
1000
-2001350
1002
}
  0
LINE
  5
87B
330
77B
100
AcDbEntity
  8
D35160210
100
AcDbLine
 10
1.495529377825835
 20
-1.437706632127124
 30
0.0
 11
1.495522980739241
 21
-1.436551961139382
 31
0.0
1001
REVIT
1002
{
1070
     2
1000
-2001350
1002
}
  0
LINE
  5
87C
330
77B
100
AcDbEntity
  8
D35160210
100
AcDbLine
 10
1.49578053897526
 20
-1.433099335580468
 30
0.0
 11
1.495958183707827
 21
-1.431958393705688
 31
0.0
1001
REVIT
1002
{
1070
     2
1000
-2001350
1002
}
  0
LINE
  5
87D
330
77B
100
AcDbEntity
  8
D35160210
100
AcDbLine
 10
1.495648661845436
 20
-1.434246468718025
 30
0.0
 11
1.49578053897526
 21
-1.433099335580468
 31
0.0
1001
REVIT
1002
{
1070
     2
1000
-2001350
1002
}
  0
LINE
  5
87E
330
77B
100
AcDbEntity
  8
D35160210
100
AcDbLine
 10
1.495522980739241
 20
-1.436551961139382
 30
0.0
 11
1.495562763293633
 21
-1.435397957950044
 31
0.0
1001
REVIT
1002
{
1070
     2
1000
-2001350
1002
}
  0
LINE
  5
87F
330
77B
100
AcDbEntity
  8
D35160210
100
AcDbLine
 10
1.495958183707827
 20
-1.431958393705688
 30
0.0
 11
1.496181311849497
 21
-1.430825468357283
 31
0.0
1001
REVIT
1002
{
1070
     2
1000
-2001350
1002
}
  0
LINE
  5
880
330
77B
100
AcDbEntity
  8
D35160210
100
AcDbLine
 10
1.496449566442798
 20
-1.429702371974148
 30
0.0
 11
1.496762518337639
 21
-1.428590901270908
 31
0.0
1001
REVIT
1002
{
1070
     2
1000
-2001350
1002
}
  0
LINE
  5
881
330
77B
100
AcDbEntity
  8
D35160210
100
AcDbLine
 10
1.496762518337639
 20
-1.428590901270908
 30
0.0
 11
1.497119666877725
 21
-1.427492834363597
 31
0.0
1001
REVIT
1002
{
1070
     2
1000
-2001350
1002
}
  0
LINE
  5
882
330
77B
100
AcDbEntity
  8
D35160210
100
AcDbLine
 10
1.496181311849497
 20
-1.430825468357283
 30
0.0
 11
1.496449566442798
 21
-1.429702371974148
 31
0.0
1001
REVIT
1002
{
1070
     2
1000
-2001350
1002
}
  0
LINE
  5
883
330
77B
100
AcDbEntity
  8
D35160210
100
AcDbLine
 10
1.497520440701592
 20
-1.426409927924996
 30
0.0
 11
1.497964198656624
 21
-1.425343914374422
 31
0.0
1001
REVIT
1002
{
1070
     2
1000
-2001350
1002
}
  0
LINE
  5
884
330
77B
100
AcDbEntity
  8
D35160210
100
AcDbLine
 10
1.497119666877725
 20
-1.427492834363597
 30
0.0
 11
1.497520440701592
 21
-1.426409927924996
 31
0.0
1001
REVIT
1002
{
1070
     2
1000
-2001350
1002
}
  0
LINE
  5
885
330
77B
100
AcDbEntity
  8
D35160210
100
AcDbLine
 10
1.497964198656624
 20
-1.425343914374422
 30
0.0
 11
1.498450230824726
 21
-1.424296499106155
 31
0.0
1001
REVIT
1002
{
1070
     2
1000
-2001350
1002
}
  0
LINE
  5
886
330
77B
100
AcDbEntity
  8
D35160210
100
AcDbLine
 10
1.498450230824726
 20
-1.424296499106155
 30
0.0
 11
1.498977759658142
 21
-1.423269357761185
 31
0.0
1001
REVIT
1002
{
1070
     2
1000
-2001350
1002
}
  0
LINE
  5
887
330
77B
100
AcDbEntity
  8
D35160210
100
AcDbLine
 10
1.498977759658142
 20
-1.423269357761185
 30
0.0
 11
1.499545941223256
 21
-1.422264133546533
 31
0.0
1001
REVIT
1002
{
1070
     2
1000
-2001350
1002
}
  0
LINE
  5
888
330
77B
100
AcDbEntity
  8
D35160210
100
AcDbLine
 10
1.499545941223256
 20
-1.422264133546533
 30
0.0
 11
1.500153866550775
 21
-1.421282434606528
 31
0.0
1001
REVIT
1002
{
1070
     2
1000
-2001350
1002
}
  0
LINE
  5
889
330
77B
100
AcDbEntity
  8
D35160210
100
AcDbLine
 10
1.500800563089857
 20
-1.420325831450053
 30
0.0
 11
1.501484996263993
 21
-1.419395854438078
 31
0.0
1001
REVIT
1002
{
1070
     2
1000
-2001350
1002
}
  0
LINE
  5
88A
330
77B
100
AcDbEntity
  8
D35160210
100
AcDbLine
 10
1.502962634110239
 20
-1.417621684930761
 30
0.0
 11
1.503753474877022
 21
-1.416780330728155
 31
0.0
1001
REVIT
1002
{
1070
     2
1000
-2001350
1002
}
  0
LINE
  5
88B
330
77B
100
AcDbEntity
  8
D35160210
100
AcDbLine
 10
1.500153866550775
 20
-1.421282434606528
 30
0.0
 11
1.500800563089857
 21
-1.420325831450053
 31
0.0
1001
REVIT
1002
{
1070
     2
1000
-2001350
1002
}
  0
LINE
  5
88C
330
77B
100
AcDbEntity
  8
D35160210
100
AcDbLine
 10
1.501484996263993
 20
-1.419395854438078
 30
0.0
 11
1.502206071126106
 21
-1.418493991335459
 31
0.0
1001
REVIT
1002
{
1070
     2
1000
-2001350
1002
}
  0
LINE
  5
88D
330
77B
100
AcDbEntity
  8
D35160210
100
AcDbLine
 10
1.502206071126106
 20
-1.418493991335459
 30
0.0
 11
1.502962634110239
 21
-1.417621684930761
 31
0.0
1001
REVIT
1002
{
1070
     2
1000
-2001350
1002
}
  0
LINE
  5
88E
330
77B
100
AcDbEntity
  8
D35160210
100
AcDbLine
 10
1.504577328249904
 20
-1.415971274714877
 30
0.0
 11
1.505432876239264
 21
-1.415195811207965
 31
0.0
1001
REVIT
1002
{
1070
     2
1000
-2001350
1002
}
  0
LINE
  5
88F
330
77B
100
AcDbEntity
  8
D35160210
100
AcDbLine
 10
1.503753474877022
 20
-1.416780330728155
 30
0.0
 11
1.504577328249904
 21
-1.415971274714877
 31
0.0
1001
REVIT
1002
{
1070
     2
1000
-2001350
1002
}
  0
LINE
  5
890
330
77B
100
AcDbEntity
  8
D35160210
100
AcDbLine
 10
1.506318750150814
 20
-1.414455180783605
 30
0.0
 11
1.507233532775259
 21
-1.413750568292478
 31
0.0
1001
REVIT
1002
{
1070
     2
1000
-2001350
1002
}
  0
LINE
  5
891
330
77B
100
AcDbEntity
  8
D35160210
100
AcDbLine
 10
1.505432876239264
 20
-1.415195811207965
 30
0.0
 11
1.506318750150814
 21
-1.414455180783605
 31
0.0
1001
REVIT
1002
{
1070
     2
1000
-2001350
1002
}
  0
LINE
  5
892
330
77B
100
AcDbEntity
  8
D35160210
100
AcDbLine
 10
1.507233532775259
 20
-1.413750568292478
 30
0.0
 11
1.508175760655575
 21
-1.413083100964275
 31
0.0
1001
REVIT
1002
{
1070
     2
1000
-2001350
1002
}
  0
LINE
  5
893
330
77B
100
AcDbEntity
  8
D35160210
100
AcDbLine
 10
1.508175760655575
 20
-1.413083100964275
 30
0.0
 11
1.509143926428109
 21
-1.412453846604328
 31
0.0
1001
REVIT
1002
{
1070
     2
1000
-2001350
1002
}
  0
LINE
  5
894
330
77B
100
AcDbEntity
  8
D35160210
100
AcDbLine
 10
1.509143926428109
 20
-1.412453846604328
 30
0.0
 11
1.510136481234198
 21
-1.411863811885378
 31
0.0
1001
REVIT
1002
{
1070
     2
1000
-2001350
1002
}
  0
LINE
  5
895
330
77B
100
AcDbEntity
  8
D35160210
100
AcDbLine
 10
1.512188369966157
 20
-1.410805112836054
 30
0.0
 11
1.513244421307774
 21
-1.410338142198312
 31
0.0
1001
REVIT
1002
{
1070
     2
1000
-2001350
1002
}
  0
LINE
  5
896
330
77B
100
AcDbEntity
  8
D35160210
100
AcDbLine
 10
1.510136481234198
 20
-1.411863811885378
 30
0.0
 11
1.511151837197857
 21
-1.411313940737105
 31
0.0
1001
REVIT
1002
{
1070
     2
1000
-2001350
1002
}
  0
LINE
  5
897
330
77B
100
AcDbEntity
  8
D35160210
100
AcDbLine
 10
1.511151837197857
 20
-1.411313940737105
 30
0.0
 11
1.512188369966157
 21
-1.410805112836054
 31
0.0
1001
REVIT
1002
{
1070
     2
1000
-2001350
1002
}
  0
LINE
  5
898
330
77B
100
AcDbEntity
  8
D35160210
100
AcDbLine
 10
1.515408293360728
 20
-1.4095326927686
 30
0.0
 11
1.51651265233837
 21
-1.409195502523871
 31
0.0
1001
REVIT
1002
{
1070
     2
1000
-2001350
1002
}
  0
LINE
  5
899
330
77B
100
AcDbEntity
  8
D35160210
100
AcDbLine
 10
1.513244421307774
 20
-1.410338142198312
 30
0.0
 11
1.514318301765857
 21
-1.409913775877295
 31
0.0
1001
REVIT
1002
{
1070
     2
1000
-2001350
1002
}
  0
LINE
  5
89A
330
77B
100
AcDbEntity
  8
D35160210
100
AcDbLine
 10
1.514318301765857
 20
-1.409913775877295
 30
0.0
 11
1.515408293360728
 21
-1.4095326927686
 31
0.0
1001
REVIT
1002
{
1070
     2
1000
-2001350
1002
}
  0
LINE
  5
89B
330
77B
100
AcDbEntity
  8
D35160210
100
AcDbLine
 10
1.51651265233837
 20
-1.409195502523871
 30
0.0
 11
1.517629611960007
 21
-1.408902744575609
 31
0.0
1001
REVIT
1002
{
1070
     2
1000
-2001350
1002
}
  0
LINE
  5
89C
330
77B
100
AcDbEntity
  8
D35160210
100
AcDbLine
 10
1.517629611960007
 20
-1.408902744575609
 30
0.0
 11
1.517966254375433
 21
-1.408823798493585
 31
0.0
1001
REVIT
1002
{
1070
     2
1000
-2001350
1002
}
  0
LINE
  5
89D
330
77B
100
AcDbEntity
  8
D35160210
100
AcDbLine
 10
1.986052772675613
 20
-1.49612167385019
 30
0.0
 11
1.986997141593707
 21
-1.49678610846637
 31
0.0
1001
REVIT
1002
{
1070
     2
1000
-2001350
1002
}
  0
LINE
  5
89E
330
77B
100
AcDbEntity
  8
D35160210
100
AcDbLine
 10
1.986997141593707
 20
-1.49678610846637
 30
0.0
 11
1.98791418481948
 21
-1.497487776289989
 31
0.0
1001
REVIT
1002
{
1070
     2
1000
-2001350
1002
}
  0
LINE
  5
89F
330
77B
100
AcDbEntity
  8
D35160210
100
AcDbLine
 10
1.98791418481948
 20
-1.497487776289989
 30
0.0
 11
1.988802435279406
 21
-1.498225554802214
 31
0.0
1001
REVIT
1002
{
1070
     2
1000
-2001350
1002
}
  0
LINE
  5
8A0
330
77B
100
AcDbEntity
  8
D35160210
100
AcDbLine
 10
1.990486922192264
 20
-1.499804666858338
 30
0.0
 11
1.991280463825489
 21
-1.500643474159801
 31
0.0
1001
REVIT
1002
{
1070
     2
1000
-2001350
1002
}
  0
LINE
  5
8A1
330
77B
100
AcDbEntity
  8
D35160210
100
AcDbLine
 10
1.98966047196221
 20
-1.498998263714802
 30
0.0
 11
1.990486922192264
 21
-1.499804666858338
 31
0.0
1001
REVIT
1002
{
1070
     2
1000
-2001350
1002
}
  0
LINE
  5
8A2
330
77B
100
AcDbEntity
  8
D35160210
100
AcDbLine
 10
1.988802435279406
 20
-1.498225554802214
 30
0.0
 11
1.98966047196221
 21
-1.498998263714802
 31
0.0
1001
REVIT
1002
{
1070
     2
1000
-2001350
1002
}
  0
LINE
  5
8A3
330
77B
100
AcDbEntity
  8
D35160210
100
AcDbLine
 10
1.991280463825489
 20
-1.500643474159801
 30
0.0
 11
1.992039827364546
 21
-1.501513343706445
 31
0.0
1001
REVIT
1002
{
1070
     2
1000
-2001350
1002
}
  0
LINE
  5
8A4
330
77B
100
AcDbEntity
  8
D35160210
100
AcDbLine
 10
1.992039827364546
 20
-1.501513343706445
 30
0.0
 11
1.992763797989766
 21
-1.502412883892581
 31
0.0
1001
REVIT
1002
{
1070
     2
1000
-2001350
1002
}
  0
LINE
  5
8A5
330
77B
100
AcDbEntity
  8
D35160210
100
AcDbLine
 10
1.993451217502588
 20
-1.503340655645775
 30
0.0
 11
1.994100986178434
 21
-1.504295174729154
 31
0.0
1001
REVIT
1002
{
1070
     2
1000
-2001350
1002
}
  0
LINE
  5
8A6
330
77B
100
AcDbEntity
  8
D35160210
100
AcDbLine
 10
1.994100986178434
 20
-1.504295174729154
 30
0.0
 11
1.994712064526037
 21
-1.505274914115797
 31
0.0
1001
REVIT
1002
{
1070
     2
1000
-2001350
1002
}
  0
LINE
  5
8A7
330
77B
100
AcDbEntity
  8
D35160210
100
AcDbLine
 10
1.992763797989766
 20
-1.502412883892581
 30
0.0
 11
1.993451217502588
 21
-1.503340655645775
 31
0.0
1001
REVIT
1002
{
1070
     2
1000
-2001350
1002
}
  0
LINE
  5
8A8
330
77B
100
AcDbEntity
  8
D35160210
100
AcDbLine
 10
1.994712064526037
 20
-1.505274914115797
 30
0.0
 11
1.99528347495039
 21
-1.506278306431688
 31
0.0
1001
REVIT
1002
{
1070
     2
1000
-2001350
1002
}
  0
LINE
  5
8A9
330
77B
100
AcDbEntity
  8
D35160210
100
AcDbLine
 10
1.99528347495039
 20
-1.506278306431688
 30
0.0
 11
1.995814303316698
 21
-1.507303746463168
 31
0.0
1001
REVIT
1002
{
1070
     2
1000
-2001350
1002
}
  0
LINE
  5
8AA
330
77B
100
AcDbEntity
  8
D35160210
100
AcDbLine
 10
1.995814303316698
 20
-1.507303746463168
 30
0.0
 11
1.996303700412837
 21
-1.508349593724932
 31
0.0
1001
REVIT
1002
{
1070
     2
1000
-2001350
1002
}
  0
LINE
  5
8AB
330
77B
100
AcDbEntity
  8
D35160210
100
AcDbLine
 10
1.996750883307839
 20
-1.509414175084469
 30
0.0
 11
1.997155136604458
 21
-1.510495787438688
 31
0.0
1001
REVIT
1002
{
1070
     2
1000
-2001350
1002
}
  0
LINE
  5
8AC
330
77B
100
AcDbEntity
  8
D35160210
100
AcDbLine
 10
1.996303700412837
 20
-1.508349593724932
 30
0.0
 11
1.996750883307839
 21
-1.509414175084469
 31
0.0
1001
REVIT
1002
{
1070
     2
1000
-2001350
1002
}
  0
LINE
  5
8AD
330
77B
100
AcDbEntity
  8
D35160210
100
AcDbLine
 10
1.997155136604458
 20
-1.510495787438688
 30
0.0
 11
1.997515813583674
 21
-1.511592700438576
 31
0.0
1001
REVIT
1002
{
1070
     2
1000
-2001350
1002
}
  0
LINE
  5
8AE
330
77B
100
AcDbEntity
  8
D35160210
100
AcDbLine
 10
1.997832337239248
 20
-1.512703159257309
 30
0.0
 11
1.998104201200852
 21
-1.513825387397677
 31
0.0
1001
REVIT
1002
{
1070
     2
1000
-2001350
1002
}
  0
LINE
  5
8AF
330
77B
100
AcDbEntity
  8
D35160210
100
AcDbLine
 10
1.997515813583674
 20
-1.511592700438576
 30
0.0
 11
1.997832337239248
 21
-1.512703159257309
 31
0.0
1001
REVIT
1002
{
1070
     2
1000
-2001350
1002
}
  0
LINE
  5
8B0
330
77B
100
AcDbEntity
  8
D35160210
100
AcDbLine
 10
1.998330970544145
 20
-1.514957589534031
 30
0.0
 11
1.998512282486554
 21
-1.516097954384505
 31
0.0
1001
REVIT
1002
{
1070
     2
1000
-2001350
1002
}
  0
LINE
  5
8B1
330
77B
100
AcDbEntity
  8
D35160210
100
AcDbLine
 10
1.998104201200852
 20
-1.513825387397677
 30
0.0
 11
1.998330970544145
 21
-1.514957589534031
 31
0.0
1001
REVIT
1002
{
1070
     2
1000
-2001350
1002
}
  0
LINE
  5
8B2
330
77B
100
AcDbEntity
  8
D35160210
100
AcDbLine
 10
1.998512282486554
 20
-1.516097954384505
 30
0.0
 11
1.998647846967656
 21
-1.517244657608582
 31
0.0
1001
REVIT
1002
{
1070
     2
1000
-2001350
1002
}
  0
LINE
  5
8B3
330
77B
100
AcDbEntity
  8
D35160210
100
AcDbLine
 10
1.998647846967656
 20
-1.517244657608582
 30
0.0
 11
1.998737447113178
 21
-1.518395864725725
 31
0.0
1001
REVIT
1002
{
1070
     2
1000
-2001350
1002
}
  0
LINE
  5
8B4
330
77B
100
AcDbEntity
  8
D35160210
100
AcDbLine
 10
1.998737447113178
 20
-1.518395864725725
 30
0.0
 11
1.998780939582026
 21
-1.519549734050123
 31
0.0
1001
REVIT
1002
{
1070
     2
1000
-2001350
1002
}
  0
LINE
  5
8B5
330
77B
100
AcDbEntity
  8
D35160210
100
AcDbLine
 10
1.998780939582026
 20
-1.519549734050123
 30
0.0
 11
1.998778254795521
 21
-1.520704419637013
 31
0.0
1001
REVIT
1002
{
1070
     2
1000
-2001350
1002
}
  0
LINE
  5
8B6
330
77B
100
AcDbEntity
  8
D35160210
100
AcDbLine
 10
1.998778254795521
 20
-1.520704419637013
 30
0.0
 11
1.998729397048734
 21
-1.521858074235765
 31
0.0
1001
REVIT
1002
{
1070
     2
1000
-2001350
1002
}
  0
LINE
  5
8B7
330
77B
100
AcDbEntity
  8
D35160210
100
AcDbLine
 10
1.998729397048734
 20
-1.521858074235765
 30
0.0
 11
1.998634444503643
 21
-1.52300885224513
 31
0.0
1001
REVIT
1002
{
1070
     2
1000
-2001350
1002
}
  0
LINE
  5
8B8
330
77B
100
AcDbEntity
  8
D35160210
100
AcDbLine
 10
1.998634444503643
 20
-1.52300885224513
 30
0.0
 11
1.998493549064082
 21
-1.524154912665764
 31
0.0
1001
REVIT
1002
{
1070
     2
1000
-2001350
1002
}
  0
LINE
  5
8B9
330
77B
100
AcDbEntity
  8
D35160210
100
AcDbLine
 10
1.998493549064082
 20
-1.524154912665764
 30
0.0
 11
1.998306936132681
 21
-1.525294422045494
 31
0.0
1001
REVIT
1002
{
1070
     2
1000
-2001350
1002
}
  0
LINE
  5
8BA
330
77B
100
AcDbEntity
  8
D35160210
100
AcDbLine
 10
1.998306936132681
 20
-1.525294422045494
 30
0.0
 11
1.998074904250323
 21
-1.52642555741237
 31
0.0
1001
REVIT
1002
{
1070
     2
1000
-2001350
1002
}
  0
LINE
  5
8BB
330
77B
100
AcDbEntity
  8
D35160210
100
AcDbLine
 10
1.998074904250323
 20
-1.52642555741237
 30
0.0
 11
1.997797824618529
 21
-1.527546509191129
 31
0.0
1001
REVIT
1002
{
1070
     2
1000
-2001350
1002
}
  0
LINE
  5
8BC
330
77B
100
AcDbEntity
  8
D35160210
100
AcDbLine
 10
1.997797824618529
 20
-1.527546509191129
 30
0.0
 11
1.997476140505593
 21
-1.528655484098031
 31
0.0
1001
REVIT
1002
{
1070
     2
1000
-2001350
1002
}
  0
LINE
  5
8BD
330
77B
100
AcDbEntity
  8
D35160210
100
AcDbLine
 10
1.997476140505593
 20
-1.528655484098031
 30
0.0
 11
1.997110366537487
 21
-1.529750708009785
 31
0.0
1001
REVIT
1002
{
1070
     2
1000
-2001350
1002
}
  0
LINE
  5
8BE
330
77B
100
AcDbEntity
  8
D35160210
100
AcDbLine
 10
1.997110366537487
 20
-1.529750708009785
 30
0.0
 11
1.996701087874526
 21
-1.530830428801792
 31
0.0
1001
REVIT
1002
{
1070
     2
1000
-2001350
1002
}
  0
LINE
  5
8BF
330
77B
100
AcDbEntity
  8
D35160210
100
AcDbLine
 10
1.996701087874526
 20
-1.530830428801792
 30
0.0
 11
1.996248959275263
 21
-1.531892919151104
 31
0.0
1001
REVIT
1002
{
1070
     2
1000
-2001350
1002
}
  0
LINE
  5
8C0
330
77B
100
AcDbEntity
  8
D35160210
100
AcDbLine
 10
1.996248959275263
 20
-1.531892919151104
 30
0.0
 11
1.995754704049001
 21
-1.532936479299799
 31
0.0
1001
REVIT
1002
{
1070
     2
1000
-2001350
1002
}
  0
LINE
  5
8C1
330
77B
100
AcDbEntity
  8
D35160210
100
AcDbLine
 10
1.995754704049001
 20
-1.532936479299799
 30
0.0
 11
1.99521911289867
 21
-1.533959439774281
 31
0.0
1001
REVIT
1002
{
1070
     2
1000
-2001350
1002
}
  0
LINE
  5
8C2
330
77B
100
AcDbEntity
  8
D35160210
100
AcDbLine
 10
1.99521911289867
 20
-1.533959439774281
 30
0.0
 11
1.994643042655855
 21
-1.534960164055984
 31
0.0
1001
REVIT
1002
{
1070
     2
1000
-2001350
1002
}
  0
LINE
  5
8C3
330
77B
100
AcDbEntity
  8
D35160210
100
AcDbLine
 10
1.994643042655855
 20
-1.534960164055984
 30
0.0
 11
1.994027414910071
 21
-1.535937051199546
 31
0.0
1001
REVIT
1002
{
1070
     2
1000
-2001350
1002
}
  0
LINE
  5
8C4
330
77B
100
AcDbEntity
  8
D35160210
100
AcDbLine
 10
1.994027414910071
 20
-1.535937051199546
 30
0.0
 11
1.993373214534365
 21
-1.536888538393924
 31
0.0
1001
REVIT
1002
{
1070
     2
1000
-2001350
1002
}
  0
LINE
  5
8C5
330
77B
100
AcDbEntity
  8
D35160210
100
AcDbLine
 10
1.993373214534365
 20
-1.536888538393924
 30
0.0
 11
1.992681488109809
 21
-1.537813103462599
 31
0.0
1001
REVIT
1002
{
1070
     2
1000
-2001350
1002
}
  0
LINE
  5
8C6
330
77B
100
AcDbEntity
  8
D35160210
100
AcDbLine
 10
1.992681488109809
 20
-1.537813103462599
 30
0.0
 11
1.991953342251086
 21
-1.538709267298667
 31
0.0
1001
REVIT
1002
{
1070
     2
1000
-2001350
1002
}
  0
LINE
  5
8C7
330
77B
100
AcDbEntity
  8
D35160210
100
AcDbLine
 10
1.991953342251086
 20
-1.538709267298667
 30
0.0
 11
1.991728396668701
 21
-1.538971869820922
 31
0.0
1001
REVIT
1002
{
1070
     2
1000
-2001350
1002
}
  0
LINE
  5
8C8
330
77B
100
AcDbEntity
  8
D35160210
100
AcDbLine
 10
1.949893588652763
 20
-1.587222147348899
 30
0.0
 11
1.991728396668701
 21
-1.538971869820922
 31
0.0
1001
REVIT
1002
{
1070
     2
1000
-2001350
1002
}
  0
LINE
  5
8C9
330
77B
100
AcDbEntity
  8
D35160210
100
AcDbLine
 10
1.497226341279485
 20
-1.446747511487096
 30
0.0
 11
1.518856411350689
 21
-1.506833953485027
 31
0.0
1001
REVIT
1002
{
1070
     2
1000
-2001350
1002
}
  0
LINE
  5
8CA
330
77B
100
AcDbEntity
  8
D35160210
100
AcDbLine
 10
-0.2192346402413451
 20
0.3197321263802571
 30
0.0
 11
-0.2192346402413441
 21
0.9270506527354012
 31
0.0
1001
REVIT
1002
{
1070
     2
1000
-2001350
1002
}
  0
LINE
  5
8CB
330
77B
100
AcDbEntity
  8
D35160210
100
AcDbLine
 10
-0.219234640241348
 20
-1.485162002130452
 30
0.0
 11
-0.2192346402413461
 21
-0.3242483951521213
 31
0.0
1001
REVIT
1002
{
1070
     2
1000
-2001350
1002
}
  0
LINE
  5
8CC
330
77B
100
AcDbEntity
  8
D35160210
100
AcDbLine
 10
-0.1096173201200446
 20
0.3197321263802546
 30
0.0
 11
-0.1096173201200436
 21
0.9270506527354021
 31
0.0
1001
REVIT
1002
{
1070
     2
1000
-2001350
1002
}
  0
ARC
  5
8CD
330
77B
100
AcDbEntity
  8
D35160210
100
AcDbCircle
 10
-0.8516739966790845
 20
-1.485162002130456
 30
0.0
 40
0.7420566765590367
100
AcDbArc
 50
220.9243799657512
 51
0.0000000000003181
1001
REVIT
1002
{
1070
     2
1000
-2001350
1002
}
  0
ARC
  5
8CE
330
77B
100
AcDbEntity
  8
D35160210
100
AcDbCircle
 10
-0.7006654647440666
 20
-1.354241796945435
 30
0.0
 40
0.9419158190640962
100
AcDbArc
 50
190.5642645892007
 51
220.9243799657512
1001
REVIT
1002
{
1070
     2
1000
-2001350
1002
}
  0
ARC
  5
8CF
330
77B
100
AcDbEntity
  8
D35160210
100
AcDbCircle
 10
0.8516739966815507
 20
-1.485162002130456
 30
0.0
 40
0.9612913168016376
100
AcDbArc
 50
207.6290361986701
 51
319.0756200342481
1001
REVIT
1002
{
1070
     2
1000
-2001350
1002
}
  0
ARC
  5
8D0
330
77B
100
AcDbEntity
  8
D35160210
100
AcDbCircle
 10
0.7006654647465326
 20
-1.354241796945435
 30
0.0
 40
1.161150459306695
100
AcDbArc
 50
319.075620034248
 51
349.4357354107985
1001
REVIT
1002
{
1070
     2
1000
-2001350
1002
}
  0
LINE
  5
8D1
330
77B
100
AcDbEntity
  8
D35160210
100
AcDbLine
 10
-0.1096173201200475
 20
-1.485162002130452
 30
0.0
 11
-0.1096173201200456
 21
-0.3242483951521236
 31
0.0
1001
REVIT
1002
{
1070
     2
1000
-2001350
1002
}
  0
LINE
  5
8D2
330
77B
100
AcDbEntity
  8
D35160210
100
AcDbLine
 10
0.1096173201225539
 20
-1.485162002130452
 30
0.0
 11
0.1096173201225558
 21
-0.3242483951521238
 31
0.0
1001
REVIT
1002
{
1070
     2
1000
-2001350
1002
}
  0
LINE
  5
8D3
330
77B
100
AcDbEntity
  8
D35160210
100
AcDbLine
 10
0.1096173201225568
 20
0.3197321263802546
 30
0.0
 11
0.1096173201225578
 21
0.9270506527354019
 31
0.0
1001
REVIT
1002
{
1070
     2
1000
-2001350
1002
}
  0
LINE
  5
8D4
330
77B
100
AcDbEntity
  8
D35160210
100
AcDbLine
 10
0.219234640243855
 20
-1.485162002130452
 30
0.0
 11
0.2192346402438569
 21
-0.3242483951521213
 31
0.0
1001
REVIT
1002
{
1070
     2
1000
-2001350
1002
}
  0
LINE
  5
8D5
330
77B
100
AcDbEntity
  8
D35160210
100
AcDbLine
 10
0.2192346402438579
 20
0.3197321263802573
 30
0.0
 11
0.2192346402438589
 21
0.9270506527354012
 31
0.0
1001
REVIT
1002
{
1070
     2
1000
-2001350
1002
}
  0
LINE
  5
8D6
330
77B
100
AcDbEntity
  8
D35160210
100
AcDbLine
 10
0.3247595264204073
 20
-0.3242483951521238
 30
0.0
 11
-0.3247595264178877
 21
-0.3242483951521238
 31
0.0
1001
REVIT
1002
{
1070
     2
1000
-2001350
1002
}
  0
LINE
  5
8D7
330
77B
100
AcDbEntity
  8
D35160210
100
AcDbLine
 10
-0.3247595264178877
 20
0.3197321263802546
 30
0.0
 11
0.3247595264204073
 21
0.3197321263802546
 31
0.0
1001
REVIT
1002
{
1070
     2
1000
-2001350
1002
}
  0
LINE
  5
8D8
330
77B
100
AcDbEntity
  8
D35160210
100
AcDbLine
 10
-0.3247595264178877
 20
-0.3242483951521238
 30
0.0
 11
-0.3247595264178877
 21
0.3197321263802546
 31
0.0
1001
REVIT
1002
{
1070
     2
1000
-2001350
1002
}
  0
LINE
  5
8D9
330
77B
100
AcDbEntity
  8
D35160210
100
AcDbLine
 10
0.3247595264204073
 20
0.3197321263802546
 30
0.0
 11
0.3247595264204073
 21
-0.3242483951521238
 31
0.0
1001
REVIT
1002
{
1070
     2
1000
-2001350
1002
}
  0
LINE
  5
8DA
330
77B
100
AcDbEntity
  8
D35160210
100
AcDbLine
 10
0.0000000000012614
 20
0.3197321263802519
 30
0.0
 11
0.0000000000012614
 21
-0.3242483951521264
 31
0.0
1001
REVIT
1002
{
1070
     2
1000
-2001350
1002
}
  0
LINE
  5
8DB
330
77B
100
AcDbEntity
  8
D35160210
100
AcDbLine
 10
0.2192346402438589
 20
0.9270506527354012
 30
0.0
 11
-0.2192346402413441
 21
0.9270506527354012
 31
0.0
1001
REVIT
1002
{
1070
     2
1000
-2001350
1002
}
  0
ARC
  5
8DC
330
77B
100
AcDbEntity
  8
D35160210
100
AcDbCircle
 10
0.0000000000005096
 20
3.212608351187627
 30
0.0
 40
2.577319115140644
100
AcDbArc
 50
274.8919047624069
 51
278.5535738499508
1001
REVIT
1002
{
1070
     2
1000
-2001350
1002
}
  0
ARC
  5
8DD
330
77B
100
AcDbEntity
  8
D35160210
100
AcDbCircle
 10
0.0000000000005096
 20
3.212608351187627
 30
0.0
 40
2.577319115140645
100
AcDbArc
 50
261.4464415835946
 51
265.1080952786919
1001
REVIT
1002
{
1070
     2
1000
-2001350
1002
}
  0
SPLINE
  5
8DE
330
77B
100
AcDbEntity
  8
D35160210
100
AcDbSpline
210
0.0
220
0.0
230
1.0
 70
     8
 71
     3
 72
     9
 73
     5
 74
     0
 42
0.000000001
 43
0.0000000001
 40
0.0
 40
0.0
 40
0.0
 40
0.0
 40
0.3333333333333333
 40
0.6248215550731276
 40
0.6248215550731276
 40
0.6248215550731276
 40
0.6248215550731276
 10
-0.3833345933238822
 20
0.6639560777634582
 30
0.0
 10
-0.3462137081591925
 20
0.5979476351513301
 30
0.0
 10
-0.2814059075564298
 20
0.488166900180214
 30
0.0
 10
-0.2351614743175059
 20
0.4073217387783016
 30
0.0
 10
-0.2175260356289098
 20
0.3767600911604632
 30
0.0
1001
REVIT
1002
{
1070
     2
1000
-2001350
1002
}
  0
ARC
  5
8DF
330
77B
100
AcDbEntity
  8
D35160210
100
AcDbCircle
 10
2.782200444542562
 20
1.606304175592416
 30
0.0
 40
2.577319115140649
100
AcDbArc
 50
201.4464261500689
 51
218.5535738498693
1001
REVIT
1002
{
1070
     2
1000
-2001350
1002
}
  0
SPLINE
  5
8E0
330
77B
100
AcDbEntity
  8
D35160210
100
AcDbSpline
210
0.0
220
0.0
230
1.0
 70
     8
 71
     3
 72
     9
 73
     5
 74
     0
 42
0.000000001
 43
0.0000000001
 40
-0.6248071577347596
 40
-0.6248071577347596
 40
-0.6248071577347596
 40
-0.6248071577347596
 40
-0.3333333333333333
 40
0.0
 40
0.0
 40
0.0
 40
0.0
 10
0.2175169050694698
 20
0.3767611247058689
 30
0.0
 10
0.2351355094970415
 20
0.4072486799642469
 30
0.0
 10
0.281891586024097
 20
0.48747530785638
 30
0.0
 10
0.3445956658487054
 20
0.5986538548882057
 30
0.0
 10
0.3833352798456286
 20
0.6639561810209315
 30
0.0
1001
REVIT
1002
{
1070
     2
1000
-2001350
1002
}
  0
SPLINE
  5
8E1
330
77B
100
AcDbEntity
  8
D35160210
100
AcDbSpline
210
0.0
220
0.0
230
1.0
 70
     8
 71
     3
 72
     8
 73
     4
 74
     0
 42
0.000000001
 43
0.0000000001
 40
-0.2155610142154922
 40
-0.2155610142154922
 40
-0.2155610142154922
 40
-0.2155610142154922
 40
0.0
 40
0.0
 40
0.0
 40
0.0
 10
0.3234044524494923
 20
0.0000215982329235
 30
0.0
 10
0.328849026221628
 20
0.0000220501387467
 30
0.0
 10
0.3346357048888721
 20
0.0000165144048115
 30
0.0
 10
0.340762538641624
 20
-0.0000000000010701
 30
0.0
1001
REVIT
1002
{
1070
     2
1000
-2001350
1002
}
  0
ARC
  5
8E2
330
77B
100
AcDbEntity
  8
D35160210
100
AcDbCircle
 10
2.782200444544885
 20
-1.606304175590998
 30
0.0
 40
2.577319115140647
100
AcDbArc
 50
141.4464261502139
 51
158.5535738500823
1001
REVIT
1002
{
1070
     2
1000
-2001350
1002
}
  0
SPLINE
  5
8E3
330
77B
100
AcDbEntity
  8
D35160210
100
AcDbSpline
210
0.0
220
0.0
230
1.0
 70
     8
 71
     3
 72
    10
 73
     6
 74
     0
 42
0.000000001
 43
0.0000000001
 40
-1.0
 40
-1.0
 40
-1.0
 40
-1.0
 40
-0.6666666666666666
 40
-0.3333333333333333
 40
0.0
 40
0.0
 40
0.0
 40
0.0
 10
0.3407625386416257
 20
-0.0000000000010708
 30
0.0
 10
0.3558884558593269
 20
-0.0004091602581752
 30
0.0
 10
0.4096739946413302
 20
0.0003107183573584
 30
0.0
 10
0.554560740902317
 20
-0.000473773869487
 30
0.0
 10
0.6907472793326082
 20
0.0008983267869842
 30
0.0
 10
0.7666705596881407
 20
-0.0000000000007481
 30
0.0
1001
REVIT
1002
{
1070
     2
1000
-2001350
1002
}
  0
ARC
  5
8E4
330
77B
100
AcDbEntity
  8
D35160210
100
AcDbCircle
 10
-0.0000000000000074
 20
-3.21260835119246
 30
0.0
 40
2.577319115140646
100
AcDbArc
 50
94.8919047746647
 51
98.55357384988742
1001
REVIT
1002
{
1070
     2
1000
-2001350
1002
}
  0
ARC
  5
8E5
330
77B
100
AcDbEntity
  8
D35160210
100
AcDbCircle
 10
-0.0000000000000074
 20
-3.21260835119246
 30
0.0
 40
2.577319115140646
100
AcDbArc
 50
81.44642615004116
 51
85.10809522527955
1001
REVIT
1002
{
1070
     2
1000
-2001350
1002
}
  0
SPLINE
  5
8E6
330
77B
100
AcDbEntity
  8
D35160210
100
AcDbSpline
210
0.0
220
0.0
230
1.0
 70
     8
 71
     3
 72
     9
 73
     5
 74
     0
 42
0.000000001
 43
0.0000000001
 40
-0.6248071577318133
 40
-0.6248071577318133
 40
-0.6248071577318133
 40
-0.6248071577318133
 40
-0.3333333333333333
 40
0.0
 40
0.0
 40
0.0
 40
0.0
 10
0.2175262526235341
 20
-0.3767557278987037
 30
0.0
 10
0.2351199477627315
 20
-0.407257664541249
 30
0.0
 10
0.2812202073137419
 20
-0.4878629285408337
 30
0.0
 10
0.3461516134866942
 20
-0.5977555281053081
 30
0.0
 10
0.3833352798454806
 20
-0.6639561810258323
 30
0.0
1001
REVIT
1002
{
1070
     2
1000
-2001350
1002
}
  0
ARC
  5
8E7
330
77B
100
AcDbEntity
  8
D35160210
100
AcDbCircle
 10
-2.78220044454078
 20
-1.60630417559284
 30
0.0
 40
2.577319115140652
100
AcDbArc
 50
21.44642614997412
 51
38.55355841631497
1001
REVIT
1002
{
1070
     2
1000
-2001350
1002
}
  0
SPLINE
  5
8E8
330
77B
100
AcDbEntity
  8
D35160210
100
AcDbSpline
210
0.0
220
0.0
230
1.0
 70
     8
 71
     3
 72
     9
 73
     5
 74
     0
 42
0.000000001
 43
0.0000000001
 40
-0.6248071577290516
 40
-0.6248071577290516
 40
-0.6248071577290516
 40
-0.6248071577290516
 40
-0.3333333333333333
 40
0.0
 40
0.0
 40
0.0
 40
0.0
 10
-0.2175169050667308
 20
-0.3767611247122445
 30
0.0
 10
-0.2351355094941678
 20
-0.4072486799702789
 30
0.0
 10
-0.2818915860210632
 20
-0.4874753078619136
 30
0.0
 10
-0.3445956658452646
 20
-0.5986538548926579
 30
0.0
 10
-0.3833352798422859
 20
-0.6639561810253423
 30
0.0
1001
REVIT
1002
{
1070
     2
1000
-2001350
1002
}
  0
SPLINE
  5
8E9
330
77B
100
AcDbEntity
  8
D35160210
100
AcDbSpline
210
0.0
220
0.0
230
1.0
 70
     8
 71
     3
 72
     8
 73
     4
 74
     0
 42
0.000000001
 43
0.0000000001
 40
-0.215507773910239
 40
-0.215507773910239
 40
-0.215507773910239
 40
-0.215507773910239
 40
0.0
 40
0.0
 40
0.0
 40
0.0
 10
-0.3234045391025559
 20
-0.0000277344932054
 30
0.0
 10
-0.3288479391728305
 20
-0.0000281418484082
 30
0.0
 10
-0.3346332734079904
 20
-0.0000225588147331
 30
0.0
 10
-0.3407585930699593
 20
-0.0000059969268561
 30
0.0
1001
REVIT
1002
{
1070
     2
1000
-2001350
1002
}
  0
ARC
  5
8EA
330
77B
100
AcDbEntity
  8
D35160210
100
AcDbCircle
 10
-2.781656839386301
 20
1.605990325008433
 30
0.0
 40
2.576699074191684
100
AcDbArc
 50
321.4443613524426
 51
338.555653271092
1001
REVIT
1002
{
1070
     2
1000
-2001350
1002
}
  0
SPLINE
  5
8EB
330
77B
100
AcDbEntity
  8
D35160210
100
AcDbSpline
210
0.0
220
0.0
230
1.0
 70
     8
 71
     3
 72
    10
 73
     6
 74
     0
 42
0.000000001
 43
0.0000000001
 40
-1.0
 40
-1.0
 40
-1.0
 40
-1.0
 40
-0.6666666666666666
 40
-0.3333333333333333
 40
0.0
 40
0.0
 40
0.0
 40
0.0
 10
-0.3407585930699633
 20
-0.0000059969268534
 30
0.0
 10
-0.3558573100743993
 20
0.0004229976959313
 30
0.0
 10
-0.4095509843914116
 20
-0.0003199985656493
 30
0.0
 10
-0.5549305462368402
 20
0.000453714615612
 30
0.0
 10
-0.6909448464371508
 20
-0.0008600399455677
 30
0.0
 10
-0.7666701270021394
 20
-0.0000005429156468
 30
0.0
1001
REVIT
1002
{
1070
     2
1000
-2001350
1002
}
  0
ARC
  5
8EC
330
77B
100
AcDbEntity
  8
D35160210
100
AcDbCircle
 10
0.000000000001233
 20
-0.0000000000016594
 30
0.0
 40
1.00000000000049
100
AcDbArc
 50
103.7130537629167
 51
257.8310078088705
1001
REVIT
1002
{
1070
     2
1000
-2001350
1002
}
  0
ARC
  5
8ED
330
77B
100
AcDbEntity
  8
D35160210
100
AcDbCircle
 10
0.000000000001233
 20
-0.0000000000016594
 30
0.0
 40
1.00000000000049
100
AcDbArc
 50
282.7313023192289
 51
76.59383988968733
1001
REVIT
1002
{
1070
     2
1000
-2001350
1002
}
  0
ARC
  5
8EE
330
77B
100
AcDbEntity
  8
D35160210
100
AcDbCircle
 10
0.0000000000012368
 20
-0.0000000000016643
 30
0.0
 40
0.8092255231803118
100
AcDbArc
 50
105.7525496139301
 51
254.3932610380855
1001
REVIT
1002
{
1070
     2
1000
-2001350
1002
}
  0
ARC
  5
8EF
330
77B
100
AcDbEntity
  8
D35160210
100
AcDbCircle
 10
0.0000000000012368
 20
-0.0000000000016643
 30
0.0
 40
0.8092255231803118
100
AcDbArc
 50
285.7525496139322
 51
73.15609311890232
1001
REVIT
1002
{
1070
     2
1000
-2001350
1002
}
  0
ARC
  5
8F0
330
77B
100
AcDbEntity
  8
D35160210
100
AcDbCircle
 10
-0.8516739966790845
 20
-1.485162002130456
 30
0.0
 40
0.6324393564377361
100
AcDbArc
 50
220.9243799657508
 51
359.9999999999996
1001
REVIT
1002
{
1070
     2
1000
-2001350
1002
}
  0
SPLINE
  5
8F1
330
77B
100
AcDbEntity
  8
D35160210
100
AcDbSpline
210
0.0
220
0.0
230
1.0
 70
     8
 71
     3
 72
     9
 73
     5
 74
     0
 42
0.000000001
 43
0.0000000001
 40
0.0
 40
0.0
 40
0.0
 40
0.0
 40
0.5
 40
1.0
 40
1.0
 40
1.0
 40
1.0
 10
0.000000000001233
 20
-2.134389783432768
 30
0.0
 10
-0.0003518688429311
 20
-2.102587026598393
 30
0.0
 10
-0.0000009765128229
 20
-2.036821001075027
 30
0.0
 10
0.0003538218735083
 20
-1.966893302094092
 30
0.0
 10
0.0000000000012328
 20
-1.930956124048638
 30
0.0
1001
REVIT
1002
{
1070
     2
1000
-2001350
1002
}
  0
ARC
  5
8F2
330
77B
100
AcDbEntity
  8
D35160210
100
AcDbCircle
 10
-0.8516739966790845
 20
-1.485162002130456
 30
0.0
 40
0.9612913168016374
100
AcDbArc
 50
220.9243799657508
 51
332.3709638013288
1001
REVIT
1002
{
1070
     2
1000
-2001350
1002
}
  0
ARC
  5
8F3
330
77B
100
AcDbEntity
  8
D35160210
100
AcDbCircle
 10
-0.8516739966790845
 20
-1.485162002130456
 30
0.0
 40
1.070908636922938
100
AcDbArc
 50
220.9243799657508
 51
322.6818670796216
1001
REVIT
1002
{
1070
     2
1000
-2001350
1002
}
  0
ARC
  5
8F4
330
77B
100
AcDbEntity
  8
D35160210
100
AcDbCircle
 10
-0.7006654647440666
 20
-1.354241796945435
 30
0.0
 40
0.8322984989427947
100
AcDbArc
 50
190.5642645892003
 51
220.9243799657508
1001
REVIT
1002
{
1070
     2
1000
-2001350
1002
}
  0
ARC
  5
8F5
330
77B
100
AcDbEntity
  8
D35160210
100
AcDbCircle
 10
-0.7006654647440666
 20
-1.354241796945435
 30
0.0
 40
1.161150459306696
100
AcDbArc
 50
190.5642645892003
 51
220.9243799657508
1001
REVIT
1002
{
1070
     2
1000
-2001350
1002
}
  0
ARC
  5
8F6
330
77B
100
AcDbEntity
  8
D35160210
100
AcDbCircle
 10
-0.7006654647440666
 20
-1.354241796945435
 30
0.0
 40
1.270767779427997
100
AcDbArc
 50
190.5642645892003
 51
220.9243799657508
1001
REVIT
1002
{
1070
     2
1000
-2001350
1002
}
  0
ARC
  5
8F7
330
77B
100
AcDbEntity
  8
D35160210
100
AcDbCircle
 10
0.8516739966815507
 20
-1.485162002130456
 30
0.0
 40
0.6324393564377373
100
AcDbArc
 50
179.9999999999997
 51
319.0756200342481
1001
REVIT
1002
{
1070
     2
1000
-2001350
1002
}
  0
ARC
  5
8F8
330
77B
100
AcDbEntity
  8
D35160210
100
AcDbCircle
 10
0.8516739966815507
 20
-1.485162002130456
 30
0.0
 40
0.7420566765590367
100
AcDbArc
 50
179.9999999999997
 51
319.0756200342485
1001
REVIT
1002
{
1070
     2
1000
-2001350
1002
}
  0
ARC
  5
8F9
330
77B
100
AcDbEntity
  8
D35160210
100
AcDbCircle
 10
0.8516739966815507
 20
-1.485162002130456
 30
0.0
 40
1.070908636922938
100
AcDbArc
 50
217.3181329203773
 51
319.0756200342481
1001
REVIT
1002
{
1070
     2
1000
-2001350
1002
}
  0
ARC
  5
8FA
330
77B
100
AcDbEntity
  8
D35160210
100
AcDbCircle
 10
0.7006654647465326
 20
-1.354241796945435
 30
0.0
 40
0.8322984989427952
100
AcDbArc
 50
319.075620034248
 51
349.4357354107985
1001
REVIT
1002
{
1070
     2
1000
-2001350
1002
}
  0
ARC
  5
8FB
330
77B
100
AcDbEntity
  8
D35160210
100
AcDbCircle
 10
0.7006654647465326
 20
-1.354241796945435
 30
0.0
 40
0.9419158190640935
100
AcDbArc
 50
319.0756200342484
 51
349.4357354107989
1001
REVIT
1002
{
1070
     2
1000
-2001350
1002
}
  0
ARC
  5
8FC
330
77B
100
AcDbEntity
  8
D35160210
100
AcDbCircle
 10
0.7006654647465326
 20
-1.354241796945435
 30
0.0
 40
1.270767779427997
100
AcDbArc
 50
319.075620034248
 51
349.4357354107985
1001
REVIT
1002
{
1070
     2
1000
-2001350
1002
}
  0
LINE
  5
8FD
330
77B
100
AcDbEntity
  8
D35160210
100
AcDbLine
 10
-1.949893588650297
 20
-1.587222147348892
 30
0.0
 11
-1.518856411348225
 21
-1.506833953485029
 31
0.0
1001
REVIT
1002
{
1070
     2
1000
-2001350
1002
}
  0
LINE
  5
8FE
330
77B
100
AcDbEntity
  8
D35160210
100
AcDbLine
 10
1.518856411350689
 20
-1.506833953485023
 30
0.0
 11
1.949893588652759
 21
-1.587222147348898
 31
0.0
1001
REVIT
1002
{
1070
     2
1000
-2001350
1002
}
  0
ENDBLK
  5
77D
330
77B
100
AcDbEntity
  8
0
100
AcDbBlockEnd
  0
BLOCK
  5
901
330
900
100
AcDbEntity
  8
0
100
AcDbBlockBegin
  2
D35160210 Side View
 70
     0
 10
0.0
 20
0.0
 30
0.0
  3
D35160210 Side View
  1

  0
LINE
  5
903
330
900
100
AcDbEntity
  8
D35160210
100
AcDbLine
 10
2.281250000000014
 20
1.436157712112085
 30
0.0
 11
2.260149883888724
 21
1.436157712112085
 31
0.0
1001
REVIT
1002
{
1070
     2
1000
-2001350
1002
}
  0
LINE
  5
904
330
900
100
AcDbEntity
  8
D35160210
100
AcDbLine
 10
2.260149883888724
 20
1.436157712112085
 30
0.0
 11
2.229649073108522
 21
1.436157712112085
 31
0.0
1001
REVIT
1002
{
1070
     2
1000
-2001350
1002
}
  0
LINE
  5
905
330
900
100
AcDbEntity
  8
D35160210
100
AcDbLine
 10
2.229649073108522
 20
1.436157712112085
 30
0.0
 11
2.218757284758979
 21
1.436157712112085
 31
0.0
1001
REVIT
1002
{
1070
     2
1000
-2001350
1002
}
  0
LINE
  5
906
330
900
100
AcDbEntity
  8
D35160210
100
AcDbLine
 10
2.287620788922215
 20
1.436030279342149
 30
0.0
 11
2.313525317268441
 21
1.435512119685431
 31
0.0
1001
REVIT
1002
{
1070
     2
1000
-2001350
1002
}
  0
LINE
  5
907
330
900
100
AcDbEntity
  8
D35160210
100
AcDbLine
 10
2.313525317268441
 20
1.435512119685431
 30
0.0
 11
2.345749000914272
 21
1.433576375215627
 31
0.0
1001
REVIT
1002
{
1070
     2
1000
-2001350
1002
}
  0
LINE
  5
908
330
900
100
AcDbEntity
  8
D35160210
100
AcDbLine
 10
2.345749000914272
 20
1.433576375215627
 30
0.0
 11
2.377869499917693
 21
1.430353575480897
 31
0.0
1001
REVIT
1002
{
1070
     2
1000
-2001350
1002
}
  0
LINE
  5
909
330
900
100
AcDbEntity
  8
D35160210
100
AcDbLine
 10
2.377869499917693
 20
1.430353575480897
 30
0.0
 11
2.409835428332307
 21
1.425848876273325
 31
0.0
1001
REVIT
1002
{
1070
     2
1000
-2001350
1002
}
  0
LINE
  5
90A
330
900
100
AcDbEntity
  8
D35160210
100
AcDbLine
 10
2.409835428332307
 20
1.425848876273325
 30
0.0
 11
2.441595647491684
 21
1.420069484150681
 31
0.0
1001
REVIT
1002
{
1070
     2
1000
-2001350
1002
}
  0
LINE
  5
90B
330
900
100
AcDbEntity
  8
D35160210
100
AcDbLine
 10
2.441595647491684
 20
1.420069484150681
 30
0.0
 11
2.473099347820323
 21
1.413024644907495
 31
0.0
1001
REVIT
1002
{
1070
     2
1000
-2001350
1002
}
  0
LINE
  5
90C
330
900
100
AcDbEntity
  8
D35160210
100
AcDbLine
 10
2.473099347820323
 20
1.413024644907495
 30
0.0
 11
2.504296130118126
 21
1.404725628783731
 31
0.0
1001
REVIT
1002
{
1070
     2
1000
-2001350
1002
}
  0
LINE
  5
90D
330
900
100
AcDbEntity
  8
D35160210
100
AcDbLine
 10
2.504296130118126
 20
1.404725628783731
 30
0.0
 11
2.535136086188376
 21
1.395185712434831
 31
0.0
1001
REVIT
1002
{
1070
     2
1000
-2001350
1002
}
  0
LINE
  5
90E
330
900
100
AcDbEntity
  8
D35160210
100
AcDbLine
 10
2.535136086188376
 20
1.395185712434831
 30
0.0
 11
2.55958476806613
 21
1.386645979423353
 31
0.0
1001
REVIT
1002
{
1070
     2
1000
-2001350
1002
}
  0
LINE
  5
90F
330
900
100
AcDbEntity
  8
D35160210
100
AcDbLine
 10
1.94041523193389
 20
1.386645979423353
 30
0.0
 11
1.970933246104664
 21
1.397170413157831
 31
0.0
1001
REVIT
1002
{
1070
     2
1000
-2001350
1002
}
  0
LINE
  5
910
330
900
100
AcDbEntity
  8
D35160210
100
AcDbLine
 10
1.970933246104664
 20
1.397170413157831
 30
0.0
 11
2.001847714216912
 21
1.406466033400485
 31
0.0
1001
REVIT
1002
{
1070
     2
1000
-2001350
1002
}
  0
LINE
  5
911
330
900
100
AcDbEntity
  8
D35160210
100
AcDbLine
 10
2.001847714216912
 20
1.406466033400485
 30
0.0
 11
2.033109179716397
 21
1.414517969141887
 31
0.0
1001
REVIT
1002
{
1070
     2
1000
-2001350
1002
}
  0
LINE
  5
912
330
900
100
AcDbEntity
  8
D35160210
100
AcDbLine
 10
2.033109179716397
 20
1.414517969141887
 30
0.0
 11
2.06466763092707
 21
1.421313339002492
 31
0.0
1001
REVIT
1002
{
1070
     2
1000
-2001350
1002
}
  0
LINE
  5
913
330
900
100
AcDbEntity
  8
D35160210
100
AcDbLine
 10
2.06466763092707
 20
1.421313339002492
 30
0.0
 11
2.09647258105911
 21
1.426841271840136
 31
0.0
1001
REVIT
1002
{
1070
     2
1000
-2001350
1002
}
  0
LINE
  5
914
330
900
100
AcDbEntity
  8
D35160210
100
AcDbLine
 10
2.09647258105911
 20
1.426841271840136
 30
0.0
 11
2.128473148976995
 21
1.431092924141507
 31
0.0
1001
REVIT
1002
{
1070
     2
1000
-2001350
1002
}
  0
LINE
  5
915
330
900
100
AcDbEntity
  8
D35160210
100
AcDbLine
 10
2.128473148976995
 20
1.431092924141507
 30
0.0
 11
2.160618140598483
 21
1.434061494169893
 31
0.0
1001
REVIT
1002
{
1070
     2
1000
-2001350
1002
}
  0
LINE
  5
916
330
900
100
AcDbEntity
  8
D35160210
100
AcDbLine
 10
2.160618140598483
 20
1.434061494169893
 30
0.0
 11
2.192856130794213
 21
1.435742232846501
 31
0.0
1001
REVIT
1002
{
1070
     2
1000
-2001350
1002
}
  0
LINE
  5
917
330
900
100
AcDbEntity
  8
D35160210
100
AcDbLine
 10
2.192856130794213
 20
1.435742232846501
 30
0.0
 11
2.218750000000008
 21
1.436157712112085
 31
0.0
1001
REVIT
1002
{
1070
     2
1000
-2001350
1002
}
  0
LINE
  5
918
330
900
100
AcDbEntity
  8
D35160210
100
AcDbLine
 10
2.218750000000008
 20
1.436157712112085
 30
0.0
 11
2.281242715241042
 21
1.436157712112085
 31
0.0
1001
REVIT
1002
{
1070
     2
1000
-2001350
1002
}
  0
LINE
  5
919
330
900
100
AcDbEntity
  8
D35160210
100
AcDbLine
 10
2.55958476806613
 20
1.386645979423353
 30
0.0
 11
2.563265818196811
 21
1.385209385420077
 31
0.0
1001
REVIT
1002
{
1070
     2
1000
-2001350
1002
}
  0
LINE
  5
91A
330
900
100
AcDbEntity
  8
D35160210
100
AcDbLine
 10
2.563265818196811
 20
1.385209385420077
 30
0.0
 11
2.56688647544232
 21
1.383626737794931
 31
0.0
1001
REVIT
1002
{
1070
     2
1000
-2001350
1002
}
  0
LINE
  5
91B
330
900
100
AcDbEntity
  8
D35160210
100
AcDbLine
 10
2.56688647544232
 20
1.383626737794931
 30
0.0
 11
2.570440947523437
 21
1.381900568446512
 31
0.0
1001
REVIT
1002
{
1070
     2
1000
-2001350
1002
}
  0
LINE
  5
91C
330
900
100
AcDbEntity
  8
D35160210
100
AcDbLine
 10
2.570440947523437
 20
1.381900568446512
 30
0.0
 11
2.573923548043074
 21
1.380033638877557
 31
0.0
1001
REVIT
1002
{
1070
     2
1000
-2001350
1002
}
  0
LINE
  5
91D
330
900
100
AcDbEntity
  8
D35160210
100
AcDbLine
 10
2.573923548043074
 20
1.380033638877557
 30
0.0
 11
2.577328705583319
 21
1.378028935777107
 31
0.0
1001
REVIT
1002
{
1070
     2
1000
-2001350
1002
}
  0
LINE
  5
91E
330
900
100
AcDbEntity
  8
D35160210
100
AcDbLine
 10
2.577328705583319
 20
1.378028935777107
 30
0.0
 11
2.580650972618498
 21
1.375889666242479
 31
0.0
1001
REVIT
1002
{
1070
     2
1000
-2001350
1002
}
  0
LINE
  5
91F
330
900
100
AcDbEntity
  8
D35160210
100
AcDbLine
 10
2.580650972618498
 20
1.375889666242479
 30
0.0
 11
2.583885034230071
 21
1.373619252648571
 31
0.0
1001
REVIT
1002
{
1070
     2
1000
-2001350
1002
}
  0
LINE
  5
920
330
900
100
AcDbEntity
  8
D35160210
100
AcDbLine
 10
2.583885034230071
 20
1.373619252648571
 30
0.0
 11
2.587025716609353
 21
1.371221327172819
 31
0.0
1001
REVIT
1002
{
1070
     2
1000
-2001350
1002
}
  0
LINE
  5
921
330
900
100
AcDbEntity
  8
D35160210
100
AcDbLine
 10
2.587025716609353
 20
1.371221327172819
 30
0.0
 11
2.590067995334516
 21
1.368699725984432
 31
0.0
1001
REVIT
1002
{
1070
     2
1000
-2001350
1002
}
  0
LINE
  5
922
330
900
100
AcDbEntity
  8
D35160210
100
AcDbLine
 10
2.590067995334516
 20
1.368699725984432
 30
0.0
 11
2.593007003408583
 21
1.366058483107413
 31
0.0
1001
REVIT
1002
{
1070
     2
1000
-2001350
1002
}
  0
LINE
  5
923
330
900
100
AcDbEntity
  8
D35160210
100
AcDbLine
 10
2.593007003408583
 20
1.366058483107413
 30
0.0
 11
2.595838039045592
 21
1.363301823966925
 31
0.0
1001
REVIT
1002
{
1070
     2
1000
-2001350
1002
}
  0
LINE
  5
924
330
900
100
AcDbEntity
  8
D35160210
100
AcDbLine
 10
2.595838039045592
 20
1.363301823966925
 30
0.0
 11
2.598556573192446
 21
1.360434158629542
 31
0.0
1001
REVIT
1002
{
1070
     2
1000
-2001350
1002
}
  0
LINE
  5
925
330
900
100
AcDbEntity
  8
D35160210
100
AcDbLine
 10
2.598556573192446
 20
1.360434158629542
 30
0.0
 11
2.601158256774429
 21
1.357460074748059
 31
0.0
1001
REVIT
1002
{
1070
     2
1000
-2001350
1002
}
  0
LINE
  5
926
330
900
100
AcDbEntity
  8
D35160210
100
AcDbLine
 10
2.601158256774429
 20
1.357460074748059
 30
0.0
 11
2.603638927652811
 21
1.354384330222268
 31
0.0
1001
REVIT
1002
{
1070
     2
1000
-2001350
1002
}
  0
LINE
  5
927
330
900
100
AcDbEntity
  8
D35160210
100
AcDbLine
 10
2.603638927652811
 20
1.354384330222268
 30
0.0
 11
2.605994617283366
 21
1.351211845587252
 31
0.0
1001
REVIT
1002
{
1070
     2
1000
-2001350
1002
}
  0
LINE
  5
928
330
900
100
AcDbEntity
  8
D35160210
100
AcDbLine
 10
2.605994617283366
 20
1.351211845587252
 30
0.0
 11
2.608221557065206
 21
1.347947696141699
 31
0.0
1001
REVIT
1002
{
1070
     2
1000
-2001350
1002
}
  0
LINE
  5
929
330
900
100
AcDbEntity
  8
D35160210
100
AcDbLine
 10
2.608221557065206
 20
1.347947696141699
 30
0.0
 11
2.610316184369734
 21
1.344597103828403
 31
0.0
1001
REVIT
1002
{
1070
     2
1000
-2001350
1002
}
  0
LINE
  5
92A
330
900
100
AcDbEntity
  8
D35160210
100
AcDbLine
 10
2.610316184369734
 20
1.344597103828403
 30
0.0
 11
2.612275148240094
 21
1.341165428880303
 31
0.0
1001
REVIT
1002
{
1070
     2
1000
-2001350
1002
}
  0
LINE
  5
92B
330
900
100
AcDbEntity
  8
D35160210
100
AcDbLine
 10
2.612275148240094
 20
1.341165428880303
 30
0.0
 11
2.614095314751981
 21
1.337658161245255
 31
0.0
1001
REVIT
1002
{
1070
     2
1000
-2001350
1002
}
  0
LINE
  5
92C
330
900
100
AcDbEntity
  8
D35160210
100
AcDbLine
 10
2.614095314751981
 20
1.337658161245255
 30
0.0
 11
2.615773772027262
 21
1.334080911803309
 31
0.0
1001
REVIT
1002
{
1070
     2
1000
-2001350
1002
}
  0
LINE
  5
92D
330
900
100
AcDbEntity
  8
D35160210
100
AcDbLine
 10
2.615773772027262
 20
1.334080911803309
 30
0.0
 11
2.617307834892345
 21
1.330439403390461
 31
0.0
1001
REVIT
1002
{
1070
     2
1000
-2001350
1002
}
  0
LINE
  5
92E
330
900
100
AcDbEntity
  8
D35160210
100
AcDbLine
 10
2.617307834892345
 20
1.330439403390461
 30
0.0
 11
2.618695049173895
 21
1.326739461643368
 31
0.0
1001
REVIT
1002
{
1070
     2
1000
-2001350
1002
}
  0
LINE
  5
92F
330
900
100
AcDbEntity
  8
D35160210
100
AcDbLine
 10
2.618695049173895
 20
1.326739461643368
 30
0.0
 11
2.619933195624987
 21
1.322987005679544
 31
0.0
1001
REVIT
1002
{
1070
     2
1000
-2001350
1002
}
  0
LINE
  5
930
330
900
100
AcDbEntity
  8
D35160210
100
AcDbLine
 10
2.619933195624987
 20
1.322987005679544
 30
0.0
 11
2.621020293475421
 21
1.319188038628035
 31
0.0
1001
REVIT
1002
{
1070
     2
1000
-2001350
1002
}
  0
LINE
  5
931
330
900
100
AcDbEntity
  8
D35160210
100
AcDbLine
 10
2.621020293475421
 20
1.319188038628035
 30
0.0
 11
2.62195460360054
 21
1.315348638025736
 31
0.0
1001
REVIT
1002
{
1070
     2
1000
-2001350
1002
}
  0
LINE
  5
932
330
900
100
AcDbEntity
  8
D35160210
100
AcDbLine
 10
2.62195460360054
 20
1.315348638025736
 30
0.0
 11
2.622734631303451
 21
1.311474946094578
 31
0.0
1001
REVIT
1002
{
1070
     2
1000
-2001350
1002
}
  0
LINE
  5
933
330
900
100
AcDbEntity
  8
D35160210
100
AcDbLine
 10
2.622734631303451
 20
1.311474946094578
 30
0.0
 11
2.623359128706226
 21
1.307573159915297
 31
0.0
1001
REVIT
1002
{
1070
     2
1000
-2001350
1002
}
  0
LINE
  5
934
330
900
100
AcDbEntity
  8
D35160210
100
AcDbLine
 10
2.623359128706226
 20
1.307573159915297
 30
0.0
 11
2.623827096746243
 21
1.303649521513468
 31
0.0
1001
REVIT
1002
{
1070
     2
1000
-2001350
1002
}
  0
LINE
  5
935
330
900
100
AcDbEntity
  8
D35160210
100
AcDbLine
 10
2.623827096746243
 20
1.303649521513468
 30
0.0
 11
2.624137786774461
 21
1.299710307873515
 31
0.0
1001
REVIT
1002
{
1070
     2
1000
-2001350
1002
}
  0
LINE
  5
936
330
900
100
AcDbEntity
  8
D35160210
100
AcDbLine
 10
2.624137786774461
 20
1.299710307873515
 30
0.0
 11
2.624290701753114
 21
1.295761820896946
 31
0.0
1001
REVIT
1002
{
1070
     2
1000
-2001350
1002
}
  0
LINE
  5
937
330
900
100
AcDbEntity
  8
D35160210
100
AcDbLine
 10
2.624290701753114
 20
1.295761820896946
 30
0.0
 11
2.624285597050858
 21
1.291810377320623
 31
0.0
1001
REVIT
1002
{
1070
     2
1000
-2001350
1002
}
  0
LINE
  5
938
330
900
100
AcDbEntity
  8
D35160210
100
AcDbLine
 10
2.624285597050858
 20
1.291810377320623
 30
0.0
 11
2.624122480834126
 21
1.287862298611341
 31
0.0
1001
REVIT
1002
{
1070
     2
1000
-2001350
1002
}
  0
LINE
  5
939
330
900
100
AcDbEntity
  8
D35160210
100
AcDbLine
 10
2.624122480834126
 20
1.287862298611341
 30
0.0
 11
2.623801614054068
 21
1.28392390085282
 31
0.0
1001
REVIT
1002
{
1070
     2
1000
-2001350
1002
}
  0
LINE
  5
93A
330
900
100
AcDbEntity
  8
D35160210
100
AcDbLine
 10
2.623801614054068
 20
1.28392390085282
 30
0.0
 11
2.623323510029084
 21
1.28000148464134
 31
0.0
1001
REVIT
1002
{
1070
     2
1000
-2001350
1002
}
  0
LINE
  5
93B
330
900
100
AcDbEntity
  8
D35160210
100
AcDbLine
 10
2.623323510029084
 20
1.28000148464134
 30
0.0
 11
2.622688933623628
 21
1.276101325006078
 31
0.0
1001
REVIT
1002
{
1070
     2
1000
-2001350
1002
}
  0
LINE
  5
93C
330
900
100
AcDbEntity
  8
D35160210
100
AcDbLine
 10
2.622688933623628
 20
1.276101325006078
 30
0.0
 11
2.621898900024573
 21
1.272229661370478
 31
0.0
1001
REVIT
1002
{
1070
     2
1000
-2001350
1002
}
  0
LINE
  5
93D
330
900
100
AcDbEntity
  8
D35160210
100
AcDbLine
 10
2.621898900024573
 20
1.272229661370478
 30
0.0
 11
2.620954673117152
 21
1.268392687570458
 31
0.0
1001
REVIT
1002
{
1070
     2
1000
-2001350
1002
}
  0
LINE
  5
93E
330
900
100
AcDbEntity
  8
D35160210
100
AcDbLine
 10
2.620954673117152
 20
1.268392687570458
 30
0.0
 11
2.619857763462988
 21
1.264596541945551
 31
0.0
1001
REVIT
1002
{
1070
     2
1000
-2001350
1002
}
  0
LINE
  5
93F
330
900
100
AcDbEntity
  8
D35160210
100
AcDbLine
 10
2.619857763462988
 20
1.264596541945551
 30
0.0
 11
2.618609925883536
 21
1.260847297518983
 31
0.0
1001
REVIT
1002
{
1070
     2
1000
-2001350
1002
}
  0
LINE
  5
940
330
900
100
AcDbEntity
  8
D35160210
100
AcDbLine
 10
2.618609925883536
 20
1.260847297518983
 30
0.0
 11
2.617213156652731
 21
1.25715095228204
 31
0.0
1001
REVIT
1002
{
1070
     2
1000
-2001350
1002
}
  0
LINE
  5
941
330
900
100
AcDbEntity
  8
D35160210
100
AcDbLine
 10
2.617213156652731
 20
1.25715095228204
 30
0.0
 11
2.615669690303379
 21
1.25351341959858
 31
0.0
1001
REVIT
1002
{
1070
     2
1000
-2001350
1002
}
  0
LINE
  5
942
330
900
100
AcDbEntity
  8
D35160210
100
AcDbLine
 10
2.615669690303379
 20
1.25351341959858
 30
0.0
 11
2.615616276655366
 21
1.253394435932109
 31
0.0
1001
REVIT
1002
{
1070
     2
1000
-2001350
1002
}
  0
LINE
  5
943
330
900
100
AcDbEntity
  8
D35160210
100
AcDbLine
 10
1.884383723344654
 20
1.253394435932109
 30
0.0
 11
1.882835456192481
 21
1.257029927813598
 31
0.0
1001
REVIT
1002
{
1070
     2
1000
-2001350
1002
}
  0
LINE
  5
944
330
900
100
AcDbEntity
  8
D35160210
100
AcDbLine
 10
1.882835456192481
 20
1.257029927813598
 30
0.0
 11
1.881433808388671
 21
1.260724425861899
 31
0.0
1001
REVIT
1002
{
1070
     2
1000
-2001350
1002
}
  0
LINE
  5
945
330
900
100
AcDbEntity
  8
D35160210
100
AcDbLine
 10
1.881433808388671
 20
1.260724425861899
 30
0.0
 11
1.880181022270708
 21
1.264472019668262
 31
0.0
1001
REVIT
1002
{
1070
     2
1000
-2001350
1002
}
  0
LINE
  5
946
330
900
100
AcDbEntity
  8
D35160210
100
AcDbLine
 10
1.880181022270708
 20
1.264472019668262
 30
0.0
 11
1.879079102029134
 21
1.268266713882028
 31
0.0
1001
REVIT
1002
{
1070
     2
1000
-2001350
1002
}
  0
LINE
  5
947
330
900
100
AcDbEntity
  8
D35160210
100
AcDbLine
 10
1.879079102029134
 20
1.268266713882028
 30
0.0
 11
1.878129810501272
 21
1.272102437801966
 31
0.0
1001
REVIT
1002
{
1070
     2
1000
-2001350
1002
}
  0
LINE
  5
948
330
900
100
AcDbEntity
  8
D35160210
100
AcDbLine
 10
1.878129810501272
 20
1.272102437801966
 30
0.0
 11
1.877334666351064
 21
1.275973055088031
 31
0.0
1001
REVIT
1002
{
1070
     2
1000
-2001350
1002
}
  0
LINE
  5
949
330
900
100
AcDbEntity
  8
D35160210
100
AcDbLine
 10
1.877334666351064
 20
1.275973055088031
 30
0.0
 11
1.876694941639524
 21
1.279872373578272
 31
0.0
1001
REVIT
1002
{
1070
     2
1000
-2001350
1002
}
  0
LINE
  5
94A
330
900
100
AcDbEntity
  8
D35160210
100
AcDbLine
 10
1.876694941639524
 20
1.279872373578272
 30
0.0
 11
1.876211659789726
 21
1.283794155194891
 31
0.0
1001
REVIT
1002
{
1070
     2
1000
-2001350
1002
}
  0
LINE
  5
94B
330
900
100
AcDbEntity
  8
D35160210
100
AcDbLine
 10
1.876211659789726
 20
1.283794155194891
 30
0.0
 11
1.875885593949536
 21
1.287732125923928
 31
0.0
1001
REVIT
1002
{
1070
     2
1000
-2001350
1002
}
  0
LINE
  5
94C
330
900
100
AcDbEntity
  8
D35160210
100
AcDbLine
 10
1.875885593949536
 20
1.287732125923928
 30
0.0
 11
1.875717265754738
 21
1.291679985852249
 31
0.0
1001
REVIT
1002
{
1070
     2
1000
-2001350
1002
}
  0
LINE
  5
94D
330
900
100
AcDbEntity
  8
D35160210
100
AcDbLine
 10
1.875717265754738
 20
1.291679985852249
 30
0.0
 11
1.875706944494538
 21
1.295631419246146
 31
0.0
1001
REVIT
1002
{
1070
     2
1000
-2001350
1002
}
  0
LINE
  5
94E
330
900
100
AcDbEntity
  8
D35160210
100
AcDbLine
 10
1.875706944494538
 20
1.295631419246146
 30
0.0
 11
1.875854646680751
 21
1.299580104655121
 31
0.0
1001
REVIT
1002
{
1070
     2
1000
-2001350
1002
}
  0
LINE
  5
94F
330
900
100
AcDbEntity
  8
D35160210
100
AcDbLine
 10
1.875854646680751
 20
1.299580104655121
 30
0.0
 11
1.876160136021388
 21
1.303519725024849
 31
0.0
1001
REVIT
1002
{
1070
     2
1000
-2001350
1002
}
  0
LINE
  5
950
330
900
100
AcDbEntity
  8
D35160210
100
AcDbLine
 10
1.876160136021388
 20
1.303519725024849
 30
0.0
 11
1.876622923798667
 21
1.307443977803154
 31
0.0
1001
REVIT
1002
{
1070
     2
1000
-2001350
1002
}
  0
LINE
  5
951
330
900
100
AcDbEntity
  8
D35160210
100
AcDbLine
 10
1.876622923798667
 20
1.307443977803154
 30
0.0
 11
1.877242269650873
 21
1.311346585022716
 31
0.0
1001
REVIT
1002
{
1070
     2
1000
-2001350
1002
}
  0
LINE
  5
952
330
900
100
AcDbEntity
  8
D35160210
100
AcDbLine
 10
1.877242269650873
 20
1.311346585022716
 30
0.0
 11
1.878017182756757
 21
1.315221303344505
 31
0.0
1001
REVIT
1002
{
1070
     2
1000
-2001350
1002
}
  0
LINE
  5
953
330
900
100
AcDbEntity
  8
D35160210
100
AcDbLine
 10
1.878017182756757
 20
1.315221303344505
 30
0.0
 11
1.878946423420659
 21
1.319061934045749
 31
0.0
1001
REVIT
1002
{
1070
     2
1000
-2001350
1002
}
  0
LINE
  5
954
330
900
100
AcDbEntity
  8
D35160210
100
AcDbLine
 10
1.878946423420659
 20
1.319061934045749
 30
0.0
 11
1.880028505055744
 21
1.322862332936641
 31
0.0
1001
REVIT
1002
{
1070
     2
1000
-2001350
1002
}
  0
LINE
  5
955
330
900
100
AcDbEntity
  8
D35160210
100
AcDbLine
 10
1.880028505055744
 20
1.322862332936641
 30
0.0
 11
1.881261696562226
 21
1.326616420189649
 31
0.0
1001
REVIT
1002
{
1070
     2
1000
-2001350
1002
}
  0
LINE
  5
956
330
900
100
AcDbEntity
  8
D35160210
100
AcDbLine
 10
1.881261696562226
 20
1.326616420189649
 30
0.0
 11
1.882644025096762
 21
1.330318190065996
 31
0.0
1001
REVIT
1002
{
1070
     2
1000
-2001350
1002
}
  0
LINE
  5
957
330
900
100
AcDbEntity
  8
D35160210
100
AcDbLine
 10
1.882644025096762
 20
1.330318190065996
 30
0.0
 11
1.88417327922858
 21
1.333961720523551
 31
0.0
1001
REVIT
1002
{
1070
     2
1000
-2001350
1002
}
  0
LINE
  5
958
330
900
100
AcDbEntity
  8
D35160210
100
AcDbLine
 10
1.88417327922858
 20
1.333961720523551
 30
0.0
 11
1.885847012477288
 21
1.337541182690828
 31
0.0
1001
REVIT
1002
{
1070
     2
1000
-2001350
1002
}
  0
LINE
  5
959
330
900
100
AcDbEntity
  8
D35160210
100
AcDbLine
 10
1.885847012477288
 20
1.337541182690828
 30
0.0
 11
1.887662547226737
 21
1.341050850191952
 31
0.0
1001
REVIT
1002
{
1070
     2
1000
-2001350
1002
}
  0
LINE
  5
95A
330
900
100
AcDbEntity
  8
D35160210
100
AcDbLine
 10
1.887662547226737
 20
1.341050850191952
 30
0.0
 11
1.88961697900862
 21
1.344485108307588
 31
0.0
1001
REVIT
1002
{
1070
     2
1000
-2001350
1002
}
  0
LINE
  5
95B
330
900
100
AcDbEntity
  8
D35160210
100
AcDbLine
 10
1.88961697900862
 20
1.344485108307588
 30
0.0
 11
1.891707181149007
 21
1.347838462957367
 31
0.0
1001
REVIT
1002
{
1070
     2
1000
-2001350
1002
}
  0
LINE
  5
95C
330
900
100
AcDbEntity
  8
D35160210
100
AcDbLine
 10
1.891707181149007
 20
1.347838462957367
 30
0.0
 11
1.89392980977036
 21
1.351105549489173
 31
0.0
1001
REVIT
1002
{
1070
     2
1000
-2001350
1002
}
  0
LINE
  5
95D
330
900
100
AcDbEntity
  8
D35160210
100
AcDbLine
 10
1.89392980977036
 20
1.351105549489173
 30
0.0
 11
1.896281309141023
 21
1.354281141261521
 31
0.0
1001
REVIT
1002
{
1070
     2
1000
-2001350
1002
}
  0
LINE
  5
95E
330
900
100
AcDbEntity
  8
D35160210
100
AcDbLine
 10
1.896281309141023
 20
1.354281141261521
 30
0.0
 11
1.898757917363626
 21
1.357360158004987
 31
0.0
1001
REVIT
1002
{
1070
     2
1000
-2001350
1002
}
  0
LINE
  5
95F
330
900
100
AcDbEntity
  8
D35160210
100
AcDbLine
 10
1.898757917363626
 20
1.357360158004987
 30
0.0
 11
1.90135567239333
 21
1.360337673949616
 31
0.0
1001
REVIT
1002
{
1070
     2
1000
-2001350
1002
}
  0
LINE
  5
960
330
900
100
AcDbEntity
  8
D35160210
100
AcDbLine
 10
1.90135567239333
 20
1.360337673949616
 30
0.0
 11
1.904070418376246
 21
1.363208925705053
 31
0.0
1001
REVIT
1002
{
1070
     2
1000
-2001350
1002
}
  0
LINE
  5
961
330
900
100
AcDbEntity
  8
D35160210
100
AcDbLine
 10
1.904070418376246
 20
1.363208925705053
 30
0.0
 11
1.906897812297913
 21
1.36596931988099
 31
0.0
1001
REVIT
1002
{
1070
     2
1000
-2001350
1002
}
  0
LINE
  5
962
330
900
100
AcDbEntity
  8
D35160210
100
AcDbLine
 10
1.906897812297913
 20
1.36596931988099
 30
0.0
 11
1.909833330931204
 21
1.368614440435601
 31
0.0
1001
REVIT
1002
{
1070
     2
1000
-2001350
1002
}
  0
LINE
  5
963
330
900
100
AcDbEntity
  8
D35160210
100
AcDbLine
 10
1.909833330931204
 20
1.368614440435601
 30
0.0
 11
1.912872278072518
 21
1.37114005574026
 31
0.0
1001
REVIT
1002
{
1070
     2
1000
-2001350
1002
}
  0
LINE
  5
964
330
900
100
AcDbEntity
  8
D35160210
100
AcDbLine
 10
1.912872278072518
 20
1.37114005574026
 30
0.0
 11
1.916009792054699
 21
1.373542125349261
 31
0.0
1001
REVIT
1002
{
1070
     2
1000
-2001350
1002
}
  0
LINE
  5
965
330
900
100
AcDbEntity
  8
D35160210
100
AcDbLine
 10
1.916009792054699
 20
1.373542125349261
 30
0.0
 11
1.919240853524678
 21
1.375816806463629
 31
0.0
1001
REVIT
1002
{
1070
     2
1000
-2001350
1002
}
  0
LINE
  5
966
330
900
100
AcDbEntity
  8
D35160210
100
AcDbLine
 10
1.919240853524678
 20
1.375816806463629
 30
0.0
 11
1.922560293473361
 21
1.377960460078811
 31
0.0
1001
REVIT
1002
{
1070
     2
1000
-2001350
1002
}
  0
LINE
  5
967
330
900
100
AcDbEntity
  8
D35160210
100
AcDbLine
 10
1.922560293473361
 20
1.377960460078811
 30
0.0
 11
1.925962801504937
 21
1.379969656806342
 31
0.0
1001
REVIT
1002
{
1070
     2
1000
-2001350
1002
}
  0
LINE
  5
968
330
900
100
AcDbEntity
  8
D35160210
100
AcDbLine
 10
1.925962801504937
 20
1.379969656806342
 30
0.0
 11
1.929442934332387
 21
1.381841182360042
 31
0.0
1001
REVIT
1002
{
1070
     2
1000
-2001350
1002
}
  0
LINE
  5
969
330
900
100
AcDbEntity
  8
D35160210
100
AcDbLine
 10
1.929442934332387
 20
1.381841182360042
 30
0.0
 11
1.932995124485575
 21
1.383572042698266
 31
0.0
1001
REVIT
1002
{
1070
     2
1000
-2001350
1002
}
  0
LINE
  5
96A
330
900
100
AcDbEntity
  8
D35160210
100
AcDbLine
 10
1.932995124485575
 20
1.383572042698266
 30
0.0
 11
1.936613689218017
 21
1.385159468813698
 31
0.0
1001
REVIT
1002
{
1070
     2
1000
-2001350
1002
}
  0
LINE
  5
96B
330
900
100
AcDbEntity
  8
D35160210
100
AcDbLine
 10
1.936613689218017
 20
1.385159468813698
 30
0.0
 11
1.940292839598058
 21
1.386600921163201
 31
0.0
1001
REVIT
1002
{
1070
     2
1000
-2001350
1002
}
  0
LINE
  5
96C
330
900
100
AcDbEntity
  8
D35160210
100
AcDbLine
 10
1.940292839598058
 20
1.386600921163201
 30
0.0
 11
1.94041523193389
 21
1.386645979423353
 31
0.0
1001
REVIT
1002
{
1070
     2
1000
-2001350
1002
}
  0
LINE
  5
96D
330
900
100
AcDbEntity
  8
D35160210
100
AcDbLine
 10
1.884383723344653
 20
1.253394435932109
 30
0.0
 11
2.031143506634469
 21
0.9270506527370635
 31
0.0
1001
REVIT
1002
{
1070
     2
1000
-2001350
1002
}
  0
LINE
  5
96E
330
900
100
AcDbEntity
  8
D35160210
100
AcDbLine
 10
2.468856493365555
 20
0.9270506527370633
 30
0.0
 11
2.615616276655369
 21
1.253394435932109
 31
0.0
1001
REVIT
1002
{
1070
     2
1000
-2001350
1002
}
  0
LINE
  5
96F
330
900
100
AcDbEntity
  8
D35160210
100
AcDbLine
 10
0.1619844713345166
 20
0.9565963917200317
 30
0.0
 11
0.0000000000000107
 21
1.000000000000492
 31
0.0
1001
REVIT
1002
{
1070
     2
1000
-2001350
1002
}
  0
LINE
  5
970
330
900
100
AcDbEntity
  8
D35160210
100
AcDbLine
 10
-0.0000000000000107
 20
-1.000000000000491
 30
0.0
 11
0.16198447133449
 21
-0.9565963917200209
 31
0.0
1001
REVIT
1002
{
1070
     2
1000
-2001350
1002
}
  0
LINE
  5
971
330
900
100
AcDbEntity
  8
D35160210
100
AcDbLine
 10
0.1619844713345166
 20
0.9565963917200317
 30
0.0
 11
0.164338210351648
 21
0.9559149760104563
 31
0.0
1001
REVIT
1002
{
1070
     2
1000
-2001350
1002
}
  0
LINE
  5
972
330
900
100
AcDbEntity
  8
D35160210
100
AcDbLine
 10
0.164338210351648
 20
0.9559149760104563
 30
0.0
 11
0.1666628172680884
 21
0.9551399809046277
 31
0.0
1001
REVIT
1002
{
1070
     2
1000
-2001350
1002
}
  0
LINE
  5
973
330
900
100
AcDbEntity
  8
D35160210
100
AcDbLine
 10
0.1666628172680884
 20
0.9551399809046277
 30
0.0
 11
0.1689545732086604
 21
0.9542726462293895
 31
0.0
1001
REVIT
1002
{
1070
     2
1000
-2001350
1002
}
  0
LINE
  5
974
330
900
100
AcDbEntity
  8
D35160210
100
AcDbLine
 10
0.1689545732086604
 20
0.9542726462293895
 30
0.0
 11
0.1712098118527425
 21
0.9533143595352004
 31
0.0
1001
REVIT
1002
{
1070
     2
1000
-2001350
1002
}
  0
LINE
  5
975
330
900
100
AcDbEntity
  8
D35160210
100
AcDbLine
 10
0.1712098118527425
 20
0.9533143595352004
 30
0.0
 11
0.1734249252995941
 21
0.9522666538763413
 31
0.0
1001
REVIT
1002
{
1070
     2
1000
-2001350
1002
}
  0
LINE
  5
976
330
900
100
AcDbEntity
  8
D35160210
100
AcDbLine
 10
0.1734249252995941
 20
0.9522666538763413
 30
0.0
 11
0.1755963698402301
 21
0.9511312053583704
 31
0.0
1001
REVIT
1002
{
1070
     2
1000
-2001350
1002
}
  0
LINE
  5
977
330
900
100
AcDbEntity
  8
D35160210
100
AcDbLine
 10
0.1755963698402301
 20
0.9511312053583704
 30
0.0
 11
0.1777206716266093
 21
0.9499098304567166
 31
0.0
1001
REVIT
1002
{
1070
     2
1000
-2001350
1002
}
  0
LINE
  5
978
330
900
100
AcDbEntity
  8
D35160210
100
AcDbLine
 10
0.1777206716266093
 20
0.9499098304567166
 30
0.0
 11
0.179794432229027
 21
0.9486044831106408
 31
0.0
1001
REVIT
1002
{
1070
     2
1000
-2001350
1002
}
  0
LINE
  5
979
330
900
100
AcDbEntity
  8
D35160210
100
AcDbLine
 10
0.179794432229027
 20
0.9486044831106408
 30
0.0
 11
0.1818143340729019
 21
0.9472172515974808
 31
0.0
1001
REVIT
1002
{
1070
     2
1000
-2001350
1002
}
  0
LINE
  5
97A
330
900
100
AcDbEntity
  8
D35160210
100
AcDbLine
 10
0.1818143340729019
 20
0.9472172515974808
 30
0.0
 11
0.1837771457461716
 21
0.9457503551916968
 31
0.0
1001
REVIT
1002
{
1070
     2
1000
-2001350
1002
}
  0
LINE
  5
97B
330
900
100
AcDbEntity
  8
D35160210
100
AcDbLine
 10
0.1837771457461716
 20
0.9457503551916968
 30
0.0
 11
0.1856797271688713
 21
0.944206140614634
 31
0.0
1001
REVIT
1002
{
1070
     2
1000
-2001350
1002
}
  0
LINE
  5
97C
330
900
100
AcDbEntity
  8
D35160210
100
AcDbLine
 10
0.1856797271688713
 20
0.944206140614634
 30
0.0
 11
0.1875190346165851
 21
0.9425870782801926
 31
0.0
1001
REVIT
1002
{
1070
     2
1000
-2001350
1002
}
  0
LINE
  5
97D
330
900
100
AcDbEntity
  8
D35160210
100
AcDbLine
 10
0.1875190346165851
 20
0.9425870782801926
 30
0.0
 11
0.1892921255897626
 21
0.9408957583427248
 31
0.0
1001
REVIT
1002
{
1070
     2
1000
-2001350
1002
}
  0
LINE
  5
97E
330
900
100
AcDbEntity
  8
D35160210
100
AcDbLine
 10
0.1892921255897626
 20
0.9408957583427248
 30
0.0
 11
0.190996163521083
 21
0.9391348865533526
 31
0.0
1001
REVIT
1002
{
1070
     2
1000
-2001350
1002
}
  0
LINE
  5
97F
330
900
100
AcDbEntity
  8
D35160210
100
AcDbLine
 10
0.190996163521083
 20
0.9391348865533526
 30
0.0
 11
0.1926284223133692
 21
0.9373072799312804
 31
0.0
1001
REVIT
1002
{
1070
     2
1000
-2001350
1002
}
  0
LINE
  5
980
330
900
100
AcDbEntity
  8
D35160210
100
AcDbLine
 10
0.1926284223133692
 20
0.9373072799312804
 30
0.0
 11
0.194186290700749
 21
0.9354158622572565
 31
0.0
1001
REVIT
1002
{
1070
     2
1000
-2001350
1002
}
  0
LINE
  5
981
330
900
100
AcDbEntity
  8
D35160210
100
AcDbLine
 10
0.194186290700749
 20
0.9354158622572565
 30
0.0
 11
0.1956672764261285
 21
0.9334636593960661
 31
0.0
1001
REVIT
1002
{
1070
     2
1000
-2001350
1002
}
  0
LINE
  5
982
330
900
100
AcDbEntity
  8
D35160210
100
AcDbLine
 10
0.1956672764261285
 20
0.9334636593960661
 30
0.0
 11
0.1970690102282759
 21
0.931453794455839
 31
0.0
1001
REVIT
1002
{
1070
     2
1000
-2001350
1002
}
  0
LINE
  5
983
330
900
100
AcDbEntity
  8
D35160210
100
AcDbLine
 10
0.1970690102282759
 20
0.931453794455839
 30
0.0
 11
0.1983892496321271
 21
0.9293894827917357
 31
0.0
1001
REVIT
1002
{
1070
     2
1000
-2001350
1002
}
  0
LINE
  5
984
330
900
100
AcDbEntity
  8
D35160210
100
AcDbLine
 10
0.1983892496321271
 20
0.9293894827917357
 30
0.0
 11
0.1991842720854997
 21
0.9280519806563541
 31
0.0
1001
REVIT
1002
{
1070
     2
1000
-2001350
1002
}
  0
LINE
  5
985
330
900
100
AcDbEntity
  8
D35160210
100
AcDbLine
 10
0.1991842720854731
 20
-0.9280519806563541
 30
0.0
 11
0.1979168825683253
 21
-0.9301491545980818
 31
0.0
1001
REVIT
1002
{
1070
     2
1000
-2001350
1002
}
  0
LINE
  5
986
330
900
100
AcDbEntity
  8
D35160210
100
AcDbLine
 10
0.1979168825683253
 20
-0.9301491545980818
 30
0.0
 11
0.1965666422380057
 21
-0.9321939689613872
 31
0.0
1001
REVIT
1002
{
1070
     2
1000
-2001350
1002
}
  0
LINE
  5
987
330
900
100
AcDbEntity
  8
D35160210
100
AcDbLine
 10
0.1965666422380057
 20
-0.9321939689613872
 30
0.0
 11
0.1951357111910088
 21
-0.9341831524795141
 31
0.0
1001
REVIT
1002
{
1070
     2
1000
-2001350
1002
}
  0
LINE
  5
988
330
900
100
AcDbEntity
  8
D35160210
100
AcDbLine
 10
0.1951357111910088
 20
-0.9341831524795141
 30
0.0
 11
0.1936263786117607
 21
-0.9361135228831452
 31
0.0
1001
REVIT
1002
{
1070
     2
1000
-2001350
1002
}
  0
LINE
  5
989
330
900
100
AcDbEntity
  8
D35160210
100
AcDbLine
 10
0.1936263786117607
 20
-0.9361135228831452
 30
0.0
 11
0.192041059110414
 21
-0.937981991991444
 31
0.0
1001
REVIT
1002
{
1070
     2
1000
-2001350
1002
}
  0
LINE
  5
98A
330
900
100
AcDbEntity
  8
D35160210
100
AcDbLine
 10
0.192041059110414
 20
-0.937981991991444
 30
0.0
 11
0.190382288859988
 21
-0.9397855706524234
 31
0.0
1001
REVIT
1002
{
1070
     2
1000
-2001350
1002
}
  0
LINE
  5
98B
330
900
100
AcDbEntity
  8
D35160210
100
AcDbLine
 10
0.190382288859988
 20
-0.9397855706524234
 30
0.0
 11
0.1886527215390306
 21
-0.9415213735249546
 31
0.0
1001
REVIT
1002
{
1070
     2
1000
-2001350
1002
}
  0
LINE
  5
98C
330
900
100
AcDbEntity
  8
D35160210
100
AcDbLine
 10
0.1886527215390306
 20
-0.9415213735249546
 30
0.0
 11
0.1868551240862999
 21
-0.9431866236947337
 31
0.0
1001
REVIT
1002
{
1070
     2
1000
-2001350
1002
}
  0
LINE
  5
98D
330
900
100
AcDbEntity
  8
D35160210
100
AcDbLine
 10
0.1868551240862999
 20
-0.9431866236947337
 30
0.0
 11
0.1849923722742552
 21
-0.9447786571167336
 31
0.0
1001
REVIT
1002
{
1070
     2
1000
-2001350
1002
}
  0
LINE
  5
98E
330
900
100
AcDbEntity
  8
D35160210
100
AcDbLine
 10
0.1849923722742552
 20
-0.9447786571167336
 30
0.0
 11
0.1830674461084278
 21
-0.9462949268770744
 31
0.0
1001
REVIT
1002
{
1070
     2
1000
-2001350
1002
}
  0
LINE
  5
98F
330
900
100
AcDbEntity
  8
D35160210
100
AcDbLine
 10
0.1830674461084278
 20
-0.9462949268770744
 30
0.0
 11
0.1810834250600557
 21
-0.9477330072675991
 31
0.0
1001
REVIT
1002
{
1070
     2
1000
-2001350
1002
}
  0
LINE
  5
990
330
900
100
AcDbEntity
  8
D35160210
100
AcDbLine
 10
0.1810834250600557
 20
-0.9477330072675991
 30
0.0
 11
0.17904348313958
 21
-0.9490905976664814
 31
0.0
1001
REVIT
1002
{
1070
     2
1000
-2001350
1002
}
  0
LINE
  5
991
330
900
100
AcDbEntity
  8
D35160210
100
AcDbLine
 10
0.17904348313958
 20
-0.9490905976664814
 30
0.0
 11
0.1769508838189093
 21
-0.9503655262186521
 31
0.0
1001
REVIT
1002
{
1070
     2
1000
-2001350
1002
}
  0
LINE
  5
992
330
900
100
AcDbEntity
  8
D35160210
100
AcDbLine
 10
0.1769508838189093
 20
-0.9503655262186521
 30
0.0
 11
0.1748089748105599
 21
-0.9515557533104173
 31
0.0
1001
REVIT
1002
{
1070
     2
1000
-2001350
1002
}
  0
LINE
  5
993
330
900
100
AcDbEntity
  8
D35160210
100
AcDbLine
 10
0.1748089748105599
 20
-0.9515557533104173
 30
0.0
 11
0.1726211827120281
 21
-0.9526593748323309
 31
0.0
1001
REVIT
1002
{
1070
     2
1000
-2001350
1002
}
  0
LINE
  5
994
330
900
100
AcDbEntity
  8
D35160210
100
AcDbLine
 10
0.1726211827120281
 20
-0.9526593748323309
 30
0.0
 11
0.1703910075239676
 21
-0.9536746252253765
 31
0.0
1001
REVIT
1002
{
1070
     2
1000
-2001350
1002
}
  0
LINE
  5
995
330
900
100
AcDbEntity
  8
D35160210
100
AcDbLine
 10
0.1703910075239676
 20
-0.9536746252253765
 30
0.0
 11
0.1681220170509352
 21
-0.9545998803055029
 31
0.0
1001
REVIT
1002
{
1070
     2
1000
-2001350
1002
}
  0
LINE
  5
996
330
900
100
AcDbEntity
  8
D35160210
100
AcDbLine
 10
0.1681220170509352
 20
-0.9545998803055029
 30
0.0
 11
0.165817841193661
 21
-0.9554336598619615
 31
0.0
1001
REVIT
1002
{
1070
     2
1000
-2001350
1002
}
  0
LINE
  5
997
330
900
100
AcDbEntity
  8
D35160210
100
AcDbLine
 10
0.165817841193661
 20
-0.9554336598619615
 30
0.0
 11
0.1634821661419856
 21
-0.956174630025332
 31
0.0
1001
REVIT
1002
{
1070
     2
1000
-2001350
1002
}
  0
LINE
  5
998
330
900
100
AcDbEntity
  8
D35160210
100
AcDbLine
 10
0.1634821661419856
 20
-0.956174630025332
 30
0.0
 11
0.16198447133449
 21
-0.9565963917200209
 31
0.0
1001
REVIT
1002
{
1070
     2
1000
-2001350
1002
}
  0
LINE
  5
999
330
900
100
AcDbEntity
  8
D35160210
100
AcDbLine
 10
0.2202241234551518
 20
0.8916098891004134
 30
0.0
 11
0.1991842720854979
 21
0.9280519806563541
 31
0.0
1001
REVIT
1002
{
1070
     2
1000
-2001350
1002
}
  0
LINE
  5
99A
330
900
100
AcDbEntity
  8
D35160210
100
AcDbLine
 10
0.1991842720854731
 20
-0.9280519806563541
 30
0.0
 11
0.220224123455127
 21
-0.8916098891004134
 31
0.0
1001
REVIT
1002
{
1070
     2
1000
-2001350
1002
}
  0
LINE
  5
99B
330
900
100
AcDbEntity
  8
D35160210
100
AcDbLine
 10
0.2202241234551518
 20
0.8916098891004134
 30
0.0
 11
0.2232941024141279
 21
0.886529935552369
 31
0.0
1001
REVIT
1002
{
1070
     2
1000
-2001350
1002
}
  0
LINE
  5
99C
330
900
100
AcDbEntity
  8
D35160210
100
AcDbLine
 10
0.2232941024141279
 20
0.886529935552369
 30
0.0
 11
0.22656476967747
 21
0.8815768118398546
 31
0.0
1001
REVIT
1002
{
1070
     2
1000
-2001350
1002
}
  0
LINE
  5
99D
330
900
100
AcDbEntity
  8
D35160210
100
AcDbLine
 10
0.22656476967747
 20
0.8815768118398546
 30
0.0
 11
0.2300308928752592
 21
0.8767584419042238
 31
0.0
1001
REVIT
1002
{
1070
     2
1000
-2001350
1002
}
  0
LINE
  5
99E
330
900
100
AcDbEntity
  8
D35160210
100
AcDbLine
 10
0.2300308928752592
 20
0.8767584419042238
 30
0.0
 11
0.2336869269497814
 21
0.8720825341094824
 31
0.0
1001
REVIT
1002
{
1070
     2
1000
-2001350
1002
}
  0
LINE
  5
99F
330
900
100
AcDbEntity
  8
D35160210
100
AcDbLine
 10
0.2336869269497814
 20
0.8720825341094824
 30
0.0
 11
0.2375270230264324
 21
0.8675565689106592
 31
0.0
1001
REVIT
1002
{
1070
     2
1000
-2001350
1002
}
  0
LINE
  5
9A0
330
900
100
AcDbEntity
  8
D35160210
100
AcDbLine
 10
0.2375270230264324
 20
0.8675565689106592
 30
0.0
 11
0.2415450377706616
 21
0.8631877868865574
 31
0.0
1001
REVIT
1002
{
1070
     2
1000
-2001350
1002
}
  0
LINE
  5
9A1
330
900
100
AcDbEntity
  8
D35160210
100
AcDbLine
 10
0.2415450377706616
 20
0.8631877868865574
 30
0.0
 11
0.2457345432160114
 21
0.8589831771564762
 31
0.0
1001
REVIT
1002
{
1070
     2
1000
-2001350
1002
}
  0
LINE
  5
9A2
330
900
100
AcDbEntity
  8
D35160210
100
AcDbLine
 10
0.2457345432160114
 20
0.8589831771564762
 30
0.0
 11
0.2500888370474819
 21
0.8549494661990431
 31
0.0
1001
REVIT
1002
{
1070
     2
1000
-2001350
1002
}
  0
LINE
  5
9A3
330
900
100
AcDbEntity
  8
D35160210
100
AcDbLine
 10
0.2500888370474819
 20
0.8549494661990431
 30
0.0
 11
0.2546009533238092
 21
0.8510931070913068
 31
0.0
1001
REVIT
1002
{
1070
     2
1000
-2001350
1002
}
  0
LINE
  5
9A4
330
900
100
AcDbEntity
  8
D35160210
100
AcDbLine
 10
0.2546009533238092
 20
0.8510931070913068
 30
0.0
 11
0.2592636736214864
 21
0.847420269185198
 31
0.0
1001
REVIT
1002
{
1070
     2
1000
-2001350
1002
}
  0
LINE
  5
9A5
330
900
100
AcDbEntity
  8
D35160210
100
AcDbLine
 10
0.2592636736214864
 20
0.847420269185198
 30
0.0
 11
0.2640695385826959
 21
0.8439368282378667
 31
0.0
1001
REVIT
1002
{
1070
     2
1000
-2001350
1002
}
  0
LINE
  5
9A6
330
900
100
AcDbEntity
  8
D35160210
100
AcDbLine
 10
0.2640695385826959
 20
0.8439368282378667
 30
0.0
 11
0.2690108598486969
 21
0.8406483570117353
 31
0.0
1001
REVIT
1002
{
1070
     2
1000
-2001350
1002
}
  0
LINE
  5
9A7
330
900
100
AcDbEntity
  8
D35160210
100
AcDbLine
 10
0.2690108598486969
 20
0.8406483570117353
 30
0.0
 11
0.2740797323595565
 21
0.8375601163592614
 31
0.0
1001
REVIT
1002
{
1070
     2
1000
-2001350
1002
}
  0
LINE
  5
9A8
330
900
100
AcDbEntity
  8
D35160210
100
AcDbLine
 10
0.2740797323595565
 20
0.8375601163592614
 30
0.0
 11
0.2792680470005582
 21
0.8346770468067051
 31
0.0
1001
REVIT
1002
{
1070
     2
1000
-2001350
1002
}
  0
LINE
  5
9A9
330
900
100
AcDbEntity
  8
D35160210
100
AcDbLine
 10
0.2792680470005582
 20
0.8346770468067051
 30
0.0
 11
0.2845675035750581
 21
0.8320037606503179
 31
0.0
1001
REVIT
1002
{
1070
     2
1000
-2001350
1002
}
  0
LINE
  5
9AA
330
900
100
AcDbEntity
  8
D35160210
100
AcDbLine
 10
0.2845675035750581
 20
0.8320037606503179
 30
0.0
 11
0.2899696240830281
 21
0.8295445345776906
 31
0.0
1001
REVIT
1002
{
1070
     2
1000
-2001350
1002
}
  0
LINE
  5
9AB
330
900
100
AcDbEntity
  8
D35160210
100
AcDbLine
 10
0.2899696240830281
 20
0.8295445345776906
 30
0.0
 11
0.2954657662840461
 21
0.82730330282593
 31
0.0
1001
REVIT
1002
{
1070
     2
1000
-2001350
1002
}
  0
LINE
  5
9AC
330
900
100
AcDbEntity
  8
D35160210
100
AcDbLine
 10
0.2954657662840461
 20
0.82730330282593
 30
0.0
 11
0.301047137523037
 21
0.8252836508877388
 31
0.0
1001
REVIT
1002
{
1070
     2
1000
-2001350
1002
}
  0
LINE
  5
9AD
330
900
100
AcDbEntity
  8
D35160210
100
AcDbLine
 10
0.301047137523037
 20
0.8252836508877388
 30
0.0
 11
0.3067048087966508
 21
0.8234888097753641
 31
0.0
1001
REVIT
1002
{
1070
     2
1000
-2001350
1002
}
  0
LINE
  5
9AE
330
900
100
AcDbEntity
  8
D35160210
100
AcDbLine
 10
0.3067048087966508
 20
0.8234888097753641
 30
0.0
 11
0.3103326528680785
 21
0.8224671826347831
 31
0.0
1001
REVIT
1002
{
1070
     2
1000
-2001350
1002
}
  0
LINE
  5
9AF
330
900
100
AcDbEntity
  8
D35160210
100
AcDbLine
 10
0.3103326528680554
 20
-0.8224671826347833
 30
0.0
 11
0.3046312255169976
 21
-0.8241177658709428
 31
0.0
1001
REVIT
1002
{
1070
     2
1000
-2001350
1002
}
  0
LINE
  5
9B0
330
900
100
AcDbEntity
  8
D35160210
100
AcDbLine
 10
0.3046312255169976
 20
-0.8241177658709428
 30
0.0
 11
0.2990003644243337
 21
-0.8259950251002566
 31
0.0
1001
REVIT
1002
{
1070
     2
1000
-2001350
1002
}
  0
LINE
  5
9B1
330
900
100
AcDbEntity
  8
D35160210
100
AcDbLine
 10
0.2990003644243337
 20
-0.8259950251002566
 30
0.0
 11
0.2934490777666259
 21
-0.8280959571084077
 31
0.0
1001
REVIT
1002
{
1070
     2
1000
-2001350
1002
}
  0
LINE
  5
9B2
330
900
100
AcDbEntity
  8
D35160210
100
AcDbLine
 10
0.2934490777666259
 20
-0.8280959571084077
 30
0.0
 11
0.2879862464183169
 21
-0.830417200852368
 31
0.0
1001
REVIT
1002
{
1070
     2
1000
-2001350
1002
}
  0
LINE
  5
9B3
330
900
100
AcDbEntity
  8
D35160210
100
AcDbLine
 10
0.2879862464183169
 20
-0.830417200852368
 30
0.0
 11
0.282620609744221
 21
-0.8329550428373034
 31
0.0
1001
REVIT
1002
{
1070
     2
1000
-2001350
1002
}
  0
LINE
  5
9B4
330
900
100
AcDbEntity
  8
D35160210
100
AcDbLine
 10
0.282620609744221
 20
-0.8329550428373034
 30
0.0
 11
0.2773607516184082
 21
-0.8357054230574314
 31
0.0
1001
REVIT
1002
{
1070
     2
1000
-2001350
1002
}
  0
LINE
  5
9B5
330
900
100
AcDbEntity
  8
D35160210
100
AcDbLine
 10
0.2773607516184082
 20
-0.8357054230574314
 30
0.0
 11
0.2722150866918369
 21
-0.8386639414911039
 31
0.0
1001
REVIT
1002
{
1070
     2
1000
-2001350
1002
}
  0
LINE
  5
9B6
330
900
100
AcDbEntity
  8
D35160210
100
AcDbLine
 10
0.2722150866918369
 20
-0.8386639414911039
 30
0.0
 11
0.2671918469307091
 21
-0.8418258651399542
 31
0.0
1001
REVIT
1002
{
1070
     2
1000
-2001350
1002
}
  0
LINE
  5
9B7
330
900
100
AcDbEntity
  8
D35160210
100
AcDbLine
 10
0.2671918469307091
 20
-0.8418258651399542
 30
0.0
 11
0.2622990684470707
 21
-0.8451861356006327
 31
0.0
1001
REVIT
1002
{
1070
     2
1000
-2001350
1002
}
  0
LINE
  5
9B8
330
900
100
AcDbEntity
  8
D35160210
100
AcDbLine
 10
0.2622990684470707
 20
-0.8451861356006327
 30
0.0
 11
0.2575445786427615
 21
-0.8487393771572458
 31
0.0
1001
REVIT
1002
{
1070
     2
1000
-2001350
1002
}
  0
LINE
  5
9B9
330
900
100
AcDbEntity
  8
D35160210
100
AcDbLine
 10
0.2575445786427615
 20
-0.8487393771572458
 30
0.0
 11
0.2529359836872302
 21
-0.8524799053812815
 31
0.0
1001
REVIT
1002
{
1070
     2
1000
-2001350
1002
}
  0
LINE
  5
9BA
330
900
100
AcDbEntity
  8
D35160210
100
AcDbLine
 10
0.2529359836872302
 20
-0.8524799053812815
 30
0.0
 11
0.2484806563492921
 21
-0.8564017362255087
 31
0.0
1001
REVIT
1002
{
1070
     2
1000
-2001350
1002
}
  0
LINE
  5
9BB
330
900
100
AcDbEntity
  8
D35160210
100
AcDbLine
 10
0.2484806563492921
 20
-0.8564017362255087
 30
0.0
 11
0.2441857242022678
 21
-0.8604985955971942
 31
0.0
1001
REVIT
1002
{
1070
     2
1000
-2001350
1002
}
  0
LINE
  5
9BC
330
900
100
AcDbEntity
  8
D35160210
100
AcDbLine
 10
0.2441857242022678
 20
-0.8604985955971942
 30
0.0
 11
0.240058058221388
 21
-0.8647639293952893
 31
0.0
1001
REVIT
1002
{
1070
     2
1000
-2001350
1002
}
  0
LINE
  5
9BD
330
900
100
AcDbEntity
  8
D35160210
100
AcDbLine
 10
0.240058058221388
 20
-0.8647639293952893
 30
0.0
 11
0.236104261791704
 21
-0.8691909139956218
 31
0.0
1001
REVIT
1002
{
1070
     2
1000
-2001350
1002
}
  0
LINE
  5
9BE
330
900
100
AcDbEntity
  8
D35160210
100
AcDbLine
 10
0.236104261791704
 20
-0.8691909139956218
 30
0.0
 11
0.2323306601440667
 21
-0.8737724671671871
 31
0.0
1001
REVIT
1002
{
1070
     2
1000
-2001350
1002
}
  0
LINE
  5
9BF
330
900
100
AcDbEntity
  8
D35160210
100
AcDbLine
 10
0.2323306601440667
 20
-0.8737724671671871
 30
0.0
 11
0.2287432902361264
 21
-0.8785012594022648
 31
0.0
1001
REVIT
1002
{
1070
     2
1000
-2001350
1002
}
  0
LINE
  5
9C0
330
900
100
AcDbEntity
  8
D35160210
100
AcDbLine
 10
0.2287432902361264
 20
-0.8785012594022648
 30
0.0
 11
0.2253478910944651
 21
-0.8833697256420245
 31
0.0
1001
REVIT
1002
{
1070
     2
1000
-2001350
1002
}
  0
LINE
  5
9C1
330
900
100
AcDbEntity
  8
D35160210
100
AcDbLine
 10
0.2253478910944651
 20
-0.8833697256420245
 30
0.0
 11
0.2221498946334002
 21
-0.8883700773790488
 31
0.0
1001
REVIT
1002
{
1070
     2
1000
-2001350
1002
}
  0
LINE
  5
9C2
330
900
100
AcDbEntity
  8
D35160210
100
AcDbLine
 10
0.2221498946334002
 20
-0.8883700773790488
 30
0.0
 11
0.220224123455127
 21
-0.8916098891004134
 31
0.0
1001
REVIT
1002
{
1070
     2
1000
-2001350
1002
}
  0
LINE
  5
9C3
330
900
100
AcDbEntity
  8
D35160210
100
AcDbLine
 10
0.3597511987286843
 20
0.8092255231803145
 30
0.0
 11
0.3103326528680785
 21
0.8224671826347831
 31
0.0
1001
REVIT
1002
{
1070
     2
1000
-2001350
1002
}
  0
LINE
  5
9C4
330
900
100
AcDbEntity
  8
D35160210
100
AcDbLine
 10
0.3103326528680554
 20
-0.8224671826347833
 30
0.0
 11
0.3597511987286612
 21
-0.8092255231803147
 31
0.0
1001
REVIT
1002
{
1070
     2
1000
-2001350
1002
}
  0
LINE
  5
9C5
330
900
100
AcDbEntity
  8
D35160210
100
AcDbLine
 10
2.25000000000001
 20
-2.556070639051734
 30
0.0
 11
2.439862767839645
 21
-2.446453318930435
 31
0.0
1001
REVIT
1002
{
1070
     2
1000
-2001350
1002
}
  0
LINE
  5
9C6
330
900
100
AcDbEntity
  8
D35160210
100
AcDbLine
 10
2.060137232160375
 20
-2.446453318930435
 30
0.0
 11
2.25000000000001
 21
-2.556070639051734
 31
0.0
1001
REVIT
1002
{
1070
     2
1000
-2001350
1002
}
  0
LINE
  5
9C7
330
900
100
AcDbEntity
  8
D35160210
100
AcDbLine
 10
2.03512160156802
 20
-1.433678328357567
 30
0.0
 11
2.053232715890171
 21
-1.427050823595456
 31
0.0
1001
REVIT
1002
{
1070
     2
1000
-2001350
1002
}
  0
LINE
  5
9C8
330
900
100
AcDbEntity
  8
D35160210
100
AcDbLine
 10
2.053232715890171
 20
-1.427050823595456
 30
0.0
 11
2.069288534582788
 21
-1.42171976074526
 31
0.0
1001
REVIT
1002
{
1070
     2
1000
-2001350
1002
}
  0
LINE
  5
9C9
330
900
100
AcDbEntity
  8
D35160210
100
AcDbLine
 10
2.069288534582788
 20
-1.42171976074526
 30
0.0
 11
2.08362898064472
 21
-1.417378609092866
 31
0.0
1001
REVIT
1002
{
1070
     2
1000
-2001350
1002
}
  0
LINE
  5
9CA
330
900
100
AcDbEntity
  8
D35160210
100
AcDbLine
 10
2.08362898064472
 20
-1.417378609092866
 30
0.0
 11
2.096529972627436
 21
-1.413804408026871
 31
0.0
1001
REVIT
1002
{
1070
     2
1000
-2001350
1002
}
  0
LINE
  5
9CB
330
900
100
AcDbEntity
  8
D35160210
100
AcDbLine
 10
2.096529972627436
 20
-1.413804408026871
 30
0.0
 11
2.108216058655109
 21
-1.410832530602379
 31
0.0
1001
REVIT
1002
{
1070
     2
1000
-2001350
1002
}
  0
LINE
  5
9CC
330
900
100
AcDbEntity
  8
D35160210
100
AcDbLine
 10
2.108216058655109
 20
-1.410832530602379
 30
0.0
 11
2.11887084661874
 21
-1.408339682174078
 31
0.0
1001
REVIT
1002
{
1070
     2
1000
-2001350
1002
}
  0
LINE
  5
9CD
330
900
100
AcDbEntity
  8
D35160210
100
AcDbLine
 10
2.11887084661874
 20
-1.408339682174078
 30
0.0
 11
2.128645357064669
 21
-1.406232287678913
 31
0.0
1001
REVIT
1002
{
1070
     2
1000
-2001350
1002
}
  0
LINE
  5
9CE
330
900
100
AcDbEntity
  8
D35160210
100
AcDbLine
 10
2.128645357064669
 20
-1.406232287678913
 30
0.0
 11
2.137664619524713
 21
-1.404438445912029
 31
0.0
1001
REVIT
1002
{
1070
     2
1000
-2001350
1002
}
  0
LINE
  5
9CF
330
900
100
AcDbEntity
  8
D35160210
100
AcDbLine
 10
2.137664619524713
 20
-1.404438445912029
 30
0.0
 11
2.146032853880335
 21
-1.402902275987548
 31
0.0
1001
REVIT
1002
{
1070
     2
1000
-2001350
1002
}
  0
LINE
  5
9D0
330
900
100
AcDbEntity
  8
D35160210
100
AcDbLine
 10
2.146032853880335
 20
-1.402902275987548
 30
0.0
 11
2.1538375383848
 21
-1.40157989010027
 31
0.0
1001
REVIT
1002
{
1070
     2
1000
-2001350
1002
}
  0
LINE
  5
9D1
330
900
100
AcDbEntity
  8
D35160210
100
AcDbLine
 10
2.1538375383848
 20
-1.40157989010027
 30
0.0
 11
2.161152611285229
 21
-1.40043648708882
 31
0.0
1001
REVIT
1002
{
1070
     2
1000
-2001350
1002
}
  0
LINE
  5
9D2
330
900
100
AcDbEntity
  8
D35160210
100
AcDbLine
 10
2.161152611285229
 20
-1.40043648708882
 30
0.0
 11
2.168041001051745
 21
-1.399444228803959
 31
0.0
1001
REVIT
1002
{
1070
     2
1000
-2001350
1002
}
  0
LINE
  5
9D3
330
900
100
AcDbEntity
  8
D35160210
100
AcDbLine
 10
2.168041001051745
 20
-1.399444228803959
 30
0.0
 11
2.174556636474786
 21
-1.398580670313526
 31
0.0
1001
REVIT
1002
{
1070
     2
1000
-2001350
1002
}
  0
LINE
  5
9D4
330
900
100
AcDbEntity
  8
D35160210
100
AcDbLine
 10
2.174556636474786
 20
-1.398580670313526
 30
0.0
 11
2.180746052988848
 21
-1.397827586828471
 31
0.0
1001
REVIT
1002
{
1070
     2
1000
-2001350
1002
}
  0
LINE
  5
9D5
330
900
100
AcDbEntity
  8
D35160210
100
AcDbLine
 10
2.180746052988848
 20
-1.397827586828471
 30
0.0
 11
2.1866496844837
 21
-1.397170088190398
 31
0.0
1001
REVIT
1002
{
1070
     2
1000
-2001350
1002
}
  0
LINE
  5
9D6
330
900
100
AcDbEntity
  8
D35160210
100
AcDbLine
 10
2.1866496844837
 20
-1.397170088190398
 30
0.0
 11
2.192302909117788
 21
-1.396595944169485
 31
0.0
1001
REVIT
1002
{
1070
     2
1000
-2001350
1002
}
  0
LINE
  5
9D7
330
900
100
AcDbEntity
  8
D35160210
100
AcDbLine
 10
2.192302909117788
 20
-1.396595944169485
 30
0.0
 11
2.197736901868536
 21
-1.396095065994293
 31
0.0
1001
REVIT
1002
{
1070
     2
1000
-2001350
1002
}
  0
LINE
  5
9D8
330
900
100
AcDbEntity
  8
D35160210
100
AcDbLine
 10
2.197736901868536
 20
-1.396095065994293
 30
0.0
 11
2.202979334578841
 21
-1.395659104884606
 31
0.0
1001
REVIT
1002
{
1070
     2
1000
-2001350
1002
}
  0
LINE
  5
9D9
330
900
100
AcDbEntity
  8
D35160210
100
AcDbLine
 10
2.202979334578841
 20
-1.395659104884606
 30
0.0
 11
2.208054955168027
 21
-1.395281139109267
 31
0.0
1001
REVIT
1002
{
1070
     2
1000
-2001350
1002
}
  0
LINE
  5
9DA
330
900
100
AcDbEntity
  8
D35160210
100
AcDbLine
 10
2.208054955168027
 20
-1.395281139109267
 30
0.0
 11
2.212986070762005
 21
-1.394955428704156
 31
0.0
1001
REVIT
1002
{
1070
     2
1000
-2001350
1002
}
  0
LINE
  5
9DB
330
900
100
AcDbEntity
  8
D35160210
100
AcDbLine
 10
2.212986070762005
 20
-1.394955428704156
 30
0.0
 11
2.217792954226448
 21
-1.394677222437193
 31
0.0
1001
REVIT
1002
{
1070
     2
1000
-2001350
1002
}
  0
LINE
  5
9DC
330
900
100
AcDbEntity
  8
D35160210
100
AcDbLine
 10
2.217792954226448
 20
-1.394677222437193
 30
0.0
 11
2.222494189557686
 21
-1.394442605552809
 31
0.0
1001
REVIT
1002
{
1070
     2
1000
-2001350
1002
}
  0
LINE
  5
9DD
330
900
100
AcDbEntity
  8
D35160210
100
AcDbLine
 10
2.222494189557686
 20
-1.394442605552809
 30
0.0
 11
2.227106968499571
 21
-1.394248379716563
 31
0.0
1001
REVIT
1002
{
1070
     2
1000
-2001350
1002
}
  0
LINE
  5
9DE
330
900
100
AcDbEntity
  8
D35160210
100
AcDbLine
 10
2.227106968499571
 20
-1.394248379716563
 30
0.0
 11
2.231647348387809
 21
-1.394091968718287
 31
0.0
1001
REVIT
1002
{
1070
     2
1000
-2001350
1002
}
  0
LINE
  5
9DF
330
900
100
AcDbEntity
  8
D35160210
100
AcDbLine
 10
2.231647348387809
 20
-1.394091968718287
 30
0.0
 11
2.236130479410533
 21
-1.393971345096252
 31
0.0
1001
REVIT
1002
{
1070
     2
1000
-2001350
1002
}
  0
LINE
  5
9E0
330
900
100
AcDbEntity
  8
D35160210
100
AcDbLine
 10
2.236130479410533
 20
-1.393971345096252
 30
0.0
 11
2.240570808091971
 21
-1.393884974065743
 31
0.0
1001
REVIT
1002
{
1070
     2
1000
-2001350
1002
}
  0
LINE
  5
9E1
330
900
100
AcDbEntity
  8
D35160210
100
AcDbLine
 10
2.240570808091971
 20
-1.393884974065743
 30
0.0
 11
2.244982262763905
 21
-1.393831772082668
 31
0.0
1001
REVIT
1002
{
1070
     2
1000
-2001350
1002
}
  0
LINE
  5
9E2
330
900
100
AcDbEntity
  8
D35160210
100
AcDbLine
 10
2.244982262763905
 20
-1.393831772082668
 30
0.0
 11
2.249378426020578
 21
-1.393811078125678
 31
0.0
1001
REVIT
1002
{
1070
     2
1000
-2001350
1002
}
  0
LINE
  5
9E3
330
900
100
AcDbEntity
  8
D35160210
100
AcDbLine
 10
2.249378426020578
 20
-1.393811078125678
 30
0.0
 11
2.25000000000001
 21
-1.393810755631635
 31
0.0
1001
REVIT
1002
{
1070
     2
1000
-2001350
1002
}
  0
LINE
  5
9E4
330
900
100
AcDbEntity
  8
D35160210
100
AcDbLine
 10
2.464878398431999
 20
-1.433678328357567
 30
0.0
 11
2.446767284109846
 21
-1.427050823595445
 31
0.0
1001
REVIT
1002
{
1070
     2
1000
-2001350
1002
}
  0
LINE
  5
9E5
330
900
100
AcDbEntity
  8
D35160210
100
AcDbLine
 10
2.446767284109846
 20
-1.427050823595445
 30
0.0
 11
2.43071146541723
 21
-1.42171976074526
 31
0.0
1001
REVIT
1002
{
1070
     2
1000
-2001350
1002
}
  0
LINE
  5
9E6
330
900
100
AcDbEntity
  8
D35160210
100
AcDbLine
 10
2.43071146541723
 20
-1.42171976074526
 30
0.0
 11
2.416371019355299
 21
-1.417378609092866
 31
0.0
1001
REVIT
1002
{
1070
     2
1000
-2001350
1002
}
  0
LINE
  5
9E7
330
900
100
AcDbEntity
  8
D35160210
100
AcDbLine
 10
2.416371019355299
 20
-1.417378609092866
 30
0.0
 11
2.403470027372582
 21
-1.413804408026871
 31
0.0
1001
REVIT
1002
{
1070
     2
1000
-2001350
1002
}
  0
LINE
  5
9E8
330
900
100
AcDbEntity
  8
D35160210
100
AcDbLine
 10
2.403470027372582
 20
-1.413804408026871
 30
0.0
 11
2.391783941344911
 21
-1.410832530602379
 31
0.0
1001
REVIT
1002
{
1070
     2
1000
-2001350
1002
}
  0
LINE
  5
9E9
330
900
100
AcDbEntity
  8
D35160210
100
AcDbLine
 10
2.391783941344911
 20
-1.410832530602379
 30
0.0
 11
2.381129153381278
 21
-1.408339682174078
 31
0.0
1001
REVIT
1002
{
1070
     2
1000
-2001350
1002
}
  0
LINE
  5
9EA
330
900
100
AcDbEntity
  8
D35160210
100
AcDbLine
 10
2.381129153381278
 20
-1.408339682174078
 30
0.0
 11
2.371354642935351
 21
-1.406232287678913
 31
0.0
1001
REVIT
1002
{
1070
     2
1000
-2001350
1002
}
  0
LINE
  5
9EB
330
900
100
AcDbEntity
  8
D35160210
100
AcDbLine
 10
2.371354642935351
 20
-1.406232287678913
 30
0.0
 11
2.362335380475306
 21
-1.404438445912029
 31
0.0
1001
REVIT
1002
{
1070
     2
1000
-2001350
1002
}
  0
LINE
  5
9EC
330
900
100
AcDbEntity
  8
D35160210
100
AcDbLine
 10
2.362335380475306
 20
-1.404438445912029
 30
0.0
 11
2.353967146119684
 21
-1.402902275987548
 31
0.0
1001
REVIT
1002
{
1070
     2
1000
-2001350
1002
}
  0
LINE
  5
9ED
330
900
100
AcDbEntity
  8
D35160210
100
AcDbLine
 10
2.353967146119684
 20
-1.402902275987548
 30
0.0
 11
2.34616246161522
 21
-1.40157989010027
 31
0.0
1001
REVIT
1002
{
1070
     2
1000
-2001350
1002
}
  0
LINE
  5
9EE
330
900
100
AcDbEntity
  8
D35160210
100
AcDbLine
 10
2.34616246161522
 20
-1.40157989010027
 30
0.0
 11
2.338847388714791
 21
-1.40043648708882
 31
0.0
1001
REVIT
1002
{
1070
     2
1000
-2001350
1002
}
  0
LINE
  5
9EF
330
900
100
AcDbEntity
  8
D35160210
100
AcDbLine
 10
2.338847388714791
 20
-1.40043648708882
 30
0.0
 11
2.331958998948275
 21
-1.399444228803959
 31
0.0
1001
REVIT
1002
{
1070
     2
1000
-2001350
1002
}
  0
LINE
  5
9F0
330
900
100
AcDbEntity
  8
D35160210
100
AcDbLine
 10
2.331958998948275
 20
-1.399444228803959
 30
0.0
 11
2.325443363525234
 21
-1.398580670313526
 31
0.0
1001
REVIT
1002
{
1070
     2
1000
-2001350
1002
}
  0
LINE
  5
9F1
330
900
100
AcDbEntity
  8
D35160210
100
AcDbLine
 10
2.325443363525234
 20
-1.398580670313526
 30
0.0
 11
2.319253947011171
 21
-1.397827586828471
 31
0.0
1001
REVIT
1002
{
1070
     2
1000
-2001350
1002
}
  0
LINE
  5
9F2
330
900
100
AcDbEntity
  8
D35160210
100
AcDbLine
 10
2.319253947011171
 20
-1.397827586828471
 30
0.0
 11
2.31335031551632
 21
-1.397170088190398
 31
0.0
1001
REVIT
1002
{
1070
     2
1000
-2001350
1002
}
  0
LINE
  5
9F3
330
900
100
AcDbEntity
  8
D35160210
100
AcDbLine
 10
2.31335031551632
 20
-1.397170088190398
 30
0.0
 11
2.307697090882232
 21
-1.396595944169485
 31
0.0
1001
REVIT
1002
{
1070
     2
1000
-2001350
1002
}
  0
LINE
  5
9F4
330
900
100
AcDbEntity
  8
D35160210
100
AcDbLine
 10
2.307697090882232
 20
-1.396595944169485
 30
0.0
 11
2.302263098131485
 21
-1.396095065994293
 31
0.0
1001
REVIT
1002
{
1070
     2
1000
-2001350
1002
}
  0
LINE
  5
9F5
330
900
100
AcDbEntity
  8
D35160210
100
AcDbLine
 10
2.302263098131485
 20
-1.396095065994293
 30
0.0
 11
2.297020665421179
 21
-1.395659104884606
 31
0.0
1001
REVIT
1002
{
1070
     2
1000
-2001350
1002
}
  0
LINE
  5
9F6
330
900
100
AcDbEntity
  8
D35160210
100
AcDbLine
 10
2.297020665421179
 20
-1.395659104884606
 30
0.0
 11
2.291945044831994
 21
-1.395281139109267
 31
0.0
1001
REVIT
1002
{
1070
     2
1000
-2001350
1002
}
  0
LINE
  5
9F7
330
900
100
AcDbEntity
  8
D35160210
100
AcDbLine
 10
2.291945044831994
 20
-1.395281139109267
 30
0.0
 11
2.287013929238016
 21
-1.394955428704156
 31
0.0
1001
REVIT
1002
{
1070
     2
1000
-2001350
1002
}
  0
LINE
  5
9F8
330
900
100
AcDbEntity
  8
D35160210
100
AcDbLine
 10
2.287013929238016
 20
-1.394955428704156
 30
0.0
 11
2.282207045773573
 21
-1.394677222437193
 31
0.0
1001
REVIT
1002
{
1070
     2
1000
-2001350
1002
}
  0
LINE
  5
9F9
330
900
100
AcDbEntity
  8
D35160210
100
AcDbLine
 10
2.282207045773573
 20
-1.394677222437193
 30
0.0
 11
2.277505810442335
 21
-1.394442605552809
 31
0.0
1001
REVIT
1002
{
1070
     2
1000
-2001350
1002
}
  0
LINE
  5
9FA
330
900
100
AcDbEntity
  8
D35160210
100
AcDbLine
 10
2.277505810442335
 20
-1.394442605552809
 30
0.0
 11
2.272893031500448
 21
-1.394248379716563
 31
0.0
1001
REVIT
1002
{
1070
     2
1000
-2001350
1002
}
  0
LINE
  5
9FB
330
900
100
AcDbEntity
  8
D35160210
100
AcDbLine
 10
2.272893031500448
 20
-1.394248379716563
 30
0.0
 11
2.268352651612211
 21
-1.394091968718287
 31
0.0
1001
REVIT
1002
{
1070
     2
1000
-2001350
1002
}
  0
LINE
  5
9FC
330
900
100
AcDbEntity
  8
D35160210
100
AcDbLine
 10
2.268352651612211
 20
-1.394091968718287
 30
0.0
 11
2.263869520589485
 21
-1.393971345096252
 31
0.0
1001
REVIT
1002
{
1070
     2
1000
-2001350
1002
}
  0
LINE
  5
9FD
330
900
100
AcDbEntity
  8
D35160210
100
AcDbLine
 10
2.263869520589485
 20
-1.393971345096252
 30
0.0
 11
2.259429191908047
 21
-1.393884974065743
 31
0.0
1001
REVIT
1002
{
1070
     2
1000
-2001350
1002
}
  0
LINE
  5
9FE
330
900
100
AcDbEntity
  8
D35160210
100
AcDbLine
 10
2.259429191908047
 20
-1.393884974065743
 30
0.0
 11
2.255017737236116
 21
-1.393831772082668
 31
0.0
1001
REVIT
1002
{
1070
     2
1000
-2001350
1002
}
  0
LINE
  5
9FF
330
900
100
AcDbEntity
  8
D35160210
100
AcDbLine
 10
2.255017737236116
 20
-1.393831772082668
 30
0.0
 11
2.250621573979442
 21
-1.393811078125678
 31
0.0
1001
REVIT
1002
{
1070
     2
1000
-2001350
1002
}
  0
LINE
  5
A00
330
900
100
AcDbEntity
  8
D35160210
100
AcDbLine
 10
2.250621573979442
 20
-1.393811078125678
 30
0.0
 11
2.25000000000001
 21
-1.393810755631635
 31
0.0
1001
REVIT
1002
{
1070
     2
1000
-2001350
1002
}
  0
LINE
  5
A01
330
900
100
AcDbEntity
  8
D35160210
100
AcDbLine
 10
1.999991362177581
 20
-1.497897607058496
 30
0.0
 11
1.996951513321786
 21
-1.491642547317758
 31
0.0
1001
REVIT
1002
{
1070
     2
1000
-2001350
1002
}
  0
LINE
  5
A02
330
900
100
AcDbEntity
  8
D35160210
100
AcDbLine
 10
1.996951513321786
 20
-1.491642547317758
 30
0.0
 11
1.994990829533561
 21
-1.484322169428507
 31
0.0
1001
REVIT
1002
{
1070
     2
1000
-2001350
1002
}
  0
LINE
  5
A03
330
900
100
AcDbEntity
  8
D35160210
100
AcDbLine
 10
1.994990829533561
 20
-1.484322169428507
 30
0.0
 11
1.994586326373692
 21
-1.476422186452483
 31
0.0
1001
REVIT
1002
{
1070
     2
1000
-2001350
1002
}
  0
LINE
  5
A04
330
900
100
AcDbEntity
  8
D35160210
100
AcDbLine
 10
1.994586326373692
 20
-1.476422186452483
 30
0.0
 11
1.995854798346979
 21
-1.468739940282047
 31
0.0
1001
REVIT
1002
{
1070
     2
1000
-2001350
1002
}
  0
LINE
  5
A05
330
900
100
AcDbEntity
  8
D35160210
100
AcDbLine
 10
1.995854798346979
 20
-1.468739940282047
 30
0.0
 11
1.998451784309461
 21
-1.461949042098316
 31
0.0
1001
REVIT
1002
{
1070
     2
1000
-2001350
1002
}
  0
LINE
  5
A06
330
900
100
AcDbEntity
  8
D35160210
100
AcDbLine
 10
1.998451784309461
 20
-1.461949042098316
 30
0.0
 11
2.001850594032365
 21
-1.456300405608756
 31
0.0
1001
REVIT
1002
{
1070
     2
1000
-2001350
1002
}
  0
LINE
  5
A07
330
900
100
AcDbEntity
  8
D35160210
100
AcDbLine
 10
2.001850594032365
 20
-1.456300405608756
 30
0.0
 11
2.005639524640823
 21
-1.45169994903795
 31
0.0
1001
REVIT
1002
{
1070
     2
1000
-2001350
1002
}
  0
LINE
  5
A08
330
900
100
AcDbEntity
  8
D35160210
100
AcDbLine
 10
2.005639524640823
 20
-1.45169994903795
 30
0.0
 11
2.009600766669827
 21
-1.447922306698677
 31
0.0
1001
REVIT
1002
{
1070
     2
1000
-2001350
1002
}
  0
LINE
  5
A09
330
900
100
AcDbEntity
  8
D35160210
100
AcDbLine
 10
2.009600766669827
 20
-1.447922306698677
 30
0.0
 11
2.013656452405216
 21
-1.444747023625497
 31
0.0
1001
REVIT
1002
{
1070
     2
1000
-2001350
1002
}
  0
LINE
  5
A0A
330
900
100
AcDbEntity
  8
D35160210
100
AcDbLine
 10
2.013656452405216
 20
-1.444747023625497
 30
0.0
 11
2.017800637303214
 21
-1.442003040167209
 31
0.0
1001
REVIT
1002
{
1070
     2
1000
-2001350
1002
}
  0
LINE
  5
A0B
330
900
100
AcDbEntity
  8
D35160210
100
AcDbLine
 10
2.017800637303214
 20
-1.442003040167209
 30
0.0
 11
2.022055949655687
 21
-1.439569291484998
 31
0.0
1001
REVIT
1002
{
1070
     2
1000
-2001350
1002
}
  0
LINE
  5
A0C
330
900
100
AcDbEntity
  8
D35160210
100
AcDbLine
 10
2.022055949655687
 20
-1.439569291484998
 30
0.0
 11
2.026452186963961
 21
-1.437363173272343
 31
0.0
1001
REVIT
1002
{
1070
     2
1000
-2001350
1002
}
  0
LINE
  5
A0D
330
900
100
AcDbEntity
  8
D35160210
100
AcDbLine
 10
2.026452186963961
 20
-1.437363173272343
 30
0.0
 11
2.031017374066072
 21
-1.43532895982157
 31
0.0
1001
REVIT
1002
{
1070
     2
1000
-2001350
1002
}
  0
LINE
  5
A0E
330
900
100
AcDbEntity
  8
D35160210
100
AcDbLine
 10
2.031017374066072
 20
-1.43532895982157
 30
0.0
 11
2.035121601568011
 21
-1.433678328357567
 31
0.0
1001
REVIT
1002
{
1070
     2
1000
-2001350
1002
}
  0
LINE
  5
A0F
330
900
100
AcDbEntity
  8
D35160210
100
AcDbLine
 10
2.500008637822441
 20
-1.497897607058496
 30
0.0
 11
2.503048486678236
 21
-1.491642547317758
 31
0.0
1001
REVIT
1002
{
1070
     2
1000
-2001350
1002
}
  0
LINE
  5
A10
330
900
100
AcDbEntity
  8
D35160210
100
AcDbLine
 10
2.503048486678236
 20
-1.491642547317758
 30
0.0
 11
2.505009170466461
 21
-1.484322169428507
 31
0.0
1001
REVIT
1002
{
1070
     2
1000
-2001350
1002
}
  0
LINE
  5
A11
330
900
100
AcDbEntity
  8
D35160210
100
AcDbLine
 10
2.505009170466461
 20
-1.484322169428507
 30
0.0
 11
2.505413673626328
 21
-1.476422186452483
 31
0.0
1001
REVIT
1002
{
1070
     2
1000
-2001350
1002
}
  0
LINE
  5
A12
330
900
100
AcDbEntity
  8
D35160210
100
AcDbLine
 10
2.505413673626328
 20
-1.476422186452483
 30
0.0
 11
2.504145201653043
 21
-1.468739940282047
 31
0.0
1001
REVIT
1002
{
1070
     2
1000
-2001350
1002
}
  0
LINE
  5
A13
330
900
100
AcDbEntity
  8
D35160210
100
AcDbLine
 10
2.504145201653043
 20
-1.468739940282047
 30
0.0
 11
2.501548215690561
 21
-1.461949042098316
 31
0.0
1001
REVIT
1002
{
1070
     2
1000
-2001350
1002
}
  0
LINE
  5
A14
330
900
100
AcDbEntity
  8
D35160210
100
AcDbLine
 10
2.501548215690561
 20
-1.461949042098316
 30
0.0
 11
2.498149405967657
 21
-1.456300405608756
 31
0.0
1001
REVIT
1002
{
1070
     2
1000
-2001350
1002
}
  0
LINE
  5
A15
330
900
100
AcDbEntity
  8
D35160210
100
AcDbLine
 10
2.498149405967657
 20
-1.456300405608756
 30
0.0
 11
2.494360475359199
 21
-1.45169994903795
 31
0.0
1001
REVIT
1002
{
1070
     2
1000
-2001350
1002
}
  0
LINE
  5
A16
330
900
100
AcDbEntity
  8
D35160210
100
AcDbLine
 10
2.494360475359199
 20
-1.45169994903795
 30
0.0
 11
2.490399233330194
 21
-1.447922306698677
 31
0.0
1001
REVIT
1002
{
1070
     2
1000
-2001350
1002
}
  0
LINE
  5
A17
330
900
100
AcDbEntity
  8
D35160210
100
AcDbLine
 10
2.490399233330194
 20
-1.447922306698677
 30
0.0
 11
2.486343547594806
 21
-1.444747023625497
 31
0.0
1001
REVIT
1002
{
1070
     2
1000
-2001350
1002
}
  0
LINE
  5
A18
330
900
100
AcDbEntity
  8
D35160210
100
AcDbLine
 10
2.486343547594806
 20
-1.444747023625497
 30
0.0
 11
2.482199362696807
 21
-1.442003040167209
 31
0.0
1001
REVIT
1002
{
1070
     2
1000
-2001350
1002
}
  0
LINE
  5
A19
330
900
100
AcDbEntity
  8
D35160210
100
AcDbLine
 10
2.482199362696807
 20
-1.442003040167209
 30
0.0
 11
2.477944050344335
 21
-1.439569291484998
 31
0.0
1001
REVIT
1002
{
1070
     2
1000
-2001350
1002
}
  0
LINE
  5
A1A
330
900
100
AcDbEntity
  8
D35160210
100
AcDbLine
 10
2.477944050344335
 20
-1.439569291484998
 30
0.0
 11
2.473547813036061
 21
-1.437363173272343
 31
0.0
1001
REVIT
1002
{
1070
     2
1000
-2001350
1002
}
  0
LINE
  5
A1B
330
900
100
AcDbEntity
  8
D35160210
100
AcDbLine
 10
2.473547813036061
 20
-1.437363173272343
 30
0.0
 11
2.468982625933948
 21
-1.43532895982157
 31
0.0
1001
REVIT
1002
{
1070
     2
1000
-2001350
1002
}
  0
LINE
  5
A1C
330
900
100
AcDbEntity
  8
D35160210
100
AcDbLine
 10
2.468982625933948
 20
-1.43532895982157
 30
0.0
 11
2.464878398432011
 21
-1.433678328357567
 31
0.0
1001
REVIT
1002
{
1070
     2
1000
-2001350
1002
}
  0
LINE
  5
A1D
330
900
100
AcDbEntity
  8
D35160210
100
AcDbLine
 10
1.999991362177581
 20
-1.497897607058496
 30
0.0
 11
2.032077715605668
 21
-1.551419395695925
 31
0.0
1001
REVIT
1002
{
1070
     2
1000
-2001350
1002
}
  0
LINE
  5
A1E
330
900
100
AcDbEntity
  8
D35160210
100
AcDbLine
 10
2.467922284394358
 20
-1.551419395695925
 30
0.0
 11
2.500008637822441
 21
-1.497897607058496
 31
0.0
1001
REVIT
1002
{
1070
     2
1000
-2001350
1002
}
  0
LINE
  5
A1F
330
900
100
AcDbEntity
  8
D35160210
100
AcDbLine
 10
2.035121601568011
 20
-1.433678328357567
 30
0.0
 11
2.053232715890164
 21
-1.427050823595456
 31
0.0
1001
REVIT
1002
{
1070
     2
1000
-2001350
1002
}
  0
LINE
  5
A20
330
900
100
AcDbEntity
  8
D35160210
100
AcDbLine
 10
2.053232715890164
 20
-1.427050823595456
 30
0.0
 11
2.060137232160375
 21
-1.424758295827716
 31
0.0
1001
REVIT
1002
{
1070
     2
1000
-2001350
1002
}
  0
LINE
  5
A21
330
900
100
AcDbEntity
  8
D35160210
100
AcDbLine
 10
2.464878398432009
 20
-1.433678328357567
 30
0.0
 11
2.446767284109856
 21
-1.427050823595456
 31
0.0
1001
REVIT
1002
{
1070
     2
1000
-2001350
1002
}
  0
LINE
  5
A22
330
900
100
AcDbEntity
  8
D35160210
100
AcDbLine
 10
2.446767284109856
 20
-1.427050823595456
 30
0.0
 11
2.439862767839647
 21
-1.424758295827716
 31
0.0
1001
REVIT
1002
{
1070
     2
1000
-2001350
1002
}
  0
LINE
  5
A23
330
900
100
AcDbEntity
  8
D35160210
100
AcDbLine
 10
2.060137232160375
 20
0.9270506527370681
 30
0.0
 11
2.060137232160373
 21
-1.426057930401689
 31
0.0
1001
REVIT
1002
{
1070
     2
1000
-2001350
1002
}
  0
LINE
  5
A24
330
900
100
AcDbEntity
  8
D35160210
100
AcDbLine
 10
2.25000000000001
 20
0.3197321263819247
 30
0.0
 11
2.25000000000001
 21
0.9270506527370688
 31
0.0
1001
REVIT
1002
{
1070
     2
1000
-2001350
1002
}
  0
LINE
  5
A25
330
900
100
AcDbEntity
  8
D35160210
100
AcDbLine
 10
2.25000000000001
 20
-1.393930420976987
 30
0.0
 11
2.25000000000001
 21
-0.3242483951504536
 31
0.0
1001
REVIT
1002
{
1070
     2
1000
-2001350
1002
}
  0
LINE
  5
A26
330
900
100
AcDbEntity
  8
D35160210
100
AcDbLine
 10
2.439862767839645
 20
-1.426835001751354
 30
0.0
 11
2.439862767839645
 21
0.9270506527370695
 31
0.0
1001
REVIT
1002
{
1070
     2
1000
-2001350
1002
}
  0
LINE
  5
A27
330
900
100
AcDbEntity
  8
D35160210
100
AcDbLine
 10
2.060137232160373
 20
-2.439990355976007
 30
0.0
 11
2.060137232160373
 21
-1.567125098881259
 31
0.0
1001
REVIT
1002
{
1070
     2
1000
-2001350
1002
}
  0
LINE
  5
A28
330
900
100
AcDbEntity
  8
D35160210
100
AcDbLine
 10
2.624999999999985
 20
-0.3242483951504589
 30
0.0
 11
1.875000000000024
 21
-0.3242483951504483
 31
0.0
1001
REVIT
1002
{
1070
     2
1000
-2001350
1002
}
  0
LINE
  5
A29
330
900
100
AcDbEntity
  8
D35160210
100
AcDbLine
 10
1.875000000000033
 20
0.31973212638193
 30
0.0
 11
2.624999999999992
 21
0.3197321263819195
 31
0.0
1001
REVIT
1002
{
1070
     2
1000
-2001350
1002
}
  0
SPLINE
  5
A2A
330
900
100
AcDbEntity
  8
D35160210
100
AcDbSpline
210
0.0
220
0.0
230
1.0
 70
     8
 71
     3
 72
     9
 73
     5
 74
     0
 42
0.000000001
 43
0.0000000001
 40
0.0
 40
0.0
 40
0.0
 40
0.0
 40
0.5
 40
0.9999731754224477
 40
0.9999731754224477
 40
0.9999731754224477
 40
0.9999731754224477
 10
1.956598214173437
 20
0.2448074967691873
 30
0.0
 10
1.968693175940984
 20
0.2026920985973605
 30
0.0
 10
1.993903622679331
 20
0.1197765983032876
 30
0.0
 10
2.021156358808124
 20
0.039487100754015
 30
0.0
 10
2.035292906296618
 20
-0.0000001056607867
 30
0.0
1001
REVIT
1002
{
1070
     2
1000
-2001350
1002
}
  0
SPLINE
  5
A2B
330
900
100
AcDbEntity
  8
D35160210
100
AcDbSpline
210
0.0
220
0.0
230
1.0
 70
     8
 71
     3
 72
     9
 73
     5
 74
     0
 42
0.000000001
 43
0.0000000001
 40
0.0
 40
0.0
 40
0.0
 40
0.0
 40
0.5
 40
1.0
 40
1.0
 40
1.0
 40
1.0
 10
2.035295181664583
 20
-0.0000064613618808
 30
0.0
 10
2.021158857688233
 20
-0.0394939907775771
 30
0.0
 10
1.993907092685439
 20
-0.1197817110529467
 30
0.0
 10
1.968697093582466
 20
-0.2026947542162701
 30
0.0
 10
1.956602535505934
 20
-0.2448076065199204
 30
0.0
1001
REVIT
1002
{
1070
     2
1000
-2001350
1002
}
  0
LINE
  5
A2C
330
900
100
AcDbEntity
  8
D35160210
100
AcDbLine
 10
1.875000000000024
 20
-0.2506239727810315
 30
0.0
 11
1.875000000000024
 21
-0.3242483951504483
 31
0.0
1001
REVIT
1002
{
1070
     2
1000
-2001350
1002
}
  0
LINE
  5
A2D
330
900
100
AcDbEntity
  8
D35160210
100
AcDbLine
 10
1.875000000000033
 20
0.31973212638193
 30
0.0
 11
1.875000000000031
 21
0.2506235704695261
 31
0.0
1001
REVIT
1002
{
1070
     2
1000
-2001350
1002
}
  0
LINE
  5
A2E
330
900
100
AcDbEntity
  8
D35160210
100
AcDbLine
 10
2.624999999999992
 20
0.3197321263819195
 30
0.0
 11
2.624999999999985
 21
-0.3242483951504589
 31
0.0
1001
REVIT
1002
{
1070
     2
1000
-2001350
1002
}
  0
LINE
  5
A2F
330
900
100
AcDbEntity
  8
D35160210
100
AcDbLine
 10
2.468856493365549
 20
0.9270506527370695
 30
0.0
 11
2.031143506634471
 21
0.9270506527370681
 31
0.0
1001
REVIT
1002
{
1070
     2
1000
-2001350
1002
}
  0
SPLINE
  5
A30
330
900
100
AcDbEntity
  8
D35160210
100
AcDbSpline
210
0.0
220
0.0
230
1.0
 70
     8
 71
     3
 72
     9
 73
     5
 74
     0
 42
0.000000001
 43
0.0000000001
 40
0.0
 40
0.0
 40
0.0
 40
0.0
 40
0.5
 40
1.0
 40
1.0
 40
1.0
 40
1.0
 10
1.357388612341138
 20
0.2951085966202835
 30
0.0
 10
1.45697156795159
 20
0.2842092306635276
 30
0.0
 10
1.656461170236548
 20
0.2649355205825059
 30
0.0
 10
1.856483105332751
 20
0.2506832119650432
 30
0.0
 10
1.956598214173439
 20
0.2448074967691984
 30
0.0
1001
REVIT
1002
{
1070
     2
1000
-2001350
1002
}
  0
SPLINE
  5
A31
330
900
100
AcDbEntity
  8
D35160210
100
AcDbSpline
210
0.0
220
0.0
230
1.0
 70
     8
 71
     3
 72
    10
 73
     6
 74
     0
 42
0.000000001
 43
0.0000000001
 40
0.0
 40
0.0
 40
0.0
 40
0.0
 40
0.3333333333333333
 40
0.6666666666666666
 40
1.0
 40
1.0
 40
1.0
 40
1.0
 10
0.3597511987286879
 20
0.6639560777651261
 30
0.0
 10
0.454858239461947
 20
0.5979476351529979
 30
0.0
 10
0.6571072588143175
 20
0.4808147416841658
 30
0.0
 10
0.9969810835979533
 20
0.3545269915367093
 30
0.0
 10
1.235708960201053
 20
0.3083988573121746
 30
0.0
 10
1.35738861234115
 20
0.2951085966202726
 30
0.0
1001
REVIT
1002
{
1070
     2
1000
-2001350
1002
}
  0
SPLINE
  5
A32
330
900
100
AcDbEntity
  8
D35160210
100
AcDbSpline
210
0.0
220
0.0
230
1.0
 70
     8
 71
     3
 72
     9
 73
     5
 74
     0
 42
0.000000001
 43
0.0000000001
 40
-1.0
 40
-1.0
 40
-1.0
 40
-1.0
 40
-0.5
 40
0.0
 40
0.0
 40
0.0
 40
0.0
 10
1.956602535505933
 20
-0.2448076065199234
 30
0.0
 10
1.856486706879502
 20
-0.2506599356534767
 30
0.0
 10
1.656463330930556
 20
-0.2649337309458386
 30
0.0
 10
1.456972287764635
 20
-0.2842369140541115
 30
0.0
 10
1.357388612341138
 20
-0.2951090151215436
 30
0.0
1001
REVIT
1002
{
1070
     2
1000
-2001350
1002
}
  0
SPLINE
  5
A33
330
900
100
AcDbEntity
  8
D35160210
100
AcDbSpline
210
0.0
220
0.0
230
1.0
 70
     8
 71
     3
 72
    10
 73
     6
 74
     0
 42
0.000000001
 43
0.0000000001
 40
-1.0
 40
-1.0
 40
-1.0
 40
-1.0
 40
-0.6666666666666666
 40
-0.3333333333333333
 40
0.0
 40
0.0
 40
0.0
 40
0.0
 10
1.35738861234115
 20
-0.2951090151215406
 30
0.0
 10
1.235596003090734
 20
-0.3080038635590619
 30
0.0
 10
0.9967462155781579
 20
-0.3549434458083029
 30
0.0
 10
0.6578329304597581
 20
-0.480026802628616
 30
0.0
 10
0.4551458888906091
 20
-0.5986538548909902
 30
0.0
 10
0.3597511987286683
 20
-0.6639561810236744
 30
0.0
1001
REVIT
1002
{
1070
     2
1000
-2001350
1002
}
  0
SPLINE
  5
A34
330
900
100
AcDbEntity
  8
D35160210
100
AcDbSpline
210
0.0
220
0.0
230
1.0
 70
     8
 71
     3
 72
     9
 73
     5
 74
     0
 42
0.000000001
 43
0.0000000001
 40
-1.0
 40
-1.0
 40
-1.0
 40
-1.0
 40
-0.5
 40
0.0
 40
0.0
 40
0.0
 40
0.0
 10
2.035295181664585
 20
-0.0000064613618806
 30
0.0
 10
1.92200884276467
 20
0.0000254588930178
 30
0.0
 10
1.695682232006834
 20
-0.0000030771748465
 30
0.0
 10
1.470015430412454
 20
-0.0000444221930488
 30
0.0
 10
1.357388612341138
 20
-0.0000059969251884
 30
0.0
1001
REVIT
1002
{
1070
     2
1000
-2001350
1002
}
  0
SPLINE
  5
A35
330
900
100
AcDbEntity
  8
D35160210
100
AcDbSpline
210
0.0
220
0.0
230
1.0
 70
     8
 71
     3
 72
    10
 73
     6
 74
     0
 42
0.000000001
 43
0.0000000001
 40
-1.0
 40
-1.0
 40
-1.0
 40
-1.0
 40
-0.6666666666666666
 40
-0.3333333333333333
 40
0.0
 40
0.0
 40
0.0
 40
0.0
 10
1.35738861234115
 20
-0.0000059969251857
 30
0.0
 10
1.235708964435263
 20
0.0004229976975991
 30
0.0
 10
0.996981092302434
 20
-0.0003199985639815
 30
0.0
 10
0.6571072276224417
 20
0.0004537146172798
 30
0.0
 10
0.454858227095059
 20
-0.0008600399438998
 30
0.0
 10
0.3597511987286808
 20
-0.0000005429139788
 30
0.0
1001
REVIT
1002
{
1070
     2
1000
-2001350
1002
}
  0
LINE
  5
A36
330
900
100
AcDbEntity
  8
D35160210
100
AcDbLine
 10
0.3597511987286612
 20
-0.809225523180309
 30
0.0
 11
0.3597511987286825
 21
0.8092255231803159
 31
0.0
1001
REVIT
1002
{
1070
     2
1000
-2001350
1002
}
  0
LINE
  5
A37
330
900
100
AcDbEntity
  8
D35160210
100
AcDbLine
 10
2.439862767839645
 20
-1.567125098881251
 30
0.0
 11
2.439862767839645
 21
-2.439990355976006
 31
0.0
1001
REVIT
1002
{
1070
     2
1000
-2001350
1002
}
  0
LINE
  5
A38
330
900
100
AcDbEntity
  8
D35160210
100
AcDbLine
 10
2.25000000000001
 20
-1.587222147347213
 30
0.0
 11
2.25000000000001
 21
-2.556070639051728
 31
0.0
1001
REVIT
1002
{
1070
     2
1000
-2001350
1002
}
  0
ELLIPSE
  5
A39
330
900
100
AcDbEntity
  8
D35160210
100
AcDbEllipse
 10
2.250000000000008
 20
-1.547028050415295
 30
0.0
 11
0.21923464024261
 21
0.0
 31
0.0
210
0.0
220
0.0
230
1.0
 40
0.1833382575283443
 41
3.665191429188082
 42
4.712388980384679
1001
REVIT
1002
{
1070
     2
1000
-2001350
1002
}
  0
ELLIPSE
  5
A3A
330
900
100
AcDbEntity
  8
D35160210
100
AcDbEllipse
 10
2.250000000000008
 20
-1.54702805041529
 30
0.0
 11
0.2192346402426146
 21
0.0
 31
0.0
210
0.0
220
0.0
230
1.0
 40
0.183338257528344
 41
4.712388980384685
 42
5.759586531581279
1001
REVIT
1002
{
1070
     2
1000
-2001350
1002
}
  0
ELLIPSE
  5
A3B
330
900
100
AcDbEntity
  8
D35160210
100
AcDbEllipse
 10
2.250000000000008
 20
-1.547028050415294
 30
0.0
 11
0.2192346402426123
 21
0.0
 31
0.0
210
0.0
220
0.0
230
1.0
 40
0.1833382575283429
 41
5.759586531581281
 42
6.283185307179588
1001
REVIT
1002
{
1070
     2
1000
-2001350
1002
}
  0
ELLIPSE
  5
A3C
330
900
100
AcDbEntity
  8
D35160210
100
AcDbEllipse
 10
2.250000000000008
 20
-1.547028050415293
 30
0.0
 11
0.2192346402426124
 21
0.0
 31
0.0
210
0.0
220
0.0
230
1.0
 40
0.1833382575283432
 41
3.141592653589788
 42
3.665191429188079
1001
REVIT
1002
{
1070
     2
1000
-2001350
1002
}
  0
LINE
  5
A3D
330
900
100
AcDbEntity
  8
D35160210
100
AcDbLine
 10
0.0000000000000071
 20
1.000000000000492
 30
0.0
 11
-0.0000000000000071
 21
-1.000000000000492
 31
0.0
  0
ENDBLK
  5
902
330
900
100
AcDbEntity
  8
0
100
AcDbBlockEnd
  0
ENDSEC
  0
SECTION
  2
ENTITIES
  0
INSERT
  5
779
330
70
100
AcDbEntity
  8
D35160210
100
AcDbBlockReference
  2
D35160210 Top View
 10
-0.5756397441112
 20
18.64649825125102
 30
0.0
  0
INSERT
  5
8FF
330
70
100
AcDbEntity
  8
D35160210
100
AcDbBlockReference
  2
D35160210 Front View
 10
-0.5756397441112
 20
0.066094008910186
 30
0.0
  0
INSERT
  5
A3E
330
70
100
AcDbEntity
  8
D35160210
100
AcDbBlockReference
  2
D35160210 Side View
 10
-15.98505762593196
 20
0.066094008910186
 30
0.0
  0
ENDSEC
  0
SECTION
  2
OBJECTS
  0
DICTIONARY
  5
C
330
0
100
AcDbDictionary
281
     1
  3
ACAD_CIP_PREVIOUS_PRODUCT_INFO
350
79
  3
ACAD_COLOR
350
63
  3
ACAD_DETAILVIEWSTYLE
350
6A
  3
ACAD_GROUP
350
D
  3
ACAD_IMAGE_VARS
350
7A
  3
ACAD_LAYOUT
350
62
  3
ACAD_MATERIAL
350
10
  3
ACAD_MLEADERSTYLE
350
66
  3
ACAD_MLINESTYLE
350
5F
  3
ACAD_PLOTSETTINGS
350
61
  3
ACAD_PLOTSTYLENAME
350
E
  3
ACAD_SCALELIST
350
42
  3
ACAD_SECTIONVIEWSTYLE
350
68
  3
ACAD_TABLESTYLE
350
64
  3
ACAD_VISUALSTYLE
350
29
  3
ACDB_RECOMPOSE_DATA
350
A52
  3
AcDbVariableDictionary
350
F3
  3
REVIT_DICTIONARY
350
E8
  0
DICTIONARY
  5
A45
330
2
100
AcDbDictionary
280
     1
281
     1
  3
ACAD_LAYERSTATES
360
A46
  0
DICTIONARY
  5
EC
330
70
100
AcDbDictionary
280
     1
281
     1
  3
ACAD_SORTENTS
360
ED
  0
XRECORD
  5
79
102
{ACAD_REACTORS
330
C
102
}
330
C
100
AcDbXrecord
280
     1
300
ACD
300
2016
300
86445ACD_2016_0F
  0
DICTIONARY
  5
63
102
{ACAD_REACTORS
330
C
102
}
330
C
100
AcDbDictionary
281
     1
  0
DICTIONARY
  5
6A
102
{ACAD_REACTORS
330
C
102
}
330
C
100
AcDbDictionary
281
     1
  3
Imperial24
350
6B
  0
DICTIONARY
  5
D
102
{ACAD_REACTORS
330
C
102
}
330
C
100
AcDbDictionary
281
     1
  0
RASTERVARIABLES
  5
7A
102
{ACAD_REACTORS
330
C
102
}
330
C
100
AcDbRasterVariables
 90
        0
 70
     0
 71
     1
 72
     5
  0
DICTIONARY
  5
62
102
{ACAD_REACTORS
330
C
102
}
330
C
100
AcDbDictionary
281
     1
  3
Layout1
350
6F
  3
Layout2
350
77
  3
Model
350
73
  0
DICTIONARY
  5
10
102
{ACAD_REACTORS
330
C
102
}
330
C
100
AcDbDictionary
281
     1
  3
ByBlock
350
19
  3
ByLayer
350
11
  3
Global
350
21
  0
DICTIONARY
  5
66
102
{ACAD_REACTORS
330
C
102
}
330
C
100
AcDbDictionary
281
     1
  3
Standard
350
67
  0
DICTIONARY
  5
5F
102
{ACAD_REACTORS
330
C
102
}
330
C
100
AcDbDictionary
281
     1
  3
Standard
350
60
  0
DICTIONARY
  5
61
102
{ACAD_REACTORS
330
C
102
}
330
C
100
AcDbDictionary
281
     1
  0
ACDBDICTIONARYWDFLT
  5
E
102
{ACAD_REACTORS
330
C
102
}
330
C
100
AcDbDictionary
281
     1
  3
Normal
350
F
100
AcDbDictionaryWithDefault
340
F
  0
DICTIONARY
  5
42
102
{ACAD_REACTORS
330
C
102
}
330
C
100
AcDbDictionary
281
     1
  3
A0
350
43
  3
A1
350
44
  3
A2
350
45
  3
A3
350
46
  3
A4
350
47
  3
A5
350
48
  3
A6
350
49
  3
A7
350
4A
  3
A8
350
4B
  3
A9
350
4C
  3
B0
350
4D
  3
B1
350
4E
  3
B2
350
4F
  3
B3
350
50
  3
B4
350
51
  3
B5
350
52
  3
B6
350
53
  0
DICTIONARY
  5
68
102
{ACAD_REACTORS
330
C
102
}
330
C
100
AcDbDictionary
281
     1
  3
Imperial24
350
69
  0
DICTIONARY
  5
64
102
{ACAD_REACTORS
330
C
102
}
330
C
100
AcDbDictionary
281
     1
  3
Standard
350
65
  0
DICTIONARY
  5
29
102
{ACAD_REACTORS
330
C
102
}
330
C
100
AcDbDictionary
281
     1
  3
2dWireframe
350
2F
  3
Basic
350
2E
  3
Brighten
350
35
  3
ColorChange
350
39
  3
Conceptual
350
32
  3
Dim
350
34
  3
EdgeColorOff
350
41
  3
Facepattern
350
38
  3
Flat
350
2A
  3
FlatWithEdges
350
2B
  3
Gouraud
350
2C
  3
GouraudWithEdges
350
2D
  3
Hidden
350
31
  3
JitterOff
350
3F
  3
Linepattern
350
37
  3
OverhangOff
350
40
  3
Realistic
350
33
  3
Shaded
350
3E
  3
Shaded with edges
350
3D
  3
Shades of Gray
350
3A
  3
Sketchy
350
3B
  3
Thicken
350
36
  3
Wireframe
350
30
  3
X-Ray
350
3C
  0
XRECORD
  5
A52
102
{ACAD_REACTORS
330
C
102
}
330
C
100
AcDbXrecord
280
     1
 90
        1
330
65
330
69
330
6B
  0
DICTIONARY
  5
F3
102
{ACAD_REACTORS
330
C
102
}
330
C
100
AcDbDictionary
281
     1
  3
CANNOSCALE
350
F8
  3
CMLEADERSTYLE
350
F5
  3
CTABLESTYLE
350
F4
  3
CVIEWDETAILSTYLE
350
F6
  3
CVIEWSECTIONSTYLE
350
F7
  0
DICTIONARY
  5
E8
102
{ACAD_REACTORS
330
C
102
}
330
C
100
AcDbDictionary
281
     1
  3
DRAWING_TOOL
350
EB
  3
REVIT_CATEGORY_MAPPING
350
E9
  3
REVIT_SUB_CATEGORY_MAPPING
350
EA
  0
DICTIONARY
  5
A46
102
{ACAD_REACTORS
330
A45
102
}
330
A45
100
AcDbDictionary
281
     1
  0
SORTENTSTABLE
  5
ED
102
{ACAD_REACTORS
330
EC
102
}
330
EC
100
AcDbSortentsTable
330
70
  0
ACDBDETAILVIEWSTYLE
  5
6B
102
{ACAD_XDICTIONARY
360
F0
102
}
102
{ACAD_REACTORS
330
6A
102
}
330
6A
100
AcDbModelDocViewStyle
 70
     0
  3
Imperial24
290
     0
100
AcDbDetailViewStyle
 70
     0
 71
     0
 90
        3
 71
     1
340
55
 62
   256
 40
0.24
340
0
 62
   256
 40
0.24
300

 40
0.36
280
     3
 71
     2
340
5D
 90
       25
 62
   256
 71
     3
340
55
 62
   256
 40
0.24
 90
        1
 40
0.75
 90
        1
300
%<\AcVar ViewType \f "%tc1">% %<\AcVar ViewDetailId>%\PSCALE %<\AcVar ViewScale \f "%sn">%
 71
     4
340
5D
 90
       25
 62
   256
340
5D
 90
       25
 62
   256
280
     0
  0
LAYOUT
  5
6F
102
{ACAD_REACTORS
330
62
102
}
330
62
100
AcDbPlotSettings
  1

  2

  4

  6

 40
0.0
 41
0.0
 42
0.0
 43
0.0
 44
0.0
 45
0.0
 46
0.0
 47
0.0
 48
0.0
 49
0.0
140
0.0
141
0.0
142
1.0
143
1.0
 70
   688
 72
     0
 73
     0
 74
     5
  7

 75
    16
147
1.0
 76
     0
 77
     2
 78
   300
148
0.0
149
0.0
100
AcDbLayout
  1
Layout1
 70
     1
 71
     1
 10
0.0
 20
0.0
 11
12.0
 21
9.0
 12
0.0
 22
0.0
 32
0.0
 14
1.000000000000000E+20
 24
1.000000000000000E+20
 34
1.000000000000000E+20
 15
-1.000000000000000E+20
 25
-1.000000000000000E+20
 35
-1.000000000000000E+20
146
0.0
 13
0.0
 23
0.0
 33
0.0
 16
1.0
 26
0.0
 36
0.0
 17
0.0
 27
1.0
 37
0.0
 76
     0
330
6C
  0
LAYOUT
  5
77
102
{ACAD_REACTORS
330
62
102
}
330
62
100
AcDbPlotSettings
  1

  2

  4

  6

 40
0.0
 41
0.0
 42
0.0
 43
0.0
 44
0.0
 45
0.0
 46
0.0
 47
0.0
 48
0.0
 49
0.0
140
0.0
141
0.0
142
1.0
143
1.0
 70
   688
 72
     0
 73
     0
 74
     5
  7

 75
    16
147
1.0
 76
     0
 77
     2
 78
   300
148
0.0
149
0.0
100
AcDbLayout
  1
Layout2
 70
     1
 71
     2
 10
0.0
 20
0.0
 11
12.0
 21
9.0
 12
0.0
 22
0.0
 32
0.0
 14
0.0
 24
0.0
 34
0.0
 15
0.0
 25
0.0
 35
0.0
146
0.0
 13
0.0
 23
0.0
 33
0.0
 16
1.0
 26
0.0
 36
0.0
 17
0.0
 27
1.0
 37
0.0
 76
     0
330
74
  0
LAYOUT
  5
73
102
{ACAD_REACTORS
330
62
102
}
330
62
100
AcDbPlotSettings
  1

  2

  4

  6

 40
0.0
 41
0.0
 42
0.0
 43
0.0
 44
0.0
 45
0.0
 46
0.0
 47
0.0
 48
0.0
 49
0.0
140
0.0
141
0.0
142
1.0
143
1.0
 70
  1712
 72
     0
 73
     0
 74
     0
  7

 75
     0
147
1.0
 76
     0
 77
     2
 78
   300
148
0.0
149
0.0
100
AcDbLayout
  1
Model
 70
     1
 71
     0
 10
0.0
 20
0.0
 11
12.0
 21
9.0
 12
0.0
 22
0.0
 32
0.0
 14
0.0
 24
0.0
 34
0.0
 15
0.0
 25
0.0
 35
0.0
146
0.0
 13
0.0
 23
0.0
 33
0.0
 16
1.0
 26
0.0
 36
0.0
 17
0.0
 27
1.0
 37
0.0
 76
     0
330
70
331
57
  0
MATERIAL
  5
19
102
{ACAD_XDICTIONARY
360
1A
102
}
102
{ACAD_REACTORS
330
10
102
}
330
10
100
AcDbMaterial
  1
ByBlock
 72
     0
 43
0.0208333333333333
 43
0.0
 43
0.0
 43
0.0
 43
0.0
 43
0.0208333333333333
 43
0.0
 43
0.0
 43
0.0
 43
0.0
 43
1.0
 43
0.0
 43
0.0
 43
0.0
 43
0.0
 43
1.0
 77
     0
 47
0.0208333333333333
 47
0.0
 47
0.0
 47
0.0
 47
0.0
 47
0.0208333333333333
 47
0.0
 47
0.0
 47
0.0
 47
0.0
 47
1.0
 47
0.0
 47
0.0
 47
0.0
 47
0.0
 47
1.0
171
     0
 49
0.0208333333333333
 49
0.0
 49
0.0
 49
0.0
 49
0.0
 49
0.0208333333333333
 49
0.0
 49
0.0
 49
0.0
 49
0.0
 49
1.0
 49
0.0
 49
0.0
 49
0.0
 49
0.0
 49
1.0
175
     0
142
0.0208333333333333
142
0.0
142
0.0
142
0.0
142
0.0
142
0.0208333333333333
142
0.0
142
0.0
142
0.0
142
0.0
142
1.0
142
0.0
142
0.0
142
0.0
142
0.0
142
1.0
179
     0
144
0.0208333333333333
144
0.0
144
0.0
144
0.0
144
0.0
144
0.0208333333333333
144
0.0
144
0.0
144
0.0
144
0.0
144
1.0
144
0.0
144
0.0
144
0.0
144
0.0
144
1.0
147
0.0208333333333333
147
0.0
147
0.0
147
0.0
147
0.0
147
0.0208333333333333
147
0.0
147
0.0
147
0.0
147
0.0
147
1.0
147
0.0
147
0.0
147
0.0
147
0.0
147
1.0
  0
MATERIAL
  5
11
102
{ACAD_XDICTIONARY
360
12
102
}
102
{ACAD_REACTORS
330
10
102
}
330
10
100
AcDbMaterial
  1
ByLayer
 72
     0
 43
0.0208333333333333
 43
0.0
 43
0.0
 43
0.0
 43
0.0
 43
0.0208333333333333
 43
0.0
 43
0.0
 43
0.0
 43
0.0
 43
1.0
 43
0.0
 43
0.0
 43
0.0
 43
0.0
 43
1.0
 77
     0
 47
0.0208333333333333
 47
0.0
 47
0.0
 47
0.0
 47
0.0
 47
0.0208333333333333
 47
0.0
 47
0.0
 47
0.0
 47
0.0
 47
1.0
 47
0.0
 47
0.0
 47
0.0
 47
0.0
 47
1.0
171
     0
 49
0.0208333333333333
 49
0.0
 49
0.0
 49
0.0
 49
0.0
 49
0.0208333333333333
 49
0.0
 49
0.0
 49
0.0
 49
0.0
 49
1.0
 49
0.0
 49
0.0
 49
0.0
 49
0.0
 49
1.0
175
     0
142
0.0208333333333333
142
0.0
142
0.0
142
0.0
142
0.0
142
0.0208333333333333
142
0.0
142
0.0
142
0.0
142
0.0
142
1.0
142
0.0
142
0.0
142
0.0
142
0.0
142
1.0
179
     0
144
0.0208333333333333
144
0.0
144
0.0
144
0.0
144
0.0
144
0.0208333333333333
144
0.0
144
0.0
144
0.0
144
0.0
144
1.0
144
0.0
144
0.0
144
0.0
144
0.0
144
1.0
147
0.0208333333333333
147
0.0
147
0.0
147
0.0
147
0.0
147
0.0208333333333333
147
0.0
147
0.0
147
0.0
147
0.0
147
1.0
147
0.0
147
0.0
147
0.0
147
0.0
147
1.0
  0
MATERIAL
  5
21
102
{ACAD_XDICTIONARY
360
22
102
}
102
{ACAD_REACTORS
330
10
102
}
330
10
100
AcDbMaterial
  1
Global
 72
     0
 43
0.0208333333333333
 43
0.0
 43
0.0
 43
0.0
 43
0.0
 43
0.0208333333333333
 43
0.0
 43
0.0
 43
0.0
 43
0.0
 43
1.0
 43
0.0
 43
0.0
 43
0.0
 43
0.0
 43
1.0
 77
     0
 47
0.0208333333333333
 47
0.0
 47
0.0
 47
0.0
 47
0.0
 47
0.0208333333333333
 47
0.0
 47
0.0
 47
0.0
 47
0.0
 47
1.0
 47
0.0
 47
0.0
 47
0.0
 47
0.0
 47
1.0
171
     0
 49
0.0208333333333333
 49
0.0
 49
0.0
 49
0.0
 49
0.0
 49
0.0208333333333333
 49
0.0
 49
0.0
 49
0.0
 49
0.0
 49
1.0
 49
0.0
 49
0.0
 49
0.0
 49
0.0
 49
1.0
175
     0
142
0.0208333333333333
142
0.0
142
0.0
142
0.0
142
0.0
142
0.0208333333333333
142
0.0
142
0.0
142
0.0
142
0.0
142
1.0
142
0.0
142
0.0
142
0.0
142
0.0
142
1.0
179
     0
144
0.0208333333333333
144
0.0
144
0.0
144
0.0
144
0.0
144
0.0208333333333333
144
0.0
144
0.0
144
0.0
144
0.0
144
1.0
144
0.0
144
0.0
144
0.0
144
0.0
144
1.0
147
0.0208333333333333
147
0.0
147
0.0
147
0.0
147
0.0
147
0.0208333333333333
147
0.0
147
0.0
147
0.0
147
0.0
147
1.0
147
0.0
147
0.0
147
0.0
147
0.0
147
1.0
  0
MLEADERSTYLE
  5
67
102
{ACAD_REACTORS
330
66
102
}
330
66
100
AcDbMLeaderStyle
179
     2
170
     2
171
     1
172
     0
 90
        2
 40
0.0
 41
0.0
173
     1
 91
-1056964608
340
5B
 92
       -2
290
     1
 42
0.09
291
     1
 43
0.36
  3
Standard
 44
0.18
300

342
55
174
     1
178
     6
175
     1
176
     0
 93
-1056964608
 45
0.18
292
     0
297
     0
 46
0.18
 94
-1056964608
 47
1.0
 49
1.0
140
1.0
293
     1
141
0.0
294
     1
177
     0
142
1.0
295
     1
296
     0
143
0.125
271
     0
272
     9
273
     9
298
     1
  0
MLINESTYLE
  5
60
102
{ACAD_REACTORS
330
5F
102
}
330
5F
100
AcDbMlineStyle
  2
STANDARD
 70
     0
  3

 62
   256
 51
90.0
 52
90.0
 71
     2
 49
0.5
 62
   256
  6
BYLAYER
 49
-0.5
 62
   256
  6
BYLAYER
  0
ACDBPLACEHOLDER
  5
F
102
{ACAD_REACTORS
330
E
102
}
330
E
  0
SCALE
  5
43
102
{ACAD_REACTORS
330
42
102
}
330
42
100
AcDbScale
 70
     0
300
1:1
140
1.0
141
1.0
290
     1
  0
SCALE
  5
44
102
{ACAD_REACTORS
330
42
102
}
330
42
100
AcDbScale
 70
     0
300
1/128" = 1'-0"
140
0.0078125
141
12.0
290
     0
  0
SCALE
  5
45
102
{ACAD_REACTORS
330
42
102
}
330
42
100
AcDbScale
 70
     0
300
1/64" = 1'-0"
140
0.015625
141
12.0
290
     0
  0
SCALE
  5
46
102
{ACAD_REACTORS
330
42
102
}
330
42
100
AcDbScale
 70
     0
300
1/32" = 1'-0"
140
0.03125
141
12.0
290
     0
  0
SCALE
  5
47
102
{ACAD_REACTORS
330
42
102
}
330
42
100
AcDbScale
 70
     0
300
1/16" = 1'-0"
140
0.0625
141
12.0
290
     0
  0
SCALE
  5
48
102
{ACAD_REACTORS
330
42
102
}
330
42
100
AcDbScale
 70
     0
300
3/32" = 1'-0"
140
0.09375
141
12.0
290
     0
  0
SCALE
  5
49
102
{ACAD_REACTORS
330
42
102
}
330
42
100
AcDbScale
 70
     0
300
1/8" = 1'-0"
140
0.125
141
12.0
290
     0
  0
SCALE
  5
4A
102
{ACAD_REACTORS
330
42
102
}
330
42
100
AcDbScale
 70
     0
300
3/16" = 1'-0"
140
0.1875
141
12.0
290
     0
  0
SCALE
  5
4B
102
{ACAD_REACTORS
330
42
102
}
330
42
100
AcDbScale
 70
     0
300
1/4" = 1'-0"
140
0.25
141
12.0
290
     0
  0
SCALE
  5
4C
102
{ACAD_REACTORS
330
42
102
}
330
42
100
AcDbScale
 70
     0
300
3/8" = 1'-0"
140
0.375
141
12.0
290
     0
  0
SCALE
  5
4D
102
{ACAD_REACTORS
330
42
102
}
330
42
100
AcDbScale
 70
     0
300
1/2" = 1'-0"
140
0.5
141
12.0
290
     0
  0
SCALE
  5
4E
102
{ACAD_REACTORS
330
42
102
}
330
42
100
AcDbScale
 70
     0
300
3/4" = 1'-0"
140
0.75
141
12.0
290
     0
  0
SCALE
  5
4F
102
{ACAD_REACTORS
330
42
102
}
330
42
100
AcDbScale
 70
     0
300
1" = 1'-0"
140
1.0
141
12.0
290
     0
  0
SCALE
  5
50
102
{ACAD_REACTORS
330
42
102
}
330
42
100
AcDbScale
 70
     0
300
1-1/2" = 1'-0"
140
1.5
141
12.0
290
     0
  0
SCALE
  5
51
102
{ACAD_REACTORS
330
42
102
}
330
42
100
AcDbScale
 70
     0
300
3" = 1'-0"
140
3.0
141
12.0
290
     0
  0
SCALE
  5
52
102
{ACAD_REACTORS
330
42
102
}
330
42
100
AcDbScale
 70
     0
300
6" = 1'-0"
140
6.0
141
12.0
290
     0
  0
SCALE
  5
53
102
{ACAD_REACTORS
330
42
102
}
330
42
100
AcDbScale
 70
     0
300
1'-0" = 1'-0"
140
12.0
141
12.0
290
     0
  0
ACDBSECTIONVIEWSTYLE
  5
69
102
{ACAD_XDICTIONARY
360
EE
102
}
102
{ACAD_REACTORS
330
68
102
}
330
68
100
AcDbModelDocViewStyle
 70
     0
  3
Imperial24
290
     0
100
AcDbSectionViewStyle
 70
     0
 71
     0
 90
       78
 71
     1
340
55
 62
   256
 40
0.24
340
0
340
0
 62
   256
 40
0.24
300
I, O, Q, S, X, Z
 40
0.48
 90
        3
 40
0.18
 90
        1
 71
     2
340
5D
 90
       25
 62
   256
340
5D
 90
       50
 62
   256
 40
0.24
 40
0.0
 40
0.24
 71
     3
340
55
 62
   256
 40
0.24
 90
        1
 40
0.75
 90
        1
300
%<\AcVar ViewType \f "%tc1">% %<\AcVar ViewSectionStartId>%-%<\AcVar ViewSectionEndId>%\PSCALE %<\AcVar ViewScale \f "%sn">%
 71
     4
 62
   256
 62
   257
300
ANSI31
 40
1.0
 90
        0
290
     0
290
     0
 90
        6
 40
0.0
 40
1.570796326794896
 40
0.2617993877991494
 40
1.308996938995747
 40
-0.2617993877991494
 40
1.832595714594046
  0
TABLESTYLE
  5
65
102
{ACAD_XDICTIONARY
360
A4E
102
}
102
{ACAD_REACTORS
330
64
102
}
330
64
100
AcDbTableStyle
280
     0
  3
Standard
 70
     0
 71
     0
 40
0.06
 41
0.06
280
     0
281
     0
  7
Standard
140
0.18
170
     2
 62
     0
 63
     7
283
     0
 90
      512
 91
        0
  1

274
    -2
284
     1
 64
     0
275
    -2
285
     1
 65
     0
276
    -2
286
     1
 66
     0
277
    -2
287
     1
 67
     0
278
    -2
288
     1
 68
     0
279
    -2
289
     1
 69
     0
  7
Standard
140
0.25
170
     5
 62
     0
 63
     7
283
     0
 90
      512
 91
        0
  1

274
    -2
284
     1
 64
     0
275
    -2
285
     1
 65
     0
276
    -2
286
     1
 66
     0
277
    -2
287
     1
 67
     0
278
    -2
288
     1
 68
     0
279
    -2
289
     1
 69
     0
  7
Standard
140
0.18
170
     5
 62
     0
 63
     7
283
     0
 90
      512
 91
        0
  1

274
    -2
284
     1
 64
     0
275
    -2
285
     1
 65
     0
276
    -2
286
     1
 66
     0
277
    -2
287
     1
 67
     0
278
    -2
288
     1
 68
     0
279
    -2
289
     1
 69
     0
  0
VISUALSTYLE
  5
2F
102
{ACAD_REACTORS
330
29
102
}
330
29
100
AcDbVisualStyle
  2
2dWireframe
 70
     4
177
     3
291
     0
 70
    58
 90
        0
176
     1
 90
        2
176
     1
 90
        0
176
     1
 90
        0
176
     1
 40
0.6
176
     1
 40
30.0
176
     1
 62
     7
420
 16777215
176
     1
 90
        1
176
     1
 90
        4
176
     1
 62
     7
176
     1
 62
   257
176
     1
 90
        1
176
     1
 90
        1
176
     1
 40
1.0
176
     1
 90
        0
176
     1
 62
   257
176
     1
 40
1.0
176
     1
 90
        1
176
     1
 90
        6
176
     1
 90
        2
176
     1
 62
     7
176
     1
 90
        5
176
     1
 90
        0
176
     1
 90
        0
176
     1
290
     0
176
     1
 90
        1
176
     1
 40
0.0
176
     1
 90
        0
176
     1
290
     1
176
     1
290
     1
176
     1
290
     0
176
     1
290
     0
176
     1
290
     0
176
     1
290
     0
176
     1
290
     0
176
     1
290
     0
176
     1
290
     0
176
     1
 90
       50
176
     1
 40
0.0
176
     1
 40
1.0
176
     1
 90
        0
176
     1
 62
    18
420
        0
176
     1
 90
       50
176
     1
 90
        3
176
     1
 62
     5
420
      255
176
     1
290
     0
176
     1
 90
       50
176
     1
 90
       50
176
     1
 90
       50
176
     1
290
     0
176
     1
 90
       50
176
     1
 62
   256
176
     0
 40
1.0
176
     0
 90
        2
176
     1
  1
strokes_ogs.tif
176
     1
290
     0
176
     1
 40
1.0
176
     1
 40
1.0
176
     1
  0
VISUALSTYLE
  5
2E
102
{ACAD_REACTORS
330
29
102
}
330
29
100
AcDbVisualStyle
  2
Basic
 70
     7
177
     3
291
     1
 70
    58
 90
        1
176
     1
 90
        0
176
     1
 90
        1
176
     1
 90
        0
176
     1
 40
0.6
176
     1
 40
30.0
176
     1
 62
     7
420
 16777215
176
     1
 90
        0
176
     1
 90
        4
176
     1
 62
     7
176
     1
 62
   257
176
     1
 90
        1
176
     1
 90
        1
176
     1
 40
1.0
176
     1
 90
        8
176
     1
 62
     7
176
     1
 40
1.0
176
     1
 90
        1
176
     1
 90
        6
176
     1
 90
        2
176
     1
 62
     7
176
     1
 90
        5
176
     1
 90
        0
176
     1
 90
        0
176
     1
290
     0
176
     1
 90
        1
176
     1
 40
0.0
176
     1
 90
        0
176
     1
290
     0
176
     1
290
     1
176
     1
290
     1
176
     1
290
     0
176
     1
290
     0
176
     1
290
     0
176
     1
290
     0
176
     1
290
     0
176
     1
290
     0
176
     1
 90
       50
176
     1
 40
0.0
176
     1
 40
1.0
176
     1
 90
        0
176
     1
 62
    18
420
        0
176
     1
 90
       50
176
     1
 90
        3
176
     1
 62
     5
420
      255
176
     1
290
     0
176
     1
 90
       50
176
     1
 90
       50
176
     1
 90
       50
176
     1
290
     0
176
     1
 90
       50
176
     1
 62
   256
176
     0
 40
1.0
176
     0
 90
        2
176
     1
  1
strokes_ogs.tif
176
     1
290
     0
176
     1
 40
1.0
176
     1
 40
1.0
176
     1
  0
VISUALSTYLE
  5
35
102
{ACAD_REACTORS
330
29
102
}
330
29
100
AcDbVisualStyle
  2
Brighten
 70
    12
177
     3
291
     1
 70
    58
 90
        2
176
     1
 90
        2
176
     1
 90
        0
176
     1
 90
        0
176
     1
 40
0.6
176
     1
 40
30.0
176
     1
 62
     7
420
 16777215
176
     1
 90
        1
176
     1
 90
        4
176
     1
 62
     7
176
     1
 62
   257
176
     1
 90
        1
176
     1
 90
        1
176
     1
 40
1.0
176
     1
 90
        8
176
     1
 62
     7
176
     1
 40
1.0
176
     1
 90
        1
176
     1
 90
        6
176
     1
 90
        2
176
     1
 62
     7
176
     1
 90
        5
176
     1
 90
        0
176
     1
 90
        0
176
     1
290
     0
176
     1
 90
        1
176
     1
 40
50.0
176
     1
 90
        0
176
     1
290
     0
176
     1
290
     1
176
     1
290
     1
176
     1
290
     0
176
     1
290
     0
176
     1
290
     0
176
     1
290
     0
176
     1
290
     0
176
     1
290
     0
176
     1
 90
       50
176
     1
 40
0.0
176
     1
 40
1.0
176
     1
 90
        0
176
     1
 62
    18
420
        0
176
     1
 90
       50
176
     1
 90
        3
176
     1
 62
     5
420
      255
176
     1
290
     0
176
     1
 90
       50
176
     1
 90
       50
176
     1
 90
       50
176
     1
290
     0
176
     1
 90
       50
176
     1
 62
   256
176
     0
 40
1.0
176
     0
 90
        2
176
     1
  1
strokes_ogs.tif
176
     1
290
     0
176
     1
 40
1.0
176
     1
 40
1.0
176
     1
  0
VISUALSTYLE
  5
39
102
{ACAD_REACTORS
330
29
102
}
330
29
100
AcDbVisualStyle
  2
ColorChange
 70
    16
177
     3
291
     1
 70
    58
 90
        2
176
     1
 90
        2
176
     1
 90
        3
176
     1
 90
        0
176
     1
 40
0.6
176
     1
 40
30.0
176
     1
 62
     8
420
  8421504
176
     1
 90
        1
176
     1
 90
        4
176
     1
 62
     7
176
     1
 62
   257
176
     1
 90
        1
176
     1
 90
        1
176
     1
 40
1.0
176
     1
 90
        8
176
     1
 62
     8
420
  8421504
176
     1
 40
1.0
176
     1
 90
        1
176
     1
 90
        6
176
     1
 90
        2
176
     1
 62
     7
176
     1
 90
        5
176
     1
 90
        0
176
     1
 90
        0
176
     1
290
     0
176
     1
 90
        1
176
     1
 40
0.0
176
     1
 90
        0
176
     1
290
     0
176
     1
290
     1
176
     1
290
     1
176
     1
290
     0
176
     1
290
     0
176
     1
290
     0
176
     1
290
     0
176
     1
290
     0
176
     1
290
     0
176
     1
 90
       50
176
     1
 40
0.0
176
     1
 40
1.0
176
     1
 90
        0
176
     1
 62
    18
420
        0
176
     1
 90
       50
176
     1
 90
        3
176
     1
 62
     5
420
      255
176
     1
290
     0
176
     1
 90
       50
176
     1
 90
       50
176
     1
 90
       50
176
     1
290
     0
176
     1
 90
       50
176
     1
 62
   256
176
     0
 40
1.0
176
     0
 90
        2
176
     1
  1
strokes_ogs.tif
176
     1
290
     0
176
     1
 40
1.0
176
     1
 40
1.0
176
     1
  0
VISUALSTYLE
  5
32
102
{ACAD_REACTORS
330
29
102
}
330
29
100
AcDbVisualStyle
  2
Conceptual
 70
     9
177
     3
291
     0
 70
    58
 90
        3
176
     1
 90
        2
176
     1
 90
        0
176
     1
 90
        0
176
     1
 40
0.6
176
     1
 40
30.0
176
     1
 62
     7
420
 16777215
176
     1
 90
        2
176
     1
 90
        2
176
     1
 62
     7
176
     1
 62
   257
176
     1
 90
        1
176
     1
 90
        1
176
     1
 40
179.0
176
     1
 90
        8
176
     1
 62
     7
176
     1
 40
1.0
176
     1
 90
        1
176
     1
 90
        6
176
     1
 90
        2
176
     1
 62
     7
176
     1
 90
        3
176
     1
 90
        0
176
     1
 90
        0
176
     1
290
     0
176
     1
 90
        1
176
     1
 40
0.0
176
     1
 90
        0
176
     1
290
     0
176
     1
290
     1
176
     1
290
     1
176
     1
290
     0
176
     1
290
     0
176
     1
290
     0
176
     1
290
     0
176
     1
290
     0
176
     1
290
     0
176
     1
 90
       50
176
     1
 40
0.0
176
     1
 40
1.0
176
     1
 90
        0
176
     1
 62
    18
420
        0
176
     1
 90
       50
176
     1
 90
        3
176
     1
 62
     5
420
      255
176
     1
290
     0
176
     1
 90
       50
176
     1
 90
       50
176
     1
 90
       50
176
     1
290
     0
176
     1
 90
       50
176
     1
 62
   256
176
     0
 40
1.0
176
     0
 90
        2
176
     1
  1
strokes_ogs.tif
176
     1
290
     0
176
     1
 40
1.0
176
     1
 40
1.0
176
     1
  0
VISUALSTYLE
  5
34
102
{ACAD_REACTORS
330
29
102
}
330
29
100
AcDbVisualStyle
  2
Dim
 70
    11
177
     3
291
     1
 70
    58
 90
        2
176
     1
 90
        2
176
     1
 90
        0
176
     1
 90
        0
176
     1
 40
0.6
176
     1
 40
30.0
176
     1
 62
     7
420
 16777215
176
     1
 90
        1
176
     1
 90
        4
176
     1
 62
     7
176
     1
 62
   257
176
     1
 90
        1
176
     1
 90
        1
176
     1
 40
1.0
176
     1
 90
        8
176
     1
 62
     7
176
     1
 40
1.0
176
     1
 90
        1
176
     1
 90
        6
176
     1
 90
        2
176
     1
 62
     7
176
     1
 90
        5
176
     1
 90
        0
176
     1
 90
        0
176
     1
290
     0
176
     1
 90
        1
176
     1
 40
-50.0
176
     1
 90
        0
176
     1
290
     0
176
     1
290
     1
176
     1
290
     1
176
     1
290
     0
176
     1
290
     0
176
     1
290
     0
176
     1
290
     0
176
     1
290
     0
176
     1
290
     0
176
     1
 90
       50
176
     1
 40
0.0
176
     1
 40
1.0
176
     1
 90
        0
176
     1
 62
    18
420
        0
176
     1
 90
       50
176
     1
 90
        3
176
     1
 62
     5
420
      255
176
     1
290
     0
176
     1
 90
       50
176
     1
 90
       50
176
     1
 90
       50
176
     1
290
     0
176
     1
 90
       50
176
     1
 62
   256
176
     0
 40
1.0
176
     0
 90
        2
176
     1
  1
strokes_ogs.tif
176
     1
290
     0
176
     1
 40
1.0
176
     1
 40
1.0
176
     1
  0
VISUALSTYLE
  5
41
102
{ACAD_REACTORS
330
29
102
}
330
29
100
AcDbVisualStyle
  2
EdgeColorOff
 70
    22
177
     3
291
     1
 70
    58
 90
        2
176
     0
 90
        2
176
     0
 90
        0
176
     0
 90
        0
176
     0
 40
0.6
176
     0
 40
30.0
176
     0
 62
     7
420
 16777215
176
     0
 90
        1
176
     0
 90
        4
176
     0
 62
     7
176
     0
 62
   257
176
     0
 90
        1
176
     0
 90
        1
176
     0
 40
1.0
176
     0
 90
        8
176
     2
 62
     7
176
     0
 40
1.0
176
     0
 90
        1
176
     0
 90
        6
176
     0
 90
        2
176
     0
 62
     7
176
     0
 90
        5
176
     0
 90
        0
176
     0
 90
        0
176
     0
290
     0
176
     0
 90
        1
176
     0
 40
0.0
176
     0
 90
        0
176
     0
290
     0
176
     0
290
     1
176
     0
290
     1
176
     0
290
     0
176
     0
290
     0
176
     0
290
     0
176
     0
290
     0
176
     0
290
     0
176
     0
290
     0
176
     0
 90
       50
176
     0
 40
0.0
176
     0
 40
1.0
176
     0
 90
        0
176
     0
 62
    18
420
        0
176
     0
 90
       50
176
     0
 90
        3
176
     0
 62
     5
420
      255
176
     0
290
     0
176
     0
 90
       50
176
     0
 90
       50
176
     0
 90
       50
176
     0
290
     0
176
     0
 90
       50
176
     0
 62
   256
176
     0
 40
1.0
176
     0
 90
        2
176
     0
  1
strokes_ogs.tif
176
     0
290
     0
176
     0
 40
1.0
176
     0
 40
1.0
176
     0
  0
VISUALSTYLE
  5
38
102
{ACAD_REACTORS
330
29
102
}
330
29
100
AcDbVisualStyle
  2
Facepattern
 70
    15
177
     3
291
     1
 70
    58
 90
        2
176
     1
 90
        2
176
     1
 90
        0
176
     1
 90
        0
176
     1
 40
0.6
176
     1
 40
30.0
176
     1
 62
     7
420
 16777215
176
     1
 90
        1
176
     1
 90
        4
176
     1
 62
     7
176
     1
 62
   257
176
     1
 90
        1
176
     1
 90
        1
176
     1
 40
1.0
176
     1
 90
        8
176
     1
 62
     7
176
     1
 40
1.0
176
     1
 90
        1
176
     1
 90
        6
176
     1
 90
        2
176
     1
 62
     7
176
     1
 90
        5
176
     1
 90
        0
176
     1
 90
        0
176
     1
290
     0
176
     1
 90
        1
176
     1
 40
0.0
176
     1
 90
        0
176
     1
290
     0
176
     1
290
     1
176
     1
290
     1
176
     1
290
     0
176
     1
290
     0
176
     1
290
     0
176
     1
290
     0
176
     1
290
     0
176
     1
290
     0
176
     1
 90
       50
176
     1
 40
0.0
176
     1
 40
1.0
176
     1
 90
        0
176
     1
 62
    18
420
        0
176
     1
 90
       50
176
     1
 90
        3
176
     1
 62
     5
420
      255
176
     1
290
     0
176
     1
 90
       50
176
     1
 90
       50
176
     1
 90
       50
176
     1
290
     0
176
     1
 90
       50
176
     1
 62
   256
176
     0
 40
1.0
176
     0
 90
        2
176
     1
  1
strokes_ogs.tif
176
     1
290
     0
176
     1
 40
1.0
176
     1
 40
1.0
176
     1
  0
VISUALSTYLE
  5
2A
102
{ACAD_REACTORS
330
29
102
}
330
29
100
AcDbVisualStyle
  2
Flat
 70
     0
177
     3
291
     1
 70
    58
 90
        2
176
     1
 90
        1
176
     1
 90
        1
176
     1
 90
        2
176
     1
 40
0.6
176
     1
 40
30.0
176
     1
 62
     7
420
 16777215
176
     1
 90
        0
176
     1
 90
        0
176
     1
 62
     7
176
     1
 62
   257
176
     1
 90
        1
176
     1
 90
        1
176
     1
 40
1.0
176
     1
 90
        8
176
     1
 62
     7
176
     1
 40
1.0
176
     1
 90
        1
176
     1
 90
        6
176
     1
 90
        2
176
     1
 62
     7
176
     1
 90
        5
176
     1
 90
        0
176
     1
 90
        0
176
     1
290
     0
176
     1
 90
       13
176
     1
 40
0.0
176
     1
 90
        0
176
     1
290
     0
176
     1
290
     1
176
     1
290
     1
176
     1
290
     0
176
     1
290
     0
176
     1
290
     0
176
     1
290
     0
176
     1
290
     0
176
     1
290
     0
176
     1
 90
       50
176
     1
 40
0.0
176
     1
 40
1.0
176
     1
 90
        0
176
     1
 62
    18
420
        0
176
     1
 90
       50
176
     1
 90
        3
176
     1
 62
     5
420
      255
176
     1
290
     0
176
     1
 90
       50
176
     1
 90
       50
176
     1
 90
       50
176
     1
290
     0
176
     1
 90
       50
176
     1
 62
   256
176
     0
 40
1.0
176
     0
 90
        2
176
     1
  1
strokes_ogs.tif
176
     1
290
     0
176
     1
 40
1.0
176
     1
 40
1.0
176
     1
  0
VISUALSTYLE
  5
2B
102
{ACAD_REACTORS
330
29
102
}
330
29
100
AcDbVisualStyle
  2
FlatWithEdges
 70
     1
177
     3
291
     1
 70
    58
 90
        2
176
     1
 90
        1
176
     1
 90
        1
176
     1
 90
        2
176
     1
 40
0.6
176
     1
 40
30.0
176
     1
 62
     7
420
 16777215
176
     1
 90
        1
176
     1
 90
        0
176
     1
 62
     7
176
     1
 62
   257
176
     1
 90
        1
176
     1
 90
        1
176
     1
 40
1.0
176
     1
 90
        0
176
     1
 62
   257
176
     1
 40
1.0
176
     1
 90
        1
176
     1
 90
        6
176
     1
 90
        2
176
     1
 62
     7
176
     1
 90
        5
176
     1
 90
        0
176
     1
 90
        0
176
     1
290
     0
176
     1
 90
       13
176
     1
 40
0.0
176
     1
 90
        0
176
     1
290
     0
176
     1
290
     1
176
     1
290
     1
176
     1
290
     0
176
     1
290
     0
176
     1
290
     0
176
     1
290
     0
176
     1
290
     0
176
     1
290
     0
176
     1
 90
       50
176
     1
 40
0.0
176
     1
 40
1.0
176
     1
 90
        0
176
     1
 62
    18
420
        0
176
     1
 90
       50
176
     1
 90
        3
176
     1
 62
     5
420
      255
176
     1
290
     0
176
     1
 90
       50
176
     1
 90
       50
176
     1
 90
       50
176
     1
290
     0
176
     1
 90
       50
176
     1
 62
   256
176
     0
 40
1.0
176
     0
 90
        2
176
     1
  1
strokes_ogs.tif
176
     1
290
     0
176
     1
 40
1.0
176
     1
 40
1.0
176
     1
  0
VISUALSTYLE
  5
2C
102
{ACAD_REACTORS
330
29
102
}
330
29
100
AcDbVisualStyle
  2
Gouraud
 70
     2
177
     3
291
     1
 70
    58
 90
        2
176
     1
 90
        2
176
     1
 90
        1
176
     1
 90
        2
176
     1
 40
0.6
176
     1
 40
30.0
176
     1
 62
     7
420
 16777215
176
     1
 90
        0
176
     1
 90
        0
176
     1
 62
     7
176
     1
 62
   257
176
     1
 90
        1
176
     1
 90
        1
176
     1
 40
1.0
176
     1
 90
        0
176
     1
 62
     7
176
     1
 40
1.0
176
     1
 90
        1
176
     1
 90
        6
176
     1
 90
        2
176
     1
 62
     7
176
     1
 90
        5
176
     1
 90
        0
176
     1
 90
        0
176
     1
290
     0
176
     1
 90
       13
176
     1
 40
0.0
176
     1
 90
        0
176
     1
290
     0
176
     1
290
     1
176
     1
290
     1
176
     1
290
     0
176
     1
290
     0
176
     1
290
     0
176
     1
290
     0
176
     1
290
     0
176
     1
290
     0
176
     1
 90
       50
176
     1
 40
0.0
176
     1
 40
1.0
176
     1
 90
        0
176
     1
 62
    18
420
        0
176
     1
 90
       50
176
     1
 90
        3
176
     1
 62
     5
420
      255
176
     1
290
     0
176
     1
 90
       50
176
     1
 90
       50
176
     1
 90
       50
176
     1
290
     0
176
     1
 90
       50
176
     1
 62
   256
176
     0
 40
1.0
176
     0
 90
        2
176
     1
  1
strokes_ogs.tif
176
     1
290
     0
176
     1
 40
1.0
176
     1
 40
1.0
176
     1
  0
VISUALSTYLE
  5
2D
102
{ACAD_REACTORS
330
29
102
}
330
29
100
AcDbVisualStyle
  2
GouraudWithEdges
 70
     3
177
     3
291
     1
 70
    58
 90
        2
176
     1
 90
        2
176
     1
 90
        1
176
     1
 90
        2
176
     1
 40
0.6
176
     1
 40
30.0
176
     1
 62
     7
420
 16777215
176
     1
 90
        1
176
     1
 90
        0
176
     1
 62
     7
176
     1
 62
   257
176
     1
 90
        1
176
     1
 90
        1
176
     1
 40
1.0
176
     1
 90
        0
176
     1
 62
   257
176
     1
 40
1.0
176
     1
 90
        1
176
     1
 90
        6
176
     1
 90
        2
176
     1
 62
     7
176
     1
 90
        5
176
     1
 90
        0
176
     1
 90
        0
176
     1
290
     0
176
     1
 90
       13
176
     1
 40
0.0
176
     1
 90
        0
176
     1
290
     0
176
     1
290
     1
176
     1
290
     1
176
     1
290
     0
176
     1
290
     0
176
     1
290
     0
176
     1
290
     0
176
     1
290
     0
176
     1
290
     0
176
     1
 90
       50
176
     1
 40
0.0
176
     1
 40
1.0
176
     1
 90
        0
176
     1
 62
    18
420
        0
176
     1
 90
       50
176
     1
 90
        3
176
     1
 62
     5
420
      255
176
     1
290
     0
176
     1
 90
       50
176
     1
 90
       50
176
     1
 90
       50
176
     1
290
     0
176
     1
 90
       50
176
     1
 62
   256
176
     0
 40
1.0
176
     0
 90
        2
176
     1
  1
strokes_ogs.tif
176
     1
290
     0
176
     1
 40
1.0
176
     1
 40
1.0
176
     1
  0
VISUALSTYLE
  5
31
102
{ACAD_REACTORS
330
29
102
}
330
29
100
AcDbVisualStyle
  2
Hidden
 70
     6
177
     3
291
     0
 70
    58
 90
        1
176
     1
 90
        2
176
     1
 90
        2
176
     1
 90
        0
176
     1
 40
0.6
176
     1
 40
30.0
176
     1
 62
     7
420
 16777215
176
     1
 90
        2
176
     1
 90
        2
176
     1
 62
     7
176
     1
 62
   257
176
     1
 90
        2
176
     1
 90
        1
176
     1
 40
40.0
176
     1
 90
        0
176
     1
 62
   257
176
     1
 40
1.0
176
     1
 90
        1
176
     1
 90
        6
176
     1
 90
        2
176
     1
 62
     7
176
     1
 90
        3
176
     1
 90
        0
176
     1
 90
        0
176
     1
290
     0
176
     1
 90
        1
176
     1
 40
0.0
176
     1
 90
        0
176
     1
290
     0
176
     1
290
     1
176
     1
290
     1
176
     1
290
     0
176
     1
290
     0
176
     1
290
     0
176
     1
290
     0
176
     1
290
     0
176
     1
290
     0
176
     1
 90
       50
176
     1
 40
0.0
176
     1
 40
1.0
176
     1
 90
        0
176
     1
 62
    18
420
        0
176
     1
 90
       50
176
     1
 90
        3
176
     1
 62
     5
420
      255
176
     1
290
     0
176
     1
 90
       50
176
     1
 90
       50
176
     1
 90
       50
176
     1
290
     0
176
     1
 90
       50
176
     1
 62
   256
176
     0
 40
1.0
176
     0
 90
        2
176
     1
  1
strokes_ogs.tif
176
     1
290
     0
176
     1
 40
1.0
176
     1
 40
1.0
176
     1
  0
VISUALSTYLE
  5
3F
102
{ACAD_REACTORS
330
29
102
}
330
29
100
AcDbVisualStyle
  2
JitterOff
 70
    20
177
     3
291
     1
 70
    58
 90
        2
176
     0
 90
        2
176
     0
 90
        0
176
     0
 90
        0
176
     0
 40
0.6
176
     0
 40
30.0
176
     0
 62
     7
420
 16777215
176
     0
 90
        1
176
     0
 90
        4
176
     0
 62
     7
176
     0
 62
   257
176
     0
 90
        1
176
     0
 90
        1
176
     0
 40
1.0
176
     0
 90
       10
176
     2
 62
     7
176
     0
 40
1.0
176
     0
 90
        1
176
     0
 90
        6
176
     0
 90
        2
176
     0
 62
     7
176
     0
 90
        5
176
     0
 90
        0
176
     0
 90
        0
176
     0
290
     0
176
     0
 90
        1
176
     0
 40
0.0
176
     0
 90
        0
176
     0
290
     0
176
     0
290
     1
176
     0
290
     1
176
     0
290
     0
176
     0
290
     0
176
     0
290
     0
176
     0
290
     0
176
     0
290
     0
176
     0
290
     0
176
     0
 90
       50
176
     0
 40
0.0
176
     0
 40
1.0
176
     0
 90
        0
176
     0
 62
    18
420
        0
176
     0
 90
       50
176
     0
 90
        3
176
     0
 62
     5
420
      255
176
     0
290
     0
176
     0
 90
       50
176
     0
 90
       50
176
     0
 90
       50
176
     0
290
     0
176
     0
 90
       50
176
     0
 62
   256
176
     0
 40
1.0
176
     0
 90
        2
176
     0
  1
strokes_ogs.tif
176
     0
290
     0
176
     0
 40
1.0
176
     0
 40
1.0
176
     0
  0
VISUALSTYLE
  5
37
102
{ACAD_REACTORS
330
29
102
}
330
29
100
AcDbVisualStyle
  2
Linepattern
 70
    14
177
     3
291
     1
 70
    58
 90
        2
176
     1
 90
        2
176
     1
 90
        0
176
     1
 90
        0
176
     1
 40
0.6
176
     1
 40
30.0
176
     1
 62
     7
420
 16777215
176
     1
 90
        1
176
     1
 90
        4
176
     1
 62
     7
176
     1
 62
   257
176
     1
 90
        7
176
     1
 90
        7
176
     1
 40
1.0
176
     1
 90
        8
176
     1
 62
     7
176
     1
 40
1.0
176
     1
 90
        1
176
     1
 90
        6
176
     1
 90
        2
176
     1
 62
     7
176
     1
 90
        5
176
     1
 90
        0
176
     1
 90
        0
176
     1
290
     0
176
     1
 90
        1
176
     1
 40
0.0
176
     1
 90
        0
176
     1
290
     0
176
     1
290
     1
176
     1
290
     1
176
     1
290
     0
176
     1
290
     0
176
     1
290
     0
176
     1
290
     0
176
     1
290
     0
176
     1
290
     0
176
     1
 90
       50
176
     1
 40
0.0
176
     1
 40
1.0
176
     1
 90
        0
176
     1
 62
    18
420
        0
176
     1
 90
       50
176
     1
 90
        3
176
     1
 62
     5
420
      255
176
     1
290
     0
176
     1
 90
       50
176
     1
 90
       50
176
     1
 90
       50
176
     1
290
     0
176
     1
 90
       50
176
     1
 62
   256
176
     0
 40
1.0
176
     0
 90
        2
176
     1
  1
strokes_ogs.tif
176
     1
290
     0
176
     1
 40
1.0
176
     1
 40
1.0
176
     1
  0
VISUALSTYLE
  5
40
102
{ACAD_REACTORS
330
29
102
}
330
29
100
AcDbVisualStyle
  2
OverhangOff
 70
    21
177
     3
291
     1
 70
    58
 90
        2
176
     0
 90
        2
176
     0
 90
        0
176
     0
 90
        0
176
     0
 40
0.6
176
     0
 40
30.0
176
     0
 62
     7
420
 16777215
176
     0
 90
        1
176
     0
 90
        4
176
     0
 62
     7
176
     0
 62
   257
176
     0
 90
        1
176
     0
 90
        1
176
     0
 40
1.0
176
     0
 90
        9
176
     2
 62
     7
176
     0
 40
1.0
176
     0
 90
        1
176
     0
 90
        6
176
     0
 90
        2
176
     0
 62
     7
176
     0
 90
        5
176
     0
 90
        0
176
     0
 90
        0
176
     0
290
     0
176
     0
 90
        1
176
     0
 40
0.0
176
     0
 90
        0
176
     0
290
     0
176
     0
290
     1
176
     0
290
     1
176
     0
290
     0
176
     0
290
     0
176
     0
290
     0
176
     0
290
     0
176
     0
290
     0
176
     0
290
     0
176
     0
 90
       50
176
     0
 40
0.0
176
     0
 40
1.0
176
     0
 90
        0
176
     0
 62
    18
420
        0
176
     0
 90
       50
176
     0
 90
        3
176
     0
 62
     5
420
      255
176
     0
290
     0
176
     0
 90
       50
176
     0
 90
       50
176
     0
 90
       50
176
     0
290
     0
176
     0
 90
       50
176
     0
 62
   256
176
     0
 40
1.0
176
     0
 90
        2
176
     0
  1
strokes_ogs.tif
176
     0
290
     0
176
     0
 40
1.0
176
     0
 40
1.0
176
     0
  0
VISUALSTYLE
  5
33
102
{ACAD_REACTORS
330
29
102
}
330
29
100
AcDbVisualStyle
  2
Realistic
 70
     8
177
     3
291
     0
 70
    58
 90
        2
176
     1
 90
        3
176
     1
 90
        0
176
     1
 90
        2
176
     1
 40
0.6
176
     1
 40
30.0
176
     1
 62
     7
420
 16777215
176
     1
 90
        0
176
     1
 90
        0
176
     1
 62
     7
176
     1
 62
   257
176
     1
 90
        1
176
     1
 90
        1
176
     1
 40
1.0
176
     1
 90
        8
176
     1
 62
   257
176
     1
 40
1.0
176
     1
 90
        1
176
     1
 90
        6
176
     1
 90
        2
176
     1
 62
     7
176
     1
 90
        3
176
     1
 90
        0
176
     1
 90
        0
176
     1
290
     0
176
     1
 90
       13
176
     1
 40
0.0
176
     1
 90
        0
176
     1
290
     0
176
     1
290
     1
176
     1
290
     1
176
     1
290
     0
176
     1
290
     0
176
     1
290
     0
176
     1
290
     0
176
     1
290
     0
176
     1
290
     0
176
     1
 90
       50
176
     1
 40
0.0
176
     1
 40
1.0
176
     1
 90
        0
176
     1
 62
    18
420
        0
176
     1
 90
       50
176
     1
 90
        3
176
     1
 62
     5
420
      255
176
     1
290
     0
176
     1
 90
       50
176
     1
 90
       50
176
     1
 90
       50
176
     1
290
     0
176
     1
 90
       50
176
     1
 62
   256
176
     0
 40
1.0
176
     0
 90
        2
176
     1
  1
strokes_ogs.tif
176
     1
290
     0
176
     1
 40
1.0
176
     1
 40
1.0
176
     1
  0
VISUALSTYLE
  5
3E
102
{ACAD_REACTORS
330
29
102
}
330
29
100
AcDbVisualStyle
  2
Shaded
 70
    27
177
     3
291
     0
 70
    58
 90
        2
176
     1
 90
        2
176
     1
 90
        1
176
     1
 90
        2
176
     1
 40
0.6
176
     1
 40
30.0
176
     1
 62
     7
420
 16777215
176
     1
 90
        0
176
     1
 90
        4
176
     1
 62
     7
176
     1
 62
   257
176
     1
 90
        1
176
     1
 90
        1
176
     1
 40
1.0
176
     1
 90
        8
176
     1
 62
   257
176
     1
 40
1.0
176
     1
 90
        1
176
     1
 90
        6
176
     1
 90
        2
176
     1
 62
     8
420
  7895160
176
     1
 90
        3
176
     1
 90
        0
176
     1
 90
        0
176
     1
290
     0
176
     1
 90
        5
176
     1
 40
0.0
176
     1
 90
        0
176
     1
290
     0
176
     1
290
     1
176
     1
290
     1
176
     1
290
     0
176
     1
290
     0
176
     1
290
     0
176
     1
290
     0
176
     1
290
     0
176
     1
290
     0
176
     1
 90
       50
176
     1
 40
0.0
176
     1
 40
1.0
176
     1
 90
        0
176
     1
 62
    18
420
        0
176
     1
 90
       50
176
     1
 90
        3
176
     1
 62
     5
420
      255
176
     1
290
     0
176
     1
 90
       50
176
     1
 90
       50
176
     1
 90
       50
176
     1
290
     0
176
     1
 90
       50
176
     1
 62
   256
176
     0
 40
1.0
176
     0
 90
        2
176
     1
  1
strokes_ogs.tif
176
     1
290
     0
176
     1
 40
1.0
176
     1
 40
1.0
176
     1
  0
VISUALSTYLE
  5
3D
102
{ACAD_REACTORS
330
29
102
}
330
29
100
AcDbVisualStyle
  2
Shaded with edges
 70
    26
177
     3
291
     0
 70
    58
 90
        2
176
     1
 90
        2
176
     1
 90
        1
176
     1
 90
        2
176
     1
 40
0.6
176
     1
 40
30.0
176
     1
 62
     7
420
 16777215
176
     1
 90
        1
176
     1
 90
       10
176
     1
 62
     7
176
     1
 62
   257
176
     1
 90
        2
176
     1
 90
        1
176
     1
 40
1.0
176
     1
 90
        8
176
     1
 62
   257
176
     1
 40
1.0
176
     1
 90
        1
176
     1
 90
        6
176
     1
 90
        2
176
     1
 62
     7
176
     1
 90
        3
176
     1
 90
        0
176
     1
 90
        0
176
     1
290
     0
176
     1
 90
        5
176
     1
 40
0.0
176
     1
 90
        0
176
     1
290
     0
176
     1
290
     1
176
     1
290
     1
176
     1
290
     0
176
     1
290
     0
176
     1
290
     0
176
     1
290
     0
176
     1
290
     0
176
     1
290
     0
176
     1
 90
       50
176
     1
 40
0.0
176
     1
 40
1.0
176
     1
 90
        0
176
     1
 62
    18
420
        0
176
     1
 90
       50
176
     1
 90
        3
176
     1
 62
     5
420
      255
176
     1
290
     0
176
     1
 90
       50
176
     1
 90
       50
176
     1
 90
       50
176
     1
290
     0
176
     1
 90
       50
176
     1
 62
   256
176
     0
 40
1.0
176
     0
 90
        2
176
     1
  1
strokes_ogs.tif
176
     1
290
     0
176
     1
 40
1.0
176
     1
 40
1.0
176
     1
  0
VISUALSTYLE
  5
3A
102
{ACAD_REACTORS
330
29
102
}
330
29
100
AcDbVisualStyle
  2
Shades of Gray
 70
    23
177
     3
291
     0
 70
    58
 90
        2
176
     1
 90
        2
176
     1
 90
        3
176
     1
 90
        0
176
     1
 40
0.6
176
     1
 40
30.0
176
     1
 62
     7
420
 16777215
176
     1
 90
        2
176
     1
 90
        2
176
     1
 62
     7
176
     1
 62
     7
176
     1
 90
        1
176
     1
 90
        1
176
     1
 40
40.0
176
     1
 90
        8
176
     1
 62
     7
176
     1
 40
1.0
176
     1
 90
        1
176
     1
 90
        6
176
     1
 90
        2
176
     1
 62
     7
176
     1
 90
        3
176
     1
 90
        0
176
     1
 90
        0
176
     1
290
     0
176
     1
 90
        1
176
     1
 40
0.0
176
     1
 90
        0
176
     1
290
     0
176
     1
290
     1
176
     1
290
     1
176
     1
290
     0
176
     1
290
     0
176
     1
290
     0
176
     1
290
     0
176
     1
290
     0
176
     1
290
     0
176
     1
 90
       50
176
     1
 40
0.0
176
     1
 40
1.0
176
     1
 90
        0
176
     1
 62
    18
420
        0
176
     1
 90
       50
176
     1
 90
        3
176
     1
 62
     5
420
      255
176
     1
290
     0
176
     1
 90
       50
176
     1
 90
       50
176
     1
 90
       50
176
     1
290
     0
176
     1
 90
       50
176
     1
 62
   256
176
     0
 40
1.0
176
     0
 90
        2
176
     1
  1
strokes_ogs.tif
176
     1
290
     0
176
     1
 40
1.0
176
     1
 40
1.0
176
     1
  0
VISUALSTYLE
  5
3B
102
{ACAD_REACTORS
330
29
102
}
330
29
100
AcDbVisualStyle
  2
Sketchy
 70
    24
177
     3
291
     0
 70
    58
 90
        1
176
     1
 90
        2
176
     1
 90
        2
176
     1
 90
        0
176
     1
 40
0.6
176
     1
 40
30.0
176
     1
 62
     7
420
 16777215
176
     1
 90
        2
176
     1
 90
        2
176
     1
 62
     7
176
     1
 62
     7
176
     1
 90
        1
176
     1
 90
        1
176
     1
 40
40.0
176
     1
 90
       11
176
     1
 62
     7
176
     1
 40
1.0
176
     1
 90
        1
176
     1
 90
        6
176
     1
 90
        2
176
     1
 62
     7
176
     1
 90
        6
176
     1
 90
        0
176
     1
 90
        0
176
     1
290
     0
176
     1
 90
        1
176
     1
 40
0.0
176
     1
 90
        0
176
     1
290
     0
176
     1
290
     1
176
     1
290
     1
176
     1
290
     0
176
     1
290
     0
176
     1
290
     0
176
     1
290
     0
176
     1
290
     0
176
     1
290
     0
176
     1
 90
       50
176
     1
 40
0.0
176
     1
 40
1.0
176
     1
 90
        0
176
     1
 62
    18
420
        0
176
     1
 90
       50
176
     1
 90
        3
176
     1
 62
     5
420
      255
176
     1
290
     0
176
     1
 90
       50
176
     1
 90
       50
176
     1
 90
       50
176
     1
290
     0
176
     1
 90
       50
176
     1
 62
   256
176
     0
 40
1.0
176
     0
 90
        2
176
     1
  1
strokes_ogs.tif
176
     1
290
     0
176
     1
 40
1.0
176
     1
 40
1.0
176
     1
  0
VISUALSTYLE
  5
36
102
{ACAD_REACTORS
330
29
102
}
330
29
100
AcDbVisualStyle
  2
Thicken
 70
    13
177
     3
291
     1
 70
    58
 90
        2
176
     1
 90
        2
176
     1
 90
        0
176
     1
 90
        0
176
     1
 40
0.6
176
     1
 40
30.0
176
     1
 62
     7
420
 16777215
176
     1
 90
        1
176
     1
 90
        4
176
     1
 62
     7
176
     1
 62
   257
176
     1
 90
        1
176
     1
 90
        1
176
     1
 40
1.0
176
     1
 90
       12
176
     1
 62
     7
176
     1
 40
1.0
176
     1
 90
        1
176
     1
 90
        6
176
     1
 90
        2
176
     1
 62
     7
176
     1
 90
        5
176
     1
 90
        0
176
     1
 90
        0
176
     1
290
     0
176
     1
 90
        1
176
     1
 40
0.0
176
     1
 90
        0
176
     1
290
     0
176
     1
290
     1
176
     1
290
     1
176
     1
290
     0
176
     1
290
     0
176
     1
290
     0
176
     1
290
     0
176
     1
290
     0
176
     1
290
     0
176
     1
 90
       50
176
     1
 40
0.0
176
     1
 40
1.0
176
     1
 90
        0
176
     1
 62
    18
420
        0
176
     1
 90
       50
176
     1
 90
        3
176
     1
 62
     5
420
      255
176
     1
290
     0
176
     1
 90
       50
176
     1
 90
       50
176
     1
 90
       50
176
     1
290
     0
176
     1
 90
       50
176
     1
 62
   256
176
     0
 40
1.0
176
     0
 90
        2
176
     1
  1
strokes_ogs.tif
176
     1
290
     0
176
     1
 40
1.0
176
     1
 40
1.0
176
     1
  0
VISUALSTYLE
  5
30
102
{ACAD_REACTORS
330
29
102
}
330
29
100
AcDbVisualStyle
  2
Wireframe
 70
     5
177
     3
291
     0
 70
    58
 90
        0
176
     1
 90
        2
176
     1
 90
        0
176
     1
 90
        0
176
     1
 40
0.6
176
     1
 40
30.0
176
     1
 62
     7
420
 16777215
176
     1
 90
        1
176
     1
 90
        4
176
     1
 62
     7
176
     1
 62
   257
176
     1
 90
        1
176
     1
 90
        1
176
     1
 40
1.0
176
     1
 90
        0
176
     1
 62
   257
176
     1
 40
1.0
176
     1
 90
        1
176
     1
 90
        6
176
     1
 90
        2
176
     1
 62
     7
176
     1
 90
        3
176
     1
 90
        0
176
     1
 90
        0
176
     1
290
     0
176
     1
 90
        1
176
     1
 40
0.0
176
     1
 90
        0
176
     1
290
     0
176
     1
290
     1
176
     1
290
     1
176
     1
290
     0
176
     1
290
     0
176
     1
290
     0
176
     1
290
     0
176
     1
290
     0
176
     1
290
     0
176
     1
 90
       50
176
     1
 40
0.0
176
     1
 40
1.0
176
     1
 90
        0
176
     1
 62
    18
420
        0
176
     1
 90
       50
176
     1
 90
        3
176
     1
 62
     5
420
      255
176
     1
290
     0
176
     1
 90
       50
176
     1
 90
       50
176
     1
 90
       50
176
     1
290
     0
176
     1
 90
       50
176
     1
 62
   256
176
     0
 40
1.0
176
     0
 90
        2
176
     1
  1
strokes_ogs.tif
176
     1
290
     0
176
     1
 40
1.0
176
     1
 40
1.0
176
     1
  0
VISUALSTYLE
  5
3C
102
{ACAD_REACTORS
330
29
102
}
330
29
100
AcDbVisualStyle
  2
X-Ray
 70
    25
177
     3
291
     0
 70
    58
 90
        2
176
     1
 90
        2
176
     1
 90
        1
176
     1
 90
        1
176
     1
 40
0.5
176
     1
 40
30.0
176
     1
 62
     7
420
 16777215
176
     1
 90
        1
176
     1
 90
        0
176
     1
 62
     7
176
     1
 62
   257
176
     1
 90
        1
176
     1
 90
        1
176
     1
 40
1.0
176
     1
 90
        8
176
     1
 62
     7
176
     1
 40
1.0
176
     1
 90
        1
176
     1
 90
        6
176
     1
 90
        2
176
     1
 62
     7
176
     1
 90
        3
176
     1
 90
        0
176
     1
 90
        0
176
     1
290
     0
176
     1
 90
       13
176
     1
 40
0.0
176
     1
 90
        0
176
     1
290
     0
176
     1
290
     1
176
     1
290
     1
176
     1
290
     0
176
     1
290
     0
176
     1
290
     0
176
     1
290
     0
176
     1
290
     0
176
     1
290
     0
176
     1
 90
       50
176
     1
 40
0.0
176
     1
 40
1.0
176
     1
 90
        0
176
     1
 62
    18
420
        0
176
     1
 90
       50
176
     1
 90
        3
176
     1
 62
     5
420
      255
176
     1
290
     0
176
     1
 90
       50
176
     1
 90
       50
176
     1
 90
       50
176
     1
290
     0
176
     1
 90
       50
176
     1
 62
   256
176
     0
 40
1.0
176
     0
 90
        2
176
     1
  1
strokes_ogs.tif
176
     1
290
     0
176
     1
 40
1.0
176
     1
 40
1.0
176
     1
  0
DICTIONARYVAR
  5
F8
102
{ACAD_REACTORS
330
F3
102
}
330
F3
100
DictionaryVariables
280
     0
  1
1:1
  0
DICTIONARYVAR
  5
F5
102
{ACAD_REACTORS
330
F3
102
}
330
F3
100
DictionaryVariables
280
     0
  1
STANDARD
  0
DICTIONARYVAR
  5
F4
102
{ACAD_REACTORS
330
F3
102
}
330
F3
100
DictionaryVariables
280
     0
  1
STANDARD
  0
DICTIONARYVAR
  5
F6
102
{ACAD_REACTORS
330
F3
102
}
330
F3
100
DictionaryVariables
280
     0
  1
Imperial24
  0
DICTIONARYVAR
  5
F7
102
{ACAD_REACTORS
330
F3
102
}
330
F3
100
DictionaryVariables
280
     0
  1
Imperial24
  0
XRECORD
  5
EB
102
{ACAD_REACTORS
330
E8
102
}
330
E8
100
AcDbXrecord
280
     1
  1
BUILDING_ID
  1
Robe_Hook-DXV-Fitzgerald-D35160210_Series
  1
FLOOR_ID
  1
1884
  0
XRECORD
  5
E9
102
{ACAD_REACTORS
330
E8
102
}
330
E8
100
AcDbXrecord
280
     1
  1
-2000051
  1
Lines
  1
-2001350
  1
Specialty Equipment
  0
XRECORD
  5
EA
102
{ACAD_REACTORS
330
E8
102
}
330
E8
100
AcDbXrecord
280
     1
  1
-2000287
  1
<Beyond>
  0
DICTIONARY
  5
F0
330
6B
100
AcDbDictionary
280
     1
281
     1
  3
ACAD_XREC_ROUNDTRIP
360
A51
  0
DICTIONARY
  5
1A
330
19
100
AcDbDictionary
280
     1
281
     1
  3
BUMPTILE
360
1C
  3
DIFFUSETILE
360
1B
  3
OPACITYTILE
360
1F
  3
REFLECTIONTILE
360
1E
  3
REFRACTIONTILE
360
20
  3
SPECULARTILE
360
1D
  0
DICTIONARY
  5
12
330
11
100
AcDbDictionary
280
     1
281
     1
  3
BUMPTILE
360
14
  3
DIFFUSETILE
360
13
  3
OPACITYTILE
360
17
  3
REFLECTIONTILE
360
16
  3
REFRACTIONTILE
360
18
  3
SPECULARTILE
360
15
  0
DICTIONARY
  5
22
330
21
100
AcDbDictionary
280
     1
281
     1
  3
BUMPTILE
360
24
  3
DIFFUSETILE
360
23
  3
OPACITYTILE
360
27
  3
REFLECTIONTILE
360
26
  3
REFRACTIONTILE
360
28
  3
SPECULARTILE
360
25
  0
DICTIONARY
  5
EE
330
69
100
AcDbDictionary
280
     1
281
     1
  3
ACAD_XREC_ROUNDTRIP
360
A50
  0
DICTIONARY
  5
A4E
330
65
100
AcDbDictionary
280
     1
281
     1
  3
ACAD_ROUNDTRIP_2008_TABLESTYLE_CELLSTYLEMAP
360
A4F
  0
XRECORD
  5
A51
102
{ACAD_REACTORS
330
F0
102
}
330
F0
100
AcDbXrecord
280
     1
102
DISPLAYNAME
  1
Imperial24
102
FLAGS
 90
        0
  0
XRECORD
  5
1C
102
{ACAD_REACTORS
330
1A
102
}
330
1A
100
AcDbXrecord
280
     1
270
     1
271
     1
  0
XRECORD
  5
1B
102
{ACAD_REACTORS
330
1A
102
}
330
1A
100
AcDbXrecord
280
     1
270
     1
271
     1
  0
XRECORD
  5
1F
102
{ACAD_REACTORS
330
1A
102
}
330
1A
100
AcDbXrecord
280
     1
270
     1
271
     1
  0
XRECORD
  5
1E
102
{ACAD_REACTORS
330
1A
102
}
330
1A
100
AcDbXrecord
280
     1
270
     1
271
     1
  0
XRECORD
  5
20
102
{ACAD_REACTORS
330
1A
102
}
330
1A
100
AcDbXrecord
280
     1
270
     1
271
     1
  0
XRECORD
  5
1D
102
{ACAD_REACTORS
330
1A
102
}
330
1A
100
AcDbXrecord
280
     1
270
     1
271
     1
  0
XRECORD
  5
14
102
{ACAD_REACTORS
330
12
102
}
330
12
100
AcDbXrecord
280
     1
270
     1
271
     1
  0
XRECORD
  5
13
102
{ACAD_REACTORS
330
12
102
}
330
12
100
AcDbXrecord
280
     1
270
     1
271
     1
  0
XRECORD
  5
17
102
{ACAD_REACTORS
330
12
102
}
330
12
100
AcDbXrecord
280
     1
270
     1
271
     1
  0
XRECORD
  5
16
102
{ACAD_REACTORS
330
12
102
}
330
12
100
AcDbXrecord
280
     1
270
     1
271
     1
  0
XRECORD
  5
18
102
{ACAD_REACTORS
330
12
102
}
330
12
100
AcDbXrecord
280
     1
270
     1
271
     1
  0
XRECORD
  5
15
102
{ACAD_REACTORS
330
12
102
}
330
12
100
AcDbXrecord
280
     1
270
     1
271
     1
  0
XRECORD
  5
24
102
{ACAD_REACTORS
330
22
102
}
330
22
100
AcDbXrecord
280
     1
270
     1
271
     1
  0
XRECORD
  5
23
102
{ACAD_REACTORS
330
22
102
}
330
22
100
AcDbXrecord
280
     1
270
     1
271
     1
  0
XRECORD
  5
27
102
{ACAD_REACTORS
330
22
102
}
330
22
100
AcDbXrecord
280
     1
270
     1
271
     1
  0
XRECORD
  5
26
102
{ACAD_REACTORS
330
22
102
}
330
22
100
AcDbXrecord
280
     1
270
     1
271
     1
  0
XRECORD
  5
28
102
{ACAD_REACTORS
330
22
102
}
330
22
100
AcDbXrecord
280
     1
270
     1
271
     1
  0
XRECORD
  5
25
102
{ACAD_REACTORS
330
22
102
}
330
22
100
AcDbXrecord
280
     1
270
     1
271
     1
  0
XRECORD
  5
A50
102
{ACAD_REACTORS
330
EE
102
}
330
EE
100
AcDbXrecord
280
     1
102
DISPLAYNAME
  1
Imperial24
102
FLAGS
 90
        0
  0
CELLSTYLEMAP
  5
A4F
102
{ACAD_REACTORS
330
A4E
102
}
330
A4E
100
AcDbCellStyleMap
 90
        3
300
CELLSTYLE
  1
TABLEFORMAT_BEGIN
 90
        5
170
     1
 91
        0
 92
    32768
 62
   257
 93
        1
300
CONTENTFORMAT
  1
CONTENTFORMAT_BEGIN
 90
        0
 91
        0
 92
      512
 93
        0
300

 40
0.0
140
1.0
 94
        5
 62
     0
340
55
144
0.25
309
CONTENTFORMAT_END
171
     0
 94
        0
309
TABLEFORMAT_END
  1
CELLSTYLE_BEGIN
 90
        1
 91
        1
300
_TITLE
309
CELLSTYLE_END
300
CELLSTYLE
  1
TABLEFORMAT_BEGIN
 90
        5
170
     1
 91
        0
 92
        0
 62
   257
 93
        1
300
CONTENTFORMAT
  1
CONTENTFORMAT_BEGIN
 90
        0
 91
        0
 92
      512
 93
        0
300

 40
0.0
140
1.0
 94
        5
 62
     0
340
55
144
0.18
309
CONTENTFORMAT_END
171
     0
 94
        0
309
TABLEFORMAT_END
  1
CELLSTYLE_BEGIN
 90
        2
 91
        1
300
_HEADER
309
CELLSTYLE_END
300
CELLSTYLE
  1
TABLEFORMAT_BEGIN
 90
        5
170
     1
 91
        0
 92
        0
 62
   257
 93
        1
300
CONTENTFORMAT
  1
CONTENTFORMAT_BEGIN
 90
        0
 91
        0
 92
      512
 93
        0
300

 40
0.0
140
1.0
 94
        2
 62
     0
340
55
144
0.18
309
CONTENTFORMAT_END
171
     0
 94
        0
309
TABLEFORMAT_END
  1
CELLSTYLE_BEGIN
 90
        3
 91
        2
300
_DATA
309
CELLSTYLE_END
  0
ENDSEC
  0
SECTION
  2
ACDSDATA
 70
     2
 71
     8
  0
ACDSSCHEMA
 90
        0
  1
AcDb_Thumbnail_Schema
  2
AcDbDs::ID
280
    10
 91
        8
  2
Thumbnail_Data
280
    15
 91
        0
101
ACDSRECORD
 95
        0
 90
        1
  2
AcDbDs::TreatedAsObjectData
280
     1
291
     1
101
ACDSRECORD
 95
        0
 90
        2
  2
AcDbDs::Legacy
280
     1
291
     1
101
ACDSRECORD
  1
AcDbDs::ID
 90
        3
  2
AcDs:Indexable
280
     1
291
     1
101
ACDSRECORD
  1
AcDbDs::ID
 90
        4
  2
AcDbDs::HandleAttribute
280
     7
282
     1
  0
ACDSSCHEMA
 90
        1
  1
AcDbDs::TreatedAsObjectDataSchema
  2
AcDbDs::TreatedAsObjectData
280
     1
 91
        0
  0
ACDSSCHEMA
 90
        2
  1
AcDbDs::LegacySchema
  2
AcDbDs::Legacy
280
     1
 91
        0
  0
ACDSSCHEMA
 90
        3
  1
AcDbDs::IndexedPropertySchema
  2
AcDs:Indexable
280
     1
 91
        0
  0
ACDSSCHEMA
 90
        4
  1
AcDbDs::HandleAttributeSchema
  2
AcDbDs::HandleAttribute
280
     7
 91
        1
284
     1
  0
ACDSRECORD
 90
        0
  2
AcDbDs::ID
280
    10
320
73
  2
Thumbnail_Data
280
    15
 94
     1177
310
89504E470D0A1A0A0000000D494844520000010000000084080300000048FA052E00000300504C5445212830000000C8C8C80000000000000000000000000000000000000000000000000000330000660000990000CC0000FF0033000033330033660033990033CC0033FF0066000066330066660066990066CC0066FF0099
310
000099330099660099990099CC0099FF00CC0000CC3300CC6600CC9900CCCC00CCFF00FF0000FF3300FF6600FF9900FFCC00FFFF3300003300333300663300993300CC3300FF3333003333333333663333993333CC3333FF3366003366333366663366993366CC3366FF3399003399333399663399993399CC3399FF33CC00
310
33CC3333CC6633CC9933CCCC33CCFF33FF0033FF3333FF6633FF9933FFCC33FFFF6600006600336600666600996600CC6600FF6633006633336633666633996633CC6633FF6666006666336666666666996666CC6666FF6699006699336699666699996699CC6699FF66CC0066CC3366CC6666CC9966CCCC66CCFF66FF0066
310
FF3366FF6666FF9966FFCC66FFFF9900009900339900669900999900CC9900FF9933009933339933669933999933CC9933FF9966009966339966669966999966CC9966FF9999009999339999669999999999CC9999FF99CC0099CC3399CC6699CC9999CCCC99CCFF99FF0099FF3399FF6699FF9999FFCC99FFFFCC0000CC00
310
33CC0066CC0099CC00CCCC00FFCC3300CC3333CC3366CC3399CC33CCCC33FFCC6600CC6633CC6666CC6699CC66CCCC66FFCC9900CC9933CC9966CC9999CC99CCCC99FFCCCC00CCCC33CCCC66CCCC99CCCCCCCCCCFFCCFF00CCFF33CCFF66CCFF99CCFFCCCCFFFFFF0000FF0033FF0066FF0099FF00CCFF00FFFF3300FF3333
310
FF3366FF3399FF33CCFF33FFFF6600FF6633FF6666FF6699FF66CCFF66FFFF9900FF9933FF9966FF9999FF99CCFF99FFFFCC00FFCC33FFCC66FFCC99FFCCCCFFCCFFFFFF00FFFF33FFFF66FFFF99FFFFCCFFFFFF0000000D0D0D1A1A1A2828283535354343435050505D5D5D6B6B6B787878868686939393A1A1A1AEAEAEBB
310
BBBBC9C9C9D6D6D6E4E4E4F1F1F1FFFFFF000000000000000000000000000000000000000000000000000000000000B21171F6000001544944415478DAEDDD316EC3300C0550DDFFBEDC5BD4B524B7CD46A366F8DE10041D02E957A2E4C51C83FF16172D03F8EB6BD315309A2670CCBBEBFC3F673E031802E87A101C398CD6
310
4B203A071002E81DC0D7E43BCFBF6B00F14AC3007E5E895B5D80CEC9AFBF46C32D309A3F13F73E0401000000000000000000000000000000000000000080FBE4BFFEB9D80BA5F33B8254EB3112E9C38DE707B0AFD0F4F55A6107EC234C7E037E8DB7CAEF93CE0D206A2410DB3A4D0E20AA0470D3606366FBE804F65670A963
310
3D3ACC3CBFD9545CFFFB99011C8D069FBE07E60AB821802A2B606DD5E41AB0FAAC3C7D0B343F066FBA086D3D769ADE044789F642976781F47255ACBD92009286BB95D5CBD72E01AC9FD96B4085C590B40566ABE9E31634E2D771F3F63520CE76A3FB478162905704CF467BE3FB8259A41AE6AD80F37ABD5A0E8E5601CC0866
310
F5AB711A663F0B8D4227E0BBF90048C2F2AD81BF66DB0000000049454E44AE426082
  0
ENDSEC
  0
EOF
