  0
SECTION
  2
HEADER
  9
$ACADVER
  1
AC1027
  9
$ACADMAINTVER
 70
   105
  9
$DWGCODEPAGE
  3
ANSI_1252
  9
$LASTSAVEDBY
  1
Ibrahim
  9
$REQUIREDVERSIONS
160
                 0
  9
$INSBASE
 10
0.0
 20
0.0
 30
0.0
  9
$EXTMIN
 10
-17.05078099045266
 20
-1.003417690521644
 30
-0.0015258207003583
  9
$EXTMAX
 10
4.255371266342251
 20
21.18164081729645
 30
0.0000000349246037
  9
$LIMMIN
 10
0.0
 20
0.0
  9
$LIMMAX
 10
12.0
 20
9.0
  9
$ORTHOMODE
 70
     1
  9
$REGENMODE
 70
     1
  9
$FILLMODE
 70
     1
  9
$QTEXTMODE
 70
     0
  9
$MIRRTEXT
 70
     0
  9
$LTSCALE
 40
1.0
  9
$ATTMODE
 70
     1
  9
$TEXTSIZE
 40
0.2
  9
$TRACEWID
 40
0.05
  9
$TEXTSTYLE
  7
Standard
  9
$CLAYER
  8
D35160230
  9
$CELTYPE
  6
ByLayer
  9
$CECOLOR
 62
   256
  9
$CELTSCALE
 40
1.0
  9
$DISPSILH
 70
     0
  9
$DIMSCALE
 40
1.0
  9
$DIMASZ
 40
0.18
  9
$DIMEXO
 40
0.0625
  9
$DIMDLI
 40
0.38
  9
$DIMRND
 40
0.0
  9
$DIMDLE
 40
0.0
  9
$DIMEXE
 40
0.18
  9
$DIMTP
 40
0.0
  9
$DIMTM
 40
0.0
  9
$DIMTXT
 40
0.18
  9
$DIMCEN
 40
0.09
  9
$DIMTSZ
 40
0.0
  9
$DIMTOL
 70
     0
  9
$DIMLIM
 70
     0
  9
$DIMTIH
 70
     1
  9
$DIMTOH
 70
     1
  9
$DIMSE1
 70
     0
  9
$DIMSE2
 70
     0
  9
$DIMTAD
 70
     0
  9
$DIMZIN
 70
     0
  9
$DIMBLK
  1

  9
$DIMASO
 70
     1
  9
$DIMSHO
 70
     1
  9
$DIMPOST
  1

  9
$DIMAPOST
  1

  9
$DIMALT
 70
     0
  9
$DIMALTD
 70
     2
  9
$DIMALTF
 40
25.4
  9
$DIMLFAC
 40
1.0
  9
$DIMTOFL
 70
     0
  9
$DIMTVP
 40
0.0
  9
$DIMTIX
 70
     0
  9
$DIMSOXD
 70
     0
  9
$DIMSAH
 70
     0
  9
$DIMBLK1
  1

  9
$DIMBLK2
  1

  9
$DIMSTYLE
  2
Standard
  9
$DIMCLRD
 70
     0
  9
$DIMCLRE
 70
     0
  9
$DIMCLRT
 70
     0
  9
$DIMTFAC
 40
1.0
  9
$DIMGAP
 40
0.09
  9
$DIMJUST
 70
     0
  9
$DIMSD1
 70
     0
  9
$DIMSD2
 70
     0
  9
$DIMTOLJ
 70
     1
  9
$DIMTZIN
 70
     0
  9
$DIMALTZ
 70
     0
  9
$DIMALTTZ
 70
     0
  9
$DIMUPT
 70
     0
  9
$DIMDEC
 70
     4
  9
$DIMTDEC
 70
     4
  9
$DIMALTU
 70
     4
  9
$DIMALTTD
 70
     2
  9
$DIMTXSTY
  7
Standard
  9
$DIMAUNIT
 70
     0
  9
$DIMADEC
 70
     0
  9
$DIMALTRND
 40
0.0
  9
$DIMAZIN
 70
     0
  9
$DIMDSEP
 70
    46
  9
$DIMATFIT
 70
     3
  9
$DIMFRAC
 70
     0
  9
$DIMLDRBLK
  1

  9
$DIMLUNIT
 70
     4
  9
$DIMLWD
 70
    -2
  9
$DIMLWE
 70
    -2
  9
$DIMTMOVE
 70
     0
  9
$DIMFXL
 40
1.0
  9
$DIMFXLON
 70
     0
  9
$DIMJOGANG
 40
0.7853981633974483
  9
$DIMTFILL
 70
     0
  9
$DIMTFILLCLR
 70
     0
  9
$DIMARCSYM
 70
     0
  9
$DIMLTYPE
  6

  9
$DIMLTEX1
  6

  9
$DIMLTEX2
  6

  9
$DIMTXTDIRECTION
 70
     0
  9
$LUNITS
 70
     4
  9
$LUPREC
 70
     4
  9
$SKETCHINC
 40
0.1
  9
$FILLETRAD
 40
0.0
  9
$AUNITS
 70
     0
  9
$AUPREC
 70
     0
  9
$MENU
  1
.
  9
$ELEVATION
 40
0.0
  9
$PELEVATION
 40
0.0
  9
$THICKNESS
 40
0.0
  9
$LIMCHECK
 70
     0
  9
$CHAMFERA
 40
0.0
  9
$CHAMFERB
 40
0.0
  9
$CHAMFERC
 40
0.0
  9
$CHAMFERD
 40
0.0
  9
$SKPOLY
 70
     0
  9
$TDCREATE
 40
2458417.705319965
  9
$TDUCREATE
 40
2458417.871986632
  9
$TDUPDATE
 40
2458424.722882581
  9
$TDUUPDATE
 40
2458424.889549247
  9
$TDINDWG
 40
0.0061724190
  9
$TDUSRTIMER
 40
0.0061724190
  9
$USRTIMER
 70
     1
  9
$ANGBASE
 50
0.0
  9
$ANGDIR
 70
     0
  9
$PDMODE
 70
     0
  9
$PDSIZE
 40
0.0
  9
$PLINEWID
 40
0.0
  9
$SPLFRAME
 70
     0
  9
$SPLINETYPE
 70
     6
  9
$SPLINESEGS
 70
     8
  9
$HANDSEED
  5
87E
  9
$SURFTAB1
 70
     6
  9
$SURFTAB2
 70
     6
  9
$SURFTYPE
 70
     6
  9
$SURFU
 70
     6
  9
$SURFV
 70
     6
  9
$UCSBASE
  2

  9
$UCSNAME
  2

  9
$UCSORG
 10
0.0
 20
0.0
 30
0.0
  9
$UCSXDIR
 10
1.0
 20
0.0
 30
0.0
  9
$UCSYDIR
 10
0.0
 20
1.0
 30
0.0
  9
$UCSORTHOREF
  2

  9
$UCSORTHOVIEW
 70
     0
  9
$UCSORGTOP
 10
0.0
 20
0.0
 30
0.0
  9
$UCSORGBOTTOM
 10
0.0
 20
0.0
 30
0.0
  9
$UCSORGLEFT
 10
0.0
 20
0.0
 30
0.0
  9
$UCSORGRIGHT
 10
0.0
 20
0.0
 30
0.0
  9
$UCSORGFRONT
 10
0.0
 20
0.0
 30
0.0
  9
$UCSORGBACK
 10
0.0
 20
0.0
 30
0.0
  9
$PUCSBASE
  2

  9
$PUCSNAME
  2

  9
$PUCSORG
 10
0.0
 20
0.0
 30
0.0
  9
$PUCSXDIR
 10
1.0
 20
0.0
 30
0.0
  9
$PUCSYDIR
 10
0.0
 20
1.0
 30
0.0
  9
$PUCSORTHOREF
  2

  9
$PUCSORTHOVIEW
 70
     0
  9
$PUCSORGTOP
 10
0.0
 20
0.0
 30
0.0
  9
$PUCSORGBOTTOM
 10
0.0
 20
0.0
 30
0.0
  9
$PUCSORGLEFT
 10
0.0
 20
0.0
 30
0.0
  9
$PUCSORGRIGHT
 10
0.0
 20
0.0
 30
0.0
  9
$PUCSORGFRONT
 10
0.0
 20
0.0
 30
0.0
  9
$PUCSORGBACK
 10
0.0
 20
0.0
 30
0.0
  9
$USERI1
 70
     0
  9
$USERI2
 70
     0
  9
$USERI3
 70
     0
  9
$USERI4
 70
     0
  9
$USERI5
 70
     0
  9
$USERR1
 40
0.0
  9
$USERR2
 40
0.0
  9
$USERR3
 40
0.0
  9
$USERR4
 40
0.0
  9
$USERR5
 40
0.0
  9
$WORLDVIEW
 70
     1
  9
$SHADEDGE
 70
     3
  9
$SHADEDIF
 70
    70
  9
$TILEMODE
 70
     1
  9
$MAXACTVP
 70
    64
  9
$PINSBASE
 10
0.0
 20
0.0
 30
0.0
  9
$PLIMCHECK
 70
     0
  9
$PEXTMIN
 10
1.000000000000000E+20
 20
1.000000000000000E+20
 30
1.000000000000000E+20
  9
$PEXTMAX
 10
-1.000000000000000E+20
 20
-1.000000000000000E+20
 30
-1.000000000000000E+20
  9
$PLIMMIN
 10
0.0
 20
0.0
  9
$PLIMMAX
 10
12.0
 20
9.0
  9
$UNITMODE
 70
     0
  9
$VISRETAIN
 70
     1
  9
$PLINEGEN
 70
     0
  9
$PSLTSCALE
 70
     1
  9
$TREEDEPTH
 70
  3020
  9
$CMLSTYLE
  2
Standard
  9
$CMLJUST
 70
     0
  9
$CMLSCALE
 40
1.0
  9
$PROXYGRAPHICS
 70
     1
  9
$MEASUREMENT
 70
     0
  9
$CELWEIGHT
370
    -1
  9
$ENDCAPS
280
     0
  9
$JOINSTYLE
280
     0
  9
$LWDISPLAY
290
     0
  9
$INSUNITS
 70
     1
  9
$HYPERLINKBASE
  1

  9
$STYLESHEET
  1

  9
$XEDIT
290
     1
  9
$CEPSNTYPE
380
     0
  9
$PSTYLEMODE
290
     1
  9
$FINGERPRINTGUID
  2
{08410818-544D-4550-8D18-FADDB7200E60}
  9
$VERSIONGUID
  2
{CF88555B-B144-4432-94E4-64338BF27542}
  9
$EXTNAMES
290
     1
  9
$PSVPSCALE
 40
0.0
  9
$OLESTARTUP
290
     0
  9
$SORTENTS
280
   127
  9
$INDEXCTL
280
     0
  9
$HIDETEXT
280
     1
  9
$XCLIPFRAME
280
     2
  9
$HALOGAP
280
     0
  9
$OBSCOLOR
 70
   257
  9
$OBSLTYPE
280
     0
  9
$INTERSECTIONDISPLAY
280
     0
  9
$INTERSECTIONCOLOR
 70
   257
  9
$DIMASSOC
280
     2
  9
$PROJECTNAME
  1

  9
$CAMERADISPLAY
290
     0
  9
$LENSLENGTH
 40
50.0
  9
$CAMERAHEIGHT
 40
0.0
  9
$STEPSPERSEC
 40
2.0
  9
$STEPSIZE
 40
6.0
  9
$3DDWFPREC
 40
2.0
  9
$PSOLWIDTH
 40
0.25
  9
$PSOLHEIGHT
 40
4.0
  9
$LOFTANG1
 40
1.570796326794896
  9
$LOFTANG2
 40
1.570796326794896
  9
$LOFTMAG1
 40
0.0
  9
$LOFTMAG2
 40
0.0
  9
$LOFTPARAM
 70
     7
  9
$LOFTNORMALS
280
     1
  9
$LATITUDE
 40
0.0
  9
$LONGITUDE
 40
0.0
  9
$NORTHDIRECTION
 40
0.0
  9
$TIMEZONE
 70
     0
  9
$LIGHTGLYPHDISPLAY
280
     1
  9
$TILEMODELIGHTSYNCH
280
     1
  9
$CMATERIAL
347
11
  9
$SOLIDHIST
280
     0
  9
$SHOWHIST
280
     1
  9
$DWFFRAME
280
     2
  9
$DGNFRAME
280
     0
  9
$REALWORLDSCALE
290
     1
  9
$INTERFERECOLOR
 62
     1
  9
$INTERFEREOBJVS
345
33
  9
$INTERFEREVPVS
346
30
  9
$CSHADOW
280
     0
  9
$SHADOWPLANELOCATION
 40
0.0
  0
ENDSEC
  0
SECTION
  2
CLASSES
  0
CLASS
  1
ACDBDICTIONARYWDFLT
  2
AcDbDictionaryWithDefault
  3
ObjectDBX Classes
 90
        0
 91
        1
280
     0
281
     0
  0
CLASS
  1
MATERIAL
  2
AcDbMaterial
  3
ObjectDBX Classes
 90
     1153
 91
        3
280
     0
281
     0
  0
CLASS
  1
VISUALSTYLE
  2
AcDbVisualStyle
  3
ObjectDBX Classes
 90
     4095
 91
       24
280
     0
281
     0
  0
CLASS
  1
SCALE
  2
AcDbScale
  3
ObjectDBX Classes
 90
     1153
 91
       17
280
     0
281
     0
  0
CLASS
  1
TABLESTYLE
  2
AcDbTableStyle
  3
ObjectDBX Classes
 90
     4095
 91
        1
280
     0
281
     0
  0
CLASS
  1
MLEADERSTYLE
  2
AcDbMLeaderStyle
  3
ACDB_MLEADERSTYLE_CLASS
 90
     4095
 91
        1
280
     0
281
     0
  0
CLASS
  1
ACDBSECTIONVIEWSTYLE
  2
AcDbSectionViewStyle
  3
ObjectDBX Classes
 90
     1025
 91
        1
280
     0
281
     0
  0
CLASS
  1
ACDBDETAILVIEWSTYLE
  2
AcDbDetailViewStyle
  3
ObjectDBX Classes
 90
     1025
 91
        1
280
     0
281
     0
  0
CLASS
  1
RASTERVARIABLES
  2
AcDbRasterVariables
  3
ISM
 90
        0
 91
        1
280
     0
281
     0
  0
CLASS
  1
DICTIONARYVAR
  2
AcDbDictionaryVar
  3
ObjectDBX Classes
 90
        0
 91
        5
280
     0
281
     0
  0
CLASS
  1
SORTENTSTABLE
  2
AcDbSortentsTable
  3
ObjectDBX Classes
 90
        0
 91
        4
280
     0
281
     0
  0
CLASS
  1
CELLSTYLEMAP
  2
AcDbCellStyleMap
  3
ObjectDBX Classes
 90
     1152
 91
        1
280
     0
281
     0
  0
ENDSEC
  0
SECTION
  2
TABLES
  0
TABLE
  2
VPORT
  5
8
330
0
100
AcDbSymbolTable
 70
     1
  0
VPORT
  5
57
330
8
100
AcDbSymbolTableRecord
100
AcDbViewportTableRecord
  2
*Active
 70
     0
 10
0.0
 20
0.0
 11
1.0
 21
1.0
 12
-2.525390495226329
 22
10.0891115633874
 13
0.0
 23
0.0
 14
1.0
 24
1.0
 15
0.0
 25
0.0
 16
0.0
 26
0.0
 36
1.0
 17
0.0
 27
0.0
 37
0.0
 40
22.36397026997792
 41
1.927321668909825
 42
50.0
 43
0.0
 44
0.0
 50
0.0
 51
0.0
 71
     0
 72
  1000
 73
     1
 74
     1
 75
     0
 76
     0
 77
     0
 78
     0
281
     0
 65
     1
110
0.0
120
0.0
130
0.0
111
1.0
121
0.0
131
0.0
112
0.0
122
1.0
132
0.0
 79
     0
146
0.0
348
2F
 60
     3
 61
     5
292
     1
282
     1
141
0.0
142
0.0
 63
   250
421
  3355443
1001
ACAD_NAV_VCDISPLAY
1070
     3
  0
ENDTAB
  0
TABLE
  2
LTYPE
  5
5
330
0
100
AcDbSymbolTable
 70
     2
  0
LTYPE
  5
5B
330
5
100
AcDbSymbolTableRecord
100
AcDbLinetypeTableRecord
  2
ByBlock
 70
     0
  3

 72
    65
 73
     0
 40
0.0
  0
LTYPE
  5
5C
330
5
100
AcDbSymbolTableRecord
100
AcDbLinetypeTableRecord
  2
ByLayer
 70
     0
  3

 72
    65
 73
     0
 40
0.0
  0
LTYPE
  5
5D
330
5
100
AcDbSymbolTableRecord
100
AcDbLinetypeTableRecord
  2
Continuous
 70
     0
  3
Solid line
 72
    65
 73
     0
 40
0.0
  0
ENDTAB
  0
TABLE
  2
LAYER
  5
2
102
{ACAD_XDICTIONARY
360
870
102
}
330
0
100
AcDbSymbolTable
 70
     3
  0
LAYER
  5
54
330
2
100
AcDbSymbolTableRecord
100
AcDbLayerTableRecord
  2
0
 70
     0
 62
     7
  6
Continuous
370
    -3
390
F
347
21
348
0
  0
LAYER
  5
86
330
2
100
AcDbSymbolTableRecord
100
AcDbLayerTableRecord
  2
D35160230
 70
     0
 62
     7
  6
Continuous
370
     9
390
F
347
21
348
0
  0
ENDTAB
  0
TABLE
  2
STYLE
  5
3
330
0
100
AcDbSymbolTable
 70
     2
  0
STYLE
  5
55
330
3
100
AcDbSymbolTableRecord
100
AcDbTextStyleTableRecord
  2
Standard
 70
     0
 40
0.0
 41
1.0
 50
0.0
 71
     0
 42
0.2
  3
txt
  4

  0
ENDTAB
  0
TABLE
  2
VIEW
  5
6
330
0
100
AcDbSymbolTable
 70
     1
  0
ENDTAB
  0
TABLE
  2
UCS
  5
7
330
0
100
AcDbSymbolTable
 70
     0
  0
ENDTAB
  0
TABLE
  2
APPID
  5
9
330
0
100
AcDbSymbolTable
 70
     5
  0
APPID
  5
56
330
9
100
AcDbSymbolTableRecord
100
AcDbRegAppTableRecord
  2
ACAD
 70
     0
  0
APPID
  5
5E
330
9
100
AcDbSymbolTableRecord
100
AcDbRegAppTableRecord
  2
AcadAnnotative
 70
     0
  0
APPID
  5
78
330
9
100
AcDbSymbolTableRecord
100
AcDbRegAppTableRecord
  2
REVIT
 70
     0
  0
APPID
  5
103
330
9
100
AcDbSymbolTableRecord
100
AcDbRegAppTableRecord
  2
ACAD_NAV_VCDISPLAY
 70
     0
  0
APPID
  5
1D5
330
9
100
AcDbSymbolTableRecord
100
AcDbRegAppTableRecord
  2
ACAD_EXEMPT_FROM_CAD_STANDARDS
 70
     0
  0
ENDTAB
  0
TABLE
  2
DIMSTYLE
  5
A
330
0
100
AcDbSymbolTable
 70
     3
100
AcDbDimStyleTable
 71
     1
340
58
  0
DIMSTYLE
105
58
330
A
100
AcDbSymbolTableRecord
100
AcDbDimStyleTableRecord
  2
Standard
 70
     0
340
55
  0
ENDTAB
  0
TABLE
  2
BLOCK_RECORD
  5
1
330
0
100
AcDbSymbolTable
 70
    11
  0
BLOCK_RECORD
  5
70
102
{ACAD_XDICTIONARY
360
CE
102
}
330
1
100
AcDbSymbolTableRecord
100
AcDbBlockTableRecord
  2
*Model_Space
340
73
 70
     0
280
     1
281
     0
  0
BLOCK_RECORD
  5
6C
330
1
100
AcDbSymbolTableRecord
100
AcDbBlockTableRecord
  2
*Paper_Space
340
6F
 70
     0
280
     1
281
     0
  0
BLOCK_RECORD
  5
74
330
1
100
AcDbSymbolTableRecord
100
AcDbBlockTableRecord
  2
*Paper_Space0
340
77
 70
     0
280
     1
281
     0
  0
BLOCK_RECORD
  5
587
330
1
100
AcDbSymbolTableRecord
100
AcDbBlockTableRecord
  2
D35160230 Top View
340
0
310
28000000200000002000000001002000000000000010000001000000010000000000000000000000302821FF302821FF302821FF302821FF302821FF302821FF302821FF302821FF302821FF302821FF302821FF302821FF302821FF302821FF302821FF302821FF302821FF302821FF302821FF302821FF302821FF302821
310
FF302821FF302821FF302821FF302821FF302821FF302821FF302821FF302821FF302821FF302821FF302821FF302821FF302821FF302821FF302821FF302821FF302821FF302821FF302821FF302821FF302821FF302821FF302821FF302821FF302821FF302821FF302821FF302821FF302821FF302821FF302821FF3028
310
21FF302821FF302821FF302821FF302821FF302821FF302821FF302821FF302821FF302821FF302821FF302821FF302821FF302821FF302821FF302821FF302821FF302821FF302821FF302821FF302821FF302821FF302821FF302821FF302821FF302821FF302821FF302821FF302821FF302821FF302821FF302821FF30
310
2821FF302821FF302821FF302821FF302821FF302821FF302821FF302821FF302821FF302821FF302821FF302821FF302821FF302821FF302821FF302821FF302821FF302821FF302821FF302821FF302821FF302821FF302821FF302821FF302821FF302821FF302821FF302821FF302821FF302821FF302821FF302821FF
310
302821FF302821FF302821FF302821FF302821FF302821FF302821FF302821FF302821FF302821FF302821FF302821FF302821FF302821FF302821FF302821FF302821FF302821FF302821FF302821FF302821FF302821FF302821FF302821FF302821FF302821FF302821FF302821FF302821FF302821FF302821FF302821
310
FF302821FF302821FF302821FF302821FF302821FF302821FF302821FF302821FF302821FF302821FF302821FF302821FF302821FF302821FF302821FF302821FF302821FF302821FF302821FF302821FF302821FF302821FF302821FF302821FF302821FF302821FF302821FF302821FF302821FF302821FF302821FF3028
310
21FF302821FF302821FF302821FF302821FF302821FF302821FF302821FF302821FF302821FF302821FF302821FF302821FF302821FF302821FF302821FF302821FF302821FF302821FF302821FF302821FF302821FF302821FF302821FF302821FF302821FF302821FF302821FF302821FF302821FF302821FF302821FF30
310
2821FF302821FF302821FF302821FF302821FF302821FF302821FF302821FF302821FF302821FF302821FF302821FF302821FF302821FF302821FF302821FF302821FF302821FF302821FF302821FF302821FF302821FF302821FF302821FF302821FF302821FF302821FF302821FF302821FF302821FF302821FF302821FF
310
302821FF302821FF302821FF302821FF302821FF302821FF302821FF302821FF302821FF302821FF302821FF302821FF302821FF302821FF302821FF302821FF302821FF302821FF302821FF302821FF302821FF302821FF302821FF302821FF302821FF302821FF302821FF302821FF302821FF302821FF302821FF302821
310
FF302821FF302821FF302821FF302821FF302821FF302821FF302821FF302821FF302821FF302821FF302821FF302821FF302821FF302821FF302821FFFFFFFFFFFFFFFFFFFFFFFFFFFFFFFFFFFFFFFFFFFFFFFFFFFFFFFFFFFFFFFFFFFFFFFFFFFFFFFFFFFFFFFFFFFFFFFFFFFFFFFFFFFFFFFFFFFFFFFFFFFFFFFFFFFFFF
310
FFFFFFFFFFFFFFFFFFFFFFFFFFFFFFFFFFFFFFFFFFFFFFFFFFFFFFFFFFFFFFFFFFFFFFFFFFFF302821FF302821FF302821FF302821FF302821FF302821FFFFFFFFFF302821FF302821FFFFFFFFFFFFFFFFFFFFFFFFFFFFFFFFFFFFFFFFFFFFFFFFFFFFFFFFFFFFFFFFFFFFFFFFFFFFFFFFFFFFFFFFFFFFFFFFFFFFFFFFFFFF
310
FFFFFFFFFFFFFFFFFFFFFFFFFFFFFFFFFFFFFFFFFFFFFFFFFFFFFF302821FF302821FFFFFFFFFF302821FF302821FF302821FF302821FF302821FF302821FFFFFFFFFFFFFFFFFFFFFFFFFFFFFFFFFFFFFFFFFFFFFFFFFFFFFFFFFFFFFFFFFFFFFFFFFFFFFFFFFFFFFFFFFFFFFFFFFFFFFFFFFFFFFFFFFFFFFFFFFFFFFFFFFF
310
FFFFFFFFFFFFFFFFFFFFFFFFFFFFFFFFFFFFFFFFFFFFFFFFFFFFFFFFFFFFFFFFFFFFFFFFFFFFFFFF302821FF302821FF302821FF302821FF302821FF302821FF302821FFFFFFFFFFFFFFFFFFFFFFFFFF302821FF302821FF302821FF302821FF302821FF302821FF302821FF302821FF302821FF302821FF302821FF302821
310
FF302821FF302821FF302821FF302821FF302821FF302821FFFFFFFFFFFFFFFFFFFFFFFFFF302821FF302821FF302821FF302821FF302821FF302821FF302821FF302821FFFFFFFFFFFFFFFFFFFFFFFFFF302821FF302821FF302821FF302821FF302821FF302821FF302821FF302821FF302821FF302821FF302821FF3028
310
21FF302821FF302821FF302821FF302821FF302821FF302821FFFFFFFFFFFFFFFFFFFFFFFFFF302821FF302821FF302821FF302821FF302821FF302821FF302821FFFFFFFFFFFFFFFFFFFFFFFFFFFFFFFFFF302821FF302821FF302821FF302821FF302821FF302821FF302821FF302821FF302821FF302821FF302821FF30
310
2821FF302821FF302821FF302821FF302821FF302821FF302821FFFFFFFFFFFFFFFFFFFFFFFFFFFFFFFFFF302821FF302821FF302821FF302821FF302821FF302821FFFFFFFFFFFFFFFFFFFFFFFFFFFFFFFFFF302821FF302821FF302821FF302821FF302821FF302821FF302821FF302821FF302821FF302821FF302821FF
310
302821FF302821FF302821FF302821FF302821FF302821FF302821FFFFFFFFFFFFFFFFFFFFFFFFFFFFFFFFFF302821FF302821FF302821FF302821FF302821FF302821FFFFFFFFFFFFFFFFFFFFFFFFFFFFFFFFFF302821FF302821FF302821FF302821FF302821FF302821FF302821FF302821FF302821FF302821FF302821
310
FF302821FF302821FF302821FF302821FF302821FF302821FF302821FFFFFFFFFFFFFFFFFFFFFFFFFFFFFFFFFF302821FF302821FF302821FF302821FF302821FF302821FFFFFFFFFFFFFFFFFFFFFFFFFFFFFFFFFFFFFFFFFF302821FF302821FF302821FF302821FF302821FF302821FF302821FF302821FF302821FF3028
310
21FF302821FF302821FF302821FF302821FF302821FF302821FFFFFFFFFFFFFFFFFFFFFFFFFFFFFFFFFFFFFFFFFF302821FF302821FF302821FF302821FF302821FF302821FFFFFFFFFFFFFFFFFFFFFFFFFF302821FFFFFFFFFF302821FF302821FF302821FF302821FF302821FF302821FF302821FF302821FF302821FF30
310
2821FF302821FF302821FF302821FF302821FF302821FF302821FFFFFFFFFF302821FFFFFFFFFFFFFFFFFFFFFFFFFF302821FF302821FF302821FF302821FF302821FF302821FFFFFFFFFF302821FF302821FFFFFFFFFFFFFFFFFF302821FF302821FF302821FF302821FF302821FF302821FF302821FF302821FF302821FF
310
302821FF302821FF302821FF302821FF302821FF302821FF302821FFFFFFFFFFFFFFFFFF302821FF302821FFFFFFFFFFFFFFFFFF302821FF302821FF302821FF302821FFFFFFFFFFFFFFFFFF302821FF302821FFFFFFFFFFFFFFFFFFFFFFFFFF302821FF302821FF302821FF302821FF302821FF302821FF302821FF302821
310
FF302821FF302821FF302821FF302821FF302821FF302821FFFFFFFFFFFFFFFFFFFFFFFFFF302821FF302821FFFFFFFFFFFFFFFFFF302821FF302821FF302821FF302821FFFFFFFFFFFFFFFFFFFFFFFFFFFFFFFFFFFFFFFFFFFFFFFFFFFFFFFFFF302821FF302821FF302821FF302821FF302821FF302821FF302821FF3028
310
21FF302821FF302821FF302821FF302821FF302821FF302821FFFFFFFFFFFFFFFFFFFFFFFFFFFFFFFFFFFFFFFFFFFFFFFFFFFFFFFFFF302821FF302821FF302821FFFFFFFFFFFFFFFFFFFFFFFFFFFFFFFFFFFFFFFFFFFFFFFFFFFFFFFFFFFFFFFFFF302821FF302821FF302821FF302821FF302821FF302821FF302821FF30
310
2821FF302821FF302821FF302821FF302821FF302821FF302821FFFFFFFFFFFFFFFFFFFFFFFFFFFFFFFFFFFFFFFFFFFFFFFFFFFFFFFFFFFFFFFFFF302821FF302821FF302821FF302821FF302821FF302821FF302821FF302821FF302821FF302821FF302821FF302821FF302821FF302821FF302821FF302821FF302821FF
310
302821FF302821FF302821FF302821FF302821FF302821FF302821FF302821FF302821FF302821FF302821FF302821FF302821FF302821FF302821FF302821FF302821FF302821FF302821FF302821FF302821FF302821FF302821FF302821FF302821FF302821FF302821FF302821FF302821FF302821FF302821FF302821
310
FF302821FF302821FF302821FF302821FF302821FF302821FF302821FF302821FF302821FF302821FF302821FF302821FF302821FF302821FF302821FF302821FF302821FF302821FF302821FF302821FF302821FF302821FF302821FF302821FF302821FF302821FF302821FF302821FF302821FF302821FF302821FF3028
310
21FF302821FF302821FF302821FF302821FF302821FF302821FF302821FF302821FF302821FF302821FF302821FF302821FF302821FF302821FF302821FF302821FF302821FF302821FF302821FF302821FF302821FF302821FF302821FF302821FF302821FF302821FF302821FF302821FF302821FF302821FF302821FF30
310
2821FF302821FF302821FF302821FF302821FF302821FF302821FF302821FF302821FF302821FF302821FF302821FF302821FF302821FF302821FF302821FF302821FF302821FF302821FF302821FF302821FF302821FF302821FF302821FF302821FF302821FF302821FF302821FF302821FF302821FF302821FF302821FF
310
302821FF302821FF302821FF302821FF302821FF302821FF302821FF302821FF302821FF302821FF302821FF302821FF302821FF302821FF302821FF302821FF302821FF302821FF302821FF302821FF302821FF302821FF302821FF302821FF302821FF302821FF302821FF302821FF302821FF302821FF302821FF302821
310
FF302821FF302821FF302821FF302821FF302821FF302821FF302821FF302821FF302821FF302821FF302821FF302821FF302821FF302821FF302821FF302821FF302821FF302821FF302821FF302821FF302821FF302821FF302821FF302821FF302821FF302821FF302821FF302821FF302821FF302821FF302821FF3028
310
21FF302821FF302821FF302821FF302821FF302821FF302821FF302821FF302821FF302821FF302821FF302821FF302821FF302821FF302821FF302821FF302821FF302821FF302821FF302821FF302821FF302821FF302821FF302821FF302821FF302821FF302821FF302821FF302821FF302821FF302821FF302821FF30
310
2821FF302821FF302821FF302821FF302821FF302821FF302821FF302821FF302821FF302821FF302821FF302821FF302821FF302821FF302821FF302821FF302821FF302821FF302821FF302821FF302821FF302821FF302821FF302821FF302821FF302821FF302821FF302821FF302821FF302821FF302821FF302821FF
310
302821FF302821FF302821FF302821FF302821FF302821FF302821FF302821FF302821FF302821FF302821FF302821FF302821FF302821FF302821FF302821FF302821FF302821FF
102
{BLKREFS
331
686
102
}
 70
     1
280
     1
281
     1
  0
BLOCK_RECORD
  5
687
330
1
100
AcDbSymbolTableRecord
100
AcDbBlockTableRecord
  2
D35160230 Front View
340
0
310
28000000200000002000000001002000000000000010000001000000010000000000000000000000302821FF302821FF302821FF302821FF302821FF302821FF302821FF302821FF302821FF302821FF302821FF302821FF302821FF302821FF302821FF302821FF302821FF302821FF302821FF302821FF302821FF302821
310
FF302821FF302821FF302821FF302821FF302821FF302821FF302821FF302821FF302821FF302821FF302821FF302821FF302821FF302821FF302821FF302821FF302821FF302821FF302821FF302821FF302821FF302821FF302821FF302821FF302821FF302821FF302821FF302821FF302821FF302821FF302821FF3028
310
21FF302821FF302821FF302821FF302821FF302821FF302821FF302821FF302821FF302821FF302821FF302821FF302821FF302821FF302821FF302821FF302821FF302821FF302821FF302821FF302821FF302821FF302821FF302821FF302821FF302821FF302821FF302821FF302821FF302821FF302821FF302821FF30
310
2821FF302821FF302821FF302821FF302821FF302821FF302821FF302821FF302821FF302821FF302821FF302821FF302821FF302821FF302821FF302821FF302821FF302821FF302821FF302821FF302821FF302821FF302821FF302821FF302821FF302821FF302821FF302821FF302821FF302821FF302821FF302821FF
310
302821FF302821FF302821FF302821FF302821FF302821FF302821FF302821FF302821FF302821FF302821FF302821FF302821FF302821FF302821FF302821FF302821FF302821FF302821FF302821FF302821FF302821FF302821FF302821FF302821FF302821FF302821FF302821FF302821FF302821FF302821FF302821
310
FF302821FF302821FF302821FF302821FF302821FF302821FF302821FF302821FF302821FF302821FF302821FF302821FF302821FF302821FF302821FF302821FF302821FF302821FF302821FF302821FF302821FF302821FF302821FF302821FF302821FF302821FF302821FF302821FF302821FF302821FF302821FF3028
310
21FF302821FF302821FF302821FF302821FF302821FF302821FF302821FF302821FF302821FF302821FF302821FF302821FF302821FF302821FF302821FF302821FF302821FF302821FF302821FF302821FF302821FF302821FF302821FF302821FF302821FF302821FF302821FF302821FF302821FF302821FF302821FF30
310
2821FF302821FF302821FF302821FF302821FF302821FF302821FF302821FF302821FF302821FF302821FF302821FF302821FF302821FF302821FF302821FF302821FF302821FF302821FF302821FF302821FF302821FF302821FF302821FF302821FF302821FF302821FF302821FF302821FF302821FF302821FF302821FF
310
302821FF302821FF302821FF302821FF302821FF302821FF302821FF302821FF302821FF302821FF302821FF302821FF302821FF302821FF302821FF302821FF302821FF302821FF302821FF302821FF302821FF302821FF302821FF302821FF302821FF302821FF302821FF302821FF302821FF302821FF302821FF302821
310
FF302821FF302821FF302821FF302821FF302821FF302821FF302821FF302821FF302821FF302821FF302821FF302821FF302821FF302821FF302821FF302821FF302821FF302821FF302821FF302821FF302821FF302821FF302821FF302821FF302821FF302821FF302821FF302821FF302821FF302821FF302821FF3028
310
21FF302821FF302821FF302821FF302821FF302821FF302821FF302821FF302821FF302821FF302821FF302821FF302821FF302821FF302821FF302821FF302821FF302821FF302821FF302821FF302821FF302821FF302821FF302821FF302821FF302821FF302821FF302821FF302821FF302821FF302821FF302821FF30
310
2821FF302821FF302821FF302821FF302821FF302821FF302821FF302821FF302821FF302821FF302821FF302821FF302821FF302821FF302821FF302821FF302821FF302821FF302821FF302821FF302821FF302821FF302821FF302821FF302821FF302821FF302821FF302821FF302821FF302821FF302821FF302821FF
310
302821FF302821FF302821FF302821FF302821FF302821FF302821FF302821FF302821FF302821FF302821FF302821FF302821FF302821FF302821FF302821FF302821FFFFFFFFFFFFFFFFFFFFFFFFFF302821FF302821FF302821FF302821FF302821FF302821FF302821FF302821FF302821FF302821FF302821FF302821
310
FF302821FF302821FF302821FF302821FF302821FF302821FFFFFFFFFFFFFFFFFFFFFFFFFF302821FF302821FF302821FF302821FF302821FF302821FFFFFFFFFFFFFFFFFFFFFFFFFFFFFFFFFFFFFFFFFFFFFFFFFF302821FF302821FF302821FF302821FF302821FF302821FF302821FF302821FF302821FF302821FF3028
310
21FF302821FF302821FF302821FF302821FF302821FFFFFFFFFFFFFFFFFFFFFFFFFFFFFFFFFFFFFFFFFFFFFFFFFF302821FF302821FF302821FF302821FFFFFFFFFFFFFFFFFFFFFFFFFFFFFFFFFFFFFFFFFFFFFFFFFFFFFFFFFFFFFFFFFFFFFFFFFFFFFFFFFFFFFFFFFFFFFFFFFFFFFFFFFFFFFFFFFFFFFFFFFFFFFFFFFFFF
310
FFFFFFFFFFFFFFFFFFFFFFFFFFFFFFFFFFFFFFFFFFFFFFFFFFFFFFFFFFFFFFFFFFFFFFFFFFFFFFFFFFFFFFFFFFFFFF302821FF302821FF302821FFFFFFFFFFFFFFFFFFFFFFFFFF302821FF302821FFFFFFFFFFFFFFFFFFFFFFFFFFFFFFFFFFFFFFFFFFFFFFFFFFFFFFFFFFFFFFFFFFFFFFFFFFFFFFFFFFFFFFFFFFFFFFFFFF
310
FFFFFFFFFFFFFFFFFFFFFFFFFFFFFFFFFFFFFFFFFFFFFFFFFFFFFFFFFFFFFFFF302821FF302821FFFFFFFFFFFFFFFFFFFFFFFFFF302821FF302821FFFFFFFFFFFFFFFFFFFFFFFFFF302821FF302821FFFFFFFFFFFFFFFFFFFFFFFFFFFFFFFFFFFFFFFFFFFFFFFFFFFFFFFFFFFFFFFFFFFFFFFFFFFFFFFFFFFFFFFFFFFFFFFF
310
FFFFFFFFFFFFFFFFFFFFFFFFFFFFFFFFFFFFFFFFFFFFFFFFFFFFFFFFFFFFFFFFFF302821FF302821FFFFFFFFFFFFFFFFFFFFFFFFFF302821FF302821FF302821FFFFFFFFFFFFFFFFFFFFFFFFFFFFFFFFFFFFFFFFFFFFFFFFFFFFFFFFFFFFFFFFFFFFFFFFFFFFFFFFFFFFFFFFFFFFFFFFFFFFFFFFFFFFFFFFFFFFFFFFFFFFFF
310
FFFFFFFFFFFFFFFFFFFFFFFFFFFFFFFFFFFFFFFFFFFFFFFFFFFFFFFFFFFFFFFFFFFFFFFFFFFFFFFFFFFFFFFFFFFFFFFFFFFF302821FF302821FF302821FF302821FFFFFFFFFFFFFFFFFFFFFFFFFFFFFFFFFFFFFFFFFFFFFFFFFF302821FF302821FF302821FF302821FF302821FF302821FF302821FF302821FF302821FF30
310
2821FF302821FF302821FF302821FF302821FF302821FF302821FFFFFFFFFFFFFFFFFFFFFFFFFFFFFFFFFFFFFFFFFFFFFFFFFF302821FF302821FF302821FF302821FF302821FF302821FFFFFFFFFFFFFFFFFFFFFFFFFF302821FF302821FF302821FF302821FF302821FF302821FF302821FF302821FF302821FF302821FF
310
302821FF302821FF302821FF302821FF302821FF302821FF302821FF302821FFFFFFFFFFFFFFFFFFFFFFFFFF302821FF302821FF302821FF302821FF302821FF302821FF302821FF302821FF302821FF302821FF302821FF302821FF302821FF302821FF302821FF302821FF302821FF302821FF302821FF302821FF302821
310
FF302821FF302821FF302821FF302821FF302821FF302821FF302821FF302821FF302821FF302821FF302821FF302821FF302821FF302821FF302821FF302821FF302821FF302821FF302821FF302821FF302821FF302821FF302821FF302821FF302821FF302821FF302821FF302821FF302821FF302821FF302821FF3028
310
21FF302821FF302821FF302821FF302821FF302821FF302821FF302821FF302821FF302821FF302821FF302821FF302821FF302821FF302821FF302821FF302821FF302821FF302821FF302821FF302821FF302821FF302821FF302821FF302821FF302821FF302821FF302821FF302821FF302821FF302821FF302821FF30
310
2821FF302821FF302821FF302821FF302821FF302821FF302821FF302821FF302821FF302821FF302821FF302821FF302821FF302821FF302821FF302821FF302821FF302821FF302821FF302821FF302821FF302821FF302821FF302821FF302821FF302821FF302821FF302821FF302821FF302821FF302821FF302821FF
310
302821FF302821FF302821FF302821FF302821FF302821FF302821FF302821FF302821FF302821FF302821FF302821FF302821FF302821FF302821FF302821FF302821FF302821FF302821FF302821FF302821FF302821FF302821FF302821FF302821FF302821FF302821FF302821FF302821FF302821FF302821FF302821
310
FF302821FF302821FF302821FF302821FF302821FF302821FF302821FF302821FF302821FF302821FF302821FF302821FF302821FF302821FF302821FF302821FF302821FF302821FF302821FF302821FF302821FF302821FF302821FF302821FF302821FF302821FF302821FF302821FF302821FF302821FF302821FF3028
310
21FF302821FF302821FF302821FF302821FF302821FF302821FF302821FF302821FF302821FF302821FF302821FF302821FF302821FF302821FF302821FF302821FF302821FF302821FF302821FF302821FF302821FF302821FF302821FF302821FF302821FF302821FF302821FF302821FF302821FF302821FF302821FF30
310
2821FF302821FF302821FF302821FF302821FF302821FF302821FF302821FF302821FF302821FF302821FF302821FF302821FF302821FF302821FF302821FF302821FF302821FF302821FF302821FF302821FF302821FF302821FF302821FF302821FF302821FF302821FF302821FF302821FF302821FF302821FF302821FF
310
302821FF302821FF302821FF302821FF302821FF302821FF302821FF302821FF302821FF302821FF302821FF302821FF302821FF302821FF302821FF302821FF302821FF302821FF302821FF302821FF302821FF302821FF302821FF302821FF302821FF302821FF302821FF302821FF302821FF302821FF302821FF302821
310
FF302821FF302821FF302821FF302821FF302821FF302821FF302821FF302821FF302821FF302821FF302821FF302821FF302821FF302821FF302821FF302821FF302821FF302821FF302821FF302821FF302821FF302821FF302821FF302821FF302821FF302821FF302821FF302821FF302821FF302821FF302821FF3028
310
21FF302821FF302821FF302821FF302821FF302821FF302821FF302821FF302821FF302821FF302821FF302821FF302821FF302821FF302821FF302821FF302821FF302821FF302821FF302821FF302821FF302821FF302821FF302821FF302821FF302821FF302821FF302821FF302821FF302821FF302821FF302821FF30
310
2821FF302821FF302821FF302821FF302821FF302821FF302821FF302821FF302821FF302821FF302821FF302821FF302821FF302821FF302821FF302821FF302821FF302821FF302821FF302821FF302821FF302821FF302821FF302821FF302821FF302821FF302821FF302821FF302821FF302821FF302821FF302821FF
310
302821FF302821FF302821FF302821FF302821FF302821FF302821FF302821FF302821FF302821FF302821FF302821FF302821FF302821FF302821FF302821FF302821FF302821FF
102
{BLKREFS
331
752
102
}
 70
     1
280
     1
281
     1
  0
BLOCK_RECORD
  5
753
330
1
100
AcDbSymbolTableRecord
100
AcDbBlockTableRecord
  2
D35160230 Side View
340
0
310
28000000200000002000000001002000000000000010000001000000010000000000000000000000302821FF302821FF302821FF302821FF302821FF302821FF302821FF302821FF302821FF302821FF302821FF302821FF302821FF302821FF302821FF302821FF302821FF302821FF302821FF302821FF302821FF302821
310
FF302821FF302821FF302821FF302821FF302821FF302821FF302821FF302821FF302821FF302821FF302821FF302821FF302821FF302821FF302821FF302821FF302821FF302821FF302821FF302821FF302821FF302821FF302821FF302821FF302821FF302821FF302821FF302821FF302821FF302821FF302821FF3028
310
21FF302821FF302821FF302821FF302821FF302821FF302821FF302821FF302821FF302821FF302821FF302821FF302821FF302821FF302821FF302821FF302821FF302821FF302821FF302821FF302821FF302821FF302821FF302821FF302821FF302821FF302821FF302821FF302821FF302821FF302821FF302821FF30
310
2821FF302821FF302821FF302821FF302821FF302821FF302821FF302821FF302821FF302821FF302821FF302821FF302821FF302821FF302821FF302821FF302821FF302821FF302821FF302821FF302821FF302821FF302821FF302821FF302821FF302821FF302821FF302821FF302821FF302821FF302821FF302821FF
310
302821FF302821FF302821FF302821FF302821FF302821FF302821FF302821FF302821FF302821FF302821FF302821FF302821FF302821FF302821FF302821FF302821FF302821FF302821FF302821FF302821FF302821FF302821FF302821FF302821FF302821FF302821FF302821FF302821FF302821FF302821FF302821
310
FF302821FF302821FF302821FF302821FF302821FF302821FF302821FF302821FF302821FF302821FF302821FF302821FF302821FF302821FF302821FF302821FF302821FF302821FF302821FF302821FF302821FF302821FF302821FF302821FF302821FF302821FF302821FF302821FF302821FF302821FF302821FF3028
310
21FF302821FF302821FF302821FF302821FF302821FF302821FF302821FF302821FF302821FF302821FF302821FF302821FF302821FF302821FF302821FF302821FF302821FF302821FF302821FF302821FF302821FF302821FF302821FF302821FF302821FF302821FF302821FF302821FF302821FF302821FF302821FF30
310
2821FF302821FF302821FF302821FF302821FF302821FF302821FF302821FF302821FF302821FF302821FF302821FF302821FF302821FF302821FF302821FF302821FF302821FF302821FF302821FF302821FF302821FF302821FF302821FF302821FF302821FF302821FF302821FF302821FF302821FF302821FF302821FF
310
302821FF302821FF302821FF302821FF302821FF302821FF302821FF302821FF302821FF302821FF302821FF302821FF302821FFFFFFFFFFFFFFFFFF302821FF302821FF302821FF302821FF302821FF302821FF302821FF302821FF302821FF302821FF302821FF302821FF302821FF302821FF302821FF302821FF302821
310
FF302821FF302821FF302821FF302821FF302821FF302821FF302821FF302821FF302821FF302821FF302821FF302821FF302821FFFFFFFFFF302821FFFFFFFFFFFFFFFFFF302821FF302821FF302821FF302821FF302821FF302821FF302821FF302821FF302821FF302821FF302821FF302821FF302821FF302821FF3028
310
21FF302821FF302821FF302821FF302821FF302821FF302821FF302821FF302821FF302821FF302821FF302821FF302821FF302821FFFFFFFFFF302821FF302821FFFFFFFFFFFFFFFFFFFFFFFFFF302821FF302821FF302821FF302821FF302821FF302821FF302821FF302821FF302821FF302821FF302821FF302821FF30
310
2821FF302821FF302821FF302821FF302821FF302821FF302821FF302821FF302821FF302821FF302821FF302821FF302821FF302821FFFFFFFFFF302821FF302821FFFFFFFFFF302821FFFFFFFFFFFFFFFFFFFFFFFFFF302821FF302821FF302821FF302821FF302821FF302821FF302821FF302821FF302821FF302821FF
310
302821FF302821FF302821FF302821FF302821FF302821FF302821FF302821FF302821FF302821FF302821FF302821FF302821FF302821FFFFFFFFFF302821FF302821FFFFFFFFFF302821FF302821FF302821FFFFFFFFFFFFFFFFFFFFFFFFFFFFFFFFFFFFFFFFFFFFFFFFFF302821FF302821FF302821FF302821FF302821
310
FF302821FF302821FF302821FF302821FF302821FF302821FF302821FF302821FF302821FF302821FF302821FF302821FF302821FF302821FFFFFFFFFF302821FF302821FFFFFFFFFF302821FF302821FF302821FF302821FF302821FF302821FF302821FF302821FFFFFFFFFFFFFFFFFFFFFFFFFFFFFFFFFFFFFFFFFFFFFF
310
FFFFFFFFFFFFFFFFFFFFFFFFFFFFFFFFFFFF302821FF302821FFFFFFFFFFFFFFFFFFFFFFFFFFFFFFFFFFFFFFFFFF302821FF302821FF302821FFFFFFFFFF302821FF302821FFFFFFFFFF302821FF302821FF302821FF302821FF302821FF302821FF302821FF302821FF302821FF302821FF302821FF302821FF302821FF30
310
2821FF302821FF302821FFFFFFFFFFFFFFFFFFFFFFFFFFFFFFFFFFFFFFFFFF302821FF302821FF302821FFFFFFFFFF302821FF302821FF302821FFFFFFFFFF302821FF302821FFFFFFFFFFFFFFFFFFFFFFFFFF302821FF302821FF302821FF302821FF302821FFFFFFFFFFFFFFFFFFFFFFFFFFFFFFFFFFFFFFFFFFFFFFFFFF
310
FFFFFFFFFFFFFFFF302821FF302821FF302821FF302821FFFFFFFFFF302821FF302821FF302821FF302821FFFFFFFFFFFFFFFFFF302821FF302821FFFFFFFFFF302821FF302821FFFFFFFFFF302821FF302821FFFFFFFFFFFFFFFFFFFFFFFFFFFFFFFFFFFFFFFFFF302821FF302821FF302821FF302821FF302821FF302821
310
FF302821FF302821FFFFFFFFFFFFFFFFFFFFFFFFFFFFFFFFFFFFFFFFFF302821FF302821FF302821FF302821FFFFFFFFFFFFFFFFFF302821FF302821FFFFFFFFFF302821FF302821FFFFFFFFFF302821FF302821FF302821FF302821FF302821FF302821FF302821FF302821FF302821FF302821FF302821FF302821FF3028
310
21FF302821FF302821FFFFFFFFFFFFFFFFFFFFFFFFFFFFFFFFFFFFFFFFFFFFFFFFFF302821FF302821FF302821FFFFFFFFFF302821FF302821FF302821FFFFFFFFFF302821FF302821FFFFFFFFFF302821FF302821FF302821FF302821FF302821FF302821FF302821FF302821FFFFFFFFFFFFFFFFFFFFFFFFFFFFFFFFFFFF
310
FFFFFFFFFFFFFFFFFFFFFFFFFFFFFFFFFFFFFF302821FF302821FF302821FFFFFFFFFFFFFFFFFFFFFFFFFFFFFFFFFFFFFFFFFF302821FF302821FF302821FFFFFFFFFF302821FF302821FFFFFFFFFF302821FF302821FF302821FFFFFFFFFFFFFFFFFFFFFFFFFFFFFFFFFFFFFFFFFFFFFFFFFF302821FF302821FF302821FF
310
302821FF302821FF302821FF302821FF302821FF302821FF302821FF302821FF302821FF302821FF302821FF302821FF302821FF302821FF302821FF302821FFFFFFFFFF302821FF302821FFFFFFFFFFFFFFFFFFFFFFFFFFFFFFFFFFFFFFFFFFFFFFFFFF302821FF302821FF302821FF302821FF302821FF302821FF302821
310
FF302821FF302821FF302821FF302821FF302821FF302821FF302821FF302821FF302821FF302821FF302821FF302821FF302821FF302821FF302821FF302821FFFFFFFFFF302821FF302821FFFFFFFFFF302821FF302821FF302821FF302821FF302821FF302821FF302821FF302821FF302821FF302821FF302821FF3028
310
21FF302821FF302821FF302821FF302821FF302821FF302821FF302821FF302821FF302821FF302821FF302821FF302821FF302821FF302821FF302821FF302821FFFFFFFFFFFFFFFFFFFFFFFFFFFFFFFFFF302821FF302821FF302821FF302821FF302821FF302821FF302821FF302821FF302821FF302821FF302821FF30
310
2821FF302821FF302821FF302821FF302821FF302821FF302821FF302821FF302821FF302821FF302821FF302821FF302821FF302821FF302821FF302821FF302821FFFFFFFFFF302821FF302821FF302821FF302821FF302821FF302821FF302821FF302821FF302821FF302821FF302821FF302821FF302821FF302821FF
310
302821FF302821FF302821FF302821FF302821FF302821FF302821FF302821FF302821FF302821FF302821FF302821FF302821FF302821FF302821FF302821FF302821FF302821FF302821FF302821FF302821FF302821FF302821FF302821FF302821FF302821FF302821FF302821FF302821FF302821FF302821FF302821
310
FF302821FF302821FF302821FF302821FF302821FF302821FF302821FF302821FF302821FF302821FF302821FF302821FF302821FF302821FF302821FF302821FF302821FF302821FF302821FF302821FF302821FF302821FF302821FF302821FF302821FF302821FF302821FF302821FF302821FF302821FF302821FF3028
310
21FF302821FF302821FF302821FF302821FF302821FF302821FF302821FF302821FF302821FF302821FF302821FF302821FF302821FF302821FF302821FF302821FF302821FF302821FF302821FF302821FF302821FF302821FF302821FF302821FF302821FF302821FF302821FF302821FF302821FF302821FF302821FF30
310
2821FF302821FF302821FF302821FF302821FF302821FF302821FF302821FF302821FF302821FF302821FF302821FF302821FF302821FF302821FF302821FF302821FF302821FF302821FF302821FF302821FF302821FF302821FF302821FF302821FF302821FF302821FF302821FF302821FF302821FF302821FF302821FF
310
302821FF302821FF302821FF302821FF302821FF302821FF302821FF302821FF302821FF302821FF302821FF302821FF302821FF302821FF302821FF302821FF302821FF302821FF302821FF302821FF302821FF302821FF302821FF302821FF302821FF302821FF302821FF302821FF302821FF302821FF302821FF302821
310
FF302821FF302821FF302821FF302821FF302821FF302821FF302821FF302821FF302821FF302821FF302821FF302821FF302821FF302821FF302821FF302821FF302821FF302821FF302821FF302821FF302821FF302821FF302821FF302821FF302821FF302821FF302821FF302821FF302821FF302821FF302821FF3028
310
21FF302821FF302821FF302821FF302821FF302821FF302821FF302821FF302821FF302821FF302821FF302821FF302821FF302821FF302821FF302821FF302821FF302821FF302821FF302821FF302821FF302821FF302821FF302821FF302821FF302821FF302821FF302821FF302821FF302821FF302821FF302821FF30
310
2821FF302821FF302821FF302821FF302821FF302821FF302821FF302821FF302821FF302821FF302821FF302821FF302821FF302821FF302821FF302821FF302821FF302821FF302821FF302821FF302821FF302821FF302821FF302821FF302821FF302821FF302821FF302821FF302821FF302821FF302821FF302821FF
310
302821FF302821FF302821FF302821FF302821FF302821FF302821FF302821FF302821FF302821FF302821FF302821FF302821FF302821FF302821FF302821FF302821FF302821FF
102
{BLKREFS
331
86A
102
}
 70
     1
280
     1
281
     1
  0
ENDTAB
  0
ENDSEC
  0
SECTION
  2
BLOCKS
  0
BLOCK
  5
71
330
70
100
AcDbEntity
  8
0
100
AcDbBlockBegin
  2
*Model_Space
 70
     0
 10
0.0
 20
0.0
 30
0.0
  3
*Model_Space
  1

  0
ENDBLK
  5
72
330
70
100
AcDbEntity
  8
0
100
AcDbBlockEnd
  0
BLOCK
  5
6D
330
6C
100
AcDbEntity
 67
     1
  8
0
100
AcDbBlockBegin
  2
*Paper_Space
 70
     0
 10
0.0
 20
0.0
 30
0.0
  3
*Paper_Space
  1

  0
ENDBLK
  5
6E
330
6C
100
AcDbEntity
 67
     1
  8
0
100
AcDbBlockEnd
  0
BLOCK
  5
75
330
74
100
AcDbEntity
 67
     1
  8
0
100
AcDbBlockBegin
  2
*Paper_Space0
 70
     0
 10
0.0
 20
0.0
 30
0.0
  3
*Paper_Space0
  1

  0
ENDBLK
  5
76
330
74
100
AcDbEntity
 67
     1
  8
0
100
AcDbBlockEnd
  0
BLOCK
  5
588
330
587
100
AcDbEntity
  8
0
100
AcDbBlockBegin
  2
D35160230 Top View
 70
     0
 10
0.0
 20
0.0
 30
0.0
  3
D35160230 Top View
  1

  0
LINE
  5
58A
330
587
100
AcDbEntity
  8
D35160230
100
AcDbLine
 10
4.177230353103136
 20
-0.2565410077429142
 30
0.0
 11
4.179076247647873
 21
-0.2554254744296251
 31
0.0
  0
LINE
  5
58B
330
587
100
AcDbEntity
  8
D35160230
100
AcDbLine
 10
4.179076247647873
 20
-0.2554254744296251
 30
0.0
 11
4.18087605623939
 21
-0.2542370173301798
 31
0.0
  0
LINE
  5
58C
330
587
100
AcDbEntity
  8
D35160230
100
AcDbLine
 10
4.18087605623939
 20
-0.2542370173301798
 30
0.0
 11
4.182626899567895
 21
-0.2529775377224119
 31
0.0
  0
LINE
  5
58D
330
587
100
AcDbEntity
  8
D35160230
100
AcDbLine
 10
4.182626899567895
 20
-0.2529775377224119
 30
0.0
 11
4.184325976657532
 21
-0.2516490505050228
 31
0.0
  0
LINE
  5
58E
330
587
100
AcDbEntity
  8
D35160230
100
AcDbLine
 10
4.185970569347445
 20
-0.2502536809741649
 30
0.0
 11
4.187558046640126
 21
-0.2487936614234201
 31
0.0
  0
LINE
  5
58F
330
587
100
AcDbEntity
  8
D35160230
100
AcDbLine
 10
4.187558046640126
 20
-0.2487936614234201
 30
0.0
 11
4.189085868910562
 21
-0.2472713275726157
 31
0.0
  0
LINE
  5
590
330
587
100
AcDbEntity
  8
D35160230
100
AcDbLine
 10
4.189085868910562
 20
-0.2472713275726157
 30
0.0
 11
4.190551591969028
 21
-0.2456891148311726
 31
0.0
  0
LINE
  5
591
330
587
100
AcDbEntity
  8
D35160230
100
AcDbLine
 10
4.190551591969028
 20
-0.2456891148311726
 30
0.0
 11
4.191952870971323
 21
-0.2440495544019505
 31
0.0
  0
LINE
  5
592
330
587
100
AcDbEntity
  8
D35160230
100
AcDbLine
 10
4.191952870971323
 20
-0.2440495544019505
 30
0.0
 11
4.193287464169954
 21
-0.2423552692318829
 31
0.0
  0
LINE
  5
593
330
587
100
AcDbEntity
  8
D35160230
100
AcDbLine
 10
4.193287464169954
 20
-0.2423552692318829
 30
0.0
 11
4.194553236500488
 21
-0.2406089698158169
 31
0.0
  0
LINE
  5
594
330
587
100
AcDbEntity
  8
D35160230
100
AcDbLine
 10
4.194553236500488
 20
-0.2406089698158169
 30
0.0
 11
4.195748162997246
 21
-0.2388134498602881
 31
0.0
  0
LINE
  5
595
330
587
100
AcDbEntity
  8
D35160230
100
AcDbLine
 10
4.195748162997246
 20
-0.2388134498602881
 30
0.0
 11
4.196870332032701
 21
-0.2369715818142062
 31
0.0
  0
LINE
  5
596
330
587
100
AcDbEntity
  8
D35160230
100
AcDbLine
 10
4.196870332032701
 20
-0.2369715818142062
 30
0.0
 11
4.197917948375805
 21
-0.2350863122735305
 31
0.0
  0
LINE
  5
597
330
587
100
AcDbEntity
  8
D35160230
100
AcDbLine
 10
4.197917948375805
 20
-0.2350863122735305
 30
0.0
 11
4.198889336063884
 21
-0.2331606572673621
 31
0.0
  0
LINE
  5
598
330
587
100
AcDbEntity
  8
D35160230
100
AcDbLine
 10
4.198889336063884
 20
-0.2331606572673621
 30
0.0
 11
4.199782941083848
 21
-0.231197697432922
 31
0.0
  0
LINE
  5
599
330
587
100
AcDbEntity
  8
D35160230
100
AcDbLine
 10
4.199782941083848
 20
-0.231197697432922
 30
0.0
 11
4.200597333858303
 21
-0.2292005730872049
 31
0.0
  0
LINE
  5
59A
330
587
100
AcDbEntity
  8
D35160230
100
AcDbLine
 10
4.200597333858303
 20
-0.2292005730872049
 30
0.0
 11
4.201331211532518
 21
-0.22717247920313
 31
0.0
  0
LINE
  5
59B
330
587
100
AcDbEntity
  8
D35160230
100
AcDbLine
 10
4.201331211532518
 20
-0.22717247920313
 30
0.0
 11
4.201983400058785
 21
-0.2251166602982799
 31
0.0
  0
LINE
  5
59C
330
587
100
AcDbEntity
  8
D35160230
100
AcDbLine
 10
4.201983400058785
 20
-0.2251166602982799
 30
0.0
 11
4.202552856074567
 21
-0.223036405244347
 31
0.0
  0
LINE
  5
59D
330
587
100
AcDbEntity
  8
D35160230
100
AcDbLine
 10
4.202552856074567
 20
-0.223036405244347
 30
0.0
 11
4.203013665894427
 21
-0.2210533221671262
 31
0.0
  0
LINE
  5
59E
330
587
100
AcDbEntity
  8
D35160230
100
AcDbLine
 10
2.299446193650104
 20
-0.2293133591079588
 30
0.0
 11
2.300265061845063
 21
-0.2313086526008092
 31
0.0
  0
LINE
  5
59F
330
587
100
AcDbEntity
  8
D35160230
100
AcDbLine
 10
2.300265061845063
 20
-0.2313086526008092
 30
0.0
 11
2.301163065491099
 21
-0.2332696040777833
 31
0.0
  0
LINE
  5
5A0
330
587
100
AcDbEntity
  8
D35160230
100
AcDbLine
 10
2.301163065491099
 20
-0.2332696040777833
 30
0.0
 11
2.302138767973928
 21
-0.2351930764348324
 31
0.0
  0
LINE
  5
5A1
330
587
100
AcDbEntity
  8
D35160230
100
AcDbLine
 10
2.302138767973928
 20
-0.2351930764348324
 30
0.0
 11
2.303190608377728
 21
-0.2370759925264991
 31
0.0
  0
LINE
  5
5A2
330
587
100
AcDbEntity
  8
D35160230
100
AcDbLine
 10
2.303190608377728
 20
-0.2370759925264991
 30
0.0
 11
2.304316903982221
 21
-0.2389153400887132
 31
0.0
  0
LINE
  5
5A3
330
587
100
AcDbEntity
  8
D35160230
100
AcDbLine
 10
2.304316903982221
 20
-0.2389153400887132
 30
0.0
 11
2.30551585295473
 21
-0.2407081765577388
 31
0.0
  0
LINE
  5
5A4
330
587
100
AcDbEntity
  8
D35160230
100
AcDbLine
 10
2.30551585295473
 20
-0.2407081765577388
 30
0.0
 11
2.306785537232638
 21
-0.2424516337776801
 31
0.0
  0
LINE
  5
5A5
330
587
100
AcDbEntity
  8
D35160230
100
AcDbLine
 10
2.306785537232638
 20
-0.2424516337776801
 30
0.0
 11
2.308123925591945
 21
-0.2441429225889067
 31
0.0
  0
LINE
  5
5A6
330
587
100
AcDbEntity
  8
D35160230
100
AcDbLine
 10
2.308123925591945
 20
-0.2441429225889067
 30
0.0
 11
2.309528876896809
 21
-0.2457793372901023
 31
0.0
  0
LINE
  5
5A7
330
587
100
AcDbEntity
  8
D35160230
100
AcDbLine
 10
2.309528876896809
 20
-0.2457793372901023
 30
0.0
 11
2.310998143524841
 21
-0.247358259966834
 31
0.0
  0
LINE
  5
5A8
330
587
100
AcDbEntity
  8
D35160230
100
AcDbLine
 10
2.310998143524841
 20
-0.247358259966834
 30
0.0
 11
2.312529374962859
 21
-0.2488771646796373
 31
0.0
  0
LINE
  5
5A9
330
587
100
AcDbEntity
  8
D35160230
100
AcDbLine
 10
2.312529374962859
 20
-0.2488771646796373
 30
0.0
 11
2.314120121567199
 21
-0.2503336215049856
 31
0.0
  0
LINE
  5
5AA
330
587
100
AcDbEntity
  8
D35160230
100
AcDbLine
 10
2.314120121567199
 20
-0.2503336215049856
 30
0.0
 11
2.315767838482642
 21
-0.2517253004226561
 31
0.0
  0
LINE
  5
5AB
330
587
100
AcDbEntity
  8
D35160230
100
AcDbLine
 10
2.315767838482642
 20
-0.2517253004226561
 30
0.0
 11
2.317469889713627
 21
-0.2530499750432504
 31
0.0
  0
LINE
  5
5AC
330
587
100
AcDbEntity
  8
D35160230
100
AcDbLine
 10
2.317469889713627
 20
-0.2530499750432504
 30
0.0
 11
2.319223552341252
 21
-0.2543055261699614
 31
0.0
  0
LINE
  5
5AD
330
587
100
AcDbEntity
  8
D35160230
100
AcDbLine
 10
2.319223552341252
 20
-0.2543055261699614
 30
0.0
 11
2.321026020879422
 21
-0.2554899451888239
 31
0.0
  0
LINE
  5
5AE
330
587
100
AcDbEntity
  8
D35160230
100
AcDbLine
 10
2.321026020879422
 20
-0.2554899451888239
 30
0.0
 11
2.322769646896858
 21
-0.2565410077428929
 31
0.0
  0
LINE
  5
5AF
330
587
100
AcDbEntity
  8
D35160230
100
AcDbLine
 10
4.139641698755979
 20
-0.2783601701608234
 30
0.0
 11
4.141243510232835
 21
-0.2773357247410431
 31
0.0
  0
LINE
  5
5B0
330
587
100
AcDbEntity
  8
D35160230
100
AcDbLine
 10
4.141243510232835
 20
-0.2773357247410431
 30
0.0
 11
4.142281350743082
 21
-0.2767188236634013
 31
0.0
  0
LINE
  5
5B1
330
587
100
AcDbEntity
  8
D35160230
100
AcDbLine
 10
2.357718649256923
 20
-0.2767188236633835
 30
0.0
 11
2.359345960358836
 21
-0.2777022599872296
 31
0.0
  0
LINE
  5
5B2
330
587
100
AcDbEntity
  8
D35160230
100
AcDbLine
 10
2.359345960358836
 20
-0.2777022599872296
 30
0.0
 11
2.360932642821651
 21
-0.2787499847543913
 31
0.0
  0
LINE
  5
5B3
330
587
100
AcDbEntity
  8
D35160230
100
AcDbLine
 10
-4.203013665894444
 20
-0.2210533221670339
 30
0.0
 11
-4.202523143451844
 21
-0.223153590953796
 31
0.0
  0
LINE
  5
5B4
330
587
100
AcDbEntity
  8
D35160230
100
AcDbLine
 10
-4.202523143451844
 20
-0.223153590953796
 30
0.0
 11
-4.201949025024474
 21
-0.2252325640836581
 31
0.0
  0
LINE
  5
5B5
330
587
100
AcDbEntity
  8
D35160230
100
AcDbLine
 10
-4.201949025024474
 20
-0.2252325640836581
 30
0.0
 11
-4.201292229079366
 21
-0.2272869156431092
 31
0.0
  0
LINE
  5
5B6
330
587
100
AcDbEntity
  8
D35160230
100
AcDbLine
 10
-4.201292229079366
 20
-0.2272869156431092
 30
0.0
 11
-4.200553806349907
 21
-0.2293133591078913
 31
0.0
  0
LINE
  5
5B7
330
587
100
AcDbEntity
  8
D35160230
100
AcDbLine
 10
-4.200553806349907
 20
-0.2293133591078913
 30
0.0
 11
-4.199734938154949
 21
-0.2313086526007417
 31
0.0
  0
LINE
  5
5B8
330
587
100
AcDbEntity
  8
D35160230
100
AcDbLine
 10
-4.199734938154949
 20
-0.2313086526007417
 30
0.0
 11
-4.198836934508924
 21
-0.2332696040777158
 31
0.0
  0
LINE
  5
5B9
330
587
100
AcDbEntity
  8
D35160230
100
AcDbLine
 10
-4.198836934508924
 20
-0.2332696040777158
 30
0.0
 11
-4.197861232026084
 21
-0.2351930764347614
 31
0.0
  0
LINE
  5
5BA
330
587
100
AcDbEntity
  8
D35160230
100
AcDbLine
 10
-4.197861232026084
 20
-0.2351930764347614
 30
0.0
 11
-4.196809391622283
 21
-0.2370759925264316
 31
0.0
  0
LINE
  5
5BB
330
587
100
AcDbEntity
  8
D35160230
100
AcDbLine
 10
-4.196809391622283
 20
-0.2370759925264316
 30
0.0
 11
-4.19568309601778
 21
-0.2389153400886421
 31
0.0
  0
LINE
  5
5BC
330
587
100
AcDbEntity
  8
D35160230
100
AcDbLine
 10
-4.19568309601778
 20
-0.2389153400886421
 30
0.0
 11
-4.194484147045282
 21
-0.2407081765576677
 31
0.0
  0
LINE
  5
5BD
330
587
100
AcDbEntity
  8
D35160230
100
AcDbLine
 10
-4.194484147045282
 20
-0.2407081765576677
 30
0.0
 11
-4.193214462767374
 21
-0.2424516337776126
 31
0.0
  0
LINE
  5
5BE
330
587
100
AcDbEntity
  8
D35160230
100
AcDbLine
 10
-4.193214462767374
 20
-0.2424516337776126
 30
0.0
 11
-4.191876074408056
 21
-0.2441429225888356
 31
0.0
  0
LINE
  5
5BF
330
587
100
AcDbEntity
  8
D35160230
100
AcDbLine
 10
-4.191876074408056
 20
-0.2441429225888356
 30
0.0
 11
-4.190471123103193
 21
-0.2457793372900348
 31
0.0
  0
LINE
  5
5C0
330
587
100
AcDbEntity
  8
D35160230
100
AcDbLine
 10
-4.190471123103193
 20
-0.2457793372900348
 30
0.0
 11
-4.189001856475171
 21
-0.2473582599667665
 31
0.0
  0
LINE
  5
5C1
330
587
100
AcDbEntity
  8
D35160230
100
AcDbLine
 10
-4.189001856475171
 20
-0.2473582599667665
 30
0.0
 11
-4.187470625037152
 21
-0.2488771646795698
 31
0.0
  0
LINE
  5
5C2
330
587
100
AcDbEntity
  8
D35160230
100
AcDbLine
 10
-4.187470625037152
 20
-0.2488771646795698
 30
0.0
 11
-4.185879878432813
 21
-0.2503336215049181
 31
0.0
  0
LINE
  5
5C3
330
587
100
AcDbEntity
  8
D35160230
100
AcDbLine
 10
-4.18423216151737
 20
-0.2517253004225886
 30
0.0
 11
-4.182530110286385
 21
-0.2530499750431829
 31
0.0
  0
LINE
  5
5C4
330
587
100
AcDbEntity
  8
D35160230
100
AcDbLine
 10
-4.182530110286385
 20
-0.2530499750431829
 30
0.0
 11
-4.18077644765876
 21
-0.2543055261698939
 31
0.0
  0
LINE
  5
5C5
330
587
100
AcDbEntity
  8
D35160230
100
AcDbLine
 10
-4.18077644765876
 20
-0.2543055261698939
 30
0.0
 11
-4.17897397912059
 21
-0.2554899451887564
 31
0.0
  0
LINE
  5
5C6
330
587
100
AcDbEntity
  8
D35160230
100
AcDbLine
 10
-4.17897397912059
 20
-0.2554899451887564
 30
0.0
 11
-4.177230353103154
 21
-0.2565410077428254
 31
0.0
  0
LINE
  5
5C7
330
587
100
AcDbEntity
  8
D35160230
100
AcDbLine
 10
-2.322769646896865
 20
-0.2565410077428432
 30
0.0
 11
-2.320923752352129
 21
-0.2554254744295541
 31
0.0
  0
LINE
  5
5C8
330
587
100
AcDbEntity
  8
D35160230
100
AcDbLine
 10
-2.320923752352129
 20
-0.2554254744295541
 30
0.0
 11
-2.319123943760611
 21
-0.2542370173301087
 31
0.0
  0
LINE
  5
5C9
330
587
100
AcDbEntity
  8
D35160230
100
AcDbLine
 10
-2.319123943760611
 20
-0.2542370173301087
 30
0.0
 11
-2.317373100432106
 21
-0.2529775377223444
 31
0.0
  0
LINE
  5
5CA
330
587
100
AcDbEntity
  8
D35160230
100
AcDbLine
 10
-2.317373100432106
 20
-0.2529775377223444
 30
0.0
 11
-2.31567402334247
 21
-0.2516490505049518
 31
0.0
  0
LINE
  5
5CB
330
587
100
AcDbEntity
  8
D35160230
100
AcDbLine
 10
-2.31567402334247
 20
-0.2516490505049518
 30
0.0
 11
-2.314029430652556
 21
-0.2502536809740938
 31
0.0
  0
LINE
  5
5CC
330
587
100
AcDbEntity
  8
D35160230
100
AcDbLine
 10
-2.314029430652556
 20
-0.2502536809740938
 30
0.0
 11
-2.312441953359875
 21
-0.248793661423349
 31
0.0
  0
LINE
  5
5CD
330
587
100
AcDbEntity
  8
D35160230
100
AcDbLine
 10
-2.312441953359875
 20
-0.248793661423349
 30
0.0
 11
-2.310914131089439
 21
-0.2472713275725482
 31
0.0
  0
LINE
  5
5CE
330
587
100
AcDbEntity
  8
D35160230
100
AcDbLine
 10
-2.310914131089439
 20
-0.2472713275725482
 30
0.0
 11
-2.309448408030973
 21
-0.2456891148311051
 31
0.0
  0
LINE
  5
5CF
330
587
100
AcDbEntity
  8
D35160230
100
AcDbLine
 10
-2.309448408030973
 20
-0.2456891148311051
 30
0.0
 11
-2.308047129028679
 21
-0.2440495544018795
 31
0.0
  0
LINE
  5
5D0
330
587
100
AcDbEntity
  8
D35160230
100
AcDbLine
 10
-2.308047129028679
 20
-0.2440495544018795
 30
0.0
 11
-2.306712535830058
 21
-0.2423552692318118
 31
0.0
  0
LINE
  5
5D1
330
587
100
AcDbEntity
  8
D35160230
100
AcDbLine
 10
-2.306712535830058
 20
-0.2423552692318118
 30
0.0
 11
-2.305446763499513
 21
-0.2406089698157459
 31
0.0
  0
LINE
  5
5D2
330
587
100
AcDbEntity
  8
D35160230
100
AcDbLine
 10
-2.305446763499513
 20
-0.2406089698157459
 30
0.0
 11
-2.304251837002755
 21
-0.238813449860217
 31
0.0
  0
LINE
  5
5D3
330
587
100
AcDbEntity
  8
D35160230
100
AcDbLine
 10
-2.304251837002755
 20
-0.238813449860217
 30
0.0
 11
-2.30312966796729
 21
-0.2369715818141351
 31
0.0
  0
LINE
  5
5D4
330
587
100
AcDbEntity
  8
D35160230
100
AcDbLine
 10
-2.30312966796729
 20
-0.2369715818141351
 30
0.0
 11
-2.302082051624196
 21
-0.235086312273463
 31
0.0
  0
LINE
  5
5D5
330
587
100
AcDbEntity
  8
D35160230
100
AcDbLine
 10
-2.302082051624196
 20
-0.235086312273463
 30
0.0
 11
-2.301110663936117
 21
-0.2331606572672911
 31
0.0
  0
LINE
  5
5D6
330
587
100
AcDbEntity
  8
D35160230
100
AcDbLine
 10
-2.301110663936117
 20
-0.2331606572672911
 30
0.0
 11
-2.300217058916153
 21
-0.2311976974328509
 31
0.0
  0
LINE
  5
5D7
330
587
100
AcDbEntity
  8
D35160230
100
AcDbLine
 10
-2.300217058916153
 20
-0.2311976974328509
 30
0.0
 11
-2.299402666141698
 21
-0.2292005730871338
 31
0.0
  0
LINE
  5
5D8
330
587
100
AcDbEntity
  8
D35160230
100
AcDbLine
 10
-4.142281350743089
 20
-0.276718823663316
 30
0.0
 11
-4.140654039641165
 21
-0.2777022599871621
 31
0.0
  0
LINE
  5
5D9
330
587
100
AcDbEntity
  8
D35160230
100
AcDbLine
 10
-4.140654039641165
 20
-0.2777022599871621
 30
0.0
 11
-4.139067357178361
 21
-0.2787499847543238
 31
0.0
  0
LINE
  5
5DA
330
587
100
AcDbEntity
  8
D35160230
100
AcDbLine
 10
-2.360358301244033
 20
-0.2783601701607559
 30
0.0
 11
-2.358756489767166
 21
-0.2773357247409756
 31
0.0
  0
LINE
  5
5DB
330
587
100
AcDbEntity
  8
D35160230
100
AcDbLine
 10
-2.358756489767166
 20
-0.2773357247409756
 30
0.0
 11
-2.35771864925693
 21
-0.2767188236633338
 31
0.0
  0
LINE
  5
5DC
330
587
100
AcDbEntity
  8
D35160230
100
AcDbLine
 10
-3.775352276825781
 20
-3.624999999999975
 30
0.0
 11
-3.774896117625811
 21
-3.647804918855797
 31
0.0
  0
LINE
  5
5DD
330
587
100
AcDbEntity
  8
D35160230
100
AcDbLine
 10
-3.774896117625811
 20
-3.647804918855797
 30
0.0
 11
-3.773528369783328
 21
-3.670573354706242
 31
0.0
  0
LINE
  5
5DE
330
587
100
AcDbEntity
  8
D35160230
100
AcDbLine
 10
-3.773528369783328
 20
-3.670573354706242
 30
0.0
 11
-3.771251221403101
 21
-3.693268882910949
 31
0.0
  0
LINE
  5
5DF
330
587
100
AcDbEntity
  8
D35160230
100
AcDbLine
 10
-3.771251221403101
 20
-3.693268882910949
 30
0.0
 11
-3.768068315436789
 21
-3.715855195466254
 31
0.0
  0
LINE
  5
5E0
330
587
100
AcDbEntity
  8
D35160230
100
AcDbLine
 10
-3.768068315436789
 20
-3.715855195466254
 30
0.0
 11
-3.763984743854926
 21
-3.738296159090218
 31
0.0
  0
LINE
  5
5E1
330
587
100
AcDbEntity
  8
D35160230
100
AcDbLine
 10
-3.763984743854926
 20
-3.738296159090218
 30
0.0
 11
-3.759007039500943
 21
-3.760555873028199
 31
0.0
  0
LINE
  5
5E2
330
587
100
AcDbEntity
  8
D35160230
100
AcDbLine
 10
-3.759007039500943
 20
-3.760555873028199
 30
0.0
 11
-3.753143165639947
 21
-3.782598726486376
 31
0.0
  0
LINE
  5
5E3
330
587
100
AcDbEntity
  8
D35160230
100
AcDbLine
 10
-3.753143165639947
 20
-3.782598726486376
 30
0.0
 11
-3.746402503219233
 21
-3.804389455601445
 31
0.0
  0
LINE
  5
5E4
330
587
100
AcDbEntity
  8
D35160230
100
AcDbLine
 10
-3.746402503219233
 20
-3.804389455601445
 30
0.0
 11
-3.738795835860742
 21
-3.825893199855261
 31
0.0
  0
LINE
  5
5E5
330
587
100
AcDbEntity
  8
D35160230
100
AcDbLine
 10
-3.738795835860742
 20
-3.825893199855261
 30
0.0
 11
-3.730335332609563
 21
-3.847075557844242
 31
0.0
  0
LINE
  5
5E6
330
587
100
AcDbEntity
  8
D35160230
100
AcDbLine
 10
-3.730335332609563
 20
-3.847075557844242
 30
0.0
 11
-3.721034528466102
 21
-3.867902642314259
 31
0.0
  0
LINE
  5
5E7
330
587
100
AcDbEntity
  8
D35160230
100
AcDbLine
 10
-3.721034528466102
 20
-3.867902642314259
 30
0.0
 11
-3.710908302732917
 21
-3.888341134373042
 31
0.0
  0
LINE
  5
5E8
330
587
100
AcDbEntity
  8
D35160230
100
AcDbLine
 10
-3.710908302732917
 20
-3.888341134373042
 30
0.0
 11
-3.69997285521104
 21
-3.908358336793277
 31
0.0
  0
LINE
  5
5E9
330
587
100
AcDbEntity
  8
D35160230
100
AcDbLine
 10
-3.69997285521104
 20
-3.908358336793277
 30
0.0
 11
-3.688245680283724
 21
-3.927922226321193
 31
0.0
  0
LINE
  5
5EA
330
587
100
AcDbEntity
  8
D35160230
100
AcDbLine
 10
-3.6773180411626
 20
-3.305309145407687
 30
0.0
 11
-3.689724523315447
 21
-3.324449459036976
 31
0.0
  0
LINE
  5
5EB
330
587
100
AcDbEntity
  8
D35160230
100
AcDbLine
 10
-3.689724523315447
 20
-3.324449459036976
 30
0.0
 11
-3.701355673207682
 21
-3.344070589417778
 31
0.0
  0
LINE
  5
5EC
330
587
100
AcDbEntity
  8
D35160230
100
AcDbLine
 10
-3.701355673207682
 20
-3.344070589417778
 30
0.0
 11
-3.712192883480685
 21
-3.364141146927099
 31
0.0
  0
LINE
  5
5ED
330
587
100
AcDbEntity
  8
D35160230
100
AcDbLine
 10
-3.712192883480685
 20
-3.364141146927099
 30
0.0
 11
-3.72221881690983
 21
-3.384629022954417
 31
0.0
  0
LINE
  5
5EE
330
587
100
AcDbEntity
  8
D35160230
100
AcDbLine
 10
-3.72221881690983
 20
-3.384629022954417
 30
0.0
 11
-3.731417434140375
 21
-3.405501441268601
 31
0.0
  0
LINE
  5
5EF
330
587
100
AcDbEntity
  8
D35160230
100
AcDbLine
 10
-3.731417434140375
 20
-3.405501441268601
 30
0.0
 11
-3.739774019347017
 21
-3.426725010452894
 31
0.0
  0
LINE
  5
5F0
330
587
100
AcDbEntity
  8
D35160230
100
AcDbLine
 10
-3.739774019347017
 20
-3.426725010452894
 30
0.0
 11
-3.747275203776077
 21
-3.448265777324053
 31
0.0
  0
LINE
  5
5F1
330
587
100
AcDbEntity
  8
D35160230
100
AcDbLine
 10
-3.747275203776077
 20
-3.448265777324053
 30
0.0
 11
-3.753908987132632
 21
-3.470089281250206
 31
0.0
  0
LINE
  5
5F2
330
587
100
AcDbEntity
  8
D35160230
100
AcDbLine
 10
-3.753908987132632
 20
-3.470089281250206
 30
0.0
 11
-3.759664756778427
 21
-3.492160609280496
 31
0.0
  0
LINE
  5
5F3
330
587
100
AcDbEntity
  8
D35160230
100
AcDbLine
 10
-3.759664756778427
 20
-3.492160609280496
 30
0.0
 11
-3.764533304709885
 21
-3.514444451998382
 31
0.0
  0
LINE
  5
5F4
330
587
100
AcDbEntity
  8
D35160230
100
AcDbLine
 10
-3.764533304709885
 20
-3.514444451998382
 30
0.0
 11
-3.768506842288878
 21
-3.536905160009144
 31
0.0
  0
LINE
  5
5F5
330
587
100
AcDbEntity
  8
D35160230
100
AcDbLine
 10
-3.768506842288878
 20
-3.536905160009144
 30
0.0
 11
-3.771579012702911
 21
-3.559506800971327
 31
0.0
  0
LINE
  5
5F6
330
587
100
AcDbEntity
  8
D35160230
100
AcDbLine
 10
-3.771579012702911
 20
-3.559506800971327
 30
0.0
 11
-3.773744901134694
 21
-3.58221321708082
 31
0.0
  0
LINE
  5
5F7
330
587
100
AcDbEntity
  8
D35160230
100
AcDbLine
 10
-3.773744901134694
 20
-3.58221321708082
 30
0.0
 11
-3.775001042624761
 21
-3.604988082915625
 31
0.0
  0
LINE
  5
5F8
330
587
100
AcDbEntity
  8
D35160230
100
AcDbLine
 10
-3.775001042624761
 20
-3.604988082915625
 30
0.0
 11
-3.775352276825781
 21
-3.624999999999982
 31
0.0
  0
LINE
  5
5F9
330
587
100
AcDbEntity
  8
D35160230
100
AcDbLine
 10
-3.579166450294216
 20
-3.247331463408226
 30
0.0
 11
-3.503757953233062
 21
-3.251283455278272
 31
0.0
  0
LINE
  5
5FA
330
587
100
AcDbEntity
  8
D35160230
100
AcDbLine
 10
-3.661785711120732
 20
-3.966405011254504
 30
0.0
 11
-3.659293865504185
 21
-3.96939303431035
 31
0.0
  0
LINE
  5
5FB
330
587
100
AcDbEntity
  8
D35160230
100
AcDbLine
 10
-3.659293865504185
 20
-3.96939303431035
 30
0.0
 11
-3.656684524045815
 21
-3.972279020019357
 31
0.0
  0
LINE
  5
5FC
330
587
100
AcDbEntity
  8
D35160230
100
AcDbLine
 10
-3.656684524045815
 20
-3.972279020019357
 30
0.0
 11
-3.653961861135318
 21
-3.975058351420031
 31
0.0
  0
LINE
  5
5FD
330
587
100
AcDbEntity
  8
D35160230
100
AcDbLine
 10
-3.653961861135318
 20
-3.975058351420031
 30
0.0
 11
-3.651130232452555
 21
-3.977726582175026
 31
0.0
  0
LINE
  5
5FE
330
587
100
AcDbEntity
  8
D35160230
100
AcDbLine
 10
-3.651130232452555
 20
-3.977726582175026
 30
0.0
 11
-3.64819416799936
 21
-3.980279443684324
 31
0.0
  0
LINE
  5
5FF
330
587
100
AcDbEntity
  8
D35160230
100
AcDbLine
 10
-3.64819416799936
 20
-3.980279443684324
 30
0.0
 11
-3.64515836485253
 21
-3.982712851914094
 31
0.0
  0
LINE
  5
600
330
587
100
AcDbEntity
  8
D35160230
100
AcDbLine
 10
-3.64515836485253
 20
-3.982712851914094
 30
0.0
 11
-3.642027679649515
 21
-3.985022913930269
 31
0.0
  0
LINE
  5
601
330
587
100
AcDbEntity
  8
D35160230
100
AcDbLine
 10
-3.642027679649515
 20
-3.985022913930269
 30
0.0
 11
-3.638807120818782
 21
-3.987205934126404
 31
0.0
  0
LINE
  5
602
330
587
100
AcDbEntity
  8
D35160230
100
AcDbLine
 10
-3.638807120818782
 20
-3.987205934126404
 30
0.0
 11
-3.635501840567439
 21
-3.989258420135875
 31
0.0
  0
LINE
  5
603
330
587
100
AcDbEntity
  8
D35160230
100
AcDbLine
 10
-3.635501840567439
 20
-3.989258420135875
 30
0.0
 11
-3.632117126638807
 21
-3.991177088418911
 31
0.0
  0
LINE
  5
604
330
587
100
AcDbEntity
  8
D35160230
100
AcDbLine
 10
-3.632117126638807
 20
-3.991177088418911
 30
0.0
 11
-3.628658393853147
 21
-3.992958869515547
 31
0.0
  0
LINE
  5
605
330
587
100
AcDbEntity
  8
D35160230
100
AcDbLine
 10
-3.628658393853147
 20
-3.992958869515547
 30
0.0
 11
-3.625131175445076
 21
-3.994600912956126
 31
0.0
  0
LINE
  5
606
330
587
100
AcDbEntity
  8
D35160230
100
AcDbLine
 10
-3.625131175445076
 20
-3.994600912956126
 30
0.0
 11
-3.62154111421162
 21
-3.99610059182142
 31
0.0
  0
LINE
  5
607
330
587
100
AcDbEntity
  8
D35160230
100
AcDbLine
 10
-3.62154111421162
 20
-3.99610059182142
 30
0.0
 11
-3.617893953484923
 21
-3.997455506945168
 31
0.0
  0
LINE
  5
608
330
587
100
AcDbEntity
  8
D35160230
100
AcDbLine
 10
-3.617893953484923
 20
-3.997455506945168
 30
0.0
 11
-3.614195527944104
 21
-3.998663490752203
 31
0.0
  0
LINE
  5
609
330
587
100
AcDbEntity
  8
D35160230
100
AcDbLine
 10
-3.614195527944104
 20
-3.998663490752203
 30
0.0
 11
-3.6104517542811
 21
-3.99972261072612
 31
0.0
  0
LINE
  5
60A
330
587
100
AcDbEntity
  8
D35160230
100
AcDbLine
 10
-3.6104517542811
 20
-3.99972261072612
 30
0.0
 11
-3.606668621735128
 21
-4.000631172500892
 31
0.0
  0
LINE
  5
60B
330
587
100
AcDbEntity
  8
D35160230
100
AcDbLine
 10
-3.606668621735128
 20
-4.000631172500892
 30
0.0
 11
-3.602852182511238
 21
-4.0013877225715
 31
0.0
  0
LINE
  5
60C
330
587
100
AcDbEntity
  8
D35160230
100
AcDbLine
 10
-3.602852182511238
 20
-4.0013877225715
 30
0.0
 11
-3.599008542098058
 21
-4.001991050619221
 31
0.0
  0
LINE
  5
60D
330
587
100
AcDbEntity
  8
D35160230
100
AcDbLine
 10
-3.599008542098058
 20
-4.001991050619221
 30
0.0
 11
-3.595143849500328
 21
-4.002440191447877
 31
0.0
  0
LINE
  5
60E
330
587
100
AcDbEntity
  8
D35160230
100
AcDbLine
 10
-3.595143849500328
 20
-4.002440191447877
 30
0.0
 11
-3.591264287401756
 21
-4.002734426527961
 31
0.0
  0
LINE
  5
60F
330
587
100
AcDbEntity
  8
D35160230
100
AcDbLine
 10
-3.591264287401756
 20
-4.002734426527961
 30
0.0
 11
-3.587376062274127
 21
-4.002873285146105
 31
0.0
  0
LINE
  5
610
330
587
100
AcDbEntity
  8
D35160230
100
AcDbLine
 10
-3.583485394448189
 20
-4.002856545158142
 30
0.0
 11
-3.580758240223939
 21
-4.002751958767035
 31
0.0
  0
LINE
  5
611
330
587
100
AcDbEntity
  8
D35160230
100
AcDbLine
 10
3.503758031916013
 20
-3.251283451154598
 30
0.0
 11
3.579166450294134
 21
-3.247331463408151
 31
0.0
  0
LINE
  5
612
330
587
100
AcDbEntity
  8
D35160230
100
AcDbLine
 10
3.588537497428133
 20
-4.002848114330088
 30
0.0
 11
3.592423786967358
 21
-4.0026628308274
 31
0.0
  0
LINE
  5
613
330
587
100
AcDbEntity
  8
D35160230
100
AcDbLine
 10
3.592423786967358
 20
-4.0026628308274
 30
0.0
 11
3.596299558525546
 21
-4.002322285400619
 31
0.0
  0
LINE
  5
614
330
587
100
AcDbEntity
  8
D35160230
100
AcDbLine
 10
3.596299558525546
 20
-4.002322285400619
 30
0.0
 11
3.600158611695003
 21
-4.001827022849791
 31
0.0
  0
LINE
  5
615
330
587
100
AcDbEntity
  8
D35160230
100
AcDbLine
 10
3.600158611695003
 20
-4.001827022849791
 30
0.0
 11
3.603994772813879
 21
-4.001177835489336
 31
0.0
  0
LINE
  5
616
330
587
100
AcDbEntity
  8
D35160230
100
AcDbLine
 10
3.603994772813879
 20
-4.001177835489336
 30
0.0
 11
3.607801904842722
 21
-4.000375761880551
 31
0.0
  0
LINE
  5
617
330
587
100
AcDbEntity
  8
D35160230
100
AcDbLine
 10
3.607801904842722
 20
-4.000375761880551
 30
0.0
 11
3.611573917182435
 21
-3.99942208517011
 31
0.0
  0
LINE
  5
618
330
587
100
AcDbEntity
  8
D35160230
100
AcDbLine
 10
3.611573917182435
 20
-3.99942208517011
 30
0.0
 11
3.615304775417917
 21
-3.99831833103731
 31
0.0
  0
LINE
  5
619
330
587
100
AcDbEntity
  8
D35160230
100
AcDbLine
 10
3.615304775417917
 20
-3.99831833103731
 30
0.0
 11
3.618988510971887
 21
-3.997066265253305
 31
0.0
  0
LINE
  5
61A
330
587
100
AcDbEntity
  8
D35160230
100
AcDbLine
 10
3.618988510971887
 20
-3.997066265253305
 30
0.0
 11
3.622619230653248
 21
-3.995667890856257
 31
0.0
  0
LINE
  5
61B
330
587
100
AcDbEntity
  8
D35160230
100
AcDbLine
 10
3.622619230653248
 20
-3.995667890856257
 30
0.0
 11
3.626191126085042
 21
-3.994125444946899
 31
0.0
  0
LINE
  5
61C
330
587
100
AcDbEntity
  8
D35160230
100
AcDbLine
 10
3.626191126085042
 20
-3.994125444946899
 30
0.0
 11
3.629698482996537
 21
-3.992441395109651
 31
0.0
  0
LINE
  5
61D
330
587
100
AcDbEntity
  8
D35160230
100
AcDbLine
 10
3.629698482996537
 20
-3.992441395109651
 30
0.0
 11
3.633135690364876
 21
-3.990618435465002
 31
0.0
  0
LINE
  5
61E
330
587
100
AcDbEntity
  8
D35160230
100
AcDbLine
 10
3.633135690364876
 20
-3.990618435465002
 30
0.0
 11
3.636497249391491
 21
-3.988659482359508
 31
0.0
  0
LINE
  5
61F
330
587
100
AcDbEntity
  8
D35160230
100
AcDbLine
 10
3.636497249391491
 20
-3.988659482359508
 30
0.0
 11
3.639777782299055
 21
-3.986567669700253
 31
0.0
  0
LINE
  5
620
330
587
100
AcDbEntity
  8
D35160230
100
AcDbLine
 10
3.639777782299055
 20
-3.986567669700253
 30
0.0
 11
3.6429720409347
 21
-3.984346343941258
 31
0.0
  0
LINE
  5
621
330
587
100
AcDbEntity
  8
D35160230
100
AcDbLine
 10
3.6429720409347
 20
-3.984346343941258
 30
0.0
 11
3.646074915166024
 21
-3.981999058729883
 31
0.0
  0
LINE
  5
622
330
587
100
AcDbEntity
  8
D35160230
100
AcDbLine
 10
3.646074915166024
 20
-3.981999058729883
 30
0.0
 11
3.64908144105617
 21
-3.979529569221739
 31
0.0
  0
LINE
  5
623
330
587
100
AcDbEntity
  8
D35160230
100
AcDbLine
 10
3.64908144105617
 20
-3.979529569221739
 30
0.0
 11
3.651986808805072
 21
-3.97694182607324
 31
0.0
  0
LINE
  5
624
330
587
100
AcDbEntity
  8
D35160230
100
AcDbLine
 10
3.651986808805072
 20
-3.97694182607324
 30
0.0
 11
3.654786370444116
 21
-3.974239969121402
 31
0.0
  0
LINE
  5
625
330
587
100
AcDbEntity
  8
D35160230
100
AcDbLine
 10
3.654786370444116
 20
-3.974239969121402
 30
0.0
 11
3.657475647271883
 21
-3.971428320760985
 31
0.0
  0
LINE
  5
626
330
587
100
AcDbEntity
  8
D35160230
100
AcDbLine
 10
3.657475647271883
 20
-3.971428320760985
 30
0.0
 11
3.660050337019121
 21
-3.968511379029575
 31
0.0
  0
LINE
  5
627
330
587
100
AcDbEntity
  8
D35160230
100
AcDbLine
 10
3.677516928733942
 20
-3.944384017372254
 30
0.0
 11
3.689724523315354
 21
-3.925550540962998
 31
0.0
  0
LINE
  5
628
330
587
100
AcDbEntity
  8
D35160230
100
AcDbLine
 10
3.689724523315354
 20
-3.925550540962998
 30
0.0
 11
3.7013556732076
 21
-3.905929410582196
 31
0.0
  0
LINE
  5
629
330
587
100
AcDbEntity
  8
D35160230
100
AcDbLine
 10
3.7013556732076
 20
-3.905929410582196
 30
0.0
 11
3.712192883480603
 21
-3.885858853072871
 31
0.0
  0
LINE
  5
62A
330
587
100
AcDbEntity
  8
D35160230
100
AcDbLine
 10
3.712192883480603
 20
-3.885858853072871
 30
0.0
 11
3.722218816909747
 21
-3.865370977045554
 31
0.0
  0
LINE
  5
62B
330
587
100
AcDbEntity
  8
D35160230
100
AcDbLine
 10
3.722218816909747
 20
-3.865370977045554
 30
0.0
 11
3.731417434140293
 21
-3.84449855873137
 31
0.0
  0
LINE
  5
62C
330
587
100
AcDbEntity
  8
D35160230
100
AcDbLine
 10
3.731417434140293
 20
-3.84449855873137
 30
0.0
 11
3.739774019346934
 21
-3.82327498954708
 31
0.0
  0
LINE
  5
62D
330
587
100
AcDbEntity
  8
D35160230
100
AcDbLine
 10
3.739774019346934
 20
-3.82327498954708
 30
0.0
 11
3.747275203775994
 21
-3.801734222675921
 31
0.0
  0
LINE
  5
62E
330
587
100
AcDbEntity
  8
D35160230
100
AcDbLine
 10
3.747275203775994
 20
-3.801734222675921
 30
0.0
 11
3.753908987132539
 21
-3.779910718749771
 31
0.0
  0
LINE
  5
62F
330
587
100
AcDbEntity
  8
D35160230
100
AcDbLine
 10
3.753908987132539
 20
-3.779910718749771
 30
0.0
 11
3.759664756778344
 21
-3.757839390719478
 31
0.0
  0
LINE
  5
630
330
587
100
AcDbEntity
  8
D35160230
100
AcDbLine
 10
3.759664756778344
 20
-3.757839390719478
 30
0.0
 11
3.764533304709803
 21
-3.735555548001592
 31
0.0
  0
LINE
  5
631
330
587
100
AcDbEntity
  8
D35160230
100
AcDbLine
 10
3.764533304709803
 20
-3.735555548001592
 30
0.0
 11
3.768506842288796
 21
-3.71309483999083
 31
0.0
  0
LINE
  5
632
330
587
100
AcDbEntity
  8
D35160230
100
AcDbLine
 10
3.768506842288796
 20
-3.71309483999083
 30
0.0
 11
3.771579012702829
 21
-3.690493199028647
 31
0.0
  0
LINE
  5
633
330
587
100
AcDbEntity
  8
D35160230
100
AcDbLine
 10
3.771579012702829
 20
-3.690493199028647
 30
0.0
 11
3.773744901134612
 21
-3.667786782919154
 31
0.0
  0
LINE
  5
634
330
587
100
AcDbEntity
  8
D35160230
100
AcDbLine
 10
3.773744901134612
 20
-3.667786782919154
 30
0.0
 11
3.775001042624679
 21
-3.64501191708435
 31
0.0
  0
LINE
  5
635
330
587
100
AcDbEntity
  8
D35160230
100
AcDbLine
 10
3.775001042624679
 20
-3.64501191708435
 30
0.0
 11
3.775352276825699
 21
-3.624999999999992
 31
0.0
  0
LINE
  5
636
330
587
100
AcDbEntity
  8
D35160230
100
AcDbLine
 10
3.775352276825699
 20
-3.624999999999968
 30
0.0
 11
3.774896117625739
 21
-3.602195081144145
 31
0.0
  0
LINE
  5
637
330
587
100
AcDbEntity
  8
D35160230
100
AcDbLine
 10
3.774896117625739
 20
-3.602195081144145
 30
0.0
 11
3.773528369783245
 21
-3.579426645293704
 31
0.0
  0
LINE
  5
638
330
587
100
AcDbEntity
  8
D35160230
100
AcDbLine
 10
3.773528369783245
 20
-3.579426645293704
 30
0.0
 11
3.771251221403018
 21
-3.556731117088993
 31
0.0
  0
LINE
  5
639
330
587
100
AcDbEntity
  8
D35160230
100
AcDbLine
 10
3.771251221403018
 20
-3.556731117088993
 30
0.0
 11
3.768068315436695
 21
-3.534144804533692
 31
0.0
  0
LINE
  5
63A
330
587
100
AcDbEntity
  8
D35160230
100
AcDbLine
 10
3.768068315436695
 20
-3.534144804533692
 30
0.0
 11
3.763984743854833
 21
-3.511703840909724
 31
0.0
  0
LINE
  5
63B
330
587
100
AcDbEntity
  8
D35160230
100
AcDbLine
 10
3.763984743854833
 20
-3.511703840909724
 30
0.0
 11
3.75900703950085
 21
-3.489444126971743
 31
0.0
  0
LINE
  5
63C
330
587
100
AcDbEntity
  8
D35160230
100
AcDbLine
 10
3.75900703950085
 20
-3.489444126971743
 30
0.0
 11
3.753143165639865
 21
-3.467401273513566
 31
0.0
  0
LINE
  5
63D
330
587
100
AcDbEntity
  8
D35160230
100
AcDbLine
 10
3.753143165639865
 20
-3.467401273513566
 30
0.0
 11
3.74640250321915
 21
-3.445610544398498
 31
0.0
  0
LINE
  5
63E
330
587
100
AcDbEntity
  8
D35160230
100
AcDbLine
 10
3.74640250321915
 20
-3.445610544398498
 30
0.0
 11
3.738795835860648
 21
-3.424106800144681
 31
0.0
  0
LINE
  5
63F
330
587
100
AcDbEntity
  8
D35160230
100
AcDbLine
 10
3.738795835860648
 20
-3.424106800144681
 30
0.0
 11
3.730335332609469
 21
-3.402924442155704
 31
0.0
  0
LINE
  5
640
330
587
100
AcDbEntity
  8
D35160230
100
AcDbLine
 10
3.730335332609469
 20
-3.402924442155704
 30
0.0
 11
3.721034528466019
 21
-3.382097357685687
 31
0.0
  0
LINE
  5
641
330
587
100
AcDbEntity
  8
D35160230
100
AcDbLine
 10
3.721034528466019
 20
-3.382097357685687
 30
0.0
 11
3.710908302732835
 21
-3.361658865626903
 31
0.0
  0
LINE
  5
642
330
587
100
AcDbEntity
  8
D35160230
100
AcDbLine
 10
3.710908302732835
 20
-3.361658865626903
 30
0.0
 11
3.699972855210947
 21
-3.341641663206672
 31
0.0
  0
LINE
  5
643
330
587
100
AcDbEntity
  8
D35160230
100
AcDbLine
 10
3.699972855210947
 20
-3.341641663206672
 30
0.0
 11
3.688245680283642
 21
-3.322077773678753
 31
0.0
  0
LINE
  5
644
330
587
100
AcDbEntity
  8
D35160230
100
AcDbLine
 10
3.688245680283642
 20
-3.322077773678753
 30
0.0
 11
3.67574553892912
 21
-3.302998495092989
 31
0.0
  0
SPLINE
  5
645
330
587
100
AcDbEntity
  8
D35160230
100
AcDbSpline
210
0.0
220
0.0
230
1.0
 70
     8
 71
     3
 72
     8
 73
     4
 74
     0
 42
0.000000001
 43
0.0000000001
 40
-1.0
 40
-1.0
 40
-1.0
 40
-1.0
 40
-0.7147218794025583
 40
-0.7147218794025583
 40
-0.7147218794025583
 40
-0.7147218794025583
 10
-2.403356154685707
 20
-0.3561709652965881
 30
0.0
 10
-2.500749346957689
 20
-0.6126836498408217
 30
0.0
 10
-2.585258571136601
 20
-0.8738935004215058
 30
0.0
 10
-2.657098145470604
 20
-1.13859113335005
 30
0.0
  0
SPLINE
  5
646
330
587
100
AcDbEntity
  8
D35160230
100
AcDbSpline
210
0.0
220
0.0
230
1.0
 70
     8
 71
     3
 72
     8
 73
     4
 74
     0
 42
0.000000001
 43
0.0000000001
 40
-0.580111293310377
 40
-0.580111293310377
 40
-0.580111293310377
 40
-0.580111293310377
 40
-0.4249570225161006
 40
-0.4249570225161006
 40
-0.4249570225161006
 40
-0.4249570225161006
 10
-2.75031307788197
 20
-1.515490193703907
 30
0.0
 10
-2.782837696733997
 20
-1.66109121045887
 30
0.0
 10
-2.814484693146122
 20
-1.807279473350117
 30
0.0
 10
-2.839470534011748
 20
-1.954355065295132
 30
0.0
  0
SPLINE
  5
647
330
587
100
AcDbEntity
  8
D35160230
100
AcDbSpline
210
0.0
220
0.0
230
1.0
 70
     8
 71
     3
 72
     8
 73
     4
 74
     0
 42
0.000000001
 43
0.0000000001
 40
-0.2801437362729851
 40
-0.2801437362729851
 40
-0.2801437362729851
 40
-0.2801437362729851
 40
0.0
 40
0.0
 40
0.0
 40
0.0
 10
-2.894500212955728
 20
-2.368087636742401
 30
0.0
 10
-2.925173147371321
 20
-2.635562772412509
 30
0.0
 10
-2.942444035437156
 20
-2.904526172450758
 30
0.0
 10
-2.946909399713137
 20
-3.173767286080042
 30
0.0
  0
SPLINE
  5
648
330
587
100
AcDbEntity
  8
D35160230
100
AcDbSpline
210
0.0
220
0.0
230
1.0
 70
     8
 71
     3
 72
     8
 73
     4
 74
     0
 42
0.000000001
 43
0.0000000001
 40
-1.0
 40
-1.0
 40
-1.0
 40
-1.0
 40
-0.7147467376556284
 40
-0.7147467376556284
 40
-0.7147467376556284
 40
-0.7147467376556284
 10
-4.096643845313336
 20
-0.3561709652965526
 30
0.0
 10
-3.999180373617804
 20
-0.6128697367426206
 30
0.0
 10
-3.914647229149121
 20
-0.8742115398082503
 30
0.0
 10
-3.842811830223477
 20
-1.138930948681736
 30
0.0
  0
SPLINE
  5
649
330
587
100
AcDbEntity
  8
D35160230
100
AcDbSpline
210
0.0
220
0.0
230
1.0
 70
     8
 71
     3
 72
     8
 73
     4
 74
     0
 42
0.000000001
 43
0.0000000001
 40
-0.5801170890172897
 40
-0.5801170890172897
 40
-0.5801170890172897
 40
-0.5801170890172897
 40
-0.4250225983797838
 40
-0.4250225983797838
 40
-0.4250225983797838
 40
-0.4250225983797838
 10
-3.749599681939779
 20
-1.515873482918479
 30
0.0
 10
-3.717099682018945
 20
-1.661389718969303
 30
0.0
 10
-3.685482754129171
 20
-1.807466043630633
 30
0.0
 10
-3.660516469739412
 20
-1.954432012205941
 30
0.0
  0
SPLINE
  5
64A
330
587
100
AcDbEntity
  8
D35160230
100
AcDbSpline
210
0.0
220
0.0
230
1.0
 70
     8
 71
     3
 72
     8
 73
     4
 74
     0
 42
0.000000001
 43
0.0000000001
 40
-0.2801647665938613
 40
-0.2801647665938613
 40
-0.2801647665938613
 40
-0.2801647665938613
 40
0.0
 40
0.0
 40
0.0
 40
0.0
 10
-3.605494371301572
 20
-2.368166243405983
 30
0.0
 10
-3.574831353502486
 20
-2.635595380279831
 30
0.0
 10
-3.557558046154388
 20
-2.904546875031378
 30
0.0
 10
-3.553093195206331
 20
-3.173767286080028
 30
0.0
  0
SPLINE
  5
64B
330
587
100
AcDbEntity
  8
D35160230
100
AcDbSpline
210
0.0
220
0.0
230
1.0
 70
     8
 71
     3
 72
     8
 73
     4
 74
     0
 42
0.000000001
 43
0.0000000001
 40
-1.0
 40
-1.0
 40
-1.0
 40
-1.0
 40
-0.7198765463945576
 40
-0.7198765463945576
 40
-0.7198765463945576
 40
-0.7198765463945576
 10
2.946909399713072
 20
-3.173767286080156
 30
0.0
 10
2.942440574141853
 20
-2.904394821517161
 30
0.0
 10
2.925155019232951
 20
-2.635343128492415
 30
0.0
 10
2.894469735573202
 20
-2.367828866047158
 30
0.0
  0
SPLINE
  5
64C
330
587
100
AcDbEntity
  8
D35160230
100
AcDbSpline
210
0.0
220
0.0
230
1.0
 70
     8
 71
     3
 72
     8
 73
     4
 74
     0
 42
0.000000001
 43
0.0000000001
 40
-0.5750823087557972
 40
-0.5750823087557972
 40
-0.5750823087557972
 40
-0.5750823087557972
 40
-0.4199314330217248
 40
-0.4199314330217248
 40
-0.4199314330217248
 40
-0.4199314330217248
 10
2.83612544219783
 20
-1.954398662555387
 30
0.0
 10
2.811472484898781
 20
-1.807290772546462
 30
0.0
 10
2.785542422301683
 20
-1.66001740843868
 30
0.0
 10
2.753223710001054
 20
-1.514376257003455
 30
0.0
  0
SPLINE
  5
64D
330
587
100
AcDbEntity
  8
D35160230
100
AcDbSpline
210
0.0
220
0.0
230
1.0
 70
     8
 71
     3
 72
     8
 73
     4
 74
     0
 42
0.000000001
 43
0.0000000001
 40
-0.2852995537442369
 40
-0.2852995537442369
 40
-0.2852995537442369
 40
-0.2852995537442369
 40
0.0
 40
0.0
 40
0.0
 40
0.0
 10
2.657039403957402
 20
-1.138376350096024
 30
0.0
 10
2.585203433796672
 20
-0.8737211264567257
 30
0.0
 10
2.500710546366612
 20
-0.6125819726475861
 30
0.0
 10
2.403356154685715
 20
-0.3561709652966805
 30
0.0
  0
SPLINE
  5
64E
330
587
100
AcDbEntity
  8
D35160230
100
AcDbSpline
210
0.0
220
0.0
230
1.0
 70
     8
 71
     3
 72
     8
 73
     4
 74
     0
 42
0.000000001
 43
0.0000000001
 40
-1.0
 40
-1.0
 40
-1.0
 40
-1.0
 40
-0.719865422741531
 40
-0.719865422741531
 40
-0.719865422741531
 40
-0.719865422741531
 10
3.55309319520626
 20
-3.173767286080156
 30
0.0
 10
3.557563400434117
 20
-2.904344836192986
 30
0.0
 10
3.574860120444941
 20
-2.635257766249242
 30
0.0
 10
3.605540538247773
 20
-2.367776719197134
 30
0.0
  0
SPLINE
  5
64F
330
587
100
AcDbEntity
  8
D35160230
100
AcDbSpline
210
0.0
220
0.0
230
1.0
 70
     8
 71
     3
 72
     8
 73
     4
 74
     0
 42
0.000000001
 43
0.0000000001
 40
-0.57502526430235
 40
-0.57502526430235
 40
-0.57502526430235
 40
-0.57502526430235
 40
-0.4199516944740236
 40
-0.4199516944740236
 40
-0.4199516944740236
 40
-0.4199516944740236
 10
3.663882225165151
 20
-1.954338519069704
 30
0.0
 10
3.68851208190215
 20
-1.80736267215326
 30
0.0
 10
3.714407782140856
 20
-1.660247719446417
 30
0.0
 10
3.746694495017703
 20
-1.514724618562894
 30
0.0
  0
SPLINE
  5
650
330
587
100
AcDbEntity
  8
D35160230
100
AcDbSpline
210
0.0
220
0.0
230
1.0
 70
     8
 71
     3
 72
     8
 73
     4
 74
     0
 42
0.000000001
 43
0.0000000001
 40
-0.2852817610433763
 40
-0.2852817610433763
 40
-0.2852817610433763
 40
-0.2852817610433763
 40
0.0
 40
0.0
 40
0.0
 40
0.0
 10
3.842889194790811
 20
-1.138649189929282
 30
0.0
 10
3.914718056610182
 20
-0.8739938509610247
 30
0.0
 10
3.999229457274278
 20
-0.6127412418332128
 30
0.0
 10
4.096643845313311
 20
-0.3561709652966805
 30
0.0
  0
LINE
  5
651
330
587
100
AcDbEntity
  8
D35160230
100
AcDbLine
 10
-4.250000000000007
 20
0.000000000000032
 30
0.0
 11
-4.20390274460901
 21
-0.2168705356767724
 31
0.0
1001
REVIT
1002
{
1070
     1
1000
26991
1002
}
1002
{
1070
     2
1000
-2001350
1002
}
  0
ARC
  5
652
330
587
100
AcDbEntity
  8
D35160230
100
AcDbCircle
 10
-4.143766055452989
 20
-0.2040880877995512
 30
0.0
 40
0.0614801785649809
100
AcDbArc
 50
192.0
 51
240.0000000000004
1001
REVIT
1002
{
1070
     1
1000
26991
1002
}
1002
{
1070
     2
1000
-2001350
1002
}
  0
LINE
  5
653
330
587
100
AcDbEntity
  8
D35160230
100
AcDbLine
 10
-4.174506144735477
 20
-0.2573314842660288
 30
0.0
 11
-4.138929225697992
 21
-0.2778718280492605
 31
0.0
1001
REVIT
1002
{
1070
     1
1000
26991
1002
}
1002
{
1070
     2
1000
-2001350
1002
}
  0
LINE
  5
654
330
587
100
AcDbEntity
  8
D35160230
100
AcDbLine
 10
-4.138929225697992
 20
-0.2778718280492605
 30
0.0
 11
-4.130233365421592
 21
-0.3561709652966591
 31
0.0
1001
REVIT
1002
{
1070
     1
1000
26991
1002
}
1002
{
1070
     2
1000
-2001350
1002
}
  0
LINE
  5
655
330
587
100
AcDbEntity
  8
D35160230
100
AcDbLine
 10
-4.130233365421592
 20
-0.3561709652966591
 30
0.0
 11
-2.369766634578418
 21
-0.3561709652966805
 31
0.0
1001
REVIT
1002
{
1070
     1
1000
26991
1002
}
1002
{
1070
     2
1000
-2001350
1002
}
  0
ARC
  5
656
330
587
100
AcDbEntity
  8
D35160230
100
AcDbCircle
 10
-12.17958726133211
 20
-3.376702066164387
 30
0.0
 40
8.628880715241761
100
AcDbArc
 50
1.347611458619615
 51
20.49031245280456
1001
REVIT
1002
{
1070
     1
1000
26991
1002
}
1002
{
1070
     2
1000
-2001350
1002
}
  0
LINE
  5
657
330
587
100
AcDbEntity
  8
D35160230
100
AcDbLine
 10
-3.553093195206336
 20
-3.173767286080025
 30
0.0
 11
-2.946906804793737
 21
-3.173767286080146
 31
0.0
1001
REVIT
1002
{
1070
     1
1000
26991
1002
}
1002
{
1070
     2
1000
-2001350
1002
}
  0
LINE
  5
658
330
587
100
AcDbEntity
  8
D35160230
100
AcDbLine
 10
-3.503760915459274
 20
-3.173767286080025
 30
0.0
 11
-3.503760915459274
 21
-3.25447501965252
 31
0.0
1001
REVIT
1002
{
1070
     1
1000
26991
1002
}
1002
{
1070
     2
1000
-2001350
1002
}
  0
LINE
  5
659
330
587
100
AcDbEntity
  8
D35160230
100
AcDbLine
 10
-3.503760915459274
 20
-3.25447501965252
 30
0.0
 11
-3.579166450294209
 21
-3.246549578578896
 31
0.0
1001
REVIT
1002
{
1070
     1
1000
26991
1002
}
1002
{
1070
     2
1000
-2001350
1002
}
  0
ARC
  5
65A
330
587
100
AcDbEntity
  8
D35160230
100
AcDbCircle
 10
-3.589070965298681
 20
-3.340784744073747
 30
0.0
 40
0.0947542391311145
100
AcDbArc
 50
84.00000000000009
 51
144.3947312450977
1001
REVIT
1002
{
1070
     1
1000
26991
1002
}
1002
{
1070
     2
1000
-2001350
1002
}
  0
ARC
  5
65B
330
587
100
AcDbEntity
  8
D35160230
100
AcDbCircle
 10
-3.192160413002682
 20
-3.624999999999982
 30
0.0
 40
0.5829307422784181
100
AcDbArc
 50
144.394731245097
 51
213.222624147004
1001
REVIT
1002
{
1070
     1
1000
26991
1002
}
1002
{
1070
     2
1000
-2001350
1002
}
  0
ARC
  5
65C
330
587
100
AcDbEntity
  8
D35160230
100
AcDbCircle
 10
-3.573014875060419
 20
-3.874439016199264
 30
0.0
 40
0.1276616525394446
100
AcDbArc
 50
213.222624147004
 51
276.0000000000024
1001
REVIT
1002
{
1070
     1
1000
26991
1002
}
1002
{
1070
     2
1000
-2001350
1002
}
  0
LINE
  5
65D
330
587
100
AcDbEntity
  8
D35160230
100
AcDbLine
 10
-3.559670598702265
 20
-4.001401324848632
 30
0.0
 11
-2.829910365388059
 21
-3.963401689067492
 31
0.0
1001
REVIT
1002
{
1070
     1
1000
26991
1002
}
1002
{
1070
     2
1000
-2001350
1002
}
  0
LINE
  5
65E
330
587
100
AcDbEntity
  8
D35160230
100
AcDbLine
 10
-2.829910365388059
 20
-3.963401689067492
 30
0.0
 11
-2.829910365388052
 21
-3.286598310932458
 31
0.0
1001
REVIT
1002
{
1070
     1
1000
26991
1002
}
1002
{
1070
     2
1000
-2001350
1002
}
  0
LINE
  5
65F
330
587
100
AcDbEntity
  8
D35160230
100
AcDbLine
 10
-2.829910365388059
 20
-3.915972957591609
 30
0.0
 11
2.829910365387977
 21
-3.91597295759163
 31
0.0
1001
REVIT
1002
{
1070
     1
1000
26991
1002
}
1002
{
1070
     2
1000
-2001350
1002
}
  0
LINE
  5
660
330
587
100
AcDbEntity
  8
D35160230
100
AcDbLine
 10
2.829910365387984
 20
-3.286598310932522
 30
0.0
 11
2.829910365387977
 21
-3.963401689067548
 31
0.0
1001
REVIT
1002
{
1070
     1
1000
26991
1002
}
1002
{
1070
     2
1000
-2001350
1002
}
  0
LINE
  5
661
330
587
100
AcDbEntity
  8
D35160230
100
AcDbLine
 10
2.829910365387977
 20
-3.963401689067548
 30
0.0
 11
3.559670598702179
 21
-4.001401324848711
 31
0.0
1001
REVIT
1002
{
1070
     1
1000
26991
1002
}
1002
{
1070
     2
1000
-2001350
1002
}
  0
ARC
  5
662
330
587
100
AcDbEntity
  8
D35160230
100
AcDbCircle
 10
3.573014875060341
 20
-3.874439016199264
 30
0.0
 40
0.1276616525394433
100
AcDbArc
 50
263.9999999999972
 51
326.7773758529945
1001
REVIT
1002
{
1070
     1
1000
26991
1002
}
1002
{
1070
     2
1000
-2001350
1002
}
  0
ARC
  5
663
330
587
100
AcDbEntity
  8
D35160230
100
AcDbCircle
 10
3.192160413002607
 20
-3.624999999999982
 30
0.0
 40
0.5829307422784173
100
AcDbArc
 50
326.7773758529945
 51
35.60526875490225
1001
REVIT
1002
{
1070
     1
1000
26991
1002
}
1002
{
1070
     2
1000
-2001350
1002
}
  0
ARC
  5
664
330
587
100
AcDbEntity
  8
D35160230
100
AcDbCircle
 10
3.58907096529861
 20
-3.340784744073747
 30
0.0
 40
0.0947542391311146
100
AcDbArc
 50
35.60526875490123
 51
95.99999999999953
1001
REVIT
1002
{
1070
     1
1000
26991
1002
}
1002
{
1070
     2
1000
-2001350
1002
}
  0
LINE
  5
665
330
587
100
AcDbEntity
  8
D35160230
100
AcDbLine
 10
3.579166450294142
 20
-3.246549578578967
 30
0.0
 11
3.503760915459206
 21
-3.254475019652591
 31
0.0
1001
REVIT
1002
{
1070
     1
1000
26991
1002
}
1002
{
1070
     2
1000
-2001350
1002
}
  0
LINE
  5
666
330
587
100
AcDbEntity
  8
D35160230
100
AcDbLine
 10
3.503760915459206
 20
-3.254475019652591
 30
0.0
 11
3.503760915459206
 21
-3.173767286080103
 31
0.0
1001
REVIT
1002
{
1070
     1
1000
26991
1002
}
1002
{
1070
     2
1000
-2001350
1002
}
  0
ARC
  5
667
330
587
100
AcDbEntity
  8
D35160230
100
AcDbCircle
 10
12.17958726133213
 20
-3.376702066164401
 30
0.0
 40
8.628880715241848
100
AcDbArc
 50
159.5096875471958
 51
178.6523885413808
1001
REVIT
1002
{
1070
     1
1000
26991
1002
}
1002
{
1070
     2
1000
-2001350
1002
}
  0
LINE
  5
668
330
587
100
AcDbEntity
  8
D35160230
100
AcDbLine
 10
4.130233365421585
 20
-0.3561709652967444
 30
0.0
 11
4.138929225697985
 21
-0.2778718280493386
 31
0.0
1001
REVIT
1002
{
1070
     1
1000
26991
1002
}
1002
{
1070
     2
1000
-2001350
1002
}
  0
LINE
  5
669
330
587
100
AcDbEntity
  8
D35160230
100
AcDbLine
 10
4.138929225697985
 20
-0.2778718280493457
 30
0.0
 11
4.17450614473547
 21
-0.2573314842661141
 31
0.0
1001
REVIT
1002
{
1070
     1
1000
26991
1002
}
1002
{
1070
     2
1000
-2001350
1002
}
  0
ARC
  5
66A
330
587
100
AcDbEntity
  8
D35160230
100
AcDbCircle
 10
4.143766055452982
 20
-0.2040880877995512
 30
0.0
 40
0.0614801785649826
100
AcDbArc
 50
299.9999999999981
 51
347.9999999999975
1001
REVIT
1002
{
1070
     1
1000
26991
1002
}
1002
{
1070
     2
1000
-2001350
1002
}
  0
LINE
  5
66B
330
587
100
AcDbEntity
  8
D35160230
100
AcDbLine
 10
4.203902744609006
 20
-0.2168705356768577
 30
0.0
 11
4.250000000000007
 21
-0.0000000000000604
 31
0.0
1001
REVIT
1002
{
1070
     1
1000
26991
1002
}
1002
{
1070
     2
1000
-2001350
1002
}
  0
LINE
  5
66C
330
587
100
AcDbEntity
  8
D35160230
100
AcDbLine
 10
4.250000000000007
 20
-0.0000000000000604
 30
0.0
 11
2.249999999999989
 21
-0.0000000000000249
 31
0.0
1001
REVIT
1002
{
1070
     1
1000
26991
1002
}
1002
{
1070
     2
1000
-2001350
1002
}
  0
LINE
  5
66D
330
587
100
AcDbEntity
  8
D35160230
100
AcDbLine
 10
2.249999999999989
 20
-0.0000000000000249
 30
0.0
 11
2.296097255390986
 21
-0.2168705356768221
 31
0.0
1001
REVIT
1002
{
1070
     1
1000
26991
1002
}
1002
{
1070
     2
1000
-2001350
1002
}
  0
ARC
  5
66E
330
587
100
AcDbEntity
  8
D35160230
100
AcDbCircle
 10
2.356233944547017
 20
-0.2040880877995441
 30
0.0
 40
0.0614801785649854
100
AcDbArc
 50
192.0000000000021
 51
239.9999999999986
1001
REVIT
1002
{
1070
     1
1000
26991
1002
}
1002
{
1070
     2
1000
-2001350
1002
}
  0
LINE
  5
66F
330
587
100
AcDbEntity
  8
D35160230
100
AcDbLine
 10
2.325493855264515
 20
-0.2573314842660928
 30
0.0
 11
2.361070774302007
 21
-0.2778718280493244
 31
0.0
1001
REVIT
1002
{
1070
     1
1000
26991
1002
}
1002
{
1070
     2
1000
-2001350
1002
}
  0
LINE
  5
670
330
587
100
AcDbEntity
  8
D35160230
100
AcDbLine
 10
2.361070774302007
 20
-0.2778718280493244
 30
0.0
 11
2.369766634578407
 21
-0.3561709652967231
 31
0.0
1001
REVIT
1002
{
1070
     1
1000
26991
1002
}
1002
{
1070
     2
1000
-2001350
1002
}
  0
LINE
  5
671
330
587
100
AcDbEntity
  8
D35160230
100
AcDbLine
 10
2.369766634578407
 20
-0.3561709652967231
 30
0.0
 11
4.130233365421585
 21
-0.3561709652967444
 31
0.0
1001
REVIT
1002
{
1070
     1
1000
26991
1002
}
1002
{
1070
     2
1000
-2001350
1002
}
  0
ARC
  5
672
330
587
100
AcDbEntity
  8
D35160230
100
AcDbCircle
 10
-5.679587261332091
 20
-3.37670206616438
 30
0.0
 40
8.628880715241741
100
AcDbArc
 50
1.347611458617986
 51
20.49031245280369
1001
REVIT
1002
{
1070
     1
1000
26991
1002
}
1002
{
1070
     2
1000
-2001350
1002
}
  0
LINE
  5
673
330
587
100
AcDbEntity
  8
D35160230
100
AcDbLine
 10
2.946906804793673
 20
-3.173767286080209
 30
0.0
 11
3.553093195206269
 21
-3.173767286080103
 31
0.0
1001
REVIT
1002
{
1070
     1
1000
26991
1002
}
1002
{
1070
     2
1000
-2001350
1002
}
  0
LINE
  5
674
330
587
100
AcDbEntity
  8
D35160230
100
AcDbLine
 10
2.996241968083253
 20
-3.173767286080209
 30
0.0
 11
2.996241968083253
 21
-3.277790570773976
 31
0.0
1001
REVIT
1002
{
1070
     1
1000
26991
1002
}
1002
{
1070
     2
1000
-2001350
1002
}
  0
LINE
  5
675
330
587
100
AcDbEntity
  8
D35160230
100
AcDbLine
 10
2.996241968083253
 20
-3.277790570773976
 30
0.0
 11
2.829910365387984
 21
-3.286598310932522
 31
0.0
1001
REVIT
1002
{
1070
     1
1000
26991
1002
}
1002
{
1070
     2
1000
-2001350
1002
}
  0
LINE
  5
676
330
587
100
AcDbEntity
  8
D35160230
100
AcDbLine
 10
2.829910365387984
 20
-3.334027042408326
 30
0.0
 11
-2.829910365388052
 21
-3.33402704240834
 31
0.0
1001
REVIT
1002
{
1070
     1
1000
26991
1002
}
1002
{
1070
     2
1000
-2001350
1002
}
  0
LINE
  5
677
330
587
100
AcDbEntity
  8
D35160230
100
AcDbLine
 10
-2.829910365388052
 20
-3.286598310932458
 30
0.0
 11
-2.996241968083321
 21
-3.277790570773913
 31
0.0
1001
REVIT
1002
{
1070
     1
1000
26991
1002
}
1002
{
1070
     2
1000
-2001350
1002
}
  0
LINE
  5
678
330
587
100
AcDbEntity
  8
D35160230
100
AcDbLine
 10
-2.996241968083321
 20
-3.277790570773913
 30
0.0
 11
-2.996241968083321
 21
-3.173767286080146
 31
0.0
1001
REVIT
1002
{
1070
     1
1000
26991
1002
}
1002
{
1070
     2
1000
-2001350
1002
}
  0
ARC
  5
679
330
587
100
AcDbEntity
  8
D35160230
100
AcDbCircle
 10
5.679587261332113
 20
-3.376702066164401
 30
0.0
 40
8.628880715241832
100
AcDbArc
 50
159.5096875471958
 51
178.6523885413824
1001
REVIT
1002
{
1070
     1
1000
26991
1002
}
1002
{
1070
     2
1000
-2001350
1002
}
  0
LINE
  5
67A
330
587
100
AcDbEntity
  8
D35160230
100
AcDbLine
 10
-2.369766634578418
 20
-0.3561709652966805
 30
0.0
 11
-2.361070774302014
 21
-0.2778718280492747
 31
0.0
1001
REVIT
1002
{
1070
     1
1000
26991
1002
}
1002
{
1070
     2
1000
-2001350
1002
}
  0
LINE
  5
67B
330
587
100
AcDbEntity
  8
D35160230
100
AcDbLine
 10
-2.361070774302014
 20
-0.2778718280492747
 30
0.0
 11
-2.325493855264529
 21
-0.257331484266043
 31
0.0
1001
REVIT
1002
{
1070
     1
1000
26991
1002
}
1002
{
1070
     2
1000
-2001350
1002
}
  0
ARC
  5
67C
330
587
100
AcDbEntity
  8
D35160230
100
AcDbCircle
 10
-2.356233944547017
 20
-0.2040880877995512
 30
0.0
 40
0.0614801785649808
100
AcDbArc
 50
299.9999999999985
 51
347.9999999999987
1001
REVIT
1002
{
1070
     1
1000
26991
1002
}
1002
{
1070
     2
1000
-2001350
1002
}
  0
LINE
  5
67D
330
587
100
AcDbEntity
  8
D35160230
100
AcDbLine
 10
-2.296097255390996
 20
-0.2168705356767937
 30
0.0
 11
-2.249999999999989
 21
0.0000000000000249
 31
0.0
1001
REVIT
1002
{
1070
     1
1000
26991
1002
}
1002
{
1070
     2
1000
-2001350
1002
}
  0
LINE
  5
67E
330
587
100
AcDbEntity
  8
D35160230
100
AcDbLine
 10
-2.249999999999989
 20
0.0000000000000249
 30
0.0
 11
-4.250000000000007
 21
0.000000000000032
 31
0.0
1001
REVIT
1002
{
1070
     1
1000
26991
1002
}
1002
{
1070
     2
1000
-2001350
1002
}
  0
LINE
  5
67F
330
587
100
AcDbEntity
  8
D35160230
100
AcDbLine
 10
-3.503760915459274
 20
-3.25447501965252
 30
0.0
 11
-2.996241968083321
 21
-3.277790570773913
 31
0.0
1001
REVIT
1002
{
1070
     1
1000
28709
1002
}
1002
{
1070
     2
1000
-2001350
1002
}
  0
LINE
  5
680
330
587
100
AcDbEntity
  8
D35160230
100
AcDbLine
 10
3.503760915459206
 20
-3.254475019652591
 30
0.0
 11
2.996241968083253
 21
-3.277790570773976
 31
0.0
1001
REVIT
1002
{
1070
     1
1000
28843
1002
}
1002
{
1070
     2
1000
-2001350
1002
}
  0
LINE
  5
681
330
587
100
AcDbEntity
  8
D35160230
100
AcDbLine
 10
-2.829910365388055
 20
-3.624999999999946
 30
0.0
 11
2.829910365387977
 21
-3.624999999999968
 31
0.0
1001
REVIT
1002
{
1070
     1
1000
29459
1002
}
1002
{
1070
     2
1000
-2001350
1002
}
  0
ARC
  5
682
330
587
100
AcDbEntity
  8
D35160230
100
AcDbCircle
 10
-13.17365281083735
 20
-2.69442339283265
 30
0.0
 40
9.783849518456607
100
AcDbArc
 50
357.1917616666003
 51
13.82699872493077
1001
REVIT
1002
{
1070
     1
1000
29545
1002
}
1002
{
1070
     2
1000
-2001350
1002
}
  0
ARC
  5
683
330
587
100
AcDbEntity
  8
D35160230
100
AcDbCircle
 10
6.6736528108373
 20
-2.694423392832856
 30
0.0
 40
9.783849518456605
100
AcDbArc
 50
166.1730012750688
 51
182.8082383333985
1001
REVIT
1002
{
1070
     1
1000
29587
1002
}
1002
{
1070
     2
1000
-2001350
1002
}
  0
ARC
  5
684
330
587
100
AcDbEntity
  8
D35160230
100
AcDbCircle
 10
13.1736528108373
 20
-2.69442339283292
 30
0.0
 40
9.783849518456603
100
AcDbArc
 50
166.1730012750688
 51
182.8082383333985
1001
REVIT
1002
{
1070
     1
1000
29835
1002
}
1002
{
1070
     2
1000
-2001350
1002
}
  0
ARC
  5
685
330
587
100
AcDbEntity
  8
D35160230
100
AcDbCircle
 10
-6.673652810837356
 20
-2.694423392832714
 30
0.0
 40
9.783849518456605
100
AcDbArc
 50
357.1917616666003
 51
13.82699872493077
1001
REVIT
1002
{
1070
     1
1000
29836
1002
}
1002
{
1070
     2
1000
-2001350
1002
}
  0
ENDBLK
  5
589
330
587
100
AcDbEntity
  8
0
100
AcDbBlockEnd
  0
BLOCK
  5
688
330
687
100
AcDbEntity
  8
0
100
AcDbBlockBegin
  2
D35160230 Front View
 70
     0
 10
0.0
 20
0.0
 30
0.0
  3
D35160230 Front View
  1

  0
LINE
  5
68A
330
687
100
AcDbEntity
  8
D35160230
100
AcDbLine
 10
3.628679087924755
 20
0.3362838523892648
 30
0.0
 11
3.641841054613311
 21
0.3176549759302496
 31
0.0
1001
REVIT
1002
{
1070
     2
1000
-2001350
1002
}
  0
LINE
  5
68B
330
687
100
AcDbEntity
  8
D35160230
100
AcDbLine
 10
3.641841054613311
 20
0.3176549759302496
 30
0.0
 11
3.654247536766159
 21
0.2985146623009562
 31
0.0
1001
REVIT
1002
{
1070
     2
1000
-2001350
1002
}
  0
LINE
  5
68C
330
687
100
AcDbEntity
  8
D35160230
100
AcDbLine
 10
3.654247536766159
 20
0.2985146623009562
 30
0.0
 11
3.665878686658394
 21
0.2788935319201506
 31
0.0
1001
REVIT
1002
{
1070
     2
1000
-2001350
1002
}
  0
LINE
  5
68D
330
687
100
AcDbEntity
  8
D35160230
100
AcDbLine
 10
3.665878686658394
 20
0.2788935319201506
 30
0.0
 11
3.676715896931408
 21
0.2588229744108296
 31
0.0
1001
REVIT
1002
{
1070
     2
1000
-2001350
1002
}
  0
LINE
  5
68E
330
687
100
AcDbEntity
  8
D35160230
100
AcDbLine
 10
3.676715896931408
 20
0.2588229744108296
 30
0.0
 11
3.686741830360552
 21
0.238335098383505
 31
0.0
1001
REVIT
1002
{
1070
     2
1000
-2001350
1002
}
  0
LINE
  5
68F
330
687
100
AcDbEntity
  8
D35160230
100
AcDbLine
 10
3.686741830360552
 20
0.238335098383505
 30
0.0
 11
3.695940447591098
 21
0.2174626800693246
 31
0.0
1001
REVIT
1002
{
1070
     2
1000
-2001350
1002
}
  0
LINE
  5
690
330
687
100
AcDbEntity
  8
D35160230
100
AcDbLine
 10
3.695940447591098
 20
0.2174626800693246
 30
0.0
 11
3.704297032797728
 21
0.1962391108850347
 31
0.0
1001
REVIT
1002
{
1070
     2
1000
-2001350
1002
}
  0
LINE
  5
691
330
687
100
AcDbEntity
  8
D35160230
100
AcDbLine
 10
3.704297032797728
 20
0.1962391108850347
 30
0.0
 11
3.711798217226799
 21
0.1746983440138763
 31
0.0
1001
REVIT
1002
{
1070
     2
1000
-2001350
1002
}
  0
LINE
  5
692
330
687
100
AcDbEntity
  8
D35160230
100
AcDbLine
 10
3.711798217226799
 20
0.1746983440138763
 30
0.0
 11
3.718432000583344
 21
0.1528748400877226
 31
0.0
1001
REVIT
1002
{
1070
     2
1000
-2001350
1002
}
  0
LINE
  5
693
330
687
100
AcDbEntity
  8
D35160230
100
AcDbLine
 10
3.718432000583344
 20
0.1528748400877226
 30
0.0
 11
3.724187770229149
 21
0.1308035120574295
 31
0.0
1001
REVIT
1002
{
1070
     2
1000
-2001350
1002
}
  0
LINE
  5
694
330
687
100
AcDbEntity
  8
D35160230
100
AcDbLine
 10
3.724187770229149
 20
0.1308035120574295
 30
0.0
 11
3.729056318160597
 21
0.1085196693395396
 31
0.0
1001
REVIT
1002
{
1070
     2
1000
-2001350
1002
}
  0
LINE
  5
695
330
687
100
AcDbEntity
  8
D35160230
100
AcDbLine
 10
3.729056318160597
 20
0.1085196693395396
 30
0.0
 11
3.73302985573959
 21
0.086058961328785
 31
0.0
1001
REVIT
1002
{
1070
     2
1000
-2001350
1002
}
  0
LINE
  5
696
330
687
100
AcDbEntity
  8
D35160230
100
AcDbLine
 10
3.73302985573959
 20
0.086058961328785
 30
0.0
 11
3.736102026153623
 21
0.0634573203665987
 31
0.0
1001
REVIT
1002
{
1070
     2
1000
-2001350
1002
}
  0
LINE
  5
697
330
687
100
AcDbEntity
  8
D35160230
100
AcDbLine
 10
3.736102026153623
 20
0.0634573203665987
 30
0.0
 11
3.738267914585406
 21
0.0407509042571128
 31
0.0
1001
REVIT
1002
{
1070
     2
1000
-2001350
1002
}
  0
LINE
  5
698
330
687
100
AcDbEntity
  8
D35160230
100
AcDbLine
 10
3.738267914585406
 20
0.0407509042571128
 30
0.0
 11
3.739524056075473
 21
0.0179760384223045
 31
0.0
1001
REVIT
1002
{
1070
     2
1000
-2001350
1002
}
  0
LINE
  5
699
330
687
100
AcDbEntity
  8
D35160230
100
AcDbLine
 10
3.739524056075473
 20
0.0179760384223045
 30
0.0
 11
3.739875290276472
 21
-0.0020358786606778
 31
0.0
1001
REVIT
1002
{
1070
     2
1000
-2001350
1002
}
  0
LINE
  5
69A
330
687
100
AcDbEntity
  8
D35160230
100
AcDbLine
 10
3.739875290276493
 20
-0.0020358786620527
 30
0.0
 11
3.739419131076533
 21
-0.0248407975178715
 31
0.0
1001
REVIT
1002
{
1070
     2
1000
-2001350
1002
}
  0
LINE
  5
69B
330
687
100
AcDbEntity
  8
D35160230
100
AcDbLine
 10
3.739419131076533
 20
-0.0248407975178715
 30
0.0
 11
3.73805138323405
 21
-0.0476092333683056
 31
0.0
1001
REVIT
1002
{
1070
     2
1000
-2001350
1002
}
  0
LINE
  5
69C
330
687
100
AcDbEntity
  8
D35160230
100
AcDbLine
 10
3.73805138323405
 20
-0.0476092333683056
 30
0.0
 11
3.735774234853813
 21
-0.070304761573027
 31
0.0
1001
REVIT
1002
{
1070
     2
1000
-2001350
1002
}
  0
LINE
  5
69D
330
687
100
AcDbEntity
  8
D35160230
100
AcDbLine
 10
3.735774234853813
 20
-0.070304761573027
 30
0.0
 11
3.732591328887501
 21
-0.0928910741283282
 31
0.0
1001
REVIT
1002
{
1070
     2
1000
-2001350
1002
}
  0
LINE
  5
69E
330
687
100
AcDbEntity
  8
D35160230
100
AcDbLine
 10
3.732591328887501
 20
-0.0928910741283282
 30
0.0
 11
3.728507757305638
 21
-0.1153320377522959
 31
0.0
1001
REVIT
1002
{
1070
     2
1000
-2001350
1002
}
  0
LINE
  5
69F
330
687
100
AcDbEntity
  8
D35160230
100
AcDbLine
 10
3.728507757305638
 20
-0.1153320377522959
 30
0.0
 11
3.723530052951655
 21
-0.1375917516902731
 31
0.0
1001
REVIT
1002
{
1070
     2
1000
-2001350
1002
}
  0
LINE
  5
6A0
330
687
100
AcDbEntity
  8
D35160230
100
AcDbLine
 10
3.723530052951655
 20
-0.1375917516902731
 30
0.0
 11
3.717666179090659
 21
-0.1596346051484474
 31
0.0
1001
REVIT
1002
{
1070
     2
1000
-2001350
1002
}
  0
LINE
  5
6A1
330
687
100
AcDbEntity
  8
D35160230
100
AcDbLine
 10
3.717666179090659
 20
-0.1596346051484474
 30
0.0
 11
3.710925516669955
 21
-0.1814253342635119
 31
0.0
1001
REVIT
1002
{
1070
     2
1000
-2001350
1002
}
  0
LINE
  5
6A2
330
687
100
AcDbEntity
  8
D35160230
100
AcDbLine
 10
3.710925516669955
 20
-0.1814253342635119
 30
0.0
 11
3.703318849311453
 21
-0.2029290785173358
 31
0.0
1001
REVIT
1002
{
1070
     2
1000
-2001350
1002
}
  0
LINE
  5
6A3
330
687
100
AcDbEntity
  8
D35160230
100
AcDbLine
 10
3.703318849311453
 20
-0.2029290785173358
 30
0.0
 11
3.694858346060275
 21
-0.2241114365063054
 31
0.0
1001
REVIT
1002
{
1070
     2
1000
-2001350
1002
}
  0
LINE
  5
6A4
330
687
100
AcDbEntity
  8
D35160230
100
AcDbLine
 10
3.694858346060275
 20
-0.2241114365063054
 30
0.0
 11
3.685557541916814
 21
-0.2449385209763299
 31
0.0
1001
REVIT
1002
{
1070
     2
1000
-2001350
1002
}
  0
LINE
  5
6A5
330
687
100
AcDbEntity
  8
D35160230
100
AcDbLine
 10
3.685557541916814
 20
-0.2449385209763299
 30
0.0
 11
3.67543131618364
 21
-0.2653770130351134
 31
0.0
1001
REVIT
1002
{
1070
     2
1000
-2001350
1002
}
  0
LINE
  5
6A6
330
687
100
AcDbEntity
  8
D35160230
100
AcDbLine
 10
3.67543131618364
 20
-0.2653770130351134
 30
0.0
 11
3.664495868661752
 21
-0.2853942154553408
 31
0.0
1001
REVIT
1002
{
1070
     2
1000
-2001350
1002
}
  0
LINE
  5
6A7
330
687
100
AcDbEntity
  8
D35160230
100
AcDbLine
 10
3.664495868661752
 20
-0.2853942154553408
 30
0.0
 11
3.652768693734436
 21
-0.3049581049832568
 31
0.0
1001
REVIT
1002
{
1070
     2
1000
-2001350
1002
}
  0
LINE
  5
6A8
330
687
100
AcDbEntity
  8
D35160230
100
AcDbLine
 10
3.652768693734436
 20
-0.3049581049832568
 30
0.0
 11
3.640268552379914
 21
-0.3240373835690242
 31
0.0
1001
REVIT
1002
{
1070
     2
1000
-2001350
1002
}
  0
LINE
  5
6A9
330
687
100
AcDbEntity
  8
D35160230
100
AcDbLine
 10
3.640268552379914
 20
-0.3240373835690242
 30
0.0
 11
3.628679087924755
 21
-0.3403556097133701
 31
0.0
1001
REVIT
1002
{
1070
     2
1000
-2001350
1002
}
  0
LINE
  5
6AA
330
687
100
AcDbEntity
  8
D35160230
100
AcDbLine
 10
3.545281253674651
 20
0.3757160801050005
 30
0.0
 11
2.794433378838785
 21
0.3363658104054678
 31
0.0
1001
REVIT
1002
{
1070
     2
1000
-2001350
1002
}
  0
LINE
  5
6AB
330
687
100
AcDbEntity
  8
D35160230
100
AcDbLine
 10
2.794433378838785
 20
-0.3404375677295625
 30
0.0
 11
3.545281253674651
 21
-0.3797878374291059
 31
0.0
1001
REVIT
1002
{
1070
     2
1000
-2001350
1002
}
  0
LINE
  5
6AC
330
687
100
AcDbEntity
  8
D35160230
100
AcDbLine
 10
3.545281253674651
 20
0.3757160801050005
 30
0.0
 11
3.549169920592937
 21
0.3758419608325702
 31
0.0
1001
REVIT
1002
{
1070
     2
1000
-2001350
1002
}
  0
LINE
  5
6AD
330
687
100
AcDbEntity
  8
D35160230
100
AcDbLine
 10
3.549169920592937
 20
0.3758419608325702
 30
0.0
 11
3.553060510878939
 21
0.3758122356680644
 31
0.0
1001
REVIT
1002
{
1070
     2
1000
-2001350
1002
}
  0
LINE
  5
6AE
330
687
100
AcDbEntity
  8
D35160230
100
AcDbLine
 10
3.553060510878939
 20
0.3758122356680644
 30
0.0
 11
3.556946800418152
 21
0.3756269521653692
 31
0.0
1001
REVIT
1002
{
1070
     2
1000
-2001350
1002
}
  0
LINE
  5
6AF
330
687
100
AcDbEntity
  8
D35160230
100
AcDbLine
 10
3.556946800418152
 20
0.3756269521653692
 30
0.0
 11
3.560822571976351
 21
0.3752864067385885
 31
0.0
1001
REVIT
1002
{
1070
     2
1000
-2001350
1002
}
  0
LINE
  5
6B0
330
687
100
AcDbEntity
  8
D35160230
100
AcDbLine
 10
3.560822571976351
 20
0.3752864067385885
 30
0.0
 11
3.564681625145808
 21
0.3747911441877569
 31
0.0
1001
REVIT
1002
{
1070
     2
1000
-2001350
1002
}
  0
LINE
  5
6B1
330
687
100
AcDbEntity
  8
D35160230
100
AcDbLine
 10
3.564681625145808
 20
0.3747911441877569
 30
0.0
 11
3.568517786264684
 21
0.3741419568273016
 31
0.0
1001
REVIT
1002
{
1070
     2
1000
-2001350
1002
}
  0
LINE
  5
6B2
330
687
100
AcDbEntity
  8
D35160230
100
AcDbLine
 10
3.568517786264684
 20
0.3741419568273016
 30
0.0
 11
3.572324918293527
 21
0.3733398832185237
 31
0.0
1001
REVIT
1002
{
1070
     2
1000
-2001350
1002
}
  0
LINE
  5
6B3
330
687
100
AcDbEntity
  8
D35160230
100
AcDbLine
 10
3.572324918293527
 20
0.3733398832185237
 30
0.0
 11
3.57609693063324
 21
0.3723862065080787
 31
0.0
1001
REVIT
1002
{
1070
     2
1000
-2001350
1002
}
  0
LINE
  5
6B4
330
687
100
AcDbEntity
  8
D35160230
100
AcDbLine
 10
3.57609693063324
 20
0.3723862065080787
 30
0.0
 11
3.579827788868733
 21
0.3712824523752829
 31
0.0
1001
REVIT
1002
{
1070
     2
1000
-2001350
1002
}
  0
LINE
  5
6B5
330
687
100
AcDbEntity
  8
D35160230
100
AcDbLine
 10
3.579827788868733
 20
0.3712824523752829
 30
0.0
 11
3.583511524422682
 21
0.3700303865912708
 31
0.0
1001
REVIT
1002
{
1070
     2
1000
-2001350
1002
}
  0
LINE
  5
6B6
330
687
100
AcDbEntity
  8
D35160230
100
AcDbLine
 10
3.583511524422682
 20
0.3700303865912708
 30
0.0
 11
3.587142244104053
 21
0.3686320121942259
 31
0.0
1001
REVIT
1002
{
1070
     2
1000
-2001350
1002
}
  0
LINE
  5
6B7
330
687
100
AcDbEntity
  8
D35160230
100
AcDbLine
 10
3.587142244104053
 20
0.3686320121942259
 30
0.0
 11
3.590714139535847
 21
0.3670895662848714
 31
0.0
1001
REVIT
1002
{
1070
     2
1000
-2001350
1002
}
  0
LINE
  5
6B8
330
687
100
AcDbEntity
  8
D35160230
100
AcDbLine
 10
3.590714139535847
 20
0.3670895662848714
 30
0.0
 11
3.594221496447342
 21
0.3654055164476162
 31
0.0
1001
REVIT
1002
{
1070
     2
1000
-2001350
1002
}
  0
LINE
  5
6B9
330
687
100
AcDbEntity
  8
D35160230
100
AcDbLine
 10
3.594221496447342
 20
0.3654055164476162
 30
0.0
 11
3.597658703815681
 21
0.3635825568029709
 31
0.0
1001
REVIT
1002
{
1070
     2
1000
-2001350
1002
}
  0
LINE
  5
6BA
330
687
100
AcDbEntity
  8
D35160230
100
AcDbLine
 10
3.597658703815681
 20
0.3635825568029709
 30
0.0
 11
3.601020262842296
 21
0.3616236036974704
 31
0.0
1001
REVIT
1002
{
1070
     2
1000
-2001350
1002
}
  0
LINE
  5
6BB
330
687
100
AcDbEntity
  8
D35160230
100
AcDbLine
 10
3.601020262842296
 20
0.3616236036974704
 30
0.0
 11
3.604300795749849
 21
0.359531791038222
 31
0.0
1001
REVIT
1002
{
1070
     2
1000
-2001350
1002
}
  0
LINE
  5
6BC
330
687
100
AcDbEntity
  8
D35160230
100
AcDbLine
 10
3.604300795749849
 20
0.359531791038222
 30
0.0
 11
3.607495054385505
 21
0.3573104652792302
 31
0.0
1001
REVIT
1002
{
1070
     2
1000
-2001350
1002
}
  0
LINE
  5
6BD
330
687
100
AcDbEntity
  8
D35160230
100
AcDbLine
 10
3.607495054385505
 20
0.3573104652792302
 30
0.0
 11
3.610597928616829
 21
0.3549631800678554
 31
0.0
1001
REVIT
1002
{
1070
     2
1000
-2001350
1002
}
  0
LINE
  5
6BE
330
687
100
AcDbEntity
  8
D35160230
100
AcDbLine
 10
3.610597928616829
 20
0.3549631800678554
 30
0.0
 11
3.613604454506976
 21
0.352493690559708
 31
0.0
1001
REVIT
1002
{
1070
     2
1000
-2001350
1002
}
  0
LINE
  5
6BF
330
687
100
AcDbEntity
  8
D35160230
100
AcDbLine
 10
3.613604454506976
 20
0.352493690559708
 30
0.0
 11
3.616509822255877
 21
0.3499059474112087
 31
0.0
1001
REVIT
1002
{
1070
     2
1000
-2001350
1002
}
  0
LINE
  5
6C0
330
687
100
AcDbEntity
  8
D35160230
100
AcDbLine
 10
3.616509822255877
 20
0.3499059474112087
 30
0.0
 11
3.619309383894921
 21
0.347204090459364
 31
0.0
1001
REVIT
1002
{
1070
     2
1000
-2001350
1002
}
  0
LINE
  5
6C1
330
687
100
AcDbEntity
  8
D35160230
100
AcDbLine
 10
3.619309383894921
 20
0.347204090459364
 30
0.0
 11
3.621998660722677
 21
0.3443924420989574
 31
0.0
1001
REVIT
1002
{
1070
     2
1000
-2001350
1002
}
  0
LINE
  5
6C2
330
687
100
AcDbEntity
  8
D35160230
100
AcDbLine
 10
3.621998660722677
 20
0.3443924420989574
 30
0.0
 11
3.624573350469926
 21
0.3414755003675473
 31
0.0
1001
REVIT
1002
{
1070
     2
1000
-2001350
1002
}
  0
LINE
  5
6C3
330
687
100
AcDbEntity
  8
D35160230
100
AcDbLine
 10
3.624573350469926
 20
0.3414755003675473
 30
0.0
 11
3.627029334182285
 21
0.3384579317496658
 31
0.0
1001
REVIT
1002
{
1070
     2
1000
-2001350
1002
}
  0
LINE
  5
6C4
330
687
100
AcDbEntity
  8
D35160230
100
AcDbLine
 10
3.627029334182285
 20
0.3384579317496658
 30
0.0
 11
3.628679087924755
 21
0.3362838523892648
 31
0.0
1001
REVIT
1002
{
1070
     2
1000
-2001350
1002
}
  0
LINE
  5
6C5
330
687
100
AcDbEntity
  8
D35160230
100
AcDbLine
 10
3.628679087924755
 20
-0.3403556097133701
 30
0.0
 11
3.626308724571454
 21
-0.3434408899165823
 31
0.0
1001
REVIT
1002
{
1070
     2
1000
-2001350
1002
}
  0
LINE
  5
6C6
330
687
100
AcDbEntity
  8
D35160230
100
AcDbLine
 10
3.626308724571454
 20
-0.3434408899165823
 30
0.0
 11
3.623816878954908
 21
-0.3464289129724242
 31
0.0
1001
REVIT
1002
{
1070
     2
1000
-2001350
1002
}
  0
LINE
  5
6C7
330
687
100
AcDbEntity
  8
D35160230
100
AcDbLine
 10
3.623816878954908
 20
-0.3464289129724242
 30
0.0
 11
3.621207537496526
 21
-0.3493148986814276
 31
0.0
1001
REVIT
1002
{
1070
     2
1000
-2001350
1002
}
  0
LINE
  5
6C8
330
687
100
AcDbEntity
  8
D35160230
100
AcDbLine
 10
3.621207537496526
 20
-0.3493148986814276
 30
0.0
 11
3.61848487458604
 21
-0.3520942300821019
 31
0.0
1001
REVIT
1002
{
1070
     2
1000
-2001350
1002
}
  0
LINE
  5
6C9
330
687
100
AcDbEntity
  8
D35160230
100
AcDbLine
 10
3.61848487458604
 20
-0.3520942300821019
 30
0.0
 11
3.615653245903267
 21
-0.3547624608370902
 31
0.0
1001
REVIT
1002
{
1070
     2
1000
-2001350
1002
}
  0
LINE
  5
6CA
330
687
100
AcDbEntity
  8
D35160230
100
AcDbLine
 10
3.615653245903267
 20
-0.3547624608370902
 30
0.0
 11
3.612717181450072
 21
-0.3573153223463911
 31
0.0
1001
REVIT
1002
{
1070
     2
1000
-2001350
1002
}
  0
LINE
  5
6CB
330
687
100
AcDbEntity
  8
D35160230
100
AcDbLine
 10
3.612717181450072
 20
-0.3573153223463911
 30
0.0
 11
3.609681378303253
 21
-0.3597487305761681
 31
0.0
1001
REVIT
1002
{
1070
     2
1000
-2001350
1002
}
  0
LINE
  5
6CC
330
687
100
AcDbEntity
  8
D35160230
100
AcDbLine
 10
3.609681378303253
 20
-0.3597487305761681
 30
0.0
 11
3.606550693100227
 21
-0.3620587925923395
 31
0.0
1001
REVIT
1002
{
1070
     2
1000
-2001350
1002
}
  0
LINE
  5
6CD
330
687
100
AcDbEntity
  8
D35160230
100
AcDbLine
 10
3.606550693100227
 20
-0.3620587925923395
 30
0.0
 11
3.603330134269494
 21
-0.3642418127884816
 31
0.0
1001
REVIT
1002
{
1070
     2
1000
-2001350
1002
}
  0
LINE
  5
6CE
330
687
100
AcDbEntity
  8
D35160230
100
AcDbLine
 10
3.603330134269494
 20
-0.3642418127884816
 30
0.0
 11
3.600024854018151
 21
-0.3662942987979427
 31
0.0
1001
REVIT
1002
{
1070
     2
1000
-2001350
1002
}
  0
LINE
  5
6CF
330
687
100
AcDbEntity
  8
D35160230
100
AcDbLine
 10
3.600024854018151
 20
-0.3662942987979427
 30
0.0
 11
3.596640140089529
 21
-0.3682129670809786
 31
0.0
1001
REVIT
1002
{
1070
     2
1000
-2001350
1002
}
  0
LINE
  5
6D0
330
687
100
AcDbEntity
  8
D35160230
100
AcDbLine
 10
3.596640140089529
 20
-0.3682129670809786
 30
0.0
 11
3.593181407303859
 21
-0.3699947481776177
 31
0.0
1001
REVIT
1002
{
1070
     2
1000
-2001350
1002
}
  0
LINE
  5
6D1
330
687
100
AcDbEntity
  8
D35160230
100
AcDbLine
 10
3.593181407303859
 20
-0.3699947481776177
 30
0.0
 11
3.589654188895788
 21
-0.3716367916181972
 31
0.0
1001
REVIT
1002
{
1070
     2
1000
-2001350
1002
}
  0
LINE
  5
6D2
330
687
100
AcDbEntity
  8
D35160230
100
AcDbLine
 10
3.589654188895788
 20
-0.3716367916181972
 30
0.0
 11
3.586064127662332
 21
-0.3731364704834909
 31
0.0
1001
REVIT
1002
{
1070
     2
1000
-2001350
1002
}
  0
LINE
  5
6D3
330
687
100
AcDbEntity
  8
D35160230
100
AcDbLine
 10
3.586064127662332
 20
-0.3731364704834909
 30
0.0
 11
3.582416966935635
 21
-0.3744913856072358
 31
0.0
1001
REVIT
1002
{
1070
     2
1000
-2001350
1002
}
  0
LINE
  5
6D4
330
687
100
AcDbEntity
  8
D35160230
100
AcDbLine
 10
3.582416966935635
 20
-0.3744913856072358
 30
0.0
 11
3.578718541394816
 21
-0.3756993694142671
 31
0.0
1001
REVIT
1002
{
1070
     2
1000
-2001350
1002
}
  0
LINE
  5
6D5
330
687
100
AcDbEntity
  8
D35160230
100
AcDbLine
 10
3.578718541394816
 20
-0.3756993694142671
 30
0.0
 11
3.574974767731812
 21
-0.3767584893881874
 31
0.0
1001
REVIT
1002
{
1070
     2
1000
-2001350
1002
}
  0
LINE
  5
6D6
330
687
100
AcDbEntity
  8
D35160230
100
AcDbLine
 10
3.574974767731812
 20
-0.3767584893881874
 30
0.0
 11
3.57119163518585
 21
-0.3776670511629625
 31
0.0
1001
REVIT
1002
{
1070
     2
1000
-2001350
1002
}
  0
LINE
  5
6D7
330
687
100
AcDbEntity
  8
D35160230
100
AcDbLine
 10
3.57119163518585
 20
-0.3776670511629625
 30
0.0
 11
3.56737519596195
 21
-0.3784236012335746
 31
0.0
1001
REVIT
1002
{
1070
     2
1000
-2001350
1002
}
  0
LINE
  5
6D8
330
687
100
AcDbEntity
  8
D35160230
100
AcDbLine
 10
3.56737519596195
 20
-0.3784236012335746
 30
0.0
 11
3.56353155554878
 21
-0.379026929281288
 31
0.0
1001
REVIT
1002
{
1070
     2
1000
-2001350
1002
}
  0
LINE
  5
6D9
330
687
100
AcDbEntity
  8
D35160230
100
AcDbLine
 10
3.56353155554878
 20
-0.379026929281288
 30
0.0
 11
3.559666862951039
 21
-0.3794760701099448
 31
0.0
1001
REVIT
1002
{
1070
     2
1000
-2001350
1002
}
  0
LINE
  5
6DA
330
687
100
AcDbEntity
  8
D35160230
100
AcDbLine
 10
3.559666862951039
 20
-0.3794760701099448
 30
0.0
 11
3.555787300852478
 21
-0.379770305190032
 31
0.0
1001
REVIT
1002
{
1070
     2
1000
-2001350
1002
}
  0
LINE
  5
6DB
330
687
100
AcDbEntity
  8
D35160230
100
AcDbLine
 10
3.555787300852478
 20
-0.379770305190032
 30
0.0
 11
3.55189907572485
 21
-0.3799091638081719
 31
0.0
1001
REVIT
1002
{
1070
     2
1000
-2001350
1002
}
  0
LINE
  5
6DC
330
687
100
AcDbEntity
  8
D35160230
100
AcDbLine
 10
3.55189907572485
 20
-0.3799091638081719
 30
0.0
 11
3.548008407898911
 21
-0.3798924238202054
 31
0.0
1001
REVIT
1002
{
1070
     2
1000
-2001350
1002
}
  0
LINE
  5
6DD
330
687
100
AcDbEntity
  8
D35160230
100
AcDbLine
 10
3.548008407898911
 20
-0.3798924238202054
 30
0.0
 11
3.545281253674651
 21
-0.3797878374291059
 31
0.0
1001
REVIT
1002
{
1070
     2
1000
-2001350
1002
}
  0
LINE
  5
6DE
330
687
100
AcDbEntity
  8
D35160230
100
AcDbLine
 10
-2.865387351937268
 20
0.3363658104055318
 30
0.0
 11
-3.616235226773134
 21
0.3757160801050751
 31
0.0
1001
REVIT
1002
{
1070
     2
1000
-2001350
1002
}
  0
LINE
  5
6DF
330
687
100
AcDbEntity
  8
D35160230
100
AcDbLine
 10
-3.616235226773134
 20
-0.3797878374291805
 30
0.0
 11
-2.865387351937268
 21
-0.3404375677296265
 31
0.0
1001
REVIT
1002
{
1070
     2
1000
-2001350
1002
}
  0
LINE
  5
6E0
330
687
100
AcDbEntity
  8
D35160230
100
AcDbLine
 10
-3.699633061023237
 20
0.3362838523892754
 30
0.0
 11
-3.697262697669937
 21
0.339369132592477
 31
0.0
1001
REVIT
1002
{
1070
     2
1000
-2001350
1002
}
  0
LINE
  5
6E1
330
687
100
AcDbEntity
  8
D35160230
100
AcDbLine
 10
-3.697262697669937
 20
0.339369132592477
 30
0.0
 11
-3.694770852053391
 21
0.3423571556483189
 31
0.0
1001
REVIT
1002
{
1070
     2
1000
-2001350
1002
}
  0
LINE
  5
6E2
330
687
100
AcDbEntity
  8
D35160230
100
AcDbLine
 10
-3.694770852053391
 20
0.3423571556483189
 30
0.0
 11
-3.692161510595009
 21
0.3452431413573329
 31
0.0
1001
REVIT
1002
{
1070
     2
1000
-2001350
1002
}
  0
LINE
  5
6E3
330
687
100
AcDbEntity
  8
D35160230
100
AcDbLine
 10
-3.692161510595009
 20
0.3452431413573329
 30
0.0
 11
-3.689438847684523
 21
0.3480224727580072
 31
0.0
1001
REVIT
1002
{
1070
     2
1000
-2001350
1002
}
  0
LINE
  5
6E4
330
687
100
AcDbEntity
  8
D35160230
100
AcDbLine
 10
-3.689438847684523
 20
0.3480224727580072
 30
0.0
 11
-3.68660721900175
 21
0.3506907035129955
 31
0.0
1001
REVIT
1002
{
1070
     2
1000
-2001350
1002
}
  0
LINE
  5
6E5
330
687
100
AcDbEntity
  8
D35160230
100
AcDbLine
 10
-3.68660721900175
 20
0.3506907035129955
 30
0.0
 11
-3.683671154548555
 21
0.3532435650222964
 31
0.0
1001
REVIT
1002
{
1070
     2
1000
-2001350
1002
}
  0
LINE
  5
6E6
330
687
100
AcDbEntity
  8
D35160230
100
AcDbLine
 10
-3.683671154548555
 20
0.3532435650222964
 30
0.0
 11
-3.680635351401736
 21
0.3556769732520628
 31
0.0
1001
REVIT
1002
{
1070
     2
1000
-2001350
1002
}
  0
LINE
  5
6E7
330
687
100
AcDbEntity
  8
D35160230
100
AcDbLine
 10
-3.680635351401736
 20
0.3556769732520628
 30
0.0
 11
-3.67750466619871
 21
0.3579870352682341
 31
0.0
1001
REVIT
1002
{
1070
     2
1000
-2001350
1002
}
  0
LINE
  5
6E8
330
687
100
AcDbEntity
  8
D35160230
100
AcDbLine
 10
-3.67750466619871
 20
0.3579870352682341
 30
0.0
 11
-3.674284107367977
 21
0.3601700554643763
 31
0.0
1001
REVIT
1002
{
1070
     2
1000
-2001350
1002
}
  0
LINE
  5
6E9
330
687
100
AcDbEntity
  8
D35160230
100
AcDbLine
 10
-3.674284107367977
 20
0.3601700554643763
 30
0.0
 11
-3.670978827116634
 21
0.362222541473848
 31
0.0
1001
REVIT
1002
{
1070
     2
1000
-2001350
1002
}
  0
LINE
  5
6EA
330
687
100
AcDbEntity
  8
D35160230
100
AcDbLine
 10
-3.670978827116634
 20
0.362222541473848
 30
0.0
 11
-3.667594113188012
 21
0.3641412097568839
 31
0.0
1001
REVIT
1002
{
1070
     2
1000
-2001350
1002
}
  0
LINE
  5
6EB
330
687
100
AcDbEntity
  8
D35160230
100
AcDbLine
 10
-3.667594113188012
 20
0.3641412097568839
 30
0.0
 11
-3.664135380402341
 21
0.365922990853523
 31
0.0
1001
REVIT
1002
{
1070
     2
1000
-2001350
1002
}
  0
LINE
  5
6EC
330
687
100
AcDbEntity
  8
D35160230
100
AcDbLine
 10
-3.664135380402341
 20
0.365922990853523
 30
0.0
 11
-3.660608161994271
 21
0.3675650342941025
 31
0.0
1001
REVIT
1002
{
1070
     2
1000
-2001350
1002
}
  0
LINE
  5
6ED
330
687
100
AcDbEntity
  8
D35160230
100
AcDbLine
 10
-3.660608161994271
 20
0.3675650342941025
 30
0.0
 11
-3.657018100760815
 21
0.3690647131593962
 31
0.0
1001
REVIT
1002
{
1070
     2
1000
-2001350
1002
}
  0
LINE
  5
6EE
330
687
100
AcDbEntity
  8
D35160230
100
AcDbLine
 10
-3.657018100760815
 20
0.3690647131593962
 30
0.0
 11
-3.653370940034118
 21
0.3704196282831411
 31
0.0
1001
REVIT
1002
{
1070
     2
1000
-2001350
1002
}
  0
LINE
  5
6EF
330
687
100
AcDbEntity
  8
D35160230
100
AcDbLine
 10
-3.653370940034118
 20
0.3704196282831411
 30
0.0
 11
-3.649672514493299
 21
0.3716276120901724
 31
0.0
1001
REVIT
1002
{
1070
     2
1000
-2001350
1002
}
  0
LINE
  5
6F0
330
687
100
AcDbEntity
  8
D35160230
100
AcDbLine
 10
-3.649672514493299
 20
0.3716276120901724
 30
0.0
 11
-3.645928740830295
 21
0.3726867320640927
 31
0.0
1001
REVIT
1002
{
1070
     2
1000
-2001350
1002
}
  0
LINE
  5
6F1
330
687
100
AcDbEntity
  8
D35160230
100
AcDbLine
 10
-3.645928740830295
 20
0.3726867320640927
 30
0.0
 11
-3.642145608284323
 21
0.3735952938388571
 31
0.0
1001
REVIT
1002
{
1070
     2
1000
-2001350
1002
}
  0
LINE
  5
6F2
330
687
100
AcDbEntity
  8
D35160230
100
AcDbLine
 10
-3.642145608284323
 20
0.3735952938388571
 30
0.0
 11
-3.638329169060433
 21
0.3743518439094799
 31
0.0
1001
REVIT
1002
{
1070
     2
1000
-2001350
1002
}
  0
LINE
  5
6F3
330
687
100
AcDbEntity
  8
D35160230
100
AcDbLine
 10
-3.638329169060433
 20
0.3743518439094799
 30
0.0
 11
-3.634485528647263
 21
0.3749551719571933
 31
0.0
1001
REVIT
1002
{
1070
     2
1000
-2001350
1002
}
  0
LINE
  5
6F4
330
687
100
AcDbEntity
  8
D35160230
100
AcDbLine
 10
-3.634485528647263
 20
0.3749551719571933
 30
0.0
 11
-3.630620836049522
 21
0.3754043127858501
 31
0.0
1001
REVIT
1002
{
1070
     2
1000
-2001350
1002
}
  0
LINE
  5
6F5
330
687
100
AcDbEntity
  8
D35160230
100
AcDbLine
 10
-3.630620836049522
 20
0.3754043127858501
 30
0.0
 11
-3.626741273950961
 21
0.3756985478659373
 31
0.0
1001
REVIT
1002
{
1070
     2
1000
-2001350
1002
}
  0
LINE
  5
6F6
330
687
100
AcDbEntity
  8
D35160230
100
AcDbLine
 10
-3.626741273950961
 20
0.3756985478659373
 30
0.0
 11
-3.622853048823333
 21
0.3758374064840772
 31
0.0
1001
REVIT
1002
{
1070
     2
1000
-2001350
1002
}
  0
LINE
  5
6F7
330
687
100
AcDbEntity
  8
D35160230
100
AcDbLine
 10
-3.622853048823333
 20
0.3758374064840772
 30
0.0
 11
-3.618962380997394
 21
0.3758206664961107
 31
0.0
1001
REVIT
1002
{
1070
     2
1000
-2001350
1002
}
  0
LINE
  5
6F8
330
687
100
AcDbEntity
  8
D35160230
100
AcDbLine
 10
-3.618962380997394
 20
0.3758206664961107
 30
0.0
 11
-3.616235226773134
 21
0.3757160801050005
 31
0.0
1001
REVIT
1002
{
1070
     2
1000
-2001350
1002
}
  0
LINE
  5
6F9
330
687
100
AcDbEntity
  8
D35160230
100
AcDbLine
 10
-3.616235226773134
 20
-0.3797878374291059
 30
0.0
 11
-3.62012389369142
 21
-0.3799137181566756
 31
0.0
1001
REVIT
1002
{
1070
     2
1000
-2001350
1002
}
  0
LINE
  5
6FA
330
687
100
AcDbEntity
  8
D35160230
100
AcDbLine
 10
-3.62012389369142
 20
-0.3799137181566756
 30
0.0
 11
-3.624014483977421
 21
-0.3798839929921591
 31
0.0
1001
REVIT
1002
{
1070
     2
1000
-2001350
1002
}
  0
LINE
  5
6FB
330
687
100
AcDbEntity
  8
D35160230
100
AcDbLine
 10
-3.624014483977421
 20
-0.3798839929921591
 30
0.0
 11
-3.627900773516635
 21
-0.3796987094894745
 31
0.0
1001
REVIT
1002
{
1070
     2
1000
-2001350
1002
}
  0
LINE
  5
6FC
330
687
100
AcDbEntity
  8
D35160230
100
AcDbLine
 10
-3.627900773516635
 20
-0.3796987094894745
 30
0.0
 11
-3.631776545074834
 21
-0.3793581640626939
 31
0.0
1001
REVIT
1002
{
1070
     2
1000
-2001350
1002
}
  0
LINE
  5
6FD
330
687
100
AcDbEntity
  8
D35160230
100
AcDbLine
 10
-3.631776545074834
 20
-0.3793581640626939
 30
0.0
 11
-3.635635598244291
 21
-0.3788629015118623
 31
0.0
1001
REVIT
1002
{
1070
     2
1000
-2001350
1002
}
  0
LINE
  5
6FE
330
687
100
AcDbEntity
  8
D35160230
100
AcDbLine
 10
-3.635635598244291
 20
-0.3788629015118623
 30
0.0
 11
-3.639471759363167
 21
-0.378213714151407
 31
0.0
1001
REVIT
1002
{
1070
     2
1000
-2001350
1002
}
  0
LINE
  5
6FF
330
687
100
AcDbEntity
  8
D35160230
100
AcDbLine
 10
-3.639471759363167
 20
-0.378213714151407
 30
0.0
 11
-3.64327889139201
 21
-0.3774116405426184
 31
0.0
1001
REVIT
1002
{
1070
     2
1000
-2001350
1002
}
  0
LINE
  5
700
330
687
100
AcDbEntity
  8
D35160230
100
AcDbLine
 10
-3.64327889139201
 20
-0.3774116405426184
 30
0.0
 11
-3.647050903731723
 21
-0.3764579638321734
 31
0.0
1001
REVIT
1002
{
1070
     2
1000
-2001350
1002
}
  0
LINE
  5
701
330
687
100
AcDbEntity
  8
D35160230
100
AcDbLine
 10
-3.647050903731723
 20
-0.3764579638321734
 30
0.0
 11
-3.650781761967216
 21
-0.3753542096993776
 31
0.0
1001
REVIT
1002
{
1070
     2
1000
-2001350
1002
}
  0
LINE
  5
702
330
687
100
AcDbEntity
  8
D35160230
100
AcDbLine
 10
-3.650781761967216
 20
-0.3753542096993776
 30
0.0
 11
-3.654465497521165
 21
-0.3741021439153762
 31
0.0
1001
REVIT
1002
{
1070
     2
1000
-2001350
1002
}
  0
LINE
  5
703
330
687
100
AcDbEntity
  8
D35160230
100
AcDbLine
 10
-3.654465497521165
 20
-0.3741021439153762
 30
0.0
 11
-3.658096217202536
 21
-0.3727037695183312
 31
0.0
1001
REVIT
1002
{
1070
     2
1000
-2001350
1002
}
  0
LINE
  5
704
330
687
100
AcDbEntity
  8
D35160230
100
AcDbLine
 10
-3.658096217202536
 20
-0.3727037695183312
 30
0.0
 11
-3.66166811263433
 21
-0.3711613236089661
 31
0.0
1001
REVIT
1002
{
1070
     2
1000
-2001350
1002
}
  0
LINE
  5
705
330
687
100
AcDbEntity
  8
D35160230
100
AcDbLine
 10
-3.66166811263433
 20
-0.3711613236089661
 30
0.0
 11
-3.665175469545825
 21
-0.3694772737717215
 31
0.0
1001
REVIT
1002
{
1070
     2
1000
-2001350
1002
}
  0
LINE
  5
706
330
687
100
AcDbEntity
  8
D35160230
100
AcDbLine
 10
-3.665175469545825
 20
-0.3694772737717215
 30
0.0
 11
-3.668612676914164
 21
-0.3676543141270656
 31
0.0
1001
REVIT
1002
{
1070
     2
1000
-2001350
1002
}
  0
LINE
  5
707
330
687
100
AcDbEntity
  8
D35160230
100
AcDbLine
 10
-3.668612676914164
 20
-0.3676543141270656
 30
0.0
 11
-3.671974235940779
 21
-0.3656953610215758
 31
0.0
1001
REVIT
1002
{
1070
     2
1000
-2001350
1002
}
  0
LINE
  5
708
330
687
100
AcDbEntity
  8
D35160230
100
AcDbLine
 10
-3.671974235940779
 20
-0.3656953610215758
 30
0.0
 11
-3.675254768848332
 21
-0.3636035483623274
 31
0.0
1001
REVIT
1002
{
1070
     2
1000
-2001350
1002
}
  0
LINE
  5
709
330
687
100
AcDbEntity
  8
D35160230
100
AcDbLine
 10
-3.675254768848332
 20
-0.3636035483623274
 30
0.0
 11
-3.678449027483988
 21
-0.3613822226033249
 31
0.0
1001
REVIT
1002
{
1070
     2
1000
-2001350
1002
}
  0
LINE
  5
70A
330
687
100
AcDbEntity
  8
D35160230
100
AcDbLine
 10
-3.678449027483988
 20
-0.3613822226033249
 30
0.0
 11
-3.681551901715312
 21
-0.3590349373919501
 31
0.0
1001
REVIT
1002
{
1070
     2
1000
-2001350
1002
}
  0
LINE
  5
70B
330
687
100
AcDbEntity
  8
D35160230
100
AcDbLine
 10
-3.681551901715312
 20
-0.3590349373919501
 30
0.0
 11
-3.684558427605459
 21
-0.3565654478838133
 31
0.0
1001
REVIT
1002
{
1070
     2
1000
-2001350
1002
}
  0
LINE
  5
70C
330
687
100
AcDbEntity
  8
D35160230
100
AcDbLine
 10
-3.684558427605459
 20
-0.3565654478838133
 30
0.0
 11
-3.68746379535436
 21
-0.3539777047353034
 31
0.0
1001
REVIT
1002
{
1070
     2
1000
-2001350
1002
}
  0
LINE
  5
70D
330
687
100
AcDbEntity
  8
D35160230
100
AcDbLine
 10
-3.68746379535436
 20
-0.3539777047353034
 30
0.0
 11
-3.690263356993404
 21
-0.3512758477834694
 31
0.0
1001
REVIT
1002
{
1070
     2
1000
-2001350
1002
}
  0
LINE
  5
70E
330
687
100
AcDbEntity
  8
D35160230
100
AcDbLine
 10
-3.690263356993404
 20
-0.3512758477834694
 30
0.0
 11
-3.69295263382116
 21
-0.3484641994230521
 31
0.0
1001
REVIT
1002
{
1070
     2
1000
-2001350
1002
}
  0
LINE
  5
70F
330
687
100
AcDbEntity
  8
D35160230
100
AcDbLine
 10
-3.69295263382116
 20
-0.3484641994230521
 30
0.0
 11
-3.695527323568409
 21
-0.3455472576916527
 31
0.0
1001
REVIT
1002
{
1070
     2
1000
-2001350
1002
}
  0
LINE
  5
710
330
687
100
AcDbEntity
  8
D35160230
100
AcDbLine
 10
-3.695527323568409
 20
-0.3455472576916527
 30
0.0
 11
-3.697983307280768
 21
-0.3425296890737712
 31
0.0
1001
REVIT
1002
{
1070
     2
1000
-2001350
1002
}
  0
LINE
  5
711
330
687
100
AcDbEntity
  8
D35160230
100
AcDbLine
 10
-3.697983307280768
 20
-0.3425296890737712
 30
0.0
 11
-3.699633061023237
 21
-0.3403556097133701
 31
0.0
1001
REVIT
1002
{
1070
     2
1000
-2001350
1002
}
  0
LINE
  5
712
330
687
100
AcDbEntity
  8
D35160230
100
AcDbLine
 10
-3.810829263374955
 20
-0.0020358786606778
 30
0.0
 11
-3.810373104175016
 21
0.0207690401937875
 31
0.0
1001
REVIT
1002
{
1070
     2
1000
-2001350
1002
}
  0
LINE
  5
713
330
687
100
AcDbEntity
  8
D35160230
100
AcDbLine
 10
-3.810373104175016
 20
0.0207690401937875
 30
0.0
 11
-3.809005356332533
 21
0.0435374760442215
 31
0.0
1001
REVIT
1002
{
1070
     2
1000
-2001350
1002
}
  0
LINE
  5
714
330
687
100
AcDbEntity
  8
D35160230
100
AcDbLine
 10
-3.809005356332533
 20
0.0435374760442215
 30
0.0
 11
-3.806728207952307
 21
0.0662330042489323
 31
0.0
1001
REVIT
1002
{
1070
     2
1000
-2001350
1002
}
  0
LINE
  5
715
330
687
100
AcDbEntity
  8
D35160230
100
AcDbLine
 10
-3.806728207952307
 20
0.0662330042489323
 30
0.0
 11
-3.803545301985984
 21
0.0888193168042442
 31
0.0
1001
REVIT
1002
{
1070
     2
1000
-2001350
1002
}
  0
LINE
  5
716
330
687
100
AcDbEntity
  8
D35160230
100
AcDbLine
 10
-3.803545301985984
 20
0.0888193168042442
 30
0.0
 11
-3.799461730404121
 21
0.1112602804282012
 31
0.0
1001
REVIT
1002
{
1070
     2
1000
-2001350
1002
}
  0
LINE
  5
717
330
687
100
AcDbEntity
  8
D35160230
100
AcDbLine
 10
-3.799461730404121
 20
0.1112602804282012
 30
0.0
 11
-3.794484026050138
 21
0.1335199943661891
 31
0.0
1001
REVIT
1002
{
1070
     2
1000
-2001350
1002
}
  0
LINE
  5
718
330
687
100
AcDbEntity
  8
D35160230
100
AcDbLine
 10
-3.794484026050138
 20
0.1335199943661891
 30
0.0
 11
-3.788620152189142
 21
0.1555628478243633
 31
0.0
1001
REVIT
1002
{
1070
     2
1000
-2001350
1002
}
  0
LINE
  5
719
330
687
100
AcDbEntity
  8
D35160230
100
AcDbLine
 10
-3.788620152189142
 20
0.1555628478243633
 30
0.0
 11
-3.781879489768438
 21
0.1773535769394278
 31
0.0
1001
REVIT
1002
{
1070
     2
1000
-2001350
1002
}
  0
LINE
  5
71A
330
687
100
AcDbEntity
  8
D35160230
100
AcDbLine
 10
-3.781879489768438
 20
0.1773535769394278
 30
0.0
 11
-3.774272822409936
 21
0.1988573211932411
 31
0.0
1001
REVIT
1002
{
1070
     2
1000
-2001350
1002
}
  0
LINE
  5
71B
330
687
100
AcDbEntity
  8
D35160230
100
AcDbLine
 10
-3.774272822409936
 20
0.1988573211932411
 30
0.0
 11
-3.765812319158758
 21
0.2200396791822214
 31
0.0
1001
REVIT
1002
{
1070
     2
1000
-2001350
1002
}
  0
LINE
  5
71C
330
687
100
AcDbEntity
  8
D35160230
100
AcDbLine
 10
-3.765812319158758
 20
0.2200396791822214
 30
0.0
 11
-3.756511515015297
 21
0.2408667636522459
 31
0.0
1001
REVIT
1002
{
1070
     2
1000
-2001350
1002
}
  0
LINE
  5
71D
330
687
100
AcDbEntity
  8
D35160230
100
AcDbLine
 10
-3.756511515015297
 20
0.2408667636522459
 30
0.0
 11
-3.746385289282123
 21
0.2613052557110293
 31
0.0
1001
REVIT
1002
{
1070
     2
1000
-2001350
1002
}
  0
LINE
  5
71E
330
687
100
AcDbEntity
  8
D35160230
100
AcDbLine
 10
-3.746385289282123
 20
0.2613052557110293
 30
0.0
 11
-3.735449841760235
 21
0.2813224581312567
 31
0.0
1001
REVIT
1002
{
1070
     2
1000
-2001350
1002
}
  0
LINE
  5
71F
330
687
100
AcDbEntity
  8
D35160230
100
AcDbLine
 10
-3.735449841760235
 20
0.2813224581312567
 30
0.0
 11
-3.723722666832919
 21
0.3008863476591727
 31
0.0
1001
REVIT
1002
{
1070
     2
1000
-2001350
1002
}
  0
LINE
  5
720
330
687
100
AcDbEntity
  8
D35160230
100
AcDbLine
 10
-3.723722666832919
 20
0.3008863476591727
 30
0.0
 11
-3.711222525478397
 21
0.3199656262449401
 31
0.0
1001
REVIT
1002
{
1070
     2
1000
-2001350
1002
}
  0
LINE
  5
721
330
687
100
AcDbEntity
  8
D35160230
100
AcDbLine
 10
-3.711222525478397
 20
0.3199656262449401
 30
0.0
 11
-3.699633061023237
 21
0.3362838523892754
 31
0.0
1001
REVIT
1002
{
1070
     2
1000
-2001350
1002
}
  0
LINE
  5
722
330
687
100
AcDbEntity
  8
D35160230
100
AcDbLine
 10
-3.699633061023237
 20
-0.3403556097133701
 30
0.0
 11
-3.712795027711794
 21
-0.3217267332543549
 31
0.0
1001
REVIT
1002
{
1070
     2
1000
-2001350
1002
}
  0
LINE
  5
723
330
687
100
AcDbEntity
  8
D35160230
100
AcDbLine
 10
-3.712795027711794
 20
-0.3217267332543549
 30
0.0
 11
-3.725201509864642
 21
-0.3025864196250722
 31
0.0
1001
REVIT
1002
{
1070
     2
1000
-2001350
1002
}
  0
LINE
  5
724
330
687
100
AcDbEntity
  8
D35160230
100
AcDbLine
 10
-3.725201509864642
 20
-0.3025864196250722
 30
0.0
 11
-3.736832659756877
 21
-0.2829652892442666
 31
0.0
1001
REVIT
1002
{
1070
     2
1000
-2001350
1002
}
  0
LINE
  5
725
330
687
100
AcDbEntity
  8
D35160230
100
AcDbLine
 10
-3.736832659756877
 20
-0.2829652892442666
 30
0.0
 11
-3.747669870029891
 21
-0.2628947317349457
 31
0.0
1001
REVIT
1002
{
1070
     2
1000
-2001350
1002
}
  0
LINE
  5
726
330
687
100
AcDbEntity
  8
D35160230
100
AcDbLine
 10
-3.747669870029891
 20
-0.2628947317349457
 30
0.0
 11
-3.757695803459035
 21
-0.2424068557076211
 31
0.0
1001
REVIT
1002
{
1070
     2
1000
-2001350
1002
}
  0
LINE
  5
727
330
687
100
AcDbEntity
  8
D35160230
100
AcDbLine
 10
-3.757695803459035
 20
-0.2424068557076211
 30
0.0
 11
-3.766894420689581
 21
-0.2215344373934406
 31
0.0
1001
REVIT
1002
{
1070
     2
1000
-2001350
1002
}
  0
LINE
  5
728
330
687
100
AcDbEntity
  8
D35160230
100
AcDbLine
 10
-3.766894420689581
 20
-0.2215344373934406
 30
0.0
 11
-3.775251005896222
 21
-0.2003108682091507
 31
0.0
1001
REVIT
1002
{
1070
     2
1000
-2001350
1002
}
  0
LINE
  5
729
330
687
100
AcDbEntity
  8
D35160230
100
AcDbLine
 10
-3.775251005896222
 20
-0.2003108682091507
 30
0.0
 11
-3.782752190325282
 21
-0.1787701013379923
 31
0.0
1001
REVIT
1002
{
1070
     2
1000
-2001350
1002
}
  0
LINE
  5
72A
330
687
100
AcDbEntity
  8
D35160230
100
AcDbLine
 10
-3.782752190325282
 20
-0.1787701013379923
 30
0.0
 11
-3.789385973681827
 21
-0.1569465974118387
 31
0.0
1001
REVIT
1002
{
1070
     2
1000
-2001350
1002
}
  0
LINE
  5
72B
330
687
100
AcDbEntity
  8
D35160230
100
AcDbLine
 10
-3.789385973681827
 20
-0.1569465974118387
 30
0.0
 11
-3.795141743327632
 21
-0.1348752693815456
 31
0.0
1001
REVIT
1002
{
1070
     2
1000
-2001350
1002
}
  0
LINE
  5
72C
330
687
100
AcDbEntity
  8
D35160230
100
AcDbLine
 10
-3.795141743327632
 20
-0.1348752693815456
 30
0.0
 11
-3.800010291259091
 21
-0.1125914266636556
 31
0.0
1001
REVIT
1002
{
1070
     2
1000
-2001350
1002
}
  0
LINE
  5
72D
330
687
100
AcDbEntity
  8
D35160230
100
AcDbLine
 10
-3.800010291259091
 20
-0.1125914266636556
 30
0.0
 11
-3.803983828838084
 21
-0.090130718652901
 31
0.0
1001
REVIT
1002
{
1070
     2
1000
-2001350
1002
}
  0
LINE
  5
72E
330
687
100
AcDbEntity
  8
D35160230
100
AcDbLine
 10
-3.803983828838084
 20
-0.090130718652901
 30
0.0
 11
-3.807055999252117
 21
-0.0675290776907147
 31
0.0
1001
REVIT
1002
{
1070
     2
1000
-2001350
1002
}
  0
LINE
  5
72F
330
687
100
AcDbEntity
  8
D35160230
100
AcDbLine
 10
-3.807055999252117
 20
-0.0675290776907147
 30
0.0
 11
-3.809221887683889
 21
-0.0448226615812288
 31
0.0
1001
REVIT
1002
{
1070
     2
1000
-2001350
1002
}
  0
LINE
  5
730
330
687
100
AcDbEntity
  8
D35160230
100
AcDbLine
 10
-3.809221887683889
 20
-0.0448226615812288
 30
0.0
 11
-3.810478029173967
 21
-0.0220477957464205
 31
0.0
1001
REVIT
1002
{
1070
     2
1000
-2001350
1002
}
  0
LINE
  5
731
330
687
100
AcDbEntity
  8
D35160230
100
AcDbLine
 10
-3.810478029173967
 20
-0.0220477957464205
 30
0.0
 11
-3.810829263374987
 21
-0.0020358786620633
 31
0.0
1001
REVIT
1002
{
1070
     2
1000
-2001350
1002
}
  0
ARC
  5
732
330
687
100
AcDbEntity
  8
D35160230
100
AcDbCircle
 10
-3.285476986549284
 20
-0.002035878662001
 30
0.0
 40
0.8565775013448867
100
AcDbArc
 50
23.12524918505027
 51
336.8991835369241
1001
REVIT
1002
{
1070
     2
1000
-2001350
1002
}
  0
ARC
  5
733
330
687
100
AcDbEntity
  8
D35160230
100
AcDbCircle
 10
-2.748598741341407
 20
-0.3120026780552145
 30
0.0
 40
1.417819731730973
100
AcDbArc
 50
132.6281181784404
 51
167.3718818215336
1001
REVIT
1002
{
1070
     2
1000
-2001350
1002
}
  0
ARC
  5
734
330
687
100
AcDbEntity
  8
D35160230
100
AcDbCircle
 10
-3.285476986548795
 20
-0.6221256169461205
 30
0.0
 40
1.417968749999967
100
AcDbArc
 50
72.63000190775585
 51
107.3699980922437
1001
REVIT
1002
{
1070
     2
1000
-2001350
1002
}
  0
ARC
  5
735
330
687
100
AcDbEntity
  8
D35160230
100
AcDbCircle
 10
-3.822490452528327
 20
-0.3120807478043814
 30
0.0
 40
1.417968749999968
100
AcDbArc
 50
27.2267942222561
 51
47.36999809224292
1001
REVIT
1002
{
1070
     2
1000
-2001350
1002
}
  0
ARC
  5
736
330
687
100
AcDbEntity
  8
D35160230
100
AcDbCircle
 10
-3.822490452528321
 20
0.3080089904790758
 30
0.0
 40
1.417968749999966
100
AcDbArc
 50
312.6300019077553
 51
332.7732057777994
1001
REVIT
1002
{
1070
     2
1000
-2001350
1002
}
  0
ARC
  5
737
330
687
100
AcDbEntity
  8
D35160230
100
AcDbCircle
 10
-3.285476986548801
 20
0.6180538596208024
 30
0.0
 40
1.417968749999965
100
AcDbArc
 50
252.6300019077549
 51
287.3699980922428
1001
REVIT
1002
{
1070
     2
1000
-2001350
1002
}
  0
ARC
  5
738
330
687
100
AcDbEntity
  8
D35160230
100
AcDbCircle
 10
-2.748463520569271
 20
0.3080089904790642
 30
0.0
 40
1.417968749999967
100
AcDbArc
 50
192.630001907728
 51
227.3699980922426
1001
REVIT
1002
{
1070
     2
1000
-2001350
1002
}
  0
ARC
  5
739
330
687
100
AcDbEntity
  8
D35160230
100
AcDbCircle
 10
-3.285476986549288
 20
-0.0020358786619961
 30
0.0
 40
1.000000000000003
100
AcDbArc
 50
19.72991147313528
 51
340.336930307709
1001
REVIT
1002
{
1070
     2
1000
-2001350
1002
}
  0
ARC
  5
73A
330
687
100
AcDbEntity
  8
D35160230
100
AcDbCircle
 10
3.214523013450713
 20
-0.0020358786619961
 30
0.0
 40
1.000000000000005
100
AcDbArc
 50
199.7299114731411
 51
160.8186357739183
1001
REVIT
1002
{
1070
     2
1000
-2001350
1002
}
  0
ARC
  5
73B
330
687
100
AcDbEntity
  8
D35160230
100
AcDbCircle
 10
3.214523013450717
 20
-0.002035878662001
 30
0.0
 40
0.8565775013448897
100
AcDbArc
 50
203.1252491850563
 51
155.6620156177409
1001
REVIT
1002
{
1070
     2
1000
-2001350
1002
}
  0
SPLINE
  5
73C
330
687
100
AcDbEntity
  8
D35160230
100
AcDbSpline
210
0.0
220
0.0
230
1.0
 70
     8
 71
     3
 72
     9
 73
     5
 74
     0
 42
0.000000001
 43
0.0000000001
 40
0.4207603854492357
 40
0.4207603854492357
 40
0.4207603854492357
 40
0.4207603854492357
 40
0.6666666666666666
 40
1.0
 40
1.0
 40
1.0
 40
1.0
 10
3.42034604611608
 20
0.3546335426441511
 30
0.0
 10
3.439751866896545
 20
0.3881109905241065
 30
0.0
 10
3.498039716137868
 20
0.4872865601198945
 30
0.0
 10
3.5789051769751
 20
0.6336978322979148
 30
0.0
 10
3.637844936107125
 20
0.731179199336853
 30
0.0
1001
REVIT
1002
{
1070
     2
1000
-2001350
1002
}
  0
ARC
  5
73D
330
687
100
AcDbEntity
  8
D35160230
100
AcDbCircle
 10
3.214523013450227
 20
-0.6221256169461205
 30
0.0
 40
1.417968749999983
100
AcDbArc
 50
72.63000190775669
 51
107.369998092245
1001
REVIT
1002
{
1070
     2
1000
-2001350
1002
}
  0
SPLINE
  5
73E
330
687
100
AcDbEntity
  8
D35160230
100
AcDbSpline
210
0.0
220
0.0
230
1.0
 70
     8
 71
     3
 72
     9
 73
     5
 74
     0
 42
0.000000001
 43
0.0000000001
 40
-1.0
 40
-1.0
 40
-1.0
 40
-1.0
 40
-0.6666666666666666
 40
-0.3762036164364224
 40
-0.3762036164364224
 40
-0.3762036164364224
 40
-0.3762036164364224
 10
2.791201090793312
 20
0.7311791993368424
 30
0.0
 10
2.846106680728285
 20
0.6314750580345706
 30
0.0
 10
2.939084460681985
 20
0.4772584827446564
 30
0.0
 10
2.997780571255981
 20
0.3729992578487766
 30
0.0
 10
3.018543743587982
 20
0.3372245531163549
 30
0.0
1001
REVIT
1002
{
1070
     2
1000
-2001350
1002
}
  0
ARC
  5
73F
330
687
100
AcDbEntity
  8
D35160230
100
AcDbCircle
 10
3.75153647942976
 20
-0.3120807478043814
 30
0.0
 40
1.417968749999982
100
AcDbArc
 50
132.6300019077569
 51
152.7732057777441
1001
REVIT
1002
{
1070
     2
1000
-2001350
1002
}
  0
ARC
  5
740
330
687
100
AcDbEntity
  8
D35160230
100
AcDbCircle
 10
3.751536479429753
 20
0.3080089904790758
 30
0.0
 40
1.417968749999985
100
AcDbArc
 50
207.2267942221993
 51
227.3699980922448
1001
REVIT
1002
{
1070
     2
1000
-2001350
1002
}
  0
SPLINE
  5
741
330
687
100
AcDbEntity
  8
D35160230
100
AcDbSpline
210
0.0
220
0.0
230
1.0
 70
     8
 71
     3
 72
     9
 73
     5
 74
     0
 42
0.000000001
 43
0.0000000001
 40
-1.0
 40
-1.0
 40
-1.0
 40
-1.0
 40
-0.6666666666666666
 40
-0.3762036164339271
 40
-0.3762036164339271
 40
-0.3762036164339271
 40
-0.3762036164339271
 10
2.791201090793341
 20
-0.7352509566621729
 30
0.0
 10
2.850094615056144
 20
-0.6378492503175842
 30
0.0
 10
2.937161196965361
 20
-0.4802198432446239
 30
0.0
 10
2.998104279017227
 20
-0.3772579079360812
 30
0.0
 10
3.018704495962442
 20
-0.3413891208671064
 30
0.0
1001
REVIT
1002
{
1070
     2
1000
-2001350
1002
}
  0
ARC
  5
742
330
687
100
AcDbEntity
  8
D35160230
100
AcDbCircle
 10
3.214523013450234
 20
0.6180538596208024
 30
0.0
 40
1.417968749999983
100
AcDbArc
 50
252.6300019077563
 51
287.3699980922445
1001
REVIT
1002
{
1070
     2
1000
-2001350
1002
}
  0
SPLINE
  5
743
330
687
100
AcDbEntity
  8
D35160230
100
AcDbSpline
210
0.0
220
0.0
230
1.0
 70
     8
 71
     3
 72
     9
 73
     5
 74
     0
 42
0.000000001
 43
0.0000000001
 40
-1.0
 40
-1.0
 40
-1.0
 40
-1.0
 40
-0.6666666666666666
 40
-0.4206731281931119
 40
-0.4206731281931119
 40
-0.4206731281931119
 40
-0.4206731281931119
 10
3.637844936107152
 20
-0.7352509566621598
 30
0.0
 10
3.582939346172189
 20
-0.6355468153598867
 30
0.0
 10
3.496589813171694
 20
-0.4923241092052082
 30
0.0
 10
3.439808392808099
 20
-0.3921898695756269
 30
0.0
 10
3.420503672695494
 20
-0.3586186459811909
 30
0.0
1001
REVIT
1002
{
1070
     2
1000
-2001350
1002
}
  0
ARC
  5
744
330
687
100
AcDbEntity
  8
D35160230
100
AcDbCircle
 10
2.677509547470704
 20
0.3080089904790642
 30
0.0
 40
1.417968749999983
100
AcDbArc
 50
312.6300019077565
 51
347.3699980922453
1001
REVIT
1002
{
1070
     2
1000
-2001350
1002
}
  0
SPLINE
  5
745
330
687
100
AcDbEntity
  8
D35160230
100
AcDbSpline
210
0.0
220
0.0
230
1.0
 70
     8
 71
     3
 72
     9
 73
     5
 74
     0
 42
0.000000001
 43
0.0000000001
 40
-0.9999998480095847
 40
-0.9999998480095847
 40
-0.9999998480095847
 40
-0.9999998480095847
 40
-0.6666666666666666
 40
-0.6080376631917952
 40
-0.6080376631917952
 40
-0.6080376631917952
 40
-0.6080376631917952
 10
4.061166702970782
 20
-0.0020358755076385
 30
0.0
 10
3.947275614662385
 20
0.0002705558940279
 30
0.0
 10
3.839406128640291
 20
-0.0017083375876786
 30
0.0
 10
3.742992968750447
 20
-0.0022164649406096
 30
0.0
 10
3.729058281257236
 20
-0.0022668074235527
 30
0.0
1001
REVIT
1002
{
1070
     2
1000
-2001350
1002
}
  0
ARC
  5
746
330
687
100
AcDbEntity
  8
D35160230
100
AcDbCircle
 10
2.677644768242839
 20
-0.3120026780552145
 30
0.0
 40
1.417819731730993
100
AcDbArc
 50
12.62811817844261
 51
47.37188182156039
1001
REVIT
1002
{
1070
     2
1000
-2001350
1002
}
  0
LINE
  5
747
330
687
100
AcDbEntity
  8
D35160230
100
AcDbLine
 10
2.79443337883877
 20
0.3363658104054696
 30
0.0
 11
2.79443337883877
 21
-0.340437567729562
 31
0.0
1001
REVIT
1002
{
1070
     2
1000
-2001350
1002
}
  0
LINE
  5
748
330
687
100
AcDbEntity
  8
D35160230
100
AcDbLine
 10
-2.865387351937263
 20
0.3363658104055276
 30
0.0
 11
-2.865387351937263
 21
-0.3404375677296199
 31
0.0
1001
REVIT
1002
{
1070
     2
1000
-2001350
1002
}
  0
SPLINE
  5
749
330
687
100
AcDbEntity
  8
D35160230
100
AcDbSpline
210
0.0
220
0.0
230
1.0
 70
     8
 71
     3
 72
     9
 73
     5
 74
     0
 42
0.000000001
 43
0.0000000001
 40
0.0
 40
0.0
 40
0.0
 40
0.0
 40
0.3333333333333333
 40
0.5793814583507843
 40
0.5793814583507843
 40
0.5793814583507843
 40
0.5793814583507843
 10
-3.70879890920569
 20
0.7311791993368376
 30
0.0
 10
-3.649896050755904
 20
0.6337558873696083
 30
0.0
 10
-3.569032600743351
 20
0.4873521145690419
 30
0.0
 10
-3.510726233093636
 20
0.3881508107704614
 30
0.0
 10
-3.491308772281599
 20
0.3546513798670818
 30
0.0
1001
REVIT
1002
{
1070
     2
1000
-2001350
1002
}
  0
SPLINE
  5
74A
330
687
100
AcDbEntity
  8
D35160230
100
AcDbSpline
210
0.0
220
0.0
230
1.0
 70
     8
 71
     3
 72
     9
 73
     5
 74
     0
 42
0.000000001
 43
0.0000000001
 40
-0.6238880355147496
 40
-0.6238880355147496
 40
-0.6238880355147496
 40
-0.6238880355147496
 40
-0.3333333333333333
 40
0.0
 40
0.0
 40
0.0
 40
0.0
 10
-3.089490206312488
 20
0.3372367565880381
 30
0.0
 10
-3.068716167355354
 20
0.373027566583151
 30
0.0
 10
-3.010005789431761
 20
0.4773157743323361
 30
0.0
 10
-2.917035536081406
 20
0.6315227742479641
 30
0.0
 10
-2.862155063891892
 20
0.7311791993368315
 30
0.0
1001
REVIT
1002
{
1070
     2
1000
-2001350
1002
}
  0
SPLINE
  5
74B
330
687
100
AcDbEntity
  8
D35160230
100
AcDbSpline
210
0.0
220
0.0
230
1.0
 70
     8
 71
     3
 72
     9
 73
     5
 74
     0
 42
0.000000001
 43
0.0000000001
 40
-0.6238880355172427
 40
-0.6238880355172427
 40
-0.6238880355172427
 40
-0.6238880355172427
 40
-0.3333333333333333
 40
0.0
 40
0.0
 40
0.0
 40
0.0
 10
-3.089651655731495
 20
-0.3414017267776455
 30
0.0
 10
-3.069042924532229
 20
-0.3772879772513886
 30
0.0
 10
-3.008081876267945
 20
-0.4802767598737918
 30
0.0
 10
-2.921019823574455
 20
-0.6378948610299178
 30
0.0
 10
-2.862155063891913
 20
-0.7352509566621565
 30
0.0
1001
REVIT
1002
{
1070
     2
1000
-2001350
1002
}
  0
SPLINE
  5
74C
330
687
100
AcDbEntity
  8
D35160230
100
AcDbSpline
210
0.0
220
0.0
230
1.0
 70
     8
 71
     3
 72
     9
 73
     5
 74
     0
 42
0.000000001
 43
0.0000000001
 40
-0.5794260214023128
 40
-0.5794260214023128
 40
-0.5794260214023128
 40
-0.5794260214023128
 40
-0.3333333333333333
 40
0.0
 40
0.0
 40
0.0
 40
0.0
 10
-3.491465095540421
 20
-0.3586297863593765
 30
0.0
 10
-3.510779915686104
 20
-0.3922172636719566
 30
0.0
 10
-3.567573803137911
 20
-0.4923772500304824
 30
0.0
 10
-3.653918437016189
 20
-0.63559453157328
 30
0.0
 10
-3.708798909205706
 20
-0.7352509566621471
 30
0.0
1001
REVIT
1002
{
1070
     2
1000
-2001350
1002
}
  0
SPLINE
  5
74D
330
687
100
AcDbEntity
  8
D35160230
100
AcDbSpline
210
0.0
220
0.0
230
1.0
 70
     8
 71
     3
 72
     9
 73
     5
 74
     0
 42
0.000000001
 43
0.0000000001
 40
-0.3921390100858563
 40
-0.3921390100858563
 40
-0.3921390100858563
 40
-0.3921390100858563
 40
-0.3333333333333333
 40
-0.0000001520380455
 40
-0.0000001520380455
 40
-0.0000001520380455
 40
-0.0000001520380455
 10
-3.802990462133172
 20
-0.0021726884144374
 30
0.0
 10
-3.815832605263741
 20
-0.0021579825552217
 30
0.0
 10
-3.905119127334457
 20
-0.0018760236397862
 30
0.0
 10
-4.018298332262141
 20
0.000267620115443
 30
0.0
 10
-4.132120676114575
 20
-0.002035875510671
 30
0.0
1001
REVIT
1002
{
1070
     2
1000
-2001350
1002
}
  0
LINE
  5
74E
330
687
100
AcDbEntity
  8
D35160230
100
AcDbLine
 10
2.794433378838771
 20
0.1659574367304039
 30
0.0
 11
-2.865387351937266
 21
0.1659574367304039
 31
0.0
1001
REVIT
1002
{
1070
     1
1000
26642
1002
}
1002
{
1070
     2
1000
-2001350
1002
}
  0
LINE
  5
74F
330
687
100
AcDbEntity
  8
D35160230
100
AcDbLine
 10
-2.865387351937266
 20
-0.1700291940544951
 30
0.0
 11
2.794433378838771
 21
-0.1700291940544951
 31
0.0
1001
REVIT
1002
{
1070
     1
1000
26642
1002
}
1002
{
1070
     2
1000
-2001350
1002
}
  0
LINE
  5
750
330
687
100
AcDbEntity
  8
D35160230
100
AcDbLine
 10
-2.865387351937269
 20
-0.338022509446946
 30
0.0
 11
2.794433378838768
 21
-0.338022509446946
 31
0.0
1001
REVIT
1002
{
1070
     1
1000
26642
1002
}
1002
{
1070
     2
1000
-2001350
1002
}
  0
LINE
  5
751
330
687
100
AcDbEntity
  8
D35160230
100
AcDbLine
 10
-2.865387351937269
 20
0.3339507521228532
 30
0.0
 11
2.794433378838768
 21
0.3339507521228532
 31
0.0
1001
REVIT
1002
{
1070
     1
1000
26642
1002
}
1002
{
1070
     2
1000
-2001350
1002
}
  0
ENDBLK
  5
689
330
687
100
AcDbEntity
  8
0
100
AcDbBlockEnd
  0
BLOCK
  5
754
330
753
100
AcDbEntity
  8
0
100
AcDbBlockBegin
  2
D35160230 Side View
 70
     0
 10
0.0
 20
0.0
 30
0.0
  3
D35160230 Side View
  1

  0
LINE
  5
756
330
753
100
AcDbEntity
  8
D35160230
100
AcDbLine
 10
0.2210533221671156
 20
0.953013665894435
 30
0.0
 11
0.0000000000000426
 21
1.000000000000007
 31
0.0
1001
REVIT
1002
{
1070
     2
1000
-2001350
1002
}
  0
LINE
  5
757
330
753
100
AcDbEntity
  8
D35160230
100
AcDbLine
 10
0.2210533221671156
 20
0.953013665894435
 30
0.0
 11
0.2231535909538778
 21
0.9525231434518239
 31
0.0
1001
REVIT
1002
{
1070
     2
1000
-2001350
1002
}
  0
LINE
  5
758
330
753
100
AcDbEntity
  8
D35160230
100
AcDbLine
 10
0.2231535909538778
 20
0.9525231434518239
 30
0.0
 11
0.2252325640837398
 21
0.9519490250244651
 31
0.0
1001
REVIT
1002
{
1070
     2
1000
-2001350
1002
}
  0
LINE
  5
759
330
753
100
AcDbEntity
  8
D35160230
100
AcDbLine
 10
0.2293133591079695
 20
0.9505538063498981
 30
0.0
 11
0.2313086526008199
 21
0.9497349381549398
 31
0.0
1001
REVIT
1002
{
1070
     2
1000
-2001350
1002
}
  0
LINE
  5
75A
330
753
100
AcDbEntity
  8
D35160230
100
AcDbLine
 10
0.2332696040777975
 20
0.948836934508904
 30
0.0
 11
0.2351930764348431
 21
0.9478612320260744
 31
0.0
1001
REVIT
1002
{
1070
     2
1000
-2001350
1002
}
  0
LINE
  5
75B
330
753
100
AcDbEntity
  8
D35160230
100
AcDbLine
 10
0.2351930764348431
 20
0.9478612320260744
 30
0.0
 11
0.2370759925265133
 21
0.9468093916222741
 31
0.0
1001
REVIT
1002
{
1070
     2
1000
-2001350
1002
}
  0
LINE
  5
75C
330
753
100
AcDbEntity
  8
D35160230
100
AcDbLine
 10
0.2389153400887238
 20
0.9456830960177704
 30
0.0
 11
0.2407081765577494
 21
0.9444841470452729
 31
0.0
1001
REVIT
1002
{
1070
     2
1000
-2001350
1002
}
  0
LINE
  5
75D
330
753
100
AcDbEntity
  8
D35160230
100
AcDbLine
 10
0.2407081765577494
 20
0.9444841470452729
 30
0.0
 11
0.2424516337776943
 21
0.9432144627673544
 31
0.0
1001
REVIT
1002
{
1070
     2
1000
-2001350
1002
}
  0
LINE
  5
75E
330
753
100
AcDbEntity
  8
D35160230
100
AcDbLine
 10
0.2424516337776943
 20
0.9432144627673544
 30
0.0
 11
0.2441429225889173
 21
0.9418760744080465
 31
0.0
1001
REVIT
1002
{
1070
     2
1000
-2001350
1002
}
  0
LINE
  5
75F
330
753
100
AcDbEntity
  8
D35160230
100
AcDbLine
 10
0.2457793372901165
 20
0.9404711231031832
 30
0.0
 11
0.2473582599668482
 21
0.9390018564751514
 31
0.0
1001
REVIT
1002
{
1070
     2
1000
-2001350
1002
}
  0
LINE
  5
760
330
753
100
AcDbEntity
  8
D35160230
100
AcDbLine
 10
0.2488771646796515
 20
0.9374706250371431
 30
0.0
 11
0.2503336215049998
 21
0.935879878432793
 31
0.0
1001
REVIT
1002
{
1070
     2
1000
-2001350
1002
}
  0
LINE
  5
761
330
753
100
AcDbEntity
  8
D35160230
100
AcDbLine
 10
0.2503336215049998
 20
0.935879878432793
 30
0.0
 11
0.2517253004226667
 21
0.9342321615173503
 31
0.0
1001
REVIT
1002
{
1070
     2
1000
-2001350
1002
}
  0
LINE
  5
762
330
753
100
AcDbEntity
  8
D35160230
100
AcDbLine
 10
0.2530499750432646
 20
0.9325301102863754
 30
0.0
 11
0.2543055261699756
 21
0.9307764476587401
 31
0.0
1001
REVIT
1002
{
1070
     2
1000
-2001350
1002
}
  0
LINE
  5
763
330
753
100
AcDbEntity
  8
D35160230
100
AcDbLine
 10
0.2543055261699756
 20
0.9307764476587401
 30
0.0
 11
0.2554899451888346
 21
0.9289739791205704
 31
0.0
1001
REVIT
1002
{
1070
     2
1000
-2001350
1002
}
  0
LINE
  5
764
330
753
100
AcDbEntity
  8
D35160230
100
AcDbLine
 10
0.2565410077428822
 20
-0.9272303531031445
 30
0.0
 11
0.2554254744295896
 21
-0.9290762476478809
 31
0.0
1001
REVIT
1002
{
1070
     2
1000
-2001350
1002
}
  0
LINE
  5
765
330
753
100
AcDbEntity
  8
D35160230
100
AcDbLine
 10
0.2554254744295896
 20
-0.9290762476478809
 30
0.0
 11
0.2542370173301442
 21
-0.9308760562393983
 31
0.0
1001
REVIT
1002
{
1070
     2
1000
-2001350
1002
}
  0
LINE
  5
766
330
753
100
AcDbEntity
  8
D35160230
100
AcDbLine
 10
0.2516490505049873
 20
-0.9343259766575398
 30
0.0
 11
0.2502536809741294
 21
-0.9359705693474429
 31
0.0
1001
REVIT
1002
{
1070
     2
1000
-2001350
1002
}
  0
LINE
  5
767
330
753
100
AcDbEntity
  8
D35160230
100
AcDbLine
 10
0.2502536809741294
 20
-0.9359705693474429
 30
0.0
 11
0.2487936614233845
 21
-0.9375580466401343
 31
0.0
1001
REVIT
1002
{
1070
     2
1000
-2001350
1002
}
  0
LINE
  5
768
330
753
100
AcDbEntity
  8
D35160230
100
AcDbLine
 10
0.2487936614233845
 20
-0.9375580466401343
 30
0.0
 11
0.2472713275725837
 21
-0.9390858689105597
 31
0.0
1001
REVIT
1002
{
1070
     2
1000
-2001350
1002
}
  0
LINE
  5
769
330
753
100
AcDbEntity
  8
D35160230
100
AcDbLine
 10
0.2472713275725837
 20
-0.9390858689105597
 30
0.0
 11
0.2456891148311406
 21
-0.9405515919690364
 31
0.0
1001
REVIT
1002
{
1070
     2
1000
-2001350
1002
}
  0
LINE
  5
76A
330
753
100
AcDbEntity
  8
D35160230
100
AcDbLine
 10
0.244049554401915
 20
-0.941952870971331
 30
0.0
 11
0.2423552692318509
 21
-0.9432874641699518
 31
0.0
1001
REVIT
1002
{
1070
     2
1000
-2001350
1002
}
  0
LINE
  5
76B
330
753
100
AcDbEntity
  8
D35160230
100
AcDbLine
 10
0.2423552692318509
 20
-0.9432874641699518
 30
0.0
 11
0.2406089698157814
 21
-0.9445532365004963
 31
0.0
1001
REVIT
1002
{
1070
     2
1000
-2001350
1002
}
  0
LINE
  5
76C
330
753
100
AcDbEntity
  8
D35160230
100
AcDbLine
 10
0.2406089698157814
 20
-0.9445532365004963
 30
0.0
 11
0.2388134498602525
 21
-0.945748162997244
 31
0.0
1001
REVIT
1002
{
1070
     2
1000
-2001350
1002
}
  0
LINE
  5
76D
330
753
100
AcDbEntity
  8
D35160230
100
AcDbLine
 10
0.2388134498602525
 20
-0.945748162997244
 30
0.0
 11
0.2369715818141707
 21
-0.9468703320327092
 31
0.0
1001
REVIT
1002
{
1070
     2
1000
-2001350
1002
}
  0
LINE
  5
76E
330
753
100
AcDbEntity
  8
D35160230
100
AcDbLine
 10
0.2369715818141707
 20
-0.9468703320327092
 30
0.0
 11
0.2350863122734985
 21
-0.9479179483758136
 31
0.0
1001
REVIT
1002
{
1070
     2
1000
-2001350
1002
}
  0
LINE
  5
76F
330
753
100
AcDbEntity
  8
D35160230
100
AcDbLine
 10
0.2350863122734985
 20
-0.9479179483758136
 30
0.0
 11
0.2331606572673266
 21
-0.9488893360638924
 31
0.0
1001
REVIT
1002
{
1070
     2
1000
-2001350
1002
}
  0
LINE
  5
770
330
753
100
AcDbEntity
  8
D35160230
100
AcDbLine
 10
0.2311976974328864
 20
-0.9497829410838567
 30
0.0
 11
0.2292005730871693
 21
-0.9505973338583009
 31
0.0
1001
REVIT
1002
{
1070
     2
1000
-2001350
1002
}
  0
LINE
  5
771
330
753
100
AcDbEntity
  8
D35160230
100
AcDbLine
 10
0.2230364052443114
 20
-0.9525528560745753
 30
0.0
 11
0.2210533221670907
 21
-0.9530136658944348
 31
0.0
1001
REVIT
1002
{
1070
     2
1000
-2001350
1002
}
  0
LINE
  5
772
330
753
100
AcDbEntity
  8
D35160230
100
AcDbLine
 10
0.2565410077428787
 20
-0.9272303531031445
 30
0.0
 11
0.2767188236633693
 21
-0.8922813507430793
 31
0.0
1001
REVIT
1002
{
1070
     2
1000
-2001350
1002
}
  0
LINE
  5
773
330
753
100
AcDbEntity
  8
D35160230
100
AcDbLine
 10
0.2767188236633942
 20
0.8922813507430795
 30
0.0
 11
0.2777022599872403
 21
0.8906540396411557
 31
0.0
1001
REVIT
1002
{
1070
     2
1000
-2001350
1002
}
  0
LINE
  5
774
330
753
100
AcDbEntity
  8
D35160230
100
AcDbLine
 10
0.2798603218287532
 20
0.8875238417081305
 30
0.0
 11
0.2810314949078396
 21
0.8860259625259701
 31
0.0
1001
REVIT
1002
{
1070
     2
1000
-2001350
1002
}
  0
LINE
  5
775
330
753
100
AcDbEntity
  8
D35160230
100
AcDbLine
 10
0.2810314949078396
 20
0.8860259625259701
 30
0.0
 11
0.2822616303645624
 21
0.8845761159190601
 31
0.0
1001
REVIT
1002
{
1070
     2
1000
-2001350
1002
}
  0
LINE
  5
776
330
753
100
AcDbEntity
  8
D35160230
100
AcDbLine
 10
0.2822616303645624
 20
0.8845761159190601
 30
0.0
 11
0.2835487602446136
 21
0.8831766213326446
 31
0.0
1001
REVIT
1002
{
1070
     2
1000
-2001350
1002
}
  0
LINE
  5
777
330
753
100
AcDbEntity
  8
D35160230
100
AcDbLine
 10
0.2835487602446136
 20
0.8831766213326446
 30
0.0
 11
0.284890825414756
 21
0.8818297176595599
 31
0.0
1001
REVIT
1002
{
1070
     2
1000
-2001350
1002
}
  0
LINE
  5
778
330
753
100
AcDbEntity
  8
D35160230
100
AcDbLine
 10
0.284890825414756
 20
0.8818297176595599
 30
0.0
 11
0.2862856788570092
 21
0.8805375596583218
 31
0.0
1001
REVIT
1002
{
1070
     2
1000
-2001350
1002
}
  0
LINE
  5
779
330
753
100
AcDbEntity
  8
D35160230
100
AcDbLine
 10
0.2862856788570092
 20
0.8805375596583218
 30
0.0
 11
0.287731089103417
 21
0.8793022145061222
 31
0.0
1001
REVIT
1002
{
1070
     2
1000
-2001350
1002
}
  0
LINE
  5
77A
330
753
100
AcDbEntity
  8
D35160230
100
AcDbLine
 10
0.287731089103417
 20
0.8793022145061222
 30
0.0
 11
0.2892247438059243
 21
0.8781256584916619
 31
0.0
1001
REVIT
1002
{
1070
     2
1000
-2001350
1002
}
  0
LINE
  5
77B
330
753
100
AcDbEntity
  8
D35160230
100
AcDbLine
 10
0.2892247438059243
 20
0.8781256584916619
 30
0.0
 11
0.2907642534356363
 21
0.8770097738535724
 31
0.0
1001
REVIT
1002
{
1070
     2
1000
-2001350
1002
}
  0
LINE
  5
77C
330
753
100
AcDbEntity
  8
D35160230
100
AcDbLine
 10
0.2907642534356363
 20
0.8770097738535724
 30
0.0
 11
0.2923471551055527
 21
0.8759563457692358
 31
0.0
1001
REVIT
1002
{
1070
     2
1000
-2001350
1002
}
  0
LINE
  5
77D
330
753
100
AcDbEntity
  8
D35160230
100
AcDbLine
 10
0.2923471551055527
 20
0.8759563457692358
 30
0.0
 11
0.293970916510677
 21
0.8749670594988714
 31
0.0
1001
REVIT
1002
{
1070
     2
1000
-2001350
1002
}
  0
LINE
  5
77E
330
753
100
AcDbEntity
  8
D35160230
100
AcDbLine
 10
0.293970916510677
 20
0.8749670594988714
 30
0.0
 11
0.2956329399791393
 21
0.8740434976894739
 31
0.0
1001
REVIT
1002
{
1070
     2
1000
-2001350
1002
}
  0
LINE
  5
77F
330
753
100
AcDbEntity
  8
D35160230
100
AcDbLine
 10
0.2990610806165783
 20
0.8723993499522855
 30
0.0
 11
0.3008217134918318
 21
0.8716813943101477
 31
0.0
1001
REVIT
1002
{
1070
     2
1000
-2001350
1002
}
  0
LINE
  5
780
330
753
100
AcDbEntity
  8
D35160230
100
AcDbLine
 10
0.3026096486166772
 20
0.8710344194923747
 30
0.0
 11
0.3044220256763275
 21
0.870459460520667
 31
0.0
1001
REVIT
1002
{
1070
     2
1000
-2001350
1002
}
  0
LINE
  5
781
330
753
100
AcDbEntity
  8
D35160230
100
AcDbLine
 10
0.3019539858128333
 20
-0.8712623009371077
 30
0.0
 11
0.3001756879755426
 21
-0.8719353129930061
 31
0.0
1001
REVIT
1002
{
1070
     2
1000
-2001350
1002
}
  0
LINE
  5
782
330
753
100
AcDbEntity
  8
D35160230
100
AcDbLine
 10
0.2933735963644182
 20
-0.8753206585770277
 30
0.0
 11
0.2917644529434042
 21
-0.8763335484407866
 31
0.0
1001
REVIT
1002
{
1070
     2
1000
-2001350
1002
}
  0
LINE
  5
783
330
753
100
AcDbEntity
  8
D35160230
100
AcDbLine
 10
0.2917644529434042
 20
-0.8763335484407866
 30
0.0
 11
0.2901971014567515
 21
-0.8774099766747054
 31
0.0
1001
REVIT
1002
{
1070
     2
1000
-2001350
1002
}
  0
LINE
  5
784
330
753
100
AcDbEntity
  8
D35160230
100
AcDbLine
 10
0.2901971014567515
 20
-0.8774099766747054
 30
0.0
 11
0.2886740493324886
 21
-0.8785482212232407
 31
0.0
1001
REVIT
1002
{
1070
     2
1000
-2001350
1002
}
  0
LINE
  5
785
330
753
100
AcDbEntity
  8
D35160230
100
AcDbLine
 10
0.2886740493324886
 20
-0.8785482212232407
 30
0.0
 11
0.287197733129112
 21
-0.8797464611379337
 31
0.0
1001
REVIT
1002
{
1070
     2
1000
-2001350
1002
}
  0
LINE
  5
786
330
753
100
AcDbEntity
  8
D35160230
100
AcDbLine
 10
0.287197733129112
 20
-0.8797464611379337
 30
0.0
 11
0.2857705146376119
 21
-0.8810027794905044
 31
0.0
1001
REVIT
1002
{
1070
     2
1000
-2001350
1002
}
  0
LINE
  5
787
330
753
100
AcDbEntity
  8
D35160230
100
AcDbLine
 10
0.2857705146376119
 20
-0.8810027794905044
 30
0.0
 11
0.2843946771031263
 21
-0.8823151664396247
 31
0.0
1001
REVIT
1002
{
1070
     2
1000
-2001350
1002
}
  0
LINE
  5
788
330
753
100
AcDbEntity
  8
D35160230
100
AcDbLine
 10
0.2843946771031263
 20
-0.8823151664396247
 30
0.0
 11
0.2830724215722107
 21
-0.8836815224461068
 31
0.0
1001
REVIT
1002
{
1070
     2
1000
-2001350
1002
}
  0
LINE
  5
789
330
753
100
AcDbEntity
  8
D35160230
100
AcDbLine
 10
0.2830724215722107
 20
-0.8836815224461068
 30
0.0
 11
0.2818058633716482
 21
-0.8850996616318267
 31
0.0
1001
REVIT
1002
{
1070
     2
1000
-2001350
1002
}
  0
LINE
  5
78A
330
753
100
AcDbEntity
  8
D35160230
100
AcDbLine
 10
0.2818058633716482
 20
-0.8850996616318267
 30
0.0
 11
0.280597028724376
 21
-0.8865673152766182
 31
0.0
1001
REVIT
1002
{
1070
     2
1000
-2001350
1002
}
  0
LINE
  5
78B
330
753
100
AcDbEntity
  8
D35160230
100
AcDbLine
 10
0.280597028724376
 20
-0.8865673152766182
 30
0.0
 11
0.2794478515079568
 21
-0.8880821354477104
 31
0.0
1001
REVIT
1002
{
1070
     2
1000
-2001350
1002
}
  0
LINE
  5
78C
330
753
100
AcDbEntity
  8
D35160230
100
AcDbLine
 10
0.2794478515079568
 20
-0.8880821354477104
 30
0.0
 11
0.2783601701607914
 21
-0.8896416987559872
 31
0.0
1001
REVIT
1002
{
1070
     2
1000
-2001350
1002
}
  0
LINE
  5
78D
330
753
100
AcDbEntity
  8
D35160230
100
AcDbLine
 10
0.2783601701607914
 20
-0.8896416987559872
 30
0.0
 11
0.2773357247410111
 21
-0.8912435102328435
 31
0.0
1001
REVIT
1002
{
1070
     2
1000
-2001350
1002
}
  0
LINE
  5
78E
330
753
100
AcDbEntity
  8
D35160230
100
AcDbLine
 10
0.2773357247410111
 20
-0.8912435102328435
 30
0.0
 11
0.2767188236633693
 21
-0.8922813507430793
 31
0.0
1001
REVIT
1002
{
1070
     2
1000
-2001350
1002
}
  0
LINE
  5
78F
330
753
100
AcDbEntity
  8
D35160230
100
AcDbLine
 10
-0.0000000000000462
 20
-1.000000000000006
 30
0.0
 11
0.2210533221670232
 21
-0.9530136658944348
 31
0.0
1001
REVIT
1002
{
1070
     2
1000
-2001350
1002
}
  0
LINE
  5
790
330
753
100
AcDbEntity
  8
D35160230
100
AcDbLine
 10
0.2252325640836723
 20
0.9519490250244757
 30
0.0
 11
0.2272869156431199
 21
0.9512922290793568
 31
0.0
1001
REVIT
1002
{
1070
     2
1000
-2001350
1002
}
  0
LINE
  5
791
330
753
100
AcDbEntity
  8
D35160230
100
AcDbLine
 10
0.2272869156431199
 20
0.9512922290793568
 30
0.0
 11
0.229313359107902
 21
0.9505538063498981
 31
0.0
1001
REVIT
1002
{
1070
     2
1000
-2001350
1002
}
  0
LINE
  5
792
330
753
100
AcDbEntity
  8
D35160230
100
AcDbLine
 10
0.2313086526007524
 20
0.9497349381549398
 30
0.0
 11
0.2332696040777265
 21
0.948836934508904
 31
0.0
1001
REVIT
1002
{
1070
     2
1000
-2001350
1002
}
  0
LINE
  5
793
330
753
100
AcDbEntity
  8
D35160230
100
AcDbLine
 10
0.2370759925264458
 20
0.9468093916222741
 30
0.0
 11
0.2389153400886563
 21
0.9456830960177704
 31
0.0
1001
REVIT
1002
{
1070
     2
1000
-2001350
1002
}
  0
LINE
  5
794
330
753
100
AcDbEntity
  8
D35160230
100
AcDbLine
 10
0.2441429225888498
 20
0.9418760744080465
 30
0.0
 11
0.2457793372900454
 21
0.9404711231031832
 31
0.0
1001
REVIT
1002
{
1070
     2
1000
-2001350
1002
}
  0
LINE
  5
795
330
753
100
AcDbEntity
  8
D35160230
100
AcDbLine
 10
0.2473582599667807
 20
0.9390018564751514
 30
0.0
 11
0.248877164679584
 21
0.9374706250371431
 31
0.0
1001
REVIT
1002
{
1070
     2
1000
-2001350
1002
}
  0
LINE
  5
796
330
753
100
AcDbEntity
  8
D35160230
100
AcDbLine
 10
0.2517253004225992
 20
0.9342321615173503
 30
0.0
 11
0.2530499750431936
 21
0.9325301102863754
 31
0.0
1001
REVIT
1002
{
1070
     2
1000
-2001350
1002
}
  0
LINE
  5
797
330
753
100
AcDbEntity
  8
D35160230
100
AcDbLine
 10
0.2543055261699045
 20
0.9307764476587401
 30
0.0
 11
0.2554899451887671
 21
0.9289739791205811
 31
0.0
1001
REVIT
1002
{
1070
     2
1000
-2001350
1002
}
  0
LINE
  5
798
330
753
100
AcDbEntity
  8
D35160230
100
AcDbLine
 10
0.2554899451887671
 20
0.9289739791205811
 30
0.0
 11
0.2565410077428361
 21
0.9272303531031447
 31
0.0
1001
REVIT
1002
{
1070
     2
1000
-2001350
1002
}
  0
LINE
  5
799
330
753
100
AcDbEntity
  8
D35160230
100
AcDbLine
 10
0.2542370173300767
 20
-0.9308760562393983
 30
0.0
 11
0.2529775377223089
 21
-0.9326268995679035
 31
0.0
1001
REVIT
1002
{
1070
     2
1000
-2001350
1002
}
  0
LINE
  5
79A
330
753
100
AcDbEntity
  8
D35160230
100
AcDbLine
 10
0.2529775377223089
 20
-0.9326268995679035
 30
0.0
 11
0.2516490505049198
 21
-0.9343259766575505
 31
0.0
1001
REVIT
1002
{
1070
     2
1000
-2001350
1002
}
  0
LINE
  5
79B
330
753
100
AcDbEntity
  8
D35160230
100
AcDbLine
 10
0.2456891148310696
 20
-0.9405515919690364
 30
0.0
 11
0.2440495544018475
 21
-0.941952870971331
 31
0.0
1001
REVIT
1002
{
1070
     2
1000
-2001350
1002
}
  0
LINE
  5
79C
330
753
100
AcDbEntity
  8
D35160230
100
AcDbLine
 10
0.2331606572672591
 20
-0.9488893360638924
 30
0.0
 11
0.2311976974328189
 21
-0.9497829410838567
 31
0.0
1001
REVIT
1002
{
1070
     2
1000
-2001350
1002
}
  0
LINE
  5
79D
330
753
100
AcDbEntity
  8
D35160230
100
AcDbLine
 10
0.2292005730871018
 20
-0.9505973338583116
 30
0.0
 11
0.227172479203027
 21
-0.9513312115325261
 31
0.0
1001
REVIT
1002
{
1070
     2
1000
-2001350
1002
}
  0
LINE
  5
79E
330
753
100
AcDbEntity
  8
D35160230
100
AcDbLine
 10
0.227172479203027
 20
-0.9513312115325261
 30
0.0
 11
0.2251166602981769
 21
-0.9519834000587826
 31
0.0
1001
REVIT
1002
{
1070
     2
1000
-2001350
1002
}
  0
LINE
  5
79F
330
753
100
AcDbEntity
  8
D35160230
100
AcDbLine
 10
0.2251166602981769
 20
-0.9519834000587826
 30
0.0
 11
0.2230364052442439
 21
-0.9525528560745753
 31
0.0
1001
REVIT
1002
{
1070
     2
1000
-2001350
1002
}
  0
LINE
  5
7A0
330
753
100
AcDbEntity
  8
D35160230
100
AcDbLine
 10
0.2767188236633267
 20
0.8922813507430795
 30
0.0
 11
0.2565410077428361
 21
0.9272303531031447
 31
0.0
1001
REVIT
1002
{
1070
     2
1000
-2001350
1002
}
  0
LINE
  5
7A1
330
753
100
AcDbEntity
  8
D35160230
100
AcDbLine
 10
0.2777022599871728
 20
0.8906540396411557
 30
0.0
 11
0.2787499847543344
 21
0.8890673571783516
 31
0.0
1001
REVIT
1002
{
1070
     2
1000
-2001350
1002
}
  0
LINE
  5
7A2
330
753
100
AcDbEntity
  8
D35160230
100
AcDbLine
 10
0.2787499847543344
 20
0.8890673571783516
 30
0.0
 11
0.2798603218286892
 21
0.8875238417081305
 31
0.0
1001
REVIT
1002
{
1070
     2
1000
-2001350
1002
}
  0
LINE
  5
7A3
330
753
100
AcDbEntity
  8
D35160230
100
AcDbLine
 10
0.2956329399790753
 20
0.8740434976894739
 30
0.0
 11
0.297330566627874
 21
0.8731871378429296
 31
0.0
1001
REVIT
1002
{
1070
     2
1000
-2001350
1002
}
  0
LINE
  5
7A4
330
753
100
AcDbEntity
  8
D35160230
100
AcDbLine
 10
0.297330566627874
 20
0.8731871378429296
 30
0.0
 11
0.2990610806165108
 21
0.8723993499522961
 31
0.0
1001
REVIT
1002
{
1070
     2
1000
-2001350
1002
}
  0
LINE
  5
7A5
330
753
100
AcDbEntity
  8
D35160230
100
AcDbLine
 10
0.3008217134917643
 20
0.8716813943101477
 30
0.0
 11
0.3026096486166132
 21
0.8710344194923854
 31
0.0
1001
REVIT
1002
{
1070
     2
1000
-2001350
1002
}
  0
LINE
  5
7A6
330
753
100
AcDbEntity
  8
D35160230
100
AcDbLine
 10
0.30442202567626
 20
0.870459460520667
 30
0.0
 11
0.3055841683765124
 21
0.8701321927273324
 31
0.0
1001
REVIT
1002
{
1070
     2
1000
-2001350
1002
}
  0
LINE
  5
7A7
330
753
100
AcDbEntity
  8
D35160230
100
AcDbLine
 10
0.3055841683764875
 20
-0.8701321927273433
 30
0.0
 11
0.3037577745054776
 21
-0.8706609401655711
 31
0.0
1001
REVIT
1002
{
1070
     2
1000
-2001350
1002
}
  0
LINE
  5
7A8
330
753
100
AcDbEntity
  8
D35160230
100
AcDbLine
 10
0.3037577745054776
 20
-0.8706609401655711
 30
0.0
 11
0.3019539858127658
 21
-0.8712623009371077
 31
0.0
1001
REVIT
1002
{
1070
     2
1000
-2001350
1002
}
  0
LINE
  5
7A9
330
753
100
AcDbEntity
  8
D35160230
100
AcDbLine
 10
0.3001756879754751
 20
-0.8719353129930061
 30
0.0
 11
0.2984257258907945
 21
-0.8726788996575576
 31
0.0
1001
REVIT
1002
{
1070
     2
1000
-2001350
1002
}
  0
LINE
  5
7AA
330
753
100
AcDbEntity
  8
D35160230
100
AcDbLine
 10
0.2984257258907945
 20
-0.8726788996575576
 30
0.0
 11
0.2967068991247572
 21
-0.8734918713506798
 31
0.0
1001
REVIT
1002
{
1070
     2
1000
-2001350
1002
}
  0
LINE
  5
7AB
330
753
100
AcDbEntity
  8
D35160230
100
AcDbLine
 10
0.2967068991247572
 20
-0.8734918713506798
 30
0.0
 11
0.2950219574335158
 21
-0.8743729274911407
 31
0.0
1001
REVIT
1002
{
1070
     2
1000
-2001350
1002
}
  0
LINE
  5
7AC
330
753
100
AcDbEntity
  8
D35160230
100
AcDbLine
 10
0.2950219574335158
 20
-0.8743729274911407
 30
0.0
 11
0.2933735963643507
 21
-0.8753206585770277
 31
0.0
1001
REVIT
1002
{
1070
     2
1000
-2001350
1002
}
  0
LINE
  5
7AD
330
753
100
AcDbEntity
  8
D35160230
100
AcDbLine
 10
0.3561709652967266
 20
0.8565775013448904
 30
0.0
 11
0.3055841683765124
 21
0.8701321927273324
 31
0.0
1001
REVIT
1002
{
1070
     2
1000
-2001350
1002
}
  0
LINE
  5
7AE
330
753
100
AcDbEntity
  8
D35160230
100
AcDbLine
 10
0.3055841683764875
 20
-0.8701321927273433
 30
0.0
 11
0.3561709652967018
 21
-0.8565775013449012
 31
0.0
1001
REVIT
1002
{
1070
     2
1000
-2001350
1002
}
  0
LINE
  5
7AF
330
753
100
AcDbEntity
  8
D35160230
100
AcDbLine
 10
4.002885269513974
 20
0.0000000000013208
 30
0.0
 11
4.002583001604001
 21
0.0151113803267499
 31
0.0
1001
REVIT
1002
{
1070
     2
1000
-2001350
1002
}
  0
LINE
  5
7B0
330
753
100
AcDbEntity
  8
D35160230
100
AcDbLine
 10
4.002583001604001
 20
0.0151113803267499
 30
0.0
 11
4.001676681438183
 21
0.0301985856686172
 31
0.0
1001
REVIT
1002
{
1070
     2
1000
-2001350
1002
}
  0
LINE
  5
7B1
330
753
100
AcDbEntity
  8
D35160230
100
AcDbLine
 10
4.001676681438183
 20
0.0301985856686172
 30
0.0
 11
4.000167758935468
 21
0.0452374797154348
 31
0.0
1001
REVIT
1002
{
1070
     2
1000
-2001350
1002
}
  0
LINE
  5
7B2
330
753
100
AcDbEntity
  8
D35160230
100
AcDbLine
 10
4.000167758935468
 20
0.0452374797154348
 30
0.0
 11
3.998058648049976
 21
0.0602040034448655
 31
0.0
1001
REVIT
1002
{
1070
     2
1000
-2001350
1002
}
  0
LINE
  5
7B3
330
753
100
AcDbEntity
  8
D35160230
100
AcDbLine
 10
3.995352722909203
 20
0.0750742136116137
 30
0.0
 11
3.992054312416144
 21
0.0898243210515474
 31
0.0
1001
REVIT
1002
{
1070
     2
1000
-2001350
1002
}
  0
LINE
  5
7B4
330
753
100
AcDbEntity
  8
D35160230
100
AcDbLine
 10
3.988168693323963
 20
0.1044307287393195
 30
0.0
 11
3.983702081794319
 21
0.1188700695384696
 31
0.0
1001
REVIT
1002
{
1070
     2
1000
-2001350
1002
}
  0
LINE
  5
7B5
330
753
100
AcDbEntity
  8
D35160230
100
AcDbLine
 10
3.983702081794319
 20
0.1188700695384696
 30
0.0
 11
3.978661623452836
 21
0.1331192435839582
 31
0.0
1001
REVIT
1002
{
1070
     2
1000
-2001350
1002
}
  0
LINE
  5
7B6
330
753
100
AcDbEntity
  8
D35160230
100
AcDbLine
 10
3.973055381957614
 20
0.1471554552369582
 30
0.0
 11
3.966892326099117
 21
0.1609562495530695
 31
0.0
1001
REVIT
1002
{
1070
     2
1000
-2001350
1002
}
  0
LINE
  5
7B7
330
753
100
AcDbEntity
  8
D35160230
100
AcDbLine
 10
3.952936084601908
 20
0.1877636848051899
 30
0.0
 11
3.945165225972417
 21
0.2007274395634112
 31
0.0
1001
REVIT
1002
{
1070
     2
1000
-2001350
1002
}
  0
LINE
  5
7B8
330
753
100
AcDbEntity
  8
D35160230
100
AcDbLine
 10
3.945165225972417
 20
0.2007274395634112
 30
0.0
 11
3.936882171279645
 21
0.2133700732379032
 31
0.0
1001
REVIT
1002
{
1070
     2
1000
-2001350
1002
}
  0
LINE
  5
7B9
330
753
100
AcDbEntity
  8
D35160230
100
AcDbLine
 10
3.928100171644139
 20
0.2256713603117247
 30
0.0
 11
3.918833276391925
 21
0.2376116213497062
 31
0.0
1001
REVIT
1002
{
1070
     2
1000
-2001350
1002
}
  0
LINE
  5
7BA
330
753
100
AcDbEntity
  8
D35160230
100
AcDbLine
 10
3.898904851272277
 20
0.2603332659595408
 30
0.0
 11
3.888275202633863
 21
0.2710782997470488
 31
0.0
1001
REVIT
1002
{
1070
     2
1000
-2001350
1002
}
  0
LINE
  5
7BB
330
753
100
AcDbEntity
  8
D35160230
100
AcDbLine
 10
3.888275202633863
 20
0.2710782997470488
 30
0.0
 11
3.877224369833612
 21
0.2813896660819096
 31
0.0
1001
REVIT
1002
{
1070
     2
1000
-2001350
1002
}
  0
LINE
  5
7BC
330
753
100
AcDbEntity
  8
D35160230
100
AcDbLine
 10
3.877224369833612
 20
0.2813896660819096
 30
0.0
 11
3.865770031846629
 21
0.2912508689776266
 31
0.0
1001
REVIT
1002
{
1070
     2
1000
-2001350
1002
}
  0
LINE
  5
7BD
330
753
100
AcDbEntity
  8
D35160230
100
AcDbLine
 10
3.865770031846629
 20
0.2912508689776266
 30
0.0
 11
3.853930513170222
 21
0.3006461326131876
 31
0.0
1001
REVIT
1002
{
1070
     2
1000
-2001350
1002
}
  0
LINE
  5
7BE
330
753
100
AcDbEntity
  8
D35160230
100
AcDbLine
 10
3.853930513170222
 20
0.3006461326131876
 30
0.0
 11
3.841724754508646
 21
0.3095604265709887
 31
0.0
1001
REVIT
1002
{
1070
     2
1000
-2001350
1002
}
  0
LINE
  5
7BF
330
753
100
AcDbEntity
  8
D35160230
100
AcDbLine
 10
3.841724754508646
 20
0.3095604265709887
 30
0.0
 11
3.829172282472008
 21
0.3179794898823146
 31
0.0
1001
REVIT
1002
{
1070
     2
1000
-2001350
1002
}
  0
LINE
  5
7C0
330
753
100
AcDbEntity
  8
D35160230
100
AcDbLine
 10
3.803108045925377
 20
0.3332788635546705
 30
0.0
 11
3.789637978633781
 21
0.3401346981815144
 31
0.0
1001
REVIT
1002
{
1070
     2
1000
-2001350
1002
}
  0
LINE
  5
7C1
330
753
100
AcDbEntity
  8
D35160230
100
AcDbLine
 10
3.789637978633781
 20
0.3401346981815144
 30
0.0
 11
3.775904525697271
 21
0.346446389849475
 31
0.0
1001
REVIT
1002
{
1070
     2
1000
-2001350
1002
}
  0
LINE
  5
7C2
330
753
100
AcDbEntity
  8
D35160230
100
AcDbLine
 10
3.775904525697271
 20
0.346446389849475
 30
0.0
 11
3.76192965771089
 21
0.3522038411982813
 31
0.0
1001
REVIT
1002
{
1070
     2
1000
-2001350
1002
}
  0
LINE
  5
7C3
330
753
100
AcDbEntity
  8
D35160230
100
AcDbLine
 10
3.733345454265517
 20
0.3620200815640644
 30
0.0
 11
3.718781847434399
 21
0.3660631666904586
 31
0.0
1001
REVIT
1002
{
1070
     2
1000
-2001350
1002
}
  0
LINE
  5
7C4
330
753
100
AcDbEntity
  8
D35160230
100
AcDbLine
 10
3.718781847434399
 20
0.3660631666904586
 30
0.0
 11
3.704068209653108
 21
0.3695206288394452
 31
0.0
1001
REVIT
1002
{
1070
     2
1000
-2001350
1002
}
  0
LINE
  5
7C5
330
753
100
AcDbEntity
  8
D35160230
100
AcDbLine
 10
3.704068209653108
 20
0.3695206288394452
 30
0.0
 11
3.689228079603363
 21
0.3723869368091706
 31
0.0
1001
REVIT
1002
{
1070
     2
1000
-2001350
1002
}
  0
LINE
  5
7C6
330
753
100
AcDbEntity
  8
D35160230
100
AcDbLine
 10
3.689228079603363
 20
0.3723869368091706
 30
0.0
 11
3.67428519832751
 21
0.3746575051182959
 31
0.0
1001
REVIT
1002
{
1070
     2
1000
-2001350
1002
}
  0
LINE
  5
7C7
330
753
100
AcDbEntity
  8
D35160230
100
AcDbLine
 10
3.67428519832751
 20
0.3746575051182959
 30
0.0
 11
3.659263471247946
 21
0.3763287013419216
 31
0.0
1001
REVIT
1002
{
1070
     2
1000
-2001350
1002
}
  0
LINE
  5
7C8
330
753
100
AcDbEntity
  8
D35160230
100
AcDbLine
 10
3.659263471247946
 20
0.3763287013419216
 30
0.0
 11
3.644186929923534
 21
0.3773978519225551
 31
0.0
1001
REVIT
1002
{
1070
     2
1000
-2001350
1002
}
  0
LINE
  5
7C9
330
753
100
AcDbEntity
  8
D35160230
100
AcDbLine
 10
3.644186929923534
 20
0.3773978519225551
 30
0.0
 11
3.629079693604243
 21
0.3778632464473717
 31
0.0
1001
REVIT
1002
{
1070
     2
1000
-2001350
1002
}
  0
LINE
  5
7CA
330
753
100
AcDbEntity
  8
D35160230
100
AcDbLine
 10
3.583815511756352
 20
0.3756342833711586
 30
0.0
 11
3.56882709006448
 21
0.3736868757463043
 31
0.0
1001
REVIT
1002
{
1070
     2
1000
-2001350
1002
}
  0
LINE
  5
7CB
330
753
100
AcDbEntity
  8
D35160230
100
AcDbLine
 10
3.510009447845863
 20
0.3599645119049264
 30
0.0
 11
3.495706686860682
 21
0.3550781830711707
 31
0.0
1001
REVIT
1002
{
1070
     2
1000
-2001350
1002
}
  0
LINE
  5
7CC
330
753
100
AcDbEntity
  8
D35160230
100
AcDbLine
 10
3.495706686860682
 20
0.3550781830711707
 30
0.0
 11
3.481610767595427
 21
0.349623804890473
 31
0.0
1001
REVIT
1002
{
1070
     2
1000
-2001350
1002
}
  0
LINE
  5
7CD
330
753
100
AcDbEntity
  8
D35160230
100
AcDbLine
 10
3.481610767595427
 20
0.349623804890473
 30
0.0
 11
3.467744240513944
 21
0.3436101032043972
 31
0.0
1001
REVIT
1002
{
1070
     2
1000
-2001350
1002
}
  0
LINE
  5
7CE
330
753
100
AcDbEntity
  8
D35160230
100
AcDbLine
 10
3.440787694376087
 20
0.3299440912827365
 30
0.0
 11
3.427740800043107
 21
0.3223136437509908
 31
0.0
1001
REVIT
1002
{
1070
     2
1000
-2001350
1002
}
  0
LINE
  5
7CF
330
753
100
AcDbEntity
  8
D35160230
100
AcDbLine
 10
3.415009478350341
 20
0.3141675631458114
 30
0.0
 11
3.402614096696627
 21
0.3055188814584391
 31
0.0
1001
REVIT
1002
{
1070
     2
1000
-2001350
1002
}
  0
LINE
  5
7D0
330
753
100
AcDbEntity
  8
D35160230
100
AcDbLine
 10
3.378909904215987
 20
0.2867698409398998
 30
0.0
 11
3.36763901504041
 21
0.2766994765739803
 31
0.0
1001
REVIT
1002
{
1070
     2
1000
-2001350
1002
}
  0
LINE
  5
7D1
330
753
100
AcDbEntity
  8
D35160230
100
AcDbLine
 10
3.336365486503897
 20
0.2439003782993183
 30
0.0
 11
3.326842949592595
 21
0.2321629819933471
 31
0.0
1001
REVIT
1002
{
1070
     2
1000
-2001350
1002
}
  0
LINE
  5
7D2
330
753
100
AcDbEntity
  8
D35160230
100
AcDbLine
 10
3.33116672360801
 20
-0.2376116213498141
 30
0.0
 11
3.340903689421363
 21
-0.249171754481417
 31
0.0
1001
REVIT
1002
{
1070
     2
1000
-2001350
1002
}
  0
LINE
  5
7D3
330
753
100
AcDbEntity
  8
D35160230
100
AcDbLine
 10
3.340903689421363
 20
-0.249171754481417
 30
0.0
 11
3.351095148727662
 21
-0.2603332659596381
 31
0.0
1001
REVIT
1002
{
1070
     2
1000
-2001350
1002
}
  0
LINE
  5
7D4
330
753
100
AcDbEntity
  8
D35160230
100
AcDbLine
 10
3.372775630166323
 20
-0.2813896660820068
 30
0.0
 11
3.384229968153309
 21
-0.2912508689777239
 31
0.0
1001
REVIT
1002
{
1070
     2
1000
-2001350
1002
}
  0
LINE
  5
7D5
330
753
100
AcDbEntity
  8
D35160230
100
AcDbLine
 10
3.396069486829716
 20
-0.3006461326132848
 30
0.0
 11
3.408275245491289
 21
-0.3095604265710859
 31
0.0
1001
REVIT
1002
{
1070
     2
1000
-2001350
1002
}
  0
LINE
  5
7D6
330
753
100
AcDbEntity
  8
D35160230
100
AcDbLine
 10
3.408275245491289
 20
-0.3095604265710859
 30
0.0
 11
3.420827717527927
 21
-0.3179794898824225
 31
0.0
1001
REVIT
1002
{
1070
     2
1000
-2001350
1002
}
  0
LINE
  5
7D7
330
753
100
AcDbEntity
  8
D35160230
100
AcDbLine
 10
3.460362021366155
 20
-0.3401346981816223
 30
0.0
 11
3.474095474302664
 21
-0.3464463898495721
 31
0.0
1001
REVIT
1002
{
1070
     2
1000
-2001350
1002
}
  0
LINE
  5
7D8
330
753
100
AcDbEntity
  8
D35160230
100
AcDbLine
 10
3.474095474302664
 20
-0.3464463898495721
 30
0.0
 11
3.488070342289045
 21
-0.3522038411983892
 31
0.0
1001
REVIT
1002
{
1070
     2
1000
-2001350
1002
}
  0
LINE
  5
7D9
330
753
100
AcDbEntity
  8
D35160230
100
AcDbLine
 10
3.488070342289045
 20
-0.3522038411983892
 30
0.0
 11
3.502264268517659
 21
-0.3573978415340952
 31
0.0
1001
REVIT
1002
{
1070
     2
1000
-2001350
1002
}
  0
LINE
  5
7DA
330
753
100
AcDbEntity
  8
D35160230
100
AcDbLine
 10
3.502264268517659
 20
-0.3573978415340952
 30
0.0
 11
3.516654545734418
 21
-0.3620200815641616
 31
0.0
1001
REVIT
1002
{
1070
     2
1000
-2001350
1002
}
  0
LINE
  5
7DB
330
753
100
AcDbEntity
  8
D35160230
100
AcDbLine
 10
3.531218152565539
 20
-0.3660631666905558
 30
0.0
 11
3.545931790346827
 21
-0.3695206288395531
 31
0.0
1001
REVIT
1002
{
1070
     2
1000
-2001350
1002
}
  0
LINE
  5
7DC
330
753
100
AcDbEntity
  8
D35160230
100
AcDbLine
 10
3.545931790346827
 20
-0.3695206288395531
 30
0.0
 11
3.560771920396575
 21
-0.3723869368092678
 31
0.0
1001
REVIT
1002
{
1070
     2
1000
-2001350
1002
}
  0
LINE
  5
7DD
330
753
100
AcDbEntity
  8
D35160230
100
AcDbLine
 10
3.636034069354465
 20
-0.3777241403845017
 30
0.0
 11
3.65113018015608
 21
-0.3769807562737639
 31
0.0
1001
REVIT
1002
{
1070
     2
1000
-2001350
1002
}
  0
LINE
  5
7DE
330
753
100
AcDbEntity
  8
D35160230
100
AcDbLine
 10
3.795870710898402
 20
-0.3370466986528668
 30
0.0
 11
3.809212305623852
 21
-0.3299440912828444
 31
0.0
1001
REVIT
1002
{
1070
     2
1000
-2001350
1002
}
  0
LINE
  5
7DF
330
753
100
AcDbEntity
  8
D35160230
100
AcDbLine
 10
3.822259199956828
 20
-0.3223136437510987
 30
0.0
 11
3.834990521649594
 21
-0.3141675631459193
 31
0.0
1001
REVIT
1002
{
1070
     2
1000
-2001350
1002
}
  0
LINE
  5
7E0
330
753
100
AcDbEntity
  8
D35160230
100
AcDbLine
 10
3.871090095783948
 20
-0.286769840939997
 30
0.0
 11
3.882360984959525
 21
-0.2766994765740776
 31
0.0
1001
REVIT
1002
{
1070
     2
1000
-2001350
1002
}
  0
LINE
  5
7E1
330
753
100
AcDbEntity
  8
D35160230
100
AcDbLine
 10
3.882360984959525
 20
-0.2766994765740776
 30
0.0
 11
3.893220151459921
 21
-0.2661864520717081
 31
0.0
1001
REVIT
1002
{
1070
     2
1000
-2001350
1002
}
  0
LINE
  5
7E2
330
753
100
AcDbEntity
  8
D35160230
100
AcDbLine
 10
3.903650222935223
 20
-0.2552475860294308
 30
0.0
 11
3.913634513496042
 21
-0.2439003782994262
 31
0.0
1001
REVIT
1002
{
1070
     2
1000
-2001350
1002
}
  0
LINE
  5
7E3
330
753
100
AcDbEntity
  8
D35160230
100
AcDbLine
 10
3.913634513496042
 20
-0.2439003782994262
 30
0.0
 11
3.923157050407343
 21
-0.232162981993455
 31
0.0
1001
REVIT
1002
{
1070
     2
1000
-2001350
1002
}
  0
LINE
  5
7E4
330
753
100
AcDbEntity
  8
D35160230
100
AcDbLine
 10
3.923157050407343
 20
-0.232162981993455
 30
0.0
 11
3.932202599641442
 21
-0.2200541744417463
 31
0.0
1001
REVIT
1002
{
1070
     2
1000
-2001350
1002
}
  0
LINE
  5
7E5
330
753
100
AcDbEntity
  8
D35160230
100
AcDbLine
 10
3.932202599641442
 20
-0.2200541744417463
 30
0.0
 11
3.94075669024917
 21
-0.2075933271533159
 31
0.0
1001
REVIT
1002
{
1070
     2
1000
-2001350
1002
}
  0
LINE
  5
7E6
330
753
100
AcDbEntity
  8
D35160230
100
AcDbLine
 10
3.94075669024917
 20
-0.2075933271533159
 30
0.0
 11
3.948805637510336
 21
-0.1948003748256617
 31
0.0
1001
REVIT
1002
{
1070
     2
1000
-2001350
1002
}
  0
LINE
  5
7E7
330
753
100
AcDbEntity
  8
D35160230
100
AcDbLine
 10
3.969797016109509
 20
-0.1546360067955248
 30
0.0
 11
3.975705006226039
 21
-0.1407241113799678
 31
0.0
1001
REVIT
1002
{
1070
     2
1000
-2001350
1002
}
  0
LINE
  5
7E8
330
753
100
AcDbEntity
  8
D35160230
100
AcDbLine
 10
3.998058648049976
 20
0.0602040034448655
 30
0.0
 11
3.995352722909203
 21
0.0750742136116137
 31
0.0
1001
REVIT
1002
{
1070
     2
1000
-2001350
1002
}
  0
LINE
  5
7E9
330
753
100
AcDbEntity
  8
D35160230
100
AcDbLine
 10
3.992054312416144
 20
0.0898243210515474
 30
0.0
 11
3.988168693323963
 21
0.1044307287393195
 31
0.0
1001
REVIT
1002
{
1070
     2
1000
-2001350
1002
}
  0
LINE
  5
7EA
330
753
100
AcDbEntity
  8
D35160230
100
AcDbLine
 10
3.978661623452836
 20
0.1331192435839582
 30
0.0
 11
3.973055381957614
 21
0.1471554552369582
 31
0.0
1001
REVIT
1002
{
1070
     2
1000
-2001350
1002
}
  0
LINE
  5
7EB
330
753
100
AcDbEntity
  8
D35160230
100
AcDbLine
 10
3.966892326099117
 20
0.1609562495530695
 30
0.0
 11
3.960182315452001
 21
0.1744995482054136
 31
0.0
1001
REVIT
1002
{
1070
     2
1000
-2001350
1002
}
  0
LINE
  5
7EC
330
753
100
AcDbEntity
  8
D35160230
100
AcDbLine
 10
3.960182315452001
 20
0.1744995482054136
 30
0.0
 11
3.952936084601908
 21
0.1877636848051899
 31
0.0
1001
REVIT
1002
{
1070
     2
1000
-2001350
1002
}
  0
LINE
  5
7ED
330
753
100
AcDbEntity
  8
D35160230
100
AcDbLine
 10
3.936882171279645
 20
0.2133700732379032
 30
0.0
 11
3.928100171644139
 21
0.2256713603117247
 31
0.0
1001
REVIT
1002
{
1070
     2
1000
-2001350
1002
}
  0
LINE
  5
7EE
330
753
100
AcDbEntity
  8
D35160230
100
AcDbLine
 10
3.918833276391925
 20
0.2376116213497062
 30
0.0
 11
3.909096310578572
 21
0.2491717544813091
 31
0.0
1001
REVIT
1002
{
1070
     2
1000
-2001350
1002
}
  0
LINE
  5
7EF
330
753
100
AcDbEntity
  8
D35160230
100
AcDbLine
 10
3.909096310578572
 20
0.2491717544813091
 30
0.0
 11
3.898904851272277
 21
0.2603332659595408
 31
0.0
1001
REVIT
1002
{
1070
     2
1000
-2001350
1002
}
  0
LINE
  5
7F0
330
753
100
AcDbEntity
  8
D35160230
100
AcDbLine
 10
3.829172282472008
 20
0.3179794898823146
 30
0.0
 11
3.816293178337843
 21
0.3258898538418356
 31
0.0
1001
REVIT
1002
{
1070
     2
1000
-2001350
1002
}
  0
LINE
  5
7F1
330
753
100
AcDbEntity
  8
D35160230
100
AcDbLine
 10
3.816293178337843
 20
0.3258898538418356
 30
0.0
 11
3.803108045925377
 21
0.3332788635546705
 31
0.0
1001
REVIT
1002
{
1070
     2
1000
-2001350
1002
}
  0
LINE
  5
7F2
330
753
100
AcDbEntity
  8
D35160230
100
AcDbLine
 10
3.76192965771089
 20
0.3522038411982813
 30
0.0
 11
3.747735731482279
 21
0.357397841533998
 31
0.0
1001
REVIT
1002
{
1070
     2
1000
-2001350
1002
}
  0
LINE
  5
7F3
330
753
100
AcDbEntity
  8
D35160230
100
AcDbLine
 10
3.747735731482279
 20
0.357397841533998
 30
0.0
 11
3.733345454265517
 21
0.3620200815640644
 31
0.0
1001
REVIT
1002
{
1070
     2
1000
-2001350
1002
}
  0
LINE
  5
7F4
330
753
100
AcDbEntity
  8
D35160230
100
AcDbLine
 10
3.629079693604243
 20
0.3778632464473717
 30
0.0
 11
3.61396593064547
 21
0.3777241403844045
 31
0.0
1001
REVIT
1002
{
1070
     2
1000
-2001350
1002
}
  0
LINE
  5
7F5
330
753
100
AcDbEntity
  8
D35160230
100
AcDbLine
 10
3.61396593064547
 20
0.3777241403844045
 30
0.0
 11
3.598869819843855
 21
0.3769807562736667
 31
0.0
1001
REVIT
1002
{
1070
     2
1000
-2001350
1002
}
  0
LINE
  5
7F6
330
753
100
AcDbEntity
  8
D35160230
100
AcDbLine
 10
3.598869819843855
 20
0.3769807562736667
 30
0.0
 11
3.583815511756352
 21
0.3756342833711586
 31
0.0
1001
REVIT
1002
{
1070
     2
1000
-2001350
1002
}
  0
LINE
  5
7F7
330
753
100
AcDbEntity
  8
D35160230
100
AcDbLine
 10
3.56882709006448
 20
0.3736868757463043
 30
0.0
 11
3.553928533045588
 21
0.3711416488358659
 31
0.0
1001
REVIT
1002
{
1070
     2
1000
-2001350
1002
}
  0
LINE
  5
7F8
330
753
100
AcDbEntity
  8
D35160230
100
AcDbLine
 10
3.553928533045588
 20
0.3711416488358659
 30
0.0
 11
3.539143675212724
 21
0.3680026744599616
 31
0.0
1001
REVIT
1002
{
1070
     2
1000
-2001350
1002
}
  0
LINE
  5
7F9
330
753
100
AcDbEntity
  8
D35160230
100
AcDbLine
 10
3.539143675212724
 20
0.3680026744599616
 30
0.0
 11
3.524496169184477
 21
0.3642749743079598
 31
0.0
1001
REVIT
1002
{
1070
     2
1000
-2001350
1002
}
  0
LINE
  5
7FA
330
753
100
AcDbEntity
  8
D35160230
100
AcDbLine
 10
3.524496169184477
 20
0.3642749743079598
 30
0.0
 11
3.510009447845863
 21
0.3599645119049264
 31
0.0
1001
REVIT
1002
{
1070
     2
1000
-2001350
1002
}
  0
LINE
  5
7FB
330
753
100
AcDbEntity
  8
D35160230
100
AcDbLine
 10
3.467744240513944
 20
0.3436101032043972
 30
0.0
 11
3.454129289101533
 21
0.3370466986527589
 31
0.0
1001
REVIT
1002
{
1070
     2
1000
-2001350
1002
}
  0
LINE
  5
7FC
330
753
100
AcDbEntity
  8
D35160230
100
AcDbLine
 10
3.454129289101533
 20
0.3370466986527589
 30
0.0
 11
3.440787694376087
 21
0.3299440912827365
 31
0.0
1001
REVIT
1002
{
1070
     2
1000
-2001350
1002
}
  0
LINE
  5
7FD
330
753
100
AcDbEntity
  8
D35160230
100
AcDbLine
 10
3.427740800043107
 20
0.3223136437509908
 30
0.0
 11
3.415009478350341
 21
0.3141675631458114
 31
0.0
1001
REVIT
1002
{
1070
     2
1000
-2001350
1002
}
  0
LINE
  5
7FE
330
753
100
AcDbEntity
  8
D35160230
100
AcDbLine
 10
3.402614096696627
 20
0.3055188814584391
 30
0.0
 11
3.3905744850484
 21
0.296381434734623
 31
0.0
1001
REVIT
1002
{
1070
     2
1000
-2001350
1002
}
  0
LINE
  5
7FF
330
753
100
AcDbEntity
  8
D35160230
100
AcDbLine
 10
3.3905744850484
 20
0.296381434734623
 30
0.0
 11
3.378909904215987
 21
0.2867698409398998
 31
0.0
1001
REVIT
1002
{
1070
     2
1000
-2001350
1002
}
  0
LINE
  5
800
330
753
100
AcDbEntity
  8
D35160230
100
AcDbLine
 10
3.36763901504041
 20
0.2766994765739803
 30
0.0
 11
3.356779848540018
 21
0.2661864520716002
 31
0.0
1001
REVIT
1002
{
1070
     2
1000
-2001350
1002
}
  0
LINE
  5
801
330
753
100
AcDbEntity
  8
D35160230
100
AcDbLine
 10
3.356779848540018
 20
0.2661864520716002
 30
0.0
 11
3.346349777064713
 21
0.2552475860293228
 31
0.0
1001
REVIT
1002
{
1070
     2
1000
-2001350
1002
}
  0
LINE
  5
802
330
753
100
AcDbEntity
  8
D35160230
100
AcDbLine
 10
3.346349777064713
 20
0.2552475860293228
 30
0.0
 11
3.336365486503897
 21
0.2439003782993183
 31
0.0
1001
REVIT
1002
{
1070
     2
1000
-2001350
1002
}
  0
LINE
  5
803
330
753
100
AcDbEntity
  8
D35160230
100
AcDbLine
 10
3.326842949592595
 20
0.2321629819933471
 30
0.0
 11
3.317797400358497
 21
0.2200541744416384
 31
0.0
1001
REVIT
1002
{
1070
     2
1000
-2001350
1002
}
  0
LINE
  5
804
330
753
100
AcDbEntity
  8
D35160230
100
AcDbLine
 10
3.317797400358497
 20
0.2200541744416384
 30
0.0
 11
3.309243309750769
 21
0.2075933271532186
 31
0.0
1001
REVIT
1002
{
1070
     2
1000
-2001350
1002
}
  0
LINE
  5
805
330
753
100
AcDbEntity
  8
D35160230
100
AcDbLine
 10
3.309243309750769
 20
0.2075933271532186
 30
0.0
 11
3.301194362489603
 21
0.1948003748255644
 31
0.0
1001
REVIT
1002
{
1070
     2
1000
-2001350
1002
}
  0
LINE
  5
806
330
753
100
AcDbEntity
  8
D35160230
100
AcDbLine
 10
3.301194362489603
 20
0.1948003748255644
 30
0.0
 11
3.293663435173602
 21
0.1816957834533774
 31
0.0
1001
REVIT
1002
{
1070
     2
1000
-2001350
1002
}
  0
LINE
  5
807
330
753
100
AcDbEntity
  8
D35160230
100
AcDbLine
 10
3.293663435173602
 20
0.1816957834533774
 30
0.0
 11
3.286662575679958
 21
0.1683005175873717
 31
0.0
1001
REVIT
1002
{
1070
     2
1000
-2001350
1002
}
  0
LINE
  5
808
330
753
100
AcDbEntity
  8
D35160230
100
AcDbLine
 10
3.286662575679958
 20
0.1683005175873717
 30
0.0
 11
3.280202983890429
 21
0.1546360067954169
 31
0.0
1001
REVIT
1002
{
1070
     2
1000
-2001350
1002
}
  0
LINE
  5
809
330
753
100
AcDbEntity
  8
D35160230
100
AcDbLine
 10
3.280202983890429
 20
0.1546360067954169
 30
0.0
 11
3.274294993773899
 21
0.1407241113798598
 31
0.0
1001
REVIT
1002
{
1070
     2
1000
-2001350
1002
}
  0
LINE
  5
80A
330
753
100
AcDbEntity
  8
D35160230
100
AcDbLine
 10
3.274294993773899
 20
0.1407241113798598
 30
0.0
 11
3.268948056854249
 21
0.1265870874056276
 31
0.0
1001
REVIT
1002
{
1070
     2
1000
-2001350
1002
}
  0
LINE
  5
80B
330
753
100
AcDbEntity
  8
D35160230
100
AcDbLine
 10
3.268948056854249
 20
0.1265870874056276
 30
0.0
 11
3.26417072708994
 21
0.1122475510953536
 31
0.0
1001
REVIT
1002
{
1070
     2
1000
-2001350
1002
}
  0
LINE
  5
80C
330
753
100
AcDbEntity
  8
D35160230
100
AcDbLine
 10
3.26417072708994
 20
0.1122475510953536
 30
0.0
 11
3.259970647189479
 21
0.0977284426481859
 31
0.0
1001
REVIT
1002
{
1070
     2
1000
-2001350
1002
}
  0
LINE
  5
80D
330
753
100
AcDbEntity
  8
D35160230
100
AcDbLine
 10
3.259970647189479
 20
0.0977284426481859
 30
0.0
 11
3.256354536384741
 21
0.0830529895404084
 31
0.0
1001
REVIT
1002
{
1070
     2
1000
-2001350
1002
}
  0
LINE
  5
80E
330
753
100
AcDbEntity
  8
D35160230
100
AcDbLine
 10
3.256354536384741
 20
0.0830529895404084
 30
0.0
 11
3.253328179681616
 21
0.0682446693663963
 31
0.0
1001
REVIT
1002
{
1070
     2
1000
-2001350
1002
}
  0
LINE
  5
80F
330
753
100
AcDbEntity
  8
D35160230
100
AcDbLine
 10
3.253328179681616
 20
0.0682446693663963
 30
0.0
 11
3.25089641860524
 21
0.0533271722794767
 31
0.0
1001
REVIT
1002
{
1070
     2
1000
-2001350
1002
}
  0
LINE
  5
810
330
753
100
AcDbEntity
  8
D35160230
100
AcDbLine
 10
3.25089641860524
 20
0.0533271722794767
 30
0.0
 11
3.249063143454588
 21
0.0383243630927724
 31
0.0
1001
REVIT
1002
{
1070
     2
1000
-2001350
1002
}
  0
LINE
  5
811
330
753
100
AcDbEntity
  8
D35160230
100
AcDbLine
 10
3.249063143454588
 20
0.0383243630927724
 30
0.0
 11
3.24783128707882
 21
0.0232602431005477
 31
0.0
1001
REVIT
1002
{
1070
     2
1000
-2001350
1002
}
  0
LINE
  5
812
330
753
100
AcDbEntity
  8
D35160230
100
AcDbLine
 10
3.24783128707882
 20
0.0232602431005477
 30
0.0
 11
3.247202820185364
 21
0.0081589116812738
 31
0.0
1001
REVIT
1002
{
1070
     2
1000
-2001350
1002
}
  0
LINE
  5
813
330
753
100
AcDbEntity
  8
D35160230
100
AcDbLine
 10
3.247202820185364
 20
0.0081589116812738
 30
0.0
 11
3.24711473048595
 21
0.0000000000013211
 31
0.0
1001
REVIT
1002
{
1070
     2
1000
-2001350
1002
}
  0
LINE
  5
814
330
753
100
AcDbEntity
  8
D35160230
100
AcDbLine
 10
3.247114730485936
 20
-0.0000000000000432
 30
0.0
 11
3.247416998395934
 21
-0.0151113803268471
 31
0.0
1001
REVIT
1002
{
1070
     2
1000
-2001350
1002
}
  0
LINE
  5
815
330
753
100
AcDbEntity
  8
D35160230
100
AcDbLine
 10
3.247416998395934
 20
-0.0151113803268471
 30
0.0
 11
3.248323318561755
 21
-0.0301985856687145
 31
0.0
1001
REVIT
1002
{
1070
     2
1000
-2001350
1002
}
  0
LINE
  5
816
330
753
100
AcDbEntity
  8
D35160230
100
AcDbLine
 10
3.248323318561755
 20
-0.0301985856687145
 30
0.0
 11
3.249832241064471
 21
-0.0452374797155321
 31
0.0
1001
REVIT
1002
{
1070
     2
1000
-2001350
1002
}
  0
LINE
  5
817
330
753
100
AcDbEntity
  8
D35160230
100
AcDbLine
 10
3.249832241064471
 20
-0.0452374797155321
 30
0.0
 11
3.251941351949962
 21
-0.0602040034449628
 31
0.0
1001
REVIT
1002
{
1070
     2
1000
-2001350
1002
}
  0
LINE
  5
818
330
753
100
AcDbEntity
  8
D35160230
100
AcDbLine
 10
3.251941351949962
 20
-0.0602040034449628
 30
0.0
 11
3.254647277090732
 21
-0.075074213611711
 31
0.0
1001
REVIT
1002
{
1070
     2
1000
-2001350
1002
}
  0
LINE
  5
819
330
753
100
AcDbEntity
  8
D35160230
100
AcDbLine
 10
3.254647277090732
 20
-0.075074213611711
 30
0.0
 11
3.257945687583791
 21
-0.0898243210516553
 31
0.0
1001
REVIT
1002
{
1070
     2
1000
-2001350
1002
}
  0
LINE
  5
81A
330
753
100
AcDbEntity
  8
D35160230
100
AcDbLine
 10
3.257945687583791
 20
-0.0898243210516553
 30
0.0
 11
3.261831306675976
 21
-0.1044307287394167
 31
0.0
1001
REVIT
1002
{
1070
     2
1000
-2001350
1002
}
  0
LINE
  5
81B
330
753
100
AcDbEntity
  8
D35160230
100
AcDbLine
 10
3.261831306675976
 20
-0.1044307287394167
 30
0.0
 11
3.266297918205619
 21
-0.1188700695385668
 31
0.0
1001
REVIT
1002
{
1070
     2
1000
-2001350
1002
}
  0
LINE
  5
81C
330
753
100
AcDbEntity
  8
D35160230
100
AcDbLine
 10
3.266297918205619
 20
-0.1188700695385668
 30
0.0
 11
3.271338376547102
 21
-0.1331192435840555
 31
0.0
1001
REVIT
1002
{
1070
     2
1000
-2001350
1002
}
  0
LINE
  5
81D
330
753
100
AcDbEntity
  8
D35160230
100
AcDbLine
 10
3.271338376547102
 20
-0.1331192435840555
 30
0.0
 11
3.276944618042321
 21
-0.1471554552370554
 31
0.0
1001
REVIT
1002
{
1070
     2
1000
-2001350
1002
}
  0
LINE
  5
81E
330
753
100
AcDbEntity
  8
D35160230
100
AcDbLine
 10
3.276944618042321
 20
-0.1471554552370554
 30
0.0
 11
3.283107673900818
 21
-0.1609562495531774
 31
0.0
1001
REVIT
1002
{
1070
     2
1000
-2001350
1002
}
  0
LINE
  5
81F
330
753
100
AcDbEntity
  8
D35160230
100
AcDbLine
 10
3.283107673900818
 20
-0.1609562495531774
 30
0.0
 11
3.289817684547937
 21
-0.1744995482055108
 31
0.0
1001
REVIT
1002
{
1070
     2
1000
-2001350
1002
}
  0
LINE
  5
820
330
753
100
AcDbEntity
  8
D35160230
100
AcDbLine
 10
3.289817684547937
 20
-0.1744995482055108
 30
0.0
 11
3.29706391539803
 21
-0.1877636848052978
 31
0.0
1001
REVIT
1002
{
1070
     2
1000
-2001350
1002
}
  0
LINE
  5
821
330
753
100
AcDbEntity
  8
D35160230
100
AcDbLine
 10
3.29706391539803
 20
-0.1877636848052978
 30
0.0
 11
3.304834774027519
 21
-0.2007274395635084
 31
0.0
1001
REVIT
1002
{
1070
     2
1000
-2001350
1002
}
  0
LINE
  5
822
330
753
100
AcDbEntity
  8
D35160230
100
AcDbLine
 10
3.304834774027519
 20
-0.2007274395635084
 30
0.0
 11
3.31311782872029
 21
-0.2133700732380005
 31
0.0
1001
REVIT
1002
{
1070
     2
1000
-2001350
1002
}
  0
LINE
  5
823
330
753
100
AcDbEntity
  8
D35160230
100
AcDbLine
 10
3.31311782872029
 20
-0.2133700732380005
 30
0.0
 11
3.321899828355796
 21
-0.225671360311822
 31
0.0
1001
REVIT
1002
{
1070
     2
1000
-2001350
1002
}
  0
LINE
  5
824
330
753
100
AcDbEntity
  8
D35160230
100
AcDbLine
 10
3.321899828355796
 20
-0.225671360311822
 30
0.0
 11
3.33116672360801
 21
-0.2376116213498141
 31
0.0
1001
REVIT
1002
{
1070
     2
1000
-2001350
1002
}
  0
LINE
  5
825
330
753
100
AcDbEntity
  8
D35160230
100
AcDbLine
 10
3.351095148727662
 20
-0.2603332659596381
 30
0.0
 11
3.361724797366075
 21
-0.271078299747146
 31
0.0
1001
REVIT
1002
{
1070
     2
1000
-2001350
1002
}
  0
LINE
  5
826
330
753
100
AcDbEntity
  8
D35160230
100
AcDbLine
 10
3.361724797366075
 20
-0.271078299747146
 30
0.0
 11
3.372775630166323
 21
-0.2813896660820068
 31
0.0
1001
REVIT
1002
{
1070
     2
1000
-2001350
1002
}
  0
LINE
  5
827
330
753
100
AcDbEntity
  8
D35160230
100
AcDbLine
 10
3.384229968153309
 20
-0.2912508689777239
 30
0.0
 11
3.396069486829716
 21
-0.3006461326132848
 31
0.0
1001
REVIT
1002
{
1070
     2
1000
-2001350
1002
}
  0
LINE
  5
828
330
753
100
AcDbEntity
  8
D35160230
100
AcDbLine
 10
3.420827717527927
 20
-0.3179794898824225
 30
0.0
 11
3.433706821662092
 21
-0.3258898538419435
 31
0.0
1001
REVIT
1002
{
1070
     2
1000
-2001350
1002
}
  0
LINE
  5
829
330
753
100
AcDbEntity
  8
D35160230
100
AcDbLine
 10
3.433706821662092
 20
-0.3258898538419435
 30
0.0
 11
3.446891954074562
 21
-0.3332788635547677
 31
0.0
1001
REVIT
1002
{
1070
     2
1000
-2001350
1002
}
  0
LINE
  5
82A
330
753
100
AcDbEntity
  8
D35160230
100
AcDbLine
 10
3.446891954074562
 20
-0.3332788635547677
 30
0.0
 11
3.460362021366155
 21
-0.3401346981816223
 31
0.0
1001
REVIT
1002
{
1070
     2
1000
-2001350
1002
}
  0
LINE
  5
82B
330
753
100
AcDbEntity
  8
D35160230
100
AcDbLine
 10
3.516654545734418
 20
-0.3620200815641616
 30
0.0
 11
3.531218152565539
 21
-0.3660631666905558
 31
0.0
1001
REVIT
1002
{
1070
     2
1000
-2001350
1002
}
  0
LINE
  5
82C
330
753
100
AcDbEntity
  8
D35160230
100
AcDbLine
 10
3.560771920396575
 20
-0.3723869368092678
 30
0.0
 11
3.575714801672429
 21
-0.3746575051184037
 31
0.0
1001
REVIT
1002
{
1070
     2
1000
-2001350
1002
}
  0
LINE
  5
82D
330
753
100
AcDbEntity
  8
D35160230
100
AcDbLine
 10
3.575714801672429
 20
-0.3746575051184037
 30
0.0
 11
3.590736528751993
 21
-0.3763287013420189
 31
0.0
1001
REVIT
1002
{
1070
     2
1000
-2001350
1002
}
  0
LINE
  5
82E
330
753
100
AcDbEntity
  8
D35160230
100
AcDbLine
 10
3.590736528751993
 20
-0.3763287013420189
 30
0.0
 11
3.605813070076401
 21
-0.377397851922663
 31
0.0
1001
REVIT
1002
{
1070
     2
1000
-2001350
1002
}
  0
LINE
  5
82F
330
753
100
AcDbEntity
  8
D35160230
100
AcDbLine
 10
3.605813070076401
 20
-0.377397851922663
 30
0.0
 11
3.620920306395696
 21
-0.3778632464474795
 31
0.0
1001
REVIT
1002
{
1070
     2
1000
-2001350
1002
}
  0
LINE
  5
830
330
753
100
AcDbEntity
  8
D35160230
100
AcDbLine
 10
3.620920306395696
 20
-0.3778632464474795
 30
0.0
 11
3.636034069354465
 21
-0.3777241403845017
 31
0.0
1001
REVIT
1002
{
1070
     2
1000
-2001350
1002
}
  0
LINE
  5
831
330
753
100
AcDbEntity
  8
D35160230
100
AcDbLine
 10
3.65113018015608
 20
-0.3769807562737639
 30
0.0
 11
3.666184488243587
 21
-0.3756342833712664
 31
0.0
1001
REVIT
1002
{
1070
     2
1000
-2001350
1002
}
  0
LINE
  5
832
330
753
100
AcDbEntity
  8
D35160230
100
AcDbLine
 10
3.666184488243587
 20
-0.3756342833712664
 30
0.0
 11
3.681172909935458
 21
-0.3736868757464122
 31
0.0
1001
REVIT
1002
{
1070
     2
1000
-2001350
1002
}
  0
LINE
  5
833
330
753
100
AcDbEntity
  8
D35160230
100
AcDbLine
 10
3.681172909935458
 20
-0.3736868757464122
 30
0.0
 11
3.696071466954347
 21
-0.3711416488359737
 31
0.0
1001
REVIT
1002
{
1070
     2
1000
-2001350
1002
}
  0
LINE
  5
834
330
753
100
AcDbEntity
  8
D35160230
100
AcDbLine
 10
3.696071466954347
 20
-0.3711416488359737
 30
0.0
 11
3.710856324787211
 21
-0.3680026744600588
 31
0.0
1001
REVIT
1002
{
1070
     2
1000
-2001350
1002
}
  0
LINE
  5
835
330
753
100
AcDbEntity
  8
D35160230
100
AcDbLine
 10
3.710856324787211
 20
-0.3680026744600588
 30
0.0
 11
3.725503830815458
 21
-0.3642749743080677
 31
0.0
1001
REVIT
1002
{
1070
     2
1000
-2001350
1002
}
  0
LINE
  5
836
330
753
100
AcDbEntity
  8
D35160230
100
AcDbLine
 10
3.725503830815458
 20
-0.3642749743080677
 30
0.0
 11
3.739990552154075
 21
-0.3599645119050236
 31
0.0
1001
REVIT
1002
{
1070
     2
1000
-2001350
1002
}
  0
LINE
  5
837
330
753
100
AcDbEntity
  8
D35160230
100
AcDbLine
 10
3.739990552154075
 20
-0.3599645119050236
 30
0.0
 11
3.754293313139253
 21
-0.3550781830712679
 31
0.0
1001
REVIT
1002
{
1070
     2
1000
-2001350
1002
}
  0
LINE
  5
838
330
753
100
AcDbEntity
  8
D35160230
100
AcDbLine
 10
3.754293313139253
 20
-0.3550781830712679
 30
0.0
 11
3.768389232404508
 21
-0.3496238048905808
 31
0.0
1001
REVIT
1002
{
1070
     2
1000
-2001350
1002
}
  0
LINE
  5
839
330
753
100
AcDbEntity
  8
D35160230
100
AcDbLine
 10
3.768389232404508
 20
-0.3496238048905808
 30
0.0
 11
3.782255759485991
 21
-0.3436101032044945
 31
0.0
1001
REVIT
1002
{
1070
     2
1000
-2001350
1002
}
  0
LINE
  5
83A
330
753
100
AcDbEntity
  8
D35160230
100
AcDbLine
 10
3.782255759485991
 20
-0.3436101032044945
 30
0.0
 11
3.795870710898402
 21
-0.3370466986528668
 31
0.0
1001
REVIT
1002
{
1070
     2
1000
-2001350
1002
}
  0
LINE
  5
83B
330
753
100
AcDbEntity
  8
D35160230
100
AcDbLine
 10
3.809212305623852
 20
-0.3299440912828444
 30
0.0
 11
3.822259199956828
 21
-0.3223136437510987
 31
0.0
1001
REVIT
1002
{
1070
     2
1000
-2001350
1002
}
  0
LINE
  5
83C
330
753
100
AcDbEntity
  8
D35160230
100
AcDbLine
 10
3.834990521649594
 20
-0.3141675631459193
 30
0.0
 11
3.847385903303308
 21
-0.305518881458547
 31
0.0
1001
REVIT
1002
{
1070
     2
1000
-2001350
1002
}
  0
LINE
  5
83D
330
753
100
AcDbEntity
  8
D35160230
100
AcDbLine
 10
3.847385903303308
 20
-0.305518881458547
 30
0.0
 11
3.859425514951535
 21
-0.2963814347347309
 31
0.0
1001
REVIT
1002
{
1070
     2
1000
-2001350
1002
}
  0
LINE
  5
83E
330
753
100
AcDbEntity
  8
D35160230
100
AcDbLine
 10
3.859425514951535
 20
-0.2963814347347309
 30
0.0
 11
3.871090095783948
 21
-0.286769840939997
 31
0.0
1001
REVIT
1002
{
1070
     2
1000
-2001350
1002
}
  0
LINE
  5
83F
330
753
100
AcDbEntity
  8
D35160230
100
AcDbLine
 10
3.893220151459921
 20
-0.2661864520717081
 30
0.0
 11
3.903650222935223
 21
-0.2552475860294308
 31
0.0
1001
REVIT
1002
{
1070
     2
1000
-2001350
1002
}
  0
LINE
  5
840
330
753
100
AcDbEntity
  8
D35160230
100
AcDbLine
 10
3.948805637510336
 20
-0.1948003748256617
 30
0.0
 11
3.956336564826337
 21
-0.1816957834534854
 31
0.0
1001
REVIT
1002
{
1070
     2
1000
-2001350
1002
}
  0
LINE
  5
841
330
753
100
AcDbEntity
  8
D35160230
100
AcDbLine
 10
3.956336564826337
 20
-0.1816957834534854
 30
0.0
 11
3.963337424319977
 21
-0.1683005175874797
 31
0.0
1001
REVIT
1002
{
1070
     2
1000
-2001350
1002
}
  0
LINE
  5
842
330
753
100
AcDbEntity
  8
D35160230
100
AcDbLine
 10
3.963337424319977
 20
-0.1683005175874797
 30
0.0
 11
3.969797016109509
 21
-0.1546360067955248
 31
0.0
1001
REVIT
1002
{
1070
     2
1000
-2001350
1002
}
  0
LINE
  5
843
330
753
100
AcDbEntity
  8
D35160230
100
AcDbLine
 10
3.975705006226039
 20
-0.1407241113799678
 30
0.0
 11
3.981051943145686
 21
-0.1265870874057249
 31
0.0
1001
REVIT
1002
{
1070
     2
1000
-2001350
1002
}
  0
LINE
  5
844
330
753
100
AcDbEntity
  8
D35160230
100
AcDbLine
 10
3.981051943145686
 20
-0.1265870874057249
 30
0.0
 11
3.985829272909995
 21
-0.1122475510954508
 31
0.0
1001
REVIT
1002
{
1070
     2
1000
-2001350
1002
}
  0
LINE
  5
845
330
753
100
AcDbEntity
  8
D35160230
100
AcDbLine
 10
3.985829272909995
 20
-0.1122475510954508
 30
0.0
 11
3.990029352810456
 21
-0.0977284426482832
 31
0.0
1001
REVIT
1002
{
1070
     2
1000
-2001350
1002
}
  0
LINE
  5
846
330
753
100
AcDbEntity
  8
D35160230
100
AcDbLine
 10
3.990029352810456
 20
-0.0977284426482832
 30
0.0
 11
3.993645463615195
 21
-0.0830529895405163
 31
0.0
1001
REVIT
1002
{
1070
     2
1000
-2001350
1002
}
  0
LINE
  5
847
330
753
100
AcDbEntity
  8
D35160230
100
AcDbLine
 10
3.993645463615195
 20
-0.0830529895405163
 30
0.0
 11
3.996671820318322
 21
-0.0682446693664935
 31
0.0
1001
REVIT
1002
{
1070
     2
1000
-2001350
1002
}
  0
LINE
  5
848
330
753
100
AcDbEntity
  8
D35160230
100
AcDbLine
 10
3.996671820318322
 20
-0.0682446693664935
 30
0.0
 11
3.999103581394699
 21
-0.0533271722795846
 31
0.0
1001
REVIT
1002
{
1070
     2
1000
-2001350
1002
}
  0
LINE
  5
849
330
753
100
AcDbEntity
  8
D35160230
100
AcDbLine
 10
3.999103581394699
 20
-0.0533271722795846
 30
0.0
 11
4.000936856545351
 21
-0.0383243630928804
 31
0.0
1001
REVIT
1002
{
1070
     2
1000
-2001350
1002
}
  0
LINE
  5
84A
330
753
100
AcDbEntity
  8
D35160230
100
AcDbLine
 10
4.000936856545351
 20
-0.0383243630928804
 30
0.0
 11
4.002168712921115
 21
-0.0232602431006449
 31
0.0
1001
REVIT
1002
{
1070
     2
1000
-2001350
1002
}
  0
LINE
  5
84B
330
753
100
AcDbEntity
  8
D35160230
100
AcDbLine
 10
4.002168712921115
 20
-0.0232602431006449
 30
0.0
 11
4.002797179814574
 21
-0.0081589116813817
 31
0.0
1001
REVIT
1002
{
1070
     2
1000
-2001350
1002
}
  0
LINE
  5
84C
330
753
100
AcDbEntity
  8
D35160230
100
AcDbLine
 10
4.002797179814574
 20
-0.0081589116813817
 30
0.0
 11
4.002885269514003
 21
-0.0000000000000541
 31
0.0
1001
REVIT
1002
{
1070
     2
1000
-2001350
1002
}
  0
LINE
  5
84D
330
753
100
AcDbEntity
  8
D35160230
100
AcDbLine
 10
3.326761529341059
 20
0.2292908494181411
 30
0.0
 11
3.173767286080199
 21
0.2292908494181411
 31
0.0
1001
REVIT
1002
{
1070
     2
1000
-2001350
1002
}
  0
LINE
  5
84E
330
753
100
AcDbEntity
  8
D35160230
100
AcDbLine
 10
3.173767286080199
 20
-0.229290849419464
 30
0.0
 11
3.327378364968019
 21
-0.229290849419464
 31
0.0
1001
REVIT
1002
{
1070
     2
1000
-2001350
1002
}
  0
LINE
  5
84F
330
753
100
AcDbEntity
  8
D35160230
100
AcDbLine
 10
0.3561709652967977
 20
0.7978790117158353
 30
0.0
 11
0.6762921021467108
 21
0.6870346328815627
 31
0.0
1001
REVIT
1002
{
1070
     2
1000
-2001350
1002
}
  0
LINE
  5
850
330
753
100
AcDbEntity
  8
D35160230
100
AcDbLine
 10
0.6762921021467108
 20
0.6870346328815627
 30
0.0
 11
1.000589769139516
 21
0.5890803488492753
 31
0.0
1001
REVIT
1002
{
1070
     2
1000
-2001350
1002
}
  0
LINE
  5
851
330
753
100
AcDbEntity
  8
D35160230
100
AcDbLine
 10
1.000589769139516
 20
0.5890803488492753
 30
0.0
 11
1.328545159187815
 21
0.5041728655776363
 31
0.0
1001
REVIT
1002
{
1070
     2
1000
-2001350
1002
}
  0
LINE
  5
852
330
753
100
AcDbEntity
  8
D35160230
100
AcDbLine
 10
1.328545159187815
 20
0.5041728655776363
 30
0.0
 11
1.659633613627612
 21
0.4324480169272316
 31
0.0
1001
REVIT
1002
{
1070
     2
1000
-2001350
1002
}
  0
LINE
  5
853
330
753
100
AcDbEntity
  8
D35160230
100
AcDbLine
 10
1.659633613627612
 20
0.4324480169272316
 30
0.0
 11
1.993325461560239
 21
0.3740205473554528
 31
0.0
1001
REVIT
1002
{
1070
     2
1000
-2001350
1002
}
  0
LINE
  5
854
330
753
100
AcDbEntity
  8
D35160230
100
AcDbLine
 10
1.993325461560239
 20
0.3740205473554528
 30
0.0
 11
2.329086867212808
 21
0.3289839283497247
 31
0.0
1001
REVIT
1002
{
1070
     2
1000
-2001350
1002
}
  0
LINE
  5
855
330
753
100
AcDbEntity
  8
D35160230
100
AcDbLine
 10
2.329086867212808
 20
0.3289839283497247
 30
0.0
 11
2.666380683961548
 21
0.2974102088931788
 31
0.0
1001
REVIT
1002
{
1070
     2
1000
-2001350
1002
}
  0
LINE
  5
856
330
753
100
AcDbEntity
  8
D35160230
100
AcDbLine
 10
2.666380683961548
 20
0.2974102088931788
 30
0.0
 11
3.004667313651843
 21
0.2793499002015587
 31
0.0
1001
REVIT
1002
{
1070
     2
1000
-2001350
1002
}
  0
LINE
  5
857
330
753
100
AcDbEntity
  8
D35160230
100
AcDbLine
 10
3.004667313651843
 20
0.2793499002015587
 30
0.0
 11
3.173767286080149
 21
0.2754004420292688
 31
0.0
1001
REVIT
1002
{
1070
     2
1000
-2001350
1002
}
  0
LINE
  5
858
330
753
100
AcDbEntity
  8
D35160230
100
AcDbLine
 10
3.173767286080149
 20
-0.2754004420306023
 30
0.0
 11
2.835187458245574
 21
-0.2867017145591189
 31
0.0
1001
REVIT
1002
{
1070
     2
1000
-2001350
1002
}
  0
LINE
  5
859
330
753
100
AcDbEntity
  8
D35160230
100
AcDbLine
 10
2.835187458245574
 20
-0.2867017145591189
 30
0.0
 11
2.497330388523888
 21
-0.3115335291591532
 31
0.0
1001
REVIT
1002
{
1070
     2
1000
-2001350
1002
}
  0
LINE
  5
85A
330
753
100
AcDbEntity
  8
D35160230
100
AcDbLine
 10
2.497330388523888
 20
-0.3115335291591532
 30
0.0
 11
2.160736576154313
 21
-0.3498561602245086
 31
0.0
1001
REVIT
1002
{
1070
     2
1000
-2001350
1002
}
  0
LINE
  5
85B
330
753
100
AcDbEntity
  8
D35160230
100
AcDbLine
 10
2.160736576154313
 20
-0.3498561602245086
 30
0.0
 11
1.825944499433795
 21
-0.4016082997205469
 31
0.0
1001
REVIT
1002
{
1070
     2
1000
-2001350
1002
}
  0
LINE
  5
85C
330
753
100
AcDbEntity
  8
D35160230
100
AcDbLine
 10
1.825944499433795
 20
-0.4016082997205469
 30
0.0
 11
1.49348975426658
 21
-0.4667071552639295
 31
0.0
1001
REVIT
1002
{
1070
     2
1000
-2001350
1002
}
  0
LINE
  5
85D
330
753
100
AcDbEntity
  8
D35160230
100
AcDbLine
 10
1.49348975426658
 20
-0.4667071552639295
 30
0.0
 11
1.163904197325045
 21
-0.5450485825728074
 31
0.0
1001
REVIT
1002
{
1070
     2
1000
-2001350
1002
}
  0
LINE
  5
85E
330
753
100
AcDbEntity
  8
D35160230
100
AcDbLine
 10
1.163904197325045
 20
-0.5450485825728074
 30
0.0
 11
0.8377150951924576
 21
-0.6365072520754361
 31
0.0
1001
REVIT
1002
{
1070
     2
1000
-2001350
1002
}
  0
LINE
  5
85F
330
753
100
AcDbEntity
  8
D35160230
100
AcDbLine
 10
0.8377150951924576
 20
-0.6365072520754361
 30
0.0
 11
0.5154442808489357
 21
-0.7409368494107511
 31
0.0
1001
REVIT
1002
{
1070
     2
1000
-2001350
1002
}
  0
LINE
  5
860
330
753
100
AcDbEntity
  8
D35160230
100
AcDbLine
 10
0.5154442808489357
 20
-0.7409368494107511
 30
0.0
 11
0.3561709652967764
 21
-0.7978790117171677
 31
0.0
1001
REVIT
1002
{
1070
     2
1000
-2001350
1002
}
  0
LINE
  5
861
330
753
100
AcDbEntity
  8
D35160230
100
AcDbLine
 10
0.3561709652967693
 20
-0.8518850801673378
 30
0.0
 11
0.3561709652967941
 21
0.8518850801673352
 31
0.0
1001
REVIT
1002
{
1070
     2
1000
-2001350
1002
}
  0
LINE
  5
862
330
753
100
AcDbEntity
  8
D35160230
100
AcDbLine
 10
0.3561709652967266
 20
0.8518850801673371
 30
0.0
 11
0.3561709652967266
 21
0.8518850801673378
 31
0.0
1001
REVIT
1002
{
1070
     2
1000
-2001350
1002
}
  0
LINE
  5
863
330
753
100
AcDbEntity
  8
D35160230
100
AcDbLine
 10
0.3561709652967018
 20
-0.8518850801673421
 30
0.0
 11
0.3561709652967053
 21
-0.8518850801673421
 31
0.0
1001
REVIT
1002
{
1070
     2
1000
-2001350
1002
}
  0
LINE
  5
864
330
753
100
AcDbEntity
  8
D35160230
100
AcDbLine
 10
3.247248041232911
 20
0.0000022405484638
 30
0.0
 11
3.173767286080199
 21
0.0000073545966714
 31
0.0
1001
REVIT
1002
{
1070
     2
1000
-2001350
1002
}
  0
SPLINE
  5
865
330
753
100
AcDbEntity
  8
D35160230
100
AcDbSpline
210
0.0
220
0.0
230
1.0
 70
     8
 71
     3
 72
    10
 73
     6
 74
     0
 42
0.000000001
 43
0.0000000001
 40
0.0
 40
0.0
 40
0.0
 40
0.0
 40
0.3333333333333333
 40
0.6666666666666666
 40
1.0
 40
1.0
 40
1.0
 40
1.0
 10
0.3561709652966698
 20
0.7332150779988367
 30
0.0
 10
0.6559567788519445
 20
0.6357917660316075
 30
0.0
 10
1.268313436827309
 20
0.4673319132116636
 30
0.0
 10
2.21295621613909
 20
0.308386304682807
 30
0.0
 10
2.853180359491105
 20
0.2660713932237326
 30
0.0
 10
3.173767286080146
 20
0.2624828910921004
 30
0.0
1001
REVIT
1002
{
1070
     2
1000
-2001350
1002
}
  0
LINE
  5
866
330
753
100
AcDbEntity
  8
D35160230
100
AcDbLine
 10
3.173767286080146
 20
0.2624828910921044
 30
0.0
 11
3.173767286080146
 21
-0.262484159496986
 31
0.0
1001
REVIT
1002
{
1070
     2
1000
-2001350
1002
}
  0
SPLINE
  5
867
330
753
100
AcDbEntity
  8
D35160230
100
AcDbSpline
210
0.0
220
0.0
230
1.0
 70
     8
 71
     3
 72
    10
 73
     6
 74
     0
 42
0.000000001
 43
0.0000000001
 40
-1.0
 40
-1.0
 40
-1.0
 40
-1.0
 40
-0.6666666666666666
 40
-0.3333333333333333
 40
0.0
 40
0.0
 40
0.0
 40
0.0
 10
3.173767286080146
 20
-0.2624841594969905
 30
0.0
 10
2.853227108650127
 20
-0.2681063220912716
 30
0.0
 10
2.213055168940847
 20
-0.3071057624576113
 30
0.0
 10
1.267822585444033
 20
-0.4687780179923927
 30
0.0
 10
0.6557520009552676
 20
-0.6335586529112806
 30
0.0
 10
0.3561709652966698
 20
-0.7332150780001479
 30
0.0
1001
REVIT
1002
{
1070
     2
1000
-2001350
1002
}
  0
SPLINE
  5
868
330
753
100
AcDbEntity
  8
D35160230
100
AcDbSpline
210
0.0
220
0.0
230
1.0
 70
     8
 71
     3
 72
    10
 73
     6
 74
     0
 42
0.000000001
 43
0.0000000001
 40
-1.0
 40
-1.0
 40
-1.0
 40
-1.0
 40
-0.6666666666666666
 40
-0.3333333333333333
 40
-0.0000001520380464
 40
-0.0000001520380464
 40
-0.0000001520380464
 40
-0.0000001520380464
 10
3.173767286080146
 20
0.0000070313403091
 30
0.0
 10
2.85318035898738
 20
-0.0020291138863805
 30
0.0
 10
2.212956215080552
 20
0.0012637435522449
 30
0.0
 10
1.268313586207611
 20
-0.0013408652943578
 30
0.0
 10
0.6559570605586913
 20
0.0023035025410082
 30
0.0
 10
0.3561713755063209
 20
0.0000000031513335
 30
0.0
1001
REVIT
1002
{
1070
     2
1000
-2001350
1002
}
  0
LINE
  5
869
330
753
100
AcDbEntity
  8
D35160230
100
AcDbLine
 10
-0.0000000000000284
 20
1.0
 30
0.0
 11
0.0000000000000284
 21
-1.0
 31
0.0
  0
ENDBLK
  5
755
330
753
100
AcDbEntity
  8
0
100
AcDbBlockEnd
  0
ENDSEC
  0
SECTION
  2
ENTITIES
  0
INSERT
  5
686
330
70
100
AcDbEntity
  8
D35160230
100
AcDbBlockReference
  2
D35160230 Top View
 10
0.000000000001273
 20
21.17612877695673
 30
0.0
  0
INSERT
  5
752
330
70
100
AcDbEntity
  8
D35160230
100
AcDbBlockReference
  2
D35160230 Front View
 10
0.0354769865505205
 20
0.0020358786603367
 30
0.0
  0
INSERT
  5
86A
330
70
100
AcDbEntity
  8
D35160230
100
AcDbBlockReference
  2
D35160230 Side View
 10
-17.04831325378939
 20
-0.0000000000017095
 30
0.0
  0
ENDSEC
  0
SECTION
  2
OBJECTS
  0
DICTIONARY
  5
C
330
0
100
AcDbDictionary
281
     1
  3
ACAD_CIP_PREVIOUS_PRODUCT_INFO
350
79
  3
ACAD_COLOR
350
63
  3
ACAD_DETAILVIEWSTYLE
350
6A
  3
ACAD_GROUP
350
D
  3
ACAD_IMAGE_VARS
350
7A
  3
ACAD_LAYOUT
350
62
  3
ACAD_MATERIAL
350
10
  3
ACAD_MLEADERSTYLE
350
66
  3
ACAD_MLINESTYLE
350
5F
  3
ACAD_PLOTSETTINGS
350
61
  3
ACAD_PLOTSTYLENAME
350
E
  3
ACAD_SCALELIST
350
42
  3
ACAD_SECTIONVIEWSTYLE
350
68
  3
ACAD_TABLESTYLE
350
64
  3
ACAD_VISUALSTYLE
350
29
  3
ACDB_RECOMPOSE_DATA
350
87D
  3
AcDbVariableDictionary
350
D5
  3
REVIT_DICTIONARY
350
CA
  0
DICTIONARY
  5
870
330
2
100
AcDbDictionary
280
     1
281
     1
  3
ACAD_LAYERSTATES
360
871
  0
DICTIONARY
  5
CE
330
70
100
AcDbDictionary
280
     1
281
     1
  3
ACAD_SORTENTS
360
CF
  0
XRECORD
  5
79
102
{ACAD_REACTORS
330
C
102
}
330
C
100
AcDbXrecord
280
     1
300
ACD
300
2016
300
86445ACD_2016_0F
  0
DICTIONARY
  5
63
102
{ACAD_REACTORS
330
C
102
}
330
C
100
AcDbDictionary
281
     1
  0
DICTIONARY
  5
6A
102
{ACAD_REACTORS
330
C
102
}
330
C
100
AcDbDictionary
281
     1
  3
Imperial24
350
6B
  0
DICTIONARY
  5
D
102
{ACAD_REACTORS
330
C
102
}
330
C
100
AcDbDictionary
281
     1
  0
RASTERVARIABLES
  5
7A
102
{ACAD_REACTORS
330
C
102
}
330
C
100
AcDbRasterVariables
 90
        0
 70
     0
 71
     1
 72
     5
  0
DICTIONARY
  5
62
102
{ACAD_REACTORS
330
C
102
}
330
C
100
AcDbDictionary
281
     1
  3
Layout1
350
6F
  3
Layout2
350
77
  3
Model
350
73
  0
DICTIONARY
  5
10
102
{ACAD_REACTORS
330
C
102
}
330
C
100
AcDbDictionary
281
     1
  3
ByBlock
350
19
  3
ByLayer
350
11
  3
Global
350
21
  0
DICTIONARY
  5
66
102
{ACAD_REACTORS
330
C
102
}
330
C
100
AcDbDictionary
281
     1
  3
Standard
350
67
  0
DICTIONARY
  5
5F
102
{ACAD_REACTORS
330
C
102
}
330
C
100
AcDbDictionary
281
     1
  3
Standard
350
60
  0
DICTIONARY
  5
61
102
{ACAD_REACTORS
330
C
102
}
330
C
100
AcDbDictionary
281
     1
  0
ACDBDICTIONARYWDFLT
  5
E
102
{ACAD_REACTORS
330
C
102
}
330
C
100
AcDbDictionary
281
     1
  3
Normal
350
F
100
AcDbDictionaryWithDefault
340
F
  0
DICTIONARY
  5
42
102
{ACAD_REACTORS
330
C
102
}
330
C
100
AcDbDictionary
281
     1
  3
A0
350
43
  3
A1
350
44
  3
A2
350
45
  3
A3
350
46
  3
A4
350
47
  3
A5
350
48
  3
A6
350
49
  3
A7
350
4A
  3
A8
350
4B
  3
A9
350
4C
  3
B0
350
4D
  3
B1
350
4E
  3
B2
350
4F
  3
B3
350
50
  3
B4
350
51
  3
B5
350
52
  3
B6
350
53
  0
DICTIONARY
  5
68
102
{ACAD_REACTORS
330
C
102
}
330
C
100
AcDbDictionary
281
     1
  3
Imperial24
350
69
  0
DICTIONARY
  5
64
102
{ACAD_REACTORS
330
C
102
}
330
C
100
AcDbDictionary
281
     1
  3
Standard
350
65
  0
DICTIONARY
  5
29
102
{ACAD_REACTORS
330
C
102
}
330
C
100
AcDbDictionary
281
     1
  3
2dWireframe
350
2F
  3
Basic
350
2E
  3
Brighten
350
35
  3
ColorChange
350
39
  3
Conceptual
350
32
  3
Dim
350
34
  3
EdgeColorOff
350
41
  3
Facepattern
350
38
  3
Flat
350
2A
  3
FlatWithEdges
350
2B
  3
Gouraud
350
2C
  3
GouraudWithEdges
350
2D
  3
Hidden
350
31
  3
JitterOff
350
3F
  3
Linepattern
350
37
  3
OverhangOff
350
40
  3
Realistic
350
33
  3
Shaded
350
3E
  3
Shaded with edges
350
3D
  3
Shades of Gray
350
3A
  3
Sketchy
350
3B
  3
Thicken
350
36
  3
Wireframe
350
30
  3
X-Ray
350
3C
  0
XRECORD
  5
87D
102
{ACAD_REACTORS
330
C
102
}
330
C
100
AcDbXrecord
280
     1
 90
        1
330
65
330
69
330
6B
  0
DICTIONARY
  5
D5
102
{ACAD_REACTORS
330
C
102
}
330
C
100
AcDbDictionary
281
     1
  3
CANNOSCALE
350
DA
  3
CMLEADERSTYLE
350
D7
  3
CTABLESTYLE
350
D6
  3
CVIEWDETAILSTYLE
350
D8
  3
CVIEWSECTIONSTYLE
350
D9
  0
DICTIONARY
  5
CA
102
{ACAD_REACTORS
330
C
102
}
330
C
100
AcDbDictionary
281
     1
  3
DRAWING_TOOL
350
CD
  3
REVIT_CATEGORY_MAPPING
350
CB
  3
REVIT_SUB_CATEGORY_MAPPING
350
CC
  0
DICTIONARY
  5
871
102
{ACAD_REACTORS
330
870
102
}
330
870
100
AcDbDictionary
281
     1
  0
SORTENTSTABLE
  5
CF
102
{ACAD_REACTORS
330
CE
102
}
330
CE
100
AcDbSortentsTable
330
70
  0
ACDBDETAILVIEWSTYLE
  5
6B
102
{ACAD_XDICTIONARY
360
D2
102
}
102
{ACAD_REACTORS
330
6A
102
}
330
6A
100
AcDbModelDocViewStyle
 70
     0
  3
Imperial24
290
     0
100
AcDbDetailViewStyle
 70
     0
 71
     0
 90
        3
 71
     1
340
55
 62
   256
 40
0.24
340
0
 62
   256
 40
0.24
300

 40
0.36
280
     3
 71
     2
340
5D
 90
       25
 62
   256
 71
     3
340
55
 62
   256
 40
0.24
 90
        1
 40
0.75
 90
        1
300
%<\AcVar ViewType \f "%tc1">% %<\AcVar ViewDetailId>%\PSCALE %<\AcVar ViewScale \f "%sn">%
 71
     4
340
5D
 90
       25
 62
   256
340
5D
 90
       25
 62
   256
280
     0
  0
LAYOUT
  5
6F
102
{ACAD_REACTORS
330
62
102
}
330
62
100
AcDbPlotSettings
  1

  2

  4

  6

 40
0.0
 41
0.0
 42
0.0
 43
0.0
 44
0.0
 45
0.0
 46
0.0
 47
0.0
 48
0.0
 49
0.0
140
0.0
141
0.0
142
1.0
143
1.0
 70
   688
 72
     0
 73
     0
 74
     5
  7

 75
    16
147
1.0
 76
     0
 77
     2
 78
   300
148
0.0
149
0.0
100
AcDbLayout
  1
Layout1
 70
     1
 71
     1
 10
0.0
 20
0.0
 11
12.0
 21
9.0
 12
0.0
 22
0.0
 32
0.0
 14
1.000000000000000E+20
 24
1.000000000000000E+20
 34
1.000000000000000E+20
 15
-1.000000000000000E+20
 25
-1.000000000000000E+20
 35
-1.000000000000000E+20
146
0.0
 13
0.0
 23
0.0
 33
0.0
 16
1.0
 26
0.0
 36
0.0
 17
0.0
 27
1.0
 37
0.0
 76
     0
330
6C
  0
LAYOUT
  5
77
102
{ACAD_REACTORS
330
62
102
}
330
62
100
AcDbPlotSettings
  1

  2

  4

  6

 40
0.0
 41
0.0
 42
0.0
 43
0.0
 44
0.0
 45
0.0
 46
0.0
 47
0.0
 48
0.0
 49
0.0
140
0.0
141
0.0
142
1.0
143
1.0
 70
   688
 72
     0
 73
     0
 74
     5
  7

 75
    16
147
1.0
 76
     0
 77
     2
 78
   300
148
0.0
149
0.0
100
AcDbLayout
  1
Layout2
 70
     1
 71
     2
 10
0.0
 20
0.0
 11
12.0
 21
9.0
 12
0.0
 22
0.0
 32
0.0
 14
0.0
 24
0.0
 34
0.0
 15
0.0
 25
0.0
 35
0.0
146
0.0
 13
0.0
 23
0.0
 33
0.0
 16
1.0
 26
0.0
 36
0.0
 17
0.0
 27
1.0
 37
0.0
 76
     0
330
74
  0
LAYOUT
  5
73
102
{ACAD_REACTORS
330
62
102
}
330
62
100
AcDbPlotSettings
  1

  2

  4

  6

 40
0.0
 41
0.0
 42
0.0
 43
0.0
 44
0.0
 45
0.0
 46
0.0
 47
0.0
 48
0.0
 49
0.0
140
0.0
141
0.0
142
1.0
143
1.0
 70
  1712
 72
     0
 73
     0
 74
     0
  7

 75
     0
147
1.0
 76
     0
 77
     2
 78
   300
148
0.0
149
0.0
100
AcDbLayout
  1
Model
 70
     1
 71
     0
 10
0.0
 20
0.0
 11
12.0
 21
9.0
 12
0.0
 22
0.0
 32
0.0
 14
0.0
 24
0.0
 34
0.0
 15
0.0
 25
0.0
 35
0.0
146
0.0
 13
0.0
 23
0.0
 33
0.0
 16
1.0
 26
0.0
 36
0.0
 17
0.0
 27
1.0
 37
0.0
 76
     0
330
70
331
57
  0
MATERIAL
  5
19
102
{ACAD_XDICTIONARY
360
1A
102
}
102
{ACAD_REACTORS
330
10
102
}
330
10
100
AcDbMaterial
  1
ByBlock
 72
     0
 43
0.0208333333333333
 43
0.0
 43
0.0
 43
0.0
 43
0.0
 43
0.0208333333333333
 43
0.0
 43
0.0
 43
0.0
 43
0.0
 43
1.0
 43
0.0
 43
0.0
 43
0.0
 43
0.0
 43
1.0
 77
     0
 47
0.0208333333333333
 47
0.0
 47
0.0
 47
0.0
 47
0.0
 47
0.0208333333333333
 47
0.0
 47
0.0
 47
0.0
 47
0.0
 47
1.0
 47
0.0
 47
0.0
 47
0.0
 47
0.0
 47
1.0
171
     0
 49
0.0208333333333333
 49
0.0
 49
0.0
 49
0.0
 49
0.0
 49
0.0208333333333333
 49
0.0
 49
0.0
 49
0.0
 49
0.0
 49
1.0
 49
0.0
 49
0.0
 49
0.0
 49
0.0
 49
1.0
175
     0
142
0.0208333333333333
142
0.0
142
0.0
142
0.0
142
0.0
142
0.0208333333333333
142
0.0
142
0.0
142
0.0
142
0.0
142
1.0
142
0.0
142
0.0
142
0.0
142
0.0
142
1.0
179
     0
144
0.0208333333333333
144
0.0
144
0.0
144
0.0
144
0.0
144
0.0208333333333333
144
0.0
144
0.0
144
0.0
144
0.0
144
1.0
144
0.0
144
0.0
144
0.0
144
0.0
144
1.0
147
0.0208333333333333
147
0.0
147
0.0
147
0.0
147
0.0
147
0.0208333333333333
147
0.0
147
0.0
147
0.0
147
0.0
147
1.0
147
0.0
147
0.0
147
0.0
147
0.0
147
1.0
  0
MATERIAL
  5
11
102
{ACAD_XDICTIONARY
360
12
102
}
102
{ACAD_REACTORS
330
10
102
}
330
10
100
AcDbMaterial
  1
ByLayer
 72
     0
 43
0.0208333333333333
 43
0.0
 43
0.0
 43
0.0
 43
0.0
 43
0.0208333333333333
 43
0.0
 43
0.0
 43
0.0
 43
0.0
 43
1.0
 43
0.0
 43
0.0
 43
0.0
 43
0.0
 43
1.0
 77
     0
 47
0.0208333333333333
 47
0.0
 47
0.0
 47
0.0
 47
0.0
 47
0.0208333333333333
 47
0.0
 47
0.0
 47
0.0
 47
0.0
 47
1.0
 47
0.0
 47
0.0
 47
0.0
 47
0.0
 47
1.0
171
     0
 49
0.0208333333333333
 49
0.0
 49
0.0
 49
0.0
 49
0.0
 49
0.0208333333333333
 49
0.0
 49
0.0
 49
0.0
 49
0.0
 49
1.0
 49
0.0
 49
0.0
 49
0.0
 49
0.0
 49
1.0
175
     0
142
0.0208333333333333
142
0.0
142
0.0
142
0.0
142
0.0
142
0.0208333333333333
142
0.0
142
0.0
142
0.0
142
0.0
142
1.0
142
0.0
142
0.0
142
0.0
142
0.0
142
1.0
179
     0
144
0.0208333333333333
144
0.0
144
0.0
144
0.0
144
0.0
144
0.0208333333333333
144
0.0
144
0.0
144
0.0
144
0.0
144
1.0
144
0.0
144
0.0
144
0.0
144
0.0
144
1.0
147
0.0208333333333333
147
0.0
147
0.0
147
0.0
147
0.0
147
0.0208333333333333
147
0.0
147
0.0
147
0.0
147
0.0
147
1.0
147
0.0
147
0.0
147
0.0
147
0.0
147
1.0
  0
MATERIAL
  5
21
102
{ACAD_XDICTIONARY
360
22
102
}
102
{ACAD_REACTORS
330
10
102
}
330
10
100
AcDbMaterial
  1
Global
 72
     0
 43
0.0208333333333333
 43
0.0
 43
0.0
 43
0.0
 43
0.0
 43
0.0208333333333333
 43
0.0
 43
0.0
 43
0.0
 43
0.0
 43
1.0
 43
0.0
 43
0.0
 43
0.0
 43
0.0
 43
1.0
 77
     0
 47
0.0208333333333333
 47
0.0
 47
0.0
 47
0.0
 47
0.0
 47
0.0208333333333333
 47
0.0
 47
0.0
 47
0.0
 47
0.0
 47
1.0
 47
0.0
 47
0.0
 47
0.0
 47
0.0
 47
1.0
171
     0
 49
0.0208333333333333
 49
0.0
 49
0.0
 49
0.0
 49
0.0
 49
0.0208333333333333
 49
0.0
 49
0.0
 49
0.0
 49
0.0
 49
1.0
 49
0.0
 49
0.0
 49
0.0
 49
0.0
 49
1.0
175
     0
142
0.0208333333333333
142
0.0
142
0.0
142
0.0
142
0.0
142
0.0208333333333333
142
0.0
142
0.0
142
0.0
142
0.0
142
1.0
142
0.0
142
0.0
142
0.0
142
0.0
142
1.0
179
     0
144
0.0208333333333333
144
0.0
144
0.0
144
0.0
144
0.0
144
0.0208333333333333
144
0.0
144
0.0
144
0.0
144
0.0
144
1.0
144
0.0
144
0.0
144
0.0
144
0.0
144
1.0
147
0.0208333333333333
147
0.0
147
0.0
147
0.0
147
0.0
147
0.0208333333333333
147
0.0
147
0.0
147
0.0
147
0.0
147
1.0
147
0.0
147
0.0
147
0.0
147
0.0
147
1.0
  0
MLEADERSTYLE
  5
67
102
{ACAD_REACTORS
330
66
102
}
330
66
100
AcDbMLeaderStyle
179
     2
170
     2
171
     1
172
     0
 90
        2
 40
0.0
 41
0.0
173
     1
 91
-1056964608
340
5B
 92
       -2
290
     1
 42
0.09
291
     1
 43
0.36
  3
Standard
 44
0.18
300

342
55
174
     1
178
     6
175
     1
176
     0
 93
-1056964608
 45
0.18
292
     0
297
     0
 46
0.18
 94
-1056964608
 47
1.0
 49
1.0
140
1.0
293
     1
141
0.0
294
     1
177
     0
142
1.0
295
     1
296
     0
143
0.125
271
     0
272
     9
273
     9
298
     1
  0
MLINESTYLE
  5
60
102
{ACAD_REACTORS
330
5F
102
}
330
5F
100
AcDbMlineStyle
  2
STANDARD
 70
     0
  3

 62
   256
 51
90.0
 52
90.0
 71
     2
 49
0.5
 62
   256
  6
BYLAYER
 49
-0.5
 62
   256
  6
BYLAYER
  0
ACDBPLACEHOLDER
  5
F
102
{ACAD_REACTORS
330
E
102
}
330
E
  0
SCALE
  5
43
102
{ACAD_REACTORS
330
42
102
}
330
42
100
AcDbScale
 70
     0
300
1:1
140
1.0
141
1.0
290
     1
  0
SCALE
  5
44
102
{ACAD_REACTORS
330
42
102
}
330
42
100
AcDbScale
 70
     0
300
1/128" = 1'-0"
140
0.0078125
141
12.0
290
     0
  0
SCALE
  5
45
102
{ACAD_REACTORS
330
42
102
}
330
42
100
AcDbScale
 70
     0
300
1/64" = 1'-0"
140
0.015625
141
12.0
290
     0
  0
SCALE
  5
46
102
{ACAD_REACTORS
330
42
102
}
330
42
100
AcDbScale
 70
     0
300
1/32" = 1'-0"
140
0.03125
141
12.0
290
     0
  0
SCALE
  5
47
102
{ACAD_REACTORS
330
42
102
}
330
42
100
AcDbScale
 70
     0
300
1/16" = 1'-0"
140
0.0625
141
12.0
290
     0
  0
SCALE
  5
48
102
{ACAD_REACTORS
330
42
102
}
330
42
100
AcDbScale
 70
     0
300
3/32" = 1'-0"
140
0.09375
141
12.0
290
     0
  0
SCALE
  5
49
102
{ACAD_REACTORS
330
42
102
}
330
42
100
AcDbScale
 70
     0
300
1/8" = 1'-0"
140
0.125
141
12.0
290
     0
  0
SCALE
  5
4A
102
{ACAD_REACTORS
330
42
102
}
330
42
100
AcDbScale
 70
     0
300
3/16" = 1'-0"
140
0.1875
141
12.0
290
     0
  0
SCALE
  5
4B
102
{ACAD_REACTORS
330
42
102
}
330
42
100
AcDbScale
 70
     0
300
1/4" = 1'-0"
140
0.25
141
12.0
290
     0
  0
SCALE
  5
4C
102
{ACAD_REACTORS
330
42
102
}
330
42
100
AcDbScale
 70
     0
300
3/8" = 1'-0"
140
0.375
141
12.0
290
     0
  0
SCALE
  5
4D
102
{ACAD_REACTORS
330
42
102
}
330
42
100
AcDbScale
 70
     0
300
1/2" = 1'-0"
140
0.5
141
12.0
290
     0
  0
SCALE
  5
4E
102
{ACAD_REACTORS
330
42
102
}
330
42
100
AcDbScale
 70
     0
300
3/4" = 1'-0"
140
0.75
141
12.0
290
     0
  0
SCALE
  5
4F
102
{ACAD_REACTORS
330
42
102
}
330
42
100
AcDbScale
 70
     0
300
1" = 1'-0"
140
1.0
141
12.0
290
     0
  0
SCALE
  5
50
102
{ACAD_REACTORS
330
42
102
}
330
42
100
AcDbScale
 70
     0
300
1-1/2" = 1'-0"
140
1.5
141
12.0
290
     0
  0
SCALE
  5
51
102
{ACAD_REACTORS
330
42
102
}
330
42
100
AcDbScale
 70
     0
300
3" = 1'-0"
140
3.0
141
12.0
290
     0
  0
SCALE
  5
52
102
{ACAD_REACTORS
330
42
102
}
330
42
100
AcDbScale
 70
     0
300
6" = 1'-0"
140
6.0
141
12.0
290
     0
  0
SCALE
  5
53
102
{ACAD_REACTORS
330
42
102
}
330
42
100
AcDbScale
 70
     0
300
1'-0" = 1'-0"
140
12.0
141
12.0
290
     0
  0
ACDBSECTIONVIEWSTYLE
  5
69
102
{ACAD_XDICTIONARY
360
D0
102
}
102
{ACAD_REACTORS
330
68
102
}
330
68
100
AcDbModelDocViewStyle
 70
     0
  3
Imperial24
290
     0
100
AcDbSectionViewStyle
 70
     0
 71
     0
 90
       78
 71
     1
340
55
 62
   256
 40
0.24
340
0
340
0
 62
   256
 40
0.24
300
I, O, Q, S, X, Z
 40
0.48
 90
        3
 40
0.18
 90
        1
 71
     2
340
5D
 90
       25
 62
   256
340
5D
 90
       50
 62
   256
 40
0.24
 40
0.0
 40
0.24
 71
     3
340
55
 62
   256
 40
0.24
 90
        1
 40
0.75
 90
        1
300
%<\AcVar ViewType \f "%tc1">% %<\AcVar ViewSectionStartId>%-%<\AcVar ViewSectionEndId>%\PSCALE %<\AcVar ViewScale \f "%sn">%
 71
     4
 62
   256
 62
   257
300
ANSI31
 40
1.0
 90
        0
290
     0
290
     0
 90
        6
 40
0.0
 40
1.570796326794896
 40
0.2617993877991494
 40
1.308996938995747
 40
-0.2617993877991494
 40
1.832595714594046
  0
TABLESTYLE
  5
65
102
{ACAD_XDICTIONARY
360
879
102
}
102
{ACAD_REACTORS
330
64
102
}
330
64
100
AcDbTableStyle
280
     0
  3
Standard
 70
     0
 71
     0
 40
0.06
 41
0.06
280
     0
281
     0
  7
Standard
140
0.18
170
     2
 62
     0
 63
     7
283
     0
 90
      512
 91
        0
  1

274
    -2
284
     1
 64
     0
275
    -2
285
     1
 65
     0
276
    -2
286
     1
 66
     0
277
    -2
287
     1
 67
     0
278
    -2
288
     1
 68
     0
279
    -2
289
     1
 69
     0
  7
Standard
140
0.25
170
     5
 62
     0
 63
     7
283
     0
 90
      512
 91
        0
  1

274
    -2
284
     1
 64
     0
275
    -2
285
     1
 65
     0
276
    -2
286
     1
 66
     0
277
    -2
287
     1
 67
     0
278
    -2
288
     1
 68
     0
279
    -2
289
     1
 69
     0
  7
Standard
140
0.18
170
     5
 62
     0
 63
     7
283
     0
 90
      512
 91
        0
  1

274
    -2
284
     1
 64
     0
275
    -2
285
     1
 65
     0
276
    -2
286
     1
 66
     0
277
    -2
287
     1
 67
     0
278
    -2
288
     1
 68
     0
279
    -2
289
     1
 69
     0
  0
VISUALSTYLE
  5
2F
102
{ACAD_REACTORS
330
29
102
}
330
29
100
AcDbVisualStyle
  2
2dWireframe
 70
     4
177
     3
291
     0
 70
    58
 90
        0
176
     1
 90
        2
176
     1
 90
        0
176
     1
 90
        0
176
     1
 40
0.6
176
     1
 40
30.0
176
     1
 62
     7
420
 16777215
176
     1
 90
        1
176
     1
 90
        4
176
     1
 62
     7
176
     1
 62
   257
176
     1
 90
        1
176
     1
 90
        1
176
     1
 40
1.0
176
     1
 90
        0
176
     1
 62
   257
176
     1
 40
1.0
176
     1
 90
        1
176
     1
 90
        6
176
     1
 90
        2
176
     1
 62
     7
176
     1
 90
        5
176
     1
 90
        0
176
     1
 90
        0
176
     1
290
     0
176
     1
 90
        1
176
     1
 40
0.0
176
     1
 90
        0
176
     1
290
     1
176
     1
290
     1
176
     1
290
     0
176
     1
290
     0
176
     1
290
     0
176
     1
290
     0
176
     1
290
     0
176
     1
290
     0
176
     1
290
     0
176
     1
 90
       50
176
     1
 40
0.0
176
     1
 40
1.0
176
     1
 90
        0
176
     1
 62
    18
420
        0
176
     1
 90
       50
176
     1
 90
        3
176
     1
 62
     5
420
      255
176
     1
290
     0
176
     1
 90
       50
176
     1
 90
       50
176
     1
 90
       50
176
     1
290
     0
176
     1
 90
       50
176
     1
 62
   256
176
     0
 40
1.0
176
     0
 90
        2
176
     1
  1
strokes_ogs.tif
176
     1
290
     0
176
     1
 40
1.0
176
     1
 40
1.0
176
     1
  0
VISUALSTYLE
  5
2E
102
{ACAD_REACTORS
330
29
102
}
330
29
100
AcDbVisualStyle
  2
Basic
 70
     7
177
     3
291
     1
 70
    58
 90
        1
176
     1
 90
        0
176
     1
 90
        1
176
     1
 90
        0
176
     1
 40
0.6
176
     1
 40
30.0
176
     1
 62
     7
420
 16777215
176
     1
 90
        0
176
     1
 90
        4
176
     1
 62
     7
176
     1
 62
   257
176
     1
 90
        1
176
     1
 90
        1
176
     1
 40
1.0
176
     1
 90
        8
176
     1
 62
     7
176
     1
 40
1.0
176
     1
 90
        1
176
     1
 90
        6
176
     1
 90
        2
176
     1
 62
     7
176
     1
 90
        5
176
     1
 90
        0
176
     1
 90
        0
176
     1
290
     0
176
     1
 90
        1
176
     1
 40
0.0
176
     1
 90
        0
176
     1
290
     0
176
     1
290
     1
176
     1
290
     1
176
     1
290
     0
176
     1
290
     0
176
     1
290
     0
176
     1
290
     0
176
     1
290
     0
176
     1
290
     0
176
     1
 90
       50
176
     1
 40
0.0
176
     1
 40
1.0
176
     1
 90
        0
176
     1
 62
    18
420
        0
176
     1
 90
       50
176
     1
 90
        3
176
     1
 62
     5
420
      255
176
     1
290
     0
176
     1
 90
       50
176
     1
 90
       50
176
     1
 90
       50
176
     1
290
     0
176
     1
 90
       50
176
     1
 62
   256
176
     0
 40
1.0
176
     0
 90
        2
176
     1
  1
strokes_ogs.tif
176
     1
290
     0
176
     1
 40
1.0
176
     1
 40
1.0
176
     1
  0
VISUALSTYLE
  5
35
102
{ACAD_REACTORS
330
29
102
}
330
29
100
AcDbVisualStyle
  2
Brighten
 70
    12
177
     3
291
     1
 70
    58
 90
        2
176
     1
 90
        2
176
     1
 90
        0
176
     1
 90
        0
176
     1
 40
0.6
176
     1
 40
30.0
176
     1
 62
     7
420
 16777215
176
     1
 90
        1
176
     1
 90
        4
176
     1
 62
     7
176
     1
 62
   257
176
     1
 90
        1
176
     1
 90
        1
176
     1
 40
1.0
176
     1
 90
        8
176
     1
 62
     7
176
     1
 40
1.0
176
     1
 90
        1
176
     1
 90
        6
176
     1
 90
        2
176
     1
 62
     7
176
     1
 90
        5
176
     1
 90
        0
176
     1
 90
        0
176
     1
290
     0
176
     1
 90
        1
176
     1
 40
50.0
176
     1
 90
        0
176
     1
290
     0
176
     1
290
     1
176
     1
290
     1
176
     1
290
     0
176
     1
290
     0
176
     1
290
     0
176
     1
290
     0
176
     1
290
     0
176
     1
290
     0
176
     1
 90
       50
176
     1
 40
0.0
176
     1
 40
1.0
176
     1
 90
        0
176
     1
 62
    18
420
        0
176
     1
 90
       50
176
     1
 90
        3
176
     1
 62
     5
420
      255
176
     1
290
     0
176
     1
 90
       50
176
     1
 90
       50
176
     1
 90
       50
176
     1
290
     0
176
     1
 90
       50
176
     1
 62
   256
176
     0
 40
1.0
176
     0
 90
        2
176
     1
  1
strokes_ogs.tif
176
     1
290
     0
176
     1
 40
1.0
176
     1
 40
1.0
176
     1
  0
VISUALSTYLE
  5
39
102
{ACAD_REACTORS
330
29
102
}
330
29
100
AcDbVisualStyle
  2
ColorChange
 70
    16
177
     3
291
     1
 70
    58
 90
        2
176
     1
 90
        2
176
     1
 90
        3
176
     1
 90
        0
176
     1
 40
0.6
176
     1
 40
30.0
176
     1
 62
     8
420
  8421504
176
     1
 90
        1
176
     1
 90
        4
176
     1
 62
     7
176
     1
 62
   257
176
     1
 90
        1
176
     1
 90
        1
176
     1
 40
1.0
176
     1
 90
        8
176
     1
 62
     8
420
  8421504
176
     1
 40
1.0
176
     1
 90
        1
176
     1
 90
        6
176
     1
 90
        2
176
     1
 62
     7
176
     1
 90
        5
176
     1
 90
        0
176
     1
 90
        0
176
     1
290
     0
176
     1
 90
        1
176
     1
 40
0.0
176
     1
 90
        0
176
     1
290
     0
176
     1
290
     1
176
     1
290
     1
176
     1
290
     0
176
     1
290
     0
176
     1
290
     0
176
     1
290
     0
176
     1
290
     0
176
     1
290
     0
176
     1
 90
       50
176
     1
 40
0.0
176
     1
 40
1.0
176
     1
 90
        0
176
     1
 62
    18
420
        0
176
     1
 90
       50
176
     1
 90
        3
176
     1
 62
     5
420
      255
176
     1
290
     0
176
     1
 90
       50
176
     1
 90
       50
176
     1
 90
       50
176
     1
290
     0
176
     1
 90
       50
176
     1
 62
   256
176
     0
 40
1.0
176
     0
 90
        2
176
     1
  1
strokes_ogs.tif
176
     1
290
     0
176
     1
 40
1.0
176
     1
 40
1.0
176
     1
  0
VISUALSTYLE
  5
32
102
{ACAD_REACTORS
330
29
102
}
330
29
100
AcDbVisualStyle
  2
Conceptual
 70
     9
177
     3
291
     0
 70
    58
 90
        3
176
     1
 90
        2
176
     1
 90
        0
176
     1
 90
        0
176
     1
 40
0.6
176
     1
 40
30.0
176
     1
 62
     7
420
 16777215
176
     1
 90
        2
176
     1
 90
        2
176
     1
 62
     7
176
     1
 62
   257
176
     1
 90
        1
176
     1
 90
        1
176
     1
 40
179.0
176
     1
 90
        8
176
     1
 62
     7
176
     1
 40
1.0
176
     1
 90
        1
176
     1
 90
        6
176
     1
 90
        2
176
     1
 62
     7
176
     1
 90
        3
176
     1
 90
        0
176
     1
 90
        0
176
     1
290
     0
176
     1
 90
        1
176
     1
 40
0.0
176
     1
 90
        0
176
     1
290
     0
176
     1
290
     1
176
     1
290
     1
176
     1
290
     0
176
     1
290
     0
176
     1
290
     0
176
     1
290
     0
176
     1
290
     0
176
     1
290
     0
176
     1
 90
       50
176
     1
 40
0.0
176
     1
 40
1.0
176
     1
 90
        0
176
     1
 62
    18
420
        0
176
     1
 90
       50
176
     1
 90
        3
176
     1
 62
     5
420
      255
176
     1
290
     0
176
     1
 90
       50
176
     1
 90
       50
176
     1
 90
       50
176
     1
290
     0
176
     1
 90
       50
176
     1
 62
   256
176
     0
 40
1.0
176
     0
 90
        2
176
     1
  1
strokes_ogs.tif
176
     1
290
     0
176
     1
 40
1.0
176
     1
 40
1.0
176
     1
  0
VISUALSTYLE
  5
34
102
{ACAD_REACTORS
330
29
102
}
330
29
100
AcDbVisualStyle
  2
Dim
 70
    11
177
     3
291
     1
 70
    58
 90
        2
176
     1
 90
        2
176
     1
 90
        0
176
     1
 90
        0
176
     1
 40
0.6
176
     1
 40
30.0
176
     1
 62
     7
420
 16777215
176
     1
 90
        1
176
     1
 90
        4
176
     1
 62
     7
176
     1
 62
   257
176
     1
 90
        1
176
     1
 90
        1
176
     1
 40
1.0
176
     1
 90
        8
176
     1
 62
     7
176
     1
 40
1.0
176
     1
 90
        1
176
     1
 90
        6
176
     1
 90
        2
176
     1
 62
     7
176
     1
 90
        5
176
     1
 90
        0
176
     1
 90
        0
176
     1
290
     0
176
     1
 90
        1
176
     1
 40
-50.0
176
     1
 90
        0
176
     1
290
     0
176
     1
290
     1
176
     1
290
     1
176
     1
290
     0
176
     1
290
     0
176
     1
290
     0
176
     1
290
     0
176
     1
290
     0
176
     1
290
     0
176
     1
 90
       50
176
     1
 40
0.0
176
     1
 40
1.0
176
     1
 90
        0
176
     1
 62
    18
420
        0
176
     1
 90
       50
176
     1
 90
        3
176
     1
 62
     5
420
      255
176
     1
290
     0
176
     1
 90
       50
176
     1
 90
       50
176
     1
 90
       50
176
     1
290
     0
176
     1
 90
       50
176
     1
 62
   256
176
     0
 40
1.0
176
     0
 90
        2
176
     1
  1
strokes_ogs.tif
176
     1
290
     0
176
     1
 40
1.0
176
     1
 40
1.0
176
     1
  0
VISUALSTYLE
  5
41
102
{ACAD_REACTORS
330
29
102
}
330
29
100
AcDbVisualStyle
  2
EdgeColorOff
 70
    22
177
     3
291
     1
 70
    58
 90
        2
176
     0
 90
        2
176
     0
 90
        0
176
     0
 90
        0
176
     0
 40
0.6
176
     0
 40
30.0
176
     0
 62
     7
420
 16777215
176
     0
 90
        1
176
     0
 90
        4
176
     0
 62
     7
176
     0
 62
   257
176
     0
 90
        1
176
     0
 90
        1
176
     0
 40
1.0
176
     0
 90
        8
176
     2
 62
     7
176
     0
 40
1.0
176
     0
 90
        1
176
     0
 90
        6
176
     0
 90
        2
176
     0
 62
     7
176
     0
 90
        5
176
     0
 90
        0
176
     0
 90
        0
176
     0
290
     0
176
     0
 90
        1
176
     0
 40
0.0
176
     0
 90
        0
176
     0
290
     0
176
     0
290
     1
176
     0
290
     1
176
     0
290
     0
176
     0
290
     0
176
     0
290
     0
176
     0
290
     0
176
     0
290
     0
176
     0
290
     0
176
     0
 90
       50
176
     0
 40
0.0
176
     0
 40
1.0
176
     0
 90
        0
176
     0
 62
    18
420
        0
176
     0
 90
       50
176
     0
 90
        3
176
     0
 62
     5
420
      255
176
     0
290
     0
176
     0
 90
       50
176
     0
 90
       50
176
     0
 90
       50
176
     0
290
     0
176
     0
 90
       50
176
     0
 62
   256
176
     0
 40
1.0
176
     0
 90
        2
176
     0
  1
strokes_ogs.tif
176
     0
290
     0
176
     0
 40
1.0
176
     0
 40
1.0
176
     0
  0
VISUALSTYLE
  5
38
102
{ACAD_REACTORS
330
29
102
}
330
29
100
AcDbVisualStyle
  2
Facepattern
 70
    15
177
     3
291
     1
 70
    58
 90
        2
176
     1
 90
        2
176
     1
 90
        0
176
     1
 90
        0
176
     1
 40
0.6
176
     1
 40
30.0
176
     1
 62
     7
420
 16777215
176
     1
 90
        1
176
     1
 90
        4
176
     1
 62
     7
176
     1
 62
   257
176
     1
 90
        1
176
     1
 90
        1
176
     1
 40
1.0
176
     1
 90
        8
176
     1
 62
     7
176
     1
 40
1.0
176
     1
 90
        1
176
     1
 90
        6
176
     1
 90
        2
176
     1
 62
     7
176
     1
 90
        5
176
     1
 90
        0
176
     1
 90
        0
176
     1
290
     0
176
     1
 90
        1
176
     1
 40
0.0
176
     1
 90
        0
176
     1
290
     0
176
     1
290
     1
176
     1
290
     1
176
     1
290
     0
176
     1
290
     0
176
     1
290
     0
176
     1
290
     0
176
     1
290
     0
176
     1
290
     0
176
     1
 90
       50
176
     1
 40
0.0
176
     1
 40
1.0
176
     1
 90
        0
176
     1
 62
    18
420
        0
176
     1
 90
       50
176
     1
 90
        3
176
     1
 62
     5
420
      255
176
     1
290
     0
176
     1
 90
       50
176
     1
 90
       50
176
     1
 90
       50
176
     1
290
     0
176
     1
 90
       50
176
     1
 62
   256
176
     0
 40
1.0
176
     0
 90
        2
176
     1
  1
strokes_ogs.tif
176
     1
290
     0
176
     1
 40
1.0
176
     1
 40
1.0
176
     1
  0
VISUALSTYLE
  5
2A
102
{ACAD_REACTORS
330
29
102
}
330
29
100
AcDbVisualStyle
  2
Flat
 70
     0
177
     3
291
     1
 70
    58
 90
        2
176
     1
 90
        1
176
     1
 90
        1
176
     1
 90
        2
176
     1
 40
0.6
176
     1
 40
30.0
176
     1
 62
     7
420
 16777215
176
     1
 90
        0
176
     1
 90
        0
176
     1
 62
     7
176
     1
 62
   257
176
     1
 90
        1
176
     1
 90
        1
176
     1
 40
1.0
176
     1
 90
        8
176
     1
 62
     7
176
     1
 40
1.0
176
     1
 90
        1
176
     1
 90
        6
176
     1
 90
        2
176
     1
 62
     7
176
     1
 90
        5
176
     1
 90
        0
176
     1
 90
        0
176
     1
290
     0
176
     1
 90
       13
176
     1
 40
0.0
176
     1
 90
        0
176
     1
290
     0
176
     1
290
     1
176
     1
290
     1
176
     1
290
     0
176
     1
290
     0
176
     1
290
     0
176
     1
290
     0
176
     1
290
     0
176
     1
290
     0
176
     1
 90
       50
176
     1
 40
0.0
176
     1
 40
1.0
176
     1
 90
        0
176
     1
 62
    18
420
        0
176
     1
 90
       50
176
     1
 90
        3
176
     1
 62
     5
420
      255
176
     1
290
     0
176
     1
 90
       50
176
     1
 90
       50
176
     1
 90
       50
176
     1
290
     0
176
     1
 90
       50
176
     1
 62
   256
176
     0
 40
1.0
176
     0
 90
        2
176
     1
  1
strokes_ogs.tif
176
     1
290
     0
176
     1
 40
1.0
176
     1
 40
1.0
176
     1
  0
VISUALSTYLE
  5
2B
102
{ACAD_REACTORS
330
29
102
}
330
29
100
AcDbVisualStyle
  2
FlatWithEdges
 70
     1
177
     3
291
     1
 70
    58
 90
        2
176
     1
 90
        1
176
     1
 90
        1
176
     1
 90
        2
176
     1
 40
0.6
176
     1
 40
30.0
176
     1
 62
     7
420
 16777215
176
     1
 90
        1
176
     1
 90
        0
176
     1
 62
     7
176
     1
 62
   257
176
     1
 90
        1
176
     1
 90
        1
176
     1
 40
1.0
176
     1
 90
        0
176
     1
 62
   257
176
     1
 40
1.0
176
     1
 90
        1
176
     1
 90
        6
176
     1
 90
        2
176
     1
 62
     7
176
     1
 90
        5
176
     1
 90
        0
176
     1
 90
        0
176
     1
290
     0
176
     1
 90
       13
176
     1
 40
0.0
176
     1
 90
        0
176
     1
290
     0
176
     1
290
     1
176
     1
290
     1
176
     1
290
     0
176
     1
290
     0
176
     1
290
     0
176
     1
290
     0
176
     1
290
     0
176
     1
290
     0
176
     1
 90
       50
176
     1
 40
0.0
176
     1
 40
1.0
176
     1
 90
        0
176
     1
 62
    18
420
        0
176
     1
 90
       50
176
     1
 90
        3
176
     1
 62
     5
420
      255
176
     1
290
     0
176
     1
 90
       50
176
     1
 90
       50
176
     1
 90
       50
176
     1
290
     0
176
     1
 90
       50
176
     1
 62
   256
176
     0
 40
1.0
176
     0
 90
        2
176
     1
  1
strokes_ogs.tif
176
     1
290
     0
176
     1
 40
1.0
176
     1
 40
1.0
176
     1
  0
VISUALSTYLE
  5
2C
102
{ACAD_REACTORS
330
29
102
}
330
29
100
AcDbVisualStyle
  2
Gouraud
 70
     2
177
     3
291
     1
 70
    58
 90
        2
176
     1
 90
        2
176
     1
 90
        1
176
     1
 90
        2
176
     1
 40
0.6
176
     1
 40
30.0
176
     1
 62
     7
420
 16777215
176
     1
 90
        0
176
     1
 90
        0
176
     1
 62
     7
176
     1
 62
   257
176
     1
 90
        1
176
     1
 90
        1
176
     1
 40
1.0
176
     1
 90
        0
176
     1
 62
     7
176
     1
 40
1.0
176
     1
 90
        1
176
     1
 90
        6
176
     1
 90
        2
176
     1
 62
     7
176
     1
 90
        5
176
     1
 90
        0
176
     1
 90
        0
176
     1
290
     0
176
     1
 90
       13
176
     1
 40
0.0
176
     1
 90
        0
176
     1
290
     0
176
     1
290
     1
176
     1
290
     1
176
     1
290
     0
176
     1
290
     0
176
     1
290
     0
176
     1
290
     0
176
     1
290
     0
176
     1
290
     0
176
     1
 90
       50
176
     1
 40
0.0
176
     1
 40
1.0
176
     1
 90
        0
176
     1
 62
    18
420
        0
176
     1
 90
       50
176
     1
 90
        3
176
     1
 62
     5
420
      255
176
     1
290
     0
176
     1
 90
       50
176
     1
 90
       50
176
     1
 90
       50
176
     1
290
     0
176
     1
 90
       50
176
     1
 62
   256
176
     0
 40
1.0
176
     0
 90
        2
176
     1
  1
strokes_ogs.tif
176
     1
290
     0
176
     1
 40
1.0
176
     1
 40
1.0
176
     1
  0
VISUALSTYLE
  5
2D
102
{ACAD_REACTORS
330
29
102
}
330
29
100
AcDbVisualStyle
  2
GouraudWithEdges
 70
     3
177
     3
291
     1
 70
    58
 90
        2
176
     1
 90
        2
176
     1
 90
        1
176
     1
 90
        2
176
     1
 40
0.6
176
     1
 40
30.0
176
     1
 62
     7
420
 16777215
176
     1
 90
        1
176
     1
 90
        0
176
     1
 62
     7
176
     1
 62
   257
176
     1
 90
        1
176
     1
 90
        1
176
     1
 40
1.0
176
     1
 90
        0
176
     1
 62
   257
176
     1
 40
1.0
176
     1
 90
        1
176
     1
 90
        6
176
     1
 90
        2
176
     1
 62
     7
176
     1
 90
        5
176
     1
 90
        0
176
     1
 90
        0
176
     1
290
     0
176
     1
 90
       13
176
     1
 40
0.0
176
     1
 90
        0
176
     1
290
     0
176
     1
290
     1
176
     1
290
     1
176
     1
290
     0
176
     1
290
     0
176
     1
290
     0
176
     1
290
     0
176
     1
290
     0
176
     1
290
     0
176
     1
 90
       50
176
     1
 40
0.0
176
     1
 40
1.0
176
     1
 90
        0
176
     1
 62
    18
420
        0
176
     1
 90
       50
176
     1
 90
        3
176
     1
 62
     5
420
      255
176
     1
290
     0
176
     1
 90
       50
176
     1
 90
       50
176
     1
 90
       50
176
     1
290
     0
176
     1
 90
       50
176
     1
 62
   256
176
     0
 40
1.0
176
     0
 90
        2
176
     1
  1
strokes_ogs.tif
176
     1
290
     0
176
     1
 40
1.0
176
     1
 40
1.0
176
     1
  0
VISUALSTYLE
  5
31
102
{ACAD_REACTORS
330
29
102
}
330
29
100
AcDbVisualStyle
  2
Hidden
 70
     6
177
     3
291
     0
 70
    58
 90
        1
176
     1
 90
        2
176
     1
 90
        2
176
     1
 90
        0
176
     1
 40
0.6
176
     1
 40
30.0
176
     1
 62
     7
420
 16777215
176
     1
 90
        2
176
     1
 90
        2
176
     1
 62
     7
176
     1
 62
   257
176
     1
 90
        2
176
     1
 90
        1
176
     1
 40
40.0
176
     1
 90
        0
176
     1
 62
   257
176
     1
 40
1.0
176
     1
 90
        1
176
     1
 90
        6
176
     1
 90
        2
176
     1
 62
     7
176
     1
 90
        3
176
     1
 90
        0
176
     1
 90
        0
176
     1
290
     0
176
     1
 90
        1
176
     1
 40
0.0
176
     1
 90
        0
176
     1
290
     0
176
     1
290
     1
176
     1
290
     1
176
     1
290
     0
176
     1
290
     0
176
     1
290
     0
176
     1
290
     0
176
     1
290
     0
176
     1
290
     0
176
     1
 90
       50
176
     1
 40
0.0
176
     1
 40
1.0
176
     1
 90
        0
176
     1
 62
    18
420
        0
176
     1
 90
       50
176
     1
 90
        3
176
     1
 62
     5
420
      255
176
     1
290
     0
176
     1
 90
       50
176
     1
 90
       50
176
     1
 90
       50
176
     1
290
     0
176
     1
 90
       50
176
     1
 62
   256
176
     0
 40
1.0
176
     0
 90
        2
176
     1
  1
strokes_ogs.tif
176
     1
290
     0
176
     1
 40
1.0
176
     1
 40
1.0
176
     1
  0
VISUALSTYLE
  5
3F
102
{ACAD_REACTORS
330
29
102
}
330
29
100
AcDbVisualStyle
  2
JitterOff
 70
    20
177
     3
291
     1
 70
    58
 90
        2
176
     0
 90
        2
176
     0
 90
        0
176
     0
 90
        0
176
     0
 40
0.6
176
     0
 40
30.0
176
     0
 62
     7
420
 16777215
176
     0
 90
        1
176
     0
 90
        4
176
     0
 62
     7
176
     0
 62
   257
176
     0
 90
        1
176
     0
 90
        1
176
     0
 40
1.0
176
     0
 90
       10
176
     2
 62
     7
176
     0
 40
1.0
176
     0
 90
        1
176
     0
 90
        6
176
     0
 90
        2
176
     0
 62
     7
176
     0
 90
        5
176
     0
 90
        0
176
     0
 90
        0
176
     0
290
     0
176
     0
 90
        1
176
     0
 40
0.0
176
     0
 90
        0
176
     0
290
     0
176
     0
290
     1
176
     0
290
     1
176
     0
290
     0
176
     0
290
     0
176
     0
290
     0
176
     0
290
     0
176
     0
290
     0
176
     0
290
     0
176
     0
 90
       50
176
     0
 40
0.0
176
     0
 40
1.0
176
     0
 90
        0
176
     0
 62
    18
420
        0
176
     0
 90
       50
176
     0
 90
        3
176
     0
 62
     5
420
      255
176
     0
290
     0
176
     0
 90
       50
176
     0
 90
       50
176
     0
 90
       50
176
     0
290
     0
176
     0
 90
       50
176
     0
 62
   256
176
     0
 40
1.0
176
     0
 90
        2
176
     0
  1
strokes_ogs.tif
176
     0
290
     0
176
     0
 40
1.0
176
     0
 40
1.0
176
     0
  0
VISUALSTYLE
  5
37
102
{ACAD_REACTORS
330
29
102
}
330
29
100
AcDbVisualStyle
  2
Linepattern
 70
    14
177
     3
291
     1
 70
    58
 90
        2
176
     1
 90
        2
176
     1
 90
        0
176
     1
 90
        0
176
     1
 40
0.6
176
     1
 40
30.0
176
     1
 62
     7
420
 16777215
176
     1
 90
        1
176
     1
 90
        4
176
     1
 62
     7
176
     1
 62
   257
176
     1
 90
        7
176
     1
 90
        7
176
     1
 40
1.0
176
     1
 90
        8
176
     1
 62
     7
176
     1
 40
1.0
176
     1
 90
        1
176
     1
 90
        6
176
     1
 90
        2
176
     1
 62
     7
176
     1
 90
        5
176
     1
 90
        0
176
     1
 90
        0
176
     1
290
     0
176
     1
 90
        1
176
     1
 40
0.0
176
     1
 90
        0
176
     1
290
     0
176
     1
290
     1
176
     1
290
     1
176
     1
290
     0
176
     1
290
     0
176
     1
290
     0
176
     1
290
     0
176
     1
290
     0
176
     1
290
     0
176
     1
 90
       50
176
     1
 40
0.0
176
     1
 40
1.0
176
     1
 90
        0
176
     1
 62
    18
420
        0
176
     1
 90
       50
176
     1
 90
        3
176
     1
 62
     5
420
      255
176
     1
290
     0
176
     1
 90
       50
176
     1
 90
       50
176
     1
 90
       50
176
     1
290
     0
176
     1
 90
       50
176
     1
 62
   256
176
     0
 40
1.0
176
     0
 90
        2
176
     1
  1
strokes_ogs.tif
176
     1
290
     0
176
     1
 40
1.0
176
     1
 40
1.0
176
     1
  0
VISUALSTYLE
  5
40
102
{ACAD_REACTORS
330
29
102
}
330
29
100
AcDbVisualStyle
  2
OverhangOff
 70
    21
177
     3
291
     1
 70
    58
 90
        2
176
     0
 90
        2
176
     0
 90
        0
176
     0
 90
        0
176
     0
 40
0.6
176
     0
 40
30.0
176
     0
 62
     7
420
 16777215
176
     0
 90
        1
176
     0
 90
        4
176
     0
 62
     7
176
     0
 62
   257
176
     0
 90
        1
176
     0
 90
        1
176
     0
 40
1.0
176
     0
 90
        9
176
     2
 62
     7
176
     0
 40
1.0
176
     0
 90
        1
176
     0
 90
        6
176
     0
 90
        2
176
     0
 62
     7
176
     0
 90
        5
176
     0
 90
        0
176
     0
 90
        0
176
     0
290
     0
176
     0
 90
        1
176
     0
 40
0.0
176
     0
 90
        0
176
     0
290
     0
176
     0
290
     1
176
     0
290
     1
176
     0
290
     0
176
     0
290
     0
176
     0
290
     0
176
     0
290
     0
176
     0
290
     0
176
     0
290
     0
176
     0
 90
       50
176
     0
 40
0.0
176
     0
 40
1.0
176
     0
 90
        0
176
     0
 62
    18
420
        0
176
     0
 90
       50
176
     0
 90
        3
176
     0
 62
     5
420
      255
176
     0
290
     0
176
     0
 90
       50
176
     0
 90
       50
176
     0
 90
       50
176
     0
290
     0
176
     0
 90
       50
176
     0
 62
   256
176
     0
 40
1.0
176
     0
 90
        2
176
     0
  1
strokes_ogs.tif
176
     0
290
     0
176
     0
 40
1.0
176
     0
 40
1.0
176
     0
  0
VISUALSTYLE
  5
33
102
{ACAD_REACTORS
330
29
102
}
330
29
100
AcDbVisualStyle
  2
Realistic
 70
     8
177
     3
291
     0
 70
    58
 90
        2
176
     1
 90
        3
176
     1
 90
        0
176
     1
 90
        2
176
     1
 40
0.6
176
     1
 40
30.0
176
     1
 62
     7
420
 16777215
176
     1
 90
        0
176
     1
 90
        0
176
     1
 62
     7
176
     1
 62
   257
176
     1
 90
        1
176
     1
 90
        1
176
     1
 40
1.0
176
     1
 90
        8
176
     1
 62
   257
176
     1
 40
1.0
176
     1
 90
        1
176
     1
 90
        6
176
     1
 90
        2
176
     1
 62
     7
176
     1
 90
        3
176
     1
 90
        0
176
     1
 90
        0
176
     1
290
     0
176
     1
 90
       13
176
     1
 40
0.0
176
     1
 90
        0
176
     1
290
     0
176
     1
290
     1
176
     1
290
     1
176
     1
290
     0
176
     1
290
     0
176
     1
290
     0
176
     1
290
     0
176
     1
290
     0
176
     1
290
     0
176
     1
 90
       50
176
     1
 40
0.0
176
     1
 40
1.0
176
     1
 90
        0
176
     1
 62
    18
420
        0
176
     1
 90
       50
176
     1
 90
        3
176
     1
 62
     5
420
      255
176
     1
290
     0
176
     1
 90
       50
176
     1
 90
       50
176
     1
 90
       50
176
     1
290
     0
176
     1
 90
       50
176
     1
 62
   256
176
     0
 40
1.0
176
     0
 90
        2
176
     1
  1
strokes_ogs.tif
176
     1
290
     0
176
     1
 40
1.0
176
     1
 40
1.0
176
     1
  0
VISUALSTYLE
  5
3E
102
{ACAD_REACTORS
330
29
102
}
330
29
100
AcDbVisualStyle
  2
Shaded
 70
    27
177
     3
291
     0
 70
    58
 90
        2
176
     1
 90
        2
176
     1
 90
        1
176
     1
 90
        2
176
     1
 40
0.6
176
     1
 40
30.0
176
     1
 62
     7
420
 16777215
176
     1
 90
        0
176
     1
 90
        4
176
     1
 62
     7
176
     1
 62
   257
176
     1
 90
        1
176
     1
 90
        1
176
     1
 40
1.0
176
     1
 90
        8
176
     1
 62
   257
176
     1
 40
1.0
176
     1
 90
        1
176
     1
 90
        6
176
     1
 90
        2
176
     1
 62
     8
420
  7895160
176
     1
 90
        3
176
     1
 90
        0
176
     1
 90
        0
176
     1
290
     0
176
     1
 90
        5
176
     1
 40
0.0
176
     1
 90
        0
176
     1
290
     0
176
     1
290
     1
176
     1
290
     1
176
     1
290
     0
176
     1
290
     0
176
     1
290
     0
176
     1
290
     0
176
     1
290
     0
176
     1
290
     0
176
     1
 90
       50
176
     1
 40
0.0
176
     1
 40
1.0
176
     1
 90
        0
176
     1
 62
    18
420
        0
176
     1
 90
       50
176
     1
 90
        3
176
     1
 62
     5
420
      255
176
     1
290
     0
176
     1
 90
       50
176
     1
 90
       50
176
     1
 90
       50
176
     1
290
     0
176
     1
 90
       50
176
     1
 62
   256
176
     0
 40
1.0
176
     0
 90
        2
176
     1
  1
strokes_ogs.tif
176
     1
290
     0
176
     1
 40
1.0
176
     1
 40
1.0
176
     1
  0
VISUALSTYLE
  5
3D
102
{ACAD_REACTORS
330
29
102
}
330
29
100
AcDbVisualStyle
  2
Shaded with edges
 70
    26
177
     3
291
     0
 70
    58
 90
        2
176
     1
 90
        2
176
     1
 90
        1
176
     1
 90
        2
176
     1
 40
0.6
176
     1
 40
30.0
176
     1
 62
     7
420
 16777215
176
     1
 90
        1
176
     1
 90
       10
176
     1
 62
     7
176
     1
 62
   257
176
     1
 90
        2
176
     1
 90
        1
176
     1
 40
1.0
176
     1
 90
        8
176
     1
 62
   257
176
     1
 40
1.0
176
     1
 90
        1
176
     1
 90
        6
176
     1
 90
        2
176
     1
 62
     7
176
     1
 90
        3
176
     1
 90
        0
176
     1
 90
        0
176
     1
290
     0
176
     1
 90
        5
176
     1
 40
0.0
176
     1
 90
        0
176
     1
290
     0
176
     1
290
     1
176
     1
290
     1
176
     1
290
     0
176
     1
290
     0
176
     1
290
     0
176
     1
290
     0
176
     1
290
     0
176
     1
290
     0
176
     1
 90
       50
176
     1
 40
0.0
176
     1
 40
1.0
176
     1
 90
        0
176
     1
 62
    18
420
        0
176
     1
 90
       50
176
     1
 90
        3
176
     1
 62
     5
420
      255
176
     1
290
     0
176
     1
 90
       50
176
     1
 90
       50
176
     1
 90
       50
176
     1
290
     0
176
     1
 90
       50
176
     1
 62
   256
176
     0
 40
1.0
176
     0
 90
        2
176
     1
  1
strokes_ogs.tif
176
     1
290
     0
176
     1
 40
1.0
176
     1
 40
1.0
176
     1
  0
VISUALSTYLE
  5
3A
102
{ACAD_REACTORS
330
29
102
}
330
29
100
AcDbVisualStyle
  2
Shades of Gray
 70
    23
177
     3
291
     0
 70
    58
 90
        2
176
     1
 90
        2
176
     1
 90
        3
176
     1
 90
        0
176
     1
 40
0.6
176
     1
 40
30.0
176
     1
 62
     7
420
 16777215
176
     1
 90
        2
176
     1
 90
        2
176
     1
 62
     7
176
     1
 62
     7
176
     1
 90
        1
176
     1
 90
        1
176
     1
 40
40.0
176
     1
 90
        8
176
     1
 62
     7
176
     1
 40
1.0
176
     1
 90
        1
176
     1
 90
        6
176
     1
 90
        2
176
     1
 62
     7
176
     1
 90
        3
176
     1
 90
        0
176
     1
 90
        0
176
     1
290
     0
176
     1
 90
        1
176
     1
 40
0.0
176
     1
 90
        0
176
     1
290
     0
176
     1
290
     1
176
     1
290
     1
176
     1
290
     0
176
     1
290
     0
176
     1
290
     0
176
     1
290
     0
176
     1
290
     0
176
     1
290
     0
176
     1
 90
       50
176
     1
 40
0.0
176
     1
 40
1.0
176
     1
 90
        0
176
     1
 62
    18
420
        0
176
     1
 90
       50
176
     1
 90
        3
176
     1
 62
     5
420
      255
176
     1
290
     0
176
     1
 90
       50
176
     1
 90
       50
176
     1
 90
       50
176
     1
290
     0
176
     1
 90
       50
176
     1
 62
   256
176
     0
 40
1.0
176
     0
 90
        2
176
     1
  1
strokes_ogs.tif
176
     1
290
     0
176
     1
 40
1.0
176
     1
 40
1.0
176
     1
  0
VISUALSTYLE
  5
3B
102
{ACAD_REACTORS
330
29
102
}
330
29
100
AcDbVisualStyle
  2
Sketchy
 70
    24
177
     3
291
     0
 70
    58
 90
        1
176
     1
 90
        2
176
     1
 90
        2
176
     1
 90
        0
176
     1
 40
0.6
176
     1
 40
30.0
176
     1
 62
     7
420
 16777215
176
     1
 90
        2
176
     1
 90
        2
176
     1
 62
     7
176
     1
 62
     7
176
     1
 90
        1
176
     1
 90
        1
176
     1
 40
40.0
176
     1
 90
       11
176
     1
 62
     7
176
     1
 40
1.0
176
     1
 90
        1
176
     1
 90
        6
176
     1
 90
        2
176
     1
 62
     7
176
     1
 90
        6
176
     1
 90
        0
176
     1
 90
        0
176
     1
290
     0
176
     1
 90
        1
176
     1
 40
0.0
176
     1
 90
        0
176
     1
290
     0
176
     1
290
     1
176
     1
290
     1
176
     1
290
     0
176
     1
290
     0
176
     1
290
     0
176
     1
290
     0
176
     1
290
     0
176
     1
290
     0
176
     1
 90
       50
176
     1
 40
0.0
176
     1
 40
1.0
176
     1
 90
        0
176
     1
 62
    18
420
        0
176
     1
 90
       50
176
     1
 90
        3
176
     1
 62
     5
420
      255
176
     1
290
     0
176
     1
 90
       50
176
     1
 90
       50
176
     1
 90
       50
176
     1
290
     0
176
     1
 90
       50
176
     1
 62
   256
176
     0
 40
1.0
176
     0
 90
        2
176
     1
  1
strokes_ogs.tif
176
     1
290
     0
176
     1
 40
1.0
176
     1
 40
1.0
176
     1
  0
VISUALSTYLE
  5
36
102
{ACAD_REACTORS
330
29
102
}
330
29
100
AcDbVisualStyle
  2
Thicken
 70
    13
177
     3
291
     1
 70
    58
 90
        2
176
     1
 90
        2
176
     1
 90
        0
176
     1
 90
        0
176
     1
 40
0.6
176
     1
 40
30.0
176
     1
 62
     7
420
 16777215
176
     1
 90
        1
176
     1
 90
        4
176
     1
 62
     7
176
     1
 62
   257
176
     1
 90
        1
176
     1
 90
        1
176
     1
 40
1.0
176
     1
 90
       12
176
     1
 62
     7
176
     1
 40
1.0
176
     1
 90
        1
176
     1
 90
        6
176
     1
 90
        2
176
     1
 62
     7
176
     1
 90
        5
176
     1
 90
        0
176
     1
 90
        0
176
     1
290
     0
176
     1
 90
        1
176
     1
 40
0.0
176
     1
 90
        0
176
     1
290
     0
176
     1
290
     1
176
     1
290
     1
176
     1
290
     0
176
     1
290
     0
176
     1
290
     0
176
     1
290
     0
176
     1
290
     0
176
     1
290
     0
176
     1
 90
       50
176
     1
 40
0.0
176
     1
 40
1.0
176
     1
 90
        0
176
     1
 62
    18
420
        0
176
     1
 90
       50
176
     1
 90
        3
176
     1
 62
     5
420
      255
176
     1
290
     0
176
     1
 90
       50
176
     1
 90
       50
176
     1
 90
       50
176
     1
290
     0
176
     1
 90
       50
176
     1
 62
   256
176
     0
 40
1.0
176
     0
 90
        2
176
     1
  1
strokes_ogs.tif
176
     1
290
     0
176
     1
 40
1.0
176
     1
 40
1.0
176
     1
  0
VISUALSTYLE
  5
30
102
{ACAD_REACTORS
330
29
102
}
330
29
100
AcDbVisualStyle
  2
Wireframe
 70
     5
177
     3
291
     0
 70
    58
 90
        0
176
     1
 90
        2
176
     1
 90
        0
176
     1
 90
        0
176
     1
 40
0.6
176
     1
 40
30.0
176
     1
 62
     7
420
 16777215
176
     1
 90
        1
176
     1
 90
        4
176
     1
 62
     7
176
     1
 62
   257
176
     1
 90
        1
176
     1
 90
        1
176
     1
 40
1.0
176
     1
 90
        0
176
     1
 62
   257
176
     1
 40
1.0
176
     1
 90
        1
176
     1
 90
        6
176
     1
 90
        2
176
     1
 62
     7
176
     1
 90
        3
176
     1
 90
        0
176
     1
 90
        0
176
     1
290
     0
176
     1
 90
        1
176
     1
 40
0.0
176
     1
 90
        0
176
     1
290
     0
176
     1
290
     1
176
     1
290
     1
176
     1
290
     0
176
     1
290
     0
176
     1
290
     0
176
     1
290
     0
176
     1
290
     0
176
     1
290
     0
176
     1
 90
       50
176
     1
 40
0.0
176
     1
 40
1.0
176
     1
 90
        0
176
     1
 62
    18
420
        0
176
     1
 90
       50
176
     1
 90
        3
176
     1
 62
     5
420
      255
176
     1
290
     0
176
     1
 90
       50
176
     1
 90
       50
176
     1
 90
       50
176
     1
290
     0
176
     1
 90
       50
176
     1
 62
   256
176
     0
 40
1.0
176
     0
 90
        2
176
     1
  1
strokes_ogs.tif
176
     1
290
     0
176
     1
 40
1.0
176
     1
 40
1.0
176
     1
  0
VISUALSTYLE
  5
3C
102
{ACAD_REACTORS
330
29
102
}
330
29
100
AcDbVisualStyle
  2
X-Ray
 70
    25
177
     3
291
     0
 70
    58
 90
        2
176
     1
 90
        2
176
     1
 90
        1
176
     1
 90
        1
176
     1
 40
0.5
176
     1
 40
30.0
176
     1
 62
     7
420
 16777215
176
     1
 90
        1
176
     1
 90
        0
176
     1
 62
     7
176
     1
 62
   257
176
     1
 90
        1
176
     1
 90
        1
176
     1
 40
1.0
176
     1
 90
        8
176
     1
 62
     7
176
     1
 40
1.0
176
     1
 90
        1
176
     1
 90
        6
176
     1
 90
        2
176
     1
 62
     7
176
     1
 90
        3
176
     1
 90
        0
176
     1
 90
        0
176
     1
290
     0
176
     1
 90
       13
176
     1
 40
0.0
176
     1
 90
        0
176
     1
290
     0
176
     1
290
     1
176
     1
290
     1
176
     1
290
     0
176
     1
290
     0
176
     1
290
     0
176
     1
290
     0
176
     1
290
     0
176
     1
290
     0
176
     1
 90
       50
176
     1
 40
0.0
176
     1
 40
1.0
176
     1
 90
        0
176
     1
 62
    18
420
        0
176
     1
 90
       50
176
     1
 90
        3
176
     1
 62
     5
420
      255
176
     1
290
     0
176
     1
 90
       50
176
     1
 90
       50
176
     1
 90
       50
176
     1
290
     0
176
     1
 90
       50
176
     1
 62
   256
176
     0
 40
1.0
176
     0
 90
        2
176
     1
  1
strokes_ogs.tif
176
     1
290
     0
176
     1
 40
1.0
176
     1
 40
1.0
176
     1
  0
DICTIONARYVAR
  5
DA
102
{ACAD_REACTORS
330
D5
102
}
330
D5
100
DictionaryVariables
280
     0
  1
1:1
  0
DICTIONARYVAR
  5
D7
102
{ACAD_REACTORS
330
D5
102
}
330
D5
100
DictionaryVariables
280
     0
  1
STANDARD
  0
DICTIONARYVAR
  5
D6
102
{ACAD_REACTORS
330
D5
102
}
330
D5
100
DictionaryVariables
280
     0
  1
STANDARD
  0
DICTIONARYVAR
  5
D8
102
{ACAD_REACTORS
330
D5
102
}
330
D5
100
DictionaryVariables
280
     0
  1
Imperial24
  0
DICTIONARYVAR
  5
D9
102
{ACAD_REACTORS
330
D5
102
}
330
D5
100
DictionaryVariables
280
     0
  1
Imperial24
  0
XRECORD
  5
CD
102
{ACAD_REACTORS
330
CA
102
}
330
CA
100
AcDbXrecord
280
     1
  1
BUILDING_ID
  1
Tissue_Holder-DXV-Fitzgerald-D35160230_Series
  1
FLOOR_ID
  1
1884
  0
XRECORD
  5
CB
102
{ACAD_REACTORS
330
CA
102
}
330
CA
100
AcDbXrecord
280
     1
  1
-2000051
  1
Lines
  1
-2001350
  1
Specialty Equipment
  0
XRECORD
  5
CC
102
{ACAD_REACTORS
330
CA
102
}
330
CA
100
AcDbXrecord
280
     1
  1
-2000287
  1
<Beyond>
  0
DICTIONARY
  5
D2
330
6B
100
AcDbDictionary
280
     1
281
     1
  3
ACAD_XREC_ROUNDTRIP
360
87C
  0
DICTIONARY
  5
1A
330
19
100
AcDbDictionary
280
     1
281
     1
  3
BUMPTILE
360
1C
  3
DIFFUSETILE
360
1B
  3
OPACITYTILE
360
1F
  3
REFLECTIONTILE
360
1E
  3
REFRACTIONTILE
360
20
  3
SPECULARTILE
360
1D
  0
DICTIONARY
  5
12
330
11
100
AcDbDictionary
280
     1
281
     1
  3
BUMPTILE
360
14
  3
DIFFUSETILE
360
13
  3
OPACITYTILE
360
17
  3
REFLECTIONTILE
360
16
  3
REFRACTIONTILE
360
18
  3
SPECULARTILE
360
15
  0
DICTIONARY
  5
22
330
21
100
AcDbDictionary
280
     1
281
     1
  3
BUMPTILE
360
24
  3
DIFFUSETILE
360
23
  3
OPACITYTILE
360
27
  3
REFLECTIONTILE
360
26
  3
REFRACTIONTILE
360
28
  3
SPECULARTILE
360
25
  0
DICTIONARY
  5
D0
330
69
100
AcDbDictionary
280
     1
281
     1
  3
ACAD_XREC_ROUNDTRIP
360
87B
  0
DICTIONARY
  5
879
330
65
100
AcDbDictionary
280
     1
281
     1
  3
ACAD_ROUNDTRIP_2008_TABLESTYLE_CELLSTYLEMAP
360
87A
  0
XRECORD
  5
87C
102
{ACAD_REACTORS
330
D2
102
}
330
D2
100
AcDbXrecord
280
     1
102
DISPLAYNAME
  1
Imperial24
102
FLAGS
 90
        0
  0
XRECORD
  5
1C
102
{ACAD_REACTORS
330
1A
102
}
330
1A
100
AcDbXrecord
280
     1
270
     1
271
     1
  0
XRECORD
  5
1B
102
{ACAD_REACTORS
330
1A
102
}
330
1A
100
AcDbXrecord
280
     1
270
     1
271
     1
  0
XRECORD
  5
1F
102
{ACAD_REACTORS
330
1A
102
}
330
1A
100
AcDbXrecord
280
     1
270
     1
271
     1
  0
XRECORD
  5
1E
102
{ACAD_REACTORS
330
1A
102
}
330
1A
100
AcDbXrecord
280
     1
270
     1
271
     1
  0
XRECORD
  5
20
102
{ACAD_REACTORS
330
1A
102
}
330
1A
100
AcDbXrecord
280
     1
270
     1
271
     1
  0
XRECORD
  5
1D
102
{ACAD_REACTORS
330
1A
102
}
330
1A
100
AcDbXrecord
280
     1
270
     1
271
     1
  0
XRECORD
  5
14
102
{ACAD_REACTORS
330
12
102
}
330
12
100
AcDbXrecord
280
     1
270
     1
271
     1
  0
XRECORD
  5
13
102
{ACAD_REACTORS
330
12
102
}
330
12
100
AcDbXrecord
280
     1
270
     1
271
     1
  0
XRECORD
  5
17
102
{ACAD_REACTORS
330
12
102
}
330
12
100
AcDbXrecord
280
     1
270
     1
271
     1
  0
XRECORD
  5
16
102
{ACAD_REACTORS
330
12
102
}
330
12
100
AcDbXrecord
280
     1
270
     1
271
     1
  0
XRECORD
  5
18
102
{ACAD_REACTORS
330
12
102
}
330
12
100
AcDbXrecord
280
     1
270
     1
271
     1
  0
XRECORD
  5
15
102
{ACAD_REACTORS
330
12
102
}
330
12
100
AcDbXrecord
280
     1
270
     1
271
     1
  0
XRECORD
  5
24
102
{ACAD_REACTORS
330
22
102
}
330
22
100
AcDbXrecord
280
     1
270
     1
271
     1
  0
XRECORD
  5
23
102
{ACAD_REACTORS
330
22
102
}
330
22
100
AcDbXrecord
280
     1
270
     1
271
     1
  0
XRECORD
  5
27
102
{ACAD_REACTORS
330
22
102
}
330
22
100
AcDbXrecord
280
     1
270
     1
271
     1
  0
XRECORD
  5
26
102
{ACAD_REACTORS
330
22
102
}
330
22
100
AcDbXrecord
280
     1
270
     1
271
     1
  0
XRECORD
  5
28
102
{ACAD_REACTORS
330
22
102
}
330
22
100
AcDbXrecord
280
     1
270
     1
271
     1
  0
XRECORD
  5
25
102
{ACAD_REACTORS
330
22
102
}
330
22
100
AcDbXrecord
280
     1
270
     1
271
     1
  0
XRECORD
  5
87B
102
{ACAD_REACTORS
330
D0
102
}
330
D0
100
AcDbXrecord
280
     1
102
DISPLAYNAME
  1
Imperial24
102
FLAGS
 90
        0
  0
CELLSTYLEMAP
  5
87A
102
{ACAD_REACTORS
330
879
102
}
330
879
100
AcDbCellStyleMap
 90
        3
300
CELLSTYLE
  1
TABLEFORMAT_BEGIN
 90
        5
170
     1
 91
        0
 92
    32768
 62
   257
 93
        1
300
CONTENTFORMAT
  1
CONTENTFORMAT_BEGIN
 90
        0
 91
        0
 92
      512
 93
        0
300

 40
0.0
140
1.0
 94
        5
 62
     0
340
55
144
0.25
309
CONTENTFORMAT_END
171
     0
 94
        0
309
TABLEFORMAT_END
  1
CELLSTYLE_BEGIN
 90
        1
 91
        1
300
_TITLE
309
CELLSTYLE_END
300
CELLSTYLE
  1
TABLEFORMAT_BEGIN
 90
        5
170
     1
 91
        0
 92
        0
 62
   257
 93
        1
300
CONTENTFORMAT
  1
CONTENTFORMAT_BEGIN
 90
        0
 91
        0
 92
      512
 93
        0
300

 40
0.0
140
1.0
 94
        5
 62
     0
340
55
144
0.18
309
CONTENTFORMAT_END
171
     0
 94
        0
309
TABLEFORMAT_END
  1
CELLSTYLE_BEGIN
 90
        2
 91
        1
300
_HEADER
309
CELLSTYLE_END
300
CELLSTYLE
  1
TABLEFORMAT_BEGIN
 90
        5
170
     1
 91
        0
 92
        0
 62
   257
 93
        1
300
CONTENTFORMAT
  1
CONTENTFORMAT_BEGIN
 90
        0
 91
        0
 92
      512
 93
        0
300

 40
0.0
140
1.0
 94
        2
 62
     0
340
55
144
0.18
309
CONTENTFORMAT_END
171
     0
 94
        0
309
TABLEFORMAT_END
  1
CELLSTYLE_BEGIN
 90
        3
 91
        2
300
_DATA
309
CELLSTYLE_END
  0
ENDSEC
  0
SECTION
  2
ACDSDATA
 70
     2
 71
     8
  0
ACDSSCHEMA
 90
        0
  1
AcDb_Thumbnail_Schema
  2
AcDbDs::ID
280
    10
 91
        8
  2
Thumbnail_Data
280
    15
 91
        0
101
ACDSRECORD
 95
        0
 90
        1
  2
AcDbDs::TreatedAsObjectData
280
     1
291
     1
101
ACDSRECORD
 95
        0
 90
        2
  2
AcDbDs::Legacy
280
     1
291
     1
101
ACDSRECORD
  1
AcDbDs::ID
 90
        3
  2
AcDs:Indexable
280
     1
291
     1
101
ACDSRECORD
  1
AcDbDs::ID
 90
        4
  2
AcDbDs::HandleAttribute
280
     7
282
     1
  0
ACDSSCHEMA
 90
        1
  1
AcDbDs::TreatedAsObjectDataSchema
  2
AcDbDs::TreatedAsObjectData
280
     1
 91
        0
  0
ACDSSCHEMA
 90
        2
  1
AcDbDs::LegacySchema
  2
AcDbDs::Legacy
280
     1
 91
        0
  0
ACDSSCHEMA
 90
        3
  1
AcDbDs::IndexedPropertySchema
  2
AcDs:Indexable
280
     1
 91
        0
  0
ACDSSCHEMA
 90
        4
  1
AcDbDs::HandleAttributeSchema
  2
AcDbDs::HandleAttribute
280
     7
 91
        1
284
     1
  0
ACDSRECORD
 90
        0
  2
AcDbDs::ID
280
    10
320
73
  2
Thumbnail_Data
280
    15
 94
     1139
310
89504E470D0A1A0A0000000D494844520000010000000084080300000048FA052E00000300504C5445212830000000C8C8C80000000000000000000000000000000000000000000000000000330000660000990000CC0000FF0033000033330033660033990033CC0033FF0066000066330066660066990066CC0066FF0099
310
000099330099660099990099CC0099FF00CC0000CC3300CC6600CC9900CCCC00CCFF00FF0000FF3300FF6600FF9900FFCC00FFFF3300003300333300663300993300CC3300FF3333003333333333663333993333CC3333FF3366003366333366663366993366CC3366FF3399003399333399663399993399CC3399FF33CC00
310
33CC3333CC6633CC9933CCCC33CCFF33FF0033FF3333FF6633FF9933FFCC33FFFF6600006600336600666600996600CC6600FF6633006633336633666633996633CC6633FF6666006666336666666666996666CC6666FF6699006699336699666699996699CC6699FF66CC0066CC3366CC6666CC9966CCCC66CCFF66FF0066
310
FF3366FF6666FF9966FFCC66FFFF9900009900339900669900999900CC9900FF9933009933339933669933999933CC9933FF9966009966339966669966999966CC9966FF9999009999339999669999999999CC9999FF99CC0099CC3399CC6699CC9999CCCC99CCFF99FF0099FF3399FF6699FF9999FFCC99FFFFCC0000CC00
310
33CC0066CC0099CC00CCCC00FFCC3300CC3333CC3366CC3399CC33CCCC33FFCC6600CC6633CC6666CC6699CC66CCCC66FFCC9900CC9933CC9966CC9999CC99CCCC99FFCCCC00CCCC33CCCC66CCCC99CCCCCCCCCCFFCCFF00CCFF33CCFF66CCFF99CCFFCCCCFFFFFF0000FF0033FF0066FF0099FF00CCFF00FFFF3300FF3333
310
FF3366FF3399FF33CCFF33FFFF6600FF6633FF6666FF6699FF66CCFF66FFFF9900FF9933FF9966FF9999FF99CCFF99FFFFCC00FFCC33FFCC66FFCC99FFCCCCFFCCFFFFFF00FFFF33FFFF66FFFF99FFFFCCFFFFFF0000000D0D0D1A1A1A2828283535354343435050505D5D5D6B6B6B787878868686939393A1A1A1AEAEAEBB
310
BBBBC9C9C9D6D6D6E4E4E4F1F1F1FFFFFF000000000000000000000000000000000000000000000000000000000000B21171F60000012E4944415478DAEDDDB1B2C220100550FEFF7FE95FA13C33EA984DC2E802E7345AAC0A57C0A4714BE107EAD6E5B24103787E76B66AFC2570B56AD400DA93CF6591AA4113B83F16017C
310
2C9B38801A9959AC6AC800CAEA0158018B07D0A6B61F54A44A0002183480FDCD7D2B9BF486301A40154099750F04662680498F80FBCD7EB7B241E71F36EB2118BB0E983A80D077BF7A00531F027DAA0000000000000000000000000000000000000000000000A059FE5FEE3BFFD1FF78FD056AD78E2F075A6D6549E0BF45E0
310
2686D3636B0D34EAFE67A65903DBD13E5A809C1B5B7B6DA8C54E20A8AF07B05DC657DE2BD86128C71278F78D9D0EA0CD6CFF435305F0B287AF6C81F80AC8B505BA1C82F568ABAD2C01743B90832D945A57C22CBF021DC7518F5C0825B90EE83B8ED5DBED65F107960589F208E530730000000049454E44AE426082
  0
ENDSEC
  0
EOF
