  0
SECTION
  2
HEADER
  9
$ACADVER
  1
AC1027
  9
$ACADMAINTVER
 70
   105
  9
$DWGCODEPAGE
  3
ANSI_1252
  9
$LASTSAVEDBY
  1
Ibrahim
  9
$REQUIREDVERSIONS
160
                 0
  9
$INSBASE
 10
0.0
 20
0.0
 30
0.0
  9
$EXTMIN
 10
-29.714355223945
 20
-1.003417690521644
 30
-0.0000000000022887
  9
$EXTMAX
 10
9.558105647515446
 20
22.82959003796492
 30
0.0000000000000001
  9
$LIMMIN
 10
0.0
 20
0.0
  9
$LIMMAX
 10
12.0
 20
9.0
  9
$ORTHOMODE
 70
     1
  9
$REGENMODE
 70
     1
  9
$FILLMODE
 70
     1
  9
$QTEXTMODE
 70
     0
  9
$MIRRTEXT
 70
     0
  9
$LTSCALE
 40
1.0
  9
$ATTMODE
 70
     1
  9
$TEXTSIZE
 40
0.2
  9
$TRACEWID
 40
0.05
  9
$TEXTSTYLE
  7
Standard
  9
$CLAYER
  8
D35160180
  9
$CELTYPE
  6
ByLayer
  9
$CECOLOR
 62
   256
  9
$CELTSCALE
 40
1.0
  9
$DISPSILH
 70
     0
  9
$DIMSCALE
 40
1.0
  9
$DIMASZ
 40
0.18
  9
$DIMEXO
 40
0.0625
  9
$DIMDLI
 40
0.38
  9
$DIMRND
 40
0.0
  9
$DIMDLE
 40
0.0
  9
$DIMEXE
 40
0.18
  9
$DIMTP
 40
0.0
  9
$DIMTM
 40
0.0
  9
$DIMTXT
 40
0.18
  9
$DIMCEN
 40
0.09
  9
$DIMTSZ
 40
0.0
  9
$DIMTOL
 70
     0
  9
$DIMLIM
 70
     0
  9
$DIMTIH
 70
     1
  9
$DIMTOH
 70
     1
  9
$DIMSE1
 70
     0
  9
$DIMSE2
 70
     0
  9
$DIMTAD
 70
     0
  9
$DIMZIN
 70
     0
  9
$DIMBLK
  1

  9
$DIMASO
 70
     1
  9
$DIMSHO
 70
     1
  9
$DIMPOST
  1

  9
$DIMAPOST
  1

  9
$DIMALT
 70
     0
  9
$DIMALTD
 70
     2
  9
$DIMALTF
 40
25.4
  9
$DIMLFAC
 40
1.0
  9
$DIMTOFL
 70
     0
  9
$DIMTVP
 40
0.0
  9
$DIMTIX
 70
     0
  9
$DIMSOXD
 70
     0
  9
$DIMSAH
 70
     0
  9
$DIMBLK1
  1

  9
$DIMBLK2
  1

  9
$DIMSTYLE
  2
Standard
  9
$DIMCLRD
 70
     0
  9
$DIMCLRE
 70
     0
  9
$DIMCLRT
 70
     0
  9
$DIMTFAC
 40
1.0
  9
$DIMGAP
 40
0.09
  9
$DIMJUST
 70
     0
  9
$DIMSD1
 70
     0
  9
$DIMSD2
 70
     0
  9
$DIMTOLJ
 70
     1
  9
$DIMTZIN
 70
     0
  9
$DIMALTZ
 70
     0
  9
$DIMALTTZ
 70
     0
  9
$DIMUPT
 70
     0
  9
$DIMDEC
 70
     4
  9
$DIMTDEC
 70
     4
  9
$DIMALTU
 70
     4
  9
$DIMALTTD
 70
     2
  9
$DIMTXSTY
  7
Standard
  9
$DIMAUNIT
 70
     0
  9
$DIMADEC
 70
     0
  9
$DIMALTRND
 40
0.0
  9
$DIMAZIN
 70
     0
  9
$DIMDSEP
 70
    46
  9
$DIMATFIT
 70
     3
  9
$DIMFRAC
 70
     0
  9
$DIMLDRBLK
  1

  9
$DIMLUNIT
 70
     4
  9
$DIMLWD
 70
    -2
  9
$DIMLWE
 70
    -2
  9
$DIMTMOVE
 70
     0
  9
$DIMFXL
 40
1.0
  9
$DIMFXLON
 70
     0
  9
$DIMJOGANG
 40
0.7853981633974483
  9
$DIMTFILL
 70
     0
  9
$DIMTFILLCLR
 70
     0
  9
$DIMARCSYM
 70
     0
  9
$DIMLTYPE
  6

  9
$DIMLTEX1
  6

  9
$DIMLTEX2
  6

  9
$DIMTXTDIRECTION
 70
     0
  9
$LUNITS
 70
     4
  9
$LUPREC
 70
     4
  9
$SKETCHINC
 40
0.1
  9
$FILLETRAD
 40
0.0
  9
$AUNITS
 70
     0
  9
$AUPREC
 70
     0
  9
$MENU
  1
.
  9
$ELEVATION
 40
0.0
  9
$PELEVATION
 40
0.0
  9
$THICKNESS
 40
0.0
  9
$LIMCHECK
 70
     0
  9
$CHAMFERA
 40
0.0
  9
$CHAMFERB
 40
0.0
  9
$CHAMFERC
 40
0.0
  9
$CHAMFERD
 40
0.0
  9
$SKPOLY
 70
     0
  9
$TDCREATE
 40
2458417.646409780
  9
$TDUCREATE
 40
2458417.813076447
  9
$TDUPDATE
 40
2458424.704482951
  9
$TDUUPDATE
 40
2458424.871149619
  9
$TDINDWG
 40
0.0050450463
  9
$TDUSRTIMER
 40
0.0050450463
  9
$USRTIMER
 70
     1
  9
$ANGBASE
 50
0.0
  9
$ANGDIR
 70
     0
  9
$PDMODE
 70
     0
  9
$PDSIZE
 40
0.0
  9
$PLINEWID
 40
0.0
  9
$SPLFRAME
 70
     0
  9
$SPLINETYPE
 70
     6
  9
$SPLINESEGS
 70
     8
  9
$HANDSEED
  5
A25
  9
$SURFTAB1
 70
     6
  9
$SURFTAB2
 70
     6
  9
$SURFTYPE
 70
     6
  9
$SURFU
 70
     6
  9
$SURFV
 70
     6
  9
$UCSBASE
  2

  9
$UCSNAME
  2

  9
$UCSORG
 10
0.0
 20
0.0
 30
0.0
  9
$UCSXDIR
 10
1.0
 20
0.0
 30
0.0
  9
$UCSYDIR
 10
0.0
 20
1.0
 30
0.0
  9
$UCSORTHOREF
  2

  9
$UCSORTHOVIEW
 70
     0
  9
$UCSORGTOP
 10
0.0
 20
0.0
 30
0.0
  9
$UCSORGBOTTOM
 10
0.0
 20
0.0
 30
0.0
  9
$UCSORGLEFT
 10
0.0
 20
0.0
 30
0.0
  9
$UCSORGRIGHT
 10
0.0
 20
0.0
 30
0.0
  9
$UCSORGFRONT
 10
0.0
 20
0.0
 30
0.0
  9
$UCSORGBACK
 10
0.0
 20
0.0
 30
0.0
  9
$PUCSBASE
  2

  9
$PUCSNAME
  2

  9
$PUCSORG
 10
0.0
 20
0.0
 30
0.0
  9
$PUCSXDIR
 10
1.0
 20
0.0
 30
0.0
  9
$PUCSYDIR
 10
0.0
 20
1.0
 30
0.0
  9
$PUCSORTHOREF
  2

  9
$PUCSORTHOVIEW
 70
     0
  9
$PUCSORGTOP
 10
0.0
 20
0.0
 30
0.0
  9
$PUCSORGBOTTOM
 10
0.0
 20
0.0
 30
0.0
  9
$PUCSORGLEFT
 10
0.0
 20
0.0
 30
0.0
  9
$PUCSORGRIGHT
 10
0.0
 20
0.0
 30
0.0
  9
$PUCSORGFRONT
 10
0.0
 20
0.0
 30
0.0
  9
$PUCSORGBACK
 10
0.0
 20
0.0
 30
0.0
  9
$USERI1
 70
     0
  9
$USERI2
 70
     0
  9
$USERI3
 70
     0
  9
$USERI4
 70
     0
  9
$USERI5
 70
     0
  9
$USERR1
 40
0.0
  9
$USERR2
 40
0.0
  9
$USERR3
 40
0.0
  9
$USERR4
 40
0.0
  9
$USERR5
 40
0.0
  9
$WORLDVIEW
 70
     1
  9
$SHADEDGE
 70
     3
  9
$SHADEDIF
 70
    70
  9
$TILEMODE
 70
     1
  9
$MAXACTVP
 70
    64
  9
$PINSBASE
 10
0.0
 20
0.0
 30
0.0
  9
$PLIMCHECK
 70
     0
  9
$PEXTMIN
 10
1.000000000000000E+20
 20
1.000000000000000E+20
 30
1.000000000000000E+20
  9
$PEXTMAX
 10
-1.000000000000000E+20
 20
-1.000000000000000E+20
 30
-1.000000000000000E+20
  9
$PLIMMIN
 10
0.0
 20
0.0
  9
$PLIMMAX
 10
12.0
 20
9.0
  9
$UNITMODE
 70
     0
  9
$VISRETAIN
 70
     1
  9
$PLINEGEN
 70
     0
  9
$PSLTSCALE
 70
     1
  9
$TREEDEPTH
 70
  3020
  9
$CMLSTYLE
  2
Standard
  9
$CMLJUST
 70
     0
  9
$CMLSCALE
 40
1.0
  9
$PROXYGRAPHICS
 70
     1
  9
$MEASUREMENT
 70
     0
  9
$CELWEIGHT
370
    -1
  9
$ENDCAPS
280
     0
  9
$JOINSTYLE
280
     0
  9
$LWDISPLAY
290
     0
  9
$INSUNITS
 70
     1
  9
$HYPERLINKBASE
  1

  9
$STYLESHEET
  1

  9
$XEDIT
290
     1
  9
$CEPSNTYPE
380
     0
  9
$PSTYLEMODE
290
     1
  9
$FINGERPRINTGUID
  2
{3649617D-3B2A-47D0-B05D-8E1062C34BDE}
  9
$VERSIONGUID
  2
{340AAC76-2655-4EB3-A298-295D75E7397F}
  9
$EXTNAMES
290
     1
  9
$PSVPSCALE
 40
0.0
  9
$OLESTARTUP
290
     0
  9
$SORTENTS
280
   127
  9
$INDEXCTL
280
     0
  9
$HIDETEXT
280
     1
  9
$XCLIPFRAME
280
     2
  9
$HALOGAP
280
     0
  9
$OBSCOLOR
 70
   257
  9
$OBSLTYPE
280
     0
  9
$INTERSECTIONDISPLAY
280
     0
  9
$INTERSECTIONCOLOR
 70
   257
  9
$DIMASSOC
280
     2
  9
$PROJECTNAME
  1

  9
$CAMERADISPLAY
290
     0
  9
$LENSLENGTH
 40
50.0
  9
$CAMERAHEIGHT
 40
0.0
  9
$STEPSPERSEC
 40
2.0
  9
$STEPSIZE
 40
6.0
  9
$3DDWFPREC
 40
2.0
  9
$PSOLWIDTH
 40
0.25
  9
$PSOLHEIGHT
 40
4.0
  9
$LOFTANG1
 40
1.570796326794896
  9
$LOFTANG2
 40
1.570796326794896
  9
$LOFTMAG1
 40
0.0
  9
$LOFTMAG2
 40
0.0
  9
$LOFTPARAM
 70
     7
  9
$LOFTNORMALS
280
     1
  9
$LATITUDE
 40
0.0
  9
$LONGITUDE
 40
0.0
  9
$NORTHDIRECTION
 40
0.0
  9
$TIMEZONE
 70
     0
  9
$LIGHTGLYPHDISPLAY
280
     1
  9
$TILEMODELIGHTSYNCH
280
     1
  9
$CMATERIAL
347
11
  9
$SOLIDHIST
280
     0
  9
$SHOWHIST
280
     1
  9
$DWFFRAME
280
     2
  9
$DGNFRAME
280
     0
  9
$REALWORLDSCALE
290
     1
  9
$INTERFERECOLOR
 62
     1
  9
$INTERFEREOBJVS
345
33
  9
$INTERFEREVPVS
346
30
  9
$CSHADOW
280
     0
  9
$SHADOWPLANELOCATION
 40
0.0
  0
ENDSEC
  0
SECTION
  2
CLASSES
  0
CLASS
  1
ACDBDICTIONARYWDFLT
  2
AcDbDictionaryWithDefault
  3
ObjectDBX Classes
 90
        0
 91
        1
280
     0
281
     0
  0
CLASS
  1
MATERIAL
  2
AcDbMaterial
  3
ObjectDBX Classes
 90
     1153
 91
        3
280
     0
281
     0
  0
CLASS
  1
VISUALSTYLE
  2
AcDbVisualStyle
  3
ObjectDBX Classes
 90
     4095
 91
       24
280
     0
281
     0
  0
CLASS
  1
SCALE
  2
AcDbScale
  3
ObjectDBX Classes
 90
     1153
 91
       17
280
     0
281
     0
  0
CLASS
  1
TABLESTYLE
  2
AcDbTableStyle
  3
ObjectDBX Classes
 90
     4095
 91
        1
280
     0
281
     0
  0
CLASS
  1
MLEADERSTYLE
  2
AcDbMLeaderStyle
  3
ACDB_MLEADERSTYLE_CLASS
 90
     4095
 91
        1
280
     0
281
     0
  0
CLASS
  1
ACDBSECTIONVIEWSTYLE
  2
AcDbSectionViewStyle
  3
ObjectDBX Classes
 90
     1025
 91
        1
280
     0
281
     0
  0
CLASS
  1
ACDBDETAILVIEWSTYLE
  2
AcDbDetailViewStyle
  3
ObjectDBX Classes
 90
     1025
 91
        1
280
     0
281
     0
  0
CLASS
  1
RASTERVARIABLES
  2
AcDbRasterVariables
  3
ISM
 90
        0
 91
        1
280
     0
281
     0
  0
CLASS
  1
DICTIONARYVAR
  2
AcDbDictionaryVar
  3
ObjectDBX Classes
 90
        0
 91
        5
280
     0
281
     0
  0
CLASS
  1
SORTENTSTABLE
  2
AcDbSortentsTable
  3
ObjectDBX Classes
 90
        0
 91
        3
280
     0
281
     0
  0
CLASS
  1
CELLSTYLEMAP
  2
AcDbCellStyleMap
  3
ObjectDBX Classes
 90
     1152
 91
        1
280
     0
281
     0
  0
ENDSEC
  0
SECTION
  2
TABLES
  0
TABLE
  2
VPORT
  5
8
330
0
100
AcDbSymbolTable
 70
     1
  0
VPORT
  5
57
330
8
100
AcDbSymbolTableRecord
100
AcDbViewportTableRecord
  2
*Active
 70
     0
 10
0.0
 20
0.0
 11
1.0
 21
1.0
 12
-8.857177611972501
 22
10.91308617372164
 13
0.0
 23
0.0
 14
1.0
 24
1.0
 15
0.0
 25
0.0
 16
0.0
 26
0.0
 36
1.0
 17
0.0
 27
0.0
 37
0.0
 40
24.0252094037163
 41
1.927321668909825
 42
50.0
 43
0.0
 44
0.0
 50
0.0
 51
0.0
 71
     0
 72
  1000
 73
     1
 74
     1
 75
     0
 76
     0
 77
     0
 78
     0
281
     0
 65
     1
110
0.0
120
0.0
130
0.0
111
1.0
121
0.0
131
0.0
112
0.0
122
1.0
132
0.0
 79
     0
146
0.0
348
2F
 60
     3
 61
     5
292
     1
282
     1
141
0.0
142
0.0
 63
   250
421
  3355443
1001
ACAD_NAV_VCDISPLAY
1070
     3
  0
ENDTAB
  0
TABLE
  2
LTYPE
  5
5
330
0
100
AcDbSymbolTable
 70
     2
  0
LTYPE
  5
5B
330
5
100
AcDbSymbolTableRecord
100
AcDbLinetypeTableRecord
  2
ByBlock
 70
     0
  3

 72
    65
 73
     0
 40
0.0
  0
LTYPE
  5
5C
330
5
100
AcDbSymbolTableRecord
100
AcDbLinetypeTableRecord
  2
ByLayer
 70
     0
  3

 72
    65
 73
     0
 40
0.0
  0
LTYPE
  5
5D
330
5
100
AcDbSymbolTableRecord
100
AcDbLinetypeTableRecord
  2
Continuous
 70
     0
  3
Solid line
 72
    65
 73
     0
 40
0.0
  0
ENDTAB
  0
TABLE
  2
LAYER
  5
2
102
{ACAD_XDICTIONARY
360
A0D
102
}
330
0
100
AcDbSymbolTable
 70
     3
  0
LAYER
  5
54
330
2
100
AcDbSymbolTableRecord
100
AcDbLayerTableRecord
  2
0
 70
     0
 62
     7
  6
Continuous
370
    -3
390
F
347
21
348
0
  0
LAYER
  5
86
330
2
100
AcDbSymbolTableRecord
100
AcDbLayerTableRecord
  2
D35160180
 70
     0
 62
     7
  6
Continuous
370
     9
390
F
347
21
348
0
  0
ENDTAB
  0
TABLE
  2
STYLE
  5
3
330
0
100
AcDbSymbolTable
 70
     2
  0
STYLE
  5
55
330
3
100
AcDbSymbolTableRecord
100
AcDbTextStyleTableRecord
  2
Standard
 70
     0
 40
0.0
 41
1.0
 50
0.0
 71
     0
 42
0.2
  3
txt
  4

  0
ENDTAB
  0
TABLE
  2
VIEW
  5
6
330
0
100
AcDbSymbolTable
 70
     2
  0
ENDTAB
  0
TABLE
  2
UCS
  5
7
330
0
100
AcDbSymbolTable
 70
     0
  0
ENDTAB
  0
TABLE
  2
APPID
  5
9
330
0
100
AcDbSymbolTable
 70
     5
  0
APPID
  5
56
330
9
100
AcDbSymbolTableRecord
100
AcDbRegAppTableRecord
  2
ACAD
 70
     0
  0
APPID
  5
5E
330
9
100
AcDbSymbolTableRecord
100
AcDbRegAppTableRecord
  2
AcadAnnotative
 70
     0
  0
APPID
  5
78
330
9
100
AcDbSymbolTableRecord
100
AcDbRegAppTableRecord
  2
REVIT
 70
     0
  0
APPID
  5
104
330
9
100
AcDbSymbolTableRecord
100
AcDbRegAppTableRecord
  2
ACAD_NAV_VCDISPLAY
 70
     0
  0
APPID
  5
72C
330
9
100
AcDbSymbolTableRecord
100
AcDbRegAppTableRecord
  2
ACAD_EXEMPT_FROM_CAD_STANDARDS
 70
     0
  0
ENDTAB
  0
TABLE
  2
DIMSTYLE
  5
A
330
0
100
AcDbSymbolTable
 70
     3
100
AcDbDimStyleTable
 71
     1
340
58
  0
DIMSTYLE
105
58
330
A
100
AcDbSymbolTableRecord
100
AcDbDimStyleTableRecord
  2
Standard
 70
     0
340
55
  0
ENDTAB
  0
TABLE
  2
BLOCK_RECORD
  5
1
330
0
100
AcDbSymbolTable
 70
    10
  0
BLOCK_RECORD
  5
70
102
{ACAD_XDICTIONARY
360
D5
102
}
330
1
100
AcDbSymbolTableRecord
100
AcDbBlockTableRecord
  2
*Model_Space
340
73
 70
     0
280
     1
281
     0
  0
BLOCK_RECORD
  5
6C
330
1
100
AcDbSymbolTableRecord
100
AcDbBlockTableRecord
  2
*Paper_Space
340
6F
 70
     0
280
     1
281
     0
  0
BLOCK_RECORD
  5
74
330
1
100
AcDbSymbolTableRecord
100
AcDbBlockTableRecord
  2
*Paper_Space0
340
77
 70
     0
280
     1
281
     0
  0
BLOCK_RECORD
  5
733
330
1
100
AcDbSymbolTableRecord
100
AcDbBlockTableRecord
  2
D35160180 Top View
340
0
310
28000000200000002000000001002000000000000010000001000000010000000000000000000000302821FF302821FF302821FF302821FF302821FF302821FF302821FF302821FF302821FF302821FF302821FF302821FF302821FF302821FF302821FF302821FF302821FF302821FF302821FF302821FF302821FF302821
310
FF302821FF302821FF302821FF302821FF302821FF302821FF302821FF302821FF302821FF302821FF302821FF302821FF302821FF302821FF302821FF302821FF302821FF302821FF302821FF302821FF302821FF302821FF302821FF302821FF302821FF302821FF302821FF302821FF302821FF302821FF302821FF3028
310
21FF302821FF302821FF302821FF302821FF302821FF302821FF302821FF302821FF302821FF302821FF302821FF302821FF302821FF302821FF302821FF302821FF302821FF302821FF302821FF302821FF302821FF302821FF302821FF302821FF302821FF302821FF302821FF302821FF302821FF302821FF302821FF30
310
2821FF302821FF302821FF302821FF302821FF302821FF302821FF302821FF302821FF302821FF302821FF302821FF302821FF302821FF302821FF302821FF302821FF302821FF302821FF302821FF302821FF302821FF302821FF302821FF302821FF302821FF302821FF302821FF302821FF302821FF302821FF302821FF
310
302821FF302821FF302821FF302821FF302821FF302821FF302821FF302821FF302821FF302821FF302821FF302821FF302821FF302821FF302821FF302821FF302821FF302821FF302821FF302821FF302821FF302821FF302821FF302821FF302821FF302821FF302821FF302821FF302821FF302821FF302821FF302821
310
FF302821FF302821FF302821FF302821FF302821FF302821FF302821FF302821FF302821FF302821FF302821FF302821FF302821FF302821FF302821FF302821FF302821FF302821FF302821FF302821FF302821FF302821FF302821FF302821FF302821FF302821FF302821FF302821FF302821FF302821FF302821FF3028
310
21FF302821FF302821FF302821FF302821FF302821FF302821FF302821FF302821FF302821FF302821FF302821FF302821FF302821FF302821FF302821FF302821FF302821FF302821FF302821FF302821FF302821FF302821FF302821FF302821FF302821FF302821FF302821FF302821FF302821FF302821FF302821FF30
310
2821FF302821FF302821FF302821FF302821FF302821FF302821FF302821FF302821FF302821FF302821FF302821FF302821FF302821FF302821FF302821FF302821FF302821FF302821FF302821FF302821FF302821FF302821FF302821FF302821FF302821FF302821FF302821FF302821FF302821FF302821FF302821FF
310
302821FF302821FF302821FF302821FF302821FF302821FF302821FF302821FF302821FF302821FF302821FF302821FF302821FF302821FF302821FF302821FF302821FF302821FF302821FF302821FF302821FF302821FF302821FF302821FF302821FF302821FF302821FF302821FF302821FF302821FF302821FF302821
310
FF302821FF302821FF302821FF302821FF302821FF302821FF302821FF302821FF302821FF302821FF302821FF302821FF302821FF302821FF302821FF302821FF302821FF302821FF302821FF302821FF302821FF302821FF302821FF302821FF302821FF302821FF302821FF302821FF302821FF302821FF302821FF3028
310
21FF302821FF302821FF302821FF302821FF302821FF302821FF302821FF302821FF302821FF302821FF302821FF302821FF302821FF302821FF302821FF302821FF302821FF302821FF302821FF302821FF302821FF302821FF302821FF302821FF302821FF302821FF302821FF302821FF302821FF302821FF302821FF30
310
2821FF302821FF302821FF302821FF302821FF302821FF302821FF302821FF302821FF302821FF302821FF302821FF302821FF302821FF302821FF302821FF302821FF302821FF302821FF302821FF302821FF302821FF302821FF302821FF302821FF302821FF302821FF302821FF302821FF302821FF302821FF302821FF
310
302821FF302821FF302821FF302821FF302821FF302821FF302821FF302821FF302821FF302821FF302821FF302821FF302821FF302821FF302821FF302821FF302821FF302821FF302821FF302821FF302821FF302821FF302821FF302821FF302821FF302821FF302821FF302821FF302821FF302821FF302821FF302821
310
FF302821FF302821FF302821FF302821FF302821FF302821FF302821FF302821FF302821FF302821FF302821FF302821FF302821FF302821FF302821FFFFFFFFFFFFFFFFFFFFFFFFFFFFFFFFFFFFFFFFFFFFFFFFFFFFFFFFFFFFFFFFFFFFFFFFFFFFFFFFFFFFFFFFFFFFFFFFFFFFFFFFFFFFFFFFFFFFFFFFFFFFFFFFFFFFFF
310
FFFFFFFFFFFFFFFFFFFFFFFFFFFFFFFFFFFFFFFFFFFFFFFFFFFFFFFFFFFFFFFFFFFFFFFFFFFFFFFFFFFFFFFFFFFF302821FF302821FF302821FF302821FFFFFFFFFFFFFFFFFFFFFFFFFFFFFFFFFFFFFFFFFFFFFFFFFFFFFFFFFFFFFFFFFFFFFFFFFFFFFFFFFFFFFFFFFFFFFFFFFFFFFFFFFFFFFFFFFFFFFFFFFFFFFFFFFFFF
310
FFFFFFFFFFFFFFFFFFFFFFFFFFFFFFFFFFFFFFFFFFFFFFFFFFFFFFFFFFFFFFFFFFFFFFFFFFFFFFFFFFFFFFFFFFFFFF302821FF302821FF302821FF302821FFFFFFFFFFFFFFFFFFFFFFFFFF302821FF302821FF302821FF302821FF302821FF302821FF302821FF302821FF302821FF302821FF302821FF302821FF302821FF
310
302821FF302821FF302821FF302821FF302821FF302821FF302821FF302821FF302821FF302821FFFFFFFFFFFFFFFFFF302821FF302821FF302821FF302821FFFFFFFFFFFFFFFFFFFFFFFFFF302821FF302821FF302821FF302821FF302821FF302821FF302821FF302821FF302821FF302821FF302821FF302821FF302821
310
FF302821FF302821FF302821FF302821FF302821FF302821FF302821FF302821FF302821FFFFFFFFFFFFFFFFFFFFFFFFFF302821FF302821FF302821FF302821FFFFFFFFFFFFFFFFFFFFFFFFFF302821FF302821FF302821FF302821FF302821FF302821FF302821FF302821FF302821FF302821FF302821FF302821FF3028
310
21FF302821FF302821FF302821FF302821FF302821FF302821FF302821FF302821FF302821FFFFFFFFFFFFFFFFFFFFFFFFFF302821FF302821FF302821FFFFFFFFFFFFFFFFFFFFFFFFFFFFFFFFFF302821FF302821FF302821FF302821FF302821FF302821FF302821FF302821FF302821FF302821FF302821FF302821FF30
310
2821FF302821FF302821FF302821FF302821FF302821FF302821FF302821FF302821FF302821FFFFFFFFFFFFFFFFFFFFFFFFFFFFFFFFFF302821FF302821FF302821FF302821FF302821FF302821FF302821FF302821FF302821FF302821FF302821FF302821FF302821FF302821FF302821FF302821FF302821FF302821FF
310
302821FF302821FF302821FF302821FF302821FF302821FF302821FF302821FF302821FF302821FF302821FF302821FF302821FF302821FF302821FF302821FF302821FF302821FF302821FF302821FF302821FF302821FF302821FF302821FF302821FF302821FF302821FF302821FF302821FF302821FF302821FF302821
310
FF302821FF302821FF302821FF302821FF302821FF302821FF302821FF302821FF302821FF302821FF302821FF302821FF302821FF302821FF302821FF302821FF302821FF302821FF302821FF302821FF302821FF302821FF302821FF302821FF302821FF302821FF302821FF302821FF302821FF302821FF302821FF3028
310
21FF302821FF302821FF302821FF302821FF302821FF302821FF302821FF302821FF302821FF302821FF302821FF302821FF302821FF302821FF302821FF302821FF302821FF302821FF302821FF302821FF302821FF302821FF302821FF302821FF302821FF302821FF302821FF302821FF302821FF302821FF302821FF30
310
2821FF302821FF302821FF302821FF302821FF302821FF302821FF302821FF302821FF302821FF302821FF302821FF302821FF302821FF302821FF302821FF302821FF302821FF302821FF302821FF302821FF302821FF302821FF302821FF302821FF302821FF302821FF302821FF302821FF302821FF302821FF302821FF
310
302821FF302821FF302821FF302821FF302821FF302821FF302821FF302821FF302821FF302821FF302821FF302821FF302821FF302821FF302821FF302821FF302821FF302821FF302821FF302821FF302821FF302821FF302821FF302821FF302821FF302821FF302821FF302821FF302821FF302821FF302821FF302821
310
FF302821FF302821FF302821FF302821FF302821FF302821FF302821FF302821FF302821FF302821FF302821FF302821FF302821FF302821FF302821FF302821FF302821FF302821FF302821FF302821FF302821FF302821FF302821FF302821FF302821FF302821FF302821FF302821FF302821FF302821FF302821FF3028
310
21FF302821FF302821FF302821FF302821FF302821FF302821FF302821FF302821FF302821FF302821FF302821FF302821FF302821FF302821FF302821FF302821FF302821FF302821FF302821FF302821FF302821FF302821FF302821FF302821FF302821FF302821FF302821FF302821FF302821FF302821FF302821FF30
310
2821FF302821FF302821FF302821FF302821FF302821FF302821FF302821FF302821FF302821FF302821FF302821FF302821FF302821FF302821FF302821FF302821FF302821FF302821FF302821FF302821FF302821FF302821FF302821FF302821FF302821FF302821FF302821FF302821FF302821FF302821FF302821FF
310
302821FF302821FF302821FF302821FF302821FF302821FF302821FF302821FF302821FF302821FF302821FF302821FF302821FF302821FF302821FF302821FF302821FF302821FF302821FF302821FF302821FF302821FF302821FF302821FF302821FF302821FF302821FF302821FF302821FF302821FF302821FF302821
310
FF302821FF302821FF302821FF302821FF302821FF302821FF302821FF302821FF302821FF302821FF302821FF302821FF302821FF302821FF302821FF302821FF302821FF302821FF302821FF302821FF302821FF302821FF302821FF302821FF302821FF302821FF302821FF302821FF302821FF302821FF302821FF3028
310
21FF302821FF302821FF302821FF302821FF302821FF302821FF302821FF302821FF302821FF302821FF302821FF302821FF302821FF302821FF302821FF302821FF302821FF302821FF302821FF302821FF302821FF302821FF302821FF302821FF302821FF302821FF302821FF302821FF302821FF302821FF302821FF30
310
2821FF302821FF302821FF302821FF302821FF302821FF302821FF302821FF302821FF302821FF302821FF302821FF302821FF302821FF302821FF302821FF302821FF302821FF302821FF302821FF302821FF302821FF302821FF302821FF302821FF302821FF302821FF302821FF302821FF302821FF302821FF302821FF
310
302821FF302821FF302821FF302821FF302821FF302821FF302821FF302821FF302821FF302821FF302821FF302821FF302821FF302821FF302821FF302821FF302821FF302821FF
102
{BLKREFS
331
800
102
}
 70
     1
280
     1
281
     1
  0
BLOCK_RECORD
  5
801
330
1
100
AcDbSymbolTableRecord
100
AcDbBlockTableRecord
  2
D35160180 Front View
340
0
310
28000000200000002000000001002000000000000010000001000000010000000000000000000000302821FF302821FF302821FF302821FF302821FF302821FF302821FF302821FF302821FF302821FF302821FF302821FF302821FF302821FF302821FF302821FF302821FF302821FF302821FF302821FF302821FF302821
310
FF302821FF302821FF302821FF302821FF302821FF302821FF302821FF302821FF302821FF302821FF302821FF302821FF302821FF302821FF302821FF302821FF302821FF302821FF302821FF302821FF302821FF302821FF302821FF302821FF302821FF302821FF302821FF302821FF302821FF302821FF302821FF3028
310
21FF302821FF302821FF302821FF302821FF302821FF302821FF302821FF302821FF302821FF302821FF302821FF302821FF302821FF302821FF302821FF302821FF302821FF302821FF302821FF302821FF302821FF302821FF302821FF302821FF302821FF302821FF302821FF302821FF302821FF302821FF302821FF30
310
2821FF302821FF302821FF302821FF302821FF302821FF302821FF302821FF302821FF302821FF302821FF302821FF302821FF302821FF302821FF302821FF302821FF302821FF302821FF302821FF302821FF302821FF302821FF302821FF302821FF302821FF302821FF302821FF302821FF302821FF302821FF302821FF
310
302821FF302821FF302821FF302821FF302821FF302821FF302821FF302821FF302821FF302821FF302821FF302821FF302821FF302821FF302821FF302821FF302821FF302821FF302821FF302821FF302821FF302821FF302821FF302821FF302821FF302821FF302821FF302821FF302821FF302821FF302821FF302821
310
FF302821FF302821FF302821FF302821FF302821FF302821FF302821FF302821FF302821FF302821FF302821FF302821FF302821FF302821FF302821FF302821FF302821FF302821FF302821FF302821FF302821FF302821FF302821FF302821FF302821FF302821FF302821FF302821FF302821FF302821FF302821FF3028
310
21FF302821FF302821FF302821FF302821FF302821FF302821FF302821FF302821FF302821FF302821FF302821FF302821FF302821FF302821FF302821FF302821FF302821FF302821FF302821FF302821FF302821FF302821FF302821FF302821FF302821FF302821FF302821FF302821FF302821FF302821FF302821FF30
310
2821FF302821FF302821FF302821FF302821FF302821FF302821FF302821FF302821FF302821FF302821FF302821FF302821FF302821FF302821FF302821FF302821FF302821FF302821FF302821FF302821FF302821FF302821FF302821FF302821FF302821FF302821FF302821FF302821FF302821FF302821FF302821FF
310
302821FF302821FF302821FF302821FF302821FF302821FF302821FF302821FF302821FF302821FF302821FF302821FF302821FF302821FF302821FF302821FF302821FF302821FF302821FF302821FF302821FF302821FF302821FF302821FF302821FF302821FF302821FF302821FF302821FF302821FF302821FF302821
310
FF302821FF302821FF302821FF302821FF302821FF302821FF302821FF302821FF302821FF302821FF302821FF302821FF302821FF302821FF302821FF302821FF302821FF302821FF302821FF302821FF302821FF302821FF302821FF302821FF302821FF302821FF302821FF302821FF302821FF302821FF302821FF3028
310
21FF302821FF302821FF302821FF302821FF302821FF302821FF302821FF302821FF302821FF302821FF302821FF302821FF302821FF302821FF302821FF302821FF302821FF302821FF302821FF302821FF302821FF302821FF302821FF302821FF302821FF302821FF302821FF302821FF302821FF302821FF302821FF30
310
2821FF302821FF302821FF302821FF302821FF302821FF302821FF302821FF302821FF302821FF302821FF302821FF302821FF302821FF302821FF302821FF302821FF302821FF302821FF302821FF302821FF302821FF302821FF302821FF302821FF302821FF302821FF302821FF302821FF302821FF302821FF302821FF
310
302821FF302821FF302821FF302821FF302821FF302821FF302821FF302821FF302821FF302821FF302821FF302821FF302821FF302821FF302821FF302821FF302821FF302821FF302821FF302821FF302821FF302821FF302821FF302821FF302821FF302821FF302821FF302821FF302821FF302821FF302821FF302821
310
FF302821FF302821FF302821FF302821FF302821FF302821FF302821FF302821FF302821FF302821FF302821FF302821FF302821FF302821FF302821FF302821FF302821FF302821FF302821FF302821FF302821FF302821FF302821FF302821FF302821FF302821FF302821FF302821FF302821FF302821FF302821FF3028
310
21FF302821FF302821FF302821FF302821FF302821FF302821FF302821FF302821FF302821FF302821FF302821FF302821FF302821FF302821FF302821FFFFFFFFFFFFFFFFFFFFFFFFFF302821FF302821FF302821FF302821FF302821FF302821FF302821FF302821FF302821FF302821FF302821FF302821FF302821FF30
310
2821FF302821FF302821FF302821FF302821FF302821FF302821FF302821FF302821FFFFFFFFFFFFFFFFFFFFFFFFFF302821FF302821FF302821FFFFFFFFFFFFFFFFFFFFFFFFFFFFFFFFFFFFFFFFFFFFFFFFFFFFFFFFFFFFFFFFFFFFFFFFFFFFFFFFFFFFFFFFFFFFFFFFFFFFFFFFFFFFFFFFFFFFFFFFFFFFFFFFFFFFFFFFFF
310
FFFFFFFFFFFFFFFFFFFFFFFFFFFFFFFFFFFFFFFFFFFFFFFFFFFFFFFFFFFFFFFFFFFFFFFFFFFFFFFFFFFFFFFFFFFFFFFFFFFFFFFF302821FF302821FFFFFFFFFFFFFFFFFFFFFFFFFFFFFFFFFFFFFFFFFFFFFFFFFFFFFFFFFFFFFFFFFFFFFFFFFFFFFFFFFFFFFFFFFFFFFFFFFFFFFFFFFFFFFFFFFFFFFFFFFFFFFFFFFFFFFFFF
310
FFFFFFFFFFFFFFFFFFFFFFFFFFFFFFFFFFFFFFFFFFFFFFFFFFFFFFFFFFFFFFFFFFFFFFFFFFFFFFFFFFFFFFFFFFFFFFFFFFFFFFFFFF302821FF302821FF302821FFFFFFFFFFFFFFFFFFFFFFFFFF302821FF302821FF302821FF302821FF302821FF302821FF302821FF302821FF302821FF302821FF302821FF302821FF3028
310
21FF302821FF302821FF302821FF302821FF302821FF302821FF302821FF302821FF302821FFFFFFFFFFFFFFFFFFFFFFFFFF302821FF302821FF302821FF302821FF302821FF302821FF302821FF302821FF302821FF302821FF302821FF302821FF302821FF302821FF302821FF302821FF302821FF302821FF302821FF30
310
2821FF302821FF302821FF302821FF302821FF302821FF302821FF302821FF302821FF302821FF302821FF302821FF302821FF302821FF302821FF302821FF302821FF302821FF302821FF302821FF302821FF302821FF302821FF302821FF302821FF302821FF302821FF302821FF302821FF302821FF302821FF302821FF
310
302821FF302821FF302821FF302821FF302821FF302821FF302821FF302821FF302821FF302821FF302821FF302821FF302821FF302821FF302821FF302821FF302821FF302821FF302821FF302821FF302821FF302821FF302821FF302821FF302821FF302821FF302821FF302821FF302821FF302821FF302821FF302821
310
FF302821FF302821FF302821FF302821FF302821FF302821FF302821FF302821FF302821FF302821FF302821FF302821FF302821FF302821FF302821FF302821FF302821FF302821FF302821FF302821FF302821FF302821FF302821FF302821FF302821FF302821FF302821FF302821FF302821FF302821FF302821FF3028
310
21FF302821FF302821FF302821FF302821FF302821FF302821FF302821FF302821FF302821FF302821FF302821FF302821FF302821FF302821FF302821FF302821FF302821FF302821FF302821FF302821FF302821FF302821FF302821FF302821FF302821FF302821FF302821FF302821FF302821FF302821FF302821FF30
310
2821FF302821FF302821FF302821FF302821FF302821FF302821FF302821FF302821FF302821FF302821FF302821FF302821FF302821FF302821FF302821FF302821FF302821FF302821FF302821FF302821FF302821FF302821FF302821FF302821FF302821FF302821FF302821FF302821FF302821FF302821FF302821FF
310
302821FF302821FF302821FF302821FF302821FF302821FF302821FF302821FF302821FF302821FF302821FF302821FF302821FF302821FF302821FF302821FF302821FF302821FF302821FF302821FF302821FF302821FF302821FF302821FF302821FF302821FF302821FF302821FF302821FF302821FF302821FF302821
310
FF302821FF302821FF302821FF302821FF302821FF302821FF302821FF302821FF302821FF302821FF302821FF302821FF302821FF302821FF302821FF302821FF302821FF302821FF302821FF302821FF302821FF302821FF302821FF302821FF302821FF302821FF302821FF302821FF302821FF302821FF302821FF3028
310
21FF302821FF302821FF302821FF302821FF302821FF302821FF302821FF302821FF302821FF302821FF302821FF302821FF302821FF302821FF302821FF302821FF302821FF302821FF302821FF302821FF302821FF302821FF302821FF302821FF302821FF302821FF302821FF302821FF302821FF302821FF302821FF30
310
2821FF302821FF302821FF302821FF302821FF302821FF302821FF302821FF302821FF302821FF302821FF302821FF302821FF302821FF302821FF302821FF302821FF302821FF302821FF302821FF302821FF302821FF302821FF302821FF302821FF302821FF302821FF302821FF302821FF302821FF302821FF302821FF
310
302821FF302821FF302821FF302821FF302821FF302821FF302821FF302821FF302821FF302821FF302821FF302821FF302821FF302821FF302821FF302821FF302821FF302821FF302821FF302821FF302821FF302821FF302821FF302821FF302821FF302821FF302821FF302821FF302821FF302821FF302821FF302821
310
FF302821FF302821FF302821FF302821FF302821FF302821FF302821FF302821FF302821FF302821FF302821FF302821FF302821FF302821FF302821FF302821FF302821FF302821FF302821FF302821FF302821FF302821FF302821FF302821FF302821FF302821FF302821FF302821FF302821FF302821FF302821FF3028
310
21FF302821FF302821FF302821FF302821FF302821FF302821FF302821FF302821FF302821FF302821FF302821FF302821FF302821FF302821FF302821FF302821FF302821FF302821FF302821FF302821FF302821FF302821FF302821FF302821FF302821FF302821FF302821FF302821FF302821FF302821FF302821FF30
310
2821FF302821FF302821FF302821FF302821FF302821FF302821FF302821FF302821FF302821FF302821FF302821FF302821FF302821FF302821FF302821FF302821FF302821FF302821FF302821FF302821FF302821FF302821FF302821FF302821FF302821FF302821FF302821FF302821FF302821FF302821FF302821FF
310
302821FF302821FF302821FF302821FF302821FF302821FF302821FF302821FF302821FF302821FF302821FF302821FF302821FF302821FF302821FF302821FF302821FF302821FF
102
{BLKREFS
331
8E1
102
}
 70
     1
280
     1
281
     1
  0
BLOCK_RECORD
  5
8E2
330
1
100
AcDbSymbolTableRecord
100
AcDbBlockTableRecord
  2
D35160180 Side View
340
0
310
28000000200000002000000001002000000000000010000001000000010000000000000000000000302821FF302821FF302821FF302821FF302821FF302821FF302821FF302821FF302821FF302821FF302821FF302821FF302821FF302821FF302821FF302821FF302821FF302821FF302821FF302821FF302821FF302821
310
FF302821FF302821FF302821FF302821FF302821FF302821FF302821FF302821FF302821FF302821FF302821FF302821FF302821FF302821FF302821FF302821FF302821FF302821FF302821FF302821FF302821FF302821FF302821FF302821FF302821FF302821FF302821FF302821FF302821FF302821FF302821FF3028
310
21FF302821FF302821FF302821FF302821FF302821FF302821FF302821FF302821FF302821FF302821FF302821FF302821FF302821FF302821FF302821FF302821FF302821FF302821FF302821FF302821FF302821FF302821FF302821FF302821FF302821FF302821FF302821FF302821FF302821FF302821FF302821FF30
310
2821FF302821FF302821FF302821FF302821FF302821FF302821FF302821FF302821FF302821FF302821FF302821FF302821FF302821FF302821FF302821FF302821FF302821FF302821FF302821FF302821FF302821FF302821FF302821FF302821FF302821FF302821FF302821FF302821FF302821FF302821FF302821FF
310
302821FF302821FF302821FF302821FF302821FF302821FF302821FF302821FF302821FF302821FF302821FF302821FF302821FF302821FF302821FF302821FF302821FF302821FF302821FF302821FF302821FF302821FF302821FF302821FF302821FF302821FF302821FF302821FF302821FF302821FF302821FF302821
310
FF302821FF302821FF302821FF302821FF302821FF302821FF302821FF302821FF302821FF302821FF302821FF302821FF302821FF302821FF302821FF302821FF302821FF302821FF302821FF302821FF302821FF302821FF302821FF302821FF302821FF302821FF302821FF302821FF302821FF302821FF302821FF3028
310
21FF302821FF302821FF302821FF302821FF302821FF302821FF302821FF302821FF302821FF302821FF302821FF302821FF302821FF302821FF302821FF302821FF302821FF302821FF302821FF302821FF302821FF302821FF302821FF302821FF302821FF302821FF302821FF302821FF302821FF302821FF302821FF30
310
2821FF302821FF302821FF302821FF302821FF302821FF302821FF302821FF302821FF302821FF302821FF302821FF302821FF302821FF302821FF302821FF302821FF302821FF302821FF302821FF302821FF302821FF302821FF302821FF302821FF302821FF302821FF302821FF302821FF302821FF302821FF302821FF
310
302821FF302821FF302821FF302821FF302821FF302821FF302821FF302821FF302821FF302821FF302821FF302821FF302821FFFFFFFFFFFFFFFFFF302821FF302821FF302821FF302821FF302821FF302821FF302821FF302821FF302821FF302821FF302821FF302821FF302821FF302821FF302821FF302821FF302821
310
FF302821FF302821FF302821FF302821FF302821FF302821FF302821FF302821FF302821FF302821FF302821FF302821FF302821FFFFFFFFFF302821FFFFFFFFFFFFFFFFFF302821FF302821FF302821FF302821FF302821FF302821FF302821FF302821FF302821FF302821FF302821FF302821FF302821FF302821FF3028
310
21FF302821FF302821FF302821FF302821FF302821FF302821FF302821FF302821FF302821FF302821FF302821FF302821FF302821FFFFFFFFFF302821FF302821FFFFFFFFFFFFFFFFFF302821FF302821FF302821FF302821FF302821FF302821FF302821FF302821FF302821FF302821FF302821FF302821FF302821FF30
310
2821FF302821FF302821FF302821FF302821FF302821FF302821FF302821FF302821FF302821FF302821FF302821FF302821FF302821FFFFFFFFFF302821FF302821FFFFFFFFFF302821FFFFFFFFFFFFFFFFFFFFFFFFFFFFFFFFFFFFFFFFFF302821FF302821FF302821FF302821FF302821FF302821FF302821FF302821FF
310
302821FF302821FF302821FF302821FF302821FF302821FF302821FF302821FF302821FF302821FF302821FF302821FF302821FF302821FFFFFFFFFF302821FF302821FFFFFFFFFF302821FF302821FF302821FFFFFFFFFFFFFFFFFFFFFFFFFFFFFFFFFFFFFFFFFFFFFFFFFFFFFFFFFFFFFFFFFF302821FF302821FF302821
310
FF302821FF302821FF302821FF302821FF302821FF302821FF302821FF302821FF302821FF302821FF302821FF302821FF302821FF302821FFFFFFFFFF302821FF302821FFFFFFFFFF302821FF302821FF302821FF302821FF302821FF302821FF302821FFFFFFFFFFFFFFFFFFFFFFFFFFFFFFFFFFFFFFFFFFFFFFFFFFFFFF
310
FFFFFFFFFFFFFFFFFFFFFFFFFFFFFFFFFFFFFFFFFFFFFFFFFFFFFFFFFFFFFFFFFFFFFFFFFFFFFFFFFFFFFFFFFFFF302821FF302821FF302821FFFFFFFFFF302821FF302821FFFFFFFFFF302821FF302821FF302821FF302821FF302821FF302821FF302821FF302821FF302821FF302821FF302821FF302821FF302821FF30
310
2821FF302821FF302821FF302821FF302821FF302821FFFFFFFFFFFFFFFFFF302821FF302821FF302821FFFFFFFFFF302821FF302821FF302821FFFFFFFFFF302821FF302821FFFFFFFFFFFFFFFFFFFFFFFFFF302821FF302821FF302821FF302821FF302821FFFFFFFFFFFFFFFFFFFFFFFFFFFFFFFFFFFFFFFFFFFFFFFFFF
310
FFFFFFFFFFFFFFFFFFFFFFFFFFFFFFFFFFFFFFFFFFFFFFFFFFFFFFFF302821FF302821FF302821FF302821FFFFFFFFFFFFFFFFFF302821FF302821FFFFFFFFFF302821FF302821FFFFFFFFFF302821FF302821FFFFFFFFFFFFFFFFFFFFFFFFFFFFFFFFFFFFFFFFFF302821FF302821FF302821FF302821FF302821FF302821
310
FF302821FF302821FF302821FF302821FF302821FF302821FFFFFFFFFF302821FF302821FF302821FF302821FFFFFFFFFFFFFFFFFF302821FF302821FFFFFFFFFF302821FF302821FFFFFFFFFF302821FF302821FF302821FF302821FF302821FF302821FF302821FF302821FF302821FF302821FF302821FF302821FF3028
310
21FF302821FF302821FF302821FF302821FF302821FF302821FFFFFFFFFFFFFFFFFF302821FF302821FF302821FFFFFFFFFF302821FF302821FF302821FFFFFFFFFF302821FF302821FFFFFFFFFF302821FF302821FF302821FF302821FF302821FF302821FF302821FFFFFFFFFFFFFFFFFFFFFFFFFFFFFFFFFFFFFFFFFFFF
310
FFFFFFFFFFFFFFFFFFFFFFFFFFFFFFFFFFFFFFFFFFFFFFFFFFFFFFFFFFFFFFFFFFFFFFFFFFFFFFFFFFFFFFFFFFFFFFFFFFFFFF302821FF302821FF302821FFFFFFFFFF302821FF302821FFFFFFFFFF302821FF302821FF302821FFFFFFFFFFFFFFFFFFFFFFFFFFFFFFFFFFFFFFFFFFFFFFFFFFFFFFFFFF302821FF302821FF
310
302821FF302821FF302821FF302821FF302821FF302821FF302821FF302821FF302821FF302821FF302821FF302821FF302821FF302821FF302821FF302821FFFFFFFFFF302821FF302821FFFFFFFFFFFFFFFFFFFFFFFFFFFFFFFFFFFFFFFFFFFFFFFFFF302821FF302821FF302821FF302821FF302821FF302821FF302821
310
FF302821FF302821FF302821FF302821FF302821FF302821FF302821FF302821FF302821FF302821FF302821FF302821FF302821FF302821FF302821FF302821FFFFFFFFFF302821FF302821FFFFFFFFFFFFFFFFFF302821FF302821FF302821FF302821FF302821FF302821FF302821FF302821FF302821FF302821FF3028
310
21FF302821FF302821FF302821FF302821FF302821FF302821FF302821FF302821FF302821FF302821FF302821FF302821FF302821FF302821FF302821FF302821FFFFFFFFFFFFFFFFFFFFFFFFFFFFFFFFFF302821FF302821FF302821FF302821FF302821FF302821FF302821FF302821FF302821FF302821FF302821FF30
310
2821FF302821FF302821FF302821FF302821FF302821FF302821FF302821FF302821FF302821FF302821FF302821FF302821FF302821FF302821FF302821FF302821FFFFFFFFFF302821FF302821FF302821FF302821FF302821FF302821FF302821FF302821FF302821FF302821FF302821FF302821FF302821FF302821FF
310
302821FF302821FF302821FF302821FF302821FF302821FF302821FF302821FF302821FF302821FF302821FF302821FF302821FF302821FF302821FF302821FF302821FF302821FF302821FF302821FF302821FF302821FF302821FF302821FF302821FF302821FF302821FF302821FF302821FF302821FF302821FF302821
310
FF302821FF302821FF302821FF302821FF302821FF302821FF302821FF302821FF302821FF302821FF302821FF302821FF302821FF302821FF302821FF302821FF302821FF302821FF302821FF302821FF302821FF302821FF302821FF302821FF302821FF302821FF302821FF302821FF302821FF302821FF302821FF3028
310
21FF302821FF302821FF302821FF302821FF302821FF302821FF302821FF302821FF302821FF302821FF302821FF302821FF302821FF302821FF302821FF302821FF302821FF302821FF302821FF302821FF302821FF302821FF302821FF302821FF302821FF302821FF302821FF302821FF302821FF302821FF302821FF30
310
2821FF302821FF302821FF302821FF302821FF302821FF302821FF302821FF302821FF302821FF302821FF302821FF302821FF302821FF302821FF302821FF302821FF302821FF302821FF302821FF302821FF302821FF302821FF302821FF302821FF302821FF302821FF302821FF302821FF302821FF302821FF302821FF
310
302821FF302821FF302821FF302821FF302821FF302821FF302821FF302821FF302821FF302821FF302821FF302821FF302821FF302821FF302821FF302821FF302821FF302821FF302821FF302821FF302821FF302821FF302821FF302821FF302821FF302821FF302821FF302821FF302821FF302821FF302821FF302821
310
FF302821FF302821FF302821FF302821FF302821FF302821FF302821FF302821FF302821FF302821FF302821FF302821FF302821FF302821FF302821FF302821FF302821FF302821FF302821FF302821FF302821FF302821FF302821FF302821FF302821FF302821FF302821FF302821FF302821FF302821FF302821FF3028
310
21FF302821FF302821FF302821FF302821FF302821FF302821FF302821FF302821FF302821FF302821FF302821FF302821FF302821FF302821FF302821FF302821FF302821FF302821FF302821FF302821FF302821FF302821FF302821FF302821FF302821FF302821FF302821FF302821FF302821FF302821FF302821FF30
310
2821FF302821FF302821FF302821FF302821FF302821FF302821FF302821FF302821FF302821FF302821FF302821FF302821FF302821FF302821FF302821FF302821FF302821FF302821FF302821FF302821FF302821FF302821FF302821FF302821FF302821FF302821FF302821FF302821FF302821FF302821FF302821FF
310
302821FF302821FF302821FF302821FF302821FF302821FF302821FF302821FF302821FF302821FF302821FF302821FF302821FF302821FF302821FF302821FF302821FF302821FF
102
{BLKREFS
331
A07
102
}
 70
     1
280
     1
281
     1
  0
ENDTAB
  0
ENDSEC
  0
SECTION
  2
BLOCKS
  0
BLOCK
  5
71
330
70
100
AcDbEntity
  8
0
100
AcDbBlockBegin
  2
*Model_Space
 70
     0
 10
0.0
 20
0.0
 30
0.0
  3
*Model_Space
  1

  0
ENDBLK
  5
72
330
70
100
AcDbEntity
  8
0
100
AcDbBlockEnd
  0
BLOCK
  5
6D
330
6C
100
AcDbEntity
 67
     1
  8
0
100
AcDbBlockBegin
  2
*Paper_Space
 70
     0
 10
0.0
 20
0.0
 30
0.0
  3
*Paper_Space
  1

  0
ENDBLK
  5
6E
330
6C
100
AcDbEntity
 67
     1
  8
0
100
AcDbBlockEnd
  0
BLOCK
  5
75
330
74
100
AcDbEntity
 67
     1
  8
0
100
AcDbBlockBegin
  2
*Paper_Space0
 70
     0
 10
0.0
 20
0.0
 30
0.0
  3
*Paper_Space0
  1

  0
ENDBLK
  5
76
330
74
100
AcDbEntity
 67
     1
  8
0
100
AcDbBlockEnd
  0
BLOCK
  5
734
330
733
100
AcDbEntity
  8
0
100
AcDbBlockBegin
  2
D35160180 Top View
 70
     0
 10
0.0
 20
0.0
 30
0.0
  3
D35160180 Top View
  1

  0
LINE
  5
736
330
733
100
AcDbEntity
  8
D35160180
100
AcDbLine
 10
-9.540673819717579
 20
-3.626630821503393
 30
0.0
 11
-9.540673819717579
 21
-3.626562368661716
 31
0.0
  0
LINE
  5
737
330
733
100
AcDbEntity
  8
D35160180
100
AcDbLine
 10
-9.540673819717579
 20
-3.627340757569246
 30
0.0
 11
-9.540014011431161
 21
-3.660326773050947
 31
0.0
  0
LINE
  5
738
330
733
100
AcDbEntity
  8
D35160180
100
AcDbLine
 10
-9.540014011431161
 20
-3.660326773050947
 30
0.0
 11
-9.538035642124411
 21
-3.693260017944524
 31
0.0
  0
LINE
  5
739
330
733
100
AcDbEntity
  8
D35160180
100
AcDbLine
 10
-9.538035642124411
 20
-3.693260017944524
 30
0.0
 11
-9.534741876766192
 21
-3.726087806083523
 31
0.0
  0
LINE
  5
73A
330
733
100
AcDbEntity
  8
D35160180
100
AcDbLine
 10
-9.534741876766192
 20
-3.726087806083523
 30
0.0
 11
-9.530137984678454
 21
-3.758757620009809
 31
0.0
  0
LINE
  5
73B
330
733
100
AcDbEntity
  8
D35160180
100
AcDbLine
 10
-9.530137984678454
 20
-3.758757620009809
 30
0.0
 11
-9.524231331106399
 21
-3.791217194990299
 31
0.0
  0
LINE
  5
73C
330
733
100
AcDbEntity
  8
D35160180
100
AcDbLine
 10
-9.524231331106399
 20
-3.791217194990299
 30
0.0
 11
-9.517031365435755
 21
-3.823414602629352
 31
0.0
  0
LINE
  5
73D
330
733
100
AcDbEntity
  8
D35160180
100
AcDbLine
 10
-9.517031365435755
 20
-3.823414602629352
 30
0.0
 11
-9.508549606075671
 21
-3.855298333943167
 31
0.0
  0
LINE
  5
73E
330
733
100
AcDbEntity
  8
D35160180
100
AcDbLine
 10
-9.508549606075671
 20
-3.855298333943167
 30
0.0
 11
-9.498799622031773
 21
-3.88681738176314
 31
0.0
  0
LINE
  5
73F
330
733
100
AcDbEntity
  8
D35160180
100
AcDbLine
 10
-9.498799622031773
 20
-3.88681738176314
 30
0.0
 11
-9.487797011198658
 21
-3.917921322336464
 31
0.0
  0
LINE
  5
740
330
733
100
AcDbEntity
  8
D35160180
100
AcDbLine
 10
-9.487797011198658
 20
-3.917921322336464
 30
0.0
 11
-9.475559375406543
 21
-3.948560395993375
 31
0.0
  0
LINE
  5
741
330
733
100
AcDbEntity
  8
D35160180
100
AcDbLine
 10
-9.475559375406543
 20
-3.948560395993375
 30
0.0
 11
-9.475294869771671
 21
-3.949185293913195
 31
0.0
  0
LINE
  5
742
330
733
100
AcDbEntity
  8
D35160180
100
AcDbLine
 10
-9.475294869771671
 20
-3.300814706086409
 30
0.0
 11
-9.487557706391823
 21
-3.331443702190775
 31
0.0
  0
LINE
  5
743
330
733
100
AcDbEntity
  8
D35160180
100
AcDbLine
 10
-9.487557706391823
 20
-3.331443702190775
 30
0.0
 11
-9.498585900889635
 21
-3.362538581036854
 31
0.0
  0
LINE
  5
744
330
733
100
AcDbEntity
  8
D35160180
100
AcDbLine
 10
-9.498585900889635
 20
-3.362538581036854
 30
0.0
 11
-9.508361810506453
 21
-3.394049597451719
 31
0.0
  0
LINE
  5
745
330
733
100
AcDbEntity
  8
D35160180
100
AcDbLine
 10
-9.508361810506453
 20
-3.394049597451719
 30
0.0
 11
-9.51686979587231
 21
-3.425926340531091
 31
0.0
  0
LINE
  5
746
330
733
100
AcDbEntity
  8
D35160180
100
AcDbLine
 10
-9.51686979587231
 20
-3.425926340531091
 30
0.0
 11
-9.524096246025566
 21
-3.458117814286055
 31
0.0
  0
LINE
  5
747
330
733
100
AcDbEntity
  8
D35160180
100
AcDbLine
 10
-9.524096246025566
 20
-3.458117814286055
 30
0.0
 11
-9.53002960018753
 21
-3.49057251922575
 31
0.0
  0
LINE
  5
748
330
733
100
AcDbEntity
  8
D35160180
100
AcDbLine
 10
-9.53002960018753
 20
-3.49057251922575
 30
0.0
 11
-9.534660366257252
 21
-3.523238534745576
 31
0.0
  0
LINE
  5
749
330
733
100
AcDbEntity
  8
D35160180
100
AcDbLine
 10
-9.534660366257252
 20
-3.523238534745576
 30
0.0
 11
-9.537981135996885
 21
-3.556063602189077
 31
0.0
  0
LINE
  5
74A
330
733
100
AcDbEntity
  8
D35160180
100
AcDbLine
 10
-9.537981135996885
 20
-3.556063602189077
 30
0.0
 11
-9.539986596883217
 21
-3.588995208450651
 31
0.0
  0
LINE
  5
74B
330
733
100
AcDbEntity
  8
D35160180
100
AcDbLine
 10
-9.539986596883217
 20
-3.588995208450651
 30
0.0
 11
-9.540673540606652
 21
-3.621980669985315
 31
0.0
  0
LINE
  5
74C
330
733
100
AcDbEntity
  8
D35160180
100
AcDbLine
 10
-9.475294869771676
 20
-3.949185293913203
 30
0.0
 11
-9.473897576084302
 21
-3.952307322049612
 31
0.0
  0
LINE
  5
74D
330
733
100
AcDbEntity
  8
D35160180
100
AcDbLine
 10
-9.473897576084302
 20
-3.952307322049612
 30
0.0
 11
-9.472376552256358
 21
-3.955370976052293
 31
0.0
  0
LINE
  5
74E
330
733
100
AcDbEntity
  8
D35160180
100
AcDbLine
 10
-9.472376552256358
 20
-3.955370976052293
 30
0.0
 11
-9.4707342316015
 21
-3.958371354728377
 31
0.0
  0
LINE
  5
74F
330
733
100
AcDbEntity
  8
D35160180
100
AcDbLine
 10
-9.4707342316015
 20
-3.958371354728377
 30
0.0
 11
-9.468973241482419
 21
-3.96130365811204
 31
0.0
  0
LINE
  5
750
330
733
100
AcDbEntity
  8
D35160180
100
AcDbLine
 10
-9.468973241482419
 20
-3.96130365811204
 30
0.0
 11
-9.467096399107662
 21
-3.964163195143385
 31
0.0
  0
LINE
  5
751
330
733
100
AcDbEntity
  8
D35160180
100
AcDbLine
 10
-9.467096399107662
 20
-3.964163195143385
 30
0.0
 11
-9.465106707024659
 21
-3.966945391173169
 31
0.0
  0
LINE
  5
752
330
733
100
AcDbEntity
  8
D35160180
100
AcDbLine
 10
-9.465106707024659
 20
-3.966945391173169
 30
0.0
 11
-9.463007348316281
 21
-3.969645795281241
 31
0.0
  0
LINE
  5
753
330
733
100
AcDbEntity
  8
D35160180
100
AcDbLine
 10
-9.463007348316281
 20
-3.969645795281241
 30
0.0
 11
-9.460801681508652
 21
-3.972260087397089
 31
0.0
  0
LINE
  5
754
330
733
100
AcDbEntity
  8
D35160180
100
AcDbLine
 10
-9.460801681508652
 20
-3.972260087397089
 30
0.0
 11
-9.458493235198114
 21
-3.974784085211013
 31
0.0
  0
LINE
  5
755
330
733
100
AcDbEntity
  8
D35160180
100
AcDbLine
 10
-9.458493235198114
 20
-3.974784085211013
 30
0.0
 11
-9.456085702406337
 21
-3.977213750864933
 31
0.0
  0
LINE
  5
756
330
733
100
AcDbEntity
  8
D35160180
100
AcDbLine
 10
-9.456085702406337
 20
-3.977213750864933
 30
0.0
 11
-9.453582934672212
 21
-3.979545197412104
 31
0.0
  0
LINE
  5
757
330
733
100
AcDbEntity
  8
D35160180
100
AcDbLine
 10
-9.453582934672212
 20
-3.979545197412104
 30
0.0
 11
-9.450988935890208
 21
-3.981774695035401
 31
0.0
  0
LINE
  5
758
330
733
100
AcDbEntity
  8
D35160180
100
AcDbLine
 10
-9.450988935890208
 20
-3.981774695035401
 30
0.0
 11
-9.448307855905028
 21
-3.983898677014227
 31
0.0
  0
LINE
  5
759
330
733
100
AcDbEntity
  8
D35160180
100
AcDbLine
 10
-9.448307855905028
 20
-3.983898677014227
 30
0.0
 11
-9.445543983872715
 21
-3.985913745430508
 31
0.0
  0
LINE
  5
75A
330
733
100
AcDbEntity
  8
D35160180
100
AcDbLine
 10
-9.445543983872715
 20
-3.985913745430508
 30
0.0
 11
-9.442701741398922
 21
-3.987816676604634
 31
0.0
  0
LINE
  5
75B
330
733
100
AcDbEntity
  8
D35160180
100
AcDbLine
 10
-9.442701741398922
 20
-3.987816676604634
 30
0.0
 11
-9.439785675465293
 21
-3.989604426252668
 31
0.0
  0
LINE
  5
75C
330
733
100
AcDbEntity
  8
D35160180
100
AcDbLine
 10
-9.439785675465293
 20
-3.989604426252668
 30
0.0
 11
-9.436800451155267
 21
-3.991274134356533
 31
0.0
  0
LINE
  5
75D
330
733
100
AcDbEntity
  8
D35160180
100
AcDbLine
 10
-9.436800451155267
 20
-3.991274134356533
 30
0.0
 11
-9.433750844190914
 21
-3.992823129739456
 31
0.0
  0
LINE
  5
75E
330
733
100
AcDbEntity
  8
D35160180
100
AcDbLine
 10
-9.433750844190914
 20
-3.992823129739456
 30
0.0
 11
-9.430641733292839
 21
-3.99424893433925
 31
0.0
  0
LINE
  5
75F
330
733
100
AcDbEntity
  8
D35160180
100
AcDbLine
 10
-9.430641733292839
 20
-3.99424893433925
 30
0.0
 11
-9.42747809237524
 21
-3.995549267172719
 31
0.0
  0
LINE
  5
760
330
733
100
AcDbEntity
  8
D35160180
100
AcDbLine
 10
-9.42747809237524
 20
-3.995549267172719
 30
0.0
 11
-9.424264982588709
 21
-3.996722047984714
 31
0.0
  0
LINE
  5
761
330
733
100
AcDbEntity
  8
D35160180
100
AcDbLine
 10
-9.424264982588709
 20
-3.996722047984714
 30
0.0
 11
-9.421007544223467
 21
-3.997765400576117
 31
0.0
  0
LINE
  5
762
330
733
100
AcDbEntity
  8
D35160180
100
AcDbLine
 10
-9.421007544223467
 20
-3.997765400576117
 30
0.0
 11
-9.417710988486025
 21
-3.998677655805355
 31
0.0
  0
LINE
  5
763
330
733
100
AcDbEntity
  8
D35160180
100
AcDbLine
 10
-9.417710988486025
 20
-3.998677655805355
 30
0.0
 11
-9.414380589162345
 21
-3.999457354258659
 31
0.0
  0
LINE
  5
764
330
733
100
AcDbEntity
  8
D35160180
100
AcDbLine
 10
-9.414380589162345
 20
-3.999457354258659
 30
0.0
 11
-9.411021674180872
 21
-4.000103248584835
 31
0.0
  0
LINE
  5
765
330
733
100
AcDbEntity
  8
D35160180
100
AcDbLine
 10
-9.411021674180872
 20
-4.000103248584835
 30
0.0
 11
-9.407639617089071
 21
-4.000614305490742
 31
0.0
  0
LINE
  5
766
330
733
100
AcDbEntity
  8
D35160180
100
AcDbLine
 10
-9.407639617089071
 20
-4.000614305490742
 30
0.0
 11
-9.404239828456804
 21
-4.000989707394353
 31
0.0
  0
LINE
  5
767
330
733
100
AcDbEntity
  8
D35160180
100
AcDbLine
 10
-9.444688964199183
 20
-3.263496395312383
 30
0.0
 11
-9.447477108234981
 21
-3.265477743885693
 31
0.0
  0
LINE
  5
768
330
733
100
AcDbEntity
  8
D35160180
100
AcDbLine
 10
-9.447477108234981
 20
-3.265477743885693
 30
0.0
 11
-9.450183789242695
 21
-3.267569003615083
 31
0.0
  0
LINE
  5
769
330
733
100
AcDbEntity
  8
D35160180
100
AcDbLine
 10
-9.450183789242695
 20
-3.267569003615083
 30
0.0
 11
-9.452804677110115
 21
-3.269766828931103
 31
0.0
  0
LINE
  5
76A
330
733
100
AcDbEntity
  8
D35160180
100
AcDbLine
 10
-9.452804677110115
 20
-3.269766828931103
 30
0.0
 11
-9.455335578975734
 21
-3.272067703782084
 31
0.0
  0
LINE
  5
76B
330
733
100
AcDbEntity
  8
D35160180
100
AcDbLine
 10
-9.455335578975734
 20
-3.272067703782084
 30
0.0
 11
-9.457772445936482
 21
-3.2744679472591
 31
0.0
  0
LINE
  5
76C
330
733
100
AcDbEntity
  8
D35160180
100
AcDbLine
 10
-9.457772445936482
 20
-3.2744679472591
 30
0.0
 11
-9.460111379525045
 21
-3.276963719484605
 31
0.0
  0
LINE
  5
76D
330
733
100
AcDbEntity
  8
D35160180
100
AcDbLine
 10
-9.460111379525045
 20
-3.276963719484605
 30
0.0
 11
-9.462348637946634
 21
-3.279551027755449
 31
0.0
  0
LINE
  5
76E
330
733
100
AcDbEntity
  8
D35160180
100
AcDbLine
 10
-9.462348637946634
 20
-3.279551027755449
 30
0.0
 11
-9.464480642065014
 21
-3.282225732930317
 31
0.0
  0
LINE
  5
76F
330
733
100
AcDbEntity
  8
D35160180
100
AcDbLine
 10
-9.464480642065014
 20
-3.282225732930317
 30
0.0
 11
-9.466503981128424
 21
-3.284983556051514
 31
0.0
  0
LINE
  5
770
330
733
100
AcDbEntity
  8
D35160180
100
AcDbLine
 10
-9.466503981128424
 20
-3.284983556051514
 30
0.0
 11
-9.468415418225964
 21
-3.287820085190347
 31
0.0
  0
LINE
  5
771
330
733
100
AcDbEntity
  8
D35160180
100
AcDbLine
 10
-9.468415418225964
 20
-3.287820085190347
 30
0.0
 11
-9.470211895466052
 21
-3.290730782505281
 31
0.0
  0
LINE
  5
772
330
733
100
AcDbEntity
  8
D35160180
100
AcDbLine
 10
-9.470211895466052
 20
-3.290730782505281
 30
0.0
 11
-9.471890538868311
 21
-3.293710991501537
 31
0.0
  0
LINE
  5
773
330
733
100
AcDbEntity
  8
D35160180
100
AcDbLine
 10
-9.471890538868311
 20
-3.293710991501537
 30
0.0
 11
-9.473448662961393
 21
-3.296755944480459
 31
0.0
  0
LINE
  5
774
330
733
100
AcDbEntity
  8
D35160180
100
AcDbLine
 10
-9.473448662961393
 20
-3.296755944480459
 30
0.0
 11
-9.474883775079144
 21
-3.299860770166841
 31
0.0
  0
LINE
  5
775
330
733
100
AcDbEntity
  8
D35160180
100
AcDbLine
 10
-9.474883775079144
 20
-3.299860770166841
 30
0.0
 11
-9.475294869771671
 21
-3.300814706086399
 31
0.0
  0
LINE
  5
776
330
733
100
AcDbEntity
  8
D35160180
100
AcDbLine
 10
9.403204736636235
 20
-4.001076756277399
 30
0.0
 11
9.40660883425844
 21
-4.000742677376692
 31
0.0
  0
LINE
  5
777
330
733
100
AcDbEntity
  8
D35160180
100
AcDbLine
 10
9.40660883425844
 20
-4.000742677376692
 30
0.0
 11
9.409996849372808
 21
-4.000272738106051
 31
0.0
  0
LINE
  5
778
330
733
100
AcDbEntity
  8
D35160180
100
AcDbLine
 10
9.409996849372808
 20
-4.000272738106051
 30
0.0
 11
9.413363361877914
 21
-3.999667690268065
 31
0.0
  0
LINE
  5
779
330
733
100
AcDbEntity
  8
D35160180
100
AcDbLine
 10
9.413363361877914
 20
-3.999667690268065
 30
0.0
 11
9.416702986071902
 21
-3.998928501810205
 31
0.0
  0
LINE
  5
77A
330
733
100
AcDbEntity
  8
D35160180
100
AcDbLine
 10
9.416702986071902
 20
-3.998928501810205
 30
0.0
 11
9.420010379268466
 21
-3.998056355276315
 31
0.0
  0
LINE
  5
77B
330
733
100
AcDbEntity
  8
D35160180
100
AcDbLine
 10
9.420010379268466
 20
-3.998056355276315
 30
0.0
 11
9.423280250344058
 21
-3.997052645914806
 31
0.0
  0
LINE
  5
77C
330
733
100
AcDbEntity
  8
D35160180
100
AcDbLine
 10
9.423280250344058
 20
-3.997052645914806
 30
0.0
 11
9.426507368202459
 21
-3.995918979446539
 31
0.0
  0
LINE
  5
77D
330
733
100
AcDbEntity
  8
D35160180
100
AcDbLine
 10
9.426507368202459
 20
-3.995918979446539
 30
0.0
 11
9.429686570143525
 21
-3.994657169496033
 31
0.0
  0
LINE
  5
77E
330
733
100
AcDbEntity
  8
D35160180
100
AcDbLine
 10
9.429686570143525
 20
-3.994657169496033
 30
0.0
 11
9.432812770122348
 21
-3.993269234690032
 31
0.0
  0
LINE
  5
77F
330
733
100
AcDbEntity
  8
D35160180
100
AcDbLine
 10
9.432812770122348
 20
-3.993269234690032
 30
0.0
 11
9.435880966885852
 21
-3.991757395428145
 31
0.0
  0
LINE
  5
780
330
733
100
AcDbEntity
  8
D35160180
100
AcDbLine
 10
9.435880966885852
 20
-3.991757395428145
 30
0.0
 11
9.438886251973721
 21
-3.990124070330693
 31
0.0
  0
LINE
  5
781
330
733
100
AcDbEntity
  8
D35160180
100
AcDbLine
 10
9.438886251973721
 20
-3.990124070330693
 30
0.0
 11
9.441823817570893
 21
-3.988371872369398
 31
0.0
  0
LINE
  5
782
330
733
100
AcDbEntity
  8
D35160180
100
AcDbLine
 10
9.441823817570893
 20
-3.988371872369398
 30
0.0
 11
9.444688964199089
 21
-3.986503604687225
 31
0.0
  0
LINE
  5
783
330
733
100
AcDbEntity
  8
D35160180
100
AcDbLine
 10
9.444688964199089
 20
-3.986503604687225
 30
0.0
 11
9.447477108234897
 21
-3.984522256113912
 31
0.0
  0
LINE
  5
784
330
733
100
AcDbEntity
  8
D35160180
100
AcDbLine
 10
9.447477108234897
 20
-3.984522256113912
 30
0.0
 11
9.450183789242606
 21
-3.982430996384522
 31
0.0
  0
LINE
  5
785
330
733
100
AcDbEntity
  8
D35160180
100
AcDbLine
 10
9.450183789242606
 20
-3.982430996384522
 30
0.0
 11
9.452804677110032
 21
-3.980233171068505
 31
0.0
  0
LINE
  5
786
330
733
100
AcDbEntity
  8
D35160180
100
AcDbLine
 10
9.452804677110032
 20
-3.980233171068505
 30
0.0
 11
9.455335578975651
 21
-3.97793229621752
 31
0.0
  0
LINE
  5
787
330
733
100
AcDbEntity
  8
D35160180
100
AcDbLine
 10
9.455335578975651
 20
-3.97793229621752
 30
0.0
 11
9.457772445936404
 21
-3.975532052740508
 31
0.0
  0
LINE
  5
788
330
733
100
AcDbEntity
  8
D35160180
100
AcDbLine
 10
9.457772445936404
 20
-3.975532052740508
 30
0.0
 11
9.460111379524962
 21
-3.973036280515003
 31
0.0
  0
LINE
  5
789
330
733
100
AcDbEntity
  8
D35160180
100
AcDbLine
 10
9.460111379524962
 20
-3.973036280515003
 30
0.0
 11
9.462348637946535
 21
-3.97044897224416
 31
0.0
  0
LINE
  5
78A
330
733
100
AcDbEntity
  8
D35160180
100
AcDbLine
 10
9.462348637946535
 20
-3.97044897224416
 30
0.0
 11
9.464480642064915
 21
-3.967774267069287
 31
0.0
  0
LINE
  5
78B
330
733
100
AcDbEntity
  8
D35160180
100
AcDbLine
 10
9.464480642064915
 20
-3.967774267069287
 30
0.0
 11
9.466503981128335
 21
-3.965016443948094
 31
0.0
  0
LINE
  5
78C
330
733
100
AcDbEntity
  8
D35160180
100
AcDbLine
 10
9.466503981128335
 20
-3.965016443948094
 30
0.0
 11
9.468415418225886
 21
-3.962179914809262
 31
0.0
  0
LINE
  5
78D
330
733
100
AcDbEntity
  8
D35160180
100
AcDbLine
 10
9.468415418225886
 20
-3.962179914809262
 30
0.0
 11
9.470211895465963
 21
-3.959269217494327
 31
0.0
  0
LINE
  5
78E
330
733
100
AcDbEntity
  8
D35160180
100
AcDbLine
 10
9.470211895465963
 20
-3.959269217494327
 30
0.0
 11
9.471890538868217
 21
-3.956289008498071
 31
0.0
  0
LINE
  5
78F
330
733
100
AcDbEntity
  8
D35160180
100
AcDbLine
 10
9.471890538868217
 20
-3.956289008498071
 30
0.0
 11
9.473448662961304
 21
-3.953244055519146
 31
0.0
  0
LINE
  5
790
330
733
100
AcDbEntity
  8
D35160180
100
AcDbLine
 10
9.473448662961304
 20
-3.953244055519146
 30
0.0
 11
9.474883775079044
 21
-3.950139229832767
 31
0.0
  0
LINE
  5
791
330
733
100
AcDbEntity
  8
D35160180
100
AcDbLine
 10
9.474883775079044
 20
-3.950139229832767
 30
0.0
 11
9.475294869771593
 21
-3.94918529391321
 31
0.0
  0
LINE
  5
792
330
733
100
AcDbEntity
  8
D35160180
100
AcDbLine
 10
9.475294869771593
 20
-3.300814706086505
 30
0.0
 11
9.473897576084214
 21
-3.297692677950095
 31
0.0
  0
LINE
  5
793
330
733
100
AcDbEntity
  8
D35160180
100
AcDbLine
 10
9.473897576084214
 20
-3.297692677950095
 30
0.0
 11
9.472376552256269
 21
-3.294629023947418
 31
0.0
  0
LINE
  5
794
330
733
100
AcDbEntity
  8
D35160180
100
AcDbLine
 10
9.472376552256269
 20
-3.294629023947418
 30
0.0
 11
9.470734231601406
 21
-3.29162864527133
 31
0.0
  0
LINE
  5
795
330
733
100
AcDbEntity
  8
D35160180
100
AcDbLine
 10
9.470734231601406
 20
-3.29162864527133
 30
0.0
 11
9.468973241482325
 21
-3.288696341887671
 31
0.0
  0
LINE
  5
796
330
733
100
AcDbEntity
  8
D35160180
100
AcDbLine
 10
9.468973241482325
 20
-3.288696341887671
 30
0.0
 11
9.467096399107573
 21
-3.285836804856323
 31
0.0
  0
LINE
  5
797
330
733
100
AcDbEntity
  8
D35160180
100
AcDbLine
 10
9.467096399107573
 20
-3.285836804856323
 30
0.0
 11
9.465106707024565
 21
-3.283054608826542
 31
0.0
  0
LINE
  5
798
330
733
100
AcDbEntity
  8
D35160180
100
AcDbLine
 10
9.465106707024565
 20
-3.283054608826542
 30
0.0
 11
9.463007348316198
 21
-3.28035420471847
 31
0.0
  0
LINE
  5
799
330
733
100
AcDbEntity
  8
D35160180
100
AcDbLine
 10
9.463007348316198
 20
-3.28035420471847
 30
0.0
 11
9.460801681508558
 21
-3.277739912602623
 31
0.0
  0
LINE
  5
79A
330
733
100
AcDbEntity
  8
D35160180
100
AcDbLine
 10
9.460801681508558
 20
-3.277739912602623
 30
0.0
 11
9.458493235198014
 21
-3.275215914788699
 31
0.0
  0
LINE
  5
79B
330
733
100
AcDbEntity
  8
D35160180
100
AcDbLine
 10
9.458493235198014
 20
-3.275215914788699
 30
0.0
 11
9.456085702406253
 21
-3.272786249134778
 31
0.0
  0
LINE
  5
79C
330
733
100
AcDbEntity
  8
D35160180
100
AcDbLine
 10
9.456085702406253
 20
-3.272786249134778
 30
0.0
 11
9.453582934672118
 21
-3.270454802587607
 31
0.0
  0
LINE
  5
79D
330
733
100
AcDbEntity
  8
D35160180
100
AcDbLine
 10
9.453582934672118
 20
-3.270454802587607
 30
0.0
 11
9.450988935890125
 21
-3.26822530496431
 31
0.0
  0
LINE
  5
79E
330
733
100
AcDbEntity
  8
D35160180
100
AcDbLine
 10
9.450988935890125
 20
-3.26822530496431
 30
0.0
 11
9.448307855904934
 21
-3.266101322985484
 31
0.0
  0
LINE
  5
79F
330
733
100
AcDbEntity
  8
D35160180
100
AcDbLine
 10
9.448307855904934
 20
-3.266101322985484
 30
0.0
 11
9.445543983872626
 21
-3.264086254569203
 31
0.0
  0
LINE
  5
7A0
330
733
100
AcDbEntity
  8
D35160180
100
AcDbLine
 10
9.540673819717506
 20
-3.626955910754837
 30
0.0
 11
9.540673819717506
 21
-3.627005768835445
 31
0.0
  0
LINE
  5
7A1
330
733
100
AcDbEntity
  8
D35160180
100
AcDbLine
 10
9.475294869771593
 20
-3.949185293913224
 30
0.0
 11
9.487557706391745
 21
-3.918556297808855
 31
0.0
  0
LINE
  5
7A2
330
733
100
AcDbEntity
  8
D35160180
100
AcDbLine
 10
9.487557706391745
 20
-3.918556297808855
 30
0.0
 11
9.498585900889557
 21
-3.887461418962772
 31
0.0
  0
LINE
  5
7A3
330
733
100
AcDbEntity
  8
D35160180
100
AcDbLine
 10
9.498585900889557
 20
-3.887461418962772
 30
0.0
 11
9.50836181050637
 21
-3.855950402547911
 31
0.0
  0
LINE
  5
7A4
330
733
100
AcDbEntity
  8
D35160180
100
AcDbLine
 10
9.50836181050637
 20
-3.855950402547911
 30
0.0
 11
9.516869795872226
 21
-3.824073659468538
 31
0.0
  0
LINE
  5
7A5
330
733
100
AcDbEntity
  8
D35160180
100
AcDbLine
 10
9.516869795872226
 20
-3.824073659468538
 30
0.0
 11
9.524096246025488
 21
-3.791882185713575
 31
0.0
  0
LINE
  5
7A6
330
733
100
AcDbEntity
  8
D35160180
100
AcDbLine
 10
9.524096246025488
 20
-3.791882185713575
 30
0.0
 11
9.530029600187452
 21
-3.759427480773879
 31
0.0
  0
LINE
  5
7A7
330
733
100
AcDbEntity
  8
D35160180
100
AcDbLine
 10
9.530029600187452
 20
-3.759427480773879
 30
0.0
 11
9.534660366257169
 21
-3.726761465254057
 31
0.0
  0
LINE
  5
7A8
330
733
100
AcDbEntity
  8
D35160180
100
AcDbLine
 10
9.534660366257169
 20
-3.726761465254057
 30
0.0
 11
9.537981135996806
 21
-3.693936397810553
 31
0.0
  0
LINE
  5
7A9
330
733
100
AcDbEntity
  8
D35160180
100
AcDbLine
 10
9.537981135996806
 20
-3.693936397810553
 30
0.0
 11
9.539986596883144
 21
-3.661004791548982
 31
0.0
  0
LINE
  5
7AA
330
733
100
AcDbEntity
  8
D35160180
100
AcDbLine
 10
9.539986596883144
 20
-3.661004791548982
 30
0.0
 11
9.540673540606574
 21
-3.628019330014318
 31
0.0
  0
LINE
  5
7AB
330
733
100
AcDbEntity
  8
D35160180
100
AcDbLine
 10
9.540673540606574
 20
-3.628019330014318
 30
0.0
 11
9.540673819717506
 21
-3.627340757569264
 31
0.0
  0
LINE
  5
7AC
330
733
100
AcDbEntity
  8
D35160180
100
AcDbLine
 10
9.540673819717506
 20
-3.622659242430451
 30
0.0
 11
9.540014011431088
 21
-3.58967322694875
 31
0.0
  0
LINE
  5
7AD
330
733
100
AcDbEntity
  8
D35160180
100
AcDbLine
 10
9.540014011431088
 20
-3.58967322694875
 30
0.0
 11
9.538035642124333
 21
-3.556739982055177
 31
0.0
  0
LINE
  5
7AE
330
733
100
AcDbEntity
  8
D35160180
100
AcDbLine
 10
9.538035642124333
 20
-3.556739982055177
 30
0.0
 11
9.534741876766114
 21
-3.523912193916178
 31
0.0
  0
LINE
  5
7AF
330
733
100
AcDbEntity
  8
D35160180
100
AcDbLine
 10
9.534741876766114
 20
-3.523912193916178
 30
0.0
 11
9.53013798467837
 21
-3.491242379989888
 31
0.0
  0
LINE
  5
7B0
330
733
100
AcDbEntity
  8
D35160180
100
AcDbLine
 10
9.53013798467837
 20
-3.491242379989888
 30
0.0
 11
9.524231331106337
 21
-3.458782805009402
 31
0.0
  0
LINE
  5
7B1
330
733
100
AcDbEntity
  8
D35160180
100
AcDbLine
 10
9.524231331106337
 20
-3.458782805009402
 30
0.0
 11
9.517031365435672
 21
-3.426585397370345
 31
0.0
  0
LINE
  5
7B2
330
733
100
AcDbEntity
  8
D35160180
100
AcDbLine
 10
9.517031365435672
 20
-3.426585397370345
 30
0.0
 11
9.508549606075598
 21
-3.39470166605653
 31
0.0
  0
LINE
  5
7B3
330
733
100
AcDbEntity
  8
D35160180
100
AcDbLine
 10
9.508549606075598
 20
-3.39470166605653
 30
0.0
 11
9.498799622031695
 21
-3.363182618236557
 31
0.0
  0
LINE
  5
7B4
330
733
100
AcDbEntity
  8
D35160180
100
AcDbLine
 10
9.498799622031695
 20
-3.363182618236557
 30
0.0
 11
9.487797011198574
 21
-3.332078677663233
 31
0.0
  0
LINE
  5
7B5
330
733
100
AcDbEntity
  8
D35160180
100
AcDbLine
 10
9.487797011198574
 20
-3.332078677663233
 30
0.0
 11
9.475559375406449
 21
-3.301439604006326
 31
0.0
  0
LINE
  5
7B6
330
733
100
AcDbEntity
  8
D35160180
100
AcDbLine
 10
9.475559375406449
 20
-3.301439604006326
 30
0.0
 11
9.475294869771593
 21
-3.300814706086494
 31
0.0
  0
SPLINE
  5
7B7
330
733
100
AcDbEntity
  8
D35160180
100
AcDbSpline
210
0.0
220
0.0
230
1.0
 70
     8
 71
     3
 72
     8
 73
     4
 74
     0
 42
0.000000001
 43
0.0000000001
 40
-1.0
 40
-1.0
 40
-1.0
 40
-1.0
 40
-0.7222383365476036
 40
-0.7222383365476036
 40
-0.7222383365476036
 40
-0.7222383365476036
 10
-8.154650477363317
 20
-0.3625100120069113
 30
0.0
 10
-8.242312667623272
 20
-0.6126588256013755
 30
0.0
 10
-8.318122575850033
 20
-0.8667246392411378
 30
0.0
 10
-8.382372871515789
 20
-1.123720618304346
 30
0.0
  0
SPLINE
  5
7B8
330
733
100
AcDbEntity
  8
D35160180
100
AcDbSpline
210
0.0
220
0.0
230
1.0
 70
     8
 71
     3
 72
     8
 73
     4
 74
     0
 42
0.000000001
 43
0.0000000001
 40
-0.5639348588373031
 40
-0.5639348588373031
 40
-0.5639348588373031
 40
-0.5639348588373031
 40
-0.4400451252099428
 40
-0.4400451252099428
 40
-0.4400451252099428
 40
-0.4400451252099428
 10
-8.480950447749092
 20
-1.565791635464893
 30
0.0
 10
-8.50369370007357
 20
-1.681757173603998
 30
0.0
 10
-8.526006649308868
 20
-1.798035054941369
 30
0.0
 10
-8.54468511725725
 20
-1.914763439193528
 30
0.0
  0
SPLINE
  5
7B9
330
733
100
AcDbEntity
  8
D35160180
100
AcDbSpline
210
0.0
220
0.0
230
1.0
 70
     8
 71
     3
 72
     8
 73
     4
 74
     0
 42
0.000000001
 43
0.0000000001
 40
-0.2732116150184361
 40
-0.2732116150184361
 40
-0.2732116150184361
 40
-0.2732116150184361
 40
0.0
 40
0.0
 40
0.0
 40
0.0
 10
-8.60088461090126
 20
-2.388484479213964
 30
0.0
 10
-8.625565190122015
 20
-2.647770430537651
 30
0.0
 10
-8.63804477844776
 20
-2.908167987730916
 30
0.0
 10
-8.638788530340928
 20
-3.168685539151965
 30
0.0
  0
SPLINE
  5
7BA
330
733
100
AcDbEntity
  8
D35160180
100
AcDbSpline
210
0.0
220
0.0
230
1.0
 70
     8
 71
     3
 72
     8
 73
     4
 74
     0
 42
0.000000001
 43
0.0000000001
 40
-1.0
 40
-1.0
 40
-1.0
 40
-1.0
 40
-0.7223037731717243
 40
-0.7223037731717243
 40
-0.7223037731717243
 40
-0.7223037731717243
 10
-9.84534952263667
 20
-0.3625100120069113
 30
0.0
 10
-9.757636149840267
 20
-0.6127968472053383
 30
0.0
 10
-9.681812541711112
 20
-0.8669486418693743
 30
0.0
 10
-9.617569677045404
 20
-1.123924228336257
 30
0.0
  0
SPLINE
  5
7BB
330
733
100
AcDbEntity
  8
D35160180
100
AcDbSpline
210
0.0
220
0.0
230
1.0
 70
     8
 71
     3
 72
     8
 73
     4
 74
     0
 42
0.000000001
 43
0.0000000001
 40
-0.5638258729303095
 40
-0.5638258729303095
 40
-0.5638258729303095
 40
-0.5638258729303095
 40
-0.440256707675778
 40
-0.440256707675778
 40
-0.440256707675778
 40
-0.440256707675778
 10
-9.518904778323896
 20
-1.566450971923817
 30
0.0
 10
-9.496233560239675
 20
-1.682086308869443
 30
0.0
 10
-9.47399252009419
 20
-1.798015446080967
 30
0.0
 10
-9.455359775251846
 20
-1.914394799850764
 30
0.0
  0
SPLINE
  5
7BC
330
733
100
AcDbEntity
  8
D35160180
100
AcDbSpline
210
0.0
220
0.0
230
1.0
 70
     8
 71
     3
 72
     8
 73
     4
 74
     0
 42
0.000000001
 43
0.0000000001
 40
-0.2731425607223
 40
-0.2731425607223
 40
-0.2731425607223
 40
-0.2731425607223
 40
0.0
 40
0.0
 40
0.0
 40
0.0
 10
-9.399073855505983
 20
-2.388766436885649
 30
0.0
 10
-9.374414554583044
 20
-2.647931331967399
 30
0.0
 10
-9.361937344100679
 20
-2.908249217431535
 30
0.0
 10
-9.361193549439482
 20
-3.168685539151962
 30
0.0
  0
SPLINE
  5
7BD
330
733
100
AcDbEntity
  8
D35160180
100
AcDbSpline
210
0.0
220
0.0
230
1.0
 70
     8
 71
     3
 72
     8
 73
     4
 74
     0
 42
0.000000001
 43
0.0000000001
 40
0.999787237774947
 40
0.999787237774947
 40
0.999787237774947
 40
0.999787237774947
 40
1.0
 40
1.0
 40
1.0
 40
1.0
 10
-9.248008544555132
 20
-3.266261962577821
 30
0.0
 10
-9.248016158850466
 20
-3.266260871008324
 30
0.0
 10
-9.248023772806977
 20
-3.266259780578856
 30
0.0
 10
-9.248031386424653
 20
-3.266258691289372
 30
0.0
  0
LINE
  5
7BE
330
733
100
AcDbEntity
  8
D35160180
100
AcDbLine
 10
8.64362959876991
 20
-3.360187715509979
 30
0.0
 11
-8.643629598769972
 21
-3.360187715509798
 31
0.0
  0
LINE
  5
7BF
330
733
100
AcDbEntity
  8
D35160180
100
AcDbLine
 10
8.643629598769905
 20
-3.889812284489984
 30
0.0
 11
-8.643629598769978
 21
-3.889812284489803
 31
0.0
  0
SPLINE
  5
7C0
330
733
100
AcDbEntity
  8
D35160180
100
AcDbSpline
210
0.0
220
0.0
230
1.0
 70
     8
 71
     3
 72
     8
 73
     4
 74
     0
 42
0.000000001
 43
0.0000000001
 40
-1.0
 40
-1.0
 40
-1.0
 40
-1.0
 40
-0.7268137727456986
 40
-0.7268137727456986
 40
-0.7268137727456986
 40
-0.7268137727456986
 10
8.638788530340869
 20
-3.168685539152203
 30
0.0
 10
8.638042652795382
 20
-2.90801597515837
 30
0.0
 10
8.62554875689377
 20
-2.647515076027378
 30
0.0
 10
8.600854658120891
 20
-2.388178905701494
 30
0.0
  0
SPLINE
  5
7C1
330
733
100
AcDbEntity
  8
D35160180
100
AcDbSpline
210
0.0
220
0.0
230
1.0
 70
     8
 71
     3
 72
     8
 73
     4
 74
     0
 42
0.000000001
 43
0.0000000001
 40
-0.5600219495207732
 40
-0.5600219495207732
 40
-0.5600219495207732
 40
-0.5600219495207732
 40
-0.436134484009102
 40
-0.436134484009102
 40
-0.436134484009102
 40
-0.436134484009102
 10
8.541962903958017
 20
-1.91470471128861
 30
0.0
 10
8.524030643045346
 20
-1.79791603999795
 30
0.0
 10
8.505453535417743
 20
-1.681005457675656
 30
0.0
 10
8.483360819031268
 20
-1.564878378170856
 30
0.0
  0
SPLINE
  5
7C2
330
733
100
AcDbEntity
  8
D35160180
100
AcDbSpline
210
0.0
220
0.0
230
1.0
 70
     8
 71
     3
 72
     8
 73
     4
 74
     0
 42
0.000000001
 43
0.0000000001
 40
-0.2777892785263378
 40
-0.2777892785263378
 40
-0.2777892785263378
 40
-0.2777892785263378
 40
0.0
 40
0.0
 40
0.0
 40
0.0
 10
8.382305295410144
 20
-1.123452368761448
 30
0.0
 10
8.318058811331907
 20
-0.8665072746509956
 30
0.0
 10
8.242267809080763
 20
-0.6125307523275048
 30
0.0
 10
8.154650477363281
 20
-0.3625100120069682
 30
0.0
  0
SPLINE
  5
7C3
330
733
100
AcDbEntity
  8
D35160180
100
AcDbSpline
210
0.0
220
0.0
230
1.0
 70
     8
 71
     3
 72
     8
 73
     4
 74
     0
 42
0.000000001
 43
0.0000000001
 40
-1.0
 40
-1.0
 40
-1.0
 40
-1.0
 40
-0.7268901536551362
 40
-0.7268901536551362
 40
-0.7268901536551362
 40
-0.7268901536551362
 10
9.361193549439414
 20
-3.168685539152217
 30
0.0
 10
9.361940087314813
 20
-2.908053253171495
 30
0.0
 10
9.374435755602878
 20
-2.647602135984527
 30
0.0
 10
9.399112456439619
 20
-2.388372628814764
 30
0.0
  0
SPLINE
  5
7C4
330
733
100
AcDbEntity
  8
D35160180
100
AcDbSpline
210
0.0
220
0.0
230
1.0
 70
     8
 71
     3
 72
     8
 73
     4
 74
     0
 42
0.000000001
 43
0.0000000001
 40
-0.5598297405374839
 40
-0.5598297405374839
 40
-0.5598297405374839
 40
-0.5598297405374839
 40
-0.4362638841551853
 40
-0.4362638841551853
 40
-0.4362638841551853
 40
-0.4362638841551853
 10
9.458086288729626
 20
-1.914265392500457
 30
0.0
 10
9.475971144180986
 20
-1.797823671827462
 30
0.0
 10
9.494491428112116
 20
-1.681274681897122
 30
0.0
 10
9.516508637393917
 20
-1.565486351276685
 30
0.0
  0
SPLINE
  5
7C5
330
733
100
AcDbEntity
  8
D35160180
100
AcDbSpline
210
0.0
220
0.0
230
1.0
 70
     8
 71
     3
 72
     8
 73
     4
 74
     0
 42
0.000000001
 43
0.0000000001
 40
-0.277731652445782
 40
-0.277731652445782
 40
-0.277731652445782
 40
-0.277731652445782
 40
0.0
 40
0.0
 40
0.0
 40
0.0
 10
9.617656580171578
 20
-1.123579269252921
 30
0.0
 10
9.681894493193468
 20
-0.8666693559606706
 30
0.0
 10
9.757693782297806
 20
-0.6126323113882926
 30
0.0
 10
9.845349522636702
 20
-0.3625100120070037
 30
0.0
  0
LINE
  5
7C6
330
733
100
AcDbEntity
  8
D35160180
100
AcDbLine
 10
-9.999999999999978
 20
0.0000000000000853
 30
0.0
 11
-9.959285565503257
 21
-0.230903032157137
 31
0.0
1001
REVIT
1002
{
1070
     1
1000
17986
1002
}
1002
{
1070
     2
1000
-2001350
1002
}
  0
ARC
  5
7C7
330
733
100
AcDbEntity
  8
D35160180
100
AcDbCircle
 10
-9.898856111227495
 20
-0.2202476889388265
 30
0.0
 40
0.0613616760133517
100
AcDbArc
 50
190.000000000001
 51
232.9999999999984
1001
REVIT
1002
{
1070
     1
1000
17986
1002
}
1002
{
1070
     2
1000
-2001350
1002
}
  0
LINE
  5
7C8
330
733
100
AcDbEntity
  8
D35160180
100
AcDbLine
 10
-9.935784489698114
 20
-0.269253302359111
 30
0.0
 11
-9.903264908778631
 21
-0.2937585642686358
 31
0.0
1001
REVIT
1002
{
1070
     1
1000
17986
1002
}
1002
{
1070
     2
1000
-2001350
1002
}
  0
ARC
  5
7C9
330
733
100
AcDbEntity
  8
D35160180
100
AcDbCircle
 10
-9.931834585873794
 20
-0.3316718063131532
 30
0.0
 40
0.0474725222802507
100
AcDbArc
 50
10.0000000000006
 51
53.00000000000044
1001
REVIT
1002
{
1070
     1
1000
17986
1002
}
1002
{
1070
     2
1000
-2001350
1002
}
  0
LINE
  5
7CA
330
733
100
AcDbEntity
  8
D35160180
100
AcDbLine
 10
-9.885083277877164
 20
-0.3234282893299394
 30
0.0
 11
-9.878192115716679
 21
-0.3625100120067373
 31
0.0
1001
REVIT
1002
{
1070
     1
1000
17986
1002
}
1002
{
1070
     2
1000
-2001350
1002
}
  0
LINE
  5
7CB
330
733
100
AcDbEntity
  8
D35160180
100
AcDbLine
 10
-9.878192115716679
 20
-0.3625100120067373
 30
0.0
 11
-8.121807884283306
 21
-0.3625100120067373
 31
0.0
1001
REVIT
1002
{
1070
     1
1000
17986
1002
}
1002
{
1070
     2
1000
-2001350
1002
}
  0
ARC
  5
7CC
330
733
100
AcDbEntity
  8
D35160180
100
AcDbCircle
 10
-18.39778118512344
 20
-3.283529301242587
 30
0.0
 40
9.03750192418199
100
AcDbArc
 50
0.7281083909902008
 51
18.85721914990113
1001
REVIT
1002
{
1070
     1
1000
17986
1002
}
1002
{
1070
     2
1000
-2001350
1002
}
  0
LINE
  5
7CD
330
733
100
AcDbEntity
  8
D35160180
100
AcDbLine
 10
-9.361008986184479
 20
-3.168684823460921
 30
0.0
 11
-8.638991013815505
 21
-3.168684823460921
 31
0.0
1001
REVIT
1002
{
1070
     1
1000
17986
1002
}
1002
{
1070
     2
1000
-2001350
1002
}
  0
LINE
  5
7CE
330
733
100
AcDbEntity
  8
D35160180
100
AcDbLine
 10
-9.246943054622413
 20
-3.168684823460921
 30
0.0
 11
-9.246943054622413
 21
-3.267701577090093
 31
0.0
1001
REVIT
1002
{
1070
     1
1000
17986
1002
}
1002
{
1070
     2
1000
-2001350
1002
}
  0
LINE
  5
7CF
330
733
100
AcDbEntity
  8
D35160180
100
AcDbLine
 10
-9.246943054622413
 20
-3.267701577090093
 30
0.0
 11
-9.385672692707849
 21
-3.248204397955603
 31
0.0
1001
REVIT
1002
{
1070
     1
1000
17986
1002
}
1002
{
1070
     2
1000
-2001350
1002
}
  0
ARC
  5
7D0
330
733
100
AcDbEntity
  8
D35160180
100
AcDbCircle
 10
-9.396538791620322
 20
-3.325520709157856
 30
0.0
 40
0.078076142857465
100
AcDbArc
 50
82.00000000000169
 51
155.1040774264023
1001
REVIT
1002
{
1070
     1
1000
17986
1002
}
1002
{
1070
     2
1000
-2001350
1002
}
  0
ARC
  5
7D1
330
733
100
AcDbEntity
  8
D35160180
100
AcDbCircle
 10
-8.747225615522133
 20
-3.626865688053598
 30
0.0
 40
0.7939088027441117
100
AcDbArc
 50
155.1040774264037
 51
203.8445668296777
1001
REVIT
1002
{
1070
     1
1000
17986
1002
}
1002
{
1070
     2
1000
-2001350
1002
}
  0
ARC
  5
7D2
330
733
100
AcDbEntity
  8
D35160180
100
AcDbCircle
 10
-9.390751659706673
 20
-3.91129262871572
 30
0.0
 40
0.0903290602001644
100
AcDbArc
 50
203.8445668296777
 51
277.9999999999827
1001
REVIT
1002
{
1070
     1
1000
17986
1002
}
1002
{
1070
     2
1000
-2001350
1002
}
  0
LINE
  5
7D3
330
733
100
AcDbEntity
  8
D35160180
100
AcDbLine
 10
-9.378180284291836
 20
-4.000742612711384
 30
0.0
 11
-8.643629598769983
 21
-3.909530104395102
 31
0.0
1001
REVIT
1002
{
1070
     1
1000
17986
1002
}
1002
{
1070
     2
1000
-2001350
1002
}
  0
LINE
  5
7D4
330
733
100
AcDbEntity
  8
D35160180
100
AcDbLine
 10
-8.643629598769983
 20
-3.909530104395102
 30
0.0
 11
-8.643629598769983
 21
-3.340469895604499
 31
0.0
1001
REVIT
1002
{
1070
     1
1000
17986
1002
}
1002
{
1070
     2
1000
-2001350
1002
}
  0
LINE
  5
7D5
330
733
100
AcDbEntity
  8
D35160180
100
AcDbLine
 10
-8.643629598769983
 20
-3.870363422213188
 30
0.0
 11
8.643629598769898
 21
-3.870363422213245
 31
0.0
1001
REVIT
1002
{
1070
     1
1000
17986
1002
}
1002
{
1070
     2
1000
-2001350
1002
}
  0
LINE
  5
7D6
330
733
100
AcDbEntity
  8
D35160180
100
AcDbLine
 10
8.643629598769912
 20
-3.340469895604677
 30
0.0
 11
8.643629598769898
 21
-3.90953010439528
 31
0.0
1001
REVIT
1002
{
1070
     1
1000
17986
1002
}
1002
{
1070
     2
1000
-2001350
1002
}
  0
LINE
  5
7D7
330
733
100
AcDbEntity
  8
D35160180
100
AcDbLine
 10
8.643629598769898
 20
-3.90953010439528
 30
0.0
 11
9.378180284291737
 21
-4.000742612711576
 31
0.0
1001
REVIT
1002
{
1070
     1
1000
17986
1002
}
1002
{
1070
     2
1000
-2001350
1002
}
  0
ARC
  5
7D8
330
733
100
AcDbEntity
  8
D35160180
100
AcDbCircle
 10
9.390751659706602
 20
-3.911292628715727
 30
0.0
 40
0.0903290602001599
100
AcDbArc
 50
262.0000000000148
 51
336.1554331703214
1001
REVIT
1002
{
1070
     1
1000
17986
1002
}
1002
{
1070
     2
1000
-2001350
1002
}
  0
ARC
  5
7D9
330
733
100
AcDbEntity
  8
D35160180
100
AcDbCircle
 10
8.74722561552209
 20
-3.626865688053598
 30
0.0
 40
0.7939088027440974
100
AcDbArc
 50
336.1554331703201
 51
24.89592257359587
1001
REVIT
1002
{
1070
     1
1000
17986
1002
}
1002
{
1070
     2
1000
-2001350
1002
}
  0
ARC
  5
7DA
330
733
100
AcDbEntity
  8
D35160180
100
AcDbCircle
 10
9.396538791620251
 20
-3.325520709157856
 30
0.0
 40
0.0780761428574633
100
AcDbArc
 50
24.89592257359544
 51
97.99999999999668
1001
REVIT
1002
{
1070
     1
1000
17986
1002
}
1002
{
1070
     2
1000
-2001350
1002
}
  0
LINE
  5
7DB
330
733
100
AcDbEntity
  8
D35160180
100
AcDbLine
 10
9.385672692707792
 20
-3.248204397955795
 30
0.0
 11
9.246943054622342
 21
-3.267701577090278
 31
0.0
1001
REVIT
1002
{
1070
     1
1000
17986
1002
}
1002
{
1070
     2
1000
-2001350
1002
}
  0
LINE
  5
7DC
330
733
100
AcDbEntity
  8
D35160180
100
AcDbLine
 10
9.246943054622342
 20
-3.267701577090278
 30
0.0
 11
9.246943054622342
 21
-3.168684823461113
 31
0.0
1001
REVIT
1002
{
1070
     1
1000
17986
1002
}
1002
{
1070
     2
1000
-2001350
1002
}
  0
ARC
  5
7DD
330
733
100
AcDbEntity
  8
D35160180
100
AcDbCircle
 10
18.3977811851235
 20
-3.283529301242609
 30
0.0
 40
9.037501924182093
100
AcDbArc
 50
161.1427808500993
 51
179.2718916090098
1001
REVIT
1002
{
1070
     1
1000
17986
1002
}
1002
{
1070
     2
1000
-2001350
1002
}
  0
LINE
  5
7DE
330
733
100
AcDbEntity
  8
D35160180
100
AcDbLine
 10
9.878192115716679
 20
-0.3625100120069433
 30
0.0
 11
9.885083277877164
 21
-0.3234282893301383
 31
0.0
1001
REVIT
1002
{
1070
     1
1000
17986
1002
}
1002
{
1070
     2
1000
-2001350
1002
}
  0
ARC
  5
7DF
330
733
100
AcDbEntity
  8
D35160180
100
AcDbCircle
 10
9.931834585873794
 20
-0.3316718063131532
 30
0.0
 40
0.047472522280255
100
AcDbArc
 50
126.9999999999996
 51
170.0000000000002
1001
REVIT
1002
{
1070
     1
1000
17986
1002
}
1002
{
1070
     2
1000
-2001350
1002
}
  0
LINE
  5
7E0
330
733
100
AcDbEntity
  8
D35160180
100
AcDbLine
 10
9.903264908778616
 20
-0.2937585642688418
 30
0.0
 11
9.935784489698114
 21
-0.26925330235931
 31
0.0
1001
REVIT
1002
{
1070
     1
1000
17986
1002
}
1002
{
1070
     2
1000
-2001350
1002
}
  0
ARC
  5
7E1
330
733
100
AcDbEntity
  8
D35160180
100
AcDbCircle
 10
9.898856111227509
 20
-0.2202476889388407
 30
0.0
 40
0.0613616760133271
100
AcDbArc
 50
306.9999999999894
 51
350.0000000000064
1001
REVIT
1002
{
1070
     1
1000
17986
1002
}
1002
{
1070
     2
1000
-2001350
1002
}
  0
LINE
  5
7E2
330
733
100
AcDbEntity
  8
D35160180
100
AcDbLine
 10
9.959285565503257
 20
-0.2309030321573431
 30
0.0
 11
9.999999999999978
 21
-0.0000000000001208
 31
0.0
1001
REVIT
1002
{
1070
     1
1000
17986
1002
}
1002
{
1070
     2
1000
-2001350
1002
}
  0
LINE
  5
7E3
330
733
100
AcDbEntity
  8
D35160180
100
AcDbLine
 10
9.999999999999978
 20
-0.0000000000001208
 30
0.0
 11
8.000000000000021
 21
-0.0000000000000853
 31
0.0
1001
REVIT
1002
{
1070
     1
1000
17986
1002
}
1002
{
1070
     2
1000
-2001350
1002
}
  0
LINE
  5
7E4
330
733
100
AcDbEntity
  8
D35160180
100
AcDbLine
 10
8.000000000000021
 20
-0.0000000000000853
 30
0.0
 11
8.040714434496727
 21
-0.2309030321573005
 31
0.0
1001
REVIT
1002
{
1070
     1
1000
17986
1002
}
1002
{
1070
     2
1000
-2001350
1002
}
  0
ARC
  5
7E5
330
733
100
AcDbEntity
  8
D35160180
100
AcDbCircle
 10
8.101143888772476
 20
-0.2202476889388407
 30
0.0
 40
0.0613616760133303
100
AcDbArc
 50
189.9999999999939
 51
233.0000000000096
1001
REVIT
1002
{
1070
     1
1000
17986
1002
}
1002
{
1070
     2
1000
-2001350
1002
}
  0
LINE
  5
7E6
330
733
100
AcDbEntity
  8
D35160180
100
AcDbLine
 10
8.06421551030187
 20
-0.2692533023592745
 30
0.0
 11
8.096735091221368
 21
-0.2937585642687992
 31
0.0
1001
REVIT
1002
{
1070
     1
1000
17986
1002
}
1002
{
1070
     2
1000
-2001350
1002
}
  0
ARC
  5
7E7
330
733
100
AcDbEntity
  8
D35160180
100
AcDbCircle
 10
8.068165414126205
 20
-0.3316718063131461
 30
0.0
 40
0.0474725222802364
100
AcDbArc
 50
9.999999999993161
 51
53.00000000000858
1001
REVIT
1002
{
1070
     1
1000
17986
1002
}
1002
{
1070
     2
1000
-2001350
1002
}
  0
LINE
  5
7E8
330
733
100
AcDbEntity
  8
D35160180
100
AcDbLine
 10
8.114916722122821
 20
-0.3234282893301028
 30
0.0
 11
8.121807884283306
 21
-0.3625100120069078
 31
0.0
1001
REVIT
1002
{
1070
     1
1000
17986
1002
}
1002
{
1070
     2
1000
-2001350
1002
}
  0
LINE
  5
7E9
330
733
100
AcDbEntity
  8
D35160180
100
AcDbLine
 10
8.121807884283306
 20
-0.3625100120069078
 30
0.0
 11
9.878192115716679
 21
-0.3625100120069433
 31
0.0
1001
REVIT
1002
{
1070
     1
1000
17986
1002
}
1002
{
1070
     2
1000
-2001350
1002
}
  0
ARC
  5
7EA
330
733
100
AcDbEntity
  8
D35160180
100
AcDbCircle
 10
-0.3977811851235415
 20
-3.283529301242587
 30
0.0
 40
9.03750192418202
100
AcDbArc
 50
0.7281083909893865
 51
18.85721914990069
1001
REVIT
1002
{
1070
     1
1000
17986
1002
}
1002
{
1070
     2
1000
-2001350
1002
}
  0
LINE
  5
7EB
330
733
100
AcDbEntity
  8
D35160180
100
AcDbLine
 10
8.638991013815449
 20
-3.168684823461106
 30
0.0
 11
9.361008986184423
 21
-3.16868482346112
 31
0.0
1001
REVIT
1002
{
1070
     1
1000
17986
1002
}
1002
{
1070
     2
1000
-2001350
1002
}
  0
LINE
  5
7EC
330
733
100
AcDbEntity
  8
D35160180
100
AcDbLine
 10
8.753056945377515
 20
-3.168684823461106
 30
0.0
 11
8.753056945377515
 21
-3.328968618022337
 31
0.0
1001
REVIT
1002
{
1070
     1
1000
17986
1002
}
1002
{
1070
     2
1000
-2001350
1002
}
  0
LINE
  5
7ED
330
733
100
AcDbEntity
  8
D35160180
100
AcDbLine
 10
8.753056945377515
 20
-3.328968618022337
 30
0.0
 11
8.643629598769912
 21
-3.340469895604677
 31
0.0
1001
REVIT
1002
{
1070
     1
1000
17986
1002
}
1002
{
1070
     2
1000
-2001350
1002
}
  0
LINE
  5
7EE
330
733
100
AcDbEntity
  8
D35160180
100
AcDbLine
 10
8.643629598769912
 20
-3.379636577786463
 30
0.0
 11
-8.643629598769983
 21
-3.37963657778652
 31
0.0
1001
REVIT
1002
{
1070
     1
1000
17986
1002
}
1002
{
1070
     2
1000
-2001350
1002
}
  0
LINE
  5
7EF
330
733
100
AcDbEntity
  8
D35160180
100
AcDbLine
 10
-8.643629598769983
 20
-3.340469895604499
 30
0.0
 11
-8.753056945377586
 21
-3.328968618022159
 31
0.0
1001
REVIT
1002
{
1070
     1
1000
17986
1002
}
1002
{
1070
     2
1000
-2001350
1002
}
  0
LINE
  5
7F0
330
733
100
AcDbEntity
  8
D35160180
100
AcDbLine
 10
-8.753056945377586
 20
-3.328968618022159
 30
0.0
 11
-8.753056945377586
 21
-3.168684823460921
 31
0.0
1001
REVIT
1002
{
1070
     1
1000
17986
1002
}
1002
{
1070
     2
1000
-2001350
1002
}
  0
ARC
  5
7F1
330
733
100
AcDbEntity
  8
D35160180
100
AcDbCircle
 10
0.3977811851233852
 20
-3.28352930124258
 30
0.0
 40
9.037501924181913
100
AcDbArc
 50
161.1427808501002
 51
179.2718916090114
1001
REVIT
1002
{
1070
     1
1000
17986
1002
}
1002
{
1070
     2
1000
-2001350
1002
}
  0
LINE
  5
7F2
330
733
100
AcDbEntity
  8
D35160180
100
AcDbLine
 10
-8.121807884283306
 20
-0.3625100120067373
 30
0.0
 11
-8.114916722122821
 21
-0.3234282893299394
 31
0.0
1001
REVIT
1002
{
1070
     1
1000
17986
1002
}
1002
{
1070
     2
1000
-2001350
1002
}
  0
ARC
  5
7F3
330
733
100
AcDbEntity
  8
D35160180
100
AcDbCircle
 10
-8.068165414126191
 20
-0.3316718063131532
 30
0.0
 40
0.0474725222802439
100
AcDbArc
 50
126.9999999999965
 51
170.0000000000039
1001
REVIT
1002
{
1070
     1
1000
17986
1002
}
1002
{
1070
     2
1000
-2001350
1002
}
  0
LINE
  5
7F4
330
733
100
AcDbEntity
  8
D35160180
100
AcDbLine
 10
-8.096735091221368
 20
-0.2937585642686358
 30
0.0
 11
-8.06421551030187
 21
-0.269253302359111
 31
0.0
1001
REVIT
1002
{
1070
     1
1000
17986
1002
}
1002
{
1070
     2
1000
-2001350
1002
}
  0
ARC
  5
7F5
330
733
100
AcDbEntity
  8
D35160180
100
AcDbCircle
 10
-8.101143888772504
 20
-0.2202476889388265
 30
0.0
 40
0.061361676013352
100
AcDbArc
 50
307.0000000000016
 51
349.9999999999986
1001
REVIT
1002
{
1070
     1
1000
17986
1002
}
1002
{
1070
     2
1000
-2001350
1002
}
  0
LINE
  5
7F6
330
733
100
AcDbEntity
  8
D35160180
100
AcDbLine
 10
-8.040714434496727
 20
-0.230903032157137
 30
0.0
 11
-8.000000000000021
 21
0.0000000000000782
 31
0.0
1001
REVIT
1002
{
1070
     1
1000
17986
1002
}
1002
{
1070
     2
1000
-2001350
1002
}
  0
LINE
  5
7F7
330
733
100
AcDbEntity
  8
D35160180
100
AcDbLine
 10
-8.000000000000021
 20
0.0000000000000782
 30
0.0
 11
-9.999999999999978
 21
0.0000000000000853
 31
0.0
1001
REVIT
1002
{
1070
     1
1000
17986
1002
}
1002
{
1070
     2
1000
-2001350
1002
}
  0
LINE
  5
7F8
330
733
100
AcDbEntity
  8
D35160180
100
AcDbLine
 10
-9.248050827814957
 20
-3.266198465444333
 30
0.0
 11
-8.753056945377586
 21
-3.328968618022159
 31
0.0
1001
REVIT
1002
{
1070
     1
1000
19613
1002
}
1002
{
1070
     2
1000
-2001350
1002
}
  0
ARC
  5
7F9
330
733
100
AcDbEntity
  8
D35160180
100
AcDbCircle
 10
-44.79444843503982
 20
-5.54593826099871
 30
0.0
 40
35.74954966481987
100
AcDbArc
 50
3.812834887503914
 51
8.33686378286794
1001
REVIT
1002
{
1070
     1
1000
19825
1002
}
1002
{
1070
     2
1000
-2001350
1002
}
  0
ARC
  5
7FA
330
733
100
AcDbEntity
  8
D35160180
100
AcDbCircle
 10
26.79444843503983
 20
-5.54593826099871
 30
0.0
 40
35.74954966481987
100
AcDbArc
 50
171.6631362171333
 51
176.1871651124969
1001
REVIT
1002
{
1070
     1
1000
19876
1002
}
1002
{
1070
     2
1000
-2001350
1002
}
  0
LINE
  5
7FB
330
733
100
AcDbEntity
  8
D35160180
100
AcDbLine
 10
-8.643629598769983
 20
-3.757406142244796
 30
0.0
 11
8.643629598769898
 21
-3.757406142244853
 31
0.0
1001
REVIT
1002
{
1070
     1
1000
20189
1002
}
1002
{
1070
     2
1000
-2001350
1002
}
  0
LINE
  5
7FC
330
733
100
AcDbEntity
  8
D35160180
100
AcDbLine
 10
-8.643629598769983
 20
-3.492593857754911
 30
0.0
 11
8.643629598769912
 21
-3.492593857754854
 31
0.0
1001
REVIT
1002
{
1070
     1
1000
20250
1002
}
1002
{
1070
     2
1000
-2001350
1002
}
  0
LINE
  5
7FD
330
733
100
AcDbEntity
  8
D35160180
100
AcDbLine
 10
9.248050827814886
 20
-3.266198465444524
 30
0.0
 11
8.753056945377515
 21
-3.328968618022337
 31
0.0
1001
REVIT
1002
{
1070
     1
1000
20512
1002
}
1002
{
1070
     2
1000
-2001350
1002
}
  0
ARC
  5
7FE
330
733
100
AcDbEntity
  8
D35160180
100
AcDbCircle
 10
44.7944484350397
 20
-5.545938260999626
 30
0.0
 40
35.74954966481987
100
AcDbArc
 50
171.663136217132
 51
176.1871651124956
1001
REVIT
1002
{
1070
     1
1000
20515
1002
}
1002
{
1070
     2
1000
-2001350
1002
}
  0
ARC
  5
7FF
330
733
100
AcDbEntity
  8
D35160180
100
AcDbCircle
 10
-26.79444843503993
 20
-5.545938260998156
 30
0.0
 40
35.74954966481987
100
AcDbArc
 50
3.812834887503097
 51
8.336863782867119
1001
REVIT
1002
{
1070
     1
1000
20516
1002
}
1002
{
1070
     2
1000
-2001350
1002
}
  0
ENDBLK
  5
735
330
733
100
AcDbEntity
  8
0
100
AcDbBlockEnd
  0
BLOCK
  5
802
330
801
100
AcDbEntity
  8
0
100
AcDbBlockBegin
  2
D35160180 Front View
 70
     0
 10
0.0
 20
0.0
 30
0.0
  3
D35160180 Front View
  1

  0
LINE
  5
804
330
801
100
AcDbEntity
  8
D35160180
100
AcDbLine
 10
9.47529486977192
 20
0.3241852939130041
 30
0.0
 11
9.487557706392083
 21
0.2935562978086352
 31
0.0
1001
REVIT
1002
{
1070
     2
1000
-2001350
1002
}
  0
LINE
  5
805
330
801
100
AcDbEntity
  8
D35160180
100
AcDbLine
 10
9.487557706392083
 20
0.2935562978086352
 30
0.0
 11
9.498585900889883
 21
0.2624614189625589
 31
0.0
1001
REVIT
1002
{
1070
     2
1000
-2001350
1002
}
  0
LINE
  5
806
330
801
100
AcDbEntity
  8
D35160180
100
AcDbLine
 10
9.498585900889883
 20
0.2624614189625589
 30
0.0
 11
9.508361810506707
 21
0.2309504025476947
 31
0.0
1001
REVIT
1002
{
1070
     2
1000
-2001350
1002
}
  0
LINE
  5
807
330
801
100
AcDbEntity
  8
D35160180
100
AcDbLine
 10
9.508361810506707
 20
0.2309504025476947
 30
0.0
 11
9.516869795872564
 21
0.1990736594683255
 31
0.0
1001
REVIT
1002
{
1070
     2
1000
-2001350
1002
}
  0
LINE
  5
808
330
801
100
AcDbEntity
  8
D35160180
100
AcDbLine
 10
9.516869795872564
 20
0.1990736594683255
 30
0.0
 11
9.524096246025825
 21
0.1668821857133551
 31
0.0
1001
REVIT
1002
{
1070
     2
1000
-2001350
1002
}
  0
LINE
  5
809
330
801
100
AcDbEntity
  8
D35160180
100
AcDbLine
 10
9.524096246025825
 20
0.1668821857133551
 30
0.0
 11
9.530029600187779
 21
0.1344274807736631
 31
0.0
1001
REVIT
1002
{
1070
     2
1000
-2001350
1002
}
  0
LINE
  5
80A
330
801
100
AcDbEntity
  8
D35160180
100
AcDbLine
 10
9.530029600187779
 20
0.1344274807736631
 30
0.0
 11
9.534660366257517
 21
0.1017614652538441
 31
0.0
1001
REVIT
1002
{
1070
     2
1000
-2001350
1002
}
  0
LINE
  5
80B
330
801
100
AcDbEntity
  8
D35160180
100
AcDbLine
 10
9.534660366257517
 20
0.1017614652538441
 30
0.0
 11
9.537981135997133
 21
0.0689363978103401
 31
0.0
1001
REVIT
1002
{
1070
     2
1000
-2001350
1002
}
  0
LINE
  5
80C
330
801
100
AcDbEntity
  8
D35160180
100
AcDbLine
 10
9.537981135997133
 20
0.0689363978103401
 30
0.0
 11
9.539986596883482
 21
0.0360047915487591
 31
0.0
1001
REVIT
1002
{
1070
     2
1000
-2001350
1002
}
  0
LINE
  5
80D
330
801
100
AcDbEntity
  8
D35160180
100
AcDbLine
 10
9.539986596883482
 20
0.0360047915487591
 30
0.0
 11
9.540673540606901
 21
0.003019330014105
 31
0.0
1001
REVIT
1002
{
1070
     2
1000
-2001350
1002
}
  0
LINE
  5
80E
330
801
100
AcDbEntity
  8
D35160180
100
AcDbLine
 10
9.540673540606901
 20
0.003019330014105
 30
0.0
 11
9.540673819717833
 21
0.0023407575690548
 31
0.0
1001
REVIT
1002
{
1070
     2
1000
-2001350
1002
}
  0
LINE
  5
80F
330
801
100
AcDbEntity
  8
D35160180
100
AcDbLine
 10
9.540673819717833
 20
0.0019696795767743
 30
0.0
 11
9.540673819717833
 21
0.0020186792224592
 31
0.0
1001
REVIT
1002
{
1070
     2
1000
-2001350
1002
}
  0
LINE
  5
810
330
801
100
AcDbEntity
  8
D35160180
100
AcDbLine
 10
9.540673819717833
 20
-0.0023407575698329
 30
0.0
 11
9.540014011431404
 21
-0.0353267730515299
 31
0.0
1001
REVIT
1002
{
1070
     2
1000
-2001350
1002
}
  0
LINE
  5
811
330
801
100
AcDbEntity
  8
D35160180
100
AcDbLine
 10
9.540014011431404
 20
-0.0353267730515299
 30
0.0
 11
9.53803564212467
 21
-0.0682600179451143
 31
0.0
1001
REVIT
1002
{
1070
     2
1000
-2001350
1002
}
  0
LINE
  5
812
330
801
100
AcDbEntity
  8
D35160180
100
AcDbLine
 10
9.53803564212467
 20
-0.0682600179451143
 30
0.0
 11
9.534741876766441
 21
-0.1010878060841058
 31
0.0
1001
REVIT
1002
{
1070
     2
1000
-2001350
1002
}
  0
LINE
  5
813
330
801
100
AcDbEntity
  8
D35160180
100
AcDbLine
 10
9.534741876766441
 20
-0.1010878060841058
 30
0.0
 11
9.530137984678708
 21
-0.1337576200103889
 31
0.0
1001
REVIT
1002
{
1070
     2
1000
-2001350
1002
}
  0
LINE
  5
814
330
801
100
AcDbEntity
  8
D35160180
100
AcDbLine
 10
9.530137984678708
 20
-0.1337576200103889
 30
0.0
 11
9.524231331106653
 21
-0.1662171949908888
 31
0.0
1001
REVIT
1002
{
1070
     2
1000
-2001350
1002
}
  0
LINE
  5
815
330
801
100
AcDbEntity
  8
D35160180
100
AcDbLine
 10
9.524231331106653
 20
-0.1662171949908888
 30
0.0
 11
9.517031365436009
 21
-0.1984146026299313
 31
0.0
1001
REVIT
1002
{
1070
     2
1000
-2001350
1002
}
  0
LINE
  5
816
330
801
100
AcDbEntity
  8
D35160180
100
AcDbLine
 10
9.517031365436009
 20
-0.1984146026299313
 30
0.0
 11
9.508549606075915
 21
-0.2302983339437503
 31
0.0
1001
REVIT
1002
{
1070
     2
1000
-2001350
1002
}
  0
LINE
  5
817
330
801
100
AcDbEntity
  8
D35160180
100
AcDbLine
 10
9.508549606075915
 20
-0.2302983339437503
 30
0.0
 11
9.498799622032022
 21
-0.2618173817637234
 31
0.0
1001
REVIT
1002
{
1070
     2
1000
-2001350
1002
}
  0
LINE
  5
818
330
801
100
AcDbEntity
  8
D35160180
100
AcDbLine
 10
9.498799622032022
 20
-0.2618173817637234
 30
0.0
 11
9.487797011198912
 21
-0.292921322337051
 31
0.0
1001
REVIT
1002
{
1070
     2
1000
-2001350
1002
}
  0
LINE
  5
819
330
801
100
AcDbEntity
  8
D35160180
100
AcDbLine
 10
9.487797011198912
 20
-0.292921322337051
 30
0.0
 11
9.475559375406787
 21
-0.3235603959939616
 31
0.0
1001
REVIT
1002
{
1070
     2
1000
-2001350
1002
}
  0
LINE
  5
81A
330
801
100
AcDbEntity
  8
D35160180
100
AcDbLine
 10
9.475559375406787
 20
-0.3235603959939616
 30
0.0
 11
9.47529486977192
 21
-0.3241852939137821
 31
0.0
1001
REVIT
1002
{
1070
     2
1000
-2001350
1002
}
  0
LINE
  5
81B
330
801
100
AcDbEntity
  8
D35160180
100
AcDbLine
 10
9.386134026927956
 20
0.3756981845747304
 30
0.0
 11
9.389536640466831
 21
0.3760470548063352
 31
0.0
1001
REVIT
1002
{
1070
     2
1000
-2001350
1002
}
  0
LINE
  5
81C
330
801
100
AcDbEntity
  8
D35160180
100
AcDbLine
 10
9.389536640466831
 20
0.3760470548063352
 30
0.0
 11
9.392950483366059
 21
0.376259577729062
 31
0.0
1001
REVIT
1002
{
1070
     2
1000
-2001350
1002
}
  0
LINE
  5
81D
330
801
100
AcDbEntity
  8
D35160180
100
AcDbLine
 10
9.392950483366059
 20
0.376259577729062
 30
0.0
 11
9.396370094205268
 21
0.376335413351569
 31
0.0
1001
REVIT
1002
{
1070
     2
1000
-2001350
1002
}
  0
LINE
  5
81E
330
801
100
AcDbEntity
  8
D35160180
100
AcDbLine
 10
9.396370094205268
 20
0.376335413351569
 30
0.0
 11
9.399790002336599
 21
0.3762744403530149
 31
0.0
1001
REVIT
1002
{
1070
     2
1000
-2001350
1002
}
  0
LINE
  5
81F
330
801
100
AcDbEntity
  8
D35160180
100
AcDbLine
 10
9.399790002336599
 20
0.3762744403530149
 30
0.0
 11
9.403204736636583
 21
0.3760767562772073
 31
0.0
1001
REVIT
1002
{
1070
     2
1000
-2001350
1002
}
  0
LINE
  5
820
330
801
100
AcDbEntity
  8
D35160180
100
AcDbLine
 10
9.403204736636583
 20
0.3760767562772073
 30
0.0
 11
9.406608834258767
 21
0.375742677376504
 31
0.0
1001
REVIT
1002
{
1070
     2
1000
-2001350
1002
}
  0
LINE
  5
821
330
801
100
AcDbEntity
  8
D35160180
100
AcDbLine
 10
9.406608834258767
 20
0.375742677376504
 30
0.0
 11
9.409996849373145
 21
0.3752727381058598
 31
0.0
1001
REVIT
1002
{
1070
     2
1000
-2001350
1002
}
  0
LINE
  5
822
330
801
100
AcDbEntity
  8
D35160180
100
AcDbLine
 10
9.409996849373145
 20
0.3752727381058598
 30
0.0
 11
9.413363361878262
 21
0.3746676902678736
 31
0.0
1001
REVIT
1002
{
1070
     2
1000
-2001350
1002
}
  0
LINE
  5
823
330
801
100
AcDbEntity
  8
D35160180
100
AcDbLine
 10
9.413363361878262
 20
0.3746676902678736
 30
0.0
 11
9.41670298607225
 21
0.3739285018100169
 31
0.0
1001
REVIT
1002
{
1070
     2
1000
-2001350
1002
}
  0
LINE
  5
824
330
801
100
AcDbEntity
  8
D35160180
100
AcDbLine
 10
9.41670298607225
 20
0.3739285018100169
 30
0.0
 11
9.420010379268815
 21
0.3730563552761232
 31
0.0
1001
REVIT
1002
{
1070
     2
1000
-2001350
1002
}
  0
LINE
  5
825
330
801
100
AcDbEntity
  8
D35160180
100
AcDbLine
 10
9.420010379268815
 20
0.3730563552761232
 30
0.0
 11
9.423280250344395
 21
0.3720526459146107
 31
0.0
1001
REVIT
1002
{
1070
     2
1000
-2001350
1002
}
  0
LINE
  5
826
330
801
100
AcDbEntity
  8
D35160180
100
AcDbLine
 10
9.423280250344395
 20
0.3720526459146107
 30
0.0
 11
9.426507368202807
 21
0.3709189794463476
 31
0.0
1001
REVIT
1002
{
1070
     2
1000
-2001350
1002
}
  0
LINE
  5
827
330
801
100
AcDbEntity
  8
D35160180
100
AcDbLine
 10
9.426507368202807
 20
0.3709189794463476
 30
0.0
 11
9.429686570143873
 21
0.3696571694958379
 31
0.0
1001
REVIT
1002
{
1070
     2
1000
-2001350
1002
}
  0
LINE
  5
828
330
801
100
AcDbEntity
  8
D35160180
100
AcDbLine
 10
9.429686570143873
 20
0.3696571694958379
 30
0.0
 11
9.432812770122696
 21
0.3682692346898406
 31
0.0
1001
REVIT
1002
{
1070
     2
1000
-2001350
1002
}
  0
LINE
  5
829
330
801
100
AcDbEntity
  8
D35160180
100
AcDbLine
 10
9.432812770122696
 20
0.3682692346898406
 30
0.0
 11
9.4358809668862
 21
0.3667573954279532
 31
0.0
1001
REVIT
1002
{
1070
     2
1000
-2001350
1002
}
  0
LINE
  5
82A
330
801
100
AcDbEntity
  8
D35160180
100
AcDbLine
 10
9.4358809668862
 20
0.3667573954279532
 30
0.0
 11
9.43888625197407
 21
0.3651240703304985
 31
0.0
1001
REVIT
1002
{
1070
     2
1000
-2001350
1002
}
  0
LINE
  5
82B
330
801
100
AcDbEntity
  8
D35160180
100
AcDbLine
 10
9.43888625197407
 20
0.3651240703304985
 30
0.0
 11
9.441823817571242
 21
0.363371872369214
 31
0.0
1001
REVIT
1002
{
1070
     2
1000
-2001350
1002
}
  0
LINE
  5
82C
330
801
100
AcDbEntity
  8
D35160180
100
AcDbLine
 10
9.441823817571242
 20
0.363371872369214
 30
0.0
 11
9.444688964199437
 21
0.3615036046870336
 31
0.0
1001
REVIT
1002
{
1070
     2
1000
-2001350
1002
}
  0
LINE
  5
82D
330
801
100
AcDbEntity
  8
D35160180
100
AcDbLine
 10
9.444688964199437
 20
0.3615036046870336
 30
0.0
 11
9.447477108235235
 21
0.359522256113717
 31
0.0
1001
REVIT
1002
{
1070
     2
1000
-2001350
1002
}
  0
LINE
  5
82E
330
801
100
AcDbEntity
  8
D35160180
100
AcDbLine
 10
9.447477108235235
 20
0.359522256113717
 30
0.0
 11
9.450183789242954
 21
0.3574309963843305
 31
0.0
1001
REVIT
1002
{
1070
     2
1000
-2001350
1002
}
  0
LINE
  5
82F
330
801
100
AcDbEntity
  8
D35160180
100
AcDbLine
 10
9.450183789242954
 20
0.3574309963843305
 30
0.0
 11
9.452804677110369
 21
0.3552331710683063
 31
0.0
1001
REVIT
1002
{
1070
     2
1000
-2001350
1002
}
  0
LINE
  5
830
330
801
100
AcDbEntity
  8
D35160180
100
AcDbLine
 10
9.452804677110369
 20
0.3552331710683063
 30
0.0
 11
9.455335578975988
 21
0.3529322962173289
 31
0.0
1001
REVIT
1002
{
1070
     2
1000
-2001350
1002
}
  0
LINE
  5
831
330
801
100
AcDbEntity
  8
D35160180
100
AcDbLine
 10
9.455335578975988
 20
0.3529322962173289
 30
0.0
 11
9.457772445936731
 21
0.3505320527403092
 31
0.0
1001
REVIT
1002
{
1070
     2
1000
-2001350
1002
}
  0
LINE
  5
832
330
801
100
AcDbEntity
  8
D35160180
100
AcDbLine
 10
9.457772445936731
 20
0.3505320527403092
 30
0.0
 11
9.460111379525288
 21
0.3480362805148153
 31
0.0
1001
REVIT
1002
{
1070
     2
1000
-2001350
1002
}
  0
LINE
  5
833
330
801
100
AcDbEntity
  8
D35160180
100
AcDbLine
 10
9.460111379525288
 20
0.3480362805148153
 30
0.0
 11
9.462348637946883
 21
0.3454489722439646
 31
0.0
1001
REVIT
1002
{
1070
     2
1000
-2001350
1002
}
  0
LINE
  5
834
330
801
100
AcDbEntity
  8
D35160180
100
AcDbLine
 10
9.462348637946883
 20
0.3454489722439646
 30
0.0
 11
9.464480642065263
 21
0.342774267069096
 31
0.0
1001
REVIT
1002
{
1070
     2
1000
-2001350
1002
}
  0
LINE
  5
835
330
801
100
AcDbEntity
  8
D35160180
100
AcDbLine
 10
9.464480642065263
 20
0.342774267069096
 30
0.0
 11
9.466503981128672
 21
0.3400164439478992
 31
0.0
1001
REVIT
1002
{
1070
     2
1000
-2001350
1002
}
  0
LINE
  5
836
330
801
100
AcDbEntity
  8
D35160180
100
AcDbLine
 10
9.466503981128672
 20
0.3400164439478992
 30
0.0
 11
9.468415418226213
 21
0.3371799148090737
 31
0.0
1001
REVIT
1002
{
1070
     2
1000
-2001350
1002
}
  0
LINE
  5
837
330
801
100
AcDbEntity
  8
D35160180
100
AcDbLine
 10
9.468415418226213
 20
0.3371799148090737
 30
0.0
 11
9.47021189546629
 21
0.3342692174941355
 31
0.0
1001
REVIT
1002
{
1070
     2
1000
-2001350
1002
}
  0
LINE
  5
838
330
801
100
AcDbEntity
  8
D35160180
100
AcDbLine
 10
9.47021189546629
 20
0.3342692174941355
 30
0.0
 11
9.471890538868565
 21
0.3312890084978796
 31
0.0
1001
REVIT
1002
{
1070
     2
1000
-2001350
1002
}
  0
LINE
  5
839
330
801
100
AcDbEntity
  8
D35160180
100
AcDbLine
 10
9.471890538868565
 20
0.3312890084978796
 30
0.0
 11
9.473448662961652
 21
0.3282440555189474
 31
0.0
1001
REVIT
1002
{
1070
     2
1000
-2001350
1002
}
  0
LINE
  5
83A
330
801
100
AcDbEntity
  8
D35160180
100
AcDbLine
 10
9.473448662961652
 20
0.3282440555189474
 30
0.0
 11
9.474883775079392
 21
0.3251392298325725
 31
0.0
1001
REVIT
1002
{
1070
     2
1000
-2001350
1002
}
  0
LINE
  5
83B
330
801
100
AcDbEntity
  8
D35160180
100
AcDbLine
 10
9.474883775079392
 20
0.3251392298325725
 30
0.0
 11
9.47529486977192
 21
0.3241852939130147
 31
0.0
1001
REVIT
1002
{
1070
     2
1000
-2001350
1002
}
  0
LINE
  5
83C
330
801
100
AcDbEntity
  8
D35160180
100
AcDbLine
 10
9.47529486977192
 20
-0.3241852939137928
 30
0.0
 11
9.473897576084551
 21
-0.3273073220502027
 31
0.0
1001
REVIT
1002
{
1070
     2
1000
-2001350
1002
}
  0
LINE
  5
83D
330
801
100
AcDbEntity
  8
D35160180
100
AcDbLine
 10
9.473897576084551
 20
-0.3273073220502027
 30
0.0
 11
9.472376552256607
 21
-0.3303709760528725
 31
0.0
1001
REVIT
1002
{
1070
     2
1000
-2001350
1002
}
  0
LINE
  5
83E
330
801
100
AcDbEntity
  8
D35160180
100
AcDbLine
 10
9.472376552256607
 20
-0.3303709760528725
 30
0.0
 11
9.470734231601754
 21
-0.333371354728964
 31
0.0
1001
REVIT
1002
{
1070
     2
1000
-2001350
1002
}
  0
LINE
  5
83F
330
801
100
AcDbEntity
  8
D35160180
100
AcDbLine
 10
9.470734231601754
 20
-0.333371354728964
 30
0.0
 11
9.468973241482673
 21
-0.336303658112623
 31
0.0
1001
REVIT
1002
{
1070
     2
1000
-2001350
1002
}
  0
LINE
  5
840
330
801
100
AcDbEntity
  8
D35160180
100
AcDbLine
 10
9.468973241482673
 20
-0.336303658112623
 30
0.0
 11
9.46709639910791
 21
-0.3391631951439677
 31
0.0
1001
REVIT
1002
{
1070
     2
1000
-2001350
1002
}
  0
LINE
  5
841
330
801
100
AcDbEntity
  8
D35160180
100
AcDbLine
 10
9.46709639910791
 20
-0.3391631951439677
 30
0.0
 11
9.465106707024913
 21
-0.341945391173752
 31
0.0
1001
REVIT
1002
{
1070
     2
1000
-2001350
1002
}
  0
LINE
  5
842
330
801
100
AcDbEntity
  8
D35160180
100
AcDbLine
 10
9.465106707024913
 20
-0.341945391173752
 30
0.0
 11
9.463007348316535
 21
-0.3446457952818207
 31
0.0
1001
REVIT
1002
{
1070
     2
1000
-2001350
1002
}
  0
LINE
  5
843
330
801
100
AcDbEntity
  8
D35160180
100
AcDbLine
 10
9.463007348316535
 20
-0.3446457952818207
 30
0.0
 11
9.460801681508906
 21
-0.3472600873976752
 31
0.0
1001
REVIT
1002
{
1070
     2
1000
-2001350
1002
}
  0
LINE
  5
844
330
801
100
AcDbEntity
  8
D35160180
100
AcDbLine
 10
9.460801681508906
 20
-0.3472600873976752
 30
0.0
 11
9.458493235198362
 21
-0.3497840852115956
 31
0.0
1001
REVIT
1002
{
1070
     2
1000
-2001350
1002
}
  0
LINE
  5
845
330
801
100
AcDbEntity
  8
D35160180
100
AcDbLine
 10
9.458493235198362
 20
-0.3497840852115956
 30
0.0
 11
9.456085702406591
 21
-0.3522137508655127
 31
0.0
1001
REVIT
1002
{
1070
     2
1000
-2001350
1002
}
  0
LINE
  5
846
330
801
100
AcDbEntity
  8
D35160180
100
AcDbLine
 10
9.456085702406591
 20
-0.3522137508655127
 30
0.0
 11
9.453582934672466
 21
-0.3545451974126834
 31
0.0
1001
REVIT
1002
{
1070
     2
1000
-2001350
1002
}
  0
LINE
  5
847
330
801
100
AcDbEntity
  8
D35160180
100
AcDbLine
 10
9.453582934672466
 20
-0.3545451974126834
 30
0.0
 11
9.450988935890462
 21
-0.3567746950359911
 31
0.0
1001
REVIT
1002
{
1070
     2
1000
-2001350
1002
}
  0
LINE
  5
848
330
801
100
AcDbEntity
  8
D35160180
100
AcDbLine
 10
9.450988935890462
 20
-0.3567746950359911
 30
0.0
 11
9.448307855905282
 21
-0.3588986770148103
 31
0.0
1001
REVIT
1002
{
1070
     2
1000
-2001350
1002
}
  0
LINE
  5
849
330
801
100
AcDbEntity
  8
D35160180
100
AcDbLine
 10
9.448307855905282
 20
-0.3588986770148103
 30
0.0
 11
9.445543983872964
 21
-0.3609137454310982
 31
0.0
1001
REVIT
1002
{
1070
     2
1000
-2001350
1002
}
  0
LINE
  5
84A
330
801
100
AcDbEntity
  8
D35160180
100
AcDbLine
 10
9.445543983872964
 20
-0.3609137454310982
 30
0.0
 11
9.44270174139917
 21
-0.3628166766052167
 31
0.0
1001
REVIT
1002
{
1070
     2
1000
-2001350
1002
}
  0
LINE
  5
84B
330
801
100
AcDbEntity
  8
D35160180
100
AcDbLine
 10
9.44270174139917
 20
-0.3628166766052167
 30
0.0
 11
9.439785675465541
 21
-0.3646044262532583
 31
0.0
1001
REVIT
1002
{
1070
     2
1000
-2001350
1002
}
  0
LINE
  5
84C
330
801
100
AcDbEntity
  8
D35160180
100
AcDbLine
 10
9.439785675465541
 20
-0.3646044262532583
 30
0.0
 11
9.436800451155521
 21
-0.3662741343571127
 31
0.0
1001
REVIT
1002
{
1070
     2
1000
-2001350
1002
}
  0
LINE
  5
84D
330
801
100
AcDbEntity
  8
D35160180
100
AcDbLine
 10
9.436800451155521
 20
-0.3662741343571127
 30
0.0
 11
9.433750844191168
 21
-0.3678231297400387
 31
0.0
1001
REVIT
1002
{
1070
     2
1000
-2001350
1002
}
  0
LINE
  5
84E
330
801
100
AcDbEntity
  8
D35160180
100
AcDbLine
 10
9.433750844191168
 20
-0.3678231297400387
 30
0.0
 11
9.430641733293098
 21
-0.3692489343398328
 31
0.0
1001
REVIT
1002
{
1070
     2
1000
-2001350
1002
}
  0
LINE
  5
84F
330
801
100
AcDbEntity
  8
D35160180
100
AcDbLine
 10
9.430641733293098
 20
-0.3692489343398328
 30
0.0
 11
9.427478092375499
 21
-0.3705492671733061
 31
0.0
1001
REVIT
1002
{
1070
     2
1000
-2001350
1002
}
  0
LINE
  5
850
330
801
100
AcDbEntity
  8
D35160180
100
AcDbLine
 10
9.427478092375499
 20
-0.3705492671733061
 30
0.0
 11
9.424264982588953
 21
-0.3717220479853011
 31
0.0
1001
REVIT
1002
{
1070
     2
1000
-2001350
1002
}
  0
LINE
  5
851
330
801
100
AcDbEntity
  8
D35160180
100
AcDbLine
 10
9.424264982588953
 20
-0.3717220479853011
 30
0.0
 11
9.421007544223721
 21
-0.3727654005766964
 31
0.0
1001
REVIT
1002
{
1070
     2
1000
-2001350
1002
}
  0
LINE
  5
852
330
801
100
AcDbEntity
  8
D35160180
100
AcDbLine
 10
9.421007544223721
 20
-0.3727654005766964
 30
0.0
 11
9.417710988486279
 21
-0.3736776558059418
 31
0.0
1001
REVIT
1002
{
1070
     2
1000
-2001350
1002
}
  0
LINE
  5
853
330
801
100
AcDbEntity
  8
D35160180
100
AcDbLine
 10
9.417710988486279
 20
-0.3736776558059418
 30
0.0
 11
9.414380589162599
 21
-0.3744573542592419
 31
0.0
1001
REVIT
1002
{
1070
     2
1000
-2001350
1002
}
  0
LINE
  5
854
330
801
100
AcDbEntity
  8
D35160180
100
AcDbLine
 10
9.414380589162599
 20
-0.3744573542592419
 30
0.0
 11
9.411021674181126
 21
-0.3751032485854146
 31
0.0
1001
REVIT
1002
{
1070
     2
1000
-2001350
1002
}
  0
LINE
  5
855
330
801
100
AcDbEntity
  8
D35160180
100
AcDbLine
 10
9.411021674181126
 20
-0.3751032485854146
 30
0.0
 11
9.407639617089314
 21
-0.3756143054913287
 31
0.0
1001
REVIT
1002
{
1070
     2
1000
-2001350
1002
}
  0
LINE
  5
856
330
801
100
AcDbEntity
  8
D35160180
100
AcDbLine
 10
9.407639617089314
 20
-0.3756143054913287
 30
0.0
 11
9.404239828457052
 21
-0.3759897073949396
 31
0.0
1001
REVIT
1002
{
1070
     2
1000
-2001350
1002
}
  0
LINE
  5
857
330
801
100
AcDbEntity
  8
D35160180
100
AcDbLine
 10
9.404239828457052
 20
-0.3759897073949396
 30
0.0
 11
9.400827747220885
 21
-0.3762288537332878
 31
0.0
1001
REVIT
1002
{
1070
     2
1000
-2001350
1002
}
  0
LINE
  5
858
330
801
100
AcDbEntity
  8
D35160180
100
AcDbLine
 10
9.400827747220885
 20
-0.3762288537332878
 30
0.0
 11
9.397408831982948
 21
-0.3763313619232455
 31
0.0
1001
REVIT
1002
{
1070
     2
1000
-2001350
1002
}
  0
LINE
  5
859
330
801
100
AcDbEntity
  8
D35160180
100
AcDbLine
 10
9.397408831982948
 20
-0.3763313619232455
 30
0.0
 11
9.393988552278253
 21
-0.3762970679735921
 31
0.0
1001
REVIT
1002
{
1070
     2
1000
-2001350
1002
}
  0
LINE
  5
85A
330
801
100
AcDbEntity
  8
D35160180
100
AcDbLine
 10
9.393988552278253
 20
-0.3762970679735921
 30
0.0
 11
9.390572379824716
 21
-0.3761260267473005
 31
0.0
1001
REVIT
1002
{
1070
     2
1000
-2001350
1002
}
  0
LINE
  5
85B
330
801
100
AcDbEntity
  8
D35160180
100
AcDbLine
 10
9.390572379824716
 20
-0.3761260267473005
 30
0.0
 11
9.38716577976954
 21
-0.3758185118738737
 31
0.0
1001
REVIT
1002
{
1070
     2
1000
-2001350
1002
}
  0
LINE
  5
85C
330
801
100
AcDbEntity
  8
D35160180
100
AcDbLine
 10
9.38716577976954
 20
-0.3758185118738737
 30
0.0
 11
9.386134026927956
 21
-0.3756981845754978
 31
0.0
1001
REVIT
1002
{
1070
     2
1000
-2001350
1002
}
  0
LINE
  5
85D
330
801
100
AcDbEntity
  8
D35160180
100
AcDbLine
 10
9.386134026927956
 20
0.3756981845747304
 30
0.0
 11
8.643629598770248
 21
0.2845301043949142
 31
0.0
1001
REVIT
1002
{
1070
     2
1000
-2001350
1002
}
  0
LINE
  5
85E
330
801
100
AcDbEntity
  8
D35160180
100
AcDbLine
 10
8.643629598770248
 20
-0.2845301043956816
 30
0.0
 11
9.386134026927956
 21
-0.3756981845754978
 31
0.0
1001
REVIT
1002
{
1070
     2
1000
-2001350
1002
}
  0
LINE
  5
85F
330
801
100
AcDbEntity
  8
D35160180
100
AcDbLine
 10
-8.643629598769662
 20
0.2845301043950421
 30
0.0
 11
-9.386134026927376
 21
0.375698184574869
 31
0.0
1001
REVIT
1002
{
1070
     2
1000
-2001350
1002
}
  0
LINE
  5
860
330
801
100
AcDbEntity
  8
D35160180
100
AcDbLine
 10
-9.386134026927376
 20
-0.3756981845756364
 30
0.0
 11
-8.643629598769662
 21
-0.2845301043958201
 31
0.0
1001
REVIT
1002
{
1070
     2
1000
-2001350
1002
}
  0
LINE
  5
861
330
801
100
AcDbEntity
  8
D35160180
100
AcDbLine
 10
-9.475294869771339
 20
0.3241852939129721
 30
0.0
 11
-9.473897576083965
 21
0.327307322049382
 31
0.0
1001
REVIT
1002
{
1070
     2
1000
-2001350
1002
}
  0
LINE
  5
862
330
801
100
AcDbEntity
  8
D35160180
100
AcDbLine
 10
-9.473897576083965
 20
0.327307322049382
 30
0.0
 11
-9.472376552256015
 21
0.3303709760520519
 31
0.0
1001
REVIT
1002
{
1070
     2
1000
-2001350
1002
}
  0
LINE
  5
863
330
801
100
AcDbEntity
  8
D35160180
100
AcDbLine
 10
-9.472376552256015
 20
0.3303709760520519
 30
0.0
 11
-9.470734231601152
 21
0.3333713547281433
 31
0.0
1001
REVIT
1002
{
1070
     2
1000
-2001350
1002
}
  0
LINE
  5
864
330
801
100
AcDbEntity
  8
D35160180
100
AcDbLine
 10
-9.470734231601152
 20
0.3333713547281433
 30
0.0
 11
-9.468973241482082
 21
0.3363036581118024
 31
0.0
1001
REVIT
1002
{
1070
     2
1000
-2001350
1002
}
  0
LINE
  5
865
330
801
100
AcDbEntity
  8
D35160180
100
AcDbLine
 10
-9.468973241482082
 20
0.3363036581118024
 30
0.0
 11
-9.467096399107324
 21
0.339163195143147
 31
0.0
1001
REVIT
1002
{
1070
     2
1000
-2001350
1002
}
  0
LINE
  5
866
330
801
100
AcDbEntity
  8
D35160180
100
AcDbLine
 10
-9.467096399107324
 20
0.339163195143147
 30
0.0
 11
-9.465106707024316
 21
0.3419453911729206
 31
0.0
1001
REVIT
1002
{
1070
     2
1000
-2001350
1002
}
  0
LINE
  5
867
330
801
100
AcDbEntity
  8
D35160180
100
AcDbLine
 10
-9.465106707024316
 20
0.3419453911729206
 30
0.0
 11
-9.463007348315949
 21
0.344645795281
 31
0.0
1001
REVIT
1002
{
1070
     2
1000
-2001350
1002
}
  0
LINE
  5
868
330
801
100
AcDbEntity
  8
D35160180
100
AcDbLine
 10
-9.463007348315949
 20
0.344645795281
 30
0.0
 11
-9.460801681508304
 21
0.3472600873968438
 31
0.0
1001
REVIT
1002
{
1070
     2
1000
-2001350
1002
}
  0
LINE
  5
869
330
801
100
AcDbEntity
  8
D35160180
100
AcDbLine
 10
-9.460801681508304
 20
0.3472600873968438
 30
0.0
 11
-9.458493235197771
 21
0.3497840852107749
 31
0.0
1001
REVIT
1002
{
1070
     2
1000
-2001350
1002
}
  0
LINE
  5
86A
330
801
100
AcDbEntity
  8
D35160180
100
AcDbLine
 10
-9.458493235197771
 20
0.3497840852107749
 30
0.0
 11
-9.456085702405999
 21
0.352213750864692
 31
0.0
1001
REVIT
1002
{
1070
     2
1000
-2001350
1002
}
  0
LINE
  5
86B
330
801
100
AcDbEntity
  8
D35160180
100
AcDbLine
 10
-9.456085702405999
 20
0.352213750864692
 30
0.0
 11
-9.453582934671869
 21
0.3545451974118627
 31
0.0
1001
REVIT
1002
{
1070
     2
1000
-2001350
1002
}
  0
LINE
  5
86C
330
801
100
AcDbEntity
  8
D35160180
100
AcDbLine
 10
-9.453582934671869
 20
0.3545451974118627
 30
0.0
 11
-9.450988935889871
 21
0.3567746950351597
 31
0.0
1001
REVIT
1002
{
1070
     2
1000
-2001350
1002
}
  0
LINE
  5
86D
330
801
100
AcDbEntity
  8
D35160180
100
AcDbLine
 10
-9.450988935889871
 20
0.3567746950351597
 30
0.0
 11
-9.44830785590469
 21
0.3588986770139896
 31
0.0
1001
REVIT
1002
{
1070
     2
1000
-2001350
1002
}
  0
LINE
  5
86E
330
801
100
AcDbEntity
  8
D35160180
100
AcDbLine
 10
-9.44830785590469
 20
0.3588986770139896
 30
0.0
 11
-9.445543983872372
 21
0.3609137454302668
 31
0.0
1001
REVIT
1002
{
1070
     2
1000
-2001350
1002
}
  0
LINE
  5
86F
330
801
100
AcDbEntity
  8
D35160180
100
AcDbLine
 10
-9.445543983872372
 20
0.3609137454302668
 30
0.0
 11
-9.442701741398574
 21
0.362816676604396
 31
0.0
1001
REVIT
1002
{
1070
     2
1000
-2001350
1002
}
  0
LINE
  5
870
330
801
100
AcDbEntity
  8
D35160180
100
AcDbLine
 10
-9.442701741398574
 20
0.362816676604396
 30
0.0
 11
-9.43978567546495
 21
0.364604426252427
 31
0.0
1001
REVIT
1002
{
1070
     2
1000
-2001350
1002
}
  0
LINE
  5
871
330
801
100
AcDbEntity
  8
D35160180
100
AcDbLine
 10
-9.43978567546495
 20
0.364604426252427
 30
0.0
 11
-9.436800451154919
 21
0.366274134356292
 31
0.0
1001
REVIT
1002
{
1070
     2
1000
-2001350
1002
}
  0
LINE
  5
872
330
801
100
AcDbEntity
  8
D35160180
100
AcDbLine
 10
-9.436800451154919
 20
0.366274134356292
 30
0.0
 11
-9.433750844190571
 21
0.3678231297392073
 31
0.0
1001
REVIT
1002
{
1070
     2
1000
-2001350
1002
}
  0
LINE
  5
873
330
801
100
AcDbEntity
  8
D35160180
100
AcDbLine
 10
-9.433750844190571
 20
0.3678231297392073
 30
0.0
 11
-9.430641733292501
 21
0.3692489343390121
 31
0.0
1001
REVIT
1002
{
1070
     2
1000
-2001350
1002
}
  0
LINE
  5
874
330
801
100
AcDbEntity
  8
D35160180
100
AcDbLine
 10
-9.430641733292501
 20
0.3692489343390121
 30
0.0
 11
-9.427478092374897
 21
0.3705492671724854
 31
0.0
1001
REVIT
1002
{
1070
     2
1000
-2001350
1002
}
  0
LINE
  5
875
330
801
100
AcDbEntity
  8
D35160180
100
AcDbLine
 10
-9.427478092374897
 20
0.3705492671724854
 30
0.0
 11
-9.424264982588367
 21
0.3717220479844698
 31
0.0
1001
REVIT
1002
{
1070
     2
1000
-2001350
1002
}
  0
LINE
  5
876
330
801
100
AcDbEntity
  8
D35160180
100
AcDbLine
 10
-9.424264982588367
 20
0.3717220479844698
 30
0.0
 11
-9.42100754422313
 21
0.3727654005758758
 31
0.0
1001
REVIT
1002
{
1070
     2
1000
-2001350
1002
}
  0
LINE
  5
877
330
801
100
AcDbEntity
  8
D35160180
100
AcDbLine
 10
-9.42100754422313
 20
0.3727654005758758
 30
0.0
 11
-9.417710988485687
 21
0.3736776558051104
 31
0.0
1001
REVIT
1002
{
1070
     2
1000
-2001350
1002
}
  0
LINE
  5
878
330
801
100
AcDbEntity
  8
D35160180
100
AcDbLine
 10
-9.417710988485687
 20
0.3736776558051104
 30
0.0
 11
-9.414380589161996
 21
0.3744573542584213
 31
0.0
1001
REVIT
1002
{
1070
     2
1000
-2001350
1002
}
  0
LINE
  5
879
330
801
100
AcDbEntity
  8
D35160180
100
AcDbLine
 10
-9.414380589161996
 20
0.3744573542584213
 30
0.0
 11
-9.411021674180535
 21
0.3751032485845939
 31
0.0
1001
REVIT
1002
{
1070
     2
1000
-2001350
1002
}
  0
LINE
  5
87A
330
801
100
AcDbEntity
  8
D35160180
100
AcDbLine
 10
-9.411021674180535
 20
0.3751032485845939
 30
0.0
 11
-9.407639617088728
 21
0.3756143054905081
 31
0.0
1001
REVIT
1002
{
1070
     2
1000
-2001350
1002
}
  0
LINE
  5
87B
330
801
100
AcDbEntity
  8
D35160180
100
AcDbLine
 10
-9.407639617088728
 20
0.3756143054905081
 30
0.0
 11
-9.404239828456461
 21
0.3759897073941189
 31
0.0
1001
REVIT
1002
{
1070
     2
1000
-2001350
1002
}
  0
LINE
  5
87C
330
801
100
AcDbEntity
  8
D35160180
100
AcDbLine
 10
-9.404239828456461
 20
0.3759897073941189
 30
0.0
 11
-9.400827747220304
 21
0.3762288537324671
 31
0.0
1001
REVIT
1002
{
1070
     2
1000
-2001350
1002
}
  0
LINE
  5
87D
330
801
100
AcDbEntity
  8
D35160180
100
AcDbLine
 10
-9.400827747220304
 20
0.3762288537324671
 30
0.0
 11
-9.397408831982346
 21
0.3763313619224248
 31
0.0
1001
REVIT
1002
{
1070
     2
1000
-2001350
1002
}
  0
LINE
  5
87E
330
801
100
AcDbEntity
  8
D35160180
100
AcDbLine
 10
-9.397408831982346
 20
0.3763313619224248
 30
0.0
 11
-9.393988552277656
 21
0.3762970679727608
 31
0.0
1001
REVIT
1002
{
1070
     2
1000
-2001350
1002
}
  0
LINE
  5
87F
330
801
100
AcDbEntity
  8
D35160180
100
AcDbLine
 10
-9.393988552277656
 20
0.3762970679727608
 30
0.0
 11
-9.390572379824135
 21
0.3761260267464798
 31
0.0
1001
REVIT
1002
{
1070
     2
1000
-2001350
1002
}
  0
LINE
  5
880
330
801
100
AcDbEntity
  8
D35160180
100
AcDbLine
 10
-9.390572379824135
 20
0.3761260267464798
 30
0.0
 11
-9.38716577976896
 21
0.375818511873053
 31
0.0
1001
REVIT
1002
{
1070
     2
1000
-2001350
1002
}
  0
LINE
  5
881
330
801
100
AcDbEntity
  8
D35160180
100
AcDbLine
 10
-9.38716577976896
 20
0.375818511873053
 30
0.0
 11
-9.38613402692737
 21
0.3756981845746771
 31
0.0
1001
REVIT
1002
{
1070
     2
1000
-2001350
1002
}
  0
LINE
  5
882
330
801
100
AcDbEntity
  8
D35160180
100
AcDbLine
 10
-9.38613402692737
 20
-0.3756981845754445
 30
0.0
 11
-9.389536640466229
 21
-0.3760470548070493
 31
0.0
1001
REVIT
1002
{
1070
     2
1000
-2001350
1002
}
  0
LINE
  5
883
330
801
100
AcDbEntity
  8
D35160180
100
AcDbLine
 10
-9.389536640466229
 20
-0.3760470548070493
 30
0.0
 11
-9.392950483365462
 21
-0.3762595777297867
 31
0.0
1001
REVIT
1002
{
1070
     2
1000
-2001350
1002
}
  0
LINE
  5
884
330
801
100
AcDbEntity
  8
D35160180
100
AcDbLine
 10
-9.392950483365462
 20
-0.3762595777297867
 30
0.0
 11
-9.396370094204671
 21
-0.3763354133522831
 31
0.0
1001
REVIT
1002
{
1070
     2
1000
-2001350
1002
}
  0
LINE
  5
885
330
801
100
AcDbEntity
  8
D35160180
100
AcDbLine
 10
-9.396370094204671
 20
-0.3763354133522831
 30
0.0
 11
-9.399790002336008
 21
-0.3762744403537396
 31
0.0
1001
REVIT
1002
{
1070
     2
1000
-2001350
1002
}
  0
LINE
  5
886
330
801
100
AcDbEntity
  8
D35160180
100
AcDbLine
 10
-9.399790002336008
 20
-0.3762744403537396
 30
0.0
 11
-9.403204736635991
 21
-0.3760767562779321
 31
0.0
1001
REVIT
1002
{
1070
     2
1000
-2001350
1002
}
  0
LINE
  5
887
330
801
100
AcDbEntity
  8
D35160180
100
AcDbLine
 10
-9.403204736635991
 20
-0.3760767562779321
 30
0.0
 11
-9.406608834258186
 21
-0.3757426773772181
 31
0.0
1001
REVIT
1002
{
1070
     2
1000
-2001350
1002
}
  0
LINE
  5
888
330
801
100
AcDbEntity
  8
D35160180
100
AcDbLine
 10
-9.406608834258186
 20
-0.3757426773772181
 30
0.0
 11
-9.409996849372548
 21
-0.3752727381065739
 31
0.0
1001
REVIT
1002
{
1070
     2
1000
-2001350
1002
}
  0
LINE
  5
889
330
801
100
AcDbEntity
  8
D35160180
100
AcDbLine
 10
-9.409996849372548
 20
-0.3752727381065739
 30
0.0
 11
-9.41336336187766
 21
-0.3746676902685877
 31
0.0
1001
REVIT
1002
{
1070
     2
1000
-2001350
1002
}
  0
LINE
  5
88A
330
801
100
AcDbEntity
  8
D35160180
100
AcDbLine
 10
-9.41336336187766
 20
-0.3746676902685877
 30
0.0
 11
-9.416702986071648
 21
-0.373928501810731
 31
0.0
1001
REVIT
1002
{
1070
     2
1000
-2001350
1002
}
  0
LINE
  5
88B
330
801
100
AcDbEntity
  8
D35160180
100
AcDbLine
 10
-9.416702986071648
 20
-0.373928501810731
 30
0.0
 11
-9.420010379268218
 21
-0.3730563552768373
 31
0.0
1001
REVIT
1002
{
1070
     2
1000
-2001350
1002
}
  0
LINE
  5
88C
330
801
100
AcDbEntity
  8
D35160180
100
AcDbLine
 10
-9.420010379268218
 20
-0.3730563552768373
 30
0.0
 11
-9.423280250343804
 21
-0.3720526459153354
 31
0.0
1001
REVIT
1002
{
1070
     2
1000
-2001350
1002
}
  0
LINE
  5
88D
330
801
100
AcDbEntity
  8
D35160180
100
AcDbLine
 10
-9.423280250343804
 20
-0.3720526459153354
 30
0.0
 11
-9.42650736820221
 21
-0.3709189794470724
 31
0.0
1001
REVIT
1002
{
1070
     2
1000
-2001350
1002
}
  0
LINE
  5
88E
330
801
100
AcDbEntity
  8
D35160180
100
AcDbLine
 10
-9.42650736820221
 20
-0.3709189794470724
 30
0.0
 11
-9.429686570143282
 21
-0.3696571694965626
 31
0.0
1001
REVIT
1002
{
1070
     2
1000
-2001350
1002
}
  0
LINE
  5
88F
330
801
100
AcDbEntity
  8
D35160180
100
AcDbLine
 10
-9.429686570143282
 20
-0.3696571694965626
 30
0.0
 11
-9.43281277012211
 21
-0.3682692346905547
 31
0.0
1001
REVIT
1002
{
1070
     2
1000
-2001350
1002
}
  0
LINE
  5
890
330
801
100
AcDbEntity
  8
D35160180
100
AcDbLine
 10
-9.43281277012211
 20
-0.3682692346905547
 30
0.0
 11
-9.435880966885603
 21
-0.366757395428678
 31
0.0
1001
REVIT
1002
{
1070
     2
1000
-2001350
1002
}
  0
LINE
  5
891
330
801
100
AcDbEntity
  8
D35160180
100
AcDbLine
 10
-9.435880966885603
 20
-0.366757395428678
 30
0.0
 11
-9.438886251973467
 21
-0.3651240703312232
 31
0.0
1001
REVIT
1002
{
1070
     2
1000
-2001350
1002
}
  0
LINE
  5
892
330
801
100
AcDbEntity
  8
D35160180
100
AcDbLine
 10
-9.438886251973467
 20
-0.3651240703312232
 30
0.0
 11
-9.44182381757065
 21
-0.3633718723699281
 31
0.0
1001
REVIT
1002
{
1070
     2
1000
-2001350
1002
}
  0
LINE
  5
893
330
801
100
AcDbEntity
  8
D35160180
100
AcDbLine
 10
-9.44182381757065
 20
-0.3633718723699281
 30
0.0
 11
-9.44468896419884
 21
-0.3615036046877477
 31
0.0
1001
REVIT
1002
{
1070
     2
1000
-2001350
1002
}
  0
LINE
  5
894
330
801
100
AcDbEntity
  8
D35160180
100
AcDbLine
 10
-9.44468896419884
 20
-0.3615036046877477
 30
0.0
 11
-9.447477108234643
 21
-0.3595222561144417
 31
0.0
1001
REVIT
1002
{
1070
     2
1000
-2001350
1002
}
  0
LINE
  5
895
330
801
100
AcDbEntity
  8
D35160180
100
AcDbLine
 10
-9.447477108234643
 20
-0.3595222561144417
 30
0.0
 11
-9.450183789242357
 21
-0.3574309963850552
 31
0.0
1001
REVIT
1002
{
1070
     2
1000
-2001350
1002
}
  0
LINE
  5
896
330
801
100
AcDbEntity
  8
D35160180
100
AcDbLine
 10
-9.450183789242357
 20
-0.3574309963850552
 30
0.0
 11
-9.452804677109778
 21
-0.355233171069031
 31
0.0
1001
REVIT
1002
{
1070
     2
1000
-2001350
1002
}
  0
LINE
  5
897
330
801
100
AcDbEntity
  8
D35160180
100
AcDbLine
 10
-9.452804677109778
 20
-0.355233171069031
 30
0.0
 11
-9.455335578975402
 21
-0.3529322962180536
 31
0.0
1001
REVIT
1002
{
1070
     2
1000
-2001350
1002
}
  0
LINE
  5
898
330
801
100
AcDbEntity
  8
D35160180
100
AcDbLine
 10
-9.455335578975402
 20
-0.3529322962180536
 30
0.0
 11
-9.45777244593615
 21
-0.350532052741034
 31
0.0
1001
REVIT
1002
{
1070
     2
1000
-2001350
1002
}
  0
LINE
  5
899
330
801
100
AcDbEntity
  8
D35160180
100
AcDbLine
 10
-9.45777244593615
 20
-0.350532052741034
 30
0.0
 11
-9.460111379524708
 21
-0.3480362805155294
 31
0.0
1001
REVIT
1002
{
1070
     2
1000
-2001350
1002
}
  0
LINE
  5
89A
330
801
100
AcDbEntity
  8
D35160180
100
AcDbLine
 10
-9.460111379524708
 20
-0.3480362805155294
 30
0.0
 11
-9.462348637946286
 21
-0.3454489722446894
 31
0.0
1001
REVIT
1002
{
1070
     2
1000
-2001350
1002
}
  0
LINE
  5
89B
330
801
100
AcDbEntity
  8
D35160180
100
AcDbLine
 10
-9.462348637946286
 20
-0.3454489722446894
 30
0.0
 11
-9.464480642064676
 21
-0.3427742670698101
 31
0.0
1001
REVIT
1002
{
1070
     2
1000
-2001350
1002
}
  0
LINE
  5
89C
330
801
100
AcDbEntity
  8
D35160180
100
AcDbLine
 10
-9.464480642064676
 20
-0.3427742670698101
 30
0.0
 11
-9.466503981128081
 21
-0.3400164439486239
 31
0.0
1001
REVIT
1002
{
1070
     2
1000
-2001350
1002
}
  0
LINE
  5
89D
330
801
100
AcDbEntity
  8
D35160180
100
AcDbLine
 10
-9.466503981128081
 20
-0.3400164439486239
 30
0.0
 11
-9.468415418225632
 21
-0.3371799148097878
 31
0.0
1001
REVIT
1002
{
1070
     2
1000
-2001350
1002
}
  0
LINE
  5
89E
330
801
100
AcDbEntity
  8
D35160180
100
AcDbLine
 10
-9.468415418225632
 20
-0.3371799148097878
 30
0.0
 11
-9.470211895465709
 21
-0.3342692174948602
 31
0.0
1001
REVIT
1002
{
1070
     2
1000
-2001350
1002
}
  0
LINE
  5
89F
330
801
100
AcDbEntity
  8
D35160180
100
AcDbLine
 10
-9.470211895465709
 20
-0.3342692174948602
 30
0.0
 11
-9.471890538867969
 21
-0.3312890084986044
 31
0.0
1001
REVIT
1002
{
1070
     2
1000
-2001350
1002
}
  0
LINE
  5
8A0
330
801
100
AcDbEntity
  8
D35160180
100
AcDbLine
 10
-9.471890538867969
 20
-0.3312890084986044
 30
0.0
 11
-9.473448662961056
 21
-0.3282440555196721
 31
0.0
1001
REVIT
1002
{
1070
     2
1000
-2001350
1002
}
  0
LINE
  5
8A1
330
801
100
AcDbEntity
  8
D35160180
100
AcDbLine
 10
-9.473448662961056
 20
-0.3282440555196721
 30
0.0
 11
-9.474883775078806
 21
-0.3251392298332973
 31
0.0
1001
REVIT
1002
{
1070
     2
1000
-2001350
1002
}
  0
LINE
  5
8A2
330
801
100
AcDbEntity
  8
D35160180
100
AcDbLine
 10
-9.474883775078806
 20
-0.3251392298332973
 30
0.0
 11
-9.475294869771339
 21
-0.3241852939137395
 31
0.0
1001
REVIT
1002
{
1070
     2
1000
-2001350
1002
}
  0
LINE
  5
8A3
330
801
100
AcDbEntity
  8
D35160180
100
AcDbLine
 10
-9.540673819717252
 20
0.0023407575690122
 30
0.0
 11
-9.540014011430834
 21
0.0353267730507199
 31
0.0
1001
REVIT
1002
{
1070
     2
1000
-2001350
1002
}
  0
LINE
  5
8A4
330
801
100
AcDbEntity
  8
D35160180
100
AcDbLine
 10
-9.540014011430834
 20
0.0353267730507199
 30
0.0
 11
-9.538035642124084
 21
0.0682600179442936
 31
0.0
1001
REVIT
1002
{
1070
     2
1000
-2001350
1002
}
  0
LINE
  5
8A5
330
801
100
AcDbEntity
  8
D35160180
100
AcDbLine
 10
-9.538035642124084
 20
0.0682600179442936
 30
0.0
 11
-9.53474187676587
 21
0.1010878060832958
 31
0.0
1001
REVIT
1002
{
1070
     2
1000
-2001350
1002
}
  0
LINE
  5
8A6
330
801
100
AcDbEntity
  8
D35160180
100
AcDbLine
 10
-9.53474187676587
 20
0.1010878060832958
 30
0.0
 11
-9.530137984678122
 21
0.1337576200095895
 31
0.0
1001
REVIT
1002
{
1070
     2
1000
-2001350
1002
}
  0
LINE
  5
8A7
330
801
100
AcDbEntity
  8
D35160180
100
AcDbLine
 10
-9.530137984678122
 20
0.1337576200095895
 30
0.0
 11
-9.524231331106078
 21
0.1662171949900681
 31
0.0
1001
REVIT
1002
{
1070
     2
1000
-2001350
1002
}
  0
LINE
  5
8A8
330
801
100
AcDbEntity
  8
D35160180
100
AcDbLine
 10
-9.524231331106078
 20
0.1662171949900681
 30
0.0
 11
-9.517031365435428
 21
0.198414602629132
 31
0.0
1001
REVIT
1002
{
1070
     2
1000
-2001350
1002
}
  0
LINE
  5
8A9
330
801
100
AcDbEntity
  8
D35160180
100
AcDbLine
 10
-9.517031365435428
 20
0.198414602629132
 30
0.0
 11
-9.508549606075339
 21
0.2302983339429403
 31
0.0
1001
REVIT
1002
{
1070
     2
1000
-2001350
1002
}
  0
LINE
  5
8AA
330
801
100
AcDbEntity
  8
D35160180
100
AcDbLine
 10
-9.508549606075339
 20
0.2302983339429403
 30
0.0
 11
-9.498799622031446
 21
0.2618173817629134
 31
0.0
1001
REVIT
1002
{
1070
     2
1000
-2001350
1002
}
  0
LINE
  5
8AB
330
801
100
AcDbEntity
  8
D35160180
100
AcDbLine
 10
-9.498799622031446
 20
0.2618173817629134
 30
0.0
 11
-9.48779701119832
 21
0.292921322336241
 31
0.0
1001
REVIT
1002
{
1070
     2
1000
-2001350
1002
}
  0
LINE
  5
8AC
330
801
100
AcDbEntity
  8
D35160180
100
AcDbLine
 10
-9.48779701119832
 20
0.292921322336241
 30
0.0
 11
-9.475559375406211
 21
0.3235603959931516
 31
0.0
1001
REVIT
1002
{
1070
     2
1000
-2001350
1002
}
  0
LINE
  5
8AD
330
801
100
AcDbEntity
  8
D35160180
100
AcDbLine
 10
-9.475559375406211
 20
0.3235603959931516
 30
0.0
 11
-9.475294869771339
 21
0.3241852939129827
 31
0.0
1001
REVIT
1002
{
1070
     2
1000
-2001350
1002
}
  0
LINE
  5
8AE
330
801
100
AcDbEntity
  8
D35160180
100
AcDbLine
 10
-9.540673819717252
 20
0.0022940982602115
 30
0.0
 11
-9.540673819717252
 21
0.0022736667167038
 31
0.0
1001
REVIT
1002
{
1070
     2
1000
-2001350
1002
}
  0
LINE
  5
8AF
330
801
100
AcDbEntity
  8
D35160180
100
AcDbLine
 10
-9.475294869771339
 20
-0.3241852939137501
 30
0.0
 11
-9.487557706391491
 21
-0.2935562978093813
 31
0.0
1001
REVIT
1002
{
1070
     2
1000
-2001350
1002
}
  0
LINE
  5
8B0
330
801
100
AcDbEntity
  8
D35160180
100
AcDbLine
 10
-9.487557706391491
 20
-0.2935562978093813
 30
0.0
 11
-9.498585900889302
 21
-0.2624614189633049
 31
0.0
1001
REVIT
1002
{
1070
     2
1000
-2001350
1002
}
  0
LINE
  5
8B1
330
801
100
AcDbEntity
  8
D35160180
100
AcDbLine
 10
-9.498585900889302
 20
-0.2624614189633049
 30
0.0
 11
-9.508361810506121
 21
-0.2309504025484407
 31
0.0
1001
REVIT
1002
{
1070
     2
1000
-2001350
1002
}
  0
LINE
  5
8B2
330
801
100
AcDbEntity
  8
D35160180
100
AcDbLine
 10
-9.508361810506121
 20
-0.2309504025484407
 30
0.0
 11
-9.516869795871977
 21
-0.1990736594690609
 31
0.0
1001
REVIT
1002
{
1070
     2
1000
-2001350
1002
}
  0
LINE
  5
8B3
330
801
100
AcDbEntity
  8
D35160180
100
AcDbLine
 10
-9.516869795871977
 20
-0.1990736594690609
 30
0.0
 11
-9.524096246025239
 21
-0.1668821857141012
 31
0.0
1001
REVIT
1002
{
1070
     2
1000
-2001350
1002
}
  0
LINE
  5
8B4
330
801
100
AcDbEntity
  8
D35160180
100
AcDbLine
 10
-9.524096246025239
 20
-0.1668821857141012
 30
0.0
 11
-9.530029600187198
 21
-0.1344274807744092
 31
0.0
1001
REVIT
1002
{
1070
     2
1000
-2001350
1002
}
  0
LINE
  5
8B5
330
801
100
AcDbEntity
  8
D35160180
100
AcDbLine
 10
-9.530029600187198
 20
-0.1344274807744092
 30
0.0
 11
-9.534660366256925
 21
-0.1017614652545795
 31
0.0
1001
REVIT
1002
{
1070
     2
1000
-2001350
1002
}
  0
LINE
  5
8B6
330
801
100
AcDbEntity
  8
D35160180
100
AcDbLine
 10
-9.534660366256925
 20
-0.1017614652545795
 30
0.0
 11
-9.537981135996558
 21
-0.0689363978110862
 31
0.0
1001
REVIT
1002
{
1070
     2
1000
-2001350
1002
}
  0
LINE
  5
8B7
330
801
100
AcDbEntity
  8
D35160180
100
AcDbLine
 10
-9.537981135996558
 20
-0.0689363978110862
 30
0.0
 11
-9.53998659688289
 21
-0.0360047915495159
 31
0.0
1001
REVIT
1002
{
1070
     2
1000
-2001350
1002
}
  0
LINE
  5
8B8
330
801
100
AcDbEntity
  8
D35160180
100
AcDbLine
 10
-9.53998659688289
 20
-0.0360047915495159
 30
0.0
 11
-9.540673540606325
 21
-0.0030193300148405
 31
0.0
1001
REVIT
1002
{
1070
     2
1000
-2001350
1002
}
  0
LINE
  5
8B9
330
801
100
AcDbEntity
  8
D35160180
100
AcDbLine
 10
-9.540673540606325
 20
-0.0030193300148405
 30
0.0
 11
-9.540673819717252
 21
-0.0023407575697902
 31
0.0
1001
REVIT
1002
{
1070
     2
1000
-2001350
1002
}
  0
SPLINE
  5
8BA
330
801
100
AcDbEntity
  8
D35160180
100
AcDbSpline
210
0.0
220
0.0
230
1.0
 70
     8
 71
     3
 72
    10
 73
     6
 74
     0
 42
0.000000001
 43
0.0000000001
 40
0.2468454014867341
 40
0.2468454014867341
 40
0.2468454014867341
 40
0.2468454014867341
 40
0.3333333333333333
 40
0.6666666666666666
 40
1.0
 40
1.0
 40
1.0
 40
1.0
 10
9.196379006587742
 20
0.3395979030915336
 30
0.0
 10
9.199801198520406
 20
0.3457820163003208
 30
0.0
 10
9.219378411743177
 20
0.3809098156839244
 30
0.0
 10
9.282961388777916
 20
0.4875958721845738
 30
0.0
 10
9.367993755208962
 20
0.6420897485914367
 30
0.0
 10
9.422674761318583
 20
0.7320941616794193
 30
0.0
1001
REVIT
1002
{
1070
     2
1000
-2001350
1002
}
  0
ARC
  5
8BB
330
801
100
AcDbEntity
  8
D35160180
100
AcDbCircle
 10
9.000000000000248
 20
-0.8410179186993142
 30
0.0
 40
1.628906250000042
100
AcDbArc
 50
74.96056593504082
 51
105.0394340649596
1001
REVIT
1002
{
1070
     2
1000
-2001350
1002
}
  0
SPLINE
  5
8BC
330
801
100
AcDbEntity
  8
D35160180
100
AcDbSpline
210
0.0
220
0.0
230
1.0
 70
     8
 71
     3
 72
    10
 73
     6
 74
     0
 42
0.000000001
 43
0.0000000001
 40
-1.0
 40
-1.0
 40
-1.0
 40
-1.0
 40
-0.6666666666666666
 40
-0.3333333333333333
 40
0.0
 40
0.0
 40
0.0
 40
0.0
 10
8.577325238681895
 20
0.7320941616794095
 30
0.0
 10
8.627899280535755
 20
0.6398177574359231
 30
0.0
 10
8.719169750738913
 20
0.4889818885684142
 30
0.0
 10
8.799709028363633
 20
0.3449398305707769
 30
0.0
 10
8.820193536313663
 20
0.3143275650028508
 30
0.0
 10
8.819394265170705
 20
0.312818308862065
 30
0.0
1001
REVIT
1002
{
1070
     2
1000
-2001350
1002
}
  0
ARC
  5
8BD
330
801
100
AcDbEntity
  8
D35160180
100
AcDbCircle
 10
9.728342882630906
 20
-0.4205089593501529
 30
0.0
 40
1.628906250000044
100
AcDbArc
 50
134.9605659350411
 51
156.4455146604208
1001
REVIT
1002
{
1070
     2
1000
-2001350
1002
}
  0
ARC
  5
8BE
330
801
100
AcDbEntity
  8
D35160180
100
AcDbCircle
 10
9.728342882630908
 20
0.4205089593481595
 30
0.0
 40
1.628906250000045
100
AcDbArc
 50
203.5544853395324
 51
225.0394340649586
1001
REVIT
1002
{
1070
     2
1000
-2001350
1002
}
  0
SPLINE
  5
8BF
330
801
100
AcDbEntity
  8
D35160180
100
AcDbSpline
210
0.0
220
0.0
230
1.0
 70
     8
 71
     3
 72
    10
 73
     6
 74
     0
 42
0.000000001
 43
0.0000000001
 40
-1.0
 40
-1.0
 40
-1.0
 40
-1.0
 40
-0.6666666666666666
 40
-0.3333333333333333
 40
0.0
 40
0.0
 40
0.0
 40
0.0
 10
8.577325238681915
 20
-0.73209416168141
 30
0.0
 10
8.631951927999727
 20
-0.6421575545421666
 30
0.0
 10
8.716944387139308
 20
-0.4876970742971272
 30
0.0
 10
8.801418829766303
 20
-0.3459269848728597
 30
0.0
 10
8.817687575440498
 20
-0.3128807478201409
 30
0.0
 10
8.819394265170718
 20
-0.3128183088640624
 30
0.0
1001
REVIT
1002
{
1070
     2
1000
-2001350
1002
}
  0
ARC
  5
8C0
330
801
100
AcDbEntity
  8
D35160180
100
AcDbCircle
 10
9.000000000000241
 20
0.841017918697323
 30
0.0
 40
1.628906250000041
100
AcDbArc
 50
254.9605659350408
 51
285.0394340649596
1001
REVIT
1002
{
1070
     2
1000
-2001350
1002
}
  0
SPLINE
  5
8C1
330
801
100
AcDbEntity
  8
D35160180
100
AcDbSpline
210
0.0
220
0.0
230
1.0
 70
     8
 71
     3
 72
    10
 73
     6
 74
     0
 42
0.000000001
 43
0.0000000001
 40
-1.0
 40
-1.0
 40
-1.0
 40
-1.0
 40
-0.6666666666666666
 40
-0.3333333333333333
 40
-0.2468750123730656
 40
-0.2468750123730656
 40
-0.2468750123730656
 40
-0.2468750123730656
 10
9.422674761318603
 20
-0.732094161681398
 30
0.0
 10
9.372100719464741
 20
-0.6398177574379127
 30
0.0
 10
9.280830249261583
 20
-0.4889818885704054
 30
0.0
 10
9.220174106796985
 20
-0.3805002154231741
 30
0.0
 10
9.199531708542869
 20
-0.3459703293493632
 30
0.0
 10
9.19588662486641
 20
-0.3399143138569763
 30
0.0
1001
REVIT
1002
{
1070
     2
1000
-2001350
1002
}
  0
ARC
  5
8C2
330
801
100
AcDbEntity
  8
D35160180
100
AcDbCircle
 10
8.271657117369585
 20
0.4205089593481557
 30
0.0
 40
1.628906250000043
100
AcDbArc
 50
314.9605659350412
 51
345.0394340649593
1001
REVIT
1002
{
1070
     2
1000
-2001350
1002
}
  0
ARC
  5
8C3
330
801
100
AcDbEntity
  8
D35160180
100
AcDbCircle
 10
9.000000000000248
 20
-0.8410179186993142
 30
0.0
 40
1.16788547019235
100
AcDbArc
 50
89.66331933192861
 51
98.89611297568906
1001
REVIT
1002
{
1070
     2
1000
-2001350
1002
}
  0
ARC
  5
8C4
330
801
100
AcDbEntity
  8
D35160180
100
AcDbCircle
 10
9.728342882630906
 20
-0.4205089593501529
 30
0.0
 40
1.167885470192348
100
AcDbArc
 50
141.1038870243125
 51
141.6248974455746
1001
REVIT
1002
{
1070
     2
1000
-2001350
1002
}
  0
ARC
  5
8C5
330
801
100
AcDbEntity
  8
D35160180
100
AcDbCircle
 10
9.728342882630908
 20
0.4205089593481595
 30
0.0
 40
1.167885470192354
100
AcDbArc
 50
218.3751025543466
 51
218.8961129756882
1001
REVIT
1002
{
1070
     2
1000
-2001350
1002
}
  0
ARC
  5
8C6
330
801
100
AcDbEntity
  8
D35160180
100
AcDbCircle
 10
9.000000000000241
 20
0.841017918697323
 30
0.0
 40
1.167885470192347
100
AcDbArc
 50
261.103887024312
 51
270.3371147361643
1001
REVIT
1002
{
1070
     2
1000
-2001350
1002
}
  0
SPLINE
  5
8C7
330
801
100
AcDbEntity
  8
D35160180
100
AcDbSpline
210
0.0
220
0.0
230
1.0
 70
     8
 71
     3
 72
     9
 73
     5
 74
     0
 42
0.000000001
 43
0.0000000001
 40
-1.0
 40
-1.0
 40
-1.0
 40
-1.0
 40
-0.6666666666666666
 40
-0.5856221102935601
 40
-0.5856221102935601
 40
-0.5856221102935601
 40
-0.5856221102935601
 10
9.845349522636919
 20
-0.0000000000009951
 30
0.0
 10
9.740062564776254
 20
0.0023269482151916
 30
0.0
 10
9.630473321471683
 20
0.0000625808607999
 30
0.0
 10
9.54653255458003
 20
-0.0002125138494625
 30
0.0
 10
9.531120751994116
 20
-0.0002228889073848
 30
0.0
1001
REVIT
1002
{
1070
     2
1000
-2001350
1002
}
  0
ARC
  5
8C8
330
801
100
AcDbEntity
  8
D35160180
100
AcDbCircle
 10
8.270352951390444
 20
-0.4212619199292821
 30
0.0
 40
1.630360636368531
100
AcDbArc
 50
14.97429849225363
 51
45.02570150774725
1001
REVIT
1002
{
1070
     2
1000
-2001350
1002
}
  0
ARC
  5
8C9
330
801
100
AcDbEntity
  8
D35160180
100
AcDbCircle
 10
9.000000000000243
 20
-0.0000000000003319
 30
0.0
 40
0.999999999999976
100
AcDbArc
 50
193.292944846702
 51
165.9752559300957
1001
REVIT
1002
{
1070
     2
1000
-2001350
1002
}
  0
ARC
  5
8CA
330
801
100
AcDbEntity
  8
D35160180
100
AcDbCircle
 10
9.000000000000243
 20
-0.0000000000003369
 30
0.0
 40
0.8572458138460181
100
AcDbArc
 50
195.5979006280963
 51
164.2563825447032
1001
REVIT
1002
{
1070
     2
1000
-2001350
1002
}
  0
ARC
  5
8CB
330
801
100
AcDbEntity
  8
D35160180
100
AcDbCircle
 10
-8.999999999999744
 20
-0.0000000000003369
 30
0.0
 40
0.8572458138460177
100
AcDbArc
 50
15.5979006280898
 51
343.774677078494
1001
REVIT
1002
{
1070
     2
1000
-2001350
1002
}
  0
ARC
  5
8CC
330
801
100
AcDbEntity
  8
D35160180
100
AcDbCircle
 10
-8.270352951389943
 20
-0.4212619199292821
 30
0.0
 40
1.630360636368506
100
AcDbArc
 50
134.9742984922529
 51
165.0257015077265
1001
REVIT
1002
{
1070
     2
1000
-2001350
1002
}
  0
ARC
  5
8CD
330
801
100
AcDbEntity
  8
D35160180
100
AcDbCircle
 10
-8.999999999999747
 20
-0.8410179186993142
 30
0.0
 40
1.628906250000022
100
AcDbArc
 50
74.96056593504036
 51
105.0394340649601
1001
REVIT
1002
{
1070
     2
1000
-2001350
1002
}
  0
ARC
  5
8CE
330
801
100
AcDbEntity
  8
D35160180
100
AcDbCircle
 10
-9.728342882630407
 20
-0.4205089593501529
 30
0.0
 40
1.628906250000021
100
AcDbArc
 50
23.5544853395795
 51
45.03943406495896
1001
REVIT
1002
{
1070
     2
1000
-2001350
1002
}
  0
ARC
  5
8CF
330
801
100
AcDbEntity
  8
D35160180
100
AcDbCircle
 10
-9.728342882630407
 20
0.4205089593481595
 30
0.0
 40
1.628906250000024
100
AcDbArc
 50
314.9605659350405
 51
336.4455146604671
1001
REVIT
1002
{
1070
     2
1000
-2001350
1002
}
  0
ARC
  5
8D0
330
801
100
AcDbEntity
  8
D35160180
100
AcDbCircle
 10
-8.999999999999742
 20
0.841017918697323
 30
0.0
 40
1.628906250000021
100
AcDbArc
 50
254.9605659350393
 51
285.0394340649592
1001
REVIT
1002
{
1070
     2
1000
-2001350
1002
}
  0
ARC
  5
8D1
330
801
100
AcDbEntity
  8
D35160180
100
AcDbCircle
 10
-8.271657117369084
 20
0.4205089593481557
 30
0.0
 40
1.628906250000021
100
AcDbArc
 50
194.9605659350152
 51
225.0394340649584
1001
REVIT
1002
{
1070
     2
1000
-2001350
1002
}
  0
ARC
  5
8D2
330
801
100
AcDbEntity
  8
D35160180
100
AcDbCircle
 10
-8.999999999999751
 20
-0.0000000000003319
 30
0.0
 40
0.9999999999999769
100
AcDbArc
 50
13.29294484669642
 51
347.2124238492789
1001
REVIT
1002
{
1070
     2
1000
-2001350
1002
}
  0
LINE
  5
8D3
330
801
100
AcDbEntity
  8
D35160180
100
AcDbLine
 10
8.643629598770232
 20
-0.2845301043956827
 30
0.0
 11
8.643629598770232
 21
0.2845301043949184
 31
0.0
1001
REVIT
1002
{
1070
     2
1000
-2001350
1002
}
  0
LINE
  5
8D4
330
801
100
AcDbEntity
  8
D35160180
100
AcDbLine
 10
-8.643629598769654
 20
-0.2845301043958109
 30
0.0
 11
-8.643629598769654
 21
0.2845301043950473
 31
0.0
1001
REVIT
1002
{
1070
     2
1000
-2001350
1002
}
  0
LINE
  5
8D5
330
801
100
AcDbEntity
  8
D35160180
100
AcDbLine
 10
8.643629598770226
 20
-0.2293341656029144
 30
0.0
 11
-8.643629598769658
 21
-0.2293341656029144
 31
0.0
1001
REVIT
1002
{
1070
     2
1000
-2001350
1002
}
  0
LINE
  5
8D6
330
801
100
AcDbEntity
  8
D35160180
100
AcDbLine
 10
-8.643629598769658
 20
0.2293341656021534
 30
0.0
 11
8.643629598770226
 21
0.2293341656021534
 31
0.0
1001
REVIT
1002
{
1070
     2
1000
-2001350
1002
}
  0
LINE
  5
8D7
330
801
100
AcDbEntity
  8
D35160180
100
AcDbLine
 10
-8.643629598769656
 20
-0.0000000000003796
 30
0.0
 11
8.643629598770226
 21
-0.0000000000003796
 31
0.0
1001
REVIT
1002
{
1070
     2
1000
-2001350
1002
}
  0
SPLINE
  5
8D8
330
801
100
AcDbEntity
  8
D35160180
100
AcDbSpline
210
0.0
220
0.0
230
1.0
 70
     8
 71
     3
 72
    10
 73
     6
 74
     0
 42
0.000000001
 43
0.0000000001
 40
0.0
 40
0.0
 40
0.0
 40
0.0
 40
0.3333333333333333
 40
0.6666666666666666
 40
0.7534320002413674
 40
0.7534320002413674
 40
0.7534320002413674
 40
0.7534320002413674
 10
-9.422674761318109
 20
0.7320941616794495
 30
0.0
 10
-9.36803654715738
 20
0.6421604313615199
 30
0.0
 10
-9.283033202726343
 20
0.487719647151958
 30
0.0
 10
-9.219395064332911
 20
0.3809451688352416
 30
0.0
 10
-9.199800566237328
 20
0.3457764312615763
 30
0.0
 10
-9.196368383370709
 20
0.3395726144199918
 30
0.0
1001
REVIT
1002
{
1070
     2
1000
-2001350
1002
}
  0
ARC
  5
8D9
330
801
100
AcDbEntity
  8
D35160180
100
AcDbCircle
 10
-8.99999999999969
 20
-0.8410179186993142
 30
0.0
 40
1.167885470192349
100
AcDbArc
 50
81.10388702431119
 51
90.33668066803697
1001
REVIT
1002
{
1070
     2
1000
-2001350
1002
}
  0
SPLINE
  5
8DA
330
801
100
AcDbEntity
  8
D35160180
100
AcDbSpline
210
0.0
220
0.0
230
1.0
 70
     8
 71
     3
 72
    10
 73
     6
 74
     0
 42
0.000000001
 43
0.0000000001
 40
-1.0
 40
-1.0
 40
-1.0
 40
-1.0
 40
-0.6666666666666666
 40
-0.3333333333333333
 40
0.0
 40
0.0
 40
0.0
 40
0.0
 10
-8.819394265170149
 20
0.31281830886206
 30
0.0
 10
-8.820197676646513
 20
0.3143330476939907
 30
0.0
 10
-8.799681223722949
 20
0.3449824377744166
 30
0.0
 10
-8.719114278905676
 20
0.4890784191228425
 30
0.0
 10
-8.627868285003129
 20
0.6398740932854209
 30
0.0
 10
-8.577325238681382
 20
0.7320941616794402
 30
0.0
1001
REVIT
1002
{
1070
     2
1000
-2001350
1002
}
  0
ARC
  5
8DB
330
801
100
AcDbEntity
  8
D35160180
100
AcDbCircle
 10
-9.728342882630348
 20
-0.4205089593501529
 30
0.0
 40
1.167885470192345
100
AcDbArc
 50
38.37510255443493
 51
38.89611297568794
1001
REVIT
1002
{
1070
     2
1000
-2001350
1002
}
  0
ARC
  5
8DC
330
801
100
AcDbEntity
  8
D35160180
100
AcDbCircle
 10
-9.728342882630348
 20
0.4205089593481595
 30
0.0
 40
1.16788547019235
100
AcDbArc
 50
321.1038870243115
 51
321.6248974456443
1001
REVIT
1002
{
1070
     2
1000
-2001350
1002
}
  0
SPLINE
  5
8DD
330
801
100
AcDbEntity
  8
D35160180
100
AcDbSpline
210
0.0
220
0.0
230
1.0
 70
     8
 71
     3
 72
    10
 73
     6
 74
     0
 42
0.000000001
 43
0.0000000001
 40
-1.0
 40
-1.0
 40
-1.0
 40
-1.0
 40
-0.6666666666666666
 40
-0.3333333333333333
 40
0.0
 40
0.0
 40
0.0
 40
0.0
 10
-8.819394265170162
 20
-0.3128183088640628
 30
0.0
 10
-8.817680757123438
 20
-0.3128799035318117
 30
0.0
 10
-8.801395833165091
 20
-0.3459723679993902
 30
0.0
 10
-8.716888525142771
 20
-0.487793379590677
 30
0.0
 10
-8.631918637488466
 20
-0.6422125653851413
 30
0.0
 10
-8.577325238681391
 20
-0.732094161681442
 30
0.0
1001
REVIT
1002
{
1070
     2
1000
-2001350
1002
}
  0
ARC
  5
8DE
330
801
100
AcDbEntity
  8
D35160180
100
AcDbCircle
 10
-8.999999999999683
 20
0.841017918697323
 30
0.0
 40
1.167885470192348
100
AcDbArc
 50
269.6628852638685
 51
278.8961129756876
1001
REVIT
1002
{
1070
     2
1000
-2001350
1002
}
  0
SPLINE
  5
8DF
330
801
100
AcDbEntity
  8
D35160180
100
AcDbSpline
210
0.0
220
0.0
230
1.0
 70
     8
 71
     3
 72
    10
 73
     6
 74
     0
 42
0.000000001
 43
0.0000000001
 40
-0.753340292138886
 40
-0.753340292138886
 40
-0.753340292138886
 40
-0.753340292138886
 40
-0.6666666666666666
 40
-0.3333333333333333
 40
0.0
 40
0.0
 40
0.0
 40
0.0
 10
-9.19587373558066
 20
-0.3398973285011653
 30
0.0
 10
-9.199528187895618
 20
-0.3459677096286255
 30
0.0
 10
-9.220191395348374
 20
-0.3805251104397727
 30
0.0
 10
-9.280885721093802
 20
-0.489078419124833
 30
0.0
 10
-9.372131714996358
 20
-0.639874093287412
 30
0.0
 10
-9.422674761318118
 20
-0.7320941616814306
 30
0.0
1001
REVIT
1002
{
1070
     2
1000
-2001350
1002
}
  0
SPLINE
  5
8E0
330
801
100
AcDbEntity
  8
D35160180
100
AcDbSpline
210
0.0
220
0.0
230
1.0
 70
     8
 71
     3
 72
     9
 73
     5
 74
     0
 42
0.000000001
 43
0.0000000001
 40
-0.414586940889148
 40
-0.414586940889148
 40
-0.414586940889148
 40
-0.414586940889148
 40
-0.3333333333333333
 40
0.0
 40
0.0
 40
0.0
 40
0.0
 10
-9.531113532550403
 20
-0.0002222317215861
 30
0.0
 10
-9.546562316327818
 20
-0.0002122760487076
 30
0.0
 10
-9.630538249339732
 20
0.0000606238499594
 30
0.0
 10
-9.740145164920448
 20
0.0023252535935808
 30
0.0
 10
-9.845349522636455
 20
-0.0000000000010026
 30
0.0
1001
REVIT
1002
{
1070
     2
1000
-2001350
1002
}
  0
ENDBLK
  5
803
330
801
100
AcDbEntity
  8
0
100
AcDbBlockEnd
  0
BLOCK
  5
8E3
330
8E2
100
AcDbEntity
  8
0
100
AcDbBlockBegin
  2
D35160180 Side View
 70
     0
 10
0.0
 20
0.0
 30
0.0
  3
D35160180 Side View
  1

  0
LINE
  5
8E5
330
8E2
100
AcDbEntity
  8
D35160180
100
AcDbLine
 10
0.3927910607215885
 20
-0.7777582040509757
 30
0.0
 11
0.3625100120069931
 21
-0.7878883313023302
 31
0.0
1001
REVIT
1002
{
1070
     2
1000
-2001350
1002
}
  0
LINE
  5
8E6
330
8E2
100
AcDbEntity
  8
D35160180
100
AcDbLine
 10
0.2271993315061316
 20
0.9599386278565196
 30
0.0
 11
0.2286539403031824
 21
0.959652034205053
 31
0.0
1001
REVIT
1002
{
1070
     2
1000
-2001350
1002
}
  0
LINE
  5
8E7
330
8E2
100
AcDbEntity
  8
D35160180
100
AcDbLine
 10
0.2286539403031824
 20
0.959652034205053
 30
0.0
 11
0.2300959248790413
 21
0.9593075009606549
 31
0.0
1001
REVIT
1002
{
1070
     2
1000
-2001350
1002
}
  0
LINE
  5
8E8
330
8E2
100
AcDbEntity
  8
D35160180
100
AcDbLine
 10
0.2300959248790413
 20
0.9593075009606549
 30
0.0
 11
0.231522978365998
 21
0.9589055793030032
 31
0.0
1001
REVIT
1002
{
1070
     2
1000
-2001350
1002
}
  0
LINE
  5
8E9
330
8E2
100
AcDbEntity
  8
D35160180
100
AcDbLine
 10
0.2329328177828849
 20
0.9584469122210242
 30
0.0
 11
0.2343231876873943
 21
0.9579322334841789
 31
0.0
1001
REVIT
1002
{
1070
     2
1000
-2001350
1002
}
  0
LINE
  5
8EA
330
8E2
100
AcDbEntity
  8
D35160180
100
AcDbLine
 10
0.2343231876873943
 20
0.9579322334841789
 30
0.0
 11
0.2356918637842753
 21
0.9573623664686932
 31
0.0
1001
REVIT
1002
{
1070
     2
1000
-2001350
1002
}
  0
LINE
  5
8EB
330
8E2
100
AcDbEntity
  8
D35160180
100
AcDbLine
 10
0.2356918637842753
 20
0.9573623664686932
 30
0.0
 11
0.2370366564837347
 21
0.9567382228401902
 31
0.0
1001
REVIT
1002
{
1070
     2
1000
-2001350
1002
}
  0
LINE
  5
8EC
330
8E2
100
AcDbEntity
  8
D35160180
100
AcDbLine
 10
0.2383554144043316
 20
0.9560608010953577
 30
0.0
 11
0.2396460278147146
 21
0.9553311849644641
 31
0.0
1001
REVIT
1002
{
1070
     2
1000
-2001350
1002
}
  0
LINE
  5
8ED
330
8E2
100
AcDbEntity
  8
D35160180
100
AcDbLine
 10
0.2396460278147146
 20
0.9553311849644641
 30
0.0
 11
0.2409064320087388
 21
0.9545505416776832
 31
0.0
1001
REVIT
1002
{
1070
     2
1000
-2001350
1002
}
  0
LINE
  5
8EE
330
8E2
100
AcDbEntity
  8
D35160180
100
AcDbLine
 10
0.2409064320087388
 20
0.9545505416776832
 30
0.0
 11
0.2421346106085664
 21
0.9537201200977348
 31
0.0
1001
REVIT
1002
{
1070
     2
1000
-2001350
1002
}
  0
LINE
  5
8EF
330
8E2
100
AcDbEntity
  8
D35160180
100
AcDbLine
 10
0.2466866112936934
 20
0.9499283698177903
 30
0.0
 11
0.2477253287914429
 21
0.9488704999612449
 31
0.0
1001
REVIT
1002
{
1070
     2
1000
-2001350
1002
}
  0
LINE
  5
8F0
330
8E2
100
AcDbEntity
  8
D35160180
100
AcDbLine
 10
0.2477253287914429
 20
0.9488704999612449
 30
0.0
 11
0.2487209119147629
 21
0.9477719386665979
 31
0.0
1001
REVIT
1002
{
1070
     2
1000
-2001350
1002
}
  0
LINE
  5
8F1
330
8E2
100
AcDbEntity
  8
D35160180
100
AcDbLine
 10
0.2514332880345869
 20
0.9442499893104423
 30
0.0
 11
0.2522411340414798
 21
0.9430068451101794
 31
0.0
1001
REVIT
1002
{
1070
     2
1000
-2001350
1002
}
  0
LINE
  5
8F2
330
8E2
100
AcDbEntity
  8
D35160180
100
AcDbLine
 10
0.2522411340414798
 20
0.9430068451101794
 30
0.0
 11
0.2529986213488655
 21
0.9417323900687327
 31
0.0
1001
REVIT
1002
{
1070
     2
1000
-2001350
1002
}
  0
LINE
  5
8F3
330
8E2
100
AcDbEntity
  8
D35160180
100
AcDbLine
 10
0.2537045381386456
 20
0.9404286630423113
 30
0.0
 11
0.2543566756699462
 21
0.939100064757781
 31
0.0
1001
REVIT
1002
{
1070
     2
1000
-2001350
1002
}
  0
LINE
  5
8F4
330
8E2
100
AcDbEntity
  8
D35160180
100
AcDbLine
 10
0.252997360370717
 20
-0.9417346114444276
 30
0.0
 11
0.2522397852406435
 21
-0.9430090142833334
 31
0.0
1001
REVIT
1002
{
1070
     2
1000
-2001350
1002
}
  0
LINE
  5
8F5
330
8E2
100
AcDbEntity
  8
D35160180
100
AcDbLine
 10
0.2487192347530041
 20
-0.947773865244997
 30
0.0
 11
0.2477235759286458
 21
-0.9488723579299927
 31
0.0
1001
REVIT
1002
{
1070
     2
1000
-2001350
1002
}
  0
LINE
  5
8F6
330
8E2
100
AcDbEntity
  8
D35160180
100
AcDbLine
 10
0.2477235759286458
 20
-0.9488723579299927
 30
0.0
 11
0.2466847855340681
 21
-0.9499301562045443
 31
0.0
1001
REVIT
1002
{
1070
     2
1000
-2001350
1002
}
  0
LINE
  5
8F7
330
8E2
100
AcDbEntity
  8
D35160180
100
AcDbLine
 10
0.2466847855340681
 20
-0.9499301562045443
 30
0.0
 11
0.245604525412304
 21
-0.9509455678170651
 31
0.0
1001
REVIT
1002
{
1070
     2
1000
-2001350
1002
}
  0
LINE
  5
8F8
330
8E2
100
AcDbEntity
  8
D35160180
100
AcDbLine
 10
0.2421325235649157
 20
-0.9537215927907459
 30
0.0
 11
0.2409042877424881
 21
-0.9545519297332026
 31
0.0
1001
REVIT
1002
{
1070
     2
1000
-2001350
1002
}
  0
LINE
  5
8F9
330
8E2
100
AcDbEntity
  8
D35160180
100
AcDbLine
 10
0.2383531660700413
 20
-0.9560620133530902
 30
0.0
 11
0.2370343614704922
 21
-0.956739344218853
 31
0.0
1001
REVIT
1002
{
1070
     2
1000
-2001350
1002
}
  0
LINE
  5
8FA
330
8E2
100
AcDbEntity
  8
D35160180
100
AcDbLine
 10
0.2356895257636111
 20
-0.9573633951743188
 30
0.0
 11
0.2343208103996481
 21
-0.9579331678710756
 31
0.0
1001
REVIT
1002
{
1070
     2
1000
-2001350
1002
}
  0
LINE
  5
8FB
330
8E2
100
AcDbEntity
  8
D35160180
100
AcDbLine
 10
0.2343208103996481
 20
-0.9579331678710756
 30
0.0
 11
0.2329304050312082
 21
-0.9584477507943452
 31
0.0
1001
REVIT
1002
{
1070
     2
1000
-2001350
1002
}
  0
LINE
  5
8FC
330
8E2
100
AcDbEntity
  8
D35160180
100
AcDbLine
 10
0.2315205340102722
 20
-0.9589063207212296
 30
0.0
 11
0.2300934528297205
 21
-0.9593081440376634
 31
0.0
1001
REVIT
1002
{
1070
     2
1000
-2001350
1002
}
  0
LINE
  5
8FD
330
8E2
100
AcDbEntity
  8
D35160180
100
AcDbLine
 10
0.2286514445150161
 20
-0.9596525779120772
 30
0.0
 11
0.2271993315061067
 21
-0.9599386278565232
 31
0.0
1001
REVIT
1002
{
1070
     2
1000
-2001350
1002
}
  0
LINE
  5
8FE
330
8E2
100
AcDbEntity
  8
D35160180
100
AcDbLine
 10
0.2543566756699214
 20
-0.9391000647577952
 30
0.0
 11
0.2718348215317334
 21
-0.9016180599994674
 31
0.0
1001
REVIT
1002
{
1070
     2
1000
-2001350
1002
}
  0
LINE
  5
8FF
330
8E2
100
AcDbEntity
  8
D35160180
100
AcDbLine
 10
0.2718348215317619
 20
0.9016180599994532
 30
0.0
 11
0.2729901716681056
 21
0.8992644728603414
 31
0.0
1001
REVIT
1002
{
1070
     2
1000
-2001350
1002
}
  0
LINE
  5
900
330
8E2
100
AcDbEntity
  8
D35160180
100
AcDbLine
 10
0.2729901716681056
 20
0.8992644728603414
 30
0.0
 11
0.2742387160302115
 21
0.8969589700226128
 31
0.0
1001
REVIT
1002
{
1070
     2
1000
-2001350
1002
}
  0
LINE
  5
901
330
8E2
100
AcDbEntity
  8
D35160180
100
AcDbLine
 10
0.2742387160302115
 20
0.8969589700226128
 30
0.0
 11
0.2755784572134488
 21
0.8947052397989841
 31
0.0
1001
REVIT
1002
{
1070
     2
1000
-2001350
1002
}
  0
LINE
  5
902
330
8E2
100
AcDbEntity
  8
D35160180
100
AcDbLine
 10
0.3072674443552472
 20
0.8683124737316772
 30
0.0
 11
0.309726320392155
 21
0.8674024545043755
 31
0.0
1001
REVIT
1002
{
1070
     2
1000
-2001350
1002
}
  0
LINE
  5
903
330
8E2
100
AcDbEntity
  8
D35160180
100
AcDbLine
 10
0.3122196206534937
 20
0.8665914920109505
 30
0.0
 11
0.3147433563907249
 21
0.8658808836183949
 31
0.0
1001
REVIT
1002
{
1070
     2
1000
-2001350
1002
}
  0
LINE
  5
904
330
8E2
100
AcDbEntity
  8
D35160180
100
AcDbLine
 10
0.3147433563907249
 20
0.8658808836183949
 30
0.0
 11
0.317293490165035
 21
0.8652717661485558
 31
0.0
1001
REVIT
1002
{
1070
     2
1000
-2001350
1002
}
  0
LINE
  5
905
330
8E2
100
AcDbEntity
  8
D35160180
100
AcDbLine
 10
0.317293490165035
 20
0.8652717661485558
 30
0.0
 11
0.3198614936851136
 21
0.8647658983133721
 31
0.0
1001
REVIT
1002
{
1070
     2
1000
-2001350
1002
}
  0
LINE
  5
906
330
8E2
100
AcDbEntity
  8
D35160180
100
AcDbLine
 10
0.3198614936850888
 20
-0.8647658983133865
 30
0.0
 11
0.3172890764639504
 21
-0.865272727672572
 31
0.0
1001
REVIT
1002
{
1070
     2
1000
-2001350
1002
}
  0
LINE
  5
907
330
8E2
100
AcDbEntity
  8
D35160180
100
AcDbLine
 10
0.3122152979086152
 20
-0.8665928031792908
 30
0.0
 11
0.3097220535377581
 21
-0.8674039374876088
 31
0.0
1001
REVIT
1002
{
1070
     2
1000
-2001350
1002
}
  0
LINE
  5
908
330
8E2
100
AcDbEntity
  8
D35160180
100
AcDbLine
 10
0.3097220535377581
 20
-0.8674039374876088
 30
0.0
 11
0.3072632402173916
 21
-0.8683141261573545
 31
0.0
1001
REVIT
1002
{
1070
     2
1000
-2001350
1002
}
  0
LINE
  5
909
330
8E2
100
AcDbEntity
  8
D35160180
100
AcDbLine
 10
0.3072632402173916
 20
-0.8683141261573545
 30
0.0
 11
0.3048427915243117
 21
-0.8693219130808138
 31
0.0
1001
REVIT
1002
{
1070
     2
1000
-2001350
1002
}
  0
LINE
  5
90A
330
8E2
100
AcDbEntity
  8
D35160180
100
AcDbLine
 10
0.275576071913374
 20
-0.8947090758945568
 30
0.0
 11
0.2742364860410333
 21
-0.8969628984362747
 31
0.0
1001
REVIT
1002
{
1070
     2
1000
-2001350
1002
}
  0
LINE
  5
90B
330
8E2
100
AcDbEntity
  8
D35160180
100
AcDbLine
 10
0.2742364860410333
 20
-0.8969628984362747
 30
0.0
 11
0.272988100557324
 21
-0.899268487307477
 31
0.0
1001
REVIT
1002
{
1070
     2
1000
-2001350
1002
}
  0
LINE
  5
90C
330
8E2
100
AcDbEntity
  8
D35160180
100
AcDbLine
 10
0.272988100557324
 20
-0.899268487307477
 30
0.0
 11
0.2718348215317334
 21
-0.9016180599994674
 31
0.0
1001
REVIT
1002
{
1070
     2
1000
-2001350
1002
}
  0
LINE
  5
90D
330
8E2
100
AcDbEntity
  8
D35160180
100
AcDbLine
 10
0.2271993315063163
 20
0.9599386278565196
 30
0.0
 11
0.0000000000001954
 21
0.9999999999999785
 31
0.0
1001
REVIT
1002
{
1070
     2
1000
-2001350
1002
}
  0
LINE
  5
90E
330
8E2
100
AcDbEntity
  8
D35160180
100
AcDbLine
 10
0.000000000000167
 20
-0.999999999999982
 30
0.0
 11
0.2271993315062915
 21
-0.9599386278565232
 31
0.0
1001
REVIT
1002
{
1070
     2
1000
-2001350
1002
}
  0
LINE
  5
90F
330
8E2
100
AcDbEntity
  8
D35160180
100
AcDbLine
 10
0.2315229783661827
 20
0.9589055793030032
 30
0.0
 11
0.2329328177830696
 21
0.9584469122210242
 31
0.0
1001
REVIT
1002
{
1070
     2
1000
-2001350
1002
}
  0
LINE
  5
910
330
8E2
100
AcDbEntity
  8
D35160180
100
AcDbLine
 10
0.2370366564839195
 20
0.9567382228401902
 30
0.0
 11
0.2383554144045163
 21
0.9560608010953577
 31
0.0
1001
REVIT
1002
{
1070
     2
1000
-2001350
1002
}
  0
LINE
  5
911
330
8E2
100
AcDbEntity
  8
D35160180
100
AcDbLine
 10
0.2421346106087512
 20
0.9537201200977348
 30
0.0
 11
0.243328598790626
 21
0.9528412487220164
 31
0.0
1001
REVIT
1002
{
1070
     2
1000
-2001350
1002
}
  0
LINE
  5
912
330
8E2
100
AcDbEntity
  8
D35160180
100
AcDbLine
 10
0.243328598790626
 20
0.9528412487220164
 30
0.0
 11
0.2444864864281548
 21
0.951915333557231
 31
0.0
1001
REVIT
1002
{
1070
     2
1000
-2001350
1002
}
  0
LINE
  5
913
330
8E2
100
AcDbEntity
  8
D35160180
100
AcDbLine
 10
0.2444864864281548
 20
0.951915333557231
 30
0.0
 11
0.2456064211481213
 21
0.950943855870136
 31
0.0
1001
REVIT
1002
{
1070
     2
1000
-2001350
1002
}
  0
LINE
  5
914
330
8E2
100
AcDbEntity
  8
D35160180
100
AcDbLine
 10
0.2456064211481213
 20
0.950943855870136
 30
0.0
 11
0.2466866112938817
 21
0.9499283698177903
 31
0.0
1001
REVIT
1002
{
1070
     2
1000
-2001350
1002
}
  0
LINE
  5
915
330
8E2
100
AcDbEntity
  8
D35160180
100
AcDbLine
 10
0.2487209119149476
 20
0.9477719386665979
 30
0.0
 11
0.2496717679432265
 21
0.9466344433976024
 31
0.0
1001
REVIT
1002
{
1070
     2
1000
-2001350
1002
}
  0
LINE
  5
916
330
8E2
100
AcDbEntity
  8
D35160180
100
AcDbLine
 10
0.2496717679432265
 20
0.9466344433976024
 30
0.0
 11
0.2505763757096489
 21
0.9454598339040066
 31
0.0
1001
REVIT
1002
{
1070
     2
1000
-2001350
1002
}
  0
LINE
  5
917
330
8E2
100
AcDbEntity
  8
D35160180
100
AcDbLine
 10
0.2505763757096489
 20
0.9454598339040066
 30
0.0
 11
0.2514332880347716
 21
0.9442499893104423
 31
0.0
1001
REVIT
1002
{
1070
     2
1000
-2001350
1002
}
  0
LINE
  5
918
330
8E2
100
AcDbEntity
  8
D35160180
100
AcDbLine
 10
0.2529986213490503
 20
0.9417323900687327
 30
0.0
 11
0.2537045381388303
 21
0.9404286630423113
 31
0.0
1001
REVIT
1002
{
1070
     2
1000
-2001350
1002
}
  0
LINE
  5
919
330
8E2
100
AcDbEntity
  8
D35160180
100
AcDbLine
 10
0.2543566756701061
 20
-0.9391000647577952
 30
0.0
 11
0.2537033670006608
 21
-0.9404309330668139
 31
0.0
1001
REVIT
1002
{
1070
     2
1000
-2001350
1002
}
  0
LINE
  5
91A
330
8E2
100
AcDbEntity
  8
D35160180
100
AcDbLine
 10
0.2537033670006608
 20
-0.9404309330668139
 30
0.0
 11
0.2529973603709017
 21
-0.9417346114444276
 31
0.0
1001
REVIT
1002
{
1070
     2
1000
-2001350
1002
}
  0
LINE
  5
91B
330
8E2
100
AcDbEntity
  8
D35160180
100
AcDbLine
 10
0.2522397852408282
 20
-0.9430090142833334
 30
0.0
 11
0.2514318535690414
 21
-0.9442521028108499
 31
0.0
1001
REVIT
1002
{
1070
     2
1000
-2001350
1002
}
  0
LINE
  5
91C
330
8E2
100
AcDbEntity
  8
D35160180
100
AcDbLine
 10
0.2514318535690414
 20
-0.9442521028108499
 30
0.0
 11
0.2505748578738682
 21
-0.9454618883505004
 31
0.0
1001
REVIT
1002
{
1070
     2
1000
-2001350
1002
}
  0
LINE
  5
91D
330
8E2
100
AcDbEntity
  8
D35160180
100
AcDbLine
 10
0.2505748578738682
 20
-0.9454618883505004
 30
0.0
 11
0.2496701691656007
 21
-0.9466364355035208
 31
0.0
1001
REVIT
1002
{
1070
     2
1000
-2001350
1002
}
  0
LINE
  5
91E
330
8E2
100
AcDbEntity
  8
D35160180
100
AcDbLine
 10
0.2496701691656007
 20
-0.9466364355035208
 30
0.0
 11
0.2487192347531888
 21
-0.947773865244997
 31
0.0
1001
REVIT
1002
{
1070
     2
1000
-2001350
1002
}
  0
LINE
  5
91F
330
8E2
100
AcDbEntity
  8
D35160180
100
AcDbLine
 10
0.2456045254124888
 20
-0.9509455678170651
 30
0.0
 11
0.2444845237492892
 21
-0.9519169683255872
 31
0.0
1001
REVIT
1002
{
1070
     2
1000
-2001350
1002
}
  0
LINE
  5
920
330
8E2
100
AcDbEntity
  8
D35160180
100
AcDbLine
 10
0.2444845237492892
 20
-0.9519169683255872
 30
0.0
 11
0.2433265723083977
 21
-0.9528428036965051
 31
0.0
1001
REVIT
1002
{
1070
     2
1000
-2001350
1002
}
  0
LINE
  5
921
330
8E2
100
AcDbEntity
  8
D35160180
100
AcDbLine
 10
0.2433265723083977
 20
-0.9528428036965051
 30
0.0
 11
0.2421325235651004
 21
-0.9537215927907459
 31
0.0
1001
REVIT
1002
{
1070
     2
1000
-2001350
1002
}
  0
LINE
  5
922
330
8E2
100
AcDbEntity
  8
D35160180
100
AcDbLine
 10
0.2409042877426728
 20
-0.9545519297332026
 30
0.0
 11
0.2396438297564138
 21
-0.9553324861619108
 31
0.0
1001
REVIT
1002
{
1070
     2
1000
-2001350
1002
}
  0
LINE
  5
923
330
8E2
100
AcDbEntity
  8
D35160180
100
AcDbLine
 10
0.2396438297564138
 20
-0.9553324861619108
 30
0.0
 11
0.238353166070226
 21
-0.9560620133530902
 31
0.0
1001
REVIT
1002
{
1070
     2
1000
-2001350
1002
}
  0
LINE
  5
924
330
8E2
100
AcDbEntity
  8
D35160180
100
AcDbLine
 10
0.2370343614706769
 20
-0.956739344218853
 30
0.0
 11
0.2356895257637959
 21
-0.9573633951743188
 31
0.0
1001
REVIT
1002
{
1070
     2
1000
-2001350
1002
}
  0
LINE
  5
925
330
8E2
100
AcDbEntity
  8
D35160180
100
AcDbLine
 10
0.2329304050313894
 20
-0.9584477507943452
 30
0.0
 11
0.2315205340104569
 21
-0.9589063207212296
 31
0.0
1001
REVIT
1002
{
1070
     2
1000
-2001350
1002
}
  0
LINE
  5
926
330
8E2
100
AcDbEntity
  8
D35160180
100
AcDbLine
 10
0.2315205340104569
 20
-0.9589063207212296
 30
0.0
 11
0.2300934528299052
 21
-0.9593081440376741
 31
0.0
1001
REVIT
1002
{
1070
     2
1000
-2001350
1002
}
  0
LINE
  5
927
330
8E2
100
AcDbEntity
  8
D35160180
100
AcDbLine
 10
0.2300934528299052
 20
-0.9593081440376741
 30
0.0
 11
0.2286514445152008
 21
-0.9596525779120772
 31
0.0
1001
REVIT
1002
{
1070
     2
1000
-2001350
1002
}
  0
LINE
  5
928
330
8E2
100
AcDbEntity
  8
D35160180
100
AcDbLine
 10
0.2718348215319466
 20
0.9016180599994532
 30
0.0
 11
0.254356675670131
 21
0.9391000647577916
 31
0.0
1001
REVIT
1002
{
1070
     2
1000
-2001350
1002
}
  0
LINE
  5
929
330
8E2
100
AcDbEntity
  8
D35160180
100
AcDbLine
 10
0.2755784572136335
 20
0.8947052397989841
 30
0.0
 11
0.277007251917901
 21
0.8925068876770543
 31
0.0
1001
REVIT
1002
{
1070
     2
1000
-2001350
1002
}
  0
LINE
  5
92A
330
8E2
100
AcDbEntity
  8
D35160180
100
AcDbLine
 10
0.277007251917901
 20
0.8925068876770543
 30
0.0
 11
0.2785228143764655
 21
0.8903674305512579
 31
0.0
1001
REVIT
1002
{
1070
     2
1000
-2001350
1002
}
  0
LINE
  5
92B
330
8E2
100
AcDbEntity
  8
D35160180
100
AcDbLine
 10
0.2785228143764655
 20
0.8903674305512579
 30
0.0
 11
0.2801227200126952
 21
0.8882902910965915
 31
0.0
1001
REVIT
1002
{
1070
     2
1000
-2001350
1002
}
  0
LINE
  5
92C
330
8E2
100
AcDbEntity
  8
D35160180
100
AcDbLine
 10
0.2801227200126952
 20
0.8882902910965915
 30
0.0
 11
0.2818044093188661
 21
0.886278792293101
 31
0.0
1001
REVIT
1002
{
1070
     2
1000
-2001350
1002
}
  0
LINE
  5
92D
330
8E2
100
AcDbEntity
  8
D35160180
100
AcDbLine
 10
0.2818044093188661
 20
0.886278792293101
 30
0.0
 11
0.2835651919508351
 21
0.884336152109771
 31
0.0
1001
REVIT
1002
{
1070
     2
1000
-2001350
1002
}
  0
LINE
  5
92E
330
8E2
100
AcDbEntity
  8
D35160180
100
AcDbLine
 10
0.2835651919508351
 20
0.884336152109771
 30
0.0
 11
0.2854022510319964
 21
0.8824654783564829
 31
0.0
1001
REVIT
1002
{
1070
     2
1000
-2001350
1002
}
  0
LINE
  5
92F
330
8E2
100
AcDbEntity
  8
D35160180
100
AcDbLine
 10
0.2854022510319964
 20
0.8824654783564829
 30
0.0
 11
0.2873126476597143
 21
0.8806697637121841
 31
0.0
1001
REVIT
1002
{
1070
     2
1000
-2001350
1002
}
  0
LINE
  5
930
330
8E2
100
AcDbEntity
  8
D35160180
100
AcDbLine
 10
0.2873126476597143
 20
0.8806697637121841
 30
0.0
 11
0.2892933256069092
 21
0.8789518809372401
 31
0.0
1001
REVIT
1002
{
1070
     2
1000
-2001350
1002
}
  0
LINE
  5
931
330
8E2
100
AcDbEntity
  8
D35160180
100
AcDbLine
 10
0.2892933256069092
 20
0.8789518809372401
 30
0.0
 11
0.2913411162113846
 21
0.8773145782776337
 31
0.0
1001
REVIT
1002
{
1070
     2
1000
-2001350
1002
}
  0
LINE
  5
932
330
8E2
100
AcDbEntity
  8
D35160180
100
AcDbLine
 10
0.2913411162113846
 20
0.8773145782776337
 30
0.0
 11
0.2934527434450196
 21
0.8757604750683432
 31
0.0
1001
REVIT
1002
{
1070
     2
1000
-2001350
1002
}
  0
LINE
  5
933
330
8E2
100
AcDbEntity
  8
D35160180
100
AcDbLine
 10
0.2934527434450196
 20
0.8757604750683432
 30
0.0
 11
0.2956248291546899
 21
0.8742920575429875
 31
0.0
1001
REVIT
1002
{
1070
     2
1000
-2001350
1002
}
  0
LINE
  5
934
330
8E2
100
AcDbEntity
  8
D35160180
100
AcDbLine
 10
0.2956248291546899
 20
0.8742920575429875
 30
0.0
 11
0.2978538984666166
 21
0.8729116748563468
 31
0.0
1001
REVIT
1002
{
1070
     2
1000
-2001350
1002
}
  0
LINE
  5
935
330
8E2
100
AcDbEntity
  8
D35160180
100
AcDbLine
 10
0.2978538984666166
 20
0.8729116748563468
 30
0.0
 11
0.3001363853454109
 21
0.8716215353262695
 31
0.0
1001
REVIT
1002
{
1070
     2
1000
-2001350
1002
}
  0
LINE
  5
936
330
8E2
100
AcDbEntity
  8
D35160180
100
AcDbLine
 10
0.3001363853454109
 20
0.8716215353262695
 30
0.0
 11
0.3024686382989685
 21
0.8704237029007762
 31
0.0
1001
REVIT
1002
{
1070
     2
1000
-2001350
1002
}
  0
LINE
  5
937
330
8E2
100
AcDbEntity
  8
D35160180
100
AcDbLine
 10
0.3024686382989685
 20
0.8704237029007762
 30
0.0
 11
0.3048469262200868
 21
0.8693200938562311
 31
0.0
1001
REVIT
1002
{
1070
     2
1000
-2001350
1002
}
  0
LINE
  5
938
330
8E2
100
AcDbEntity
  8
D35160180
100
AcDbLine
 10
0.3048469262200868
 20
0.8693200938562311
 30
0.0
 11
0.3072674443554355
 21
0.8683124737316772
 31
0.0
1001
REVIT
1002
{
1070
     2
1000
-2001350
1002
}
  0
LINE
  5
939
330
8E2
100
AcDbEntity
  8
D35160180
100
AcDbLine
 10
0.3097263203923397
 20
0.8674024545043755
 30
0.0
 11
0.3122196206536785
 21
0.8665914920109505
 31
0.0
1001
REVIT
1002
{
1070
     2
1000
-2001350
1002
}
  0
LINE
  5
93A
330
8E2
100
AcDbEntity
  8
D35160180
100
AcDbLine
 10
0.3172890764641387
 20
-0.865272727672572
 30
0.0
 11
0.3147389846710205
 21
-0.8658820208742561
 31
0.0
1001
REVIT
1002
{
1070
     2
1000
-2001350
1002
}
  0
LINE
  5
93B
330
8E2
100
AcDbEntity
  8
D35160180
100
AcDbLine
 10
0.3147389846710205
 20
-0.8658820208742561
 30
0.0
 11
0.3122152979088035
 21
-0.8665928031792908
 31
0.0
1001
REVIT
1002
{
1070
     2
1000
-2001350
1002
}
  0
LINE
  5
93C
330
8E2
100
AcDbEntity
  8
D35160180
100
AcDbLine
 10
0.3048427915245
 20
-0.8693219130808138
 30
0.0
 11
0.3024645796602741
 21
-0.8704256860138883
 31
0.0
1001
REVIT
1002
{
1070
     2
1000
-2001350
1002
}
  0
LINE
  5
93D
330
8E2
100
AcDbEntity
  8
D35160180
100
AcDbLine
 10
0.3024645796602741
 20
-0.8704256860138883
 30
0.0
 11
0.300132409256566
 21
-0.871623679155366
 31
0.0
1001
REVIT
1002
{
1070
     2
1000
-2001350
1002
}
  0
LINE
  5
93E
330
8E2
100
AcDbEntity
  8
D35160180
100
AcDbLine
 10
0.300132409256566
 20
-0.871623679155366
 30
0.0
 11
0.2978500112885172
 21
-0.8729139759717552
 31
0.0
1001
REVIT
1002
{
1070
     2
1000
-2001350
1002
}
  0
LINE
  5
93F
330
8E2
100
AcDbEntity
  8
D35160180
100
AcDbLine
 10
0.2978500112885172
 20
-0.8729139759717552
 30
0.0
 11
0.2956210371059882
 21
-0.8742945122634074
 31
0.0
1001
REVIT
1002
{
1070
     2
1000
-2001350
1002
}
  0
LINE
  5
940
330
8E2
100
AcDbEntity
  8
D35160180
100
AcDbLine
 10
0.2956210371059882
 20
-0.8742945122634074
 30
0.0
 11
0.2934490525921873
 21
-0.8757630794667504
 31
0.0
1001
REVIT
1002
{
1070
     2
1000
-2001350
1002
}
  0
LINE
  5
941
330
8E2
100
AcDbEntity
  8
D35160180
100
AcDbLine
 10
0.2934490525921873
 20
-0.8757630794667504
 30
0.0
 11
0.2913375324589999
 21
-0.8773173281875477
 31
0.0
1001
REVIT
1002
{
1070
     2
1000
-2001350
1002
}
  0
LINE
  5
942
330
8E2
100
AcDbEntity
  8
D35160180
100
AcDbLine
 10
0.2913375324589999
 20
-0.8773173281875477
 30
0.0
 11
0.2892898546882101
 21
-0.878954771959396
 31
0.0
1001
REVIT
1002
{
1070
     2
1000
-2001350
1002
}
  0
LINE
  5
943
330
8E2
100
AcDbEntity
  8
D35160180
100
AcDbLine
 10
0.2892898546882101
 20
-0.878954771959396
 30
0.0
 11
0.2873092951274323
 21
-0.8806727912215455
 31
0.0
1001
REVIT
1002
{
1070
     2
1000
-2001350
1002
}
  0
LINE
  5
944
330
8E2
100
AcDbEntity
  8
D35160180
100
AcDbLine
 10
0.2873092951274323
 20
-0.8806727912215455
 30
0.0
 11
0.285399022249468
 21
-0.8824686375096922
 31
0.0
1001
REVIT
1002
{
1070
     2
1000
-2001350
1002
}
  0
LINE
  5
945
330
8E2
100
AcDbEntity
  8
D35160180
100
AcDbLine
 10
0.285399022249468
 20
-0.8824686375096922
 30
0.0
 11
0.2835620920834181
 21
-0.8843394378528655
 31
0.0
1001
REVIT
1002
{
1070
     2
1000
-2001350
1002
}
  0
LINE
  5
946
330
8E2
100
AcDbEntity
  8
D35160180
100
AcDbLine
 10
0.2835620920834181
 20
-0.8843394378528655
 30
0.0
 11
0.2818014433256906
 21
-0.8862821993695815
 31
0.0
1001
REVIT
1002
{
1070
     2
1000
-2001350
1002
}
  0
LINE
  5
947
330
8E2
100
AcDbEntity
  8
D35160180
100
AcDbLine
 10
0.2818014433256906
 20
-0.8862821993695815
 30
0.0
 11
0.2801198926387158
 21
-0.888293814055874
 31
0.0
1001
REVIT
1002
{
1070
     2
1000
-2001350
1002
}
  0
LINE
  5
948
330
8E2
100
AcDbEntity
  8
D35160180
100
AcDbLine
 10
0.2801198926387158
 20
-0.888293814055874
 30
0.0
 11
0.2785201301448801
 21
-0.8903710637573388
 31
0.0
1001
REVIT
1002
{
1070
     2
1000
-2001350
1002
}
  0
LINE
  5
949
330
8E2
100
AcDbEntity
  8
D35160180
100
AcDbLine
 10
0.2785201301448801
 20
-0.8903710637573388
 30
0.0
 11
0.2770047151229065
 21
-0.8925106253175909
 31
0.0
1001
REVIT
1002
{
1070
     2
1000
-2001350
1002
}
  0
LINE
  5
94A
330
8E2
100
AcDbEntity
  8
D35160180
100
AcDbLine
 10
0.2770047151229065
 20
-0.8925106253175909
 30
0.0
 11
0.2755760719135623
 21
-0.8947090758945568
 31
0.0
1001
REVIT
1002
{
1070
     2
1000
-2001350
1002
}
  0
LINE
  5
94B
330
8E2
100
AcDbEntity
  8
D35160180
100
AcDbLine
 10
0.3625100120070073
 20
0.8572458138460097
 30
0.0
 11
0.3198614936852984
 21
0.8647658983133721
 31
0.0
1001
REVIT
1002
{
1070
     2
1000
-2001350
1002
}
  0
LINE
  5
94C
330
8E2
100
AcDbEntity
  8
D35160180
100
AcDbLine
 10
0.3198614936852735
 20
-0.8647658983133865
 30
0.0
 11
0.362510012006986
 21
-0.8572458138460241
 31
0.0
1001
REVIT
1002
{
1070
     2
1000
-2001350
1002
}
  0
LINE
  5
94D
330
8E2
100
AcDbEntity
  8
D35160180
100
AcDbLine
 10
4.001335615263176
 20
-0.0000000000000078
 30
0.0
 11
4.001034586911291
 21
0.0150494106850473
 31
0.0
1001
REVIT
1002
{
1070
     2
1000
-2001350
1002
}
  0
LINE
  5
94E
330
8E2
100
AcDbEntity
  8
D35160180
100
AcDbLine
 10
4.001034586911291
 20
0.0150494106850473
 30
0.0
 11
4.000131983436784
 21
0.0300747455234102
 31
0.0
1001
REVIT
1002
{
1070
     2
1000
-2001350
1002
}
  0
LINE
  5
94F
330
8E2
100
AcDbEntity
  8
D35160180
100
AcDbLine
 10
4.000131983436784
 20
0.0300747455234102
 30
0.0
 11
3.998629248812662
 21
0.0450519671845441
 31
0.0
1001
REVIT
1002
{
1070
     2
1000
-2001350
1002
}
  0
LINE
  5
950
330
8E2
100
AcDbEntity
  8
D35160180
100
AcDbLine
 10
3.996528787093762
 20
0.0599571153087581
 30
0.0
 11
3.99383395857076
 21
0.0747663448386568
 31
0.0
1001
REVIT
1002
{
1070
     2
1000
-2001350
1002
}
  0
LINE
  5
951
330
8E2
100
AcDbEntity
  8
D35160180
100
AcDbLine
 10
3.99383395857076
 20
0.0747663448386568
 30
0.0
 11
3.990549074394426
 21
0.0894559641660983
 31
0.0
1001
REVIT
1002
{
1070
     2
1000
-2001350
1002
}
  0
LINE
  5
952
330
8E2
100
AcDbEntity
  8
D35160180
100
AcDbLine
 10
3.990549074394426
 20
0.0894559641660983
 30
0.0
 11
3.986679389678702
 21
0.1040024730338011
 31
0.0
1001
REVIT
1002
{
1070
     2
1000
-2001350
1002
}
  0
LINE
  5
953
330
8E2
100
AcDbEntity
  8
D35160180
100
AcDbLine
 10
3.971628055872983
 20
0.1465519914474839
 30
0.0
 11
3.965490273838259
 21
0.1602961906504766
 31
0.0
1001
REVIT
1002
{
1070
     2
1000
-2001350
1002
}
  0
LINE
  5
954
330
8E2
100
AcDbEntity
  8
D35160180
100
AcDbLine
 10
3.965490273838259
 20
0.1602961906504766
 30
0.0
 11
3.958807779999446
 21
0.1737839501431281
 31
0.0
1001
REVIT
1002
{
1070
     2
1000
-2001350
1002
}
  0
LINE
  5
955
330
8E2
100
AcDbEntity
  8
D35160180
100
AcDbLine
 10
3.958807779999446
 20
0.1737839501431281
 30
0.0
 11
3.951591264921162
 21
0.1869936923874846
 31
0.0
1001
REVIT
1002
{
1070
     2
1000
-2001350
1002
}
  0
LINE
  5
956
330
8E2
100
AcDbEntity
  8
D35160180
100
AcDbLine
 10
3.917628307522967
 20
0.2366372095672055
 30
0.0
 11
3.907931271634591
 21
0.2481499362215153
 31
0.0
1001
REVIT
1002
{
1070
     2
1000
-2001350
1002
}
  0
LINE
  5
957
330
8E2
100
AcDbEntity
  8
D35160180
100
AcDbLine
 10
3.897781606067056
 20
0.2592656759137056
 30
0.0
 11
3.887195548120114
 21
0.2699666458314978
 31
0.0
1001
REVIT
1002
{
1070
     2
1000
-2001350
1002
}
  0
LINE
  5
958
330
8E2
100
AcDbEntity
  8
D35160180
100
AcDbLine
 10
3.887195548120114
 20
0.2699666458314978
 30
0.0
 11
3.876190033228251
 21
0.2802357267057643
 31
0.0
1001
REVIT
1002
{
1070
     2
1000
-2001350
1002
}
  0
LINE
  5
959
330
8E2
100
AcDbEntity
  8
D35160180
100
AcDbLine
 10
3.852991701389207
 20
0.2994132251808096
 30
0.0
 11
3.840835996824257
 21
0.3082909628750158
 31
0.0
1001
REVIT
1002
{
1070
     2
1000
-2001350
1002
}
  0
LINE
  5
95A
330
8E2
100
AcDbEntity
  8
D35160180
100
AcDbLine
 10
3.840835996824257
 20
0.3082909628750158
 30
0.0
 11
3.828335000706946
 21
0.3166755007938447
 31
0.0
1001
REVIT
1002
{
1070
     2
1000
-2001350
1002
}
  0
LINE
  5
95B
330
8E2
100
AcDbEntity
  8
D35160180
100
AcDbLine
 10
3.815508711964323
 20
0.3245534254652354
 30
0.0
 11
3.802377649922249
 21
0.3319121338902661
 31
0.0
1001
REVIT
1002
{
1070
     2
1000
-2001350
1002
}
  0
LINE
  5
95C
330
8E2
100
AcDbEntity
  8
D35160180
100
AcDbLine
 10
3.674083086672769
 20
0.3731210874746075
 30
0.0
 11
3.659122961579576
 21
0.3747854303579594
 31
0.0
1001
REVIT
1002
{
1070
     2
1000
-2001350
1002
}
  0
LINE
  5
95D
330
8E2
100
AcDbEntity
  8
D35160180
100
AcDbLine
 10
3.659122961579576
 20
0.3747854303579594
 30
0.0
 11
3.644108247027034
 21
0.3758501965027065
 31
0.0
1001
REVIT
1002
{
1070
     2
1000
-2001350
1002
}
  0
LINE
  5
95E
330
8E2
100
AcDbEntity
  8
D35160180
100
AcDbLine
 10
3.644108247027034
 20
0.3758501965027065
 30
0.0
 11
3.629062963355455
 21
0.3763136825101363
 31
0.0
1001
REVIT
1002
{
1070
     2
1000
-2001350
1002
}
  0
LINE
  5
95F
330
8E2
100
AcDbEntity
  8
D35160180
100
AcDbLine
 10
3.583984403540139
 20
0.3740938600974665
 30
0.0
 11
3.569057447253932
 21
0.3721544385169182
 31
0.0
1001
REVIT
1002
{
1070
     2
1000
-2001350
1002
}
  0
LINE
  5
960
330
8E2
100
AcDbEntity
  8
D35160180
100
AcDbLine
 10
3.510481007899347
 20
0.3584883481563274
 30
0.0
 11
3.496236900521878
 21
0.3536220574686901
 31
0.0
1001
REVIT
1002
{
1070
     2
1000
-2001350
1002
}
  0
LINE
  5
961
330
8E2
100
AcDbEntity
  8
D35160180
100
AcDbLine
 10
3.441543123088028
 20
0.3285910370495941
 30
0.0
 11
3.428549732230557
 21
0.3209918809081274
 31
0.0
1001
REVIT
1002
{
1070
     2
1000
-2001350
1002
}
  0
LINE
  5
962
330
8E2
100
AcDbEntity
  8
D35160180
100
AcDbLine
 10
3.428549732230557
 20
0.3209918809081274
 30
0.0
 11
3.415870619894359
 21
0.3128792062318297
 31
0.0
1001
REVIT
1002
{
1070
     2
1000
-2001350
1002
}
  0
LINE
  5
963
330
8E2
100
AcDbEntity
  8
D35160180
100
AcDbLine
 10
3.415870619894359
 20
0.3128792062318297
 30
0.0
 11
3.403526069954445
 21
0.3042659915695716
 31
0.0
1001
REVIT
1002
{
1070
     2
1000
-2001350
1002
}
  0
LINE
  5
964
330
8E2
100
AcDbEntity
  8
D35160180
100
AcDbLine
 10
3.39153583105735
 20
0.295166016227401
 30
0.0
 11
3.37991908502753
 21
0.2855938382246734
 31
0.0
1001
REVIT
1002
{
1070
     2
1000
-2001350
1002
}
  0
LINE
  5
965
330
8E2
100
AcDbEntity
  8
D35160180
100
AcDbLine
 10
3.368694416180527
 20
0.2755647710042119
 30
0.0
 11
3.357879781592025
 21
0.2650948589341653
 31
0.0
1001
REVIT
1002
{
1070
     2
1000
-2001350
1002
}
  0
LINE
  5
966
330
8E2
100
AcDbEntity
  8
D35160180
100
AcDbLine
 10
3.347492482370366
 20
0.2542008516403797
 30
0.0
 11
3.337549135978473
 21
0.2429001772105857
 31
0.0
1001
REVIT
1002
{
1070
     2
1000
-2001350
1002
}
  0
LINE
  5
967
330
8E2
100
AcDbEntity
  8
D35160180
100
AcDbLine
 10
3.323142799456398
 20
-0.2247459138576075
 30
0.0
 11
3.33237169247678
 21
-0.2366372095673169
 31
0.0
1001
REVIT
1002
{
1070
     2
1000
-2001350
1002
}
  0
LINE
  5
968
330
8E2
100
AcDbEntity
  8
D35160180
100
AcDbLine
 10
3.33237169247678
 20
-0.2366372095673169
 30
0.0
 11
3.342068728365152
 21
-0.2481499362216161
 31
0.0
1001
REVIT
1002
{
1070
     2
1000
-2001350
1002
}
  0
LINE
  5
969
330
8E2
100
AcDbEntity
  8
D35160180
100
AcDbLine
 10
3.342068728365152
 20
-0.2481499362216161
 30
0.0
 11
3.352218393932691
 21
-0.2592656759138064
 31
0.0
1001
REVIT
1002
{
1070
     2
1000
-2001350
1002
}
  0
LINE
  5
96A
330
8E2
100
AcDbEntity
  8
D35160180
100
AcDbLine
 10
3.352218393932691
 20
-0.2592656759138064
 30
0.0
 11
3.362804451879632
 21
-0.2699666458315987
 31
0.0
1001
REVIT
1002
{
1070
     2
1000
-2001350
1002
}
  0
LINE
  5
96B
330
8E2
100
AcDbEntity
  8
D35160180
100
AcDbLine
 10
3.409164003175487
 20
-0.3082909628751166
 30
0.0
 11
3.421664999292797
 21
-0.3166755007939455
 31
0.0
1001
REVIT
1002
{
1070
     2
1000
-2001350
1002
}
  0
LINE
  5
96C
330
8E2
100
AcDbEntity
  8
D35160180
100
AcDbLine
 10
3.421664999292797
 20
-0.3166755007939455
 30
0.0
 11
3.43449128803542
 21
-0.3245534254653469
 31
0.0
1001
REVIT
1002
{
1070
     2
1000
-2001350
1002
}
  0
LINE
  5
96D
330
8E2
100
AcDbEntity
  8
D35160180
100
AcDbLine
 10
3.43449128803542
 20
-0.3245534254653469
 30
0.0
 11
3.447622350077498
 21
-0.3319121338903669
 31
0.0
1001
REVIT
1002
{
1070
     2
1000
-2001350
1002
}
  0
LINE
  5
96E
330
8E2
100
AcDbEntity
  8
D35160180
100
AcDbLine
 10
3.474714312501799
 20
-0.3450256620149799
 30
0.0
 11
3.488631871523459
 21
-0.3507595028669754
 31
0.0
1001
REVIT
1002
{
1070
     2
1000
-2001350
1002
}
  0
LINE
  5
96F
330
8E2
100
AcDbEntity
  8
D35160180
100
AcDbLine
 10
3.488631871523459
 20
-0.3507595028669754
 30
0.0
 11
3.502767590460365
 21
-0.3559322033390805
 31
0.0
1001
REVIT
1002
{
1070
     2
1000
-2001350
1002
}
  0
LINE
  5
970
330
8E2
100
AcDbEntity
  8
D35160180
100
AcDbLine
 10
3.517098855177678
 20
-0.3605354882140054
 30
0.0
 11
3.531602738709022
 21
-0.3645619932179087
 31
0.0
1001
REVIT
1002
{
1070
     2
1000
-2001350
1002
}
  0
LINE
  5
971
330
8E2
100
AcDbEntity
  8
D35160180
100
AcDbLine
 10
3.531602738709022
 20
-0.3645619932179087
 30
0.0
 11
3.546256037934746
 21
-0.3680052768017467
 31
0.0
1001
REVIT
1002
{
1070
     2
1000
-2001350
1002
}
  0
LINE
  5
972
330
8E2
100
AcDbEntity
  8
D35160180
100
AcDbLine
 10
3.56103531070196
 20
-0.3708598304463108
 30
0.0
 11
3.575916913326974
 21
-0.3731210874747084
 31
0.0
1001
REVIT
1002
{
1070
     2
1000
-2001350
1002
}
  0
LINE
  5
973
330
8E2
100
AcDbEntity
  8
D35160180
100
AcDbLine
 10
3.620937036644289
 20
-0.3763136825102371
 30
0.0
 11
3.635988820190515
 21
-0.3761751469016416
 31
0.0
1001
REVIT
1002
{
1070
     2
1000
-2001350
1002
}
  0
LINE
  5
974
330
8E2
100
AcDbEntity
  8
D35160180
100
AcDbLine
 10
3.725091678764986
 20
-0.3627811339604505
 30
0.0
 11
3.7395189921004
 21
-0.3584883481564389
 31
0.0
1001
REVIT
1002
{
1070
     2
1000
-2001350
1002
}
  0
LINE
  5
975
330
8E2
100
AcDbEntity
  8
D35160180
100
AcDbLine
 10
3.7395189921004
 20
-0.3584883481564389
 30
0.0
 11
3.753763099477868
 21
-0.3536220574688015
 31
0.0
1001
REVIT
1002
{
1070
     2
1000
-2001350
1002
}
  0
LINE
  5
976
330
8E2
100
AcDbEntity
  8
D35160180
100
AcDbLine
 10
3.767801213364165
 20
-0.3481900469245722
 30
0.0
 11
3.781610875771715
 21
-0.3422010065818426
 31
0.0
1001
REVIT
1002
{
1070
     2
1000
-2001350
1002
}
  0
LINE
  5
977
330
8E2
100
AcDbEntity
  8
D35160180
100
AcDbLine
 10
3.781610875771715
 20
-0.3422010065818426
 30
0.0
 11
3.795169994186569
 21
-0.3356645176275605
 31
0.0
1001
REVIT
1002
{
1070
     2
1000
-2001350
1002
}
  0
LINE
  5
978
330
8E2
100
AcDbEntity
  8
D35160180
100
AcDbLine
 10
3.808456876911719
 20
-0.3285910370496949
 30
0.0
 11
3.82145026776919
 21
-0.3209918809082388
 31
0.0
1001
REVIT
1002
{
1070
     2
1000
-2001350
1002
}
  0
LINE
  5
979
330
8E2
100
AcDbEntity
  8
D35160180
100
AcDbLine
 10
3.82145026776919
 20
-0.3209918809082388
 30
0.0
 11
3.834129380105387
 21
-0.3128792062319412
 31
0.0
1001
REVIT
1002
{
1070
     2
1000
-2001350
1002
}
  0
LINE
  5
97A
330
8E2
100
AcDbEntity
  8
D35160180
100
AcDbLine
 10
3.834129380105387
 20
-0.3128792062319412
 30
0.0
 11
3.846473930045302
 21
-0.3042659915696724
 31
0.0
1001
REVIT
1002
{
1070
     2
1000
-2001350
1002
}
  0
LINE
  5
97B
330
8E2
100
AcDbEntity
  8
D35160180
100
AcDbLine
 10
3.870080914972216
 20
-0.2855938382247742
 30
0.0
 11
3.881305583819219
 21
-0.2755647710043234
 31
0.0
1001
REVIT
1002
{
1070
     2
1000
-2001350
1002
}
  0
LINE
  5
97C
330
8E2
100
AcDbEntity
  8
D35160180
100
AcDbLine
 10
3.881305583819219
 20
-0.2755647710043234
 30
0.0
 11
3.892120218407722
 21
-0.2650948589342661
 31
0.0
1001
REVIT
1002
{
1070
     2
1000
-2001350
1002
}
  0
LINE
  5
97D
330
8E2
100
AcDbEntity
  8
D35160180
100
AcDbLine
 10
3.912450864021273
 20
-0.2429001772106972
 30
0.0
 11
3.921934350350316
 21
-0.2312109143133021
 31
0.0
1001
REVIT
1002
{
1070
     2
1000
-2001350
1002
}
  0
LINE
  5
97E
330
8E2
100
AcDbEntity
  8
D35160180
100
AcDbLine
 10
3.921934350350316
 20
-0.2312109143133021
 30
0.0
 11
3.930942805061416
 21
-0.219151763275385
 31
0.0
1001
REVIT
1002
{
1070
     2
1000
-2001350
1002
}
  0
LINE
  5
97F
330
8E2
100
AcDbEntity
  8
D35160180
100
AcDbLine
 10
3.939461816548732
 20
-0.206742016166104
 30
0.0
 11
3.947477756211178
 21
-0.1940015259335659
 31
0.0
1001
REVIT
1002
{
1070
     2
1000
-2001350
1002
}
  0
LINE
  5
980
330
8E2
100
AcDbEntity
  8
D35160180
100
AcDbLine
 10
3.947477756211178
 20
-0.1940015259335659
 30
0.0
 11
3.954977800255274
 21
-0.1809506746443226
 31
0.0
1001
REVIT
1002
{
1070
     2
1000
-2001350
1002
}
  0
LINE
  5
981
330
8E2
100
AcDbEntity
  8
D35160180
100
AcDbLine
 10
3.961949950210474
 20
-0.1676103408763978
 30
0.0
 11
3.968383052124156
 21
-0.1540018663180376
 31
0.0
1001
REVIT
1002
{
1070
     2
1000
-2001350
1002
}
  0
LINE
  5
982
330
8E2
100
AcDbEntity
  8
D35160180
100
AcDbLine
 10
3.968383052124156
 20
-0.1540018663180376
 30
0.0
 11
3.974266814405584
 21
-0.1401470216255489
 31
0.0
1001
REVIT
1002
{
1070
     2
1000
-2001350
1002
}
  0
LINE
  5
983
330
8E2
100
AcDbEntity
  8
D35160180
100
AcDbLine
 10
3.974266814405584
 20
-0.1401470216255489
 30
0.0
 11
3.979591824290242
 21
-0.1260679715948932
 31
0.0
1001
REVIT
1002
{
1070
     2
1000
-2001350
1002
}
  0
LINE
  5
984
330
8E2
100
AcDbEntity
  8
D35160180
100
AcDbLine
 10
3.979591824290242
 20
-0.1260679715948932
 30
0.0
 11
3.984349562898255
 21
-0.111787239702754
 31
0.0
1001
REVIT
1002
{
1070
     2
1000
-2001350
1002
}
  0
LINE
  5
985
330
8E2
100
AcDbEntity
  8
D35160180
100
AcDbLine
 10
3.984349562898255
 20
-0.111787239702754
 30
0.0
 11
3.988532418862785
 21
-0.0973276720737609
 31
0.0
1001
REVIT
1002
{
1070
     2
1000
-2001350
1002
}
  0
LINE
  5
986
330
8E2
100
AcDbEntity
  8
D35160180
100
AcDbLine
 10
3.988532418862785
 20
-0.0973276720737609
 30
0.0
 11
3.992133700506581
 21
-0.0827124009315917
 31
0.0
1001
REVIT
1002
{
1070
     2
1000
-2001350
1002
}
  0
LINE
  5
987
330
8E2
100
AcDbEntity
  8
D35160180
100
AcDbLine
 10
3.992133700506581
 20
-0.0827124009315917
 30
0.0
 11
3.995147646547248
 21
-0.067964807592287
 31
0.0
1001
REVIT
1002
{
1070
     2
1000
-2001350
1002
}
  0
LINE
  5
988
330
8E2
100
AcDbEntity
  8
D35160180
100
AcDbLine
 10
3.999395192461602
 20
-0.0381672002792868
 30
0.0
 11
4.000621997167925
 21
-0.0231648561207905
 31
0.0
1001
REVIT
1002
{
1070
     2
1000
-2001350
1002
}
  0
LINE
  5
989
330
8E2
100
AcDbEntity
  8
D35160180
100
AcDbLine
 10
3.998629248812662
 20
0.0450519671845441
 30
0.0
 11
3.996528787093762
 21
0.0599571153087581
 31
0.0
1001
REVIT
1002
{
1070
     2
1000
-2001350
1002
}
  0
LINE
  5
98A
330
8E2
100
AcDbEntity
  8
D35160180
100
AcDbLine
 10
3.986679389678705
 20
0.1040024730337904
 30
0.0
 11
3.982231095093656
 21
0.1183826001306577
 31
0.0
1001
REVIT
1002
{
1070
     2
1000
-2001350
1002
}
  0
LINE
  5
98B
330
8E2
100
AcDbEntity
  8
D35160180
100
AcDbLine
 10
3.982231095093656
 20
0.1183826001306577
 30
0.0
 11
3.977211306961688
 21
0.1325733403209198
 31
0.0
1001
REVIT
1002
{
1070
     2
1000
-2001350
1002
}
  0
LINE
  5
98C
330
8E2
100
AcDbEntity
  8
D35160180
100
AcDbLine
 10
3.977211306961688
 20
0.1325733403209198
 30
0.0
 11
3.971628055872987
 21
0.1465519914474626
 31
0.0
1001
REVIT
1002
{
1070
     2
1000
-2001350
1002
}
  0
LINE
  5
98D
330
8E2
100
AcDbEntity
  8
D35160180
100
AcDbLine
 10
3.951591264921169
 20
0.1869936923874526
 30
0.0
 11
3.943852273488097
 21
0.1999042846138465
 31
0.0
1001
REVIT
1002
{
1070
     2
1000
-2001350
1002
}
  0
LINE
  5
98E
330
8E2
100
AcDbEntity
  8
D35160180
100
AcDbLine
 10
3.943852273488097
 20
0.1999042846138465
 30
0.0
 11
3.935603186435638
 21
0.212495072628829
 31
0.0
1001
REVIT
1002
{
1070
     2
1000
-2001350
1002
}
  0
LINE
  5
98F
330
8E2
100
AcDbEntity
  8
D35160180
100
AcDbLine
 10
3.935603186435638
 20
0.212495072628829
 30
0.0
 11
3.926857200543359
 21
0.2247459138574747
 31
0.0
1001
REVIT
1002
{
1070
     2
1000
-2001350
1002
}
  0
LINE
  5
990
330
8E2
100
AcDbEntity
  8
D35160180
100
AcDbLine
 10
3.926857200543359
 20
0.2247459138574747
 30
0.0
 11
3.917628307522981
 21
0.2366372095671735
 31
0.0
1001
REVIT
1002
{
1070
     2
1000
-2001350
1002
}
  0
LINE
  5
991
330
8E2
100
AcDbEntity
  8
D35160180
100
AcDbLine
 10
3.907931271634605
 20
0.2481499362214833
 30
0.0
 11
3.89778160606707
 21
0.2592656759136736
 31
0.0
1001
REVIT
1002
{
1070
     2
1000
-2001350
1002
}
  0
LINE
  5
992
330
8E2
100
AcDbEntity
  8
D35160180
100
AcDbLine
 10
3.876190033228269
 20
0.2802357267057217
 30
0.0
 11
3.86478266786759
 21
0.2900564901976984
 31
0.0
1001
REVIT
1002
{
1070
     2
1000
-2001350
1002
}
  0
LINE
  5
993
330
8E2
100
AcDbEntity
  8
D35160180
100
AcDbLine
 10
3.86478266786759
 20
0.2900564901976984
 30
0.0
 11
3.852991701389228
 21
0.2994132251807669
 31
0.0
1001
REVIT
1002
{
1070
     2
1000
-2001350
1002
}
  0
LINE
  5
994
330
8E2
100
AcDbEntity
  8
D35160180
100
AcDbLine
 10
3.828335000706971
 20
0.3166755007938021
 30
0.0
 11
3.815508711964351
 21
0.3245534254651928
 31
0.0
1001
REVIT
1002
{
1070
     2
1000
-2001350
1002
}
  0
LINE
  5
995
330
8E2
100
AcDbEntity
  8
D35160180
100
AcDbLine
 10
3.802377649922277
 20
0.3319121338902234
 30
0.0
 11
3.788962821478875
 21
0.3387398537051701
 31
0.0
1001
REVIT
1002
{
1070
     2
1000
-2001350
1002
}
  0
LINE
  5
996
330
8E2
100
AcDbEntity
  8
D35160180
100
AcDbLine
 10
3.788962821478875
 20
0.3387398537051701
 30
0.0
 11
3.77528568749798
 21
0.3450256620148366
 31
0.0
1001
REVIT
1002
{
1070
     2
1000
-2001350
1002
}
  0
LINE
  5
997
330
8E2
100
AcDbEntity
  8
D35160180
100
AcDbLine
 10
3.77528568749798
 20
0.3450256620148366
 30
0.0
 11
3.76136812847632
 21
0.3507595028668213
 31
0.0
1001
REVIT
1002
{
1070
     2
1000
-2001350
1002
}
  0
LINE
  5
998
330
8E2
100
AcDbEntity
  8
D35160180
100
AcDbLine
 10
3.76136812847632
 20
0.3507595028668213
 30
0.0
 11
3.747232409539417
 21
0.3559322033389265
 31
0.0
1001
REVIT
1002
{
1070
     2
1000
-2001350
1002
}
  0
LINE
  5
999
330
8E2
100
AcDbEntity
  8
D35160180
100
AcDbLine
 10
3.747232409539417
 20
0.3559322033389265
 30
0.0
 11
3.732901144822104
 21
0.3605354882138513
 31
0.0
1001
REVIT
1002
{
1070
     2
1000
-2001350
1002
}
  0
LINE
  5
99A
330
8E2
100
AcDbEntity
  8
D35160180
100
AcDbLine
 10
3.732901144822104
 20
0.3605354882138513
 30
0.0
 11
3.718397261290764
 21
0.3645619932177546
 31
0.0
1001
REVIT
1002
{
1070
     2
1000
-2001350
1002
}
  0
LINE
  5
99B
330
8E2
100
AcDbEntity
  8
D35160180
100
AcDbLine
 10
3.718397261290764
 20
0.3645619932177546
 30
0.0
 11
3.70374396206504
 21
0.3680052768015926
 31
0.0
1001
REVIT
1002
{
1070
     2
1000
-2001350
1002
}
  0
LINE
  5
99C
330
8E2
100
AcDbEntity
  8
D35160180
100
AcDbLine
 10
3.70374396206504
 20
0.3680052768015926
 30
0.0
 11
3.688964689297829
 21
0.3708598304461567
 31
0.0
1001
REVIT
1002
{
1070
     2
1000
-2001350
1002
}
  0
LINE
  5
99D
330
8E2
100
AcDbEntity
  8
D35160180
100
AcDbLine
 10
3.688964689297829
 20
0.3708598304461567
 30
0.0
 11
3.674083086672816
 21
0.3731210874745543
 31
0.0
1001
REVIT
1002
{
1070
     2
1000
-2001350
1002
}
  0
LINE
  5
99E
330
8E2
100
AcDbEntity
  8
D35160180
100
AcDbLine
 10
3.629062963355508
 20
0.376313682510083
 30
0.0
 11
3.614011179809281
 21
0.3761751469014769
 31
0.0
1001
REVIT
1002
{
1070
     2
1000
-2001350
1002
}
  0
LINE
  5
99F
330
8E2
100
AcDbEntity
  8
D35160180
100
AcDbLine
 10
3.614011179809281
 20
0.3761751469014769
 30
0.0
 11
3.598976976031206
 21
0.3754348113042447
 31
0.0
1001
REVIT
1002
{
1070
     2
1000
-2001350
1002
}
  0
LINE
  5
9A0
330
8E2
100
AcDbEntity
  8
D35160180
100
AcDbLine
 10
3.598976976031206
 20
0.3754348113042447
 30
0.0
 11
3.583984403540195
 21
0.3740938600974132
 31
0.0
1001
REVIT
1002
{
1070
     2
1000
-2001350
1002
}
  0
LINE
  5
9A1
330
8E2
100
AcDbEntity
  8
D35160180
100
AcDbLine
 10
3.569057447253996
 20
0.3721544385168649
 30
0.0
 11
3.554219987118411
 21
0.3696196492233945
 31
0.0
1001
REVIT
1002
{
1070
     2
1000
-2001350
1002
}
  0
LINE
  5
9A2
330
8E2
100
AcDbEntity
  8
D35160180
100
AcDbLine
 10
3.554219987118411
 20
0.3696196492233945
 30
0.0
 11
3.539495759904507
 21
0.3664935473391495
 31
0.0
1001
REVIT
1002
{
1070
     2
1000
-2001350
1002
}
  0
LINE
  5
9A3
330
8E2
100
AcDbEntity
  8
D35160180
100
AcDbLine
 10
3.539495759904507
 20
0.3664935473391495
 30
0.0
 11
3.524908321234828
 21
0.3627811339602964
 31
0.0
1001
REVIT
1002
{
1070
     2
1000
-2001350
1002
}
  0
LINE
  5
9A4
330
8E2
100
AcDbEntity
  8
D35160180
100
AcDbLine
 10
3.524908321234828
 20
0.3627811339602964
 30
0.0
 11
3.510481007899418
 21
0.3584883481562741
 31
0.0
1001
REVIT
1002
{
1070
     2
1000
-2001350
1002
}
  0
LINE
  5
9A5
330
8E2
100
AcDbEntity
  8
D35160180
100
AcDbLine
 10
3.496236900521953
 20
0.3536220574686474
 30
0.0
 11
3.482198786635656
 21
0.3481900469244181
 31
0.0
1001
REVIT
1002
{
1070
     2
1000
-2001350
1002
}
  0
LINE
  5
9A6
330
8E2
100
AcDbEntity
  8
D35160180
100
AcDbLine
 10
3.482198786635656
 20
0.3481900469244181
 30
0.0
 11
3.468389124228107
 21
0.3422010065816885
 31
0.0
1001
REVIT
1002
{
1070
     2
1000
-2001350
1002
}
  0
LINE
  5
9A7
330
8E2
100
AcDbEntity
  8
D35160180
100
AcDbLine
 10
3.468389124228107
 20
0.3422010065816885
 30
0.0
 11
3.454830005813256
 21
0.3356645176274065
 31
0.0
1001
REVIT
1002
{
1070
     2
1000
-2001350
1002
}
  0
LINE
  5
9A8
330
8E2
100
AcDbEntity
  8
D35160180
100
AcDbLine
 10
3.454830005813256
 20
0.3356645176274065
 30
0.0
 11
3.441543123088106
 21
0.3285910370495515
 31
0.0
1001
REVIT
1002
{
1070
     2
1000
-2001350
1002
}
  0
LINE
  5
9A9
330
8E2
100
AcDbEntity
  8
D35160180
100
AcDbLine
 10
3.40352606995453
 20
0.3042659915695183
 30
0.0
 11
3.391535831057435
 21
0.295166016227369
 31
0.0
1001
REVIT
1002
{
1070
     2
1000
-2001350
1002
}
  0
LINE
  5
9AA
330
8E2
100
AcDbEntity
  8
D35160180
100
AcDbLine
 10
3.379919085027619
 20
0.2855938382246308
 30
0.0
 11
3.368694416180616
 21
0.2755647710041693
 31
0.0
1001
REVIT
1002
{
1070
     2
1000
-2001350
1002
}
  0
LINE
  5
9AB
330
8E2
100
AcDbEntity
  8
D35160180
100
AcDbLine
 10
3.357879781592114
 20
0.2650948589341333
 30
0.0
 11
3.347492482370459
 21
0.2542008516403371
 31
0.0
1001
REVIT
1002
{
1070
     2
1000
-2001350
1002
}
  0
LINE
  5
9AC
330
8E2
100
AcDbEntity
  8
D35160180
100
AcDbLine
 10
3.337549135978566
 20
0.2429001772105537
 30
0.0
 11
3.328065649649527
 21
0.2312109143131694
 31
0.0
1001
REVIT
1002
{
1070
     2
1000
-2001350
1002
}
  0
LINE
  5
9AD
330
8E2
100
AcDbEntity
  8
D35160180
100
AcDbLine
 10
3.328065649649527
 20
0.2312109143131694
 30
0.0
 11
3.31905719493843
 21
0.2191517632752416
 31
0.0
1001
REVIT
1002
{
1070
     2
1000
-2001350
1002
}
  0
LINE
  5
9AE
330
8E2
100
AcDbEntity
  8
D35160180
100
AcDbLine
 10
3.31905719493843
 20
0.2191517632752416
 30
0.0
 11
3.310538183451114
 21
0.2067420161659606
 31
0.0
1001
REVIT
1002
{
1070
     2
1000
-2001350
1002
}
  0
LINE
  5
9AF
330
8E2
100
AcDbEntity
  8
D35160180
100
AcDbLine
 10
3.310538183451114
 20
0.2067420161659606
 30
0.0
 11
3.302522243788665
 21
0.1940015259334331
 31
0.0
1001
REVIT
1002
{
1070
     2
1000
-2001350
1002
}
  0
LINE
  5
9B0
330
8E2
100
AcDbEntity
  8
D35160180
100
AcDbLine
 10
3.302522243788665
 20
0.1940015259334331
 30
0.0
 11
3.295022199744572
 21
0.1809506746441898
 31
0.0
1001
REVIT
1002
{
1070
     2
1000
-2001350
1002
}
  0
LINE
  5
9B1
330
8E2
100
AcDbEntity
  8
D35160180
100
AcDbLine
 10
3.295022199744572
 20
0.1809506746441898
 30
0.0
 11
3.288050049789376
 21
0.1676103408762757
 31
0.0
1001
REVIT
1002
{
1070
     2
1000
-2001350
1002
}
  0
LINE
  5
9B2
330
8E2
100
AcDbEntity
  8
D35160180
100
AcDbLine
 10
3.288050049789376
 20
0.1676103408762757
 30
0.0
 11
3.281616947875694
 21
0.1540018663179155
 31
0.0
1001
REVIT
1002
{
1070
     2
1000
-2001350
1002
}
  0
LINE
  5
9B3
330
8E2
100
AcDbEntity
  8
D35160180
100
AcDbLine
 10
3.281616947875694
 20
0.1540018663179155
 30
0.0
 11
3.275733185594265
 21
0.1401470216254268
 31
0.0
1001
REVIT
1002
{
1070
     2
1000
-2001350
1002
}
  0
LINE
  5
9B4
330
8E2
100
AcDbEntity
  8
D35160180
100
AcDbLine
 10
3.275733185594265
 20
0.1401470216254268
 30
0.0
 11
3.270408175709608
 21
0.126067971594771
 31
0.0
1001
REVIT
1002
{
1070
     2
1000
-2001350
1002
}
  0
LINE
  5
9B5
330
8E2
100
AcDbEntity
  8
D35160180
100
AcDbLine
 10
3.270408175709608
 20
0.126067971594771
 30
0.0
 11
3.265650437101594
 21
0.1117872397026319
 31
0.0
1001
REVIT
1002
{
1070
     2
1000
-2001350
1002
}
  0
LINE
  5
9B6
330
8E2
100
AcDbEntity
  8
D35160180
100
AcDbLine
 10
3.265650437101594
 20
0.1117872397026319
 30
0.0
 11
3.261467581137065
 21
0.0973276720736494
 31
0.0
1001
REVIT
1002
{
1070
     2
1000
-2001350
1002
}
  0
LINE
  5
9B7
330
8E2
100
AcDbEntity
  8
D35160180
100
AcDbLine
 10
3.261467581137065
 20
0.0973276720736494
 30
0.0
 11
3.257866299493269
 21
0.0827124009314696
 31
0.0
1001
REVIT
1002
{
1070
     2
1000
-2001350
1002
}
  0
LINE
  5
9B8
330
8E2
100
AcDbEntity
  8
D35160180
100
AcDbLine
 10
3.257866299493269
 20
0.0827124009314696
 30
0.0
 11
3.254852353452605
 21
0.0679648075921756
 31
0.0
1001
REVIT
1002
{
1070
     2
1000
-2001350
1002
}
  0
LINE
  5
9B9
330
8E2
100
AcDbEntity
  8
D35160180
100
AcDbLine
 10
3.254852353452605
 20
0.0679648075921756
 30
0.0
 11
3.252430564685798
 21
0.0531084850591158
 31
0.0
1001
REVIT
1002
{
1070
     2
1000
-2001350
1002
}
  0
LINE
  5
9BA
330
8E2
100
AcDbEntity
  8
D35160180
100
AcDbLine
 10
3.252430564685798
 20
0.0531084850591158
 30
0.0
 11
3.250604807538252
 21
0.0381672002791754
 31
0.0
1001
REVIT
1002
{
1070
     2
1000
-2001350
1002
}
  0
LINE
  5
9BB
330
8E2
100
AcDbEntity
  8
D35160180
100
AcDbLine
 10
3.250604807538252
 20
0.0381672002791754
 30
0.0
 11
3.249378002831928
 21
0.0231648561206791
 31
0.0
1001
REVIT
1002
{
1070
     2
1000
-2001350
1002
}
  0
LINE
  5
9BC
330
8E2
100
AcDbEntity
  8
D35160180
100
AcDbLine
 10
3.249378002831928
 20
0.0231648561206791
 30
0.0
 11
3.248752113192658
 21
0.0081254531339632
 31
0.0
1001
REVIT
1002
{
1070
     2
1000
-2001350
1002
}
  0
LINE
  5
9BD
330
8E2
100
AcDbEntity
  8
D35160180
100
AcDbLine
 10
3.248752113192658
 20
0.0081254531339632
 30
0.0
 11
3.248664384736674
 21
-0.0000000000000077
 31
0.0
1001
REVIT
1002
{
1070
     2
1000
-2001350
1002
}
  0
LINE
  5
9BE
330
8E2
100
AcDbEntity
  8
D35160180
100
AcDbLine
 10
3.248664384736674
 20
-0.0000000000000397
 30
0.0
 11
3.248965413088562
 21
-0.0150494106851481
 31
0.0
1001
REVIT
1002
{
1070
     2
1000
-2001350
1002
}
  0
LINE
  5
9BF
330
8E2
100
AcDbEntity
  8
D35160180
100
AcDbLine
 10
3.248965413088562
 20
-0.0150494106851481
 30
0.0
 11
3.249868016563073
 21
-0.030074745523511
 31
0.0
1001
REVIT
1002
{
1070
     2
1000
-2001350
1002
}
  0
LINE
  5
9C0
330
8E2
100
AcDbEntity
  8
D35160180
100
AcDbLine
 10
3.249868016563073
 20
-0.030074745523511
 30
0.0
 11
3.251370751187192
 21
-0.0450519671846449
 31
0.0
1001
REVIT
1002
{
1070
     2
1000
-2001350
1002
}
  0
LINE
  5
9C1
330
8E2
100
AcDbEntity
  8
D35160180
100
AcDbLine
 10
3.251370751187192
 20
-0.0450519671846449
 30
0.0
 11
3.253471212906092
 21
-0.0599571153088589
 31
0.0
1001
REVIT
1002
{
1070
     2
1000
-2001350
1002
}
  0
LINE
  5
9C2
330
8E2
100
AcDbEntity
  8
D35160180
100
AcDbLine
 10
3.253471212906092
 20
-0.0599571153088589
 30
0.0
 11
3.256166041429093
 21
-0.0747663448387363
 31
0.0
1001
REVIT
1002
{
1070
     2
1000
-2001350
1002
}
  0
LINE
  5
9C3
330
8E2
100
AcDbEntity
  8
D35160180
100
AcDbLine
 10
3.256166041429093
 20
-0.0747663448387363
 30
0.0
 11
3.259450925605428
 21
-0.0894559641661991
 31
0.0
1001
REVIT
1002
{
1070
     2
1000
-2001350
1002
}
  0
LINE
  5
9C4
330
8E2
100
AcDbEntity
  8
D35160180
100
AcDbLine
 10
3.259450925605428
 20
-0.0894559641661991
 30
0.0
 11
3.263320610321148
 21
-0.1040024730338912
 31
0.0
1001
REVIT
1002
{
1070
     2
1000
-2001350
1002
}
  0
LINE
  5
9C5
330
8E2
100
AcDbEntity
  8
D35160180
100
AcDbLine
 10
3.263320610321148
 20
-0.1040024730338912
 30
0.0
 11
3.267768904906201
 21
-0.1183826001307585
 31
0.0
1001
REVIT
1002
{
1070
     2
1000
-2001350
1002
}
  0
LINE
  5
9C6
330
8E2
100
AcDbEntity
  8
D35160180
100
AcDbLine
 10
3.267768904906201
 20
-0.1183826001307585
 30
0.0
 11
3.272788693038165
 21
-0.1325733403210207
 31
0.0
1001
REVIT
1002
{
1070
     2
1000
-2001350
1002
}
  0
LINE
  5
9C7
330
8E2
100
AcDbEntity
  8
D35160180
100
AcDbLine
 10
3.272788693038165
 20
-0.1325733403210207
 30
0.0
 11
3.278371944126867
 21
-0.146551991447574
 31
0.0
1001
REVIT
1002
{
1070
     2
1000
-2001350
1002
}
  0
LINE
  5
9C8
330
8E2
100
AcDbEntity
  8
D35160180
100
AcDbLine
 10
3.278371944126867
 20
-0.146551991447574
 30
0.0
 11
3.284509726161591
 21
-0.1602961906505561
 31
0.0
1001
REVIT
1002
{
1070
     2
1000
-2001350
1002
}
  0
LINE
  5
9C9
330
8E2
100
AcDbEntity
  8
D35160180
100
AcDbLine
 10
3.284509726161591
 20
-0.1602961906505561
 30
0.0
 11
3.2911922200004
 21
-0.1737839501432076
 31
0.0
1001
REVIT
1002
{
1070
     2
1000
-2001350
1002
}
  0
LINE
  5
9CA
330
8E2
100
AcDbEntity
  8
D35160180
100
AcDbLine
 10
3.2911922200004
 20
-0.1737839501432076
 30
0.0
 11
3.298408735078684
 21
-0.1869936923875534
 31
0.0
1001
REVIT
1002
{
1070
     2
1000
-2001350
1002
}
  0
LINE
  5
9CB
330
8E2
100
AcDbEntity
  8
D35160180
100
AcDbLine
 10
3.298408735078684
 20
-0.1869936923875534
 30
0.0
 11
3.306147726511756
 21
-0.1999042846139473
 31
0.0
1001
REVIT
1002
{
1070
     2
1000
-2001350
1002
}
  0
LINE
  5
9CC
330
8E2
100
AcDbEntity
  8
D35160180
100
AcDbLine
 10
3.306147726511756
 20
-0.1999042846139473
 30
0.0
 11
3.314396813564215
 21
-0.2124950726289298
 31
0.0
1001
REVIT
1002
{
1070
     2
1000
-2001350
1002
}
  0
LINE
  5
9CD
330
8E2
100
AcDbEntity
  8
D35160180
100
AcDbLine
 10
3.314396813564215
 20
-0.2124950726289298
 30
0.0
 11
3.323142799456494
 21
-0.2247459138575755
 31
0.0
1001
REVIT
1002
{
1070
     2
1000
-2001350
1002
}
  0
LINE
  5
9CE
330
8E2
100
AcDbEntity
  8
D35160180
100
AcDbLine
 10
3.362804451879721
 20
-0.2699666458315667
 30
0.0
 11
3.373809966771585
 21
-0.2802357267058225
 31
0.0
1001
REVIT
1002
{
1070
     2
1000
-2001350
1002
}
  0
LINE
  5
9CF
330
8E2
100
AcDbEntity
  8
D35160180
100
AcDbLine
 10
3.373809966771585
 20
-0.2802357267058225
 30
0.0
 11
3.385217332132267
 21
-0.2900564901977992
 31
0.0
1001
REVIT
1002
{
1070
     2
1000
-2001350
1002
}
  0
LINE
  5
9D0
330
8E2
100
AcDbEntity
  8
D35160180
100
AcDbLine
 10
3.385217332132267
 20
-0.2900564901977992
 30
0.0
 11
3.397008298610625
 21
-0.2994132251808784
 31
0.0
1001
REVIT
1002
{
1070
     2
1000
-2001350
1002
}
  0
LINE
  5
9D1
330
8E2
100
AcDbEntity
  8
D35160180
100
AcDbLine
 10
3.397008298610625
 20
-0.2994132251808784
 30
0.0
 11
3.409164003175572
 21
-0.3082909628750739
 31
0.0
1001
REVIT
1002
{
1070
     2
1000
-2001350
1002
}
  0
LINE
  5
9D2
330
8E2
100
AcDbEntity
  8
D35160180
100
AcDbLine
 10
3.447622350077576
 20
-0.3319121338903242
 30
0.0
 11
3.461037178520978
 21
-0.3387398537052709
 31
0.0
1001
REVIT
1002
{
1070
     2
1000
-2001350
1002
}
  0
LINE
  5
9D3
330
8E2
100
AcDbEntity
  8
D35160180
100
AcDbLine
 10
3.461037178520978
 20
-0.3387398537052709
 30
0.0
 11
3.474714312501873
 21
-0.3450256620149373
 31
0.0
1001
REVIT
1002
{
1070
     2
1000
-2001350
1002
}
  0
LINE
  5
9D4
330
8E2
100
AcDbEntity
  8
D35160180
100
AcDbLine
 10
3.502767590460436
 20
-0.3559322033390273
 30
0.0
 11
3.517098855177746
 21
-0.3605354882139522
 31
0.0
1001
REVIT
1002
{
1070
     2
1000
-2001350
1002
}
  0
LINE
  5
9D5
330
8E2
100
AcDbEntity
  8
D35160180
100
AcDbLine
 10
3.546256037934814
 20
-0.3680052768017041
 30
0.0
 11
3.56103531070202
 21
-0.3708598304462575
 31
0.0
1001
REVIT
1002
{
1070
     2
1000
-2001350
1002
}
  0
LINE
  5
9D6
330
8E2
100
AcDbEntity
  8
D35160180
100
AcDbLine
 10
3.575916913327034
 20
-0.3731210874746551
 30
0.0
 11
3.590877038420227
 21
-0.3747854303580069
 31
0.0
1001
REVIT
1002
{
1070
     2
1000
-2001350
1002
}
  0
LINE
  5
9D7
330
8E2
100
AcDbEntity
  8
D35160180
100
AcDbLine
 10
3.590877038420227
 20
-0.3747854303580069
 30
0.0
 11
3.60589175297277
 21
-0.375850196502754
 31
0.0
1001
REVIT
1002
{
1070
     2
1000
-2001350
1002
}
  0
LINE
  5
9D8
330
8E2
100
AcDbEntity
  8
D35160180
100
AcDbLine
 10
3.60589175297277
 20
-0.375850196502754
 30
0.0
 11
3.620937036644342
 21
-0.3763136825101838
 31
0.0
1001
REVIT
1002
{
1070
     2
1000
-2001350
1002
}
  0
LINE
  5
9D9
330
8E2
100
AcDbEntity
  8
D35160180
100
AcDbLine
 10
3.635988820190569
 20
-0.3761751469015883
 30
0.0
 11
3.651023023968647
 21
-0.3754348113043561
 31
0.0
1001
REVIT
1002
{
1070
     2
1000
-2001350
1002
}
  0
LINE
  5
9DA
330
8E2
100
AcDbEntity
  8
D35160180
100
AcDbLine
 10
3.651023023968647
 20
-0.3754348113043561
 30
0.0
 11
3.666015596459654
 21
-0.3740938600975141
 31
0.0
1001
REVIT
1002
{
1070
     2
1000
-2001350
1002
}
  0
LINE
  5
9DB
330
8E2
100
AcDbEntity
  8
D35160180
100
AcDbLine
 10
3.666015596459654
 20
-0.3740938600975141
 30
0.0
 11
3.680942552745857
 21
-0.3721544385169657
 31
0.0
1001
REVIT
1002
{
1070
     2
1000
-2001350
1002
}
  0
LINE
  5
9DC
330
8E2
100
AcDbEntity
  8
D35160180
100
AcDbLine
 10
3.680942552745857
 20
-0.3721544385169657
 30
0.0
 11
3.695780012881439
 21
-0.3696196492234953
 31
0.0
1001
REVIT
1002
{
1070
     2
1000
-2001350
1002
}
  0
LINE
  5
9DD
330
8E2
100
AcDbEntity
  8
D35160180
100
AcDbLine
 10
3.695780012881439
 20
-0.3696196492234953
 30
0.0
 11
3.710504240095342
 21
-0.3664935473392609
 31
0.0
1001
REVIT
1002
{
1070
     2
1000
-2001350
1002
}
  0
LINE
  5
9DE
330
8E2
100
AcDbEntity
  8
D35160180
100
AcDbLine
 10
3.710504240095342
 20
-0.3664935473392609
 30
0.0
 11
3.725091678765025
 21
-0.3627811339603972
 31
0.0
1001
REVIT
1002
{
1070
     2
1000
-2001350
1002
}
  0
LINE
  5
9DF
330
8E2
100
AcDbEntity
  8
D35160180
100
AcDbLine
 10
3.7537630994779
 20
-0.3536220574687483
 30
0.0
 11
3.767801213364197
 21
-0.3481900469245189
 31
0.0
1001
REVIT
1002
{
1070
     2
1000
-2001350
1002
}
  0
LINE
  5
9E0
330
8E2
100
AcDbEntity
  8
D35160180
100
AcDbLine
 10
3.795169994186597
 20
-0.3356645176275179
 30
0.0
 11
3.808456876911744
 21
-0.3285910370496523
 31
0.0
1001
REVIT
1002
{
1070
     2
1000
-2001350
1002
}
  0
LINE
  5
9E1
330
8E2
100
AcDbEntity
  8
D35160180
100
AcDbLine
 10
3.846473930045323
 20
-0.3042659915696297
 30
0.0
 11
3.858464168942415
 21
-0.2951660162274698
 31
0.0
1001
REVIT
1002
{
1070
     2
1000
-2001350
1002
}
  0
LINE
  5
9E2
330
8E2
100
AcDbEntity
  8
D35160180
100
AcDbLine
 10
3.858464168942415
 20
-0.2951660162274698
 30
0.0
 11
3.870080914972234
 21
-0.2855938382247423
 31
0.0
1001
REVIT
1002
{
1070
     2
1000
-2001350
1002
}
  0
LINE
  5
9E3
330
8E2
100
AcDbEntity
  8
D35160180
100
AcDbLine
 10
3.892120218407736
 20
-0.2650948589342341
 30
0.0
 11
3.902507517629391
 21
-0.2542008516404486
 31
0.0
1001
REVIT
1002
{
1070
     2
1000
-2001350
1002
}
  0
LINE
  5
9E4
330
8E2
100
AcDbEntity
  8
D35160180
100
AcDbLine
 10
3.902507517629391
 20
-0.2542008516404486
 30
0.0
 11
3.912450864021288
 21
-0.2429001772106545
 31
0.0
1001
REVIT
1002
{
1070
     2
1000
-2001350
1002
}
  0
LINE
  5
9E5
330
8E2
100
AcDbEntity
  8
D35160180
100
AcDbLine
 10
3.930942805061423
 20
-0.2191517632753531
 30
0.0
 11
3.939461816548739
 21
-0.2067420161660721
 31
0.0
1001
REVIT
1002
{
1070
     2
1000
-2001350
1002
}
  0
LINE
  5
9E6
330
8E2
100
AcDbEntity
  8
D35160180
100
AcDbLine
 10
3.954977800255282
 20
-0.1809506746443013
 30
0.0
 11
3.961949950210478
 21
-0.1676103408763765
 31
0.0
1001
REVIT
1002
{
1070
     2
1000
-2001350
1002
}
  0
LINE
  5
9E7
330
8E2
100
AcDbEntity
  8
D35160180
100
AcDbLine
 10
3.995147646547248
 20
-0.0679648075922764
 30
0.0
 11
3.997569435314058
 21
-0.0531084850592272
 31
0.0
1001
REVIT
1002
{
1070
     2
1000
-2001350
1002
}
  0
LINE
  5
9E8
330
8E2
100
AcDbEntity
  8
D35160180
100
AcDbLine
 10
3.997569435314058
 20
-0.0531084850592272
 30
0.0
 11
3.999395192461602
 21
-0.0381672002792762
 31
0.0
1001
REVIT
1002
{
1070
     2
1000
-2001350
1002
}
  0
LINE
  5
9E9
330
8E2
100
AcDbEntity
  8
D35160180
100
AcDbLine
 10
4.000621997167925
 20
-0.0231648561207905
 30
0.0
 11
4.001247886807195
 21
-0.0081254531340747
 31
0.0
1001
REVIT
1002
{
1070
     2
1000
-2001350
1002
}
  0
LINE
  5
9EA
330
8E2
100
AcDbEntity
  8
D35160180
100
AcDbLine
 10
4.001247886807195
 20
-0.0081254531340747
 30
0.0
 11
4.00133561526318
 21
-0.0000000000000611
 31
0.0
1001
REVIT
1002
{
1070
     2
1000
-2001350
1002
}
  0
LINE
  5
9EB
330
8E2
100
AcDbEntity
  8
D35160180
100
AcDbLine
 10
0.3625100120070535
 20
0.7878883313010368
 30
0.0
 11
0.6992704384415625
 21
0.6820007308769326
 31
0.0
1001
REVIT
1002
{
1070
     2
1000
-2001350
1002
}
  0
LINE
  5
9EC
330
8E2
100
AcDbEntity
  8
D35160180
100
AcDbLine
 10
0.6992704384415625
 20
0.6820007308769326
 30
0.0
 11
1.039995867093697
 21
0.5896646544725887
 31
0.0
1001
REVIT
1002
{
1070
     2
1000
-2001350
1002
}
  0
LINE
  5
9ED
330
8E2
100
AcDbEntity
  8
D35160180
100
AcDbLine
 10
1.039995867093697
 20
0.5896646544725887
 30
0.0
 11
1.384141209961835
 21
0.5110278201129855
 31
0.0
1001
REVIT
1002
{
1070
     2
1000
-2001350
1002
}
  0
LINE
  5
9EE
330
8E2
100
AcDbEntity
  8
D35160180
100
AcDbLine
 10
1.384141209961835
 20
0.5110278201129855
 30
0.0
 11
1.731155907911144
 21
0.4462160299581189
 31
0.0
1001
REVIT
1002
{
1070
     2
1000
-2001350
1002
}
  0
LINE
  5
9EF
330
8E2
100
AcDbEntity
  8
D35160180
100
AcDbLine
 10
1.731155907911144
 20
0.4462160299581189
 30
0.0
 11
2.080484811450759
 21
0.3953329690464424
 31
0.0
1001
REVIT
1002
{
1070
     2
1000
-2001350
1002
}
  0
LINE
  5
9F0
330
8E2
100
AcDbEntity
  8
D35160180
100
AcDbLine
 10
2.080484811450759
 20
0.3953329690464424
 30
0.0
 11
2.431569068854539
 21
0.3584600394209611
 31
0.0
1001
REVIT
1002
{
1070
     2
1000
-2001350
1002
}
  0
LINE
  5
9F1
330
8E2
100
AcDbEntity
  8
D35160180
100
AcDbLine
 10
2.431569068854539
 20
0.3584600394209611
 30
0.0
 11
2.783847020204618
 21
0.3356562299032676
 31
0.0
1001
REVIT
1002
{
1070
     2
1000
-2001350
1002
}
  0
LINE
  5
9F2
330
8E2
100
AcDbEntity
  8
D35160180
100
AcDbLine
 10
2.783847020204618
 20
0.3356562299032676
 30
0.0
 11
3.136755095927458
 21
0.3269580217240276
 31
0.0
1001
REVIT
1002
{
1070
     2
1000
-2001350
1002
}
  0
LINE
  5
9F3
330
8E2
100
AcDbEntity
  8
D35160180
100
AcDbLine
 10
3.136755095927458
 20
0.3269580217240276
 30
0.0
 11
3.168685539152285
 21
0.3268675514933606
 31
0.0
1001
REVIT
1002
{
1070
     2
1000
-2001350
1002
}
  0
LINE
  5
9F4
330
8E2
100
AcDbEntity
  8
D35160180
100
AcDbLine
 10
3.324102337599931
 20
0.2220805540415569
 30
0.0
 11
3.168685539152306
 21
0.2220805540415569
 31
0.0
1001
REVIT
1002
{
1070
     2
1000
-2001350
1002
}
  0
LINE
  5
9F5
330
8E2
100
AcDbEntity
  8
D35160180
100
AcDbLine
 10
3.168685539152278
 20
-0.3268675514946975
 30
0.0
 11
2.815748304636301
 21
-0.3342889548756323
 31
0.0
1001
REVIT
1002
{
1070
     2
1000
-2001350
1002
}
  0
LINE
  5
9F6
330
8E2
100
AcDbEntity
  8
D35160180
100
AcDbLine
 10
2.815748304636301
 20
-0.3342889548756323
 30
0.0
 11
2.463390159243239
 21
-0.3558181469433923
 31
0.0
1001
REVIT
1002
{
1070
     2
1000
-2001350
1002
}
  0
LINE
  5
9F7
330
8E2
100
AcDbEntity
  8
D35160180
100
AcDbLine
 10
2.463390159243239
 20
-0.3558181469433923
 30
0.0
 11
2.112174800839994
 21
-0.3914206855833239
 31
0.0
1001
REVIT
1002
{
1070
     2
1000
-2001350
1002
}
  0
LINE
  5
9F8
330
8E2
100
AcDbEntity
  8
D35160180
100
AcDbLine
 10
2.112174800839994
 20
-0.3914206855833239
 30
0.0
 11
1.762664099078062
 21
-0.4410396143284284
 31
0.0
1001
REVIT
1002
{
1070
     2
1000
-2001350
1002
}
  0
LINE
  5
9F9
330
8E2
100
AcDbEntity
  8
D35160180
100
AcDbLine
 10
1.762664099078062
 20
-0.4410396143284284
 30
0.0
 11
1.415417196521957
 21
-0.5045955534774934
 31
0.0
1001
REVIT
1002
{
1070
     2
1000
-2001350
1002
}
  0
LINE
  5
9FA
330
8E2
100
AcDbEntity
  8
D35160180
100
AcDbLine
 10
1.415417196521957
 20
-0.5045955534774934
 30
0.0
 11
1.07098961414038
 21
-0.5819868270857677
 31
0.0
1001
REVIT
1002
{
1070
     2
1000
-2001350
1002
}
  0
LINE
  5
9FB
330
8E2
100
AcDbEntity
  8
D35160180
100
AcDbLine
 10
1.07098961414038
 20
-0.5819868270857677
 30
0.0
 11
0.7299323625911747
 21
-0.6730896256247334
 31
0.0
1001
REVIT
1002
{
1070
     2
1000
-2001350
1002
}
  0
LINE
  5
9FC
330
8E2
100
AcDbEntity
  8
D35160180
100
AcDbLine
 10
0.7299323625911747
 20
-0.6730896256247334
 30
0.0
 11
0.392791060721823
 21
-0.777758204050965
 31
0.0
1001
REVIT
1002
{
1070
     2
1000
-2001350
1002
}
  0
LINE
  5
9FD
330
8E2
100
AcDbEntity
  8
D35160180
100
AcDbLine
 10
0.3625100120068225
 20
0.8525497315826566
 30
0.0
 11
0.3625100120068225
 21
0.8525497315826575
 31
0.0
1001
REVIT
1002
{
1070
     2
1000
-2001350
1002
}
  0
LINE
  5
9FE
330
8E2
100
AcDbEntity
  8
D35160180
100
AcDbLine
 10
0.3625100120068012
 20
-0.8525497315826628
 30
0.0
 11
0.3625100120068012
 21
-0.8525497315826632
 31
0.0
1001
REVIT
1002
{
1070
     2
1000
-2001350
1002
}
  0
LINE
  5
9FF
330
8E2
100
AcDbEntity
  8
D35160180
100
AcDbLine
 10
0.3625100120069824
 20
-0.8525497315826635
 30
0.0
 11
0.3625100120070073
 21
0.8525497315826576
 31
0.0
1001
REVIT
1002
{
1070
     2
1000
-2001350
1002
}
  0
SPLINE
  5
A00
330
8E2
100
AcDbEntity
  8
D35160180
100
AcDbSpline
210
0.0
220
0.0
230
1.0
 70
     8
 71
     3
 72
    10
 73
     6
 74
     0
 42
0.000000001
 43
0.0000000001
 40
0.0
 40
0.0
 40
0.0
 40
0.0
 40
0.3333333333333333
 40
0.6666666666666666
 40
1.0
 40
1.0
 40
1.0
 40
1.0
 10
0.3625100120070641
 20
0.7320941616797834
 30
0.0
 10
0.6627066337583472
 20
0.6421604313618538
 30
0.0
 10
1.27437807970044
 20
0.4877196471522917
 30
0.0
 10
2.214912254052027
 20
0.3460021752603223
 30
0.0
 10
2.850581191830588
 20
0.3128872746847676
 30
0.0
 10
3.168685539152285
 20
0.3128260040022035
 30
0.0
1001
REVIT
1002
{
1070
     2
1000
-2001350
1002
}
  0
LINE
  5
A01
330
8E2
100
AcDbEntity
  8
D35160180
100
AcDbLine
 10
3.168685539152274
 20
-0.3268675514946915
 30
0.0
 11
3.168685539152281
 21
0.3268675512282757
 31
0.0
1001
REVIT
1002
{
1070
     2
1000
-2001350
1002
}
  0
SPLINE
  5
A02
330
8E2
100
AcDbEntity
  8
D35160180
100
AcDbSpline
210
0.0
220
0.0
230
1.0
 70
     8
 71
     3
 72
    10
 73
     6
 74
     0
 42
0.000000001
 43
0.0000000001
 40
-1.0
 40
-1.0
 40
-1.0
 40
-1.0
 40
-0.6666666666666666
 40
-0.3333333333333333
 40
0.0
 40
0.0
 40
0.0
 40
0.0
 10
3.168685539152285
 20
-0.3128183088637175
 30
0.0
 10
2.850624648828823
 20
-0.3143330476956492
 30
0.0
 10
2.215005088758918
 20
-0.3449824377760762
 30
0.0
 10
1.27393912204123
 20
-0.4890784191245006
 30
0.0
 10
0.6625224790670928
 20
-0.6398740932870783
 30
0.0
 10
0.3625100120070641
 20
-0.7320941616810968
 30
0.0
1001
REVIT
1002
{
1070
     2
1000
-2001350
1002
}
  0
LINE
  5
A03
330
8E2
100
AcDbEntity
  8
D35160180
100
AcDbLine
 10
3.319205091279364
 20
-0.2148209348792286
 30
0.0
 11
3.168685539152225
 21
-0.2148209348792286
 31
0.0
1001
REVIT
1002
{
1070
     2
1000
-2001350
1002
}
  0
SPLINE
  5
A04
330
8E2
100
AcDbEntity
  8
D35160180
100
AcDbSpline
210
0.0
220
0.0
230
1.0
 70
     8
 71
     3
 72
    10
 73
     6
 74
     0
 42
0.000000001
 43
0.0000000001
 40
-1.0
 40
-1.0
 40
-1.0
 40
-1.0
 40
-0.6666666666666666
 40
-0.3333333333333333
 40
0.0
 40
0.0
 40
0.0
 40
0.0
 10
3.168685539152289
 20
-0.0000464290110614
 30
0.0
 10
2.850581194607567
 20
-0.0015014125405472
 30
0.0
 10
2.214912259883146
 20
0.0009464616961308
 30
0.0
 10
1.274378045156304
 20
-0.0013163303864597
 30
0.0
 10
0.6627066192700469
 20
0.0023252535939146
 30
0.0
 10
0.3625100120070712
 20
-0.0000000000006687
 30
0.0
1001
REVIT
1002
{
1070
     2
1000
-2001350
1002
}
  0
LINE
  5
A05
330
8E2
100
AcDbEntity
  8
D35160180
100
AcDbLine
 10
3.249301815424868
 20
-0.0000225538803268
 30
0.0
 11
3.168685539152228
 21
-0.000052153297413
 31
0.0
1001
REVIT
1002
{
1070
     2
1000
-2001350
1002
}
  0
LINE
  5
A06
330
8E2
100
AcDbEntity
  8
D35160180
100
AcDbLine
 10
0.0000000000000071
 20
0.9999999999999786
 30
0.0
 11
-0.0000000000000071
 21
-0.9999999999999786
 31
0.0
  0
ENDBLK
  5
8E4
330
8E2
100
AcDbEntity
  8
0
100
AcDbBlockEnd
  0
ENDSEC
  0
SECTION
  2
ENTITIES
  0
INSERT
  5
800
330
70
100
AcDbEntity
  8
D35160180
100
AcDbBlockReference
  2
D35160180 Top View
 10
-0.4468400437821672
 20
22.82840154955909
 30
0.0
  0
INSERT
  5
8E1
330
70
100
AcDbEntity
  8
D35160180
100
AcDbBlockReference
  2
D35160180 Front View
 10
-0.4468400437822098
 20
-0.0000000000003796
 30
0.0
  0
INSERT
  5
A07
330
70
100
AcDbEntity
  8
D35160180
100
AcDbBlockReference
  2
D35160180 Side View
 10
-29.71064423109476
 20
-0.0000000000003317
 30
0.0
  0
ENDSEC
  0
SECTION
  2
OBJECTS
  0
DICTIONARY
  5
C
330
0
100
AcDbDictionary
281
     1
  3
ACAD_CIP_PREVIOUS_PRODUCT_INFO
350
79
  3
ACAD_COLOR
350
63
  3
ACAD_DETAILVIEWSTYLE
350
6A
  3
ACAD_GROUP
350
D
  3
ACAD_IMAGE_VARS
350
7A
  3
ACAD_LAYOUT
350
62
  3
ACAD_MATERIAL
350
10
  3
ACAD_MLEADERSTYLE
350
66
  3
ACAD_MLINESTYLE
350
5F
  3
ACAD_PLOTSETTINGS
350
61
  3
ACAD_PLOTSTYLENAME
350
E
  3
ACAD_SCALELIST
350
42
  3
ACAD_SECTIONVIEWSTYLE
350
68
  3
ACAD_TABLESTYLE
350
64
  3
ACAD_VISUALSTYLE
350
29
  3
ACDB_RECOMPOSE_DATA
350
A24
  3
AcDbVariableDictionary
350
DC
  3
REVIT_DICTIONARY
350
D1
  0
DICTIONARY
  5
A0D
330
2
100
AcDbDictionary
280
     1
281
     1
  3
ACAD_LAYERSTATES
360
A0E
  0
DICTIONARY
  5
D5
330
70
100
AcDbDictionary
280
     1
281
     1
  3
ACAD_SORTENTS
360
D6
  0
XRECORD
  5
79
102
{ACAD_REACTORS
330
C
102
}
330
C
100
AcDbXrecord
280
     1
300
ACD
300
2016
300
86445ACD_2016_0F
  0
DICTIONARY
  5
63
102
{ACAD_REACTORS
330
C
102
}
330
C
100
AcDbDictionary
281
     1
  0
DICTIONARY
  5
6A
102
{ACAD_REACTORS
330
C
102
}
330
C
100
AcDbDictionary
281
     1
  3
Imperial24
350
6B
  0
DICTIONARY
  5
D
102
{ACAD_REACTORS
330
C
102
}
330
C
100
AcDbDictionary
281
     1
  0
RASTERVARIABLES
  5
7A
102
{ACAD_REACTORS
330
C
102
}
330
C
100
AcDbRasterVariables
 90
        0
 70
     0
 71
     1
 72
     5
  0
DICTIONARY
  5
62
102
{ACAD_REACTORS
330
C
102
}
330
C
100
AcDbDictionary
281
     1
  3
Layout1
350
6F
  3
Layout2
350
77
  3
Model
350
73
  0
DICTIONARY
  5
10
102
{ACAD_REACTORS
330
C
102
}
330
C
100
AcDbDictionary
281
     1
  3
ByBlock
350
19
  3
ByLayer
350
11
  3
Global
350
21
  0
DICTIONARY
  5
66
102
{ACAD_REACTORS
330
C
102
}
330
C
100
AcDbDictionary
281
     1
  3
Standard
350
67
  0
DICTIONARY
  5
5F
102
{ACAD_REACTORS
330
C
102
}
330
C
100
AcDbDictionary
281
     1
  3
Standard
350
60
  0
DICTIONARY
  5
61
102
{ACAD_REACTORS
330
C
102
}
330
C
100
AcDbDictionary
281
     1
  0
ACDBDICTIONARYWDFLT
  5
E
102
{ACAD_REACTORS
330
C
102
}
330
C
100
AcDbDictionary
281
     1
  3
Normal
350
F
100
AcDbDictionaryWithDefault
340
F
  0
DICTIONARY
  5
42
102
{ACAD_REACTORS
330
C
102
}
330
C
100
AcDbDictionary
281
     1
  3
A0
350
43
  3
A1
350
44
  3
A2
350
45
  3
A3
350
46
  3
A4
350
47
  3
A5
350
48
  3
A6
350
49
  3
A7
350
4A
  3
A8
350
4B
  3
A9
350
4C
  3
B0
350
4D
  3
B1
350
4E
  3
B2
350
4F
  3
B3
350
50
  3
B4
350
51
  3
B5
350
52
  3
B6
350
53
  0
DICTIONARY
  5
68
102
{ACAD_REACTORS
330
C
102
}
330
C
100
AcDbDictionary
281
     1
  3
Imperial24
350
69
  0
DICTIONARY
  5
64
102
{ACAD_REACTORS
330
C
102
}
330
C
100
AcDbDictionary
281
     1
  3
Standard
350
65
  0
DICTIONARY
  5
29
102
{ACAD_REACTORS
330
C
102
}
330
C
100
AcDbDictionary
281
     1
  3
2dWireframe
350
2F
  3
Basic
350
2E
  3
Brighten
350
35
  3
ColorChange
350
39
  3
Conceptual
350
32
  3
Dim
350
34
  3
EdgeColorOff
350
41
  3
Facepattern
350
38
  3
Flat
350
2A
  3
FlatWithEdges
350
2B
  3
Gouraud
350
2C
  3
GouraudWithEdges
350
2D
  3
Hidden
350
31
  3
JitterOff
350
3F
  3
Linepattern
350
37
  3
OverhangOff
350
40
  3
Realistic
350
33
  3
Shaded
350
3E
  3
Shaded with edges
350
3D
  3
Shades of Gray
350
3A
  3
Sketchy
350
3B
  3
Thicken
350
36
  3
Wireframe
350
30
  3
X-Ray
350
3C
  0
XRECORD
  5
A24
102
{ACAD_REACTORS
330
C
102
}
330
C
100
AcDbXrecord
280
     1
 90
        1
330
65
330
69
330
6B
  0
DICTIONARY
  5
DC
102
{ACAD_REACTORS
330
C
102
}
330
C
100
AcDbDictionary
281
     1
  3
CANNOSCALE
350
E1
  3
CMLEADERSTYLE
350
DE
  3
CTABLESTYLE
350
DD
  3
CVIEWDETAILSTYLE
350
DF
  3
CVIEWSECTIONSTYLE
350
E0
  0
DICTIONARY
  5
D1
102
{ACAD_REACTORS
330
C
102
}
330
C
100
AcDbDictionary
281
     1
  3
DRAWING_TOOL
350
D4
  3
REVIT_CATEGORY_MAPPING
350
D2
  3
REVIT_SUB_CATEGORY_MAPPING
350
D3
  0
DICTIONARY
  5
A0E
102
{ACAD_REACTORS
330
A0D
102
}
330
A0D
100
AcDbDictionary
281
     1
  0
SORTENTSTABLE
  5
D6
102
{ACAD_REACTORS
330
D5
102
}
330
D5
100
AcDbSortentsTable
330
70
  0
ACDBDETAILVIEWSTYLE
  5
6B
102
{ACAD_XDICTIONARY
360
D9
102
}
102
{ACAD_REACTORS
330
6A
102
}
330
6A
100
AcDbModelDocViewStyle
 70
     0
  3
Imperial24
290
     0
100
AcDbDetailViewStyle
 70
     0
 71
     0
 90
        3
 71
     1
340
55
 62
   256
 40
0.24
340
0
 62
   256
 40
0.24
300

 40
0.36
280
     3
 71
     2
340
5D
 90
       25
 62
   256
 71
     3
340
55
 62
   256
 40
0.24
 90
        1
 40
0.75
 90
        1
300
%<\AcVar ViewType \f "%tc1">% %<\AcVar ViewDetailId>%\PSCALE %<\AcVar ViewScale \f "%sn">%
 71
     4
340
5D
 90
       25
 62
   256
340
5D
 90
       25
 62
   256
280
     0
  0
LAYOUT
  5
6F
102
{ACAD_REACTORS
330
62
102
}
330
62
100
AcDbPlotSettings
  1

  2

  4

  6

 40
0.0
 41
0.0
 42
0.0
 43
0.0
 44
0.0
 45
0.0
 46
0.0
 47
0.0
 48
0.0
 49
0.0
140
0.0
141
0.0
142
1.0
143
1.0
 70
   688
 72
     0
 73
     0
 74
     5
  7

 75
    16
147
1.0
 76
     0
 77
     2
 78
   300
148
0.0
149
0.0
100
AcDbLayout
  1
Layout1
 70
     1
 71
     1
 10
0.0
 20
0.0
 11
12.0
 21
9.0
 12
0.0
 22
0.0
 32
0.0
 14
1.000000000000000E+20
 24
1.000000000000000E+20
 34
1.000000000000000E+20
 15
-1.000000000000000E+20
 25
-1.000000000000000E+20
 35
-1.000000000000000E+20
146
0.0
 13
0.0
 23
0.0
 33
0.0
 16
1.0
 26
0.0
 36
0.0
 17
0.0
 27
1.0
 37
0.0
 76
     0
330
6C
  0
LAYOUT
  5
77
102
{ACAD_REACTORS
330
62
102
}
330
62
100
AcDbPlotSettings
  1

  2

  4

  6

 40
0.0
 41
0.0
 42
0.0
 43
0.0
 44
0.0
 45
0.0
 46
0.0
 47
0.0
 48
0.0
 49
0.0
140
0.0
141
0.0
142
1.0
143
1.0
 70
   688
 72
     0
 73
     0
 74
     5
  7

 75
    16
147
1.0
 76
     0
 77
     2
 78
   300
148
0.0
149
0.0
100
AcDbLayout
  1
Layout2
 70
     1
 71
     2
 10
0.0
 20
0.0
 11
12.0
 21
9.0
 12
0.0
 22
0.0
 32
0.0
 14
0.0
 24
0.0
 34
0.0
 15
0.0
 25
0.0
 35
0.0
146
0.0
 13
0.0
 23
0.0
 33
0.0
 16
1.0
 26
0.0
 36
0.0
 17
0.0
 27
1.0
 37
0.0
 76
     0
330
74
  0
LAYOUT
  5
73
102
{ACAD_REACTORS
330
62
102
}
330
62
100
AcDbPlotSettings
  1

  2

  4

  6

 40
0.0
 41
0.0
 42
0.0
 43
0.0
 44
0.0
 45
0.0
 46
0.0
 47
0.0
 48
0.0
 49
0.0
140
0.0
141
0.0
142
1.0
143
1.0
 70
  1712
 72
     0
 73
     0
 74
     0
  7

 75
     0
147
1.0
 76
     0
 77
     2
 78
   300
148
0.0
149
0.0
100
AcDbLayout
  1
Model
 70
     1
 71
     0
 10
0.0
 20
0.0
 11
12.0
 21
9.0
 12
0.0
 22
0.0
 32
0.0
 14
0.0
 24
0.0
 34
0.0
 15
0.0
 25
0.0
 35
0.0
146
0.0
 13
0.0
 23
0.0
 33
0.0
 16
1.0
 26
0.0
 36
0.0
 17
0.0
 27
1.0
 37
0.0
 76
     0
330
70
331
57
  0
MATERIAL
  5
19
102
{ACAD_XDICTIONARY
360
1A
102
}
102
{ACAD_REACTORS
330
10
102
}
330
10
100
AcDbMaterial
  1
ByBlock
 72
     0
 43
0.0208333333333333
 43
0.0
 43
0.0
 43
0.0
 43
0.0
 43
0.0208333333333333
 43
0.0
 43
0.0
 43
0.0
 43
0.0
 43
1.0
 43
0.0
 43
0.0
 43
0.0
 43
0.0
 43
1.0
 77
     0
 47
0.0208333333333333
 47
0.0
 47
0.0
 47
0.0
 47
0.0
 47
0.0208333333333333
 47
0.0
 47
0.0
 47
0.0
 47
0.0
 47
1.0
 47
0.0
 47
0.0
 47
0.0
 47
0.0
 47
1.0
171
     0
 49
0.0208333333333333
 49
0.0
 49
0.0
 49
0.0
 49
0.0
 49
0.0208333333333333
 49
0.0
 49
0.0
 49
0.0
 49
0.0
 49
1.0
 49
0.0
 49
0.0
 49
0.0
 49
0.0
 49
1.0
175
     0
142
0.0208333333333333
142
0.0
142
0.0
142
0.0
142
0.0
142
0.0208333333333333
142
0.0
142
0.0
142
0.0
142
0.0
142
1.0
142
0.0
142
0.0
142
0.0
142
0.0
142
1.0
179
     0
144
0.0208333333333333
144
0.0
144
0.0
144
0.0
144
0.0
144
0.0208333333333333
144
0.0
144
0.0
144
0.0
144
0.0
144
1.0
144
0.0
144
0.0
144
0.0
144
0.0
144
1.0
147
0.0208333333333333
147
0.0
147
0.0
147
0.0
147
0.0
147
0.0208333333333333
147
0.0
147
0.0
147
0.0
147
0.0
147
1.0
147
0.0
147
0.0
147
0.0
147
0.0
147
1.0
  0
MATERIAL
  5
11
102
{ACAD_XDICTIONARY
360
12
102
}
102
{ACAD_REACTORS
330
10
102
}
330
10
100
AcDbMaterial
  1
ByLayer
 72
     0
 43
0.0208333333333333
 43
0.0
 43
0.0
 43
0.0
 43
0.0
 43
0.0208333333333333
 43
0.0
 43
0.0
 43
0.0
 43
0.0
 43
1.0
 43
0.0
 43
0.0
 43
0.0
 43
0.0
 43
1.0
 77
     0
 47
0.0208333333333333
 47
0.0
 47
0.0
 47
0.0
 47
0.0
 47
0.0208333333333333
 47
0.0
 47
0.0
 47
0.0
 47
0.0
 47
1.0
 47
0.0
 47
0.0
 47
0.0
 47
0.0
 47
1.0
171
     0
 49
0.0208333333333333
 49
0.0
 49
0.0
 49
0.0
 49
0.0
 49
0.0208333333333333
 49
0.0
 49
0.0
 49
0.0
 49
0.0
 49
1.0
 49
0.0
 49
0.0
 49
0.0
 49
0.0
 49
1.0
175
     0
142
0.0208333333333333
142
0.0
142
0.0
142
0.0
142
0.0
142
0.0208333333333333
142
0.0
142
0.0
142
0.0
142
0.0
142
1.0
142
0.0
142
0.0
142
0.0
142
0.0
142
1.0
179
     0
144
0.0208333333333333
144
0.0
144
0.0
144
0.0
144
0.0
144
0.0208333333333333
144
0.0
144
0.0
144
0.0
144
0.0
144
1.0
144
0.0
144
0.0
144
0.0
144
0.0
144
1.0
147
0.0208333333333333
147
0.0
147
0.0
147
0.0
147
0.0
147
0.0208333333333333
147
0.0
147
0.0
147
0.0
147
0.0
147
1.0
147
0.0
147
0.0
147
0.0
147
0.0
147
1.0
  0
MATERIAL
  5
21
102
{ACAD_XDICTIONARY
360
22
102
}
102
{ACAD_REACTORS
330
10
102
}
330
10
100
AcDbMaterial
  1
Global
 72
     0
 43
0.0208333333333333
 43
0.0
 43
0.0
 43
0.0
 43
0.0
 43
0.0208333333333333
 43
0.0
 43
0.0
 43
0.0
 43
0.0
 43
1.0
 43
0.0
 43
0.0
 43
0.0
 43
0.0
 43
1.0
 77
     0
 47
0.0208333333333333
 47
0.0
 47
0.0
 47
0.0
 47
0.0
 47
0.0208333333333333
 47
0.0
 47
0.0
 47
0.0
 47
0.0
 47
1.0
 47
0.0
 47
0.0
 47
0.0
 47
0.0
 47
1.0
171
     0
 49
0.0208333333333333
 49
0.0
 49
0.0
 49
0.0
 49
0.0
 49
0.0208333333333333
 49
0.0
 49
0.0
 49
0.0
 49
0.0
 49
1.0
 49
0.0
 49
0.0
 49
0.0
 49
0.0
 49
1.0
175
     0
142
0.0208333333333333
142
0.0
142
0.0
142
0.0
142
0.0
142
0.0208333333333333
142
0.0
142
0.0
142
0.0
142
0.0
142
1.0
142
0.0
142
0.0
142
0.0
142
0.0
142
1.0
179
     0
144
0.0208333333333333
144
0.0
144
0.0
144
0.0
144
0.0
144
0.0208333333333333
144
0.0
144
0.0
144
0.0
144
0.0
144
1.0
144
0.0
144
0.0
144
0.0
144
0.0
144
1.0
147
0.0208333333333333
147
0.0
147
0.0
147
0.0
147
0.0
147
0.0208333333333333
147
0.0
147
0.0
147
0.0
147
0.0
147
1.0
147
0.0
147
0.0
147
0.0
147
0.0
147
1.0
  0
MLEADERSTYLE
  5
67
102
{ACAD_REACTORS
330
66
102
}
330
66
100
AcDbMLeaderStyle
179
     2
170
     2
171
     1
172
     0
 90
        2
 40
0.0
 41
0.0
173
     1
 91
-1056964608
340
5B
 92
       -2
290
     1
 42
0.09
291
     1
 43
0.36
  3
Standard
 44
0.18
300

342
55
174
     1
178
     6
175
     1
176
     0
 93
-1056964608
 45
0.18
292
     0
297
     0
 46
0.18
 94
-1056964608
 47
1.0
 49
1.0
140
1.0
293
     1
141
0.0
294
     1
177
     0
142
1.0
295
     1
296
     0
143
0.125
271
     0
272
     9
273
     9
298
     1
  0
MLINESTYLE
  5
60
102
{ACAD_REACTORS
330
5F
102
}
330
5F
100
AcDbMlineStyle
  2
STANDARD
 70
     0
  3

 62
   256
 51
90.0
 52
90.0
 71
     2
 49
0.5
 62
   256
  6
BYLAYER
 49
-0.5
 62
   256
  6
BYLAYER
  0
ACDBPLACEHOLDER
  5
F
102
{ACAD_REACTORS
330
E
102
}
330
E
  0
SCALE
  5
43
102
{ACAD_REACTORS
330
42
102
}
330
42
100
AcDbScale
 70
     0
300
1:1
140
1.0
141
1.0
290
     1
  0
SCALE
  5
44
102
{ACAD_REACTORS
330
42
102
}
330
42
100
AcDbScale
 70
     0
300
1/128" = 1'-0"
140
0.0078125
141
12.0
290
     0
  0
SCALE
  5
45
102
{ACAD_REACTORS
330
42
102
}
330
42
100
AcDbScale
 70
     0
300
1/64" = 1'-0"
140
0.015625
141
12.0
290
     0
  0
SCALE
  5
46
102
{ACAD_REACTORS
330
42
102
}
330
42
100
AcDbScale
 70
     0
300
1/32" = 1'-0"
140
0.03125
141
12.0
290
     0
  0
SCALE
  5
47
102
{ACAD_REACTORS
330
42
102
}
330
42
100
AcDbScale
 70
     0
300
1/16" = 1'-0"
140
0.0625
141
12.0
290
     0
  0
SCALE
  5
48
102
{ACAD_REACTORS
330
42
102
}
330
42
100
AcDbScale
 70
     0
300
3/32" = 1'-0"
140
0.09375
141
12.0
290
     0
  0
SCALE
  5
49
102
{ACAD_REACTORS
330
42
102
}
330
42
100
AcDbScale
 70
     0
300
1/8" = 1'-0"
140
0.125
141
12.0
290
     0
  0
SCALE
  5
4A
102
{ACAD_REACTORS
330
42
102
}
330
42
100
AcDbScale
 70
     0
300
3/16" = 1'-0"
140
0.1875
141
12.0
290
     0
  0
SCALE
  5
4B
102
{ACAD_REACTORS
330
42
102
}
330
42
100
AcDbScale
 70
     0
300
1/4" = 1'-0"
140
0.25
141
12.0
290
     0
  0
SCALE
  5
4C
102
{ACAD_REACTORS
330
42
102
}
330
42
100
AcDbScale
 70
     0
300
3/8" = 1'-0"
140
0.375
141
12.0
290
     0
  0
SCALE
  5
4D
102
{ACAD_REACTORS
330
42
102
}
330
42
100
AcDbScale
 70
     0
300
1/2" = 1'-0"
140
0.5
141
12.0
290
     0
  0
SCALE
  5
4E
102
{ACAD_REACTORS
330
42
102
}
330
42
100
AcDbScale
 70
     0
300
3/4" = 1'-0"
140
0.75
141
12.0
290
     0
  0
SCALE
  5
4F
102
{ACAD_REACTORS
330
42
102
}
330
42
100
AcDbScale
 70
     0
300
1" = 1'-0"
140
1.0
141
12.0
290
     0
  0
SCALE
  5
50
102
{ACAD_REACTORS
330
42
102
}
330
42
100
AcDbScale
 70
     0
300
1-1/2" = 1'-0"
140
1.5
141
12.0
290
     0
  0
SCALE
  5
51
102
{ACAD_REACTORS
330
42
102
}
330
42
100
AcDbScale
 70
     0
300
3" = 1'-0"
140
3.0
141
12.0
290
     0
  0
SCALE
  5
52
102
{ACAD_REACTORS
330
42
102
}
330
42
100
AcDbScale
 70
     0
300
6" = 1'-0"
140
6.0
141
12.0
290
     0
  0
SCALE
  5
53
102
{ACAD_REACTORS
330
42
102
}
330
42
100
AcDbScale
 70
     0
300
1'-0" = 1'-0"
140
12.0
141
12.0
290
     0
  0
ACDBSECTIONVIEWSTYLE
  5
69
102
{ACAD_XDICTIONARY
360
D7
102
}
102
{ACAD_REACTORS
330
68
102
}
330
68
100
AcDbModelDocViewStyle
 70
     0
  3
Imperial24
290
     0
100
AcDbSectionViewStyle
 70
     0
 71
     0
 90
       78
 71
     1
340
55
 62
   256
 40
0.24
340
0
340
0
 62
   256
 40
0.24
300
I, O, Q, S, X, Z
 40
0.48
 90
        3
 40
0.18
 90
        1
 71
     2
340
5D
 90
       25
 62
   256
340
5D
 90
       50
 62
   256
 40
0.24
 40
0.0
 40
0.24
 71
     3
340
55
 62
   256
 40
0.24
 90
        1
 40
0.75
 90
        1
300
%<\AcVar ViewType \f "%tc1">% %<\AcVar ViewSectionStartId>%-%<\AcVar ViewSectionEndId>%\PSCALE %<\AcVar ViewScale \f "%sn">%
 71
     4
 62
   256
 62
   257
300
ANSI31
 40
1.0
 90
        0
290
     0
290
     0
 90
        6
 40
0.0
 40
1.570796326794896
 40
0.2617993877991494
 40
1.308996938995747
 40
-0.2617993877991494
 40
1.832595714594046
  0
TABLESTYLE
  5
65
102
{ACAD_XDICTIONARY
360
A20
102
}
102
{ACAD_REACTORS
330
64
102
}
330
64
100
AcDbTableStyle
280
     0
  3
Standard
 70
     0
 71
     0
 40
0.06
 41
0.06
280
     0
281
     0
  7
Standard
140
0.18
170
     2
 62
     0
 63
     7
283
     0
 90
      512
 91
        0
  1

274
    -2
284
     1
 64
     0
275
    -2
285
     1
 65
     0
276
    -2
286
     1
 66
     0
277
    -2
287
     1
 67
     0
278
    -2
288
     1
 68
     0
279
    -2
289
     1
 69
     0
  7
Standard
140
0.25
170
     5
 62
     0
 63
     7
283
     0
 90
      512
 91
        0
  1

274
    -2
284
     1
 64
     0
275
    -2
285
     1
 65
     0
276
    -2
286
     1
 66
     0
277
    -2
287
     1
 67
     0
278
    -2
288
     1
 68
     0
279
    -2
289
     1
 69
     0
  7
Standard
140
0.18
170
     5
 62
     0
 63
     7
283
     0
 90
      512
 91
        0
  1

274
    -2
284
     1
 64
     0
275
    -2
285
     1
 65
     0
276
    -2
286
     1
 66
     0
277
    -2
287
     1
 67
     0
278
    -2
288
     1
 68
     0
279
    -2
289
     1
 69
     0
  0
VISUALSTYLE
  5
2F
102
{ACAD_REACTORS
330
29
102
}
330
29
100
AcDbVisualStyle
  2
2dWireframe
 70
     4
177
     3
291
     0
 70
    58
 90
        0
176
     1
 90
        2
176
     1
 90
        0
176
     1
 90
        0
176
     1
 40
0.6
176
     1
 40
30.0
176
     1
 62
     7
420
 16777215
176
     1
 90
        1
176
     1
 90
        4
176
     1
 62
     7
176
     1
 62
   257
176
     1
 90
        1
176
     1
 90
        1
176
     1
 40
1.0
176
     1
 90
        0
176
     1
 62
   257
176
     1
 40
1.0
176
     1
 90
        1
176
     1
 90
        6
176
     1
 90
        2
176
     1
 62
     7
176
     1
 90
        5
176
     1
 90
        0
176
     1
 90
        0
176
     1
290
     0
176
     1
 90
        1
176
     1
 40
0.0
176
     1
 90
        0
176
     1
290
     1
176
     1
290
     1
176
     1
290
     0
176
     1
290
     0
176
     1
290
     0
176
     1
290
     0
176
     1
290
     0
176
     1
290
     0
176
     1
290
     0
176
     1
 90
       50
176
     1
 40
0.0
176
     1
 40
1.0
176
     1
 90
        0
176
     1
 62
    18
420
        0
176
     1
 90
       50
176
     1
 90
        3
176
     1
 62
     5
420
      255
176
     1
290
     0
176
     1
 90
       50
176
     1
 90
       50
176
     1
 90
       50
176
     1
290
     0
176
     1
 90
       50
176
     1
 62
   256
176
     0
 40
1.0
176
     0
 90
        2
176
     1
  1
strokes_ogs.tif
176
     1
290
     0
176
     1
 40
1.0
176
     1
 40
1.0
176
     1
  0
VISUALSTYLE
  5
2E
102
{ACAD_REACTORS
330
29
102
}
330
29
100
AcDbVisualStyle
  2
Basic
 70
     7
177
     3
291
     1
 70
    58
 90
        1
176
     1
 90
        0
176
     1
 90
        1
176
     1
 90
        0
176
     1
 40
0.6
176
     1
 40
30.0
176
     1
 62
     7
420
 16777215
176
     1
 90
        0
176
     1
 90
        4
176
     1
 62
     7
176
     1
 62
   257
176
     1
 90
        1
176
     1
 90
        1
176
     1
 40
1.0
176
     1
 90
        8
176
     1
 62
     7
176
     1
 40
1.0
176
     1
 90
        1
176
     1
 90
        6
176
     1
 90
        2
176
     1
 62
     7
176
     1
 90
        5
176
     1
 90
        0
176
     1
 90
        0
176
     1
290
     0
176
     1
 90
        1
176
     1
 40
0.0
176
     1
 90
        0
176
     1
290
     0
176
     1
290
     1
176
     1
290
     1
176
     1
290
     0
176
     1
290
     0
176
     1
290
     0
176
     1
290
     0
176
     1
290
     0
176
     1
290
     0
176
     1
 90
       50
176
     1
 40
0.0
176
     1
 40
1.0
176
     1
 90
        0
176
     1
 62
    18
420
        0
176
     1
 90
       50
176
     1
 90
        3
176
     1
 62
     5
420
      255
176
     1
290
     0
176
     1
 90
       50
176
     1
 90
       50
176
     1
 90
       50
176
     1
290
     0
176
     1
 90
       50
176
     1
 62
   256
176
     0
 40
1.0
176
     0
 90
        2
176
     1
  1
strokes_ogs.tif
176
     1
290
     0
176
     1
 40
1.0
176
     1
 40
1.0
176
     1
  0
VISUALSTYLE
  5
35
102
{ACAD_REACTORS
330
29
102
}
330
29
100
AcDbVisualStyle
  2
Brighten
 70
    12
177
     3
291
     1
 70
    58
 90
        2
176
     1
 90
        2
176
     1
 90
        0
176
     1
 90
        0
176
     1
 40
0.6
176
     1
 40
30.0
176
     1
 62
     7
420
 16777215
176
     1
 90
        1
176
     1
 90
        4
176
     1
 62
     7
176
     1
 62
   257
176
     1
 90
        1
176
     1
 90
        1
176
     1
 40
1.0
176
     1
 90
        8
176
     1
 62
     7
176
     1
 40
1.0
176
     1
 90
        1
176
     1
 90
        6
176
     1
 90
        2
176
     1
 62
     7
176
     1
 90
        5
176
     1
 90
        0
176
     1
 90
        0
176
     1
290
     0
176
     1
 90
        1
176
     1
 40
50.0
176
     1
 90
        0
176
     1
290
     0
176
     1
290
     1
176
     1
290
     1
176
     1
290
     0
176
     1
290
     0
176
     1
290
     0
176
     1
290
     0
176
     1
290
     0
176
     1
290
     0
176
     1
 90
       50
176
     1
 40
0.0
176
     1
 40
1.0
176
     1
 90
        0
176
     1
 62
    18
420
        0
176
     1
 90
       50
176
     1
 90
        3
176
     1
 62
     5
420
      255
176
     1
290
     0
176
     1
 90
       50
176
     1
 90
       50
176
     1
 90
       50
176
     1
290
     0
176
     1
 90
       50
176
     1
 62
   256
176
     0
 40
1.0
176
     0
 90
        2
176
     1
  1
strokes_ogs.tif
176
     1
290
     0
176
     1
 40
1.0
176
     1
 40
1.0
176
     1
  0
VISUALSTYLE
  5
39
102
{ACAD_REACTORS
330
29
102
}
330
29
100
AcDbVisualStyle
  2
ColorChange
 70
    16
177
     3
291
     1
 70
    58
 90
        2
176
     1
 90
        2
176
     1
 90
        3
176
     1
 90
        0
176
     1
 40
0.6
176
     1
 40
30.0
176
     1
 62
     8
420
  8421504
176
     1
 90
        1
176
     1
 90
        4
176
     1
 62
     7
176
     1
 62
   257
176
     1
 90
        1
176
     1
 90
        1
176
     1
 40
1.0
176
     1
 90
        8
176
     1
 62
     8
420
  8421504
176
     1
 40
1.0
176
     1
 90
        1
176
     1
 90
        6
176
     1
 90
        2
176
     1
 62
     7
176
     1
 90
        5
176
     1
 90
        0
176
     1
 90
        0
176
     1
290
     0
176
     1
 90
        1
176
     1
 40
0.0
176
     1
 90
        0
176
     1
290
     0
176
     1
290
     1
176
     1
290
     1
176
     1
290
     0
176
     1
290
     0
176
     1
290
     0
176
     1
290
     0
176
     1
290
     0
176
     1
290
     0
176
     1
 90
       50
176
     1
 40
0.0
176
     1
 40
1.0
176
     1
 90
        0
176
     1
 62
    18
420
        0
176
     1
 90
       50
176
     1
 90
        3
176
     1
 62
     5
420
      255
176
     1
290
     0
176
     1
 90
       50
176
     1
 90
       50
176
     1
 90
       50
176
     1
290
     0
176
     1
 90
       50
176
     1
 62
   256
176
     0
 40
1.0
176
     0
 90
        2
176
     1
  1
strokes_ogs.tif
176
     1
290
     0
176
     1
 40
1.0
176
     1
 40
1.0
176
     1
  0
VISUALSTYLE
  5
32
102
{ACAD_REACTORS
330
29
102
}
330
29
100
AcDbVisualStyle
  2
Conceptual
 70
     9
177
     3
291
     0
 70
    58
 90
        3
176
     1
 90
        2
176
     1
 90
        0
176
     1
 90
        0
176
     1
 40
0.6
176
     1
 40
30.0
176
     1
 62
     7
420
 16777215
176
     1
 90
        2
176
     1
 90
        2
176
     1
 62
     7
176
     1
 62
   257
176
     1
 90
        1
176
     1
 90
        1
176
     1
 40
179.0
176
     1
 90
        8
176
     1
 62
     7
176
     1
 40
1.0
176
     1
 90
        1
176
     1
 90
        6
176
     1
 90
        2
176
     1
 62
     7
176
     1
 90
        3
176
     1
 90
        0
176
     1
 90
        0
176
     1
290
     0
176
     1
 90
        1
176
     1
 40
0.0
176
     1
 90
        0
176
     1
290
     0
176
     1
290
     1
176
     1
290
     1
176
     1
290
     0
176
     1
290
     0
176
     1
290
     0
176
     1
290
     0
176
     1
290
     0
176
     1
290
     0
176
     1
 90
       50
176
     1
 40
0.0
176
     1
 40
1.0
176
     1
 90
        0
176
     1
 62
    18
420
        0
176
     1
 90
       50
176
     1
 90
        3
176
     1
 62
     5
420
      255
176
     1
290
     0
176
     1
 90
       50
176
     1
 90
       50
176
     1
 90
       50
176
     1
290
     0
176
     1
 90
       50
176
     1
 62
   256
176
     0
 40
1.0
176
     0
 90
        2
176
     1
  1
strokes_ogs.tif
176
     1
290
     0
176
     1
 40
1.0
176
     1
 40
1.0
176
     1
  0
VISUALSTYLE
  5
34
102
{ACAD_REACTORS
330
29
102
}
330
29
100
AcDbVisualStyle
  2
Dim
 70
    11
177
     3
291
     1
 70
    58
 90
        2
176
     1
 90
        2
176
     1
 90
        0
176
     1
 90
        0
176
     1
 40
0.6
176
     1
 40
30.0
176
     1
 62
     7
420
 16777215
176
     1
 90
        1
176
     1
 90
        4
176
     1
 62
     7
176
     1
 62
   257
176
     1
 90
        1
176
     1
 90
        1
176
     1
 40
1.0
176
     1
 90
        8
176
     1
 62
     7
176
     1
 40
1.0
176
     1
 90
        1
176
     1
 90
        6
176
     1
 90
        2
176
     1
 62
     7
176
     1
 90
        5
176
     1
 90
        0
176
     1
 90
        0
176
     1
290
     0
176
     1
 90
        1
176
     1
 40
-50.0
176
     1
 90
        0
176
     1
290
     0
176
     1
290
     1
176
     1
290
     1
176
     1
290
     0
176
     1
290
     0
176
     1
290
     0
176
     1
290
     0
176
     1
290
     0
176
     1
290
     0
176
     1
 90
       50
176
     1
 40
0.0
176
     1
 40
1.0
176
     1
 90
        0
176
     1
 62
    18
420
        0
176
     1
 90
       50
176
     1
 90
        3
176
     1
 62
     5
420
      255
176
     1
290
     0
176
     1
 90
       50
176
     1
 90
       50
176
     1
 90
       50
176
     1
290
     0
176
     1
 90
       50
176
     1
 62
   256
176
     0
 40
1.0
176
     0
 90
        2
176
     1
  1
strokes_ogs.tif
176
     1
290
     0
176
     1
 40
1.0
176
     1
 40
1.0
176
     1
  0
VISUALSTYLE
  5
41
102
{ACAD_REACTORS
330
29
102
}
330
29
100
AcDbVisualStyle
  2
EdgeColorOff
 70
    22
177
     3
291
     1
 70
    58
 90
        2
176
     0
 90
        2
176
     0
 90
        0
176
     0
 90
        0
176
     0
 40
0.6
176
     0
 40
30.0
176
     0
 62
     7
420
 16777215
176
     0
 90
        1
176
     0
 90
        4
176
     0
 62
     7
176
     0
 62
   257
176
     0
 90
        1
176
     0
 90
        1
176
     0
 40
1.0
176
     0
 90
        8
176
     2
 62
     7
176
     0
 40
1.0
176
     0
 90
        1
176
     0
 90
        6
176
     0
 90
        2
176
     0
 62
     7
176
     0
 90
        5
176
     0
 90
        0
176
     0
 90
        0
176
     0
290
     0
176
     0
 90
        1
176
     0
 40
0.0
176
     0
 90
        0
176
     0
290
     0
176
     0
290
     1
176
     0
290
     1
176
     0
290
     0
176
     0
290
     0
176
     0
290
     0
176
     0
290
     0
176
     0
290
     0
176
     0
290
     0
176
     0
 90
       50
176
     0
 40
0.0
176
     0
 40
1.0
176
     0
 90
        0
176
     0
 62
    18
420
        0
176
     0
 90
       50
176
     0
 90
        3
176
     0
 62
     5
420
      255
176
     0
290
     0
176
     0
 90
       50
176
     0
 90
       50
176
     0
 90
       50
176
     0
290
     0
176
     0
 90
       50
176
     0
 62
   256
176
     0
 40
1.0
176
     0
 90
        2
176
     0
  1
strokes_ogs.tif
176
     0
290
     0
176
     0
 40
1.0
176
     0
 40
1.0
176
     0
  0
VISUALSTYLE
  5
38
102
{ACAD_REACTORS
330
29
102
}
330
29
100
AcDbVisualStyle
  2
Facepattern
 70
    15
177
     3
291
     1
 70
    58
 90
        2
176
     1
 90
        2
176
     1
 90
        0
176
     1
 90
        0
176
     1
 40
0.6
176
     1
 40
30.0
176
     1
 62
     7
420
 16777215
176
     1
 90
        1
176
     1
 90
        4
176
     1
 62
     7
176
     1
 62
   257
176
     1
 90
        1
176
     1
 90
        1
176
     1
 40
1.0
176
     1
 90
        8
176
     1
 62
     7
176
     1
 40
1.0
176
     1
 90
        1
176
     1
 90
        6
176
     1
 90
        2
176
     1
 62
     7
176
     1
 90
        5
176
     1
 90
        0
176
     1
 90
        0
176
     1
290
     0
176
     1
 90
        1
176
     1
 40
0.0
176
     1
 90
        0
176
     1
290
     0
176
     1
290
     1
176
     1
290
     1
176
     1
290
     0
176
     1
290
     0
176
     1
290
     0
176
     1
290
     0
176
     1
290
     0
176
     1
290
     0
176
     1
 90
       50
176
     1
 40
0.0
176
     1
 40
1.0
176
     1
 90
        0
176
     1
 62
    18
420
        0
176
     1
 90
       50
176
     1
 90
        3
176
     1
 62
     5
420
      255
176
     1
290
     0
176
     1
 90
       50
176
     1
 90
       50
176
     1
 90
       50
176
     1
290
     0
176
     1
 90
       50
176
     1
 62
   256
176
     0
 40
1.0
176
     0
 90
        2
176
     1
  1
strokes_ogs.tif
176
     1
290
     0
176
     1
 40
1.0
176
     1
 40
1.0
176
     1
  0
VISUALSTYLE
  5
2A
102
{ACAD_REACTORS
330
29
102
}
330
29
100
AcDbVisualStyle
  2
Flat
 70
     0
177
     3
291
     1
 70
    58
 90
        2
176
     1
 90
        1
176
     1
 90
        1
176
     1
 90
        2
176
     1
 40
0.6
176
     1
 40
30.0
176
     1
 62
     7
420
 16777215
176
     1
 90
        0
176
     1
 90
        0
176
     1
 62
     7
176
     1
 62
   257
176
     1
 90
        1
176
     1
 90
        1
176
     1
 40
1.0
176
     1
 90
        8
176
     1
 62
     7
176
     1
 40
1.0
176
     1
 90
        1
176
     1
 90
        6
176
     1
 90
        2
176
     1
 62
     7
176
     1
 90
        5
176
     1
 90
        0
176
     1
 90
        0
176
     1
290
     0
176
     1
 90
       13
176
     1
 40
0.0
176
     1
 90
        0
176
     1
290
     0
176
     1
290
     1
176
     1
290
     1
176
     1
290
     0
176
     1
290
     0
176
     1
290
     0
176
     1
290
     0
176
     1
290
     0
176
     1
290
     0
176
     1
 90
       50
176
     1
 40
0.0
176
     1
 40
1.0
176
     1
 90
        0
176
     1
 62
    18
420
        0
176
     1
 90
       50
176
     1
 90
        3
176
     1
 62
     5
420
      255
176
     1
290
     0
176
     1
 90
       50
176
     1
 90
       50
176
     1
 90
       50
176
     1
290
     0
176
     1
 90
       50
176
     1
 62
   256
176
     0
 40
1.0
176
     0
 90
        2
176
     1
  1
strokes_ogs.tif
176
     1
290
     0
176
     1
 40
1.0
176
     1
 40
1.0
176
     1
  0
VISUALSTYLE
  5
2B
102
{ACAD_REACTORS
330
29
102
}
330
29
100
AcDbVisualStyle
  2
FlatWithEdges
 70
     1
177
     3
291
     1
 70
    58
 90
        2
176
     1
 90
        1
176
     1
 90
        1
176
     1
 90
        2
176
     1
 40
0.6
176
     1
 40
30.0
176
     1
 62
     7
420
 16777215
176
     1
 90
        1
176
     1
 90
        0
176
     1
 62
     7
176
     1
 62
   257
176
     1
 90
        1
176
     1
 90
        1
176
     1
 40
1.0
176
     1
 90
        0
176
     1
 62
   257
176
     1
 40
1.0
176
     1
 90
        1
176
     1
 90
        6
176
     1
 90
        2
176
     1
 62
     7
176
     1
 90
        5
176
     1
 90
        0
176
     1
 90
        0
176
     1
290
     0
176
     1
 90
       13
176
     1
 40
0.0
176
     1
 90
        0
176
     1
290
     0
176
     1
290
     1
176
     1
290
     1
176
     1
290
     0
176
     1
290
     0
176
     1
290
     0
176
     1
290
     0
176
     1
290
     0
176
     1
290
     0
176
     1
 90
       50
176
     1
 40
0.0
176
     1
 40
1.0
176
     1
 90
        0
176
     1
 62
    18
420
        0
176
     1
 90
       50
176
     1
 90
        3
176
     1
 62
     5
420
      255
176
     1
290
     0
176
     1
 90
       50
176
     1
 90
       50
176
     1
 90
       50
176
     1
290
     0
176
     1
 90
       50
176
     1
 62
   256
176
     0
 40
1.0
176
     0
 90
        2
176
     1
  1
strokes_ogs.tif
176
     1
290
     0
176
     1
 40
1.0
176
     1
 40
1.0
176
     1
  0
VISUALSTYLE
  5
2C
102
{ACAD_REACTORS
330
29
102
}
330
29
100
AcDbVisualStyle
  2
Gouraud
 70
     2
177
     3
291
     1
 70
    58
 90
        2
176
     1
 90
        2
176
     1
 90
        1
176
     1
 90
        2
176
     1
 40
0.6
176
     1
 40
30.0
176
     1
 62
     7
420
 16777215
176
     1
 90
        0
176
     1
 90
        0
176
     1
 62
     7
176
     1
 62
   257
176
     1
 90
        1
176
     1
 90
        1
176
     1
 40
1.0
176
     1
 90
        0
176
     1
 62
     7
176
     1
 40
1.0
176
     1
 90
        1
176
     1
 90
        6
176
     1
 90
        2
176
     1
 62
     7
176
     1
 90
        5
176
     1
 90
        0
176
     1
 90
        0
176
     1
290
     0
176
     1
 90
       13
176
     1
 40
0.0
176
     1
 90
        0
176
     1
290
     0
176
     1
290
     1
176
     1
290
     1
176
     1
290
     0
176
     1
290
     0
176
     1
290
     0
176
     1
290
     0
176
     1
290
     0
176
     1
290
     0
176
     1
 90
       50
176
     1
 40
0.0
176
     1
 40
1.0
176
     1
 90
        0
176
     1
 62
    18
420
        0
176
     1
 90
       50
176
     1
 90
        3
176
     1
 62
     5
420
      255
176
     1
290
     0
176
     1
 90
       50
176
     1
 90
       50
176
     1
 90
       50
176
     1
290
     0
176
     1
 90
       50
176
     1
 62
   256
176
     0
 40
1.0
176
     0
 90
        2
176
     1
  1
strokes_ogs.tif
176
     1
290
     0
176
     1
 40
1.0
176
     1
 40
1.0
176
     1
  0
VISUALSTYLE
  5
2D
102
{ACAD_REACTORS
330
29
102
}
330
29
100
AcDbVisualStyle
  2
GouraudWithEdges
 70
     3
177
     3
291
     1
 70
    58
 90
        2
176
     1
 90
        2
176
     1
 90
        1
176
     1
 90
        2
176
     1
 40
0.6
176
     1
 40
30.0
176
     1
 62
     7
420
 16777215
176
     1
 90
        1
176
     1
 90
        0
176
     1
 62
     7
176
     1
 62
   257
176
     1
 90
        1
176
     1
 90
        1
176
     1
 40
1.0
176
     1
 90
        0
176
     1
 62
   257
176
     1
 40
1.0
176
     1
 90
        1
176
     1
 90
        6
176
     1
 90
        2
176
     1
 62
     7
176
     1
 90
        5
176
     1
 90
        0
176
     1
 90
        0
176
     1
290
     0
176
     1
 90
       13
176
     1
 40
0.0
176
     1
 90
        0
176
     1
290
     0
176
     1
290
     1
176
     1
290
     1
176
     1
290
     0
176
     1
290
     0
176
     1
290
     0
176
     1
290
     0
176
     1
290
     0
176
     1
290
     0
176
     1
 90
       50
176
     1
 40
0.0
176
     1
 40
1.0
176
     1
 90
        0
176
     1
 62
    18
420
        0
176
     1
 90
       50
176
     1
 90
        3
176
     1
 62
     5
420
      255
176
     1
290
     0
176
     1
 90
       50
176
     1
 90
       50
176
     1
 90
       50
176
     1
290
     0
176
     1
 90
       50
176
     1
 62
   256
176
     0
 40
1.0
176
     0
 90
        2
176
     1
  1
strokes_ogs.tif
176
     1
290
     0
176
     1
 40
1.0
176
     1
 40
1.0
176
     1
  0
VISUALSTYLE
  5
31
102
{ACAD_REACTORS
330
29
102
}
330
29
100
AcDbVisualStyle
  2
Hidden
 70
     6
177
     3
291
     0
 70
    58
 90
        1
176
     1
 90
        2
176
     1
 90
        2
176
     1
 90
        0
176
     1
 40
0.6
176
     1
 40
30.0
176
     1
 62
     7
420
 16777215
176
     1
 90
        2
176
     1
 90
        2
176
     1
 62
     7
176
     1
 62
   257
176
     1
 90
        2
176
     1
 90
        1
176
     1
 40
40.0
176
     1
 90
        0
176
     1
 62
   257
176
     1
 40
1.0
176
     1
 90
        1
176
     1
 90
        6
176
     1
 90
        2
176
     1
 62
     7
176
     1
 90
        3
176
     1
 90
        0
176
     1
 90
        0
176
     1
290
     0
176
     1
 90
        1
176
     1
 40
0.0
176
     1
 90
        0
176
     1
290
     0
176
     1
290
     1
176
     1
290
     1
176
     1
290
     0
176
     1
290
     0
176
     1
290
     0
176
     1
290
     0
176
     1
290
     0
176
     1
290
     0
176
     1
 90
       50
176
     1
 40
0.0
176
     1
 40
1.0
176
     1
 90
        0
176
     1
 62
    18
420
        0
176
     1
 90
       50
176
     1
 90
        3
176
     1
 62
     5
420
      255
176
     1
290
     0
176
     1
 90
       50
176
     1
 90
       50
176
     1
 90
       50
176
     1
290
     0
176
     1
 90
       50
176
     1
 62
   256
176
     0
 40
1.0
176
     0
 90
        2
176
     1
  1
strokes_ogs.tif
176
     1
290
     0
176
     1
 40
1.0
176
     1
 40
1.0
176
     1
  0
VISUALSTYLE
  5
3F
102
{ACAD_REACTORS
330
29
102
}
330
29
100
AcDbVisualStyle
  2
JitterOff
 70
    20
177
     3
291
     1
 70
    58
 90
        2
176
     0
 90
        2
176
     0
 90
        0
176
     0
 90
        0
176
     0
 40
0.6
176
     0
 40
30.0
176
     0
 62
     7
420
 16777215
176
     0
 90
        1
176
     0
 90
        4
176
     0
 62
     7
176
     0
 62
   257
176
     0
 90
        1
176
     0
 90
        1
176
     0
 40
1.0
176
     0
 90
       10
176
     2
 62
     7
176
     0
 40
1.0
176
     0
 90
        1
176
     0
 90
        6
176
     0
 90
        2
176
     0
 62
     7
176
     0
 90
        5
176
     0
 90
        0
176
     0
 90
        0
176
     0
290
     0
176
     0
 90
        1
176
     0
 40
0.0
176
     0
 90
        0
176
     0
290
     0
176
     0
290
     1
176
     0
290
     1
176
     0
290
     0
176
     0
290
     0
176
     0
290
     0
176
     0
290
     0
176
     0
290
     0
176
     0
290
     0
176
     0
 90
       50
176
     0
 40
0.0
176
     0
 40
1.0
176
     0
 90
        0
176
     0
 62
    18
420
        0
176
     0
 90
       50
176
     0
 90
        3
176
     0
 62
     5
420
      255
176
     0
290
     0
176
     0
 90
       50
176
     0
 90
       50
176
     0
 90
       50
176
     0
290
     0
176
     0
 90
       50
176
     0
 62
   256
176
     0
 40
1.0
176
     0
 90
        2
176
     0
  1
strokes_ogs.tif
176
     0
290
     0
176
     0
 40
1.0
176
     0
 40
1.0
176
     0
  0
VISUALSTYLE
  5
37
102
{ACAD_REACTORS
330
29
102
}
330
29
100
AcDbVisualStyle
  2
Linepattern
 70
    14
177
     3
291
     1
 70
    58
 90
        2
176
     1
 90
        2
176
     1
 90
        0
176
     1
 90
        0
176
     1
 40
0.6
176
     1
 40
30.0
176
     1
 62
     7
420
 16777215
176
     1
 90
        1
176
     1
 90
        4
176
     1
 62
     7
176
     1
 62
   257
176
     1
 90
        7
176
     1
 90
        7
176
     1
 40
1.0
176
     1
 90
        8
176
     1
 62
     7
176
     1
 40
1.0
176
     1
 90
        1
176
     1
 90
        6
176
     1
 90
        2
176
     1
 62
     7
176
     1
 90
        5
176
     1
 90
        0
176
     1
 90
        0
176
     1
290
     0
176
     1
 90
        1
176
     1
 40
0.0
176
     1
 90
        0
176
     1
290
     0
176
     1
290
     1
176
     1
290
     1
176
     1
290
     0
176
     1
290
     0
176
     1
290
     0
176
     1
290
     0
176
     1
290
     0
176
     1
290
     0
176
     1
 90
       50
176
     1
 40
0.0
176
     1
 40
1.0
176
     1
 90
        0
176
     1
 62
    18
420
        0
176
     1
 90
       50
176
     1
 90
        3
176
     1
 62
     5
420
      255
176
     1
290
     0
176
     1
 90
       50
176
     1
 90
       50
176
     1
 90
       50
176
     1
290
     0
176
     1
 90
       50
176
     1
 62
   256
176
     0
 40
1.0
176
     0
 90
        2
176
     1
  1
strokes_ogs.tif
176
     1
290
     0
176
     1
 40
1.0
176
     1
 40
1.0
176
     1
  0
VISUALSTYLE
  5
40
102
{ACAD_REACTORS
330
29
102
}
330
29
100
AcDbVisualStyle
  2
OverhangOff
 70
    21
177
     3
291
     1
 70
    58
 90
        2
176
     0
 90
        2
176
     0
 90
        0
176
     0
 90
        0
176
     0
 40
0.6
176
     0
 40
30.0
176
     0
 62
     7
420
 16777215
176
     0
 90
        1
176
     0
 90
        4
176
     0
 62
     7
176
     0
 62
   257
176
     0
 90
        1
176
     0
 90
        1
176
     0
 40
1.0
176
     0
 90
        9
176
     2
 62
     7
176
     0
 40
1.0
176
     0
 90
        1
176
     0
 90
        6
176
     0
 90
        2
176
     0
 62
     7
176
     0
 90
        5
176
     0
 90
        0
176
     0
 90
        0
176
     0
290
     0
176
     0
 90
        1
176
     0
 40
0.0
176
     0
 90
        0
176
     0
290
     0
176
     0
290
     1
176
     0
290
     1
176
     0
290
     0
176
     0
290
     0
176
     0
290
     0
176
     0
290
     0
176
     0
290
     0
176
     0
290
     0
176
     0
 90
       50
176
     0
 40
0.0
176
     0
 40
1.0
176
     0
 90
        0
176
     0
 62
    18
420
        0
176
     0
 90
       50
176
     0
 90
        3
176
     0
 62
     5
420
      255
176
     0
290
     0
176
     0
 90
       50
176
     0
 90
       50
176
     0
 90
       50
176
     0
290
     0
176
     0
 90
       50
176
     0
 62
   256
176
     0
 40
1.0
176
     0
 90
        2
176
     0
  1
strokes_ogs.tif
176
     0
290
     0
176
     0
 40
1.0
176
     0
 40
1.0
176
     0
  0
VISUALSTYLE
  5
33
102
{ACAD_REACTORS
330
29
102
}
330
29
100
AcDbVisualStyle
  2
Realistic
 70
     8
177
     3
291
     0
 70
    58
 90
        2
176
     1
 90
        3
176
     1
 90
        0
176
     1
 90
        2
176
     1
 40
0.6
176
     1
 40
30.0
176
     1
 62
     7
420
 16777215
176
     1
 90
        0
176
     1
 90
        0
176
     1
 62
     7
176
     1
 62
   257
176
     1
 90
        1
176
     1
 90
        1
176
     1
 40
1.0
176
     1
 90
        8
176
     1
 62
   257
176
     1
 40
1.0
176
     1
 90
        1
176
     1
 90
        6
176
     1
 90
        2
176
     1
 62
     7
176
     1
 90
        3
176
     1
 90
        0
176
     1
 90
        0
176
     1
290
     0
176
     1
 90
       13
176
     1
 40
0.0
176
     1
 90
        0
176
     1
290
     0
176
     1
290
     1
176
     1
290
     1
176
     1
290
     0
176
     1
290
     0
176
     1
290
     0
176
     1
290
     0
176
     1
290
     0
176
     1
290
     0
176
     1
 90
       50
176
     1
 40
0.0
176
     1
 40
1.0
176
     1
 90
        0
176
     1
 62
    18
420
        0
176
     1
 90
       50
176
     1
 90
        3
176
     1
 62
     5
420
      255
176
     1
290
     0
176
     1
 90
       50
176
     1
 90
       50
176
     1
 90
       50
176
     1
290
     0
176
     1
 90
       50
176
     1
 62
   256
176
     0
 40
1.0
176
     0
 90
        2
176
     1
  1
strokes_ogs.tif
176
     1
290
     0
176
     1
 40
1.0
176
     1
 40
1.0
176
     1
  0
VISUALSTYLE
  5
3E
102
{ACAD_REACTORS
330
29
102
}
330
29
100
AcDbVisualStyle
  2
Shaded
 70
    27
177
     3
291
     0
 70
    58
 90
        2
176
     1
 90
        2
176
     1
 90
        1
176
     1
 90
        2
176
     1
 40
0.6
176
     1
 40
30.0
176
     1
 62
     7
420
 16777215
176
     1
 90
        0
176
     1
 90
        4
176
     1
 62
     7
176
     1
 62
   257
176
     1
 90
        1
176
     1
 90
        1
176
     1
 40
1.0
176
     1
 90
        8
176
     1
 62
   257
176
     1
 40
1.0
176
     1
 90
        1
176
     1
 90
        6
176
     1
 90
        2
176
     1
 62
     8
420
  7895160
176
     1
 90
        3
176
     1
 90
        0
176
     1
 90
        0
176
     1
290
     0
176
     1
 90
        5
176
     1
 40
0.0
176
     1
 90
        0
176
     1
290
     0
176
     1
290
     1
176
     1
290
     1
176
     1
290
     0
176
     1
290
     0
176
     1
290
     0
176
     1
290
     0
176
     1
290
     0
176
     1
290
     0
176
     1
 90
       50
176
     1
 40
0.0
176
     1
 40
1.0
176
     1
 90
        0
176
     1
 62
    18
420
        0
176
     1
 90
       50
176
     1
 90
        3
176
     1
 62
     5
420
      255
176
     1
290
     0
176
     1
 90
       50
176
     1
 90
       50
176
     1
 90
       50
176
     1
290
     0
176
     1
 90
       50
176
     1
 62
   256
176
     0
 40
1.0
176
     0
 90
        2
176
     1
  1
strokes_ogs.tif
176
     1
290
     0
176
     1
 40
1.0
176
     1
 40
1.0
176
     1
  0
VISUALSTYLE
  5
3D
102
{ACAD_REACTORS
330
29
102
}
330
29
100
AcDbVisualStyle
  2
Shaded with edges
 70
    26
177
     3
291
     0
 70
    58
 90
        2
176
     1
 90
        2
176
     1
 90
        1
176
     1
 90
        2
176
     1
 40
0.6
176
     1
 40
30.0
176
     1
 62
     7
420
 16777215
176
     1
 90
        1
176
     1
 90
       10
176
     1
 62
     7
176
     1
 62
   257
176
     1
 90
        2
176
     1
 90
        1
176
     1
 40
1.0
176
     1
 90
        8
176
     1
 62
   257
176
     1
 40
1.0
176
     1
 90
        1
176
     1
 90
        6
176
     1
 90
        2
176
     1
 62
     7
176
     1
 90
        3
176
     1
 90
        0
176
     1
 90
        0
176
     1
290
     0
176
     1
 90
        5
176
     1
 40
0.0
176
     1
 90
        0
176
     1
290
     0
176
     1
290
     1
176
     1
290
     1
176
     1
290
     0
176
     1
290
     0
176
     1
290
     0
176
     1
290
     0
176
     1
290
     0
176
     1
290
     0
176
     1
 90
       50
176
     1
 40
0.0
176
     1
 40
1.0
176
     1
 90
        0
176
     1
 62
    18
420
        0
176
     1
 90
       50
176
     1
 90
        3
176
     1
 62
     5
420
      255
176
     1
290
     0
176
     1
 90
       50
176
     1
 90
       50
176
     1
 90
       50
176
     1
290
     0
176
     1
 90
       50
176
     1
 62
   256
176
     0
 40
1.0
176
     0
 90
        2
176
     1
  1
strokes_ogs.tif
176
     1
290
     0
176
     1
 40
1.0
176
     1
 40
1.0
176
     1
  0
VISUALSTYLE
  5
3A
102
{ACAD_REACTORS
330
29
102
}
330
29
100
AcDbVisualStyle
  2
Shades of Gray
 70
    23
177
     3
291
     0
 70
    58
 90
        2
176
     1
 90
        2
176
     1
 90
        3
176
     1
 90
        0
176
     1
 40
0.6
176
     1
 40
30.0
176
     1
 62
     7
420
 16777215
176
     1
 90
        2
176
     1
 90
        2
176
     1
 62
     7
176
     1
 62
     7
176
     1
 90
        1
176
     1
 90
        1
176
     1
 40
40.0
176
     1
 90
        8
176
     1
 62
     7
176
     1
 40
1.0
176
     1
 90
        1
176
     1
 90
        6
176
     1
 90
        2
176
     1
 62
     7
176
     1
 90
        3
176
     1
 90
        0
176
     1
 90
        0
176
     1
290
     0
176
     1
 90
        1
176
     1
 40
0.0
176
     1
 90
        0
176
     1
290
     0
176
     1
290
     1
176
     1
290
     1
176
     1
290
     0
176
     1
290
     0
176
     1
290
     0
176
     1
290
     0
176
     1
290
     0
176
     1
290
     0
176
     1
 90
       50
176
     1
 40
0.0
176
     1
 40
1.0
176
     1
 90
        0
176
     1
 62
    18
420
        0
176
     1
 90
       50
176
     1
 90
        3
176
     1
 62
     5
420
      255
176
     1
290
     0
176
     1
 90
       50
176
     1
 90
       50
176
     1
 90
       50
176
     1
290
     0
176
     1
 90
       50
176
     1
 62
   256
176
     0
 40
1.0
176
     0
 90
        2
176
     1
  1
strokes_ogs.tif
176
     1
290
     0
176
     1
 40
1.0
176
     1
 40
1.0
176
     1
  0
VISUALSTYLE
  5
3B
102
{ACAD_REACTORS
330
29
102
}
330
29
100
AcDbVisualStyle
  2
Sketchy
 70
    24
177
     3
291
     0
 70
    58
 90
        1
176
     1
 90
        2
176
     1
 90
        2
176
     1
 90
        0
176
     1
 40
0.6
176
     1
 40
30.0
176
     1
 62
     7
420
 16777215
176
     1
 90
        2
176
     1
 90
        2
176
     1
 62
     7
176
     1
 62
     7
176
     1
 90
        1
176
     1
 90
        1
176
     1
 40
40.0
176
     1
 90
       11
176
     1
 62
     7
176
     1
 40
1.0
176
     1
 90
        1
176
     1
 90
        6
176
     1
 90
        2
176
     1
 62
     7
176
     1
 90
        6
176
     1
 90
        0
176
     1
 90
        0
176
     1
290
     0
176
     1
 90
        1
176
     1
 40
0.0
176
     1
 90
        0
176
     1
290
     0
176
     1
290
     1
176
     1
290
     1
176
     1
290
     0
176
     1
290
     0
176
     1
290
     0
176
     1
290
     0
176
     1
290
     0
176
     1
290
     0
176
     1
 90
       50
176
     1
 40
0.0
176
     1
 40
1.0
176
     1
 90
        0
176
     1
 62
    18
420
        0
176
     1
 90
       50
176
     1
 90
        3
176
     1
 62
     5
420
      255
176
     1
290
     0
176
     1
 90
       50
176
     1
 90
       50
176
     1
 90
       50
176
     1
290
     0
176
     1
 90
       50
176
     1
 62
   256
176
     0
 40
1.0
176
     0
 90
        2
176
     1
  1
strokes_ogs.tif
176
     1
290
     0
176
     1
 40
1.0
176
     1
 40
1.0
176
     1
  0
VISUALSTYLE
  5
36
102
{ACAD_REACTORS
330
29
102
}
330
29
100
AcDbVisualStyle
  2
Thicken
 70
    13
177
     3
291
     1
 70
    58
 90
        2
176
     1
 90
        2
176
     1
 90
        0
176
     1
 90
        0
176
     1
 40
0.6
176
     1
 40
30.0
176
     1
 62
     7
420
 16777215
176
     1
 90
        1
176
     1
 90
        4
176
     1
 62
     7
176
     1
 62
   257
176
     1
 90
        1
176
     1
 90
        1
176
     1
 40
1.0
176
     1
 90
       12
176
     1
 62
     7
176
     1
 40
1.0
176
     1
 90
        1
176
     1
 90
        6
176
     1
 90
        2
176
     1
 62
     7
176
     1
 90
        5
176
     1
 90
        0
176
     1
 90
        0
176
     1
290
     0
176
     1
 90
        1
176
     1
 40
0.0
176
     1
 90
        0
176
     1
290
     0
176
     1
290
     1
176
     1
290
     1
176
     1
290
     0
176
     1
290
     0
176
     1
290
     0
176
     1
290
     0
176
     1
290
     0
176
     1
290
     0
176
     1
 90
       50
176
     1
 40
0.0
176
     1
 40
1.0
176
     1
 90
        0
176
     1
 62
    18
420
        0
176
     1
 90
       50
176
     1
 90
        3
176
     1
 62
     5
420
      255
176
     1
290
     0
176
     1
 90
       50
176
     1
 90
       50
176
     1
 90
       50
176
     1
290
     0
176
     1
 90
       50
176
     1
 62
   256
176
     0
 40
1.0
176
     0
 90
        2
176
     1
  1
strokes_ogs.tif
176
     1
290
     0
176
     1
 40
1.0
176
     1
 40
1.0
176
     1
  0
VISUALSTYLE
  5
30
102
{ACAD_REACTORS
330
29
102
}
330
29
100
AcDbVisualStyle
  2
Wireframe
 70
     5
177
     3
291
     0
 70
    58
 90
        0
176
     1
 90
        2
176
     1
 90
        0
176
     1
 90
        0
176
     1
 40
0.6
176
     1
 40
30.0
176
     1
 62
     7
420
 16777215
176
     1
 90
        1
176
     1
 90
        4
176
     1
 62
     7
176
     1
 62
   257
176
     1
 90
        1
176
     1
 90
        1
176
     1
 40
1.0
176
     1
 90
        0
176
     1
 62
   257
176
     1
 40
1.0
176
     1
 90
        1
176
     1
 90
        6
176
     1
 90
        2
176
     1
 62
     7
176
     1
 90
        3
176
     1
 90
        0
176
     1
 90
        0
176
     1
290
     0
176
     1
 90
        1
176
     1
 40
0.0
176
     1
 90
        0
176
     1
290
     0
176
     1
290
     1
176
     1
290
     1
176
     1
290
     0
176
     1
290
     0
176
     1
290
     0
176
     1
290
     0
176
     1
290
     0
176
     1
290
     0
176
     1
 90
       50
176
     1
 40
0.0
176
     1
 40
1.0
176
     1
 90
        0
176
     1
 62
    18
420
        0
176
     1
 90
       50
176
     1
 90
        3
176
     1
 62
     5
420
      255
176
     1
290
     0
176
     1
 90
       50
176
     1
 90
       50
176
     1
 90
       50
176
     1
290
     0
176
     1
 90
       50
176
     1
 62
   256
176
     0
 40
1.0
176
     0
 90
        2
176
     1
  1
strokes_ogs.tif
176
     1
290
     0
176
     1
 40
1.0
176
     1
 40
1.0
176
     1
  0
VISUALSTYLE
  5
3C
102
{ACAD_REACTORS
330
29
102
}
330
29
100
AcDbVisualStyle
  2
X-Ray
 70
    25
177
     3
291
     0
 70
    58
 90
        2
176
     1
 90
        2
176
     1
 90
        1
176
     1
 90
        1
176
     1
 40
0.5
176
     1
 40
30.0
176
     1
 62
     7
420
 16777215
176
     1
 90
        1
176
     1
 90
        0
176
     1
 62
     7
176
     1
 62
   257
176
     1
 90
        1
176
     1
 90
        1
176
     1
 40
1.0
176
     1
 90
        8
176
     1
 62
     7
176
     1
 40
1.0
176
     1
 90
        1
176
     1
 90
        6
176
     1
 90
        2
176
     1
 62
     7
176
     1
 90
        3
176
     1
 90
        0
176
     1
 90
        0
176
     1
290
     0
176
     1
 90
       13
176
     1
 40
0.0
176
     1
 90
        0
176
     1
290
     0
176
     1
290
     1
176
     1
290
     1
176
     1
290
     0
176
     1
290
     0
176
     1
290
     0
176
     1
290
     0
176
     1
290
     0
176
     1
290
     0
176
     1
 90
       50
176
     1
 40
0.0
176
     1
 40
1.0
176
     1
 90
        0
176
     1
 62
    18
420
        0
176
     1
 90
       50
176
     1
 90
        3
176
     1
 62
     5
420
      255
176
     1
290
     0
176
     1
 90
       50
176
     1
 90
       50
176
     1
 90
       50
176
     1
290
     0
176
     1
 90
       50
176
     1
 62
   256
176
     0
 40
1.0
176
     0
 90
        2
176
     1
  1
strokes_ogs.tif
176
     1
290
     0
176
     1
 40
1.0
176
     1
 40
1.0
176
     1
  0
DICTIONARYVAR
  5
E1
102
{ACAD_REACTORS
330
DC
102
}
330
DC
100
DictionaryVariables
280
     0
  1
1:1
  0
DICTIONARYVAR
  5
DE
102
{ACAD_REACTORS
330
DC
102
}
330
DC
100
DictionaryVariables
280
     0
  1
STANDARD
  0
DICTIONARYVAR
  5
DD
102
{ACAD_REACTORS
330
DC
102
}
330
DC
100
DictionaryVariables
280
     0
  1
STANDARD
  0
DICTIONARYVAR
  5
DF
102
{ACAD_REACTORS
330
DC
102
}
330
DC
100
DictionaryVariables
280
     0
  1
Imperial24
  0
DICTIONARYVAR
  5
E0
102
{ACAD_REACTORS
330
DC
102
}
330
DC
100
DictionaryVariables
280
     0
  1
Imperial24
  0
XRECORD
  5
D4
102
{ACAD_REACTORS
330
D1
102
}
330
D1
100
AcDbXrecord
280
     1
  1
BUILDING_ID
  1
Towel_Bar-DXV-Fitzgerald-D35160180_Series
  1
FLOOR_ID
  1
1884
  0
XRECORD
  5
D2
102
{ACAD_REACTORS
330
D1
102
}
330
D1
100
AcDbXrecord
280
     1
  1
-2000051
  1
Lines
  1
-2001350
  1
Specialty Equipment
  0
XRECORD
  5
D3
102
{ACAD_REACTORS
330
D1
102
}
330
D1
100
AcDbXrecord
280
     1
  1
-2000287
  1
<Beyond>
  0
DICTIONARY
  5
D9
330
6B
100
AcDbDictionary
280
     1
281
     1
  3
ACAD_XREC_ROUNDTRIP
360
A23
  0
DICTIONARY
  5
1A
330
19
100
AcDbDictionary
280
     1
281
     1
  3
BUMPTILE
360
1C
  3
DIFFUSETILE
360
1B
  3
OPACITYTILE
360
1F
  3
REFLECTIONTILE
360
1E
  3
REFRACTIONTILE
360
20
  3
SPECULARTILE
360
1D
  0
DICTIONARY
  5
12
330
11
100
AcDbDictionary
280
     1
281
     1
  3
BUMPTILE
360
14
  3
DIFFUSETILE
360
13
  3
OPACITYTILE
360
17
  3
REFLECTIONTILE
360
16
  3
REFRACTIONTILE
360
18
  3
SPECULARTILE
360
15
  0
DICTIONARY
  5
22
330
21
100
AcDbDictionary
280
     1
281
     1
  3
BUMPTILE
360
24
  3
DIFFUSETILE
360
23
  3
OPACITYTILE
360
27
  3
REFLECTIONTILE
360
26
  3
REFRACTIONTILE
360
28
  3
SPECULARTILE
360
25
  0
DICTIONARY
  5
D7
330
69
100
AcDbDictionary
280
     1
281
     1
  3
ACAD_XREC_ROUNDTRIP
360
A22
  0
DICTIONARY
  5
A20
330
65
100
AcDbDictionary
280
     1
281
     1
  3
ACAD_ROUNDTRIP_2008_TABLESTYLE_CELLSTYLEMAP
360
A21
  0
XRECORD
  5
A23
102
{ACAD_REACTORS
330
D9
102
}
330
D9
100
AcDbXrecord
280
     1
102
DISPLAYNAME
  1
Imperial24
102
FLAGS
 90
        0
  0
XRECORD
  5
1C
102
{ACAD_REACTORS
330
1A
102
}
330
1A
100
AcDbXrecord
280
     1
270
     1
271
     1
  0
XRECORD
  5
1B
102
{ACAD_REACTORS
330
1A
102
}
330
1A
100
AcDbXrecord
280
     1
270
     1
271
     1
  0
XRECORD
  5
1F
102
{ACAD_REACTORS
330
1A
102
}
330
1A
100
AcDbXrecord
280
     1
270
     1
271
     1
  0
XRECORD
  5
1E
102
{ACAD_REACTORS
330
1A
102
}
330
1A
100
AcDbXrecord
280
     1
270
     1
271
     1
  0
XRECORD
  5
20
102
{ACAD_REACTORS
330
1A
102
}
330
1A
100
AcDbXrecord
280
     1
270
     1
271
     1
  0
XRECORD
  5
1D
102
{ACAD_REACTORS
330
1A
102
}
330
1A
100
AcDbXrecord
280
     1
270
     1
271
     1
  0
XRECORD
  5
14
102
{ACAD_REACTORS
330
12
102
}
330
12
100
AcDbXrecord
280
     1
270
     1
271
     1
  0
XRECORD
  5
13
102
{ACAD_REACTORS
330
12
102
}
330
12
100
AcDbXrecord
280
     1
270
     1
271
     1
  0
XRECORD
  5
17
102
{ACAD_REACTORS
330
12
102
}
330
12
100
AcDbXrecord
280
     1
270
     1
271
     1
  0
XRECORD
  5
16
102
{ACAD_REACTORS
330
12
102
}
330
12
100
AcDbXrecord
280
     1
270
     1
271
     1
  0
XRECORD
  5
18
102
{ACAD_REACTORS
330
12
102
}
330
12
100
AcDbXrecord
280
     1
270
     1
271
     1
  0
XRECORD
  5
15
102
{ACAD_REACTORS
330
12
102
}
330
12
100
AcDbXrecord
280
     1
270
     1
271
     1
  0
XRECORD
  5
24
102
{ACAD_REACTORS
330
22
102
}
330
22
100
AcDbXrecord
280
     1
270
     1
271
     1
  0
XRECORD
  5
23
102
{ACAD_REACTORS
330
22
102
}
330
22
100
AcDbXrecord
280
     1
270
     1
271
     1
  0
XRECORD
  5
27
102
{ACAD_REACTORS
330
22
102
}
330
22
100
AcDbXrecord
280
     1
270
     1
271
     1
  0
XRECORD
  5
26
102
{ACAD_REACTORS
330
22
102
}
330
22
100
AcDbXrecord
280
     1
270
     1
271
     1
  0
XRECORD
  5
28
102
{ACAD_REACTORS
330
22
102
}
330
22
100
AcDbXrecord
280
     1
270
     1
271
     1
  0
XRECORD
  5
25
102
{ACAD_REACTORS
330
22
102
}
330
22
100
AcDbXrecord
280
     1
270
     1
271
     1
  0
XRECORD
  5
A22
102
{ACAD_REACTORS
330
D7
102
}
330
D7
100
AcDbXrecord
280
     1
102
DISPLAYNAME
  1
Imperial24
102
FLAGS
 90
        0
  0
CELLSTYLEMAP
  5
A21
102
{ACAD_REACTORS
330
A20
102
}
330
A20
100
AcDbCellStyleMap
 90
        3
300
CELLSTYLE
  1
TABLEFORMAT_BEGIN
 90
        5
170
     1
 91
        0
 92
    32768
 62
   257
 93
        1
300
CONTENTFORMAT
  1
CONTENTFORMAT_BEGIN
 90
        0
 91
        0
 92
      512
 93
        0
300

 40
0.0
140
1.0
 94
        5
 62
     0
340
55
144
0.25
309
CONTENTFORMAT_END
171
     0
 94
        0
309
TABLEFORMAT_END
  1
CELLSTYLE_BEGIN
 90
        1
 91
        1
300
_TITLE
309
CELLSTYLE_END
300
CELLSTYLE
  1
TABLEFORMAT_BEGIN
 90
        5
170
     1
 91
        0
 92
        0
 62
   257
 93
        1
300
CONTENTFORMAT
  1
CONTENTFORMAT_BEGIN
 90
        0
 91
        0
 92
      512
 93
        0
300

 40
0.0
140
1.0
 94
        5
 62
     0
340
55
144
0.18
309
CONTENTFORMAT_END
171
     0
 94
        0
309
TABLEFORMAT_END
  1
CELLSTYLE_BEGIN
 90
        2
 91
        1
300
_HEADER
309
CELLSTYLE_END
300
CELLSTYLE
  1
TABLEFORMAT_BEGIN
 90
        5
170
     1
 91
        0
 92
        0
 62
   257
 93
        1
300
CONTENTFORMAT
  1
CONTENTFORMAT_BEGIN
 90
        0
 91
        0
 92
      512
 93
        0
300

 40
0.0
140
1.0
 94
        2
 62
     0
340
55
144
0.18
309
CONTENTFORMAT_END
171
     0
 94
        0
309
TABLEFORMAT_END
  1
CELLSTYLE_BEGIN
 90
        3
 91
        2
300
_DATA
309
CELLSTYLE_END
  0
ENDSEC
  0
SECTION
  2
ACDSDATA
 70
     2
 71
     8
  0
ACDSSCHEMA
 90
        0
  1
AcDb_Thumbnail_Schema
  2
AcDbDs::ID
280
    10
 91
        8
  2
Thumbnail_Data
280
    15
 91
        0
101
ACDSRECORD
 95
        0
 90
        1
  2
AcDbDs::TreatedAsObjectData
280
     1
291
     1
101
ACDSRECORD
 95
        0
 90
        2
  2
AcDbDs::Legacy
280
     1
291
     1
101
ACDSRECORD
  1
AcDbDs::ID
 90
        3
  2
AcDs:Indexable
280
     1
291
     1
101
ACDSRECORD
  1
AcDbDs::ID
 90
        4
  2
AcDbDs::HandleAttribute
280
     7
282
     1
  0
ACDSSCHEMA
 90
        1
  1
AcDbDs::TreatedAsObjectDataSchema
  2
AcDbDs::TreatedAsObjectData
280
     1
 91
        0
  0
ACDSSCHEMA
 90
        2
  1
AcDbDs::LegacySchema
  2
AcDbDs::Legacy
280
     1
 91
        0
  0
ACDSSCHEMA
 90
        3
  1
AcDbDs::IndexedPropertySchema
  2
AcDs:Indexable
280
     1
 91
        0
  0
ACDSSCHEMA
 90
        4
  1
AcDbDs::HandleAttributeSchema
  2
AcDbDs::HandleAttribute
280
     7
 91
        1
284
     1
  0
ACDSRECORD
 90
        0
  2
AcDbDs::ID
280
    10
320
73
  2
Thumbnail_Data
280
    15
 94
     1109
310
89504E470D0A1A0A0000000D494844520000010000000084080300000048FA052E00000300504C5445212830000000C8C8C80000000000000000000000000000000000000000000000000000330000660000990000CC0000FF0033000033330033660033990033CC0033FF0066000066330066660066990066CC0066FF0099
310
000099330099660099990099CC0099FF00CC0000CC3300CC6600CC9900CCCC00CCFF00FF0000FF3300FF6600FF9900FFCC00FFFF3300003300333300663300993300CC3300FF3333003333333333663333993333CC3333FF3366003366333366663366993366CC3366FF3399003399333399663399993399CC3399FF33CC00
310
33CC3333CC6633CC9933CCCC33CCFF33FF0033FF3333FF6633FF9933FFCC33FFFF6600006600336600666600996600CC6600FF6633006633336633666633996633CC6633FF6666006666336666666666996666CC6666FF6699006699336699666699996699CC6699FF66CC0066CC3366CC6666CC9966CCCC66CCFF66FF0066
310
FF3366FF6666FF9966FFCC66FFFF9900009900339900669900999900CC9900FF9933009933339933669933999933CC9933FF9966009966339966669966999966CC9966FF9999009999339999669999999999CC9999FF99CC0099CC3399CC6699CC9999CCCC99CCFF99FF0099FF3399FF6699FF9999FFCC99FFFFCC0000CC00
310
33CC0066CC0099CC00CCCC00FFCC3300CC3333CC3366CC3399CC33CCCC33FFCC6600CC6633CC6666CC6699CC66CCCC66FFCC9900CC9933CC9966CC9999CC99CCCC99FFCCCC00CCCC33CCCC66CCCC99CCCCCCCCCCFFCCFF00CCFF33CCFF66CCFF99CCFFCCCCFFFFFF0000FF0033FF0066FF0099FF00CCFF00FFFF3300FF3333
310
FF3366FF3399FF33CCFF33FFFF6600FF6633FF6666FF6699FF66CCFF66FFFF9900FF9933FF9966FF9999FF99CCFF99FFFFCC00FFCC33FFCC66FFCC99FFCCCCFFCCFFFFFF00FFFF33FFFF66FFFF99FFFFCCFFFFFF0000000D0D0D1A1A1A2828283535354343435050505D5D5D6B6B6B787878868686939393A1A1A1AEAEAEBB
310
BBBBC9C9C9D6D6D6E4E4E4F1F1F1FFFFFF000000000000000000000000000000000000000000000000000000000000B21171F6000001104944415478DAEDDD419282400C05D0DCFFBED95B632930EA06A79289F67B1B5891E65768C14D22F81779F0B925FEB4B8A7B3CA1239B901D6EC80B82D6A3B296C8189016C8BAA5CDC
310
1EC0C44D300490B54FC0166E0E0D20723F947659C6E40EC85503B82DABB63DEF8F4008606E002100012C1AC0F5F1AFFE89FEB9FCD4FB17C0F20144C377EAD06FE15F1D502D72EE26F8F8C748C5ED47C4DC0E583E80365313F8B23A0000000000000000000000000000000000000000000000408FDE690C0DD5CE96E89CC9D2
310
30FEE27C898C8CA6A91C0D0340DE287118855A3DA3647600876B14CDAACAA6394B796E1F78B1A6A819D3B24F84AD9F33742E80E53BC01ED0349A696C008BBF0734BF097E478DCF7601EDEA3D835A338E170000000049454E44AE426082
  0
ENDSEC
  0
EOF
