  0
SECTION
  2
HEADER
  9
$ACADVER
  1
AC1027
  9
$ACADMAINTVER
 70
   105
  9
$DWGCODEPAGE
  3
ANSI_1252
  9
$LASTSAVEDBY
  1
Ibrahim
  9
$REQUIREDVERSIONS
160
                 0
  9
$INSBASE
 10
0.0
 20
0.0
 30
0.0
  9
$EXTMIN
 10
-25.75927709434069
 20
-7.119140353891282
 30
-0.0000000000022887
  9
$EXTMAX
 10
3.713379078211289
 20
21.13769550474529
 30
0.0000000000000001
  9
$LIMMIN
 10
0.0
 20
0.0
  9
$LIMMAX
 10
12.0
 20
9.0
  9
$ORTHOMODE
 70
     1
  9
$REGENMODE
 70
     1
  9
$FILLMODE
 70
     1
  9
$QTEXTMODE
 70
     0
  9
$MIRRTEXT
 70
     0
  9
$LTSCALE
 40
1.0
  9
$ATTMODE
 70
     1
  9
$TEXTSIZE
 40
0.2
  9
$TRACEWID
 40
0.05
  9
$TEXTSTYLE
  7
Standard
  9
$CLAYER
  8
D35160190
  9
$CELTYPE
  6
ByLayer
  9
$CECOLOR
 62
   256
  9
$CELTSCALE
 40
1.0
  9
$DISPSILH
 70
     0
  9
$DIMSCALE
 40
1.0
  9
$DIMASZ
 40
0.18
  9
$DIMEXO
 40
0.0625
  9
$DIMDLI
 40
0.38
  9
$DIMRND
 40
0.0
  9
$DIMDLE
 40
0.0
  9
$DIMEXE
 40
0.18
  9
$DIMTP
 40
0.0
  9
$DIMTM
 40
0.0
  9
$DIMTXT
 40
0.18
  9
$DIMCEN
 40
0.09
  9
$DIMTSZ
 40
0.0
  9
$DIMTOL
 70
     0
  9
$DIMLIM
 70
     0
  9
$DIMTIH
 70
     1
  9
$DIMTOH
 70
     1
  9
$DIMSE1
 70
     0
  9
$DIMSE2
 70
     0
  9
$DIMTAD
 70
     0
  9
$DIMZIN
 70
     0
  9
$DIMBLK
  1

  9
$DIMASO
 70
     1
  9
$DIMSHO
 70
     1
  9
$DIMPOST
  1

  9
$DIMAPOST
  1

  9
$DIMALT
 70
     0
  9
$DIMALTD
 70
     2
  9
$DIMALTF
 40
25.4
  9
$DIMLFAC
 40
1.0
  9
$DIMTOFL
 70
     0
  9
$DIMTVP
 40
0.0
  9
$DIMTIX
 70
     0
  9
$DIMSOXD
 70
     0
  9
$DIMSAH
 70
     0
  9
$DIMBLK1
  1

  9
$DIMBLK2
  1

  9
$DIMSTYLE
  2
Standard
  9
$DIMCLRD
 70
     0
  9
$DIMCLRE
 70
     0
  9
$DIMCLRT
 70
     0
  9
$DIMTFAC
 40
1.0
  9
$DIMGAP
 40
0.09
  9
$DIMJUST
 70
     0
  9
$DIMSD1
 70
     0
  9
$DIMSD2
 70
     0
  9
$DIMTOLJ
 70
     1
  9
$DIMTZIN
 70
     0
  9
$DIMALTZ
 70
     0
  9
$DIMALTTZ
 70
     0
  9
$DIMUPT
 70
     0
  9
$DIMDEC
 70
     4
  9
$DIMTDEC
 70
     4
  9
$DIMALTU
 70
     4
  9
$DIMALTTD
 70
     2
  9
$DIMTXSTY
  7
Standard
  9
$DIMAUNIT
 70
     0
  9
$DIMADEC
 70
     0
  9
$DIMALTRND
 40
0.0
  9
$DIMAZIN
 70
     0
  9
$DIMDSEP
 70
    46
  9
$DIMATFIT
 70
     3
  9
$DIMFRAC
 70
     0
  9
$DIMLDRBLK
  1

  9
$DIMLUNIT
 70
     4
  9
$DIMLWD
 70
    -2
  9
$DIMLWE
 70
    -2
  9
$DIMTMOVE
 70
     0
  9
$DIMFXL
 40
1.0
  9
$DIMFXLON
 70
     0
  9
$DIMJOGANG
 40
0.7853981633974483
  9
$DIMTFILL
 70
     0
  9
$DIMTFILLCLR
 70
     0
  9
$DIMARCSYM
 70
     0
  9
$DIMLTYPE
  6

  9
$DIMLTEX1
  6

  9
$DIMLTEX2
  6

  9
$DIMTXTDIRECTION
 70
     0
  9
$LUNITS
 70
     4
  9
$LUPREC
 70
     4
  9
$SKETCHINC
 40
0.1
  9
$FILLETRAD
 40
0.0
  9
$AUNITS
 70
     0
  9
$AUPREC
 70
     0
  9
$MENU
  1
.
  9
$ELEVATION
 40
0.0
  9
$PELEVATION
 40
0.0
  9
$THICKNESS
 40
0.0
  9
$LIMCHECK
 70
     0
  9
$CHAMFERA
 40
0.0
  9
$CHAMFERB
 40
0.0
  9
$CHAMFERC
 40
0.0
  9
$CHAMFERD
 40
0.0
  9
$SKPOLY
 70
     0
  9
$TDCREATE
 40
2458417.683046100
  9
$TDUCREATE
 40
2458417.849712766
  9
$TDUPDATE
 40
2458424.708986065
  9
$TDUUPDATE
 40
2458424.875652732
  9
$TDINDWG
 40
0.0033806829
  9
$TDUSRTIMER
 40
0.0033806829
  9
$USRTIMER
 70
     1
  9
$ANGBASE
 50
0.0
  9
$ANGDIR
 70
     0
  9
$PDMODE
 70
     0
  9
$PDSIZE
 40
0.0
  9
$PLINEWID
 40
0.0
  9
$SPLFRAME
 70
     0
  9
$SPLINETYPE
 70
     6
  9
$SPLINESEGS
 70
     8
  9
$HANDSEED
  5
3D4
  9
$SURFTAB1
 70
     6
  9
$SURFTAB2
 70
     6
  9
$SURFTYPE
 70
     6
  9
$SURFU
 70
     6
  9
$SURFV
 70
     6
  9
$UCSBASE
  2

  9
$UCSNAME
  2

  9
$UCSORG
 10
0.0
 20
0.0
 30
0.0
  9
$UCSXDIR
 10
1.0
 20
0.0
 30
0.0
  9
$UCSYDIR
 10
0.0
 20
1.0
 30
0.0
  9
$UCSORTHOREF
  2

  9
$UCSORTHOVIEW
 70
     0
  9
$UCSORGTOP
 10
0.0
 20
0.0
 30
0.0
  9
$UCSORGBOTTOM
 10
0.0
 20
0.0
 30
0.0
  9
$UCSORGLEFT
 10
0.0
 20
0.0
 30
0.0
  9
$UCSORGRIGHT
 10
0.0
 20
0.0
 30
0.0
  9
$UCSORGFRONT
 10
0.0
 20
0.0
 30
0.0
  9
$UCSORGBACK
 10
0.0
 20
0.0
 30
0.0
  9
$PUCSBASE
  2

  9
$PUCSNAME
  2

  9
$PUCSORG
 10
0.0
 20
0.0
 30
0.0
  9
$PUCSXDIR
 10
1.0
 20
0.0
 30
0.0
  9
$PUCSYDIR
 10
0.0
 20
1.0
 30
0.0
  9
$PUCSORTHOREF
  2

  9
$PUCSORTHOVIEW
 70
     0
  9
$PUCSORGTOP
 10
0.0
 20
0.0
 30
0.0
  9
$PUCSORGBOTTOM
 10
0.0
 20
0.0
 30
0.0
  9
$PUCSORGLEFT
 10
0.0
 20
0.0
 30
0.0
  9
$PUCSORGRIGHT
 10
0.0
 20
0.0
 30
0.0
  9
$PUCSORGFRONT
 10
0.0
 20
0.0
 30
0.0
  9
$PUCSORGBACK
 10
0.0
 20
0.0
 30
0.0
  9
$USERI1
 70
     0
  9
$USERI2
 70
     0
  9
$USERI3
 70
     0
  9
$USERI4
 70
     0
  9
$USERI5
 70
     0
  9
$USERR1
 40
0.0
  9
$USERR2
 40
0.0
  9
$USERR3
 40
0.0
  9
$USERR4
 40
0.0
  9
$USERR5
 40
0.0
  9
$WORLDVIEW
 70
     1
  9
$SHADEDGE
 70
     3
  9
$SHADEDIF
 70
    70
  9
$TILEMODE
 70
     1
  9
$MAXACTVP
 70
    64
  9
$PINSBASE
 10
0.0
 20
0.0
 30
0.0
  9
$PLIMCHECK
 70
     0
  9
$PEXTMIN
 10
1.000000000000000E+20
 20
1.000000000000000E+20
 30
1.000000000000000E+20
  9
$PEXTMAX
 10
-1.000000000000000E+20
 20
-1.000000000000000E+20
 30
-1.000000000000000E+20
  9
$PLIMMIN
 10
0.0
 20
0.0
  9
$PLIMMAX
 10
12.0
 20
9.0
  9
$UNITMODE
 70
     0
  9
$VISRETAIN
 70
     1
  9
$PLINEGEN
 70
     0
  9
$PSLTSCALE
 70
     1
  9
$TREEDEPTH
 70
  3020
  9
$CMLSTYLE
  2
Standard
  9
$CMLJUST
 70
     0
  9
$CMLSCALE
 40
1.0
  9
$PROXYGRAPHICS
 70
     1
  9
$MEASUREMENT
 70
     0
  9
$CELWEIGHT
370
    -1
  9
$ENDCAPS
280
     0
  9
$JOINSTYLE
280
     0
  9
$LWDISPLAY
290
     0
  9
$INSUNITS
 70
     1
  9
$HYPERLINKBASE
  1

  9
$STYLESHEET
  1

  9
$XEDIT
290
     1
  9
$CEPSNTYPE
380
     0
  9
$PSTYLEMODE
290
     1
  9
$FINGERPRINTGUID
  2
{2E5A5E57-A320-4303-BD43-E62E687806CE}
  9
$VERSIONGUID
  2
{3219F767-8268-4C86-BDFF-AA94EA8EC4F3}
  9
$EXTNAMES
290
     1
  9
$PSVPSCALE
 40
0.0
  9
$OLESTARTUP
290
     0
  9
$SORTENTS
280
   127
  9
$INDEXCTL
280
     0
  9
$HIDETEXT
280
     1
  9
$XCLIPFRAME
280
     2
  9
$HALOGAP
280
     0
  9
$OBSCOLOR
 70
   257
  9
$OBSLTYPE
280
     0
  9
$INTERSECTIONDISPLAY
280
     0
  9
$INTERSECTIONCOLOR
 70
   257
  9
$DIMASSOC
280
     2
  9
$PROJECTNAME
  1

  9
$CAMERADISPLAY
290
     0
  9
$LENSLENGTH
 40
50.0
  9
$CAMERAHEIGHT
 40
0.0
  9
$STEPSPERSEC
 40
2.0
  9
$STEPSIZE
 40
6.0
  9
$3DDWFPREC
 40
2.0
  9
$PSOLWIDTH
 40
0.25
  9
$PSOLHEIGHT
 40
4.0
  9
$LOFTANG1
 40
1.570796326794896
  9
$LOFTANG2
 40
1.570796326794896
  9
$LOFTMAG1
 40
0.0
  9
$LOFTMAG2
 40
0.0
  9
$LOFTPARAM
 70
     7
  9
$LOFTNORMALS
280
     1
  9
$LATITUDE
 40
0.0
  9
$LONGITUDE
 40
0.0
  9
$NORTHDIRECTION
 40
0.0
  9
$TIMEZONE
 70
     0
  9
$LIGHTGLYPHDISPLAY
280
     1
  9
$TILEMODELIGHTSYNCH
280
     1
  9
$CMATERIAL
347
11
  9
$SOLIDHIST
280
     0
  9
$SHOWHIST
280
     1
  9
$DWFFRAME
280
     2
  9
$DGNFRAME
280
     0
  9
$REALWORLDSCALE
290
     1
  9
$INTERFERECOLOR
 62
     1
  9
$INTERFEREOBJVS
345
33
  9
$INTERFEREVPVS
346
30
  9
$CSHADOW
280
     0
  9
$SHADOWPLANELOCATION
 40
0.0
  0
ENDSEC
  0
SECTION
  2
CLASSES
  0
CLASS
  1
ACDBDICTIONARYWDFLT
  2
AcDbDictionaryWithDefault
  3
ObjectDBX Classes
 90
        0
 91
        1
280
     0
281
     0
  0
CLASS
  1
MATERIAL
  2
AcDbMaterial
  3
ObjectDBX Classes
 90
     1153
 91
        3
280
     0
281
     0
  0
CLASS
  1
VISUALSTYLE
  2
AcDbVisualStyle
  3
ObjectDBX Classes
 90
     4095
 91
       24
280
     0
281
     0
  0
CLASS
  1
SCALE
  2
AcDbScale
  3
ObjectDBX Classes
 90
     1153
 91
       17
280
     0
281
     0
  0
CLASS
  1
TABLESTYLE
  2
AcDbTableStyle
  3
ObjectDBX Classes
 90
     4095
 91
        1
280
     0
281
     0
  0
CLASS
  1
MLEADERSTYLE
  2
AcDbMLeaderStyle
  3
ACDB_MLEADERSTYLE_CLASS
 90
     4095
 91
        1
280
     0
281
     0
  0
CLASS
  1
ACDBSECTIONVIEWSTYLE
  2
AcDbSectionViewStyle
  3
ObjectDBX Classes
 90
     1025
 91
        1
280
     0
281
     0
  0
CLASS
  1
ACDBDETAILVIEWSTYLE
  2
AcDbDetailViewStyle
  3
ObjectDBX Classes
 90
     1025
 91
        1
280
     0
281
     0
  0
CLASS
  1
RASTERVARIABLES
  2
AcDbRasterVariables
  3
ISM
 90
        0
 91
        1
280
     0
281
     0
  0
CLASS
  1
DICTIONARYVAR
  2
AcDbDictionaryVar
  3
ObjectDBX Classes
 90
        0
 91
        5
280
     0
281
     0
  0
CLASS
  1
SORTENTSTABLE
  2
AcDbSortentsTable
  3
ObjectDBX Classes
 90
        0
 91
        3
280
     0
281
     0
  0
CLASS
  1
CELLSTYLEMAP
  2
AcDbCellStyleMap
  3
ObjectDBX Classes
 90
     1152
 91
        1
280
     0
281
     0
  0
ENDSEC
  0
SECTION
  2
TABLES
  0
TABLE
  2
VPORT
  5
8
330
0
100
AcDbSymbolTable
 70
     1
  0
VPORT
  5
57
330
8
100
AcDbSymbolTableRecord
100
AcDbViewportTableRecord
  2
*Active
 70
     0
 10
0.0
 20
0.0
 11
1.0
 21
1.0
 12
-6.879638547170344
 22
7.009277575427006
 13
0.0
 23
0.0
 14
1.0
 24
1.0
 15
0.0
 25
0.0
 16
0.0
 26
0.0
 36
1.0
 17
0.0
 27
0.0
 37
0.0
 40
28.48471356717397
 41
1.927321668909824
 42
50.0
 43
0.0
 44
0.0
 50
0.0
 51
0.0
 71
     0
 72
  1000
 73
     1
 74
     1
 75
     0
 76
     0
 77
     0
 78
     0
281
     0
 65
     1
110
0.0
120
0.0
130
0.0
111
1.0
121
0.0
131
0.0
112
0.0
122
1.0
132
0.0
 79
     0
146
0.0
348
2F
 60
     3
 61
     5
292
     1
282
     1
141
0.0
142
0.0
 63
   250
421
  3355443
1001
ACAD_NAV_VCDISPLAY
1070
     3
  0
ENDTAB
  0
TABLE
  2
LTYPE
  5
5
330
0
100
AcDbSymbolTable
 70
     1
  0
LTYPE
  5
5B
330
5
100
AcDbSymbolTableRecord
100
AcDbLinetypeTableRecord
  2
ByBlock
 70
     0
  3

 72
    65
 73
     0
 40
0.0
  0
LTYPE
  5
5C
330
5
100
AcDbSymbolTableRecord
100
AcDbLinetypeTableRecord
  2
ByLayer
 70
     0
  3

 72
    65
 73
     0
 40
0.0
  0
LTYPE
  5
5D
330
5
100
AcDbSymbolTableRecord
100
AcDbLinetypeTableRecord
  2
Continuous
 70
     0
  3
Solid line
 72
    65
 73
     0
 40
0.0
  0
ENDTAB
  0
TABLE
  2
LAYER
  5
2
102
{ACAD_XDICTIONARY
360
3BC
102
}
330
0
100
AcDbSymbolTable
 70
     4
  0
LAYER
  5
54
330
2
100
AcDbSymbolTableRecord
100
AcDbLayerTableRecord
  2
0
 70
     0
 62
     7
  6
Continuous
370
    -3
390
F
347
21
348
0
  0
LAYER
  5
8B
330
2
100
AcDbSymbolTableRecord
100
AcDbLayerTableRecord
  2
D35160190
 70
     0
 62
     7
  6
Continuous
370
     9
390
F
347
21
348
0
  0
ENDTAB
  0
TABLE
  2
STYLE
  5
3
330
0
100
AcDbSymbolTable
 70
     2
  0
STYLE
  5
55
330
3
100
AcDbSymbolTableRecord
100
AcDbTextStyleTableRecord
  2
Standard
 70
     0
 40
0.0
 41
1.0
 50
0.0
 71
     0
 42
0.2
  3
txt
  4

  0
ENDTAB
  0
TABLE
  2
VIEW
  5
6
330
0
100
AcDbSymbolTable
 70
     2
  0
ENDTAB
  0
TABLE
  2
UCS
  5
7
330
0
100
AcDbSymbolTable
 70
     0
  0
ENDTAB
  0
TABLE
  2
APPID
  5
9
330
0
100
AcDbSymbolTable
 70
     4
  0
APPID
  5
56
330
9
100
AcDbSymbolTableRecord
100
AcDbRegAppTableRecord
  2
ACAD
 70
     0
  0
APPID
  5
5E
330
9
100
AcDbSymbolTableRecord
100
AcDbRegAppTableRecord
  2
AcadAnnotative
 70
     0
  0
APPID
  5
78
330
9
100
AcDbSymbolTableRecord
100
AcDbRegAppTableRecord
  2
REVIT
 70
     0
  0
APPID
  5
104
330
9
100
AcDbSymbolTableRecord
100
AcDbRegAppTableRecord
  2
ACAD_NAV_VCDISPLAY
 70
     0
  0
ENDTAB
  0
TABLE
  2
DIMSTYLE
  5
A
330
0
100
AcDbSymbolTable
 70
     2
100
AcDbDimStyleTable
 71
     0
  0
DIMSTYLE
105
58
330
A
100
AcDbSymbolTableRecord
100
AcDbDimStyleTableRecord
  2
Standard
 70
     0
340
55
  0
ENDTAB
  0
TABLE
  2
BLOCK_RECORD
  5
1
330
0
100
AcDbSymbolTable
 70
     8
  0
BLOCK_RECORD
  5
70
102
{ACAD_XDICTIONARY
360
C6
102
}
330
1
100
AcDbSymbolTableRecord
100
AcDbBlockTableRecord
  2
*Model_Space
340
73
 70
     0
280
     1
281
     0
  0
BLOCK_RECORD
  5
6C
330
1
100
AcDbSymbolTableRecord
100
AcDbBlockTableRecord
  2
*Paper_Space
340
6F
 70
     0
280
     1
281
     0
  0
BLOCK_RECORD
  5
74
330
1
100
AcDbSymbolTableRecord
100
AcDbBlockTableRecord
  2
*Paper_Space0
340
77
 70
     0
280
     1
281
     0
  0
BLOCK_RECORD
  5
299
330
1
100
AcDbSymbolTableRecord
100
AcDbBlockTableRecord
  2
D35160190 Top View
340
0
310
28000000200000002000000001002000000000000010000001000000010000000000000000000000302821FF302821FF302821FF302821FF302821FF302821FF302821FF302821FF302821FF302821FF302821FF302821FF302821FF302821FF302821FF302821FF302821FF302821FF302821FF302821FF302821FF302821
310
FF302821FF302821FF302821FF302821FF302821FF302821FF302821FF302821FF302821FF302821FF302821FF302821FF302821FF302821FF302821FF302821FF302821FF302821FF302821FF302821FF302821FF302821FF302821FF302821FF302821FF302821FF302821FF302821FF302821FF302821FF302821FF3028
310
21FF302821FF302821FF302821FF302821FF302821FF302821FF302821FF302821FF302821FF302821FF302821FF302821FF302821FF302821FF302821FF302821FF302821FF302821FF302821FF302821FF302821FF302821FF302821FF302821FF302821FF302821FF302821FF302821FF302821FF302821FF302821FF30
310
2821FF302821FF302821FF302821FF302821FF302821FF302821FF302821FF302821FF302821FF302821FF302821FF302821FF302821FF302821FF302821FF302821FF302821FF302821FF302821FF302821FF302821FF302821FF302821FF302821FF302821FF302821FF302821FF302821FF302821FF302821FF302821FF
310
302821FF302821FF302821FF302821FF302821FF302821FF302821FF302821FF302821FF302821FF302821FF302821FF302821FF302821FF302821FF302821FF302821FF302821FF302821FF302821FF302821FF302821FF302821FF302821FF302821FF302821FF302821FF302821FF302821FF302821FF302821FF302821
310
FF302821FF302821FF302821FF302821FF302821FF302821FF302821FF302821FF302821FF302821FF302821FF302821FF302821FF302821FF302821FF302821FF302821FF302821FF302821FF302821FF302821FF302821FF302821FF302821FF302821FF302821FF302821FF302821FF302821FF302821FF302821FF3028
310
21FF302821FF302821FF302821FF302821FF302821FF302821FF302821FF302821FF302821FF302821FF302821FF302821FF302821FF302821FF302821FF302821FF302821FF302821FF302821FF302821FF302821FF302821FF302821FF302821FF302821FF302821FF302821FF302821FF302821FF302821FF302821FF30
310
2821FF302821FF302821FF302821FF302821FF302821FF302821FF302821FF302821FF302821FF302821FF302821FF302821FF302821FF302821FF302821FF302821FF302821FF302821FF302821FF302821FF302821FF302821FF302821FF302821FF302821FF302821FF302821FF302821FF302821FF302821FF302821FF
310
302821FF302821FF302821FF302821FF302821FF302821FF302821FF302821FF302821FF302821FF302821FF302821FF302821FF302821FF302821FF302821FF302821FF302821FF302821FF302821FF302821FF302821FF302821FF302821FF302821FF302821FF302821FF302821FF302821FF302821FF302821FF302821
310
FF302821FF302821FF302821FF302821FF302821FF302821FF302821FF302821FF302821FF302821FF302821FF302821FF302821FF302821FF302821FF302821FF302821FF302821FF302821FF302821FF302821FF302821FF302821FF302821FF302821FF302821FF302821FF302821FF302821FF302821FF302821FF3028
310
21FF302821FF302821FF302821FF302821FF302821FF302821FF302821FF302821FF302821FF302821FF302821FF302821FF302821FF302821FF302821FF302821FF302821FF302821FF302821FF302821FF302821FF302821FF302821FF302821FF302821FF302821FF302821FF302821FF302821FF302821FF302821FF30
310
2821FF302821FF302821FF302821FF302821FF302821FF302821FF302821FF302821FF302821FF302821FF302821FF302821FF302821FF302821FFFFFFFFFFFFFFFFFFFFFFFFFFFFFFFFFFFFFFFFFFFFFFFFFFFFFFFFFFFFFFFFFFFFFFFFFFFFFFFFFFFFFFFFFFFFFFFFFFFFFFFFFFFFFFFFFFFFFFFFFFFFFFFFFFFFFFFFFF
310
FFFFFFFFFFFFFFFFFFFFFFFFFFFFFFFFFFFFFFFFFFFFFFFFFFFFFFFFFFFFFFFFFFFFFFFFFFFFFFFFFFFFFFFF302821FF302821FF302821FFFFFFFFFFFFFFFFFFFFFFFFFFFFFFFFFFFFFFFFFFFFFFFFFFFFFFFFFFFFFFFFFFFFFFFFFFFFFFFFFFFFFFFFFFFFFFFFFFFFFFFFFFFFFFFFFFFFFFFFFFFFFFFFFFFFFFFFFFFFFFFF
310
FFFFFFFFFFFFFFFFFFFFFFFFFFFFFFFFFFFFFFFFFFFFFFFFFFFFFFFFFFFFFFFFFFFFFFFFFFFFFFFFFFFFFFFFFFFFFFFFFF302821FF302821FF302821FFFFFFFFFFFFFFFFFFFFFFFFFFFFFFFFFFFFFFFFFFFFFFFFFFFFFFFFFFFFFFFFFFFFFFFFFFFFFFFFFFFFFFFFFFFFFFFFFFFFFFFFFFFFFFFFFFFFFFFFFFFFFFFFFFFFFF
310
FFFFFFFFFFFFFFFFFFFFFFFFFFFFFFFFFFFFFFFFFFFFFFFFFFFFFFFFFFFFFFFFFFFFFFFFFFFFFFFFFFFFFFFFFFFF302821FF302821FF302821FF302821FF302821FF302821FF302821FF302821FF302821FF302821FF302821FF302821FF302821FF302821FF302821FF302821FFFFFFFFFFFFFFFFFFFFFFFFFFFFFFFFFF30
310
2821FF302821FF302821FF302821FF302821FF302821FF302821FF302821FF302821FF302821FF302821FF302821FF302821FF302821FF302821FF302821FF302821FF302821FF302821FF302821FF302821FF302821FF302821FF302821FF302821FF302821FF302821FF302821FFFFFFFFFFFFFFFFFFFFFFFFFFFFFFFFFF
310
302821FF302821FF302821FF302821FF302821FF302821FF302821FF302821FF302821FF302821FF302821FF302821FF302821FF302821FF302821FF302821FF302821FF302821FF302821FF302821FF302821FF302821FF302821FF302821FF302821FF302821FF302821FF302821FFFFFFFFFFFFFFFFFFFFFFFFFFFFFFFF
310
FF302821FF302821FF302821FF302821FF302821FF302821FF302821FF302821FF302821FF302821FF302821FF302821FF302821FF302821FF302821FF302821FF302821FF302821FF302821FF302821FF302821FF302821FF302821FF302821FF302821FF302821FF302821FFFFFFFFFFFFFFFFFFFFFFFFFFFFFFFFFFFFFF
310
FFFFFFFFFFFF302821FF302821FF302821FF302821FF302821FF302821FF302821FF302821FF302821FF302821FF302821FF302821FF302821FF302821FF302821FF302821FF302821FF302821FF302821FF302821FF302821FF302821FF302821FF302821FF302821FF302821FFFFFFFFFF302821FFFFFFFFFF302821FFFF
310
FFFFFFFFFFFFFFFFFFFFFF302821FF302821FF302821FF302821FF302821FF302821FF302821FF302821FF302821FF302821FF302821FF302821FF302821FF302821FF302821FF302821FF302821FF302821FF302821FF302821FF302821FF302821FF302821FF302821FFFFFFFFFFFFFFFFFFFFFFFFFFFFFFFFFFFFFFFFFF
310
FFFFFFFFFFFFFFFFFFFFFFFF302821FF302821FF302821FF302821FF302821FF302821FF302821FF302821FF302821FF302821FF302821FF302821FF302821FF302821FF302821FF302821FF302821FF302821FF302821FF302821FF302821FF302821FF302821FF302821FFFFFFFFFFFFFFFFFFFFFFFFFFFFFFFFFFFFFFFF
310
FFFFFFFFFFFFFFFFFFFFFFFFFF302821FF302821FF302821FF302821FF302821FF302821FF302821FF302821FF302821FF302821FF302821FF302821FF302821FF302821FF302821FF302821FF302821FF302821FF302821FF302821FF302821FF302821FF302821FF302821FF302821FF302821FF302821FF302821FF3028
310
21FF302821FF302821FF302821FF302821FF302821FF302821FF302821FF302821FF302821FF302821FF302821FF302821FF302821FF302821FF302821FF302821FF302821FF302821FF302821FF302821FF302821FF302821FF302821FF302821FF302821FF302821FF302821FF302821FF302821FF302821FF302821FF30
310
2821FF302821FF302821FF302821FF302821FF302821FF302821FF302821FF302821FF302821FF302821FF302821FF302821FF302821FF302821FF302821FF302821FF302821FF302821FF302821FF302821FF302821FF302821FF302821FF302821FF302821FF302821FF302821FF302821FF302821FF302821FF302821FF
310
302821FF302821FF302821FF302821FF302821FF302821FF302821FF302821FF302821FF302821FF302821FF302821FF302821FF302821FF302821FF302821FF302821FF302821FF302821FF302821FF302821FF302821FF302821FF302821FF302821FF302821FF302821FF302821FF302821FF302821FF302821FF302821
310
FF302821FF302821FF302821FF302821FF302821FF302821FF302821FF302821FF302821FF302821FF302821FF302821FF302821FF302821FF302821FF302821FF302821FF302821FF302821FF302821FF302821FF302821FF302821FF302821FF302821FF302821FF302821FF302821FF302821FF302821FF302821FF3028
310
21FF302821FF302821FF302821FF302821FF302821FF302821FF302821FF302821FF302821FF302821FF302821FF302821FF302821FF302821FF302821FF302821FF302821FF302821FF302821FF302821FF302821FF302821FF302821FF302821FF302821FF302821FF302821FF302821FF302821FF302821FF302821FF30
310
2821FF302821FF302821FF302821FF302821FF302821FF302821FF302821FF302821FF302821FF302821FF302821FF302821FF302821FF302821FF302821FF302821FF302821FF302821FF302821FF302821FF302821FF302821FF302821FF302821FF302821FF302821FF302821FF302821FF302821FF302821FF302821FF
310
302821FF302821FF302821FF302821FF302821FF302821FF302821FF302821FF302821FF302821FF302821FF302821FF302821FF302821FF302821FF302821FF302821FF302821FF302821FF302821FF302821FF302821FF302821FF302821FF302821FF302821FF302821FF302821FF302821FF302821FF302821FF302821
310
FF302821FF302821FF302821FF302821FF302821FF302821FF302821FF302821FF302821FF302821FF302821FF302821FF302821FF302821FF302821FF302821FF302821FF302821FF302821FF302821FF302821FF302821FF302821FF302821FF302821FF302821FF302821FF302821FF302821FF302821FF302821FF3028
310
21FF302821FF302821FF302821FF302821FF302821FF302821FF302821FF302821FF302821FF302821FF302821FF302821FF302821FF302821FF302821FF302821FF302821FF302821FF302821FF302821FF302821FF302821FF302821FF302821FF302821FF302821FF302821FF302821FF302821FF302821FF302821FF30
310
2821FF302821FF302821FF302821FF302821FF302821FF302821FF302821FF302821FF302821FF302821FF302821FF302821FF302821FF302821FF302821FF302821FF302821FF302821FF302821FF302821FF302821FF302821FF302821FF302821FF302821FF302821FF302821FF302821FF302821FF302821FF302821FF
310
302821FF302821FF302821FF302821FF302821FF302821FF302821FF302821FF302821FF302821FF302821FF302821FF302821FF302821FF302821FF302821FF302821FF302821FF
102
{BLKREFS
331
2F1
102
}
 70
     1
280
     1
281
     1
  0
BLOCK_RECORD
  5
2F2
330
1
100
AcDbSymbolTableRecord
100
AcDbBlockTableRecord
  2
D35160190 Front View
340
0
310
28000000200000002000000001002000000000000010000001000000010000000000000000000000302821FF302821FF302821FF302821FF302821FF302821FF302821FF302821FF302821FF302821FF302821FF302821FF302821FF302821FF302821FF302821FF302821FF302821FF302821FF302821FF302821FF302821
310
FF302821FF302821FF302821FF302821FF302821FF302821FF302821FF302821FF302821FF302821FF302821FF302821FF302821FF302821FF302821FF302821FF302821FF302821FF302821FF302821FF302821FF302821FF302821FFFFFFFFFFFFFFFFFFFFFFFFFFFFFFFFFFFFFFFFFFFFFFFFFF302821FF302821FF3028
310
21FF302821FF302821FF302821FF302821FF302821FF302821FF302821FF302821FF302821FF302821FF302821FF302821FF302821FF302821FF302821FF302821FF302821FF302821FF302821FF302821FF302821FFFFFFFFFFFFFFFFFFFFFFFFFFFFFFFFFFFFFFFFFFFFFFFFFFFFFFFFFFFFFFFFFFFFFFFFFFFFFFFFFF30
310
2821FF302821FF302821FF302821FF302821FF302821FF302821FF302821FF302821FF302821FF302821FF302821FF302821FF302821FF302821FF302821FF302821FF302821FF302821FFFFFFFFFFFFFFFFFFFFFFFFFFFFFFFFFFFFFFFFFFFFFFFFFFFFFFFFFFFFFFFFFFFFFFFFFFFFFFFFFFFFFFFFFFFFFFFFFFFFFFFFFF
310
FFFFFFFFFFFFFFFFFFFFFFFF302821FF302821FF302821FF302821FF302821FF302821FF302821FF302821FF302821FF302821FF302821FF302821FF302821FF302821FF302821FFFFFFFFFF302821FFFFFFFFFFFFFFFFFFFFFFFFFFFFFFFFFF302821FF302821FF302821FF302821FF302821FFFFFFFFFFFFFFFFFFFFFFFF
310
FFFFFFFFFFFFFFFFFF302821FFFFFFFFFF302821FF302821FF302821FF302821FF302821FF302821FF302821FF302821FF302821FF302821FF302821FF302821FF302821FF302821FFFFFFFFFFFFFFFFFF302821FFFFFFFFFF302821FF302821FF302821FF302821FF302821FF302821FF302821FF302821FF302821FF3028
310
21FFFFFFFFFF302821FFFFFFFFFFFFFFFFFFFFFFFFFF302821FF302821FF302821FF302821FF302821FF302821FF302821FF302821FF302821FF302821FF302821FF302821FFFFFFFFFF302821FFFFFFFFFFFFFFFFFF302821FF302821FF302821FF302821FF302821FF302821FF302821FF302821FF302821FF302821FF30
310
2821FF302821FFFFFFFFFFFFFFFFFFFFFFFFFFFFFFFFFF302821FF302821FF302821FF302821FF302821FF302821FF302821FF302821FF302821FF302821FF302821FFFFFFFFFFFFFFFFFFFFFFFFFF302821FF302821FF302821FF302821FF302821FF302821FF302821FF302821FF302821FF302821FF302821FF302821FF
310
302821FF302821FF302821FF302821FFFFFFFFFF302821FFFFFFFFFF302821FF302821FF302821FF302821FF302821FF302821FF302821FF302821FF302821FFFFFFFFFFFFFFFFFFFFFFFFFFFFFFFFFF302821FF302821FF302821FF302821FF302821FF302821FF302821FF302821FF302821FF302821FF302821FF302821
310
FF302821FF302821FF302821FF302821FF302821FFFFFFFFFFFFFFFFFFFFFFFFFF302821FF302821FF302821FF302821FF302821FF302821FF302821FF302821FFFFFFFFFFFFFFFFFFFFFFFFFF302821FF302821FF302821FF302821FF302821FF302821FF302821FF302821FF302821FF302821FF302821FF302821FF3028
310
21FF302821FF302821FF302821FF302821FF302821FFFFFFFFFF302821FFFFFFFFFFFFFFFFFF302821FF302821FF302821FF302821FF302821FF302821FFFFFFFFFFFFFFFFFFFFFFFFFFFFFFFFFF302821FF302821FF302821FF302821FF302821FF302821FF302821FF302821FF302821FF302821FF302821FF302821FF30
310
2821FF302821FF302821FF302821FF302821FF302821FF302821FFFFFFFFFFFFFFFFFFFFFFFFFF302821FF302821FF302821FF302821FF302821FF302821FFFFFFFFFFFFFFFFFFFFFFFFFF302821FF302821FF302821FF302821FF302821FF302821FF302821FF302821FF302821FF302821FF302821FF302821FF302821FF
310
302821FF302821FF302821FF302821FF302821FF302821FF302821FFFFFFFFFFFFFFFFFFFFFFFFFF302821FF302821FF302821FF302821FF302821FF302821FFFFFFFFFFFFFFFFFFFFFFFFFF302821FF302821FF302821FF302821FF302821FF302821FF302821FF302821FF302821FF302821FF302821FF302821FF302821
310
FF302821FF302821FF302821FF302821FF302821FF302821FF302821FFFFFFFFFFFFFFFFFFFFFFFFFF302821FF302821FF302821FF302821FF302821FF302821FFFFFFFFFFFFFFFFFFFFFFFFFF302821FF302821FF302821FF302821FF302821FF302821FF302821FF302821FF302821FF302821FF302821FF302821FF3028
310
21FF302821FF302821FF302821FF302821FF302821FF302821FF302821FFFFFFFFFFFFFFFFFFFFFFFFFF302821FF302821FF302821FF302821FF302821FF302821FFFFFFFFFFFFFFFFFFFFFFFFFF302821FF302821FF302821FF302821FF302821FF302821FF302821FF302821FF302821FF302821FF302821FF302821FF30
310
2821FF302821FF302821FF302821FF302821FF302821FF302821FF302821FFFFFFFFFFFFFFFFFFFFFFFFFF302821FF302821FF302821FF302821FF302821FF302821FFFFFFFFFFFFFFFFFFFFFFFFFF302821FF302821FF302821FF302821FF302821FF302821FF302821FF302821FF302821FF302821FF302821FF302821FF
310
302821FF302821FF302821FF302821FF302821FF302821FF302821FF302821FFFFFFFFFFFFFFFFFFFFFFFFFF302821FF302821FF302821FF302821FF302821FF302821FFFFFFFFFF302821FFFFFFFFFF302821FF302821FF302821FF302821FF302821FF302821FF302821FF302821FF302821FF302821FF302821FF302821
310
FF302821FF302821FF302821FF302821FF302821FF302821FF302821FF302821FFFFFFFFFFFFFFFFFFFFFFFFFF302821FF302821FF302821FF302821FF302821FF302821FFFFFFFFFFFFFFFFFFFFFFFFFF302821FF302821FF302821FF302821FF302821FF302821FF302821FF302821FF302821FF302821FF302821FF3028
310
21FF302821FF302821FF302821FF302821FF302821FF302821FF302821FF302821FFFFFFFFFFFFFFFFFFFFFFFFFF302821FF302821FF302821FF302821FF302821FF302821FFFFFFFFFFFFFFFFFFFFFFFFFFFFFFFFFF302821FF302821FF302821FF302821FF302821FF302821FF302821FF302821FF302821FF302821FF30
310
2821FF302821FF302821FF302821FF302821FF302821FF302821FF302821FF302821FFFFFFFFFFFFFFFFFFFFFFFFFF302821FF302821FF302821FF302821FF302821FF302821FF302821FFFFFFFFFFFFFFFFFFFFFFFFFF302821FF302821FF302821FF302821FF302821FF302821FF302821FF302821FF302821FF302821FF
310
302821FF302821FF302821FF302821FF302821FF302821FF302821FF302821FFFFFFFFFFFFFFFFFFFFFFFFFFFFFFFFFF302821FF302821FF302821FF302821FF302821FF302821FF302821FFFFFFFFFFFFFFFFFFFFFFFFFFFFFFFFFF302821FF302821FF302821FF302821FF302821FF302821FF302821FF302821FF302821
310
FF302821FF302821FF302821FF302821FF302821FF302821FF302821FF302821FFFFFFFFFFFFFFFFFFFFFFFFFF302821FF302821FF302821FF302821FF302821FF302821FF302821FF302821FF302821FFFFFFFFFFFFFFFFFFFFFFFFFF302821FF302821FF302821FF302821FF302821FF302821FF302821FF302821FF3028
310
21FF302821FF302821FF302821FF302821FF302821FF302821FF302821FFFFFFFFFFFFFFFFFFFFFFFFFFFFFFFFFF302821FF302821FF302821FF302821FF302821FF302821FF302821FF302821FF302821FFFFFFFFFFFFFFFFFF302821FFFFFFFFFF302821FF302821FF302821FF302821FF302821FF302821FF302821FF30
310
2821FF302821FF302821FF302821FF302821FF302821FF302821FFFFFFFFFFFFFFFFFFFFFFFFFFFFFFFFFF302821FF302821FF302821FF302821FF302821FF302821FF302821FF302821FF302821FF302821FF302821FFFFFFFFFFFFFFFFFFFFFFFFFFFFFFFFFF302821FF302821FF302821FF302821FFFFFFFFFFFFFFFFFF
310
FFFFFFFFFFFFFFFF302821FF302821FF302821FF302821FFFFFFFFFFFFFFFFFF302821FFFFFFFFFF302821FF302821FF302821FF302821FF302821FF302821FF302821FF302821FF302821FF302821FF302821FF302821FF302821FFFFFFFFFFFFFFFFFFFFFFFFFFFFFFFFFFFFFFFFFF302821FFFFFFFFFFFFFFFFFFFFFFFF
310
FFFFFFFFFFFFFFFFFFFFFFFFFF302821FFFFFFFFFFFFFFFFFF302821FFFFFFFFFFFFFFFFFF302821FF302821FF302821FF302821FF302821FF302821FF302821FF302821FF302821FF302821FF302821FF302821FF302821FF302821FF302821FFFFFFFFFF302821FFFFFFFFFFFFFFFFFFFFFFFFFFFFFFFFFFFFFFFFFFFFFF
310
FFFFFFFFFFFFFFFFFFFFFFFFFFFFFFFFFFFF302821FFFFFFFFFFFFFFFFFFFFFFFFFF302821FF302821FF302821FF302821FF302821FF302821FF302821FF302821FF302821FF302821FF302821FF302821FF302821FF302821FF302821FF302821FF302821FFFFFFFFFFFFFFFFFF302821FFFFFFFFFFFFFFFFFFFFFFFFFF30
310
2821FF302821FFFFFFFFFF302821FFFFFFFFFFFFFFFFFFFFFFFFFFFFFFFFFF302821FF302821FF302821FF302821FF302821FF302821FF302821FF302821FF302821FF302821FF302821FF302821FF302821FF302821FF302821FF302821FF302821FF302821FF302821FF302821FFFFFFFFFFFFFFFFFFFFFFFFFFFFFFFFFF
310
FFFFFFFFFFFFFFFFFFFFFFFFFFFFFFFFFFFFFFFFFFFFFFFF302821FF302821FF302821FF302821FF302821FF302821FF302821FF302821FF302821FF302821FF302821FF302821FF302821FF302821FF302821FF302821FF302821FF302821FF302821FF302821FF302821FF302821FF302821FF302821FFFFFFFFFFFFFFFF
310
FFFFFFFFFFFFFFFFFFFFFFFFFFFFFFFFFF302821FF302821FF302821FF302821FF302821FF302821FF302821FF302821FF302821FF302821FF302821FF302821FF302821FF302821FF302821FF302821FF302821FF302821FF302821FF302821FF302821FF302821FF302821FF302821FF302821FF302821FFFFFFFFFFFFFF
310
FFFFFFFFFFFFFFFFFFFFFFFFFFFFFFFFFFFF302821FF302821FF302821FF302821FF302821FF302821FF302821FF302821FF302821FF302821FF302821FF302821FF302821FF302821FF302821FF302821FF302821FF302821FF302821FF302821FF302821FF302821FF302821FF302821FF302821FF302821FF302821FF30
310
2821FFFFFFFFFFFFFFFFFF302821FF302821FF302821FF302821FF302821FF302821FF302821FF302821FF302821FF302821FF302821FF302821FF302821FF302821FF302821FF302821FF302821FF302821FF302821FF302821FF302821FF302821FF302821FF302821FF302821FF302821FF302821FF302821FF302821FF
310
302821FF302821FF302821FF302821FF302821FF302821FF302821FF302821FF302821FF302821FF302821FF302821FF302821FF302821FF302821FF302821FF302821FF302821FF
102
{BLKREFS
331
311
102
}
 70
     1
280
     1
281
     1
  0
BLOCK_RECORD
  5
312
330
1
100
AcDbSymbolTableRecord
100
AcDbBlockTableRecord
  2
D35160190 Left View
340
0
310
28000000200000002000000001002000000000000010000001000000010000000000000000000000302821FF302821FF302821FF302821FF302821FF302821FF302821FF302821FF302821FF302821FF302821FF302821FF302821FF302821FF302821FF302821FF302821FF302821FF302821FF302821FF302821FF302821
310
FF302821FF302821FF302821FF302821FF302821FF302821FF302821FF302821FF302821FF302821FF302821FF302821FF302821FF302821FF302821FF302821FF302821FF302821FF302821FF302821FF302821FF302821FF302821FF302821FF302821FF302821FF302821FF302821FF302821FFFFFFFFFF302821FF3028
310
21FF302821FF302821FF302821FF302821FF302821FF302821FF302821FF302821FF302821FF302821FF302821FF302821FF302821FF302821FF302821FF302821FF302821FF302821FF302821FF302821FF302821FF302821FF302821FF302821FF302821FF302821FF302821FF302821FFFFFFFFFFFFFFFFFFFFFFFFFF30
310
2821FF302821FF302821FF302821FF302821FF302821FF302821FF302821FF302821FF302821FF302821FF302821FF302821FF302821FF302821FF302821FF302821FF302821FF302821FF302821FF302821FF302821FF302821FF302821FF302821FF302821FF302821FF302821FF302821FFFFFFFFFFFFFFFFFFFFFFFFFF
310
302821FF302821FF302821FF302821FF302821FF302821FF302821FF302821FF302821FF302821FF302821FF302821FF302821FF302821FF302821FF302821FF302821FF302821FF302821FF302821FF302821FF302821FF302821FF302821FF302821FF302821FF302821FF302821FF302821FFFFFFFFFFFFFFFFFFFFFFFF
310
FF302821FF302821FF302821FF302821FF302821FF302821FF302821FF302821FF302821FF302821FF302821FF302821FF302821FF302821FF302821FF302821FF302821FF302821FF302821FF302821FF302821FF302821FF302821FF302821FF302821FF302821FF302821FF302821FF302821FFFFFFFFFFFFFFFFFFFFFF
310
FFFF302821FF302821FF302821FF302821FF302821FF302821FF302821FF302821FF302821FF302821FF302821FF302821FF302821FF302821FF302821FF302821FF302821FF302821FF302821FF302821FF302821FF302821FF302821FF302821FF302821FF302821FF302821FF302821FF302821FFFFFFFFFFFFFFFFFFFF
310
FFFFFF302821FF302821FF302821FF302821FF302821FF302821FF302821FF302821FF302821FF302821FF302821FF302821FF302821FF302821FF302821FF302821FF302821FF302821FF302821FF302821FF302821FF302821FF302821FF302821FF302821FF302821FF302821FF302821FF302821FFFFFFFFFFFFFFFFFF
310
FFFFFFFF302821FF302821FF302821FF302821FF302821FF302821FF302821FF302821FF302821FF302821FF302821FF302821FF302821FF302821FF302821FF302821FF302821FF302821FF302821FF302821FF302821FF302821FF302821FF302821FF302821FF302821FF302821FF302821FF302821FFFFFFFFFFFFFFFF
310
FFFFFFFFFF302821FF302821FF302821FF302821FF302821FF302821FF302821FF302821FF302821FF302821FF302821FF302821FF302821FF302821FF302821FF302821FF302821FF302821FF302821FF302821FF302821FF302821FF302821FF302821FF302821FF302821FF302821FF302821FF302821FFFFFFFFFFFFFF
310
FFFFFFFFFFFF302821FF302821FF302821FF302821FF302821FF302821FF302821FF302821FF302821FF302821FF302821FF302821FF302821FF302821FF302821FF302821FF302821FF302821FF302821FF302821FF302821FF302821FF302821FF302821FF302821FF302821FF302821FF302821FF302821FFFFFFFFFFFF
310
FFFFFFFFFFFFFF302821FF302821FF302821FF302821FF302821FF302821FF302821FF302821FF302821FF302821FF302821FF302821FF302821FF302821FF302821FF302821FF302821FF302821FF302821FF302821FF302821FF302821FF302821FF302821FF302821FF302821FF302821FF302821FF302821FFFFFFFFFF
310
FFFFFFFFFFFFFFFF302821FF302821FF302821FF302821FF302821FF302821FF302821FF302821FF302821FF302821FF302821FF302821FF302821FF302821FF302821FF302821FF302821FF302821FF302821FF302821FF302821FF302821FF302821FF302821FF302821FF302821FF302821FF302821FF302821FFFFFFFF
310
FFFFFFFFFFFFFFFFFF302821FF302821FF302821FF302821FF302821FF302821FF302821FF302821FF302821FF302821FF302821FF302821FF302821FF302821FF302821FF302821FF302821FF302821FF302821FF302821FF302821FF302821FF302821FF302821FF302821FF302821FF302821FF302821FF302821FFFFFF
310
FFFFFFFFFFFFFFFFFFFF302821FF302821FF302821FF302821FF302821FF302821FF302821FF302821FF302821FF302821FF302821FF302821FF302821FF302821FF302821FF302821FF302821FF302821FF302821FF302821FF302821FF302821FF302821FF302821FF302821FF302821FF302821FF302821FF302821FFFF
310
FFFFFFFFFFFFFFFFFFFFFF302821FF302821FF302821FF302821FF302821FF302821FF302821FF302821FF302821FF302821FF302821FF302821FF302821FF302821FF302821FF302821FF302821FF302821FF302821FF302821FF302821FF302821FF302821FF302821FF302821FF302821FF302821FF302821FF302821FF
310
FFFFFFFFFFFFFFFFFFFFFFFF302821FF302821FF302821FF302821FF302821FF302821FF302821FF302821FF302821FF302821FF302821FF302821FF302821FF302821FF302821FF302821FF302821FF302821FF302821FF302821FF302821FF302821FF302821FF302821FF302821FF302821FF302821FF302821FF302821
310
FFFFFFFFFFFFFFFFFFFFFFFFFF302821FF302821FF302821FF302821FF302821FF302821FF302821FF302821FF302821FF302821FF302821FF302821FF302821FF302821FF302821FF302821FF302821FF302821FF302821FF302821FF302821FF302821FF302821FF302821FF302821FF302821FF302821FF302821FF3028
310
21FFFFFFFFFFFFFFFFFFFFFFFFFF302821FF302821FF302821FF302821FF302821FF302821FF302821FF302821FF302821FF302821FF302821FF302821FF302821FF302821FF302821FF302821FF302821FF302821FF302821FF302821FF302821FF302821FF302821FF302821FF302821FF302821FF302821FF302821FF30
310
2821FFFFFFFFFFFFFFFFFFFFFFFFFF302821FF302821FF302821FF302821FF302821FF302821FF302821FF302821FF302821FF302821FF302821FF302821FF302821FF302821FF302821FF302821FF302821FF302821FF302821FF302821FF302821FF302821FF302821FF302821FF302821FF302821FF302821FF302821FF
310
302821FFFFFFFFFFFFFFFFFFFFFFFFFF302821FF302821FF302821FF302821FF302821FF302821FF302821FF302821FF302821FF302821FF302821FF302821FF302821FF302821FF302821FF302821FF302821FF302821FF302821FF302821FF302821FF302821FF302821FF302821FF302821FF302821FF302821FF302821
310
FF302821FFFFFFFFFFFFFFFFFFFFFFFFFF302821FF302821FF302821FF302821FF302821FF302821FF302821FF302821FF302821FF302821FF302821FF302821FF302821FF302821FF302821FF302821FF302821FF302821FF302821FF302821FF302821FF302821FF302821FF302821FF302821FF302821FF302821FF3028
310
21FF302821FFFFFFFFFFFFFFFFFFFFFFFFFF302821FF302821FF302821FF302821FF302821FF302821FF302821FF302821FF302821FF302821FF302821FF302821FF302821FF302821FF302821FF302821FF302821FF302821FF302821FF302821FF302821FF302821FF302821FF302821FF302821FF302821FF302821FF30
310
2821FF302821FFFFFFFFFFFFFFFFFFFFFFFFFF302821FF302821FF302821FF302821FF302821FF302821FF302821FF302821FF302821FF302821FF302821FF302821FF302821FF302821FF302821FF302821FF302821FF302821FF302821FF302821FF302821FF302821FFFFFFFFFFFFFFFFFF302821FF302821FF302821FF
310
302821FF302821FFFFFFFFFFFFFFFFFFFFFFFFFF302821FF302821FF302821FF302821FF302821FF302821FF302821FF302821FF302821FF302821FF302821FF302821FF302821FF302821FF302821FF302821FF302821FF302821FF302821FF302821FF302821FF302821FFFFFFFFFFFFFFFFFFFFFFFFFFFFFFFFFF302821
310
FF302821FF302821FFFFFFFFFFFFFFFFFFFFFFFFFF302821FF302821FF302821FF302821FF302821FF302821FF302821FF302821FF302821FF302821FF302821FF302821FF302821FF302821FF302821FF302821FF302821FF302821FF302821FF302821FF302821FF302821FFFFFFFFFFFFFFFFFF302821FF302821FFFFFF
310
FFFFFFFFFFFFFFFFFFFFFFFFFFFFFFFFFFFFFFFFFFFF302821FF302821FF302821FF302821FF302821FF302821FF302821FF302821FF302821FF302821FF302821FF302821FF302821FF302821FF302821FF302821FF302821FF302821FF302821FF302821FF302821FF302821FFFFFFFFFFFFFFFFFFFFFFFFFFFFFFFFFFFF
310
FFFFFFFFFFFFFFFFFFFFFFFFFFFFFFFFFFFFFFFFFFFFFF302821FF302821FF302821FF302821FF302821FF302821FF302821FF302821FF302821FF302821FF302821FF302821FF302821FF302821FF302821FF302821FF302821FF302821FF302821FF302821FF302821FF302821FFFFFFFFFFFFFFFFFF302821FF302821FF
310
FFFFFFFFFFFFFFFFFFFFFFFFFFFFFFFFFFFFFFFFFFFFFFFF302821FF302821FF302821FF302821FF302821FF302821FF302821FF302821FF302821FF302821FF302821FF302821FF302821FF302821FF302821FF302821FF302821FF302821FF302821FF302821FF302821FF302821FFFFFFFFFFFFFFFFFFFFFFFFFFFFFFFF
310
FFFFFFFFFF302821FF302821FF302821FFFFFFFFFF302821FF302821FF302821FF302821FF302821FF302821FF302821FF302821FF302821FF302821FF302821FF302821FF302821FF302821FF302821FF302821FF302821FF302821FF302821FF302821FF302821FF302821FF302821FFFFFFFFFFFFFFFFFF302821FF3028
310
21FF302821FF302821FF302821FF302821FF302821FF302821FF302821FF302821FF302821FF302821FF302821FF302821FF302821FF302821FF302821FF302821FF302821FF302821FF302821FF302821FF302821FF302821FF302821FF302821FF302821FF302821FF302821FF302821FFFFFFFFFF302821FF302821FF30
310
2821FF302821FF302821FF302821FF302821FF302821FF302821FF302821FF302821FF302821FF302821FF302821FF302821FF302821FF302821FF302821FF302821FF302821FF302821FF302821FF302821FF302821FF302821FF302821FF302821FF302821FF302821FF302821FF302821FF302821FF302821FF302821FF
310
302821FF302821FF302821FF302821FF302821FF302821FF302821FF302821FF302821FF302821FF302821FF302821FF302821FF302821FF302821FF302821FF302821FF302821FF
102
{BLKREFS
331
3B8
102
}
 70
     1
280
     1
281
     1
  0
ENDTAB
  0
ENDSEC
  0
SECTION
  2
BLOCKS
  0
BLOCK
  5
71
330
70
100
AcDbEntity
  8
0
100
AcDbBlockBegin
  2
*Model_Space
 70
     0
 10
0.0
 20
0.0
 30
0.0
  3
*Model_Space
  1

  0
ENDBLK
  5
72
330
70
100
AcDbEntity
  8
0
100
AcDbBlockEnd
  0
BLOCK
  5
6D
330
6C
100
AcDbEntity
 67
     1
  8
0
100
AcDbBlockBegin
  2
*Paper_Space
 70
     0
 10
0.0
 20
0.0
 30
0.0
  3
*Paper_Space
  1

  0
ENDBLK
  5
6E
330
6C
100
AcDbEntity
 67
     1
  8
0
100
AcDbBlockEnd
  0
BLOCK
  5
75
330
74
100
AcDbEntity
 67
     1
  8
0
100
AcDbBlockBegin
  2
*Paper_Space0
 70
     0
 10
0.0
 20
0.0
 30
0.0
  3
*Paper_Space0
  1

  0
ENDBLK
  5
76
330
74
100
AcDbEntity
 67
     1
  8
0
100
AcDbBlockEnd
  0
BLOCK
  5
29A
330
299
100
AcDbEntity
  8
0
100
AcDbBlockBegin
  2
D35160190 Top View
 70
     0
 10
0.0
 20
0.0
 30
0.0
  3
D35160190 Top View
  1

  0
LINE
  5
29C
330
299
100
AcDbEntity
  8
D35160190
100
AcDbLine
 10
0.9423122952137568
 20
-0.2516039228223192
 30
0.0
 11
0.9435679738079691
 21
-0.2513565233056205
 31
0.0
  0
LINE
  5
29D
330
299
100
AcDbEntity
  8
D35160190
100
AcDbLine
 10
0.9435679738079691
 20
-0.2513565233056205
 30
0.0
 11
0.9448127546512878
 21
-0.2510591079312121
 31
0.0
  0
LINE
  5
29E
330
299
100
AcDbEntity
  8
D35160190
100
AcDbLine
 10
0.9448127546512878
 20
-0.2510591079312121
 30
0.0
 11
0.9460446463598977
 21
-0.2507121525002489
 31
0.0
  0
LINE
  5
29F
330
299
100
AcDbEntity
  8
D35160190
100
AcDbLine
 10
0.9460446463598977
 20
-0.2507121525002489
 30
0.0
 11
0.9472616781698732
 21
-0.2503162120674069
 31
0.0
  0
LINE
  5
2A0
330
299
100
AcDbEntity
  8
D35160190
100
AcDbLine
 10
0.9472616781698732
 20
-0.2503162120674069
 30
0.0
 11
0.948461903089921
 21
-0.2498719200529145
 31
0.0
  0
LINE
  5
2A1
330
299
100
AcDbEntity
  8
D35160190
100
AcDbLine
 10
0.948461903089921
 20
-0.2498719200529145
 30
0.0
 11
0.9496434010161998
 21
-0.2493799872292186
 31
0.0
  0
LINE
  5
2A2
330
299
100
AcDbEntity
  8
D35160190
100
AcDbLine
 10
0.9496434010161998
 20
-0.2493799872292186
 30
0.0
 11
0.9508042818040713
 21
-0.2488412005838931
 31
0.0
  0
LINE
  5
2A3
330
299
100
AcDbEntity
  8
D35160190
100
AcDbLine
 10
0.9508042818040713
 20
-0.2488412005838931
 30
0.0
 11
0.9519426882919219
 21
-0.248256422060642
 31
0.0
  0
LINE
  5
2A4
330
299
100
AcDbEntity
  8
D35160190
100
AcDbLine
 10
0.9519426882919219
 20
-0.248256422060642
 30
0.0
 11
0.9530567992722147
 21
-0.2476265871803562
 31
0.0
  0
LINE
  5
2A5
330
299
100
AcDbEntity
  8
D35160190
100
AcDbLine
 10
0.9530567992722147
 20
-0.2476265871803562
 30
0.0
 11
0.9541448324050421
 21
-0.2469527035444798
 31
0.0
  0
LINE
  5
2A6
330
299
100
AcDbEntity
  8
D35160190
100
AcDbLine
 10
0.9541448324050421
 20
-0.2469527035444798
 30
0.0
 11
0.9552050470694979
 21
-0.2462358492230834
 31
0.0
  0
LINE
  5
2A7
330
299
100
AcDbEntity
  8
D35160190
100
AcDbLine
 10
0.9552050470694979
 20
-0.2462358492230834
 30
0.0
 11
0.9562357471482876
 21
-0.2454771710301564
 31
0.0
  0
LINE
  5
2A8
330
299
100
AcDbEntity
  8
D35160190
100
AcDbLine
 10
0.9562357471482876
 20
-0.2454771710301564
 30
0.0
 11
0.9572352837411521
 21
-0.2446778826889648
 31
0.0
  0
LINE
  5
2A9
330
299
100
AcDbEntity
  8
D35160190
100
AcDbLine
 10
0.9639294169223333
 20
-0.2369877062838235
 30
0.0
 11
0.9645833113571882
 21
-0.2358875438772188
 31
0.0
  0
LINE
  5
2AA
330
299
100
AcDbEntity
  8
D35160190
100
AcDbLine
 10
0.9645833113571882
 20
-0.2358875438772188
 30
0.0
 11
0.9651926879840964
 21
-0.2347621126801158
 31
0.0
  0
LINE
  5
2AB
330
299
100
AcDbEntity
  8
D35160190
100
AcDbLine
 10
0.9651926879840964
 20
-0.2347621126801158
 30
0.0
 11
0.9657565719304486
 21
-0.2336132131423554
 31
0.0
  0
LINE
  5
2AC
330
299
100
AcDbEntity
  8
D35160190
100
AcDbLine
 10
0.9657565719304486
 20
-0.2336132131423554
 30
0.0
 11
0.96627406110224
 21
-0.2324426832581068
 31
0.0
  0
LINE
  5
2AD
330
299
100
AcDbEntity
  8
D35160190
100
AcDbLine
 10
0.96627406110224
 20
-0.2324426832581068
 30
0.0
 11
0.9667443276271612
 21
-0.2312523956254857
 31
0.0
  0
LINE
  5
2AE
330
299
100
AcDbEntity
  8
D35160190
100
AcDbLine
 10
0.9667443276271612
 20
-0.2312523956254857
 30
0.0
 11
0.9671666191791068
 21
-0.2300442544507923
 31
0.0
  0
LINE
  5
2AF
330
299
100
AcDbEntity
  8
D35160190
100
AcDbLine
 10
0.9671666191791068
 20
-0.2300442544507923
 30
0.0
 11
0.967540260181682
 21
-0.2288201925021838
 31
0.0
  0
LINE
  5
2B0
330
299
100
AcDbEntity
  8
D35160190
100
AcDbLine
 10
0.967540260181682
 20
-0.2288201925021838
 30
0.0
 11
0.96786465288897
 21
-0.2275821680176548
 31
0.0
  0
LINE
  5
2B1
330
299
100
AcDbEntity
  8
D35160190
100
AcDbLine
 10
0.96786465288897
 20
-0.2275821680176548
 30
0.0
 11
0.9681392783418552
 21
-0.2263321615722873
 31
0.0
  0
LINE
  5
2B2
330
299
100
AcDbEntity
  8
D35160190
100
AcDbLine
 10
0.9681392783418552
 20
-0.2263321615722873
 30
0.0
 11
0.9683636971981854
 21
-0.2250721729097336
 31
0.0
  0
LINE
  5
2B3
330
299
100
AcDbEntity
  8
D35160190
100
AcDbLine
 10
0.9683636971981854
 20
-0.2250721729097336
 30
0.0
 11
0.9684421671545209
 21
-0.2245456483321853
 31
0.0
  0
LINE
  5
2B4
330
299
100
AcDbEntity
  8
D35160190
100
AcDbLine
 10
-0.9684421671545351
 20
-0.2245456483321675
 30
0.0
 11
-0.9682387408978954
 21
-0.2258091961195276
 31
0.0
  0
LINE
  5
2B5
330
299
100
AcDbEntity
  8
D35160190
100
AcDbLine
 10
-0.9682387408978954
 20
-0.2258091961195276
 30
0.0
 11
-0.9679849489258387
 21
-0.2270635983228715
 31
0.0
  0
LINE
  5
2B6
330
299
100
AcDbEntity
  8
D35160190
100
AcDbLine
 10
-0.9679849489258387
 20
-0.2270635983228715
 30
0.0
 11
-0.9676811972513696
 21
-0.2283068481662624
 31
0.0
  0
LINE
  5
2B7
330
299
100
AcDbEntity
  8
D35160190
100
AcDbLine
 10
-0.9676811972513696
 20
-0.2283068481662624
 30
0.0
 11
-0.9673279718123808
 21
-0.2295369567151653
 31
0.0
  0
LINE
  5
2B8
330
299
100
AcDbEntity
  8
D35160190
100
AcDbLine
 10
-0.9673279718123808
 20
-0.2295369567151653
 30
0.0
 11
-0.966925837694216
 21
-0.2307519560583096
 31
0.0
  0
LINE
  5
2B9
330
299
100
AcDbEntity
  8
D35160190
100
AcDbLine
 10
-0.966925837694216
 20
-0.2307519560583096
 30
0.0
 11
-0.9664754382256894
 21
-0.2319499024559377
 31
0.0
  0
LINE
  5
2BA
330
299
100
AcDbEntity
  8
D35160190
100
AcDbLine
 10
-0.9664754382256894
 20
-0.2319499024559377
 30
0.0
 11
-0.965977493949861
 21
-0.2331288794493531
 31
0.0
  0
LINE
  5
2BB
330
299
100
AcDbEntity
  8
D35160190
100
AcDbLine
 10
-0.965977493949861
 20
-0.2331288794493531
 30
0.0
 11
-0.9654328014713584
 21
-0.2342870009268729
 31
0.0
  0
LINE
  5
2BC
330
299
100
AcDbEntity
  8
D35160190
100
AcDbLine
 10
-0.9654328014713584
 20
-0.2342870009268729
 30
0.0
 11
-0.9648422321819403
 21
-0.2354224141411869
 31
0.0
  0
LINE
  5
2BD
330
299
100
AcDbEntity
  8
D35160190
100
AcDbLine
 10
-0.9648422321819403
 20
-0.2354224141411869
 30
0.0
 11
-0.9642067308664969
 21
-0.236533302673358
 31
0.0
  0
LINE
  5
2BE
330
299
100
AcDbEntity
  8
D35160190
100
AcDbLine
 10
-0.95665535907127
 20
-0.2451495866915039
 30
0.0
 11
-0.9556374232272908
 21
-0.2459253069183767
 31
0.0
  0
LINE
  5
2BF
330
299
100
AcDbEntity
  8
D35160190
100
AcDbLine
 10
-0.9556374232272908
 20
-0.2459253069183767
 30
0.0
 11
-0.9545892810880332
 21
-0.2466597000751634
 31
0.0
  0
LINE
  5
2C0
330
299
100
AcDbEntity
  8
D35160190
100
AcDbLine
 10
-0.9545892810880332
 20
-0.2466597000751634
 30
0.0
 11
-0.9535126094573129
 21
-0.2473515912894726
 31
0.0
  0
LINE
  5
2C1
330
299
100
AcDbEntity
  8
D35160190
100
AcDbLine
 10
-0.9535126094573129
 20
-0.2473515912894726
 30
0.0
 11
-0.9524091307800581
 21
-0.2479998736829607
 31
0.0
  0
LINE
  5
2C2
330
299
100
AcDbEntity
  8
D35160190
100
AcDbLine
 10
-0.9524091307800581
 20
-0.2479998736829607
 30
0.0
 11
-0.9512806103867852
 21
-0.248603510142086
 31
0.0
  0
LINE
  5
2C3
330
299
100
AcDbEntity
  8
D35160190
100
AcDbLine
 10
-0.9512806103867852
 20
-0.248603510142086
 30
0.0
 11
-0.9501288536693621
 21
-0.2491615349772864
 31
0.0
  0
LINE
  5
2C4
330
299
100
AcDbEntity
  8
D35160190
100
AcDbLine
 10
-0.9501288536693621
 20
-0.2491615349772864
 30
0.0
 11
-0.9489557031928441
 21
-0.2496730554678628
 31
0.0
  0
LINE
  5
2C5
330
299
100
AcDbEntity
  8
D35160190
100
AcDbLine
 10
-0.9489557031928441
 20
-0.2496730554678628
 30
0.0
 11
-0.9477630357477302
 21
-0.2501372532901485
 31
0.0
  0
LINE
  5
2C6
330
299
100
AcDbEntity
  8
D35160190
100
AcDbLine
 10
-0.9477630357477302
 20
-0.2501372532901485
 30
0.0
 11
-0.9465527593475222
 21
-0.2505533858266524
 31
0.0
  0
LINE
  5
2C7
330
299
100
AcDbEntity
  8
D35160190
100
AcDbLine
 10
-0.9465527593475222
 20
-0.2505533858266524
 30
0.0
 11
-0.9453268101762866
 21
-0.2509207873540866
 31
0.0
  0
LINE
  5
2C8
330
299
100
AcDbEntity
  8
D35160190
100
AcDbLine
 10
-0.9453268101762866
 20
-0.2509207873540866
 30
0.0
 11
-0.9440871494911533
 21
-0.2512388701083807
 31
0.0
  0
LINE
  5
2C9
330
299
100
AcDbEntity
  8
D35160190
100
AcDbLine
 10
-0.9440871494911533
 20
-0.2512388701083807
 30
0.0
 11
-0.9428357604847938
 21
-0.2515071252249825
 31
0.0
  0
LINE
  5
2CA
330
299
100
AcDbEntity
  8
D35160190
100
AcDbLine
 10
-0.9428357604847938
 20
-0.2515071252249825
 30
0.0
 11
-0.942312295213771
 21
-0.2516039228222979
 31
0.0
  0
SPLINE
  5
2CB
330
299
100
AcDbEntity
  8
D35160190
100
AcDbSpline
210
0.0
220
0.0
230
1.0
 70
     8
 71
     3
 72
     8
 73
     4
 74
     0
 42
0.000000001
 43
0.0000000001
 40
-1.0
 40
-1.0
 40
-1.0
 40
-1.0
 40
-0.6773157965618655
 40
-0.6773157965618655
 40
-0.6773157965618655
 40
-0.6773157965618655
 10
-0.3629013937343153
 20
-1.773061486059429
 30
0.0
 10
-0.3806697096109417
 20
-1.609772026461968
 30
0.0
 10
-0.4084840919013324
 20
-1.447771766201668
 30
0.0
 10
-0.4466042092920582
 20
-1.2882758818591
 30
0.0
  0
SPLINE
  5
2CC
330
299
100
AcDbEntity
  8
D35160190
100
AcDbSpline
210
0.0
220
0.0
230
1.0
 70
     8
 71
     3
 72
     8
 73
     4
 74
     0
 42
0.000000001
 43
0.0000000001
 40
-0.650675808194179
 40
-0.650675808194179
 40
-0.650675808194179
 40
-0.650675808194179
 40
-0.3404170989568533
 40
-0.3404170989568533
 40
-0.3404170989568533
 40
-0.3404170989568533
 10
-0.4562562108333879
 20
-1.248825023121916
 30
0.0
 10
-0.4945429926010512
 20
-1.095875869384016
 30
0.0
 10
-0.5378932304395541
 20
-0.9433218105259442
 30
0.0
 10
-0.5982736627578547
 20
-0.7979408832020525
 30
0.0
  0
SPLINE
  5
2CD
330
299
100
AcDbEntity
  8
D35160190
100
AcDbSpline
210
0.0
220
0.0
230
1.0
 70
     8
 71
     3
 72
     8
 73
     4
 74
     0
 42
0.000000001
 43
0.0000000001
 40
-0.3287883079093532
 40
-0.3287883079093532
 40
-0.3287883079093532
 40
-0.3287883079093532
 40
0.0
 40
0.0
 40
0.0
 40
0.0
 10
-0.6049309860854813
 20
-0.7815317615048372
 30
0.0
 10
-0.6652196830904274
 20
-0.6257506238504753
 30
0.0
 10
-0.7350116859717418
 20
-0.4737144809794032
 30
0.0
 10
-0.8142756330541764
 20
-0.3265758810672708
 30
0.0
  0
SPLINE
  5
2CE
330
299
100
AcDbEntity
  8
D35160190
100
AcDbSpline
210
0.0
220
0.0
230
1.0
 70
     8
 71
     3
 72
     8
 73
     4
 74
     0
 42
0.000000001
 43
0.0000000001
 40
-1.0
 40
-1.0
 40
-1.0
 40
-1.0
 40
-0.677257354639269
 40
-0.677257354639269
 40
-0.677257354639269
 40
-0.677257354639269
 10
0.3629098436503284
 20
-1.773061486059429
 30
0.0
 10
0.3807049674250677
 20
-1.609559770591385
 30
0.0
 10
0.4085916731335147
 20
-1.447430406082951
 30
0.0
 10
0.446635625654146
 20
-1.288182333343581
 30
0.0
  0
SPLINE
  5
2CF
330
299
100
AcDbEntity
  8
D35160190
100
AcDbSpline
210
0.0
220
0.0
230
1.0
 70
     8
 71
     3
 72
     8
 73
     4
 74
     0
 42
0.000000001
 43
0.0000000001
 40
-0.6506753434293154
 40
-0.6506753434293154
 40
-0.6506753434293154
 40
-0.6506753434293154
 40
-0.3405932705769913
 40
-0.3405932705769913
 40
-0.3405932705769913
 40
-0.3405932705769913
 10
0.4562424951711677
 20
-1.248893253037685
 30
0.0
 10
0.4943999902505034
 20
-1.096354632424354
 30
0.0
 10
0.5373784733735043
 20
-0.944710599430536
 30
0.0
 10
0.5977290062924041
 20
-0.799345895679835
 30
0.0
  0
SPLINE
  5
2D0
330
299
100
AcDbEntity
  8
D35160190
100
AcDbSpline
210
0.0
220
0.0
230
1.0
 70
     8
 71
     3
 72
     8
 73
     4
 74
     0
 42
0.000000001
 43
0.0000000001
 40
-0.3286727625614092
 40
-0.3286727625614092
 40
-0.3286727625614092
 40
-0.3286727625614092
 40
0.0
 40
0.0
 40
0.0
 40
0.0
 10
0.6045521319543746
 20
-0.7825230514424746
 30
0.0
 10
0.6647611922741277
 20
-0.6268787088079791
 30
0.0
 10
0.7346600286150853
 20
-0.4743763996376949
 30
0.0
 10
0.8142762996912509
 20
-0.326575881067285
 30
0.0
  0
LINE
  5
2D1
330
299
100
AcDbEntity
  8
D35160190
100
AcDbLine
 10
-1.000000000000003
 20
-0.0000000000000178
 30
0.0
 11
-0.9689080374388545
 21
-0.2212308090171291
 31
0.0
1001
REVIT
1002
{
1070
     1
1000
22819
1002
}
1002
{
1070
     2
1000
-2001350
1002
}
  0
ARC
  5
2D2
330
299
100
AcDbEntity
  8
D35160190
100
AcDbCircle
 10
-0.9326593566623238
 20
-0.2161363891639354
 30
0.0
 40
0.0366049173155667
100
AcDbArc
 50
187.9999999999999
 51
259.9999999999981
1001
REVIT
1002
{
1070
     1
1000
22819
1002
}
1002
{
1070
     2
1000
-2001350
1002
}
  0
LINE
  5
2D3
330
299
100
AcDbEntity
  8
D35160190
100
AcDbLine
 10
-0.9390157338478211
 20
-0.2521851955346754
 30
0.0
 11
-0.9063216473665463
 21
-0.2579500450909435
 31
0.0
1001
REVIT
1002
{
1070
     1
1000
22819
1002
}
1002
{
1070
     2
1000
-2001350
1002
}
  0
ARC
  5
2D4
330
299
100
AcDbEntity
  8
D35160190
100
AcDbCircle
 10
-0.9127360972557561
 20
-0.2943281981304615
 30
0.0
 40
0.0369393446875805
100
AcDbArc
 50
23.00000000000053
 51
79.99999999999859
1001
REVIT
1002
{
1070
     1
1000
22819
1002
}
1002
{
1070
     2
1000
-2001350
1002
}
  0
LINE
  5
2D5
330
299
100
AcDbEntity
  8
D35160190
100
AcDbLine
 10
-0.8787332511874836
 20
-0.2798948462950292
 30
0.0
 11
-0.8589183275320593
 21
-0.3265758810672779
 31
0.0
1001
REVIT
1002
{
1070
     1
1000
22819
1002
}
1002
{
1070
     2
1000
-2001350
1002
}
  0
LINE
  5
2D6
330
299
100
AcDbEntity
  8
D35160190
100
AcDbLine
 10
-0.8589183275320593
 20
-0.3265758810672779
 30
0.0
 11
0.8589183275320451
 21
-0.3265758810672921
 31
0.0
1001
REVIT
1002
{
1070
     1
1000
22819
1002
}
1002
{
1070
     2
1000
-2001350
1002
}
  0
ARC
  5
2D7
330
299
100
AcDbEntity
  8
D35160190
100
AcDbCircle
 10
-4.103576437105996
 20
-2.146964520939508
 30
0.0
 40
3.759430087089248
100
AcDbArc
 50
5.708116328787737
 51
28.96133632984057
1001
REVIT
1002
{
1070
     1
1000
22819
1002
}
1002
{
1070
     2
1000
-2001350
1002
}
  0
LINE
  5
2D8
330
299
100
AcDbEntity
  8
D35160190
100
AcDbLine
 10
-0.3627875191658845
 20
-1.773048954095465
 30
0.0
 11
0.3627875191658383
 21
-1.773048954095472
 31
0.0
1001
REVIT
1002
{
1070
     1
1000
22819
1002
}
1002
{
1070
     2
1000
-2001350
1002
}
  0
LINE
  5
2D9
330
299
100
AcDbEntity
  8
D35160190
100
AcDbLine
 10
-0.3142427394431735
 20
-1.773048954095465
 30
0.0
 11
-0.3142427394431735
 21
-1.875000000000003
 31
0.0
1001
REVIT
1002
{
1070
     1
1000
22819
1002
}
1002
{
1070
     2
1000
-2001350
1002
}
  0
LINE
  5
2DA
330
299
100
AcDbEntity
  8
D35160190
100
AcDbLine
 10
0.4125985785649
 20
-1.87500000000001
 30
0.0
 11
-0.4125985785649462
 21
-1.875000000000003
 31
0.0
1001
REVIT
1002
{
1070
     1
1000
22819
1002
}
1002
{
1070
     2
1000
-2001350
1002
}
  0
LINE
  5
2DB
330
299
100
AcDbEntity
  8
D35160190
100
AcDbLine
 10
-0.4125985785649462
 20
-2.009250908328255
 30
0.0
 11
-3.570582152531953
 21
-2.00925090832824
 31
0.0
1001
REVIT
1002
{
1070
     1
1000
22819
1002
}
1002
{
1070
     2
1000
-2001350
1002
}
  0
LINE
  5
2DC
330
299
100
AcDbEntity
  8
D35160190
100
AcDbLine
 10
-3.570582152531953
 20
-2.00925090832824
 30
0.0
 11
-3.709578705415831
 21
-2.250000000000067
 31
0.0
1001
REVIT
1002
{
1070
     1
1000
22819
1002
}
1002
{
1070
     2
1000
-2001350
1002
}
  0
LINE
  5
2DD
330
299
100
AcDbEntity
  8
D35160190
100
AcDbLine
 10
-3.709578705415831
 20
-2.250000000000067
 30
0.0
 11
-3.570582152531949
 21
-2.490749091671879
 31
0.0
1001
REVIT
1002
{
1070
     1
1000
22819
1002
}
1002
{
1070
     2
1000
-2001350
1002
}
  0
LINE
  5
2DE
330
299
100
AcDbEntity
  8
D35160190
100
AcDbLine
 10
-3.570582152531949
 20
-2.490749091671879
 30
0.0
 11
-0.4125985785649498
 21
-2.490749091671887
 31
0.0
1001
REVIT
1002
{
1070
     1
1000
22819
1002
}
1002
{
1070
     2
1000
-2001350
1002
}
  0
LINE
  5
2DF
330
299
100
AcDbEntity
  8
D35160190
100
AcDbLine
 10
-0.4125985785649462
 20
-1.875000000000003
 30
0.0
 11
-0.4125985785649498
 21
-2.625000000000035
 31
0.0
1001
REVIT
1002
{
1070
     1
1000
22819
1002
}
1002
{
1070
     2
1000
-2001350
1002
}
  0
LINE
  5
2E0
330
299
100
AcDbEntity
  8
D35160190
100
AcDbLine
 10
-0.4125985785649498
 20
-2.625000000000035
 30
0.0
 11
0.4125853390632735
 21
-2.625000000000035
 31
0.0
1001
REVIT
1002
{
1070
     1
1000
22819
1002
}
1002
{
1070
     2
1000
-2001350
1002
}
  0
LINE
  5
2E1
330
299
100
AcDbEntity
  8
D35160190
100
AcDbLine
 10
0.4125853390632735
 20
-2.625000000000035
 30
0.0
 11
0.4125985785649
 21
-1.87500000000001
 31
0.0
1001
REVIT
1002
{
1070
     1
1000
22819
1002
}
1002
{
1070
     2
1000
-2001350
1002
}
  0
LINE
  5
2E2
330
299
100
AcDbEntity
  8
D35160190
100
AcDbLine
 10
0.4125853390632735
 20
-2.490749091671897
 30
0.0
 11
3.570582152531891
 21
-2.490749091671951
 31
0.0
1001
REVIT
1002
{
1070
     1
1000
22819
1002
}
1002
{
1070
     2
1000
-2001350
1002
}
  0
LINE
  5
2E3
330
299
100
AcDbEntity
  8
D35160190
100
AcDbLine
 10
3.570582152531891
 20
-2.490749091671951
 30
0.0
 11
3.709578705415779
 21
-2.250000000000142
 31
0.0
1001
REVIT
1002
{
1070
     1
1000
22819
1002
}
1002
{
1070
     2
1000
-2001350
1002
}
  0
LINE
  5
2E4
330
299
100
AcDbEntity
  8
D35160190
100
AcDbLine
 10
3.709578705415779
 20
-2.250000000000142
 30
0.0
 11
3.570582152531905
 21
-2.009250908328315
 31
0.0
1001
REVIT
1002
{
1070
     1
1000
22819
1002
}
1002
{
1070
     2
1000
-2001350
1002
}
  0
LINE
  5
2E5
330
299
100
AcDbEntity
  8
D35160190
100
AcDbLine
 10
3.570582152531905
 20
-2.009250908328315
 30
0.0
 11
0.4125985785649
 21
-2.009250908328262
 31
0.0
1001
REVIT
1002
{
1070
     1
1000
22819
1002
}
1002
{
1070
     2
1000
-2001350
1002
}
  0
LINE
  5
2E6
330
299
100
AcDbEntity
  8
D35160190
100
AcDbLine
 10
0.3142427394431273
 20
-1.87500000000001
 30
0.0
 11
0.3142427394431309
 21
-1.773048954095472
 31
0.0
1001
REVIT
1002
{
1070
     1
1000
22819
1002
}
1002
{
1070
     2
1000
-2001350
1002
}
  0
ARC
  5
2E7
330
299
100
AcDbEntity
  8
D35160190
100
AcDbCircle
 10
4.103576437105928
 20
-2.146964520939505
 30
0.0
 40
3.759430087089227
100
AcDbArc
 50
151.0386636701596
 51
174.2918836712126
1001
REVIT
1002
{
1070
     1
1000
22819
1002
}
1002
{
1070
     2
1000
-2001350
1002
}
  0
LINE
  5
2E8
330
299
100
AcDbEntity
  8
D35160190
100
AcDbLine
 10
0.8589183275320451
 20
-0.3265758810672921
 30
0.0
 11
0.8787332511874694
 21
-0.279894846295047
 31
0.0
1001
REVIT
1002
{
1070
     1
1000
22819
1002
}
1002
{
1070
     2
1000
-2001350
1002
}
  0
ARC
  5
2E9
330
299
100
AcDbEntity
  8
D35160190
100
AcDbCircle
 10
0.9127360972557418
 20
-0.2943281981304615
 30
0.0
 40
0.03693934468758
100
AcDbArc
 50
100.0000000000018
 51
157.0000000000002
1001
REVIT
1002
{
1070
     1
1000
22819
1002
}
1002
{
1070
     2
1000
-2001350
1002
}
  0
LINE
  5
2EA
330
299
100
AcDbEntity
  8
D35160190
100
AcDbLine
 10
0.906321647366532
 20
-0.2579500450909613
 30
0.0
 11
0.9390157338478068
 21
-0.2521851955346968
 31
0.0
1001
REVIT
1002
{
1070
     1
1000
22819
1002
}
1002
{
1070
     2
1000
-2001350
1002
}
  0
ARC
  5
2EB
330
299
100
AcDbEntity
  8
D35160190
100
AcDbCircle
 10
0.9326593566623095
 20
-0.2161363891639354
 30
0.0
 40
0.036604917315567
100
AcDbArc
 50
280.0000000000006
 51
351.9999999999982
1001
REVIT
1002
{
1070
     1
1000
22819
1002
}
1002
{
1070
     2
1000
-2001350
1002
}
  0
LINE
  5
2EC
330
299
100
AcDbEntity
  8
D35160190
100
AcDbLine
 10
0.9689080374388403
 20
-0.2212308090171504
 30
0.0
 11
1.000000000000003
 21
0.0000000000000178
 31
0.0
1001
REVIT
1002
{
1070
     1
1000
22819
1002
}
1002
{
1070
     2
1000
-2001350
1002
}
  0
LINE
  5
2ED
330
299
100
AcDbEntity
  8
D35160190
100
AcDbLine
 10
1.000000000000003
 20
0.0000000000000178
 30
0.0
 11
-1.000000000000003
 21
-0.0000000000000178
 31
0.0
1001
REVIT
1002
{
1070
     1
1000
22819
1002
}
1002
{
1070
     2
1000
-2001350
1002
}
  0
LINE
  5
2EE
330
299
100
AcDbEntity
  8
D35160190
100
AcDbLine
 10
-3.709578705415831
 20
-2.250000000000067
 30
0.0
 11
3.709578705414838
 21
-2.250000000000088
 31
0.0
1001
REVIT
1002
{
1070
     1
1000
24734
1002
}
1002
{
1070
     2
1000
-2001350
1002
}
  0
ARC
  5
2EF
330
299
100
AcDbEntity
  8
D35160190
100
AcDbCircle
 10
-9.26204461835146
 20
-2.797525982080273
 30
0.0
 40
9.188927167847541
100
AcDbArc
 50
6.401236866173701
 51
15.59876313382637
1001
REVIT
1002
{
1070
     1
1000
24889
1002
}
1002
{
1070
     2
1000
-2001350
1002
}
  0
ARC
  5
2F0
330
299
100
AcDbEntity
  8
D35160190
100
AcDbCircle
 10
9.262044618351396
 20
-2.797525982080465
 30
0.0
 40
9.188927167847541
100
AcDbArc
 50
164.4012368661736
 51
173.5987631338261
1001
REVIT
1002
{
1070
     1
1000
24934
1002
}
1002
{
1070
     2
1000
-2001350
1002
}
  0
ENDBLK
  5
29B
330
299
100
AcDbEntity
  8
0
100
AcDbBlockEnd
  0
BLOCK
  5
2F3
330
2F2
100
AcDbEntity
  8
0
100
AcDbBlockBegin
  2
D35160190 Front View
 70
     0
 10
0.0
 20
0.0
 30
0.0
  3
D35160190 Front View
  1

  0
ARC
  5
2F5
330
2F2
100
AcDbEntity
  8
D35160190
100
AcDbCircle
 10
0.000000000001233
 20
-0.0000000000016593
 30
0.0
 40
0.9999999999999177
100
AcDbArc
 50
203.0730164913126
 51
336.8991835369241
1001
REVIT
1002
{
1070
     2
1000
-2001350
1002
}
  0
ARC
  5
2F6
330
2F2
100
AcDbEntity
  8
D35160190
100
AcDbCircle
 10
0.000000000001233
 20
-0.0000000000016593
 30
0.0
 40
0.9999999999999181
100
AcDbArc
 50
9.82025952314447
 51
170.1684651538545
1001
REVIT
1002
{
1070
     2
1000
-2001350
1002
}
  0
ARC
  5
2F7
330
2F2
100
AcDbEntity
  8
D35160190
100
AcDbCircle
 10
0.0000000000012356
 20
-0.0000000000016628
 30
0.0
 40
0.9423122952137592
100
AcDbArc
 50
203.2673802402714
 51
336.8991835369241
1001
REVIT
1002
{
1070
     2
1000
-2001350
1002
}
  0
ARC
  5
2F8
330
2F2
100
AcDbEntity
  8
D35160190
100
AcDbCircle
 10
0.0000000000012356
 20
-0.0000000000016628
 30
0.0
 40
0.9423122952137594
100
AcDbArc
 50
11.44812728540448
 51
168.449591768462
1001
REVIT
1002
{
1070
     2
1000
-2001350
1002
}
  0
ARC
  5
2F9
330
2F2
100
AcDbEntity
  8
D35160190
100
AcDbCircle
 10
0.0000000000012357
 20
-0.0000000000016628
 30
0.0
 40
0.9089644557666648
100
AcDbArc
 50
203.6583496712276
 51
336.8991835369241
1001
REVIT
1002
{
1070
     2
1000
-2001350
1002
}
  0
ARC
  5
2FA
330
2F2
100
AcDbEntity
  8
D35160190
100
AcDbCircle
 10
0.0000000000012357
 20
-0.0000000000016628
 30
0.0
 40
0.9089644557666646
100
AcDbArc
 50
12.48340451879006
 51
166.7307183830695
1001
REVIT
1002
{
1070
     2
1000
-2001350
1002
}
  0
ARC
  5
2FB
330
2F2
100
AcDbEntity
  8
D35160190
100
AcDbCircle
 10
0.0000000000012364
 20
-0.0000000000016638
 30
0.0
 40
0.8589183275320541
100
AcDbArc
 50
204.3672064824697
 51
335.1803101515316
1001
REVIT
1002
{
1070
     2
1000
-2001350
1002
}
  0
ARC
  5
2FC
330
2F2
100
AcDbEntity
  8
D35160190
100
AcDbCircle
 10
0.0
 20
1.055859411309364
 30
0.0
 40
1.807493548603996
100
AcDbArc
 50
256.9824239332071
 51
283.6141085897575
1001
REVIT
1002
{
1070
     2
1000
-2001350
1002
}
  0
ARC
  5
2FD
330
2F2
100
AcDbEntity
  8
D35160190
100
AcDbCircle
 10
0.9144010730221213
 20
0.5279297056521228
 30
0.0
 40
1.807493548603997
100
AcDbArc
 50
208.4243096172625
 51
223.0175760667323
1001
REVIT
1002
{
1070
     2
1000
-2001350
1002
}
  0
ARC
  5
2FE
330
2F2
100
AcDbEntity
  8
D35160190
100
AcDbCircle
 10
0.9136725782694385
 20
-0.5275091090123887
 30
0.0
 40
1.80667525800781
100
AcDbArc
 50
136.9764749545761
 51
154.8967048091304
1001
REVIT
1002
{
1070
     2
1000
-2001350
1002
}
  0
ARC
  5
2FF
330
2F2
100
AcDbEntity
  8
D35160190
100
AcDbCircle
 10
0.0000000000012364
 20
-0.0000000000016638
 30
0.0
 40
0.8589183275320541
100
AcDbArc
 50
14.18792582456391
 51
165.0118449976771
1001
REVIT
1002
{
1070
     2
1000
-2001350
1002
}
  0
ARC
  5
300
330
2F2
100
AcDbEntity
  8
D35160190
100
AcDbCircle
 10
0.0000000000001689
 20
-1.055859411313639
 30
0.0
 40
1.807493548603997
100
AcDbArc
 50
76.98242393315812
 51
103.1324031235481
1001
REVIT
1002
{
1070
     2
1000
-2001350
1002
}
  0
ARC
  5
301
330
2F2
100
AcDbEntity
  8
D35160190
100
AcDbCircle
 10
-0.9144010730215123
 20
-0.5279297056555911
 30
0.0
 40
1.807493548603996
100
AcDbArc
 50
25.10590467829211
 51
43.01757606668253
1001
REVIT
1002
{
1070
     2
1000
-2001350
1002
}
  0
ARC
  5
302
330
2F2
100
AcDbEntity
  8
D35160190
100
AcDbCircle
 10
-0.9144010730223611
 20
0.5279297056500481
 30
0.0
 40
1.807493548603994
100
AcDbArc
 50
316.9824239333785
 51
331.6785703306043
1001
REVIT
1002
{
1070
     2
1000
-2001350
1002
}
  0
SPLINE
  5
303
330
2F2
100
AcDbEntity
  8
D35160190
100
AcDbSpline
210
0.0
220
0.0
230
1.0
 70
     8
 71
     3
 72
     9
 73
     5
 74
     0
 42
0.000000001
 43
0.0000000001
 40
0.0
 40
0.0
 40
0.0
 40
0.0
 40
0.3333333333333333
 40
0.5639499668997811
 40
0.5639499668997811
 40
0.5639499668997811
 40
0.5639499668997811
 10
-0.4071400402639251
 20
0.7051828697968371
 30
0.0
 10
-0.3658106441605475
 20
0.6358077907406777
 30
0.0
 10
-0.3072546259903205
 20
0.5313989504170155
 30
0.0
 10
-0.261348837149289
 20
0.4526260436882256
 30
0.0
 10
-0.2451980573319085
 20
0.4247411915906611
 30
0.0
1001
REVIT
1002
{
1070
     2
1000
-2001350
1002
}
  0
SPLINE
  5
304
330
2F2
100
AcDbEntity
  8
D35160190
100
AcDbSpline
210
0.0
220
0.0
230
1.0
 70
     8
 71
     3
 72
     9
 73
     5
 74
     0
 42
0.000000001
 43
0.0000000001
 40
-0.5642647764833764
 40
-0.5642647764833764
 40
-0.5642647764833764
 40
-0.5642647764833764
 40
-0.3333333333333333
 40
0.0
 40
0.0
 40
0.0
 40
0.0
 10
0.2452484942076434
 20
0.4247074443082319
 30
0.0
 10
0.2613946179477348
 20
0.4527654081382772
 30
0.0
 10
0.3068532754115331
 20
0.532244639849909
 30
0.0
 10
0.3679220144143859
 20
0.6350332984543876
 30
0.0
 10
0.4071378165294752
 20
0.7051833839065126
 30
0.0
1001
REVIT
1002
{
1070
     2
1000
-2001350
1002
}
  0
SPLINE
  5
305
330
2F2
100
AcDbEntity
  8
D35160190
100
AcDbSpline
210
0.0
220
0.0
230
1.0
 70
     8
 71
     3
 72
     9
 73
     5
 74
     0
 42
0.000000001
 43
0.0000000001
 40
-0.5642647764847573
 40
-0.5642647764847573
 40
-0.5642647764847573
 40
-0.5642647764847573
 40
-0.3333333333333333
 40
0.0
 40
0.0
 40
0.0
 40
0.0
 10
0.2451831888471516
 20
-0.4247451483793753
 30
0.0
 10
0.2614090364325569
 20
-0.4527570836260281
 30
0.0
 10
0.3075107414365696
 20
-0.5318650516674135
 30
0.0
 10
0.3659939615080611
 20
-0.6361464603232698
 30
0.0
 10
0.4071378165299533
 20
-0.7051833839106473
 30
0.0
1001
REVIT
1002
{
1070
     2
1000
-2001350
1002
}
  0
SPLINE
  5
306
330
2F2
100
AcDbEntity
  8
D35160190
100
AcDbSpline
210
0.0
220
0.0
230
1.0
 70
     8
 71
     3
 72
     9
 73
     5
 74
     0
 42
0.000000001
 43
0.0000000001
 40
-0.5642647764854715
 40
-0.5642647764854715
 40
-0.5642647764854715
 40
-0.5642647764854715
 40
-0.3333333333333333
 40
0.0
 40
0.0
 40
0.0
 40
0.0
 10
-0.2452484942057604
 20
-0.4247074443119541
 30
0.0
 10
-0.2613946179459294
 20
-0.4527654081421872
 30
0.0
 10
-0.3068532754097696
 20
-0.5322446398540681
 30
0.0
 10
-0.3679220144127612
 20
-0.6350332984589829
 30
0.0
 10
-0.4071378165277903
 20
-0.7051833839111432
 30
0.0
1001
REVIT
1002
{
1070
     2
1000
-2001350
1002
}
  0
ARC
  5
307
330
2F2
100
AcDbEntity
  8
D35160190
100
AcDbCircle
 10
0.0000000000017259
 20
-3.403633264537129
 30
0.0
 40
3.709578705415333
100
AcDbArc
 50
96.3859469380603
 51
83.46933343125714
1001
REVIT
1002
{
1070
     2
1000
-2001350
1002
}
  0
ARC
  5
308
330
2F2
100
AcDbEntity
  8
D35160190
100
AcDbCircle
 10
0.000000000001726
 20
-3.403633264537129
 30
0.0
 40
3.57058215253145
100
AcDbArc
 50
96.63563694453493
 51
81.75046004586468
1001
REVIT
1002
{
1070
     2
1000
-2001350
1002
}
  0
ARC
  5
309
330
2F2
100
AcDbEntity
  8
D35160190
100
AcDbCircle
 10
0.0000000000017259
 20
-3.403633264537129
 30
0.0
 40
3.292589046763692
100
AcDbArc
 50
97.1987326946046
 51
81.75046004586468
1001
REVIT
1002
{
1070
     2
1000
-2001350
1002
}
  0
ARC
  5
30A
330
2F2
100
AcDbEntity
  8
D35160190
100
AcDbCircle
 10
0.0000000000017259
 20
-3.403633264537129
 30
0.0
 40
3.153592493879815
100
AcDbArc
 50
97.51781535489703
 51
81.75046004586468
1001
REVIT
1002
{
1070
     2
1000
-2001350
1002
}
  0
LINE
  5
30B
330
2F2
100
AcDbEntity
  8
D35160190
100
AcDbLine
 10
0.4125985785661767
 20
0.4305139478180914
 30
0.0
 11
0.4125985785661767
 21
-0.4305139478217532
 31
0.0
1001
REVIT
1002
{
1070
     2
1000
-2001350
1002
}
  0
LINE
  5
30C
330
2F2
100
AcDbEntity
  8
D35160190
100
AcDbLine
 10
-0.4125985785636665
 20
-0.4305139478217532
 30
0.0
 11
-0.4125985785636665
 21
0.4305139478180914
 31
0.0
1001
REVIT
1002
{
1070
     2
1000
-2001350
1002
}
  0
LINE
  5
30D
330
2F2
100
AcDbEntity
  8
D35160190
100
AcDbLine
 10
0.4125985785661806
 20
-0.2152569739117898
 30
0.0
 11
-0.4125985785636627
 21
-0.2152569739117898
 31
0.0
1001
REVIT
1002
{
1070
     2
1000
-2001350
1002
}
  0
LINE
  5
30E
330
2F2
100
AcDbEntity
  8
D35160190
100
AcDbLine
 10
-0.4125985785636665
 20
-0.4305139478217532
 30
0.0
 11
0.4125985785661767
 21
-0.4305139478217532
 31
0.0
1001
REVIT
1002
{
1070
     2
1000
-2001350
1002
}
  0
LINE
  5
30F
330
2F2
100
AcDbEntity
  8
D35160190
100
AcDbLine
 10
-0.4125985785636665
 20
0.4305139478180914
 30
0.0
 11
0.4125985785661767
 21
0.4305139478180914
 31
0.0
1001
REVIT
1002
{
1070
     2
1000
-2001350
1002
}
  0
LINE
  5
310
330
2F2
100
AcDbEntity
  8
D35160190
100
AcDbLine
 10
-0.4125985785636627
 20
0.2152569739081313
 30
0.0
 11
0.4125985785661806
 21
0.2152569739081313
 31
0.0
1001
REVIT
1002
{
1070
     2
1000
-2001350
1002
}
  0
ENDBLK
  5
2F4
330
2F2
100
AcDbEntity
  8
0
100
AcDbBlockEnd
  0
BLOCK
  5
313
330
312
100
AcDbEntity
  8
0
100
AcDbBlockBegin
  2
D35160190 Left View
 70
     0
 10
0.0
 20
0.0
 30
0.0
  3
D35160190 Left View
  1

  0
LINE
  5
315
330
312
100
AcDbEntity
  8
D35160190
100
AcDbLine
 10
-0.0000000000000036
 20
-1.009342809248589
 30
0.0
 11
0.2245456483321391
 21
-0.9777849764032067
 31
0.0
1001
REVIT
1002
{
1070
     2
1000
-2001350
1002
}
  0
LINE
  5
316
330
312
100
AcDbEntity
  8
D35160190
100
AcDbLine
 10
0.2245456483321675
 20
0.9590993579058491
 30
0.0
 11
-0.0000000000000036
 21
0.9906571907512429
 31
0.0
1001
REVIT
1002
{
1070
     2
1000
-2001350
1002
}
  0
LINE
  5
317
330
312
100
AcDbEntity
  8
D35160190
100
AcDbLine
 10
0.2245456483321675
 20
0.9590993579058491
 30
0.0
 11
0.2258091961195276
 21
0.9588959316492093
 31
0.0
1001
REVIT
1002
{
1070
     2
1000
-2001350
1002
}
  0
LINE
  5
318
330
312
100
AcDbEntity
  8
D35160190
100
AcDbLine
 10
0.2258091961195276
 20
0.9588959316492093
 30
0.0
 11
0.2270635983228715
 21
0.9586421396771527
 31
0.0
1001
REVIT
1002
{
1070
     2
1000
-2001350
1002
}
  0
LINE
  5
319
330
312
100
AcDbEntity
  8
D35160190
100
AcDbLine
 10
0.2270635983228715
 20
0.9586421396771527
 30
0.0
 11
0.2283068481662624
 21
0.9583383880026836
 31
0.0
1001
REVIT
1002
{
1070
     2
1000
-2001350
1002
}
  0
LINE
  5
31A
330
312
100
AcDbEntity
  8
D35160190
100
AcDbLine
 10
0.2283068481662624
 20
0.9583383880026836
 30
0.0
 11
0.2295369567151688
 21
0.9579851625636948
 31
0.0
1001
REVIT
1002
{
1070
     2
1000
-2001350
1002
}
  0
LINE
  5
31B
330
312
100
AcDbEntity
  8
D35160190
100
AcDbLine
 10
0.2295369567151688
 20
0.9579851625636948
 30
0.0
 11
0.2307519560583131
 21
0.95758302844553
 31
0.0
1001
REVIT
1002
{
1070
     2
1000
-2001350
1002
}
  0
LINE
  5
31C
330
312
100
AcDbEntity
  8
D35160190
100
AcDbLine
 10
0.2307519560583131
 20
0.95758302844553
 30
0.0
 11
0.2319499024559377
 21
0.9571326289769928
 31
0.0
1001
REVIT
1002
{
1070
     2
1000
-2001350
1002
}
  0
LINE
  5
31D
330
312
100
AcDbEntity
  8
D35160190
100
AcDbLine
 10
0.2319499024559377
 20
0.9571326289769928
 30
0.0
 11
0.2331288794493531
 21
0.9566346847011644
 31
0.0
1001
REVIT
1002
{
1070
     2
1000
-2001350
1002
}
  0
LINE
  5
31E
330
312
100
AcDbEntity
  8
D35160190
100
AcDbLine
 10
0.2331288794493531
 20
0.9566346847011644
 30
0.0
 11
0.2342870009268765
 21
0.9560899922226617
 31
0.0
1001
REVIT
1002
{
1070
     2
1000
-2001350
1002
}
  0
LINE
  5
31F
330
312
100
AcDbEntity
  8
D35160190
100
AcDbLine
 10
0.2342870009268765
 20
0.9560899922226617
 30
0.0
 11
0.2354224141411869
 21
0.9554994229332542
 31
0.0
1001
REVIT
1002
{
1070
     2
1000
-2001350
1002
}
  0
LINE
  5
320
330
312
100
AcDbEntity
  8
D35160190
100
AcDbLine
 10
0.2354224141411869
 20
0.9554994229332542
 30
0.0
 11
0.236533302673358
 21
0.9548639216178109
 31
0.0
1001
REVIT
1002
{
1070
     2
1000
-2001350
1002
}
  0
LINE
  5
321
330
312
100
AcDbEntity
  8
D35160190
100
AcDbLine
 10
0.236533302673358
 20
0.9548639216178109
 30
0.0
 11
0.2376178893387149
 21
0.9541845049428907
 31
0.0
1001
REVIT
1002
{
1070
     2
1000
-2001350
1002
}
  0
LINE
  5
322
330
312
100
AcDbEntity
  8
D35160190
100
AcDbLine
 10
0.2376178893387149
 20
0.9541845049428907
 30
0.0
 11
0.2386744390299533
 21
0.9534622598302142
 31
0.0
1001
REVIT
1002
{
1070
     2
1000
-2001350
1002
}
  0
LINE
  5
323
330
312
100
AcDbEntity
  8
D35160190
100
AcDbLine
 10
0.2386744390299533
 20
0.9534622598302142
 30
0.0
 11
0.2397012614929572
 21
0.9526983417179053
 31
0.0
1001
REVIT
1002
{
1070
     2
1000
-2001350
1002
}
  0
LINE
  5
324
330
312
100
AcDbEntity
  8
D35160190
100
AcDbLine
 10
0.2397012614929572
 20
0.9526983417179053
 30
0.0
 11
0.2406967140308289
 21
0.9518939727119963
 31
0.0
1001
REVIT
1002
{
1070
     2
1000
-2001350
1002
}
  0
LINE
  5
325
330
312
100
AcDbEntity
  8
D35160190
100
AcDbLine
 10
0.2406967140308289
 20
0.9518939727119963
 30
0.0
 11
0.2416592041318601
 21
0.9510504396312775
 31
0.0
1001
REVIT
1002
{
1070
     2
1000
-2001350
1002
}
  0
LINE
  5
326
330
312
100
AcDbEntity
  8
D35160190
100
AcDbLine
 10
0.2416592041318601
 20
0.9510504396312775
 30
0.0
 11
0.2425871920172078
 21
0.9501690919487622
 31
0.0
1001
REVIT
1002
{
1070
     2
1000
-2001350
1002
}
  0
LINE
  5
327
330
312
100
AcDbEntity
  8
D35160190
100
AcDbLine
 10
0.2425871920172078
 20
0.9501690919487622
 30
0.0
 11
0.2434791931042142
 21
0.9492513396327204
 31
0.0
1001
REVIT
1002
{
1070
     2
1000
-2001350
1002
}
  0
LINE
  5
328
330
312
100
AcDbEntity
  8
D35160190
100
AcDbLine
 10
0.2434791931042142
 20
0.9492513396327204
 30
0.0
 11
0.2443337803814281
 21
0.9482986508910649
 31
0.0
1001
REVIT
1002
{
1070
     2
1000
-2001350
1002
}
  0
LINE
  5
329
330
312
100
AcDbEntity
  8
D35160190
100
AcDbLine
 10
0.2443337803814281
 20
0.9482986508910649
 30
0.0
 11
0.2451495866915039
 21
0.9473125498225734
 31
0.0
1001
REVIT
1002
{
1070
     2
1000
-2001350
1002
}
  0
LINE
  5
32A
330
312
100
AcDbEntity
  8
D35160190
100
AcDbLine
 10
0.2451495866915039
 20
0.9473125498225734
 30
0.0
 11
0.2459253069183802
 21
0.9462946139785941
 31
0.0
1001
REVIT
1002
{
1070
     2
1000
-2001350
1002
}
  0
LINE
  5
32B
330
312
100
AcDbEntity
  8
D35160190
100
AcDbLine
 10
0.2459253069183802
 20
0.9462946139785941
 30
0.0
 11
0.2466597000751669
 21
0.9452464718393365
 31
0.0
1001
REVIT
1002
{
1070
     2
1000
-2001350
1002
}
  0
LINE
  5
32C
330
312
100
AcDbEntity
  8
D35160190
100
AcDbLine
 10
0.2466597000751669
 20
0.9452464718393365
 30
0.0
 11
0.2473515912894761
 21
0.9441698002086162
 31
0.0
1001
REVIT
1002
{
1070
     2
1000
-2001350
1002
}
  0
LINE
  5
32D
330
312
100
AcDbEntity
  8
D35160190
100
AcDbLine
 10
0.2473515912894761
 20
0.9441698002086162
 30
0.0
 11
0.2479998736829607
 21
0.9430663215313721
 31
0.0
1001
REVIT
1002
{
1070
     2
1000
-2001350
1002
}
  0
LINE
  5
32E
330
312
100
AcDbEntity
  8
D35160190
100
AcDbLine
 10
0.2479998736829607
 20
0.9430663215313721
 30
0.0
 11
0.2486035101420896
 21
0.9419378011380992
 31
0.0
1001
REVIT
1002
{
1070
     2
1000
-2001350
1002
}
  0
LINE
  5
32F
330
312
100
AcDbEntity
  8
D35160190
100
AcDbLine
 10
0.2486035101420896
 20
0.9419378011380992
 30
0.0
 11
0.2491615349772864
 21
0.9407860444206761
 31
0.0
1001
REVIT
1002
{
1070
     2
1000
-2001350
1002
}
  0
LINE
  5
330
330
312
100
AcDbEntity
  8
D35160190
100
AcDbLine
 10
0.2491615349772864
 20
0.9407860444206761
 30
0.0
 11
0.2496730554678628
 21
0.9396128939441474
 31
0.0
1001
REVIT
1002
{
1070
     2
1000
-2001350
1002
}
  0
LINE
  5
331
330
312
100
AcDbEntity
  8
D35160190
100
AcDbLine
 10
0.2496730554678628
 20
0.9396128939441474
 30
0.0
 11
0.2501372532901485
 21
0.9384202264990442
 31
0.0
1001
REVIT
1002
{
1070
     2
1000
-2001350
1002
}
  0
LINE
  5
332
330
312
100
AcDbEntity
  8
D35160190
100
AcDbLine
 10
0.2501372532901485
 20
0.9384202264990442
 30
0.0
 11
0.250553385826656
 21
0.9372099500988362
 31
0.0
1001
REVIT
1002
{
1070
     2
1000
-2001350
1002
}
  0
LINE
  5
333
330
312
100
AcDbEntity
  8
D35160190
100
AcDbLine
 10
0.250553385826656
 20
0.9372099500988362
 30
0.0
 11
0.2509207873540866
 21
0.9359840009275899
 31
0.0
1001
REVIT
1002
{
1070
     2
1000
-2001350
1002
}
  0
LINE
  5
334
330
312
100
AcDbEntity
  8
D35160190
100
AcDbLine
 10
0.2509207873540866
 20
0.9359840009275899
 30
0.0
 11
0.2512388701083843
 21
0.9347443402424566
 31
0.0
1001
REVIT
1002
{
1070
     2
1000
-2001350
1002
}
  0
LINE
  5
335
330
312
100
AcDbEntity
  8
D35160190
100
AcDbLine
 10
0.2512388701083843
 20
0.9347443402424566
 30
0.0
 11
0.2515071252249861
 21
0.9334929512360972
 31
0.0
1001
REVIT
1002
{
1070
     2
1000
-2001350
1002
}
  0
LINE
  5
336
330
312
100
AcDbEntity
  8
D35160190
100
AcDbLine
 10
0.2515071252249861
 20
0.9334929512360972
 30
0.0
 11
0.2516039228223015
 21
0.9329694859650743
 31
0.0
1001
REVIT
1002
{
1070
     2
1000
-2001350
1002
}
  0
LINE
  5
337
330
312
100
AcDbEntity
  8
D35160190
100
AcDbLine
 10
0.2516039228222766
 20
-0.9516551044624426
 30
0.0
 11
0.2513565233055743
 21
-0.952910783056655
 31
0.0
1001
REVIT
1002
{
1070
     2
1000
-2001350
1002
}
  0
LINE
  5
338
330
312
100
AcDbEntity
  8
D35160190
100
AcDbLine
 10
0.2513565233055743
 20
-0.952910783056655
 30
0.0
 11
0.2510591079311695
 21
-0.9541555638999737
 31
0.0
1001
REVIT
1002
{
1070
     2
1000
-2001350
1002
}
  0
LINE
  5
339
330
312
100
AcDbEntity
  8
D35160190
100
AcDbLine
 10
0.2510591079311695
 20
-0.9541555638999737
 30
0.0
 11
0.2507121525002063
 21
-0.9553874556085942
 31
0.0
1001
REVIT
1002
{
1070
     2
1000
-2001350
1002
}
  0
LINE
  5
33A
330
312
100
AcDbEntity
  8
D35160190
100
AcDbLine
 10
0.2507121525002063
 20
-0.9553874556085942
 30
0.0
 11
0.2503162120673608
 21
-0.9566044874185591
 31
0.0
1001
REVIT
1002
{
1070
     2
1000
-2001350
1002
}
  0
LINE
  5
33B
330
312
100
AcDbEntity
  8
D35160190
100
AcDbLine
 10
0.2503162120673608
 20
-0.9566044874185591
 30
0.0
 11
0.2498719200528683
 21
-0.9578047123386069
 31
0.0
1001
REVIT
1002
{
1070
     2
1000
-2001350
1002
}
  0
LINE
  5
33C
330
312
100
AcDbEntity
  8
D35160190
100
AcDbLine
 10
0.2498719200528683
 20
-0.9578047123386069
 30
0.0
 11
0.2493799872291724
 21
-0.9589862102648963
 31
0.0
1001
REVIT
1002
{
1070
     2
1000
-2001350
1002
}
  0
LINE
  5
33D
330
312
100
AcDbEntity
  8
D35160190
100
AcDbLine
 10
0.2493799872291724
 20
-0.9589862102648963
 30
0.0
 11
0.2488412005838505
 21
-0.9601470910527572
 31
0.0
1001
REVIT
1002
{
1070
     2
1000
-2001350
1002
}
  0
LINE
  5
33E
330
312
100
AcDbEntity
  8
D35160190
100
AcDbLine
 10
0.2488412005838505
 20
-0.9601470910527572
 30
0.0
 11
0.2482564220605994
 21
-0.9612854975406184
 31
0.0
1001
REVIT
1002
{
1070
     2
1000
-2001350
1002
}
  0
LINE
  5
33F
330
312
100
AcDbEntity
  8
D35160190
100
AcDbLine
 10
0.2482564220605994
 20
-0.9612854975406184
 30
0.0
 11
0.24762658718031
 21
-0.9623996085209112
 31
0.0
1001
REVIT
1002
{
1070
     2
1000
-2001350
1002
}
  0
LINE
  5
340
330
312
100
AcDbEntity
  8
D35160190
100
AcDbLine
 10
0.24762658718031
 20
-0.9623996085209112
 30
0.0
 11
0.2469527035444372
 21
-0.9634876416537386
 31
0.0
1001
REVIT
1002
{
1070
     2
1000
-2001350
1002
}
  0
LINE
  5
341
330
312
100
AcDbEntity
  8
D35160190
100
AcDbLine
 10
0.2469527035444372
 20
-0.9634876416537386
 30
0.0
 11
0.2462358492230372
 21
-0.9645478563181944
 31
0.0
1001
REVIT
1002
{
1070
     2
1000
-2001350
1002
}
  0
LINE
  5
342
330
312
100
AcDbEntity
  8
D35160190
100
AcDbLine
 10
0.2462358492230372
 20
-0.9645478563181944
 30
0.0
 11
0.2454771710301102
 21
-0.9655785563969841
 31
0.0
1001
REVIT
1002
{
1070
     2
1000
-2001350
1002
}
  0
LINE
  5
343
330
312
100
AcDbEntity
  8
D35160190
100
AcDbLine
 10
0.2454771710301102
 20
-0.9655785563969841
 30
0.0
 11
0.2446778826889187
 21
-0.966578092989838
 31
0.0
1001
REVIT
1002
{
1070
     2
1000
-2001350
1002
}
  0
LINE
  5
344
330
312
100
AcDbEntity
  8
D35160190
100
AcDbLine
 10
0.2446778826889187
 20
-0.966578092989838
 30
0.0
 11
0.2438392628903045
 21
-0.9675448670514546
 31
0.0
1001
REVIT
1002
{
1070
     2
1000
-2001350
1002
}
  0
LINE
  5
345
330
312
100
AcDbEntity
  8
D35160190
100
AcDbLine
 10
0.2438392628903045
 20
-0.9675448670514546
 30
0.0
 11
0.2429626532470479
 21
-0.9684773319495503
 31
0.0
1001
REVIT
1002
{
1070
     2
1000
-2001350
1002
}
  0
LINE
  5
346
330
312
100
AcDbEntity
  8
D35160190
100
AcDbLine
 10
0.2429626532470479
 20
-0.9684773319495503
 30
0.0
 11
0.2420494561475763
 21
-0.9693739959392109
 31
0.0
1001
REVIT
1002
{
1070
     2
1000
-2001350
1002
}
  0
LINE
  5
347
330
312
100
AcDbEntity
  8
D35160190
100
AcDbLine
 10
0.2420494561475763
 20
-0.9693739959392109
 30
0.0
 11
0.2411011325124477
 21
-0.9702334245493345
 31
0.0
1001
REVIT
1002
{
1070
     2
1000
-2001350
1002
}
  0
LINE
  5
348
330
312
100
AcDbEntity
  8
D35160190
100
AcDbLine
 10
0.2411011325124477
 20
-0.9702334245493345
 30
0.0
 11
0.2401191994571796
 21
-0.9710542428774678
 31
0.0
1001
REVIT
1002
{
1070
     2
1000
-2001350
1002
}
  0
LINE
  5
349
330
312
100
AcDbEntity
  8
D35160190
100
AcDbLine
 10
0.2401191994571796
 20
-0.9710542428774678
 30
0.0
 11
0.2391052278651884
 21
-0.9718351377893908
 31
0.0
1001
REVIT
1002
{
1070
     2
1000
-2001350
1002
}
  0
LINE
  5
34A
330
312
100
AcDbEntity
  8
D35160190
100
AcDbLine
 10
0.2391052278651884
 20
-0.9718351377893908
 30
0.0
 11
0.238060839874727
 21
-0.9725748600198363
 31
0.0
1001
REVIT
1002
{
1070
     2
1000
-2001350
1002
}
  0
LINE
  5
34B
330
312
100
AcDbEntity
  8
D35160190
100
AcDbLine
 10
0.238060839874727
 20
-0.9725748600198363
 30
0.0
 11
0.2369877062837808
 21
-0.9732722261710192
 31
0.0
1001
REVIT
1002
{
1070
     2
1000
-2001350
1002
}
  0
LINE
  5
34C
330
312
100
AcDbEntity
  8
D35160190
100
AcDbLine
 10
0.2369877062837808
 20
-0.9732722261710192
 30
0.0
 11
0.2358875438771761
 21
-0.973926120605874
 31
0.0
1001
REVIT
1002
{
1070
     2
1000
-2001350
1002
}
  0
LINE
  5
34D
330
312
100
AcDbEntity
  8
D35160190
100
AcDbLine
 10
0.2358875438771761
 20
-0.973926120605874
 30
0.0
 11
0.2347621126800732
 21
-0.9745354972327822
 31
0.0
1001
REVIT
1002
{
1070
     2
1000
-2001350
1002
}
  0
LINE
  5
34E
330
312
100
AcDbEntity
  8
D35160190
100
AcDbLine
 10
0.2347621126800732
 20
-0.9745354972327822
 30
0.0
 11
0.2336132131423092
 21
-0.9750993811791451
 31
0.0
1001
REVIT
1002
{
1070
     2
1000
-2001350
1002
}
  0
LINE
  5
34F
330
312
100
AcDbEntity
  8
D35160190
100
AcDbLine
 10
0.2336132131423092
 20
-0.9750993811791451
 30
0.0
 11
0.2324426832580606
 21
-0.9756168703509258
 31
0.0
1001
REVIT
1002
{
1070
     2
1000
-2001350
1002
}
  0
LINE
  5
350
330
312
100
AcDbEntity
  8
D35160190
100
AcDbLine
 10
0.2324426832580606
 20
-0.9756168703509258
 30
0.0
 11
0.2312523956254395
 21
-0.9760871368758577
 31
0.0
1001
REVIT
1002
{
1070
     2
1000
-2001350
1002
}
  0
LINE
  5
351
330
312
100
AcDbEntity
  8
D35160190
100
AcDbLine
 10
0.2312523956254395
 20
-0.9760871368758577
 30
0.0
 11
0.2300442544507462
 21
-0.9765094284278033
 31
0.0
1001
REVIT
1002
{
1070
     2
1000
-2001350
1002
}
  0
LINE
  5
352
330
312
100
AcDbEntity
  8
D35160190
100
AcDbLine
 10
0.2300442544507462
 20
-0.9765094284278033
 30
0.0
 11
0.2288201925021376
 21
-0.9768830694303678
 31
0.0
1001
REVIT
1002
{
1070
     2
1000
-2001350
1002
}
  0
LINE
  5
353
330
312
100
AcDbEntity
  8
D35160190
100
AcDbLine
 10
0.2288201925021376
 20
-0.9768830694303678
 30
0.0
 11
0.2275821680176087
 21
-0.9772074621376559
 31
0.0
1001
REVIT
1002
{
1070
     2
1000
-2001350
1002
}
  0
LINE
  5
354
330
312
100
AcDbEntity
  8
D35160190
100
AcDbLine
 10
0.2275821680176087
 20
-0.9772074621376559
 30
0.0
 11
0.2263321615722411
 21
-0.9774820875905517
 31
0.0
1001
REVIT
1002
{
1070
     2
1000
-2001350
1002
}
  0
LINE
  5
355
330
312
100
AcDbEntity
  8
D35160190
100
AcDbLine
 10
0.2263321615722411
 20
-0.9774820875905517
 30
0.0
 11
0.2250721729096909
 21
-0.9777065064468819
 31
0.0
1001
REVIT
1002
{
1070
     2
1000
-2001350
1002
}
  0
LINE
  5
356
330
312
100
AcDbEntity
  8
D35160190
100
AcDbLine
 10
0.2250721729096909
 20
-0.9777065064468819
 30
0.0
 11
0.2245456483321391
 21
-0.9777849764032067
 31
0.0
1001
REVIT
1002
{
1070
     2
1000
-2001350
1002
}
  0
LINE
  5
357
330
312
100
AcDbEntity
  8
D35160190
100
AcDbLine
 10
0.2574840466651587
 20
0.8996216465179855
 30
0.0
 11
0.2578078696658679
 21
0.8979780798055934
 31
0.0
1001
REVIT
1002
{
1070
     2
1000
-2001350
1002
}
  0
LINE
  5
358
330
312
100
AcDbEntity
  8
D35160190
100
AcDbLine
 10
0.2578078696658679
 20
0.8979780798055934
 30
0.0
 11
0.2581971587812362
 21
0.8963487772374669
 31
0.0
1001
REVIT
1002
{
1070
     2
1000
-2001350
1002
}
  0
LINE
  5
359
330
312
100
AcDbEntity
  8
D35160190
100
AcDbLine
 10
0.2581971587812362
 20
0.8963487772374669
 30
0.0
 11
0.2586512912317218
 21
0.8947363453501289
 31
0.0
1001
REVIT
1002
{
1070
     2
1000
-2001350
1002
}
  0
LINE
  5
35A
330
312
100
AcDbEntity
  8
D35160190
100
AcDbLine
 10
0.2586512912317218
 20
0.8947363453501289
 30
0.0
 11
0.2591695405022811
 21
0.8931433636906618
 31
0.0
1001
REVIT
1002
{
1070
     2
1000
-2001350
1002
}
  0
LINE
  5
35B
330
312
100
AcDbEntity
  8
D35160190
100
AcDbLine
 10
0.2591695405022811
 20
0.8931433636906618
 30
0.0
 11
0.2597510775046352
 21
0.891572380689876
 31
0.0
1001
REVIT
1002
{
1070
     2
1000
-2001350
1002
}
  0
LINE
  5
35C
330
312
100
AcDbEntity
  8
D35160190
100
AcDbLine
 10
0.2597510775046352
 20
0.891572380689876
 30
0.0
 11
0.2603949719036329
 21
0.8900259095854536
 31
0.0
1001
REVIT
1002
{
1070
     2
1000
-2001350
1002
}
  0
LINE
  5
35D
330
312
100
AcDbEntity
  8
D35160190
100
AcDbLine
 10
0.2603949719036329
 20
0.8900259095854536
 30
0.0
 11
0.2611001936055963
 21
0.8885064244012816
 31
0.0
1001
REVIT
1002
{
1070
     2
1000
-2001350
1002
}
  0
LINE
  5
35E
330
312
100
AcDbEntity
  8
D35160190
100
AcDbLine
 10
0.2611001936055963
 20
0.8885064244012816
 30
0.0
 11
0.2618656144062363
 21
0.8870163559894983
 31
0.0
1001
REVIT
1002
{
1070
     2
1000
-2001350
1002
}
  0
LINE
  5
35F
330
312
100
AcDbEntity
  8
D35160190
100
AcDbLine
 10
0.2618656144062363
 20
0.8870163559894983
 30
0.0
 11
0.2626900097955591
 21
0.8855580881416997
 31
0.0
1001
REVIT
1002
{
1070
     2
1000
-2001350
1002
}
  0
LINE
  5
360
330
312
100
AcDbEntity
  8
D35160190
100
AcDbLine
 10
0.2626900097955591
 20
0.8855580881416997
 30
0.0
 11
0.2635720609168004
 21
0.8841339537753611
 31
0.0
1001
REVIT
1002
{
1070
     2
1000
-2001350
1002
}
  0
LINE
  5
361
330
312
100
AcDbEntity
  8
D35160190
100
AcDbLine
 10
0.2635720609168004
 20
0.8841339537753611
 30
0.0
 11
0.2645103566763289
 21
0.8827462312016756
 31
0.0
1001
REVIT
1002
{
1070
     2
1000
-2001350
1002
}
  0
LINE
  5
362
330
312
100
AcDbEntity
  8
D35160190
100
AcDbLine
 10
0.2645103566763289
 20
0.8827462312016756
 30
0.0
 11
0.2655033960010833
 21
0.8813971404807361
 31
0.0
1001
REVIT
1002
{
1070
     2
1000
-2001350
1002
}
  0
LINE
  5
363
330
312
100
AcDbEntity
  8
D35160190
100
AcDbLine
 10
0.2655033960010833
 20
0.8813971404807361
 30
0.0
 11
0.2665495902399861
 21
0.8800888398698809
 31
0.0
1001
REVIT
1002
{
1070
     2
1000
-2001350
1002
}
  0
LINE
  5
364
330
312
100
AcDbEntity
  8
D35160190
100
AcDbLine
 10
0.2665495902399861
 20
0.8800888398698809
 30
0.0
 11
0.2676472657054276
 21
0.8788234223710205
 31
0.0
1001
REVIT
1002
{
1070
     2
1000
-2001350
1002
}
  0
LINE
  5
365
330
312
100
AcDbEntity
  8
D35160190
100
AcDbLine
 10
0.2676472657054276
 20
0.8788234223710205
 30
0.0
 11
0.2687946663508249
 21
0.8776029123822013
 31
0.0
1001
REVIT
1002
{
1070
     2
1000
-2001350
1002
}
  0
LINE
  5
366
330
312
100
AcDbEntity
  8
D35160190
100
AcDbLine
 10
0.2687946663508249
 20
0.8776029123822013
 30
0.0
 11
0.2699899565799129
 21
0.8764292624590552
 31
0.0
1001
REVIT
1002
{
1070
     2
1000
-2001350
1002
}
  0
LINE
  5
367
330
312
100
AcDbEntity
  8
D35160190
100
AcDbLine
 10
0.2699899565799129
 20
0.8764292624590552
 30
0.0
 11
0.2712312241832997
 21
0.8753043501910795
 31
0.0
1001
REVIT
1002
{
1070
     2
1000
-2001350
1002
}
  0
LINE
  5
368
330
312
100
AcDbEntity
  8
D35160190
100
AcDbLine
 10
0.2712312241832997
 20
0.8753043501910795
 30
0.0
 11
0.272516483397613
 21
0.8742299751979487
 31
0.0
1001
REVIT
1002
{
1070
     2
1000
-2001350
1002
}
  0
LINE
  5
369
330
312
100
AcDbEntity
  8
D35160190
100
AcDbLine
 10
0.272516483397613
 20
0.8742299751979487
 30
0.0
 11
0.2738436780822866
 21
0.8732078562504526
 31
0.0
1001
REVIT
1002
{
1070
     2
1000
-2001350
1002
}
  0
LINE
  5
36A
330
312
100
AcDbEntity
  8
D35160190
100
AcDbLine
 10
0.2738436780822866
 20
0.8732078562504526
 30
0.0
 11
0.2752106850089397
 21
0.8722396285208553
 31
0.0
1001
REVIT
1002
{
1070
     2
1000
-2001350
1002
}
  0
LINE
  5
36B
330
312
100
AcDbEntity
  8
D35160190
100
AcDbLine
 10
0.2752106850089397
 20
0.8722396285208553
 30
0.0
 11
0.2766153172581056
 21
0.8713268409670149
 31
0.0
1001
REVIT
1002
{
1070
     2
1000
-2001350
1002
}
  0
LINE
  5
36C
330
312
100
AcDbEntity
  8
D35160190
100
AcDbLine
 10
0.2766153172581056
 20
0.8713268409670149
 30
0.0
 11
0.2780553277178264
 21
0.8704709538542694
 31
0.0
1001
REVIT
1002
{
1070
     2
1000
-2001350
1002
}
  0
LINE
  5
36D
330
312
100
AcDbEntity
  8
D35160190
100
AcDbLine
 10
0.2780553277178264
 20
0.8704709538542694
 30
0.0
 11
0.2795284126785482
 21
0.869673336419428
 31
0.0
1001
REVIT
1002
{
1070
     2
1000
-2001350
1002
}
  0
LINE
  5
36E
330
312
100
AcDbEntity
  8
D35160190
100
AcDbLine
 10
0.2795284126785482
 20
0.869673336419428
 30
0.0
 11
0.2810322155185751
 21
0.8689352646802461
 31
0.0
1001
REVIT
1002
{
1070
     2
1000
-2001350
1002
}
  0
LINE
  5
36F
330
312
100
AcDbEntity
  8
D35160190
100
AcDbLine
 10
0.2810322155185751
 20
0.8689352646802461
 30
0.0
 11
0.2823650928498793
 21
0.8683418844864227
 31
0.0
1001
REVIT
1002
{
1070
     2
1000
-2001350
1002
}
  0
LINE
  5
370
330
312
100
AcDbEntity
  8
D35160190
100
AcDbLine
 10
0.2823650928498544
 20
-0.8870275029837911
 30
0.0
 11
0.2808364949712541
 21
-0.8877127484868088
 31
0.0
1001
REVIT
1002
{
1070
     2
1000
-2001350
1002
}
  0
LINE
  5
371
330
312
100
AcDbEntity
  8
D35160190
100
AcDbLine
 10
0.2808364949712541
 20
-0.8877127484868088
 30
0.0
 11
0.2793365223193405
 21
-0.8884585734779191
 31
0.0
1001
REVIT
1002
{
1070
     2
1000
-2001350
1002
}
  0
LINE
  5
372
330
312
100
AcDbEntity
  8
D35160190
100
AcDbLine
 10
0.2793365223193405
 20
-0.8884585734779191
 30
0.0
 11
0.2778675745303687
 21
-0.8892637847962346
 31
0.0
1001
REVIT
1002
{
1070
     2
1000
-2001350
1002
}
  0
LINE
  5
373
330
312
100
AcDbEntity
  8
D35160190
100
AcDbLine
 10
0.2778675745303687
 20
-0.8892637847962346
 30
0.0
 11
0.27643200160745
 21
-0.8901270942754029
 31
0.0
1001
REVIT
1002
{
1070
     2
1000
-2001350
1002
}
  0
LINE
  5
374
330
312
100
AcDbEntity
  8
D35160190
100
AcDbLine
 10
0.27643200160745
 20
-0.8901270942754029
 30
0.0
 11
0.2750321001610203
 21
-0.8910471208044439
 31
0.0
1001
REVIT
1002
{
1070
     2
1000
-2001350
1002
}
  0
LINE
  5
375
330
312
100
AcDbEntity
  8
D35160190
100
AcDbLine
 10
0.2750321001610203
 20
-0.8910471208044439
 30
0.0
 11
0.2736701097347627
 21
-0.8920223925371713
 31
0.0
1001
REVIT
1002
{
1070
     2
1000
-2001350
1002
}
  0
LINE
  5
376
330
312
100
AcDbEntity
  8
D35160190
100
AcDbLine
 10
0.2736701097347627
 20
-0.8920223925371713
 30
0.0
 11
0.272348209222816
 21
-0.8930513492468426
 31
0.0
1001
REVIT
1002
{
1070
     2
1000
-2001350
1002
}
  0
LINE
  5
377
330
312
100
AcDbEntity
  8
D35160190
100
AcDbLine
 10
0.272348209222816
 20
-0.8930513492468426
 30
0.0
 11
0.2710685133840087
 21
-0.8941323448222318
 31
0.0
1001
REVIT
1002
{
1070
     2
1000
-2001350
1002
}
  0
LINE
  5
378
330
312
100
AcDbEntity
  8
D35160190
100
AcDbLine
 10
0.2710685133840087
 20
-0.8941323448222318
 30
0.0
 11
0.2698330694587021
 21
-0.8952636499010003
 31
0.0
1001
REVIT
1002
{
1070
     2
1000
-2001350
1002
}
  0
LINE
  5
379
330
312
100
AcDbEntity
  8
D35160190
100
AcDbLine
 10
0.2698330694587021
 20
-0.8952636499010003
 30
0.0
 11
0.2686438538936215
 21
-0.8964434546363902
 31
0.0
1001
REVIT
1002
{
1070
     2
1000
-2001350
1002
}
  0
LINE
  5
37A
330
312
100
AcDbEntity
  8
D35160190
100
AcDbLine
 10
0.2686438538936215
 20
-0.8964434546363902
 30
0.0
 11
0.2675027691799876
 21
-0.8976698715924767
 31
0.0
1001
REVIT
1002
{
1070
     2
1000
-2001350
1002
}
  0
LINE
  5
37B
330
312
100
AcDbEntity
  8
D35160190
100
AcDbLine
 10
0.2675027691799876
 20
-0.8976698715924767
 30
0.0
 11
0.266411640809924
 21
-0.898940938763747
 31
0.0
1001
REVIT
1002
{
1070
     2
1000
-2001350
1002
}
  0
LINE
  5
37C
330
312
100
AcDbEntity
  8
D35160190
100
AcDbLine
 10
0.266411640809924
 20
-0.898940938763747
 30
0.0
 11
0.2653722143560628
 21
-0.9002546227139019
 31
0.0
1001
REVIT
1002
{
1070
     2
1000
-2001350
1002
}
  0
LINE
  5
37D
330
312
100
AcDbEntity
  8
D35160190
100
AcDbLine
 10
0.2653722143560628
 20
-0.9002546227139019
 30
0.0
 11
0.2643861526789983
 21
-0.9016088218288265
 31
0.0
1001
REVIT
1002
{
1070
     2
1000
-2001350
1002
}
  0
LINE
  5
37E
330
312
100
AcDbEntity
  8
D35160190
100
AcDbLine
 10
0.2643861526789983
 20
-0.9016088218288265
 30
0.0
 11
0.2634550332670607
 21
-0.9030013696788399
 31
0.0
1001
REVIT
1002
{
1070
     2
1000
-2001350
1002
}
  0
LINE
  5
37F
330
312
100
AcDbEntity
  8
D35160190
100
AcDbLine
 10
0.2634550332670607
 20
-0.9030013696788399
 30
0.0
 11
0.262580345712685
 21
-0.9044300384844346
 31
0.0
1001
REVIT
1002
{
1070
     2
1000
-2001350
1002
}
  0
LINE
  5
380
330
312
100
AcDbEntity
  8
D35160190
100
AcDbLine
 10
0.262580345712685
 20
-0.9044300384844346
 30
0.0
 11
0.2617634893293683
 21
-0.9058925426802842
 31
0.0
1001
REVIT
1002
{
1070
     2
1000
-2001350
1002
}
  0
LINE
  5
381
330
312
100
AcDbEntity
  8
D35160190
100
AcDbLine
 10
0.2617634893293683
 20
-0.9058925426802842
 30
0.0
 11
0.2610057709130658
 21
-0.9073865425716787
 31
0.0
1001
REVIT
1002
{
1070
     2
1000
-2001350
1002
}
  0
LINE
  5
382
330
312
100
AcDbEntity
  8
D35160190
100
AcDbLine
 10
0.2610057709130658
 20
-0.9073865425716787
 30
0.0
 11
0.26030840265161
 21
-0.9089096480774612
 31
0.0
1001
REVIT
1002
{
1070
     2
1000
-2001350
1002
}
  0
LINE
  5
383
330
312
100
AcDbEntity
  8
D35160190
100
AcDbLine
 10
0.26030840265161
 20
-0.9089096480774612
 30
0.0
 11
0.2596725001854523
 21
-0.9104594225537637
 31
0.0
1001
REVIT
1002
{
1070
     2
1000
-2001350
1002
}
  0
LINE
  5
384
330
312
100
AcDbEntity
  8
D35160190
100
AcDbLine
 10
0.2596725001854523
 20
-0.9104594225537637
 30
0.0
 11
0.2590990808228888
 21
-0.9120333866920089
 31
0.0
1001
REVIT
1002
{
1070
     2
1000
-2001350
1002
}
  0
LINE
  5
385
330
312
100
AcDbEntity
  8
D35160190
100
AcDbLine
 10
0.2590990808228888
 20
-0.9120333866920089
 30
0.0
 11
0.258589061912577
 21
-0.9136290224853594
 31
0.0
1001
REVIT
1002
{
1070
     2
1000
-2001350
1002
}
  0
LINE
  5
386
330
312
100
AcDbEntity
  8
D35160190
100
AcDbLine
 10
0.258589061912577
 20
-0.9136290224853594
 30
0.0
 11
0.2581432593759771
 21
-0.9152437772568971
 31
0.0
1001
REVIT
1002
{
1070
     2
1000
-2001350
1002
}
  0
LINE
  5
387
330
312
100
AcDbEntity
  8
D35160190
100
AcDbLine
 10
0.2581432593759771
 20
-0.9152437772568971
 30
0.0
 11
0.2577623864020424
 21
-0.916875067743472
 31
0.0
1001
REVIT
1002
{
1070
     2
1000
-2001350
1002
}
  0
LINE
  5
388
330
312
100
AcDbEntity
  8
D35160190
100
AcDbLine
 10
0.2577623864020424
 20
-0.916875067743472
 30
0.0
 11
0.2574840466651338
 21
-0.9183072650153432
 31
0.0
1001
REVIT
1002
{
1070
     2
1000
-2001350
1002
}
  0
LINE
  5
389
330
312
100
AcDbEntity
  8
D35160190
100
AcDbLine
 10
0.2823650928498509
 20
-0.8870275029837911
 30
0.0
 11
0.3265758810672459
 21
-0.8682611367807382
 31
0.0
1001
REVIT
1002
{
1070
     2
1000
-2001350
1002
}
  0
LINE
  5
38A
330
312
100
AcDbEntity
  8
D35160190
100
AcDbLine
 10
0.3265758810672672
 20
0.8495755182833695
 30
0.0
 11
0.2823650928498793
 21
0.8683418844864227
 31
0.0
1001
REVIT
1002
{
1070
     2
1000
-2001350
1002
}
  0
LINE
  5
38B
330
312
100
AcDbEntity
  8
D35160190
100
AcDbLine
 10
1.991699408852912
 20
0.2720412227406359
 30
0.0
 11
1.773061486059408
 21
0.2720412227406359
 31
0.0
1001
REVIT
1002
{
1070
     2
1000
-2001350
1002
}
  0
LINE
  5
38C
330
312
100
AcDbEntity
  8
D35160190
100
AcDbLine
 10
0.3265758810672708
 20
0.7422913280433326
 30
0.0
 11
0.471568556912267
 21
0.6715317358811389
 31
0.0
1001
REVIT
1002
{
1070
     2
1000
-2001350
1002
}
  0
LINE
  5
38D
330
312
100
AcDbEntity
  8
D35160190
100
AcDbLine
 10
0.471568556912267
 20
0.6715317358811389
 30
0.0
 11
0.6192748830595463
 21
0.6066269044143587
 31
0.0
1001
REVIT
1002
{
1070
     2
1000
-2001350
1002
}
  0
LINE
  5
38E
330
312
100
AcDbEntity
  8
D35160190
100
AcDbLine
 10
0.6192748830595463
 20
0.6066269044143587
 30
0.0
 11
0.7694585608962612
 21
0.5476806675277251
 31
0.0
1001
REVIT
1002
{
1070
     2
1000
-2001350
1002
}
  0
LINE
  5
38F
330
312
100
AcDbEntity
  8
D35160190
100
AcDbLine
 10
0.7694585608962612
 20
0.5476806675277251
 30
0.0
 11
0.9218793285753505
 21
0.4947873266257257
 31
0.0
1001
REVIT
1002
{
1070
     2
1000
-2001350
1002
}
  0
LINE
  5
390
330
312
100
AcDbEntity
  8
D35160190
100
AcDbLine
 10
0.9218793285753505
 20
0.4947873266257257
 30
0.0
 11
1.07629334538322
 21
0.4480314997704971
 31
0.0
1001
REVIT
1002
{
1070
     2
1000
-2001350
1002
}
  0
LINE
  5
391
330
312
100
AcDbEntity
  8
D35160190
100
AcDbLine
 10
1.07629334538322
 20
0.4480314997704971
 30
0.0
 11
1.232453581832881
 21
0.4074879863109614
 31
0.0
1001
REVIT
1002
{
1070
     2
1000
-2001350
1002
}
  0
LINE
  5
392
330
312
100
AcDbEntity
  8
D35160190
100
AcDbLine
 10
1.232453581832881
 20
0.4074879863109614
 30
0.0
 11
1.39011021485842
 21
0.3732216472198285
 31
0.0
1001
REVIT
1002
{
1070
     2
1000
-2001350
1002
}
  0
LINE
  5
393
330
312
100
AcDbEntity
  8
D35160190
100
AcDbLine
 10
1.39011021485842
 20
0.3732216472198285
 30
0.0
 11
1.549011027478616
 21
0.3452873013298895
 31
0.0
1001
REVIT
1002
{
1070
     2
1000
-2001350
1002
}
  0
LINE
  5
394
330
312
100
AcDbEntity
  8
D35160190
100
AcDbLine
 10
1.549011027478616
 20
0.3452873013298895
 30
0.0
 11
1.70890181229031
 21
0.3237296376355476
 31
0.0
1001
REVIT
1002
{
1070
     2
1000
-2001350
1002
}
  0
LINE
  5
395
330
312
100
AcDbEntity
  8
D35160190
100
AcDbLine
 10
1.70890181229031
 20
0.3237296376355476
 30
0.0
 11
1.773061486059408
 21
0.3169017428572292
 31
0.0
1001
REVIT
1002
{
1070
     2
1000
-2001350
1002
}
  0
LINE
  5
396
330
312
100
AcDbEntity
  8
D35160190
100
AcDbLine
 10
1.773061486059408
 20
-0.2907268412389537
 30
0.0
 11
1.99169940885428
 21
-0.2907268412389538
 31
0.0
1001
REVIT
1002
{
1070
     2
1000
-2001350
1002
}
  0
LINE
  5
397
330
312
100
AcDbEntity
  8
D35160190
100
AcDbLine
 10
1.773061486059408
 20
-0.3355873613555363
 30
0.0
 11
1.612846337385953
 21
-0.3545847840017731
 31
0.0
1001
REVIT
1002
{
1070
     2
1000
-2001350
1002
}
  0
LINE
  5
398
330
312
100
AcDbEntity
  8
D35160190
100
AcDbLine
 10
1.612846337385953
 20
-0.3545847840017731
 30
0.0
 11
1.453519038025614
 21
-0.3799739078582365
 31
0.0
1001
REVIT
1002
{
1070
     2
1000
-2001350
1002
}
  0
LINE
  5
399
330
312
100
AcDbEntity
  8
D35160190
100
AcDbLine
 10
1.453519038025614
 20
-0.3799739078582365
 30
0.0
 11
1.29533447766936
 21
-0.4117141157428181
 31
0.0
1001
REVIT
1002
{
1070
     2
1000
-2001350
1002
}
  0
LINE
  5
39A
330
312
100
AcDbEntity
  8
D35160190
100
AcDbLine
 10
1.29533447766936
 20
-0.4117141157428181
 30
0.0
 11
1.138545717869522
 21
-0.4497546300937787
 31
0.0
1001
REVIT
1002
{
1070
     2
1000
-2001350
1002
}
  0
LINE
  5
39B
330
312
100
AcDbEntity
  8
D35160190
100
AcDbLine
 10
1.138545717869522
 20
-0.4497546300937787
 30
0.0
 11
0.9834035871952906
 21
-0.4940345942030505
 31
0.0
1001
REVIT
1002
{
1070
     2
1000
-2001350
1002
}
  0
LINE
  5
39C
330
312
100
AcDbEntity
  8
D35160190
100
AcDbLine
 10
0.9834035871952906
 20
-0.4940345942030505
 30
0.0
 11
0.8301562799605299
 21
-0.5444831695739332
 31
0.0
1001
REVIT
1002
{
1070
     2
1000
-2001350
1002
}
  0
LINE
  5
39D
330
312
100
AcDbEntity
  8
D35160190
100
AcDbLine
 10
0.8301562799605299
 20
-0.5444831695739332
 30
0.0
 11
0.6790489591657903
 21
-0.6010196492476254
 31
0.0
1001
REVIT
1002
{
1070
     2
1000
-2001350
1002
}
  0
LINE
  5
39E
330
312
100
AcDbEntity
  8
D35160190
100
AcDbLine
 10
0.6790489591657903
 20
-0.6010196492476254
 30
0.0
 11
0.530323364289842
 21
-0.6635535869171286
 31
0.0
1001
REVIT
1002
{
1070
     2
1000
-2001350
1002
}
  0
LINE
  5
39F
330
312
100
AcDbEntity
  8
D35160190
100
AcDbLine
 10
0.530323364289842
 20
-0.6635535869171286
 30
0.0
 11
0.3842174245580487
 21
-0.7319849416220201
 31
0.0
1001
REVIT
1002
{
1070
     2
1000
-2001350
1002
}
  0
LINE
  5
3A0
330
312
100
AcDbEntity
  8
D35160190
100
AcDbLine
 10
0.3842174245580487
 20
-0.7319849416220201
 30
0.0
 11
0.3265758810672565
 21
-0.7609769465416499
 31
0.0
1001
REVIT
1002
{
1070
     2
1000
-2001350
1002
}
  0
LINE
  5
3A1
330
312
100
AcDbEntity
  8
D35160190
100
AcDbLine
 10
2.009250908328183
 20
-6.983558226315611
 30
0.0
 11
2.25
 21
-7.122554779199492
 31
0.0
1001
REVIT
1002
{
1070
     2
1000
-2001350
1002
}
  0
LINE
  5
3A2
330
312
100
AcDbEntity
  8
D35160190
100
AcDbLine
 10
2.25
 20
-7.122554779199492
 30
0.0
 11
2.490749091671808
 21
-6.983558226315611
 31
0.0
1001
REVIT
1002
{
1070
     2
1000
-2001350
1002
}
  0
LINE
  5
3A3
330
312
100
AcDbEntity
  8
D35160190
100
AcDbLine
 10
0.2516039228222731
 20
-0.9516551044624376
 30
0.0
 11
0.2516039228223015
 21
0.9329694859650796
 31
0.0
1001
REVIT
1002
{
1070
     2
1000
-2001350
1002
}
  0
LINE
  5
3A4
330
312
100
AcDbEntity
  8
D35160190
100
AcDbLine
 10
0.3265758810672459
 20
-0.8682611367807336
 30
0.0
 11
0.3265758810672672
 21
0.8495755182833732
 31
0.0
1001
REVIT
1002
{
1070
     2
1000
-2001350
1002
}
  0
SPLINE
  5
3A5
330
312
100
AcDbEntity
  8
D35160190
100
AcDbSpline
210
0.0
220
0.0
230
1.0
 70
     8
 71
     3
 72
    10
 73
     6
 74
     0
 42
0.000000001
 43
0.0000000001
 40
0.0
 40
0.0
 40
0.0
 40
0.0
 40
0.3333333333333333
 40
0.6666666666666666
 40
1.0
 40
1.0
 40
1.0
 40
1.0
 10
0.3265758810672708
 20
0.6958400605498208
 30
0.0
 10
0.4764721756010815
 20
0.6264649814936614
 30
0.0
 10
0.7859369388323039
 20
0.503039327385098
 30
0.0
 10
1.26938838670884
 20
0.3716382558670148
 30
0.0
 10
1.604194524965006
 20
0.3203561983564718
 30
0.0
 10
1.773061486059408
 20
0.3049361123071772
 30
0.0
1001
REVIT
1002
{
1070
     2
1000
-2001350
1002
}
  0
LINE
  5
3A6
330
312
100
AcDbEntity
  8
D35160190
100
AcDbLine
 10
1.773061486059408
 20
-0.3355873613555373
 30
0.0
 11
1.773061486059408
 21
0.3169017428129686
 31
0.0
1001
REVIT
1002
{
1070
     2
1000
-2001350
1002
}
  0
SPLINE
  5
3A7
330
312
100
AcDbEntity
  8
D35160190
100
AcDbSpline
210
0.0
220
0.0
230
1.0
 70
     8
 71
     3
 72
    10
 73
     6
 74
     0
 42
0.000000001
 43
0.0000000001
 40
-1.0
 40
-1.0
 40
-1.0
 40
-1.0
 40
-0.6666666666666666
 40
-0.3333333333333333
 40
0.0
 40
0.0
 40
0.0
 40
0.0
 10
1.773061486059408
 20
-0.3236246352930307
 30
0.0
 10
1.604383195378037
 20
-0.3400115770742214
 30
0.0
 10
1.269778003977382
 20
-0.3895757874902195
 30
0.0
 10
0.7841613829135597
 20
-0.5229335239067944
 30
0.0
 10
0.4757484604773126
 20
-0.6443761077059992
 30
0.0
 10
0.3265758810672494
 20
-0.7145261931581595
 30
0.0
1001
REVIT
1002
{
1070
     2
1000
-2001350
1002
}
  0
LINE
  5
3A8
330
312
100
AcDbEntity
  8
D35160190
100
AcDbLine
 10
1.877163984504417
 20
-0.0093211844521891
 30
0.0
 11
1.773061486059408
 21
-0.0093211844521891
 31
0.0
1001
REVIT
1002
{
1070
     2
1000
-2001350
1002
}
  0
SPLINE
  5
3A9
330
312
100
AcDbEntity
  8
D35160190
100
AcDbSpline
210
0.0
220
0.0
230
1.0
 70
     8
 71
     3
 72
    10
 73
     6
 74
     0
 42
0.000000001
 43
0.0000000001
 40
-1.0
 40
-1.0
 40
-1.0
 40
-1.0
 40
-0.6666666666666666
 40
-0.3333333333333333
 40
0.0
 40
0.0
 40
0.0
 40
0.0
 10
1.773061486059408
 20
-0.0093223645933607
 30
0.0
 10
1.604194518504606
 20
-0.0103167731397882
 30
0.0
 10
1.269388373696365
 20
-0.0087127357326534
 30
0.0
 10
0.7859370157361063
 20
-0.0099800379932038
 30
0.0
 10
0.4764722069432637
 20
-0.0082274277032978
 30
0.0
 10
0.3265758810672636
 20
-0.009340626383854
 30
0.0
1001
REVIT
1002
{
1070
     2
1000
-2001350
1002
}
  0
LINE
  5
3AA
330
312
100
AcDbEntity
  8
D35160190
100
AcDbLine
 10
2.009250908328183
 20
0.1336870510336003
 30
0.0
 11
2.009250908328183
 21
-6.977517366434085
 31
0.0
1001
REVIT
1002
{
1070
     2
1000
-2001350
1002
}
  0
LINE
  5
3AB
330
312
100
AcDbEntity
  8
D35160190
100
AcDbLine
 10
2.249999999999996
 20
-7.116278759149643
 30
0.0
 11
2.25
 21
0.273585547108242
 31
0.0
1001
REVIT
1002
{
1070
     2
1000
-2001350
1002
}
  0
LINE
  5
3AC
330
312
100
AcDbEntity
  8
D35160190
100
AcDbLine
 10
2.25
 20
0.2735855471082447
 30
0.0
 11
2.129621677403136
 21
0.2036427983082112
 31
0.0
1001
REVIT
1002
{
1070
     2
1000
-2001350
1002
}
  0
LINE
  5
3AD
330
312
100
AcDbEntity
  8
D35160190
100
AcDbLine
 10
2.129621677403136
 20
0.2036427983082112
 30
0.0
 11
2.009250908328183
 21
0.133687051033601
 31
0.0
1001
REVIT
1002
{
1070
     2
1000
-2001350
1002
}
  0
LINE
  5
3AE
330
312
100
AcDbEntity
  8
D35160190
100
AcDbLine
 10
2.490749091671808
 20
0.1336870510335977
 30
0.0
 11
2.370378322596856
 21
0.2036427983082092
 31
0.0
1001
REVIT
1002
{
1070
     2
1000
-2001350
1002
}
  0
LINE
  5
3AF
330
312
100
AcDbEntity
  8
D35160190
100
AcDbLine
 10
2.370378322596856
 20
0.2036427983082092
 30
0.0
 11
2.25
 21
0.2735855471082447
 31
0.0
1001
REVIT
1002
{
1070
     2
1000
-2001350
1002
}
  0
LINE
  5
3B0
330
312
100
AcDbEntity
  8
D35160190
100
AcDbLine
 10
2.490749091671808
 20
-6.977517366434081
 30
0.0
 11
2.490749091671808
 21
0.1336870510335957
 31
0.0
1001
REVIT
1002
{
1070
     2
1000
-2001350
1002
}
  0
LINE
  5
3B1
330
312
100
AcDbEntity
  8
D35160190
100
AcDbLine
 10
2.622836015495582
 20
-0.2245997831588066
 30
0.0
 11
2.622836015495579
 21
0.2059141646611145
 31
0.0
1001
REVIT
1002
{
1070
     2
1000
-2001350
1002
}
  0
LINE
  5
3B2
330
312
100
AcDbEntity
  8
D35160190
100
AcDbLine
 10
2.622836015495579
 20
0.2059141646611147
 30
0.0
 11
2.249999999999996
 21
0.4211711385710747
 31
0.0
1001
REVIT
1002
{
1070
     2
1000
-2001350
1002
}
  0
LINE
  5
3B3
330
312
100
AcDbEntity
  8
D35160190
100
AcDbLine
 10
2.249999999999996
 20
0.4211711385710747
 30
0.0
 11
1.877163984504417
 21
0.2059141646611096
 31
0.0
1001
REVIT
1002
{
1070
     2
1000
-2001350
1002
}
  0
LINE
  5
3B4
330
312
100
AcDbEntity
  8
D35160190
100
AcDbLine
 10
1.877163984504417
 20
0.2059141646611096
 30
0.0
 11
1.87716398450442
 21
-0.224599783158812
 31
0.0
1001
REVIT
1002
{
1070
     2
1000
-2001350
1002
}
  0
LINE
  5
3B5
330
312
100
AcDbEntity
  8
D35160190
100
AcDbLine
 10
1.87716398450442
 20
-0.224599783158812
 30
0.0
 11
2.009250908328183
 21
-0.3008602041848904
 31
0.0
1001
REVIT
1002
{
1070
     2
1000
-2001350
1002
}
  0
LINE
  5
3B6
330
312
100
AcDbEntity
  8
D35160190
100
AcDbLine
 10
2.490749091671808
 20
-0.3008602041848919
 30
0.0
 11
2.622836015495582
 21
-0.2245997831588066
 31
0.0
1001
REVIT
1002
{
1070
     2
1000
-2001350
1002
}
  0
LINE
  5
3B7
330
312
100
AcDbEntity
  8
D35160190
100
AcDbLine
 10
0.0
 20
0.9906571907512429
 30
0.0
 11
0.0
 21
-0.9906571907512429
 31
0.0
  0
ENDBLK
  5
314
330
312
100
AcDbEntity
  8
0
100
AcDbBlockEnd
  0
ENDSEC
  0
SECTION
  2
ENTITIES
  0
INSERT
  5
2F1
330
70
100
AcDbEntity
  8
D35160190
100
AcDbBlockReference
  2
D35160190 Top View
 10
0.000000000001233
 20
21.13042732805957
 30
0.0
  0
INSERT
  5
311
330
70
100
AcDbEntity
  8
D35160190
100
AcDbBlockReference
  2
D35160190 Front View
 10
0.0000000000012364
 20
-0.0000000000016638
 30
0.0
  0
INSERT
  5
3B8
330
70
100
AcDbEntity
  8
D35160190
100
AcDbBlockReference
  2
D35160190 Left View
 10
-25.75373474275072
 20
0.0093428044061535
 30
0.0
  0
ENDSEC
  0
SECTION
  2
OBJECTS
  0
DICTIONARY
  5
C
330
0
100
AcDbDictionary
281
     1
  3
ACAD_CIP_PREVIOUS_PRODUCT_INFO
350
79
  3
ACAD_COLOR
350
63
  3
ACAD_DETAILVIEWSTYLE
350
6A
  3
ACAD_GROUP
350
D
  3
ACAD_IMAGE_VARS
350
7A
  3
ACAD_LAYOUT
350
62
  3
ACAD_MATERIAL
350
10
  3
ACAD_MLEADERSTYLE
350
66
  3
ACAD_MLINESTYLE
350
5F
  3
ACAD_PLOTSETTINGS
350
61
  3
ACAD_PLOTSTYLENAME
350
E
  3
ACAD_SCALELIST
350
42
  3
ACAD_SECTIONVIEWSTYLE
350
68
  3
ACAD_TABLESTYLE
350
64
  3
ACAD_VISUALSTYLE
350
29
  3
ACDB_RECOMPOSE_DATA
350
3D3
  3
AcDbVariableDictionary
350
CD
  3
REVIT_DICTIONARY
350
C2
  0
DICTIONARY
  5
3BC
330
2
100
AcDbDictionary
280
     1
281
     1
  3
ACAD_LAYERSTATES
360
3BD
  0
DICTIONARY
  5
C6
330
70
100
AcDbDictionary
280
     1
281
     1
  3
ACAD_SORTENTS
360
C7
  0
XRECORD
  5
79
102
{ACAD_REACTORS
330
C
102
}
330
C
100
AcDbXrecord
280
     1
300
ACD
300
2016
300
86445ACD_2016_0F
  0
DICTIONARY
  5
63
102
{ACAD_REACTORS
330
C
102
}
330
C
100
AcDbDictionary
281
     1
  0
DICTIONARY
  5
6A
102
{ACAD_REACTORS
330
C
102
}
330
C
100
AcDbDictionary
281
     1
  3
Imperial24
350
6B
  0
DICTIONARY
  5
D
102
{ACAD_REACTORS
330
C
102
}
330
C
100
AcDbDictionary
281
     1
  0
RASTERVARIABLES
  5
7A
102
{ACAD_REACTORS
330
C
102
}
330
C
100
AcDbRasterVariables
 90
        0
 70
     0
 71
     1
 72
     5
  0
DICTIONARY
  5
62
102
{ACAD_REACTORS
330
C
102
}
330
C
100
AcDbDictionary
281
     1
  3
Layout1
350
6F
  3
Layout2
350
77
  3
Model
350
73
  0
DICTIONARY
  5
10
102
{ACAD_REACTORS
330
C
102
}
330
C
100
AcDbDictionary
281
     1
  3
ByBlock
350
19
  3
ByLayer
350
11
  3
Global
350
21
  0
DICTIONARY
  5
66
102
{ACAD_REACTORS
330
C
102
}
330
C
100
AcDbDictionary
281
     1
  3
Standard
350
67
  0
DICTIONARY
  5
5F
102
{ACAD_REACTORS
330
C
102
}
330
C
100
AcDbDictionary
281
     1
  3
Standard
350
60
  0
DICTIONARY
  5
61
102
{ACAD_REACTORS
330
C
102
}
330
C
100
AcDbDictionary
281
     1
  0
ACDBDICTIONARYWDFLT
  5
E
102
{ACAD_REACTORS
330
C
102
}
330
C
100
AcDbDictionary
281
     1
  3
Normal
350
F
100
AcDbDictionaryWithDefault
340
F
  0
DICTIONARY
  5
42
102
{ACAD_REACTORS
330
C
102
}
330
C
100
AcDbDictionary
281
     1
  3
A0
350
43
  3
A1
350
44
  3
A2
350
45
  3
A3
350
46
  3
A4
350
47
  3
A5
350
48
  3
A6
350
49
  3
A7
350
4A
  3
A8
350
4B
  3
A9
350
4C
  3
B0
350
4D
  3
B1
350
4E
  3
B2
350
4F
  3
B3
350
50
  3
B4
350
51
  3
B5
350
52
  3
B6
350
53
  0
DICTIONARY
  5
68
102
{ACAD_REACTORS
330
C
102
}
330
C
100
AcDbDictionary
281
     1
  3
Imperial24
350
69
  0
DICTIONARY
  5
64
102
{ACAD_REACTORS
330
C
102
}
330
C
100
AcDbDictionary
281
     1
  3
Standard
350
65
  0
DICTIONARY
  5
29
102
{ACAD_REACTORS
330
C
102
}
330
C
100
AcDbDictionary
281
     1
  3
2dWireframe
350
2F
  3
Basic
350
2E
  3
Brighten
350
35
  3
ColorChange
350
39
  3
Conceptual
350
32
  3
Dim
350
34
  3
EdgeColorOff
350
41
  3
Facepattern
350
38
  3
Flat
350
2A
  3
FlatWithEdges
350
2B
  3
Gouraud
350
2C
  3
GouraudWithEdges
350
2D
  3
Hidden
350
31
  3
JitterOff
350
3F
  3
Linepattern
350
37
  3
OverhangOff
350
40
  3
Realistic
350
33
  3
Shaded
350
3E
  3
Shaded with edges
350
3D
  3
Shades of Gray
350
3A
  3
Sketchy
350
3B
  3
Thicken
350
36
  3
Wireframe
350
30
  3
X-Ray
350
3C
  0
XRECORD
  5
3D3
102
{ACAD_REACTORS
330
C
102
}
330
C
100
AcDbXrecord
280
     1
 90
        1
330
65
330
69
330
6B
  0
DICTIONARY
  5
CD
102
{ACAD_REACTORS
330
C
102
}
330
C
100
AcDbDictionary
281
     1
  3
CANNOSCALE
350
D2
  3
CMLEADERSTYLE
350
CF
  3
CTABLESTYLE
350
CE
  3
CVIEWDETAILSTYLE
350
D0
  3
CVIEWSECTIONSTYLE
350
D1
  0
DICTIONARY
  5
C2
102
{ACAD_REACTORS
330
C
102
}
330
C
100
AcDbDictionary
281
     1
  3
DRAWING_TOOL
350
C5
  3
REVIT_CATEGORY_MAPPING
350
C3
  3
REVIT_SUB_CATEGORY_MAPPING
350
C4
  0
DICTIONARY
  5
3BD
102
{ACAD_REACTORS
330
3BC
102
}
330
3BC
100
AcDbDictionary
281
     1
  0
SORTENTSTABLE
  5
C7
102
{ACAD_REACTORS
330
C6
102
}
330
C6
100
AcDbSortentsTable
330
70
  0
ACDBDETAILVIEWSTYLE
  5
6B
102
{ACAD_XDICTIONARY
360
CA
102
}
102
{ACAD_REACTORS
330
6A
102
}
330
6A
100
AcDbModelDocViewStyle
 70
     0
  3
Imperial24
290
     0
100
AcDbDetailViewStyle
 70
     0
 71
     0
 90
        3
 71
     1
340
55
 62
   256
 40
0.24
340
0
 62
   256
 40
0.24
300

 40
0.36
280
     3
 71
     2
340
5D
 90
       25
 62
   256
 71
     3
340
55
 62
   256
 40
0.24
 90
        1
 40
0.75
 90
        1
300
%<\AcVar ViewType \f "%tc1">% %<\AcVar ViewDetailId>%\PSCALE %<\AcVar ViewScale \f "%sn">%
 71
     4
340
5D
 90
       25
 62
   256
340
5D
 90
       25
 62
   256
280
     0
  0
LAYOUT
  5
6F
102
{ACAD_REACTORS
330
62
102
}
330
62
100
AcDbPlotSettings
  1

  2

  4

  6

 40
0.0
 41
0.0
 42
0.0
 43
0.0
 44
0.0
 45
0.0
 46
0.0
 47
0.0
 48
0.0
 49
0.0
140
0.0
141
0.0
142
1.0
143
1.0
 70
   688
 72
     0
 73
     0
 74
     5
  7

 75
    16
147
1.0
 76
     0
 77
     2
 78
   300
148
0.0
149
0.0
100
AcDbLayout
  1
Layout1
 70
     1
 71
     1
 10
0.0
 20
0.0
 11
12.0
 21
9.0
 12
0.0
 22
0.0
 32
0.0
 14
1.000000000000000E+20
 24
1.000000000000000E+20
 34
1.000000000000000E+20
 15
-1.000000000000000E+20
 25
-1.000000000000000E+20
 35
-1.000000000000000E+20
146
0.0
 13
0.0
 23
0.0
 33
0.0
 16
1.0
 26
0.0
 36
0.0
 17
0.0
 27
1.0
 37
0.0
 76
     0
330
6C
  0
LAYOUT
  5
77
102
{ACAD_REACTORS
330
62
102
}
330
62
100
AcDbPlotSettings
  1

  2

  4

  6

 40
0.0
 41
0.0
 42
0.0
 43
0.0
 44
0.0
 45
0.0
 46
0.0
 47
0.0
 48
0.0
 49
0.0
140
0.0
141
0.0
142
1.0
143
1.0
 70
   688
 72
     0
 73
     0
 74
     5
  7

 75
    16
147
1.0
 76
     0
 77
     2
 78
   300
148
0.0
149
0.0
100
AcDbLayout
  1
Layout2
 70
     1
 71
     2
 10
0.0
 20
0.0
 11
12.0
 21
9.0
 12
0.0
 22
0.0
 32
0.0
 14
0.0
 24
0.0
 34
0.0
 15
0.0
 25
0.0
 35
0.0
146
0.0
 13
0.0
 23
0.0
 33
0.0
 16
1.0
 26
0.0
 36
0.0
 17
0.0
 27
1.0
 37
0.0
 76
     0
330
74
  0
LAYOUT
  5
73
102
{ACAD_REACTORS
330
62
102
}
330
62
100
AcDbPlotSettings
  1

  2

  4

  6

 40
0.0
 41
0.0
 42
0.0
 43
0.0
 44
0.0
 45
0.0
 46
0.0
 47
0.0
 48
0.0
 49
0.0
140
0.0
141
0.0
142
1.0
143
1.0
 70
  1712
 72
     0
 73
     0
 74
     0
  7

 75
     0
147
1.0
 76
     0
 77
     2
 78
   300
148
0.0
149
0.0
100
AcDbLayout
  1
Model
 70
     1
 71
     0
 10
0.0
 20
0.0
 11
12.0
 21
9.0
 12
0.0
 22
0.0
 32
0.0
 14
0.0
 24
0.0
 34
0.0
 15
0.0
 25
0.0
 35
0.0
146
0.0
 13
0.0
 23
0.0
 33
0.0
 16
1.0
 26
0.0
 36
0.0
 17
0.0
 27
1.0
 37
0.0
 76
     0
330
70
331
57
  0
MATERIAL
  5
19
102
{ACAD_XDICTIONARY
360
1A
102
}
102
{ACAD_REACTORS
330
10
102
}
330
10
100
AcDbMaterial
  1
ByBlock
 72
     0
 43
0.0208333333333333
 43
0.0
 43
0.0
 43
0.0
 43
0.0
 43
0.0208333333333333
 43
0.0
 43
0.0
 43
0.0
 43
0.0
 43
1.0
 43
0.0
 43
0.0
 43
0.0
 43
0.0
 43
1.0
 77
     0
 47
0.0208333333333333
 47
0.0
 47
0.0
 47
0.0
 47
0.0
 47
0.0208333333333333
 47
0.0
 47
0.0
 47
0.0
 47
0.0
 47
1.0
 47
0.0
 47
0.0
 47
0.0
 47
0.0
 47
1.0
171
     0
 49
0.0208333333333333
 49
0.0
 49
0.0
 49
0.0
 49
0.0
 49
0.0208333333333333
 49
0.0
 49
0.0
 49
0.0
 49
0.0
 49
1.0
 49
0.0
 49
0.0
 49
0.0
 49
0.0
 49
1.0
175
     0
142
0.0208333333333333
142
0.0
142
0.0
142
0.0
142
0.0
142
0.0208333333333333
142
0.0
142
0.0
142
0.0
142
0.0
142
1.0
142
0.0
142
0.0
142
0.0
142
0.0
142
1.0
179
     0
144
0.0208333333333333
144
0.0
144
0.0
144
0.0
144
0.0
144
0.0208333333333333
144
0.0
144
0.0
144
0.0
144
0.0
144
1.0
144
0.0
144
0.0
144
0.0
144
0.0
144
1.0
147
0.0208333333333333
147
0.0
147
0.0
147
0.0
147
0.0
147
0.0208333333333333
147
0.0
147
0.0
147
0.0
147
0.0
147
1.0
147
0.0
147
0.0
147
0.0
147
0.0
147
1.0
  0
MATERIAL
  5
11
102
{ACAD_XDICTIONARY
360
12
102
}
102
{ACAD_REACTORS
330
10
102
}
330
10
100
AcDbMaterial
  1
ByLayer
 72
     0
 43
0.0208333333333333
 43
0.0
 43
0.0
 43
0.0
 43
0.0
 43
0.0208333333333333
 43
0.0
 43
0.0
 43
0.0
 43
0.0
 43
1.0
 43
0.0
 43
0.0
 43
0.0
 43
0.0
 43
1.0
 77
     0
 47
0.0208333333333333
 47
0.0
 47
0.0
 47
0.0
 47
0.0
 47
0.0208333333333333
 47
0.0
 47
0.0
 47
0.0
 47
0.0
 47
1.0
 47
0.0
 47
0.0
 47
0.0
 47
0.0
 47
1.0
171
     0
 49
0.0208333333333333
 49
0.0
 49
0.0
 49
0.0
 49
0.0
 49
0.0208333333333333
 49
0.0
 49
0.0
 49
0.0
 49
0.0
 49
1.0
 49
0.0
 49
0.0
 49
0.0
 49
0.0
 49
1.0
175
     0
142
0.0208333333333333
142
0.0
142
0.0
142
0.0
142
0.0
142
0.0208333333333333
142
0.0
142
0.0
142
0.0
142
0.0
142
1.0
142
0.0
142
0.0
142
0.0
142
0.0
142
1.0
179
     0
144
0.0208333333333333
144
0.0
144
0.0
144
0.0
144
0.0
144
0.0208333333333333
144
0.0
144
0.0
144
0.0
144
0.0
144
1.0
144
0.0
144
0.0
144
0.0
144
0.0
144
1.0
147
0.0208333333333333
147
0.0
147
0.0
147
0.0
147
0.0
147
0.0208333333333333
147
0.0
147
0.0
147
0.0
147
0.0
147
1.0
147
0.0
147
0.0
147
0.0
147
0.0
147
1.0
  0
MATERIAL
  5
21
102
{ACAD_XDICTIONARY
360
22
102
}
102
{ACAD_REACTORS
330
10
102
}
330
10
100
AcDbMaterial
  1
Global
 72
     0
 43
0.0208333333333333
 43
0.0
 43
0.0
 43
0.0
 43
0.0
 43
0.0208333333333333
 43
0.0
 43
0.0
 43
0.0
 43
0.0
 43
1.0
 43
0.0
 43
0.0
 43
0.0
 43
0.0
 43
1.0
 77
     0
 47
0.0208333333333333
 47
0.0
 47
0.0
 47
0.0
 47
0.0
 47
0.0208333333333333
 47
0.0
 47
0.0
 47
0.0
 47
0.0
 47
1.0
 47
0.0
 47
0.0
 47
0.0
 47
0.0
 47
1.0
171
     0
 49
0.0208333333333333
 49
0.0
 49
0.0
 49
0.0
 49
0.0
 49
0.0208333333333333
 49
0.0
 49
0.0
 49
0.0
 49
0.0
 49
1.0
 49
0.0
 49
0.0
 49
0.0
 49
0.0
 49
1.0
175
     0
142
0.0208333333333333
142
0.0
142
0.0
142
0.0
142
0.0
142
0.0208333333333333
142
0.0
142
0.0
142
0.0
142
0.0
142
1.0
142
0.0
142
0.0
142
0.0
142
0.0
142
1.0
179
     0
144
0.0208333333333333
144
0.0
144
0.0
144
0.0
144
0.0
144
0.0208333333333333
144
0.0
144
0.0
144
0.0
144
0.0
144
1.0
144
0.0
144
0.0
144
0.0
144
0.0
144
1.0
147
0.0208333333333333
147
0.0
147
0.0
147
0.0
147
0.0
147
0.0208333333333333
147
0.0
147
0.0
147
0.0
147
0.0
147
1.0
147
0.0
147
0.0
147
0.0
147
0.0
147
1.0
  0
MLEADERSTYLE
  5
67
102
{ACAD_REACTORS
330
66
102
}
330
66
100
AcDbMLeaderStyle
179
     2
170
     2
171
     1
172
     0
 90
        2
 40
0.0
 41
0.0
173
     1
 91
-1056964608
340
5B
 92
       -2
290
     1
 42
0.09
291
     1
 43
0.36
  3
Standard
 44
0.18
300

342
55
174
     1
178
     6
175
     1
176
     0
 93
-1056964608
 45
0.18
292
     0
297
     0
 46
0.18
 94
-1056964608
 47
1.0
 49
1.0
140
1.0
293
     1
141
0.0
294
     1
177
     0
142
1.0
295
     1
296
     0
143
0.125
271
     0
272
     9
273
     9
298
     1
  0
MLINESTYLE
  5
60
102
{ACAD_REACTORS
330
5F
102
}
330
5F
100
AcDbMlineStyle
  2
STANDARD
 70
     0
  3

 62
   256
 51
90.0
 52
90.0
 71
     2
 49
0.5
 62
   256
  6
BYLAYER
 49
-0.5
 62
   256
  6
BYLAYER
  0
ACDBPLACEHOLDER
  5
F
102
{ACAD_REACTORS
330
E
102
}
330
E
  0
SCALE
  5
43
102
{ACAD_REACTORS
330
42
102
}
330
42
100
AcDbScale
 70
     0
300
1:1
140
1.0
141
1.0
290
     1
  0
SCALE
  5
44
102
{ACAD_REACTORS
330
42
102
}
330
42
100
AcDbScale
 70
     0
300
1/128" = 1'-0"
140
0.0078125
141
12.0
290
     0
  0
SCALE
  5
45
102
{ACAD_REACTORS
330
42
102
}
330
42
100
AcDbScale
 70
     0
300
1/64" = 1'-0"
140
0.015625
141
12.0
290
     0
  0
SCALE
  5
46
102
{ACAD_REACTORS
330
42
102
}
330
42
100
AcDbScale
 70
     0
300
1/32" = 1'-0"
140
0.03125
141
12.0
290
     0
  0
SCALE
  5
47
102
{ACAD_REACTORS
330
42
102
}
330
42
100
AcDbScale
 70
     0
300
1/16" = 1'-0"
140
0.0625
141
12.0
290
     0
  0
SCALE
  5
48
102
{ACAD_REACTORS
330
42
102
}
330
42
100
AcDbScale
 70
     0
300
3/32" = 1'-0"
140
0.09375
141
12.0
290
     0
  0
SCALE
  5
49
102
{ACAD_REACTORS
330
42
102
}
330
42
100
AcDbScale
 70
     0
300
1/8" = 1'-0"
140
0.125
141
12.0
290
     0
  0
SCALE
  5
4A
102
{ACAD_REACTORS
330
42
102
}
330
42
100
AcDbScale
 70
     0
300
3/16" = 1'-0"
140
0.1875
141
12.0
290
     0
  0
SCALE
  5
4B
102
{ACAD_REACTORS
330
42
102
}
330
42
100
AcDbScale
 70
     0
300
1/4" = 1'-0"
140
0.25
141
12.0
290
     0
  0
SCALE
  5
4C
102
{ACAD_REACTORS
330
42
102
}
330
42
100
AcDbScale
 70
     0
300
3/8" = 1'-0"
140
0.375
141
12.0
290
     0
  0
SCALE
  5
4D
102
{ACAD_REACTORS
330
42
102
}
330
42
100
AcDbScale
 70
     0
300
1/2" = 1'-0"
140
0.5
141
12.0
290
     0
  0
SCALE
  5
4E
102
{ACAD_REACTORS
330
42
102
}
330
42
100
AcDbScale
 70
     0
300
3/4" = 1'-0"
140
0.75
141
12.0
290
     0
  0
SCALE
  5
4F
102
{ACAD_REACTORS
330
42
102
}
330
42
100
AcDbScale
 70
     0
300
1" = 1'-0"
140
1.0
141
12.0
290
     0
  0
SCALE
  5
50
102
{ACAD_REACTORS
330
42
102
}
330
42
100
AcDbScale
 70
     0
300
1-1/2" = 1'-0"
140
1.5
141
12.0
290
     0
  0
SCALE
  5
51
102
{ACAD_REACTORS
330
42
102
}
330
42
100
AcDbScale
 70
     0
300
3" = 1'-0"
140
3.0
141
12.0
290
     0
  0
SCALE
  5
52
102
{ACAD_REACTORS
330
42
102
}
330
42
100
AcDbScale
 70
     0
300
6" = 1'-0"
140
6.0
141
12.0
290
     0
  0
SCALE
  5
53
102
{ACAD_REACTORS
330
42
102
}
330
42
100
AcDbScale
 70
     0
300
1'-0" = 1'-0"
140
12.0
141
12.0
290
     0
  0
ACDBSECTIONVIEWSTYLE
  5
69
102
{ACAD_XDICTIONARY
360
C8
102
}
102
{ACAD_REACTORS
330
68
102
}
330
68
100
AcDbModelDocViewStyle
 70
     0
  3
Imperial24
290
     0
100
AcDbSectionViewStyle
 70
     0
 71
     0
 90
       78
 71
     1
340
55
 62
   256
 40
0.24
340
0
340
0
 62
   256
 40
0.24
300
I, O, Q, S, X, Z
 40
0.48
 90
        3
 40
0.18
 90
        1
 71
     2
340
5D
 90
       25
 62
   256
340
5D
 90
       50
 62
   256
 40
0.24
 40
0.0
 40
0.24
 71
     3
340
55
 62
   256
 40
0.24
 90
        1
 40
0.75
 90
        1
300
%<\AcVar ViewType \f "%tc1">% %<\AcVar ViewSectionStartId>%-%<\AcVar ViewSectionEndId>%\PSCALE %<\AcVar ViewScale \f "%sn">%
 71
     4
 62
   256
 62
   257
300
ANSI31
 40
1.0
 90
        0
290
     0
290
     0
 90
        6
 40
0.0
 40
1.570796326794896
 40
0.2617993877991494
 40
1.308996938995747
 40
-0.2617993877991494
 40
1.832595714594046
  0
TABLESTYLE
  5
65
102
{ACAD_XDICTIONARY
360
3CF
102
}
102
{ACAD_REACTORS
330
64
102
}
330
64
100
AcDbTableStyle
280
     0
  3
Standard
 70
     0
 71
     0
 40
0.06
 41
0.06
280
     0
281
     0
  7
Standard
140
0.18
170
     2
 62
     0
 63
     7
283
     0
 90
      512
 91
        0
  1

274
    -2
284
     1
 64
     0
275
    -2
285
     1
 65
     0
276
    -2
286
     1
 66
     0
277
    -2
287
     1
 67
     0
278
    -2
288
     1
 68
     0
279
    -2
289
     1
 69
     0
  7
Standard
140
0.25
170
     5
 62
     0
 63
     7
283
     0
 90
      512
 91
        0
  1

274
    -2
284
     1
 64
     0
275
    -2
285
     1
 65
     0
276
    -2
286
     1
 66
     0
277
    -2
287
     1
 67
     0
278
    -2
288
     1
 68
     0
279
    -2
289
     1
 69
     0
  7
Standard
140
0.18
170
     5
 62
     0
 63
     7
283
     0
 90
      512
 91
        0
  1

274
    -2
284
     1
 64
     0
275
    -2
285
     1
 65
     0
276
    -2
286
     1
 66
     0
277
    -2
287
     1
 67
     0
278
    -2
288
     1
 68
     0
279
    -2
289
     1
 69
     0
  0
VISUALSTYLE
  5
2F
102
{ACAD_REACTORS
330
29
102
}
330
29
100
AcDbVisualStyle
  2
2dWireframe
 70
     4
177
     3
291
     0
 70
    58
 90
        0
176
     1
 90
        2
176
     1
 90
        0
176
     1
 90
        0
176
     1
 40
0.6
176
     1
 40
30.0
176
     1
 62
     7
420
 16777215
176
     1
 90
        1
176
     1
 90
        4
176
     1
 62
     7
176
     1
 62
   257
176
     1
 90
        1
176
     1
 90
        1
176
     1
 40
1.0
176
     1
 90
        0
176
     1
 62
   257
176
     1
 40
1.0
176
     1
 90
        1
176
     1
 90
        6
176
     1
 90
        2
176
     1
 62
     7
176
     1
 90
        5
176
     1
 90
        0
176
     1
 90
        0
176
     1
290
     0
176
     1
 90
        1
176
     1
 40
0.0
176
     1
 90
        0
176
     1
290
     1
176
     1
290
     1
176
     1
290
     0
176
     1
290
     0
176
     1
290
     0
176
     1
290
     0
176
     1
290
     0
176
     1
290
     0
176
     1
290
     0
176
     1
 90
       50
176
     1
 40
0.0
176
     1
 40
1.0
176
     1
 90
        0
176
     1
 62
    18
420
        0
176
     1
 90
       50
176
     1
 90
        3
176
     1
 62
     5
420
      255
176
     1
290
     0
176
     1
 90
       50
176
     1
 90
       50
176
     1
 90
       50
176
     1
290
     0
176
     1
 90
       50
176
     1
 62
   256
176
     0
 40
1.0
176
     0
 90
        2
176
     1
  1
strokes_ogs.tif
176
     1
290
     0
176
     1
 40
1.0
176
     1
 40
1.0
176
     1
  0
VISUALSTYLE
  5
2E
102
{ACAD_REACTORS
330
29
102
}
330
29
100
AcDbVisualStyle
  2
Basic
 70
     7
177
     3
291
     1
 70
    58
 90
        1
176
     1
 90
        0
176
     1
 90
        1
176
     1
 90
        0
176
     1
 40
0.6
176
     1
 40
30.0
176
     1
 62
     7
420
 16777215
176
     1
 90
        0
176
     1
 90
        4
176
     1
 62
     7
176
     1
 62
   257
176
     1
 90
        1
176
     1
 90
        1
176
     1
 40
1.0
176
     1
 90
        8
176
     1
 62
     7
176
     1
 40
1.0
176
     1
 90
        1
176
     1
 90
        6
176
     1
 90
        2
176
     1
 62
     7
176
     1
 90
        5
176
     1
 90
        0
176
     1
 90
        0
176
     1
290
     0
176
     1
 90
        1
176
     1
 40
0.0
176
     1
 90
        0
176
     1
290
     0
176
     1
290
     1
176
     1
290
     1
176
     1
290
     0
176
     1
290
     0
176
     1
290
     0
176
     1
290
     0
176
     1
290
     0
176
     1
290
     0
176
     1
 90
       50
176
     1
 40
0.0
176
     1
 40
1.0
176
     1
 90
        0
176
     1
 62
    18
420
        0
176
     1
 90
       50
176
     1
 90
        3
176
     1
 62
     5
420
      255
176
     1
290
     0
176
     1
 90
       50
176
     1
 90
       50
176
     1
 90
       50
176
     1
290
     0
176
     1
 90
       50
176
     1
 62
   256
176
     0
 40
1.0
176
     0
 90
        2
176
     1
  1
strokes_ogs.tif
176
     1
290
     0
176
     1
 40
1.0
176
     1
 40
1.0
176
     1
  0
VISUALSTYLE
  5
35
102
{ACAD_REACTORS
330
29
102
}
330
29
100
AcDbVisualStyle
  2
Brighten
 70
    12
177
     3
291
     1
 70
    58
 90
        2
176
     1
 90
        2
176
     1
 90
        0
176
     1
 90
        0
176
     1
 40
0.6
176
     1
 40
30.0
176
     1
 62
     7
420
 16777215
176
     1
 90
        1
176
     1
 90
        4
176
     1
 62
     7
176
     1
 62
   257
176
     1
 90
        1
176
     1
 90
        1
176
     1
 40
1.0
176
     1
 90
        8
176
     1
 62
     7
176
     1
 40
1.0
176
     1
 90
        1
176
     1
 90
        6
176
     1
 90
        2
176
     1
 62
     7
176
     1
 90
        5
176
     1
 90
        0
176
     1
 90
        0
176
     1
290
     0
176
     1
 90
        1
176
     1
 40
50.0
176
     1
 90
        0
176
     1
290
     0
176
     1
290
     1
176
     1
290
     1
176
     1
290
     0
176
     1
290
     0
176
     1
290
     0
176
     1
290
     0
176
     1
290
     0
176
     1
290
     0
176
     1
 90
       50
176
     1
 40
0.0
176
     1
 40
1.0
176
     1
 90
        0
176
     1
 62
    18
420
        0
176
     1
 90
       50
176
     1
 90
        3
176
     1
 62
     5
420
      255
176
     1
290
     0
176
     1
 90
       50
176
     1
 90
       50
176
     1
 90
       50
176
     1
290
     0
176
     1
 90
       50
176
     1
 62
   256
176
     0
 40
1.0
176
     0
 90
        2
176
     1
  1
strokes_ogs.tif
176
     1
290
     0
176
     1
 40
1.0
176
     1
 40
1.0
176
     1
  0
VISUALSTYLE
  5
39
102
{ACAD_REACTORS
330
29
102
}
330
29
100
AcDbVisualStyle
  2
ColorChange
 70
    16
177
     3
291
     1
 70
    58
 90
        2
176
     1
 90
        2
176
     1
 90
        3
176
     1
 90
        0
176
     1
 40
0.6
176
     1
 40
30.0
176
     1
 62
     8
420
  8421504
176
     1
 90
        1
176
     1
 90
        4
176
     1
 62
     7
176
     1
 62
   257
176
     1
 90
        1
176
     1
 90
        1
176
     1
 40
1.0
176
     1
 90
        8
176
     1
 62
     8
420
  8421504
176
     1
 40
1.0
176
     1
 90
        1
176
     1
 90
        6
176
     1
 90
        2
176
     1
 62
     7
176
     1
 90
        5
176
     1
 90
        0
176
     1
 90
        0
176
     1
290
     0
176
     1
 90
        1
176
     1
 40
0.0
176
     1
 90
        0
176
     1
290
     0
176
     1
290
     1
176
     1
290
     1
176
     1
290
     0
176
     1
290
     0
176
     1
290
     0
176
     1
290
     0
176
     1
290
     0
176
     1
290
     0
176
     1
 90
       50
176
     1
 40
0.0
176
     1
 40
1.0
176
     1
 90
        0
176
     1
 62
    18
420
        0
176
     1
 90
       50
176
     1
 90
        3
176
     1
 62
     5
420
      255
176
     1
290
     0
176
     1
 90
       50
176
     1
 90
       50
176
     1
 90
       50
176
     1
290
     0
176
     1
 90
       50
176
     1
 62
   256
176
     0
 40
1.0
176
     0
 90
        2
176
     1
  1
strokes_ogs.tif
176
     1
290
     0
176
     1
 40
1.0
176
     1
 40
1.0
176
     1
  0
VISUALSTYLE
  5
32
102
{ACAD_REACTORS
330
29
102
}
330
29
100
AcDbVisualStyle
  2
Conceptual
 70
     9
177
     3
291
     0
 70
    58
 90
        3
176
     1
 90
        2
176
     1
 90
        0
176
     1
 90
        0
176
     1
 40
0.6
176
     1
 40
30.0
176
     1
 62
     7
420
 16777215
176
     1
 90
        2
176
     1
 90
        2
176
     1
 62
     7
176
     1
 62
   257
176
     1
 90
        1
176
     1
 90
        1
176
     1
 40
179.0
176
     1
 90
        8
176
     1
 62
     7
176
     1
 40
1.0
176
     1
 90
        1
176
     1
 90
        6
176
     1
 90
        2
176
     1
 62
     7
176
     1
 90
        3
176
     1
 90
        0
176
     1
 90
        0
176
     1
290
     0
176
     1
 90
        1
176
     1
 40
0.0
176
     1
 90
        0
176
     1
290
     0
176
     1
290
     1
176
     1
290
     1
176
     1
290
     0
176
     1
290
     0
176
     1
290
     0
176
     1
290
     0
176
     1
290
     0
176
     1
290
     0
176
     1
 90
       50
176
     1
 40
0.0
176
     1
 40
1.0
176
     1
 90
        0
176
     1
 62
    18
420
        0
176
     1
 90
       50
176
     1
 90
        3
176
     1
 62
     5
420
      255
176
     1
290
     0
176
     1
 90
       50
176
     1
 90
       50
176
     1
 90
       50
176
     1
290
     0
176
     1
 90
       50
176
     1
 62
   256
176
     0
 40
1.0
176
     0
 90
        2
176
     1
  1
strokes_ogs.tif
176
     1
290
     0
176
     1
 40
1.0
176
     1
 40
1.0
176
     1
  0
VISUALSTYLE
  5
34
102
{ACAD_REACTORS
330
29
102
}
330
29
100
AcDbVisualStyle
  2
Dim
 70
    11
177
     3
291
     1
 70
    58
 90
        2
176
     1
 90
        2
176
     1
 90
        0
176
     1
 90
        0
176
     1
 40
0.6
176
     1
 40
30.0
176
     1
 62
     7
420
 16777215
176
     1
 90
        1
176
     1
 90
        4
176
     1
 62
     7
176
     1
 62
   257
176
     1
 90
        1
176
     1
 90
        1
176
     1
 40
1.0
176
     1
 90
        8
176
     1
 62
     7
176
     1
 40
1.0
176
     1
 90
        1
176
     1
 90
        6
176
     1
 90
        2
176
     1
 62
     7
176
     1
 90
        5
176
     1
 90
        0
176
     1
 90
        0
176
     1
290
     0
176
     1
 90
        1
176
     1
 40
-50.0
176
     1
 90
        0
176
     1
290
     0
176
     1
290
     1
176
     1
290
     1
176
     1
290
     0
176
     1
290
     0
176
     1
290
     0
176
     1
290
     0
176
     1
290
     0
176
     1
290
     0
176
     1
 90
       50
176
     1
 40
0.0
176
     1
 40
1.0
176
     1
 90
        0
176
     1
 62
    18
420
        0
176
     1
 90
       50
176
     1
 90
        3
176
     1
 62
     5
420
      255
176
     1
290
     0
176
     1
 90
       50
176
     1
 90
       50
176
     1
 90
       50
176
     1
290
     0
176
     1
 90
       50
176
     1
 62
   256
176
     0
 40
1.0
176
     0
 90
        2
176
     1
  1
strokes_ogs.tif
176
     1
290
     0
176
     1
 40
1.0
176
     1
 40
1.0
176
     1
  0
VISUALSTYLE
  5
41
102
{ACAD_REACTORS
330
29
102
}
330
29
100
AcDbVisualStyle
  2
EdgeColorOff
 70
    22
177
     3
291
     1
 70
    58
 90
        2
176
     0
 90
        2
176
     0
 90
        0
176
     0
 90
        0
176
     0
 40
0.6
176
     0
 40
30.0
176
     0
 62
     7
420
 16777215
176
     0
 90
        1
176
     0
 90
        4
176
     0
 62
     7
176
     0
 62
   257
176
     0
 90
        1
176
     0
 90
        1
176
     0
 40
1.0
176
     0
 90
        8
176
     2
 62
     7
176
     0
 40
1.0
176
     0
 90
        1
176
     0
 90
        6
176
     0
 90
        2
176
     0
 62
     7
176
     0
 90
        5
176
     0
 90
        0
176
     0
 90
        0
176
     0
290
     0
176
     0
 90
        1
176
     0
 40
0.0
176
     0
 90
        0
176
     0
290
     0
176
     0
290
     1
176
     0
290
     1
176
     0
290
     0
176
     0
290
     0
176
     0
290
     0
176
     0
290
     0
176
     0
290
     0
176
     0
290
     0
176
     0
 90
       50
176
     0
 40
0.0
176
     0
 40
1.0
176
     0
 90
        0
176
     0
 62
    18
420
        0
176
     0
 90
       50
176
     0
 90
        3
176
     0
 62
     5
420
      255
176
     0
290
     0
176
     0
 90
       50
176
     0
 90
       50
176
     0
 90
       50
176
     0
290
     0
176
     0
 90
       50
176
     0
 62
   256
176
     0
 40
1.0
176
     0
 90
        2
176
     0
  1
strokes_ogs.tif
176
     0
290
     0
176
     0
 40
1.0
176
     0
 40
1.0
176
     0
  0
VISUALSTYLE
  5
38
102
{ACAD_REACTORS
330
29
102
}
330
29
100
AcDbVisualStyle
  2
Facepattern
 70
    15
177
     3
291
     1
 70
    58
 90
        2
176
     1
 90
        2
176
     1
 90
        0
176
     1
 90
        0
176
     1
 40
0.6
176
     1
 40
30.0
176
     1
 62
     7
420
 16777215
176
     1
 90
        1
176
     1
 90
        4
176
     1
 62
     7
176
     1
 62
   257
176
     1
 90
        1
176
     1
 90
        1
176
     1
 40
1.0
176
     1
 90
        8
176
     1
 62
     7
176
     1
 40
1.0
176
     1
 90
        1
176
     1
 90
        6
176
     1
 90
        2
176
     1
 62
     7
176
     1
 90
        5
176
     1
 90
        0
176
     1
 90
        0
176
     1
290
     0
176
     1
 90
        1
176
     1
 40
0.0
176
     1
 90
        0
176
     1
290
     0
176
     1
290
     1
176
     1
290
     1
176
     1
290
     0
176
     1
290
     0
176
     1
290
     0
176
     1
290
     0
176
     1
290
     0
176
     1
290
     0
176
     1
 90
       50
176
     1
 40
0.0
176
     1
 40
1.0
176
     1
 90
        0
176
     1
 62
    18
420
        0
176
     1
 90
       50
176
     1
 90
        3
176
     1
 62
     5
420
      255
176
     1
290
     0
176
     1
 90
       50
176
     1
 90
       50
176
     1
 90
       50
176
     1
290
     0
176
     1
 90
       50
176
     1
 62
   256
176
     0
 40
1.0
176
     0
 90
        2
176
     1
  1
strokes_ogs.tif
176
     1
290
     0
176
     1
 40
1.0
176
     1
 40
1.0
176
     1
  0
VISUALSTYLE
  5
2A
102
{ACAD_REACTORS
330
29
102
}
330
29
100
AcDbVisualStyle
  2
Flat
 70
     0
177
     3
291
     1
 70
    58
 90
        2
176
     1
 90
        1
176
     1
 90
        1
176
     1
 90
        2
176
     1
 40
0.6
176
     1
 40
30.0
176
     1
 62
     7
420
 16777215
176
     1
 90
        0
176
     1
 90
        0
176
     1
 62
     7
176
     1
 62
   257
176
     1
 90
        1
176
     1
 90
        1
176
     1
 40
1.0
176
     1
 90
        8
176
     1
 62
     7
176
     1
 40
1.0
176
     1
 90
        1
176
     1
 90
        6
176
     1
 90
        2
176
     1
 62
     7
176
     1
 90
        5
176
     1
 90
        0
176
     1
 90
        0
176
     1
290
     0
176
     1
 90
       13
176
     1
 40
0.0
176
     1
 90
        0
176
     1
290
     0
176
     1
290
     1
176
     1
290
     1
176
     1
290
     0
176
     1
290
     0
176
     1
290
     0
176
     1
290
     0
176
     1
290
     0
176
     1
290
     0
176
     1
 90
       50
176
     1
 40
0.0
176
     1
 40
1.0
176
     1
 90
        0
176
     1
 62
    18
420
        0
176
     1
 90
       50
176
     1
 90
        3
176
     1
 62
     5
420
      255
176
     1
290
     0
176
     1
 90
       50
176
     1
 90
       50
176
     1
 90
       50
176
     1
290
     0
176
     1
 90
       50
176
     1
 62
   256
176
     0
 40
1.0
176
     0
 90
        2
176
     1
  1
strokes_ogs.tif
176
     1
290
     0
176
     1
 40
1.0
176
     1
 40
1.0
176
     1
  0
VISUALSTYLE
  5
2B
102
{ACAD_REACTORS
330
29
102
}
330
29
100
AcDbVisualStyle
  2
FlatWithEdges
 70
     1
177
     3
291
     1
 70
    58
 90
        2
176
     1
 90
        1
176
     1
 90
        1
176
     1
 90
        2
176
     1
 40
0.6
176
     1
 40
30.0
176
     1
 62
     7
420
 16777215
176
     1
 90
        1
176
     1
 90
        0
176
     1
 62
     7
176
     1
 62
   257
176
     1
 90
        1
176
     1
 90
        1
176
     1
 40
1.0
176
     1
 90
        0
176
     1
 62
   257
176
     1
 40
1.0
176
     1
 90
        1
176
     1
 90
        6
176
     1
 90
        2
176
     1
 62
     7
176
     1
 90
        5
176
     1
 90
        0
176
     1
 90
        0
176
     1
290
     0
176
     1
 90
       13
176
     1
 40
0.0
176
     1
 90
        0
176
     1
290
     0
176
     1
290
     1
176
     1
290
     1
176
     1
290
     0
176
     1
290
     0
176
     1
290
     0
176
     1
290
     0
176
     1
290
     0
176
     1
290
     0
176
     1
 90
       50
176
     1
 40
0.0
176
     1
 40
1.0
176
     1
 90
        0
176
     1
 62
    18
420
        0
176
     1
 90
       50
176
     1
 90
        3
176
     1
 62
     5
420
      255
176
     1
290
     0
176
     1
 90
       50
176
     1
 90
       50
176
     1
 90
       50
176
     1
290
     0
176
     1
 90
       50
176
     1
 62
   256
176
     0
 40
1.0
176
     0
 90
        2
176
     1
  1
strokes_ogs.tif
176
     1
290
     0
176
     1
 40
1.0
176
     1
 40
1.0
176
     1
  0
VISUALSTYLE
  5
2C
102
{ACAD_REACTORS
330
29
102
}
330
29
100
AcDbVisualStyle
  2
Gouraud
 70
     2
177
     3
291
     1
 70
    58
 90
        2
176
     1
 90
        2
176
     1
 90
        1
176
     1
 90
        2
176
     1
 40
0.6
176
     1
 40
30.0
176
     1
 62
     7
420
 16777215
176
     1
 90
        0
176
     1
 90
        0
176
     1
 62
     7
176
     1
 62
   257
176
     1
 90
        1
176
     1
 90
        1
176
     1
 40
1.0
176
     1
 90
        0
176
     1
 62
     7
176
     1
 40
1.0
176
     1
 90
        1
176
     1
 90
        6
176
     1
 90
        2
176
     1
 62
     7
176
     1
 90
        5
176
     1
 90
        0
176
     1
 90
        0
176
     1
290
     0
176
     1
 90
       13
176
     1
 40
0.0
176
     1
 90
        0
176
     1
290
     0
176
     1
290
     1
176
     1
290
     1
176
     1
290
     0
176
     1
290
     0
176
     1
290
     0
176
     1
290
     0
176
     1
290
     0
176
     1
290
     0
176
     1
 90
       50
176
     1
 40
0.0
176
     1
 40
1.0
176
     1
 90
        0
176
     1
 62
    18
420
        0
176
     1
 90
       50
176
     1
 90
        3
176
     1
 62
     5
420
      255
176
     1
290
     0
176
     1
 90
       50
176
     1
 90
       50
176
     1
 90
       50
176
     1
290
     0
176
     1
 90
       50
176
     1
 62
   256
176
     0
 40
1.0
176
     0
 90
        2
176
     1
  1
strokes_ogs.tif
176
     1
290
     0
176
     1
 40
1.0
176
     1
 40
1.0
176
     1
  0
VISUALSTYLE
  5
2D
102
{ACAD_REACTORS
330
29
102
}
330
29
100
AcDbVisualStyle
  2
GouraudWithEdges
 70
     3
177
     3
291
     1
 70
    58
 90
        2
176
     1
 90
        2
176
     1
 90
        1
176
     1
 90
        2
176
     1
 40
0.6
176
     1
 40
30.0
176
     1
 62
     7
420
 16777215
176
     1
 90
        1
176
     1
 90
        0
176
     1
 62
     7
176
     1
 62
   257
176
     1
 90
        1
176
     1
 90
        1
176
     1
 40
1.0
176
     1
 90
        0
176
     1
 62
   257
176
     1
 40
1.0
176
     1
 90
        1
176
     1
 90
        6
176
     1
 90
        2
176
     1
 62
     7
176
     1
 90
        5
176
     1
 90
        0
176
     1
 90
        0
176
     1
290
     0
176
     1
 90
       13
176
     1
 40
0.0
176
     1
 90
        0
176
     1
290
     0
176
     1
290
     1
176
     1
290
     1
176
     1
290
     0
176
     1
290
     0
176
     1
290
     0
176
     1
290
     0
176
     1
290
     0
176
     1
290
     0
176
     1
 90
       50
176
     1
 40
0.0
176
     1
 40
1.0
176
     1
 90
        0
176
     1
 62
    18
420
        0
176
     1
 90
       50
176
     1
 90
        3
176
     1
 62
     5
420
      255
176
     1
290
     0
176
     1
 90
       50
176
     1
 90
       50
176
     1
 90
       50
176
     1
290
     0
176
     1
 90
       50
176
     1
 62
   256
176
     0
 40
1.0
176
     0
 90
        2
176
     1
  1
strokes_ogs.tif
176
     1
290
     0
176
     1
 40
1.0
176
     1
 40
1.0
176
     1
  0
VISUALSTYLE
  5
31
102
{ACAD_REACTORS
330
29
102
}
330
29
100
AcDbVisualStyle
  2
Hidden
 70
     6
177
     3
291
     0
 70
    58
 90
        1
176
     1
 90
        2
176
     1
 90
        2
176
     1
 90
        0
176
     1
 40
0.6
176
     1
 40
30.0
176
     1
 62
     7
420
 16777215
176
     1
 90
        2
176
     1
 90
        2
176
     1
 62
     7
176
     1
 62
   257
176
     1
 90
        2
176
     1
 90
        1
176
     1
 40
40.0
176
     1
 90
        0
176
     1
 62
   257
176
     1
 40
1.0
176
     1
 90
        1
176
     1
 90
        6
176
     1
 90
        2
176
     1
 62
     7
176
     1
 90
        3
176
     1
 90
        0
176
     1
 90
        0
176
     1
290
     0
176
     1
 90
        1
176
     1
 40
0.0
176
     1
 90
        0
176
     1
290
     0
176
     1
290
     1
176
     1
290
     1
176
     1
290
     0
176
     1
290
     0
176
     1
290
     0
176
     1
290
     0
176
     1
290
     0
176
     1
290
     0
176
     1
 90
       50
176
     1
 40
0.0
176
     1
 40
1.0
176
     1
 90
        0
176
     1
 62
    18
420
        0
176
     1
 90
       50
176
     1
 90
        3
176
     1
 62
     5
420
      255
176
     1
290
     0
176
     1
 90
       50
176
     1
 90
       50
176
     1
 90
       50
176
     1
290
     0
176
     1
 90
       50
176
     1
 62
   256
176
     0
 40
1.0
176
     0
 90
        2
176
     1
  1
strokes_ogs.tif
176
     1
290
     0
176
     1
 40
1.0
176
     1
 40
1.0
176
     1
  0
VISUALSTYLE
  5
3F
102
{ACAD_REACTORS
330
29
102
}
330
29
100
AcDbVisualStyle
  2
JitterOff
 70
    20
177
     3
291
     1
 70
    58
 90
        2
176
     0
 90
        2
176
     0
 90
        0
176
     0
 90
        0
176
     0
 40
0.6
176
     0
 40
30.0
176
     0
 62
     7
420
 16777215
176
     0
 90
        1
176
     0
 90
        4
176
     0
 62
     7
176
     0
 62
   257
176
     0
 90
        1
176
     0
 90
        1
176
     0
 40
1.0
176
     0
 90
       10
176
     2
 62
     7
176
     0
 40
1.0
176
     0
 90
        1
176
     0
 90
        6
176
     0
 90
        2
176
     0
 62
     7
176
     0
 90
        5
176
     0
 90
        0
176
     0
 90
        0
176
     0
290
     0
176
     0
 90
        1
176
     0
 40
0.0
176
     0
 90
        0
176
     0
290
     0
176
     0
290
     1
176
     0
290
     1
176
     0
290
     0
176
     0
290
     0
176
     0
290
     0
176
     0
290
     0
176
     0
290
     0
176
     0
290
     0
176
     0
 90
       50
176
     0
 40
0.0
176
     0
 40
1.0
176
     0
 90
        0
176
     0
 62
    18
420
        0
176
     0
 90
       50
176
     0
 90
        3
176
     0
 62
     5
420
      255
176
     0
290
     0
176
     0
 90
       50
176
     0
 90
       50
176
     0
 90
       50
176
     0
290
     0
176
     0
 90
       50
176
     0
 62
   256
176
     0
 40
1.0
176
     0
 90
        2
176
     0
  1
strokes_ogs.tif
176
     0
290
     0
176
     0
 40
1.0
176
     0
 40
1.0
176
     0
  0
VISUALSTYLE
  5
37
102
{ACAD_REACTORS
330
29
102
}
330
29
100
AcDbVisualStyle
  2
Linepattern
 70
    14
177
     3
291
     1
 70
    58
 90
        2
176
     1
 90
        2
176
     1
 90
        0
176
     1
 90
        0
176
     1
 40
0.6
176
     1
 40
30.0
176
     1
 62
     7
420
 16777215
176
     1
 90
        1
176
     1
 90
        4
176
     1
 62
     7
176
     1
 62
   257
176
     1
 90
        7
176
     1
 90
        7
176
     1
 40
1.0
176
     1
 90
        8
176
     1
 62
     7
176
     1
 40
1.0
176
     1
 90
        1
176
     1
 90
        6
176
     1
 90
        2
176
     1
 62
     7
176
     1
 90
        5
176
     1
 90
        0
176
     1
 90
        0
176
     1
290
     0
176
     1
 90
        1
176
     1
 40
0.0
176
     1
 90
        0
176
     1
290
     0
176
     1
290
     1
176
     1
290
     1
176
     1
290
     0
176
     1
290
     0
176
     1
290
     0
176
     1
290
     0
176
     1
290
     0
176
     1
290
     0
176
     1
 90
       50
176
     1
 40
0.0
176
     1
 40
1.0
176
     1
 90
        0
176
     1
 62
    18
420
        0
176
     1
 90
       50
176
     1
 90
        3
176
     1
 62
     5
420
      255
176
     1
290
     0
176
     1
 90
       50
176
     1
 90
       50
176
     1
 90
       50
176
     1
290
     0
176
     1
 90
       50
176
     1
 62
   256
176
     0
 40
1.0
176
     0
 90
        2
176
     1
  1
strokes_ogs.tif
176
     1
290
     0
176
     1
 40
1.0
176
     1
 40
1.0
176
     1
  0
VISUALSTYLE
  5
40
102
{ACAD_REACTORS
330
29
102
}
330
29
100
AcDbVisualStyle
  2
OverhangOff
 70
    21
177
     3
291
     1
 70
    58
 90
        2
176
     0
 90
        2
176
     0
 90
        0
176
     0
 90
        0
176
     0
 40
0.6
176
     0
 40
30.0
176
     0
 62
     7
420
 16777215
176
     0
 90
        1
176
     0
 90
        4
176
     0
 62
     7
176
     0
 62
   257
176
     0
 90
        1
176
     0
 90
        1
176
     0
 40
1.0
176
     0
 90
        9
176
     2
 62
     7
176
     0
 40
1.0
176
     0
 90
        1
176
     0
 90
        6
176
     0
 90
        2
176
     0
 62
     7
176
     0
 90
        5
176
     0
 90
        0
176
     0
 90
        0
176
     0
290
     0
176
     0
 90
        1
176
     0
 40
0.0
176
     0
 90
        0
176
     0
290
     0
176
     0
290
     1
176
     0
290
     1
176
     0
290
     0
176
     0
290
     0
176
     0
290
     0
176
     0
290
     0
176
     0
290
     0
176
     0
290
     0
176
     0
 90
       50
176
     0
 40
0.0
176
     0
 40
1.0
176
     0
 90
        0
176
     0
 62
    18
420
        0
176
     0
 90
       50
176
     0
 90
        3
176
     0
 62
     5
420
      255
176
     0
290
     0
176
     0
 90
       50
176
     0
 90
       50
176
     0
 90
       50
176
     0
290
     0
176
     0
 90
       50
176
     0
 62
   256
176
     0
 40
1.0
176
     0
 90
        2
176
     0
  1
strokes_ogs.tif
176
     0
290
     0
176
     0
 40
1.0
176
     0
 40
1.0
176
     0
  0
VISUALSTYLE
  5
33
102
{ACAD_REACTORS
330
29
102
}
330
29
100
AcDbVisualStyle
  2
Realistic
 70
     8
177
     3
291
     0
 70
    58
 90
        2
176
     1
 90
        3
176
     1
 90
        0
176
     1
 90
        2
176
     1
 40
0.6
176
     1
 40
30.0
176
     1
 62
     7
420
 16777215
176
     1
 90
        0
176
     1
 90
        0
176
     1
 62
     7
176
     1
 62
   257
176
     1
 90
        1
176
     1
 90
        1
176
     1
 40
1.0
176
     1
 90
        8
176
     1
 62
   257
176
     1
 40
1.0
176
     1
 90
        1
176
     1
 90
        6
176
     1
 90
        2
176
     1
 62
     7
176
     1
 90
        3
176
     1
 90
        0
176
     1
 90
        0
176
     1
290
     0
176
     1
 90
       13
176
     1
 40
0.0
176
     1
 90
        0
176
     1
290
     0
176
     1
290
     1
176
     1
290
     1
176
     1
290
     0
176
     1
290
     0
176
     1
290
     0
176
     1
290
     0
176
     1
290
     0
176
     1
290
     0
176
     1
 90
       50
176
     1
 40
0.0
176
     1
 40
1.0
176
     1
 90
        0
176
     1
 62
    18
420
        0
176
     1
 90
       50
176
     1
 90
        3
176
     1
 62
     5
420
      255
176
     1
290
     0
176
     1
 90
       50
176
     1
 90
       50
176
     1
 90
       50
176
     1
290
     0
176
     1
 90
       50
176
     1
 62
   256
176
     0
 40
1.0
176
     0
 90
        2
176
     1
  1
strokes_ogs.tif
176
     1
290
     0
176
     1
 40
1.0
176
     1
 40
1.0
176
     1
  0
VISUALSTYLE
  5
3E
102
{ACAD_REACTORS
330
29
102
}
330
29
100
AcDbVisualStyle
  2
Shaded
 70
    27
177
     3
291
     0
 70
    58
 90
        2
176
     1
 90
        2
176
     1
 90
        1
176
     1
 90
        2
176
     1
 40
0.6
176
     1
 40
30.0
176
     1
 62
     7
420
 16777215
176
     1
 90
        0
176
     1
 90
        4
176
     1
 62
     7
176
     1
 62
   257
176
     1
 90
        1
176
     1
 90
        1
176
     1
 40
1.0
176
     1
 90
        8
176
     1
 62
   257
176
     1
 40
1.0
176
     1
 90
        1
176
     1
 90
        6
176
     1
 90
        2
176
     1
 62
     8
420
  7895160
176
     1
 90
        3
176
     1
 90
        0
176
     1
 90
        0
176
     1
290
     0
176
     1
 90
        5
176
     1
 40
0.0
176
     1
 90
        0
176
     1
290
     0
176
     1
290
     1
176
     1
290
     1
176
     1
290
     0
176
     1
290
     0
176
     1
290
     0
176
     1
290
     0
176
     1
290
     0
176
     1
290
     0
176
     1
 90
       50
176
     1
 40
0.0
176
     1
 40
1.0
176
     1
 90
        0
176
     1
 62
    18
420
        0
176
     1
 90
       50
176
     1
 90
        3
176
     1
 62
     5
420
      255
176
     1
290
     0
176
     1
 90
       50
176
     1
 90
       50
176
     1
 90
       50
176
     1
290
     0
176
     1
 90
       50
176
     1
 62
   256
176
     0
 40
1.0
176
     0
 90
        2
176
     1
  1
strokes_ogs.tif
176
     1
290
     0
176
     1
 40
1.0
176
     1
 40
1.0
176
     1
  0
VISUALSTYLE
  5
3D
102
{ACAD_REACTORS
330
29
102
}
330
29
100
AcDbVisualStyle
  2
Shaded with edges
 70
    26
177
     3
291
     0
 70
    58
 90
        2
176
     1
 90
        2
176
     1
 90
        1
176
     1
 90
        2
176
     1
 40
0.6
176
     1
 40
30.0
176
     1
 62
     7
420
 16777215
176
     1
 90
        1
176
     1
 90
       10
176
     1
 62
     7
176
     1
 62
   257
176
     1
 90
        2
176
     1
 90
        1
176
     1
 40
1.0
176
     1
 90
        8
176
     1
 62
   257
176
     1
 40
1.0
176
     1
 90
        1
176
     1
 90
        6
176
     1
 90
        2
176
     1
 62
     7
176
     1
 90
        3
176
     1
 90
        0
176
     1
 90
        0
176
     1
290
     0
176
     1
 90
        5
176
     1
 40
0.0
176
     1
 90
        0
176
     1
290
     0
176
     1
290
     1
176
     1
290
     1
176
     1
290
     0
176
     1
290
     0
176
     1
290
     0
176
     1
290
     0
176
     1
290
     0
176
     1
290
     0
176
     1
 90
       50
176
     1
 40
0.0
176
     1
 40
1.0
176
     1
 90
        0
176
     1
 62
    18
420
        0
176
     1
 90
       50
176
     1
 90
        3
176
     1
 62
     5
420
      255
176
     1
290
     0
176
     1
 90
       50
176
     1
 90
       50
176
     1
 90
       50
176
     1
290
     0
176
     1
 90
       50
176
     1
 62
   256
176
     0
 40
1.0
176
     0
 90
        2
176
     1
  1
strokes_ogs.tif
176
     1
290
     0
176
     1
 40
1.0
176
     1
 40
1.0
176
     1
  0
VISUALSTYLE
  5
3A
102
{ACAD_REACTORS
330
29
102
}
330
29
100
AcDbVisualStyle
  2
Shades of Gray
 70
    23
177
     3
291
     0
 70
    58
 90
        2
176
     1
 90
        2
176
     1
 90
        3
176
     1
 90
        0
176
     1
 40
0.6
176
     1
 40
30.0
176
     1
 62
     7
420
 16777215
176
     1
 90
        2
176
     1
 90
        2
176
     1
 62
     7
176
     1
 62
     7
176
     1
 90
        1
176
     1
 90
        1
176
     1
 40
40.0
176
     1
 90
        8
176
     1
 62
     7
176
     1
 40
1.0
176
     1
 90
        1
176
     1
 90
        6
176
     1
 90
        2
176
     1
 62
     7
176
     1
 90
        3
176
     1
 90
        0
176
     1
 90
        0
176
     1
290
     0
176
     1
 90
        1
176
     1
 40
0.0
176
     1
 90
        0
176
     1
290
     0
176
     1
290
     1
176
     1
290
     1
176
     1
290
     0
176
     1
290
     0
176
     1
290
     0
176
     1
290
     0
176
     1
290
     0
176
     1
290
     0
176
     1
 90
       50
176
     1
 40
0.0
176
     1
 40
1.0
176
     1
 90
        0
176
     1
 62
    18
420
        0
176
     1
 90
       50
176
     1
 90
        3
176
     1
 62
     5
420
      255
176
     1
290
     0
176
     1
 90
       50
176
     1
 90
       50
176
     1
 90
       50
176
     1
290
     0
176
     1
 90
       50
176
     1
 62
   256
176
     0
 40
1.0
176
     0
 90
        2
176
     1
  1
strokes_ogs.tif
176
     1
290
     0
176
     1
 40
1.0
176
     1
 40
1.0
176
     1
  0
VISUALSTYLE
  5
3B
102
{ACAD_REACTORS
330
29
102
}
330
29
100
AcDbVisualStyle
  2
Sketchy
 70
    24
177
     3
291
     0
 70
    58
 90
        1
176
     1
 90
        2
176
     1
 90
        2
176
     1
 90
        0
176
     1
 40
0.6
176
     1
 40
30.0
176
     1
 62
     7
420
 16777215
176
     1
 90
        2
176
     1
 90
        2
176
     1
 62
     7
176
     1
 62
     7
176
     1
 90
        1
176
     1
 90
        1
176
     1
 40
40.0
176
     1
 90
       11
176
     1
 62
     7
176
     1
 40
1.0
176
     1
 90
        1
176
     1
 90
        6
176
     1
 90
        2
176
     1
 62
     7
176
     1
 90
        6
176
     1
 90
        0
176
     1
 90
        0
176
     1
290
     0
176
     1
 90
        1
176
     1
 40
0.0
176
     1
 90
        0
176
     1
290
     0
176
     1
290
     1
176
     1
290
     1
176
     1
290
     0
176
     1
290
     0
176
     1
290
     0
176
     1
290
     0
176
     1
290
     0
176
     1
290
     0
176
     1
 90
       50
176
     1
 40
0.0
176
     1
 40
1.0
176
     1
 90
        0
176
     1
 62
    18
420
        0
176
     1
 90
       50
176
     1
 90
        3
176
     1
 62
     5
420
      255
176
     1
290
     0
176
     1
 90
       50
176
     1
 90
       50
176
     1
 90
       50
176
     1
290
     0
176
     1
 90
       50
176
     1
 62
   256
176
     0
 40
1.0
176
     0
 90
        2
176
     1
  1
strokes_ogs.tif
176
     1
290
     0
176
     1
 40
1.0
176
     1
 40
1.0
176
     1
  0
VISUALSTYLE
  5
36
102
{ACAD_REACTORS
330
29
102
}
330
29
100
AcDbVisualStyle
  2
Thicken
 70
    13
177
     3
291
     1
 70
    58
 90
        2
176
     1
 90
        2
176
     1
 90
        0
176
     1
 90
        0
176
     1
 40
0.6
176
     1
 40
30.0
176
     1
 62
     7
420
 16777215
176
     1
 90
        1
176
     1
 90
        4
176
     1
 62
     7
176
     1
 62
   257
176
     1
 90
        1
176
     1
 90
        1
176
     1
 40
1.0
176
     1
 90
       12
176
     1
 62
     7
176
     1
 40
1.0
176
     1
 90
        1
176
     1
 90
        6
176
     1
 90
        2
176
     1
 62
     7
176
     1
 90
        5
176
     1
 90
        0
176
     1
 90
        0
176
     1
290
     0
176
     1
 90
        1
176
     1
 40
0.0
176
     1
 90
        0
176
     1
290
     0
176
     1
290
     1
176
     1
290
     1
176
     1
290
     0
176
     1
290
     0
176
     1
290
     0
176
     1
290
     0
176
     1
290
     0
176
     1
290
     0
176
     1
 90
       50
176
     1
 40
0.0
176
     1
 40
1.0
176
     1
 90
        0
176
     1
 62
    18
420
        0
176
     1
 90
       50
176
     1
 90
        3
176
     1
 62
     5
420
      255
176
     1
290
     0
176
     1
 90
       50
176
     1
 90
       50
176
     1
 90
       50
176
     1
290
     0
176
     1
 90
       50
176
     1
 62
   256
176
     0
 40
1.0
176
     0
 90
        2
176
     1
  1
strokes_ogs.tif
176
     1
290
     0
176
     1
 40
1.0
176
     1
 40
1.0
176
     1
  0
VISUALSTYLE
  5
30
102
{ACAD_REACTORS
330
29
102
}
330
29
100
AcDbVisualStyle
  2
Wireframe
 70
     5
177
     3
291
     0
 70
    58
 90
        0
176
     1
 90
        2
176
     1
 90
        0
176
     1
 90
        0
176
     1
 40
0.6
176
     1
 40
30.0
176
     1
 62
     7
420
 16777215
176
     1
 90
        1
176
     1
 90
        4
176
     1
 62
     7
176
     1
 62
   257
176
     1
 90
        1
176
     1
 90
        1
176
     1
 40
1.0
176
     1
 90
        0
176
     1
 62
   257
176
     1
 40
1.0
176
     1
 90
        1
176
     1
 90
        6
176
     1
 90
        2
176
     1
 62
     7
176
     1
 90
        3
176
     1
 90
        0
176
     1
 90
        0
176
     1
290
     0
176
     1
 90
        1
176
     1
 40
0.0
176
     1
 90
        0
176
     1
290
     0
176
     1
290
     1
176
     1
290
     1
176
     1
290
     0
176
     1
290
     0
176
     1
290
     0
176
     1
290
     0
176
     1
290
     0
176
     1
290
     0
176
     1
 90
       50
176
     1
 40
0.0
176
     1
 40
1.0
176
     1
 90
        0
176
     1
 62
    18
420
        0
176
     1
 90
       50
176
     1
 90
        3
176
     1
 62
     5
420
      255
176
     1
290
     0
176
     1
 90
       50
176
     1
 90
       50
176
     1
 90
       50
176
     1
290
     0
176
     1
 90
       50
176
     1
 62
   256
176
     0
 40
1.0
176
     0
 90
        2
176
     1
  1
strokes_ogs.tif
176
     1
290
     0
176
     1
 40
1.0
176
     1
 40
1.0
176
     1
  0
VISUALSTYLE
  5
3C
102
{ACAD_REACTORS
330
29
102
}
330
29
100
AcDbVisualStyle
  2
X-Ray
 70
    25
177
     3
291
     0
 70
    58
 90
        2
176
     1
 90
        2
176
     1
 90
        1
176
     1
 90
        1
176
     1
 40
0.5
176
     1
 40
30.0
176
     1
 62
     7
420
 16777215
176
     1
 90
        1
176
     1
 90
        0
176
     1
 62
     7
176
     1
 62
   257
176
     1
 90
        1
176
     1
 90
        1
176
     1
 40
1.0
176
     1
 90
        8
176
     1
 62
     7
176
     1
 40
1.0
176
     1
 90
        1
176
     1
 90
        6
176
     1
 90
        2
176
     1
 62
     7
176
     1
 90
        3
176
     1
 90
        0
176
     1
 90
        0
176
     1
290
     0
176
     1
 90
       13
176
     1
 40
0.0
176
     1
 90
        0
176
     1
290
     0
176
     1
290
     1
176
     1
290
     1
176
     1
290
     0
176
     1
290
     0
176
     1
290
     0
176
     1
290
     0
176
     1
290
     0
176
     1
290
     0
176
     1
 90
       50
176
     1
 40
0.0
176
     1
 40
1.0
176
     1
 90
        0
176
     1
 62
    18
420
        0
176
     1
 90
       50
176
     1
 90
        3
176
     1
 62
     5
420
      255
176
     1
290
     0
176
     1
 90
       50
176
     1
 90
       50
176
     1
 90
       50
176
     1
290
     0
176
     1
 90
       50
176
     1
 62
   256
176
     0
 40
1.0
176
     0
 90
        2
176
     1
  1
strokes_ogs.tif
176
     1
290
     0
176
     1
 40
1.0
176
     1
 40
1.0
176
     1
  0
DICTIONARYVAR
  5
D2
102
{ACAD_REACTORS
330
CD
102
}
330
CD
100
DictionaryVariables
280
     0
  1
1:1
  0
DICTIONARYVAR
  5
CF
102
{ACAD_REACTORS
330
CD
102
}
330
CD
100
DictionaryVariables
280
     0
  1
STANDARD
  0
DICTIONARYVAR
  5
CE
102
{ACAD_REACTORS
330
CD
102
}
330
CD
100
DictionaryVariables
280
     0
  1
STANDARD
  0
DICTIONARYVAR
  5
D0
102
{ACAD_REACTORS
330
CD
102
}
330
CD
100
DictionaryVariables
280
     0
  1
Imperial24
  0
DICTIONARYVAR
  5
D1
102
{ACAD_REACTORS
330
CD
102
}
330
CD
100
DictionaryVariables
280
     0
  1
Imperial24
  0
XRECORD
  5
C5
102
{ACAD_REACTORS
330
C2
102
}
330
C2
100
AcDbXrecord
280
     1
  1
BUILDING_ID
  1
Towel_Ring-DXV-Fitzgerald-D35160190_Series
  1
FLOOR_ID
  1
1884
  0
XRECORD
  5
C3
102
{ACAD_REACTORS
330
C2
102
}
330
C2
100
AcDbXrecord
280
     1
  1
-2000051
  1
Lines
  1
-2001350
  1
Specialty Equipment
  0
XRECORD
  5
C4
102
{ACAD_REACTORS
330
C2
102
}
330
C2
100
AcDbXrecord
280
     1
  1
-2000287
  1
<Beyond>
  0
DICTIONARY
  5
CA
330
6B
100
AcDbDictionary
280
     1
281
     1
  3
ACAD_XREC_ROUNDTRIP
360
3D2
  0
DICTIONARY
  5
1A
330
19
100
AcDbDictionary
280
     1
281
     1
  3
BUMPTILE
360
1C
  3
DIFFUSETILE
360
1B
  3
OPACITYTILE
360
1F
  3
REFLECTIONTILE
360
1E
  3
REFRACTIONTILE
360
20
  3
SPECULARTILE
360
1D
  0
DICTIONARY
  5
12
330
11
100
AcDbDictionary
280
     1
281
     1
  3
BUMPTILE
360
14
  3
DIFFUSETILE
360
13
  3
OPACITYTILE
360
17
  3
REFLECTIONTILE
360
16
  3
REFRACTIONTILE
360
18
  3
SPECULARTILE
360
15
  0
DICTIONARY
  5
22
330
21
100
AcDbDictionary
280
     1
281
     1
  3
BUMPTILE
360
24
  3
DIFFUSETILE
360
23
  3
OPACITYTILE
360
27
  3
REFLECTIONTILE
360
26
  3
REFRACTIONTILE
360
28
  3
SPECULARTILE
360
25
  0
DICTIONARY
  5
C8
330
69
100
AcDbDictionary
280
     1
281
     1
  3
ACAD_XREC_ROUNDTRIP
360
3D1
  0
DICTIONARY
  5
3CF
330
65
100
AcDbDictionary
280
     1
281
     1
  3
ACAD_ROUNDTRIP_2008_TABLESTYLE_CELLSTYLEMAP
360
3D0
  0
XRECORD
  5
3D2
102
{ACAD_REACTORS
330
CA
102
}
330
CA
100
AcDbXrecord
280
     1
102
DISPLAYNAME
  1
Imperial24
102
FLAGS
 90
        0
  0
XRECORD
  5
1C
102
{ACAD_REACTORS
330
1A
102
}
330
1A
100
AcDbXrecord
280
     1
270
     1
271
     1
  0
XRECORD
  5
1B
102
{ACAD_REACTORS
330
1A
102
}
330
1A
100
AcDbXrecord
280
     1
270
     1
271
     1
  0
XRECORD
  5
1F
102
{ACAD_REACTORS
330
1A
102
}
330
1A
100
AcDbXrecord
280
     1
270
     1
271
     1
  0
XRECORD
  5
1E
102
{ACAD_REACTORS
330
1A
102
}
330
1A
100
AcDbXrecord
280
     1
270
     1
271
     1
  0
XRECORD
  5
20
102
{ACAD_REACTORS
330
1A
102
}
330
1A
100
AcDbXrecord
280
     1
270
     1
271
     1
  0
XRECORD
  5
1D
102
{ACAD_REACTORS
330
1A
102
}
330
1A
100
AcDbXrecord
280
     1
270
     1
271
     1
  0
XRECORD
  5
14
102
{ACAD_REACTORS
330
12
102
}
330
12
100
AcDbXrecord
280
     1
270
     1
271
     1
  0
XRECORD
  5
13
102
{ACAD_REACTORS
330
12
102
}
330
12
100
AcDbXrecord
280
     1
270
     1
271
     1
  0
XRECORD
  5
17
102
{ACAD_REACTORS
330
12
102
}
330
12
100
AcDbXrecord
280
     1
270
     1
271
     1
  0
XRECORD
  5
16
102
{ACAD_REACTORS
330
12
102
}
330
12
100
AcDbXrecord
280
     1
270
     1
271
     1
  0
XRECORD
  5
18
102
{ACAD_REACTORS
330
12
102
}
330
12
100
AcDbXrecord
280
     1
270
     1
271
     1
  0
XRECORD
  5
15
102
{ACAD_REACTORS
330
12
102
}
330
12
100
AcDbXrecord
280
     1
270
     1
271
     1
  0
XRECORD
  5
24
102
{ACAD_REACTORS
330
22
102
}
330
22
100
AcDbXrecord
280
     1
270
     1
271
     1
  0
XRECORD
  5
23
102
{ACAD_REACTORS
330
22
102
}
330
22
100
AcDbXrecord
280
     1
270
     1
271
     1
  0
XRECORD
  5
27
102
{ACAD_REACTORS
330
22
102
}
330
22
100
AcDbXrecord
280
     1
270
     1
271
     1
  0
XRECORD
  5
26
102
{ACAD_REACTORS
330
22
102
}
330
22
100
AcDbXrecord
280
     1
270
     1
271
     1
  0
XRECORD
  5
28
102
{ACAD_REACTORS
330
22
102
}
330
22
100
AcDbXrecord
280
     1
270
     1
271
     1
  0
XRECORD
  5
25
102
{ACAD_REACTORS
330
22
102
}
330
22
100
AcDbXrecord
280
     1
270
     1
271
     1
  0
XRECORD
  5
3D1
102
{ACAD_REACTORS
330
C8
102
}
330
C8
100
AcDbXrecord
280
     1
102
DISPLAYNAME
  1
Imperial24
102
FLAGS
 90
        0
  0
CELLSTYLEMAP
  5
3D0
102
{ACAD_REACTORS
330
3CF
102
}
330
3CF
100
AcDbCellStyleMap
 90
        3
300
CELLSTYLE
  1
TABLEFORMAT_BEGIN
 90
        5
170
     1
 91
        0
 92
    32768
 62
   257
 93
        1
300
CONTENTFORMAT
  1
CONTENTFORMAT_BEGIN
 90
        0
 91
        0
 92
      512
 93
        0
300

 40
0.0
140
1.0
 94
        5
 62
     0
340
55
144
0.25
309
CONTENTFORMAT_END
171
     0
 94
        0
309
TABLEFORMAT_END
  1
CELLSTYLE_BEGIN
 90
        1
 91
        1
300
_TITLE
309
CELLSTYLE_END
300
CELLSTYLE
  1
TABLEFORMAT_BEGIN
 90
        5
170
     1
 91
        0
 92
        0
 62
   257
 93
        1
300
CONTENTFORMAT
  1
CONTENTFORMAT_BEGIN
 90
        0
 91
        0
 92
      512
 93
        0
300

 40
0.0
140
1.0
 94
        5
 62
     0
340
55
144
0.18
309
CONTENTFORMAT_END
171
     0
 94
        0
309
TABLEFORMAT_END
  1
CELLSTYLE_BEGIN
 90
        2
 91
        1
300
_HEADER
309
CELLSTYLE_END
300
CELLSTYLE
  1
TABLEFORMAT_BEGIN
 90
        5
170
     1
 91
        0
 92
        0
 62
   257
 93
        1
300
CONTENTFORMAT
  1
CONTENTFORMAT_BEGIN
 90
        0
 91
        0
 92
      512
 93
        0
300

 40
0.0
140
1.0
 94
        2
 62
     0
340
55
144
0.18
309
CONTENTFORMAT_END
171
     0
 94
        0
309
TABLEFORMAT_END
  1
CELLSTYLE_BEGIN
 90
        3
 91
        2
300
_DATA
309
CELLSTYLE_END
  0
ENDSEC
  0
SECTION
  2
ACDSDATA
 70
     2
 71
     8
  0
ACDSSCHEMA
 90
        0
  1
AcDb_Thumbnail_Schema
  2
AcDbDs::ID
280
    10
 91
        8
  2
Thumbnail_Data
280
    15
 91
        0
101
ACDSRECORD
 95
        0
 90
        1
  2
AcDbDs::TreatedAsObjectData
280
     1
291
     1
101
ACDSRECORD
 95
        0
 90
        2
  2
AcDbDs::Legacy
280
     1
291
     1
101
ACDSRECORD
  1
AcDbDs::ID
 90
        3
  2
AcDs:Indexable
280
     1
291
     1
101
ACDSRECORD
  1
AcDbDs::ID
 90
        4
  2
AcDbDs::HandleAttribute
280
     7
282
     1
  0
ACDSSCHEMA
 90
        1
  1
AcDbDs::TreatedAsObjectDataSchema
  2
AcDbDs::TreatedAsObjectData
280
     1
 91
        0
  0
ACDSSCHEMA
 90
        2
  1
AcDbDs::LegacySchema
  2
AcDbDs::Legacy
280
     1
 91
        0
  0
ACDSSCHEMA
 90
        3
  1
AcDbDs::IndexedPropertySchema
  2
AcDs:Indexable
280
     1
 91
        0
  0
ACDSSCHEMA
 90
        4
  1
AcDbDs::HandleAttributeSchema
  2
AcDbDs::HandleAttribute
280
     7
 91
        1
284
     1
  0
ACDSRECORD
 90
        0
  2
AcDbDs::ID
280
    10
320
73
  2
Thumbnail_Data
280
    15
 94
     1183
310
89504E470D0A1A0A0000000D494844520000010000000084080300000048FA052E00000300504C5445212830000000C8C8C80000000000000000000000000000000000000000000000000000330000660000990000CC0000FF0033000033330033660033990033CC0033FF0066000066330066660066990066CC0066FF0099
310
000099330099660099990099CC0099FF00CC0000CC3300CC6600CC9900CCCC00CCFF00FF0000FF3300FF6600FF9900FFCC00FFFF3300003300333300663300993300CC3300FF3333003333333333663333993333CC3333FF3366003366333366663366993366CC3366FF3399003399333399663399993399CC3399FF33CC00
310
33CC3333CC6633CC9933CCCC33CCFF33FF0033FF3333FF6633FF9933FFCC33FFFF6600006600336600666600996600CC6600FF6633006633336633666633996633CC6633FF6666006666336666666666996666CC6666FF6699006699336699666699996699CC6699FF66CC0066CC3366CC6666CC9966CCCC66CCFF66FF0066
310
FF3366FF6666FF9966FFCC66FFFF9900009900339900669900999900CC9900FF9933009933339933669933999933CC9933FF9966009966339966669966999966CC9966FF9999009999339999669999999999CC9999FF99CC0099CC3399CC6699CC9999CCCC99CCFF99FF0099FF3399FF6699FF9999FFCC99FFFFCC0000CC00
310
33CC0066CC0099CC00CCCC00FFCC3300CC3333CC3366CC3399CC33CCCC33FFCC6600CC6633CC6666CC6699CC66CCCC66FFCC9900CC9933CC9966CC9999CC99CCCC99FFCCCC00CCCC33CCCC66CCCC99CCCCCCCCCCFFCCFF00CCFF33CCFF66CCFF99CCFFCCCCFFFFFF0000FF0033FF0066FF0099FF00CCFF00FFFF3300FF3333
310
FF3366FF3399FF33CCFF33FFFF6600FF6633FF6666FF6699FF66CCFF66FFFF9900FF9933FF9966FF9999FF99CCFF99FFFFCC00FFCC33FFCC66FFCC99FFCCCCFFCCFFFFFF00FFFF33FFFF66FFFF99FFFFCCFFFFFF0000000D0D0D1A1A1A2828283535354343435050505D5D5D6B6B6B787878868686939393A1A1A1AEAEAEBB
310
BBBBC9C9C9D6D6D6E4E4E4F1F1F1FFFFFF000000000000000000000000000000000000000000000000000000000000B21171F60000015A4944415478DAEDDDCB6E8330100550FEFF7F675F3528942604B2F130F29CB3AA58C4F8E20718E42E0B65C546005D0378E6B0744EA071FD05D03E80DF045AD75F004BBF39305E1C1D
310
E954FF235A80310000000000000000000000000000000000000000F84EFB7DFD6E09A0D21692779C4BA94D34F7DB7BB60D20B52554DB4935F97CDE76952DD202B2CEA6E076C2EB36DF91B3DBFBA3A46211C46E10C8A9FE7EC0590FD5B80F181EC0A3AA5B69FB0B50633E181DC0DACD8ECB8D2601C4E79E317F0027D7B9CE0D
310
810046FEFC4947EF10405C0410D30770F6DC5D631E181EC08D3350892E2080D601C46500D139808865FE00AE660101CC3F08760FA0F99DE0D9AD608D06E06970F882C8A7CB5CA40158114A58143D2CA1CC4BB29C65F1F8E2D8BC01BC5FEDA8B32A9EF14416FF5EC13DFF2EF4A1404219AF2FC60A7DA192D317D72A6F75AFF4
310
814ED660F4D70A8A7D9F94371A37FD47B3C97E00B51974E4D7294F380000000049454E44AE426082
  0
ENDSEC
  0
EOF
