  0
SECTION
  2
HEADER
  9
$ACADVER
  1
AC1027
  9
$ACADMAINTVER
 70
   105
  9
$DWGCODEPAGE
  3
ANSI_1252
  9
$LASTSAVEDBY
  1
Ibrahim
  9
$REQUIREDVERSIONS
160
                 0
  9
$INSBASE
 10
0.0
 20
0.0
 30
0.0
  9
$EXTMIN
 10
-11.46972629645546
 20
-3.881835662622563
 30
-0.0000000000022887
  9
$EXTMAX
 10
1.875000169821134
 20
15.28564471668261
 30
0.0000000000000001
  9
$LIMMIN
 10
0.0
 20
0.0
  9
$LIMMAX
 10
12.0
 20
9.0
  9
$ORTHOMODE
 70
     1
  9
$REGENMODE
 70
     1
  9
$FILLMODE
 70
     1
  9
$QTEXTMODE
 70
     0
  9
$MIRRTEXT
 70
     0
  9
$LTSCALE
 40
1.0
  9
$ATTMODE
 70
     1
  9
$TEXTSIZE
 40
0.2
  9
$TRACEWID
 40
0.05
  9
$TEXTSTYLE
  7
Standard
  9
$CLAYER
  8
D35160527
  9
$CELTYPE
  6
ByLayer
  9
$CECOLOR
 62
   256
  9
$CELTSCALE
 40
1.0
  9
$DISPSILH
 70
     0
  9
$DIMSCALE
 40
1.0
  9
$DIMASZ
 40
0.18
  9
$DIMEXO
 40
0.0625
  9
$DIMDLI
 40
0.38
  9
$DIMRND
 40
0.0
  9
$DIMDLE
 40
0.0
  9
$DIMEXE
 40
0.18
  9
$DIMTP
 40
0.0
  9
$DIMTM
 40
0.0
  9
$DIMTXT
 40
0.18
  9
$DIMCEN
 40
0.09
  9
$DIMTSZ
 40
0.0
  9
$DIMTOL
 70
     0
  9
$DIMLIM
 70
     0
  9
$DIMTIH
 70
     1
  9
$DIMTOH
 70
     1
  9
$DIMSE1
 70
     0
  9
$DIMSE2
 70
     0
  9
$DIMTAD
 70
     0
  9
$DIMZIN
 70
     0
  9
$DIMBLK
  1

  9
$DIMASO
 70
     1
  9
$DIMSHO
 70
     1
  9
$DIMPOST
  1

  9
$DIMAPOST
  1

  9
$DIMALT
 70
     0
  9
$DIMALTD
 70
     2
  9
$DIMALTF
 40
25.4
  9
$DIMLFAC
 40
1.0
  9
$DIMTOFL
 70
     0
  9
$DIMTVP
 40
0.0
  9
$DIMTIX
 70
     0
  9
$DIMSOXD
 70
     0
  9
$DIMSAH
 70
     0
  9
$DIMBLK1
  1

  9
$DIMBLK2
  1

  9
$DIMSTYLE
  2
Standard
  9
$DIMCLRD
 70
     0
  9
$DIMCLRE
 70
     0
  9
$DIMCLRT
 70
     0
  9
$DIMTFAC
 40
1.0
  9
$DIMGAP
 40
0.09
  9
$DIMJUST
 70
     0
  9
$DIMSD1
 70
     0
  9
$DIMSD2
 70
     0
  9
$DIMTOLJ
 70
     1
  9
$DIMTZIN
 70
     0
  9
$DIMALTZ
 70
     0
  9
$DIMALTTZ
 70
     0
  9
$DIMUPT
 70
     0
  9
$DIMDEC
 70
     4
  9
$DIMTDEC
 70
     4
  9
$DIMALTU
 70
     4
  9
$DIMALTTD
 70
     2
  9
$DIMTXSTY
  7
Standard
  9
$DIMAUNIT
 70
     0
  9
$DIMADEC
 70
     0
  9
$DIMALTRND
 40
0.0
  9
$DIMAZIN
 70
     0
  9
$DIMDSEP
 70
    46
  9
$DIMATFIT
 70
     3
  9
$DIMFRAC
 70
     0
  9
$DIMLDRBLK
  1

  9
$DIMLUNIT
 70
     4
  9
$DIMLWD
 70
    -2
  9
$DIMLWE
 70
    -2
  9
$DIMTMOVE
 70
     0
  9
$DIMFXL
 40
1.0
  9
$DIMFXLON
 70
     0
  9
$DIMJOGANG
 40
0.7853981633974483
  9
$DIMTFILL
 70
     0
  9
$DIMTFILLCLR
 70
     0
  9
$DIMARCSYM
 70
     0
  9
$DIMLTYPE
  6

  9
$DIMLTEX1
  6

  9
$DIMLTEX2
  6

  9
$DIMTXTDIRECTION
 70
     0
  9
$LUNITS
 70
     4
  9
$LUPREC
 70
     4
  9
$SKETCHINC
 40
0.1
  9
$FILLETRAD
 40
0.0
  9
$AUNITS
 70
     0
  9
$AUPREC
 70
     0
  9
$MENU
  1
.
  9
$ELEVATION
 40
0.0
  9
$PELEVATION
 40
0.0
  9
$THICKNESS
 40
0.0
  9
$LIMCHECK
 70
     0
  9
$CHAMFERA
 40
0.0
  9
$CHAMFERB
 40
0.0
  9
$CHAMFERC
 40
0.0
  9
$CHAMFERD
 40
0.0
  9
$SKPOLY
 70
     0
  9
$TDCREATE
 40
2458418.389407801
  9
$TDUCREATE
 40
2458418.556074468
  9
$TDUPDATE
 40
2458425.371398368
  9
$TDUUPDATE
 40
2458425.538065035
  9
$TDINDWG
 40
0.0172291204
  9
$TDUSRTIMER
 40
0.0172291204
  9
$USRTIMER
 70
     1
  9
$ANGBASE
 50
0.0
  9
$ANGDIR
 70
     0
  9
$PDMODE
 70
     0
  9
$PDSIZE
 40
0.0
  9
$PLINEWID
 40
0.0
  9
$SPLFRAME
 70
     0
  9
$SPLINETYPE
 70
     6
  9
$SPLINESEGS
 70
     8
  9
$HANDSEED
  5
81A
  9
$SURFTAB1
 70
     6
  9
$SURFTAB2
 70
     6
  9
$SURFTYPE
 70
     6
  9
$SURFU
 70
     6
  9
$SURFV
 70
     6
  9
$UCSBASE
  2

  9
$UCSNAME
  2

  9
$UCSORG
 10
0.0
 20
0.0
 30
0.0
  9
$UCSXDIR
 10
1.0
 20
0.0
 30
0.0
  9
$UCSYDIR
 10
0.0
 20
1.0
 30
0.0
  9
$UCSORTHOREF
  2

  9
$UCSORTHOVIEW
 70
     0
  9
$UCSORGTOP
 10
0.0
 20
0.0
 30
0.0
  9
$UCSORGBOTTOM
 10
0.0
 20
0.0
 30
0.0
  9
$UCSORGLEFT
 10
0.0
 20
0.0
 30
0.0
  9
$UCSORGRIGHT
 10
0.0
 20
0.0
 30
0.0
  9
$UCSORGFRONT
 10
0.0
 20
0.0
 30
0.0
  9
$UCSORGBACK
 10
0.0
 20
0.0
 30
0.0
  9
$PUCSBASE
  2

  9
$PUCSNAME
  2

  9
$PUCSORG
 10
0.0
 20
0.0
 30
0.0
  9
$PUCSXDIR
 10
1.0
 20
0.0
 30
0.0
  9
$PUCSYDIR
 10
0.0
 20
1.0
 30
0.0
  9
$PUCSORTHOREF
  2

  9
$PUCSORTHOVIEW
 70
     0
  9
$PUCSORGTOP
 10
0.0
 20
0.0
 30
0.0
  9
$PUCSORGBOTTOM
 10
0.0
 20
0.0
 30
0.0
  9
$PUCSORGLEFT
 10
0.0
 20
0.0
 30
0.0
  9
$PUCSORGRIGHT
 10
0.0
 20
0.0
 30
0.0
  9
$PUCSORGFRONT
 10
0.0
 20
0.0
 30
0.0
  9
$PUCSORGBACK
 10
0.0
 20
0.0
 30
0.0
  9
$USERI1
 70
     0
  9
$USERI2
 70
     0
  9
$USERI3
 70
     0
  9
$USERI4
 70
     0
  9
$USERI5
 70
     0
  9
$USERR1
 40
0.0
  9
$USERR2
 40
0.0
  9
$USERR3
 40
0.0
  9
$USERR4
 40
0.0
  9
$USERR5
 40
0.0
  9
$WORLDVIEW
 70
     1
  9
$SHADEDGE
 70
     3
  9
$SHADEDIF
 70
    70
  9
$TILEMODE
 70
     1
  9
$MAXACTVP
 70
    64
  9
$PINSBASE
 10
0.0
 20
0.0
 30
0.0
  9
$PLIMCHECK
 70
     0
  9
$PEXTMIN
 10
1.000000000000000E+20
 20
1.000000000000000E+20
 30
1.000000000000000E+20
  9
$PEXTMAX
 10
-1.000000000000000E+20
 20
-1.000000000000000E+20
 30
-1.000000000000000E+20
  9
$PLIMMIN
 10
0.0
 20
0.0
  9
$PLIMMAX
 10
12.0
 20
9.0
  9
$UNITMODE
 70
     0
  9
$VISRETAIN
 70
     1
  9
$PLINEGEN
 70
     0
  9
$PSLTSCALE
 70
     1
  9
$TREEDEPTH
 70
  3020
  9
$CMLSTYLE
  2
Standard
  9
$CMLJUST
 70
     0
  9
$CMLSCALE
 40
1.0
  9
$PROXYGRAPHICS
 70
     1
  9
$MEASUREMENT
 70
     0
  9
$CELWEIGHT
370
    -1
  9
$ENDCAPS
280
     0
  9
$JOINSTYLE
280
     0
  9
$LWDISPLAY
290
     0
  9
$INSUNITS
 70
     1
  9
$HYPERLINKBASE
  1

  9
$STYLESHEET
  1

  9
$XEDIT
290
     1
  9
$CEPSNTYPE
380
     0
  9
$PSTYLEMODE
290
     1
  9
$FINGERPRINTGUID
  2
{8C73BF26-7DED-4BB4-95A5-45879B6FE0BF}
  9
$VERSIONGUID
  2
{98030E80-4F06-44CC-A96C-49BC1D46F397}
  9
$EXTNAMES
290
     1
  9
$PSVPSCALE
 40
0.0
  9
$OLESTARTUP
290
     0
  9
$SORTENTS
280
   127
  9
$INDEXCTL
280
     0
  9
$HIDETEXT
280
     1
  9
$XCLIPFRAME
280
     2
  9
$HALOGAP
280
     0
  9
$OBSCOLOR
 70
   257
  9
$OBSLTYPE
280
     0
  9
$INTERSECTIONDISPLAY
280
     0
  9
$INTERSECTIONCOLOR
 70
   257
  9
$DIMASSOC
280
     2
  9
$PROJECTNAME
  1

  9
$CAMERADISPLAY
290
     0
  9
$LENSLENGTH
 40
50.0
  9
$CAMERAHEIGHT
 40
0.0
  9
$STEPSPERSEC
 40
2.0
  9
$STEPSIZE
 40
6.0
  9
$3DDWFPREC
 40
2.0
  9
$PSOLWIDTH
 40
0.25
  9
$PSOLHEIGHT
 40
4.0
  9
$LOFTANG1
 40
1.570796326794896
  9
$LOFTANG2
 40
1.570796326794896
  9
$LOFTMAG1
 40
0.0
  9
$LOFTMAG2
 40
0.0
  9
$LOFTPARAM
 70
     7
  9
$LOFTNORMALS
280
     1
  9
$LATITUDE
 40
0.0
  9
$LONGITUDE
 40
0.0
  9
$NORTHDIRECTION
 40
0.0
  9
$TIMEZONE
 70
     0
  9
$LIGHTGLYPHDISPLAY
280
     1
  9
$TILEMODELIGHTSYNCH
280
     1
  9
$CMATERIAL
347
11
  9
$SOLIDHIST
280
     0
  9
$SHOWHIST
280
     1
  9
$DWFFRAME
280
     2
  9
$DGNFRAME
280
     0
  9
$REALWORLDSCALE
290
     1
  9
$INTERFERECOLOR
 62
     1
  9
$INTERFEREOBJVS
345
33
  9
$INTERFEREVPVS
346
30
  9
$CSHADOW
280
     0
  9
$SHADOWPLANELOCATION
 40
0.0
  0
ENDSEC
  0
SECTION
  2
CLASSES
  0
CLASS
  1
ACDBDICTIONARYWDFLT
  2
AcDbDictionaryWithDefault
  3
ObjectDBX Classes
 90
        0
 91
        1
280
     0
281
     0
  0
CLASS
  1
MATERIAL
  2
AcDbMaterial
  3
ObjectDBX Classes
 90
     1153
 91
        3
280
     0
281
     0
  0
CLASS
  1
VISUALSTYLE
  2
AcDbVisualStyle
  3
ObjectDBX Classes
 90
     4095
 91
       24
280
     0
281
     0
  0
CLASS
  1
SCALE
  2
AcDbScale
  3
ObjectDBX Classes
 90
     1153
 91
       17
280
     0
281
     0
  0
CLASS
  1
TABLESTYLE
  2
AcDbTableStyle
  3
ObjectDBX Classes
 90
     4095
 91
        1
280
     0
281
     0
  0
CLASS
  1
MLEADERSTYLE
  2
AcDbMLeaderStyle
  3
ACDB_MLEADERSTYLE_CLASS
 90
     4095
 91
        1
280
     0
281
     0
  0
CLASS
  1
ACDBSECTIONVIEWSTYLE
  2
AcDbSectionViewStyle
  3
ObjectDBX Classes
 90
     1025
 91
        1
280
     0
281
     0
  0
CLASS
  1
ACDBDETAILVIEWSTYLE
  2
AcDbDetailViewStyle
  3
ObjectDBX Classes
 90
     1025
 91
        1
280
     0
281
     0
  0
CLASS
  1
RASTERVARIABLES
  2
AcDbRasterVariables
  3
ISM
 90
        0
 91
        1
280
     0
281
     0
  0
CLASS
  1
DICTIONARYVAR
  2
AcDbDictionaryVar
  3
ObjectDBX Classes
 90
        0
 91
        5
280
     0
281
     0
  0
CLASS
  1
SORTENTSTABLE
  2
AcDbSortentsTable
  3
ObjectDBX Classes
 90
        0
 91
        3
280
     0
281
     0
  0
CLASS
  1
CELLSTYLEMAP
  2
AcDbCellStyleMap
  3
ObjectDBX Classes
 90
     1152
 91
        1
280
     0
281
     0
  0
ENDSEC
  0
SECTION
  2
TABLES
  0
TABLE
  2
VPORT
  5
8
330
0
100
AcDbSymbolTable
 70
     1
  0
VPORT
  5
57
330
8
100
AcDbSymbolTableRecord
100
AcDbViewportTableRecord
  2
*Active
 70
     0
 10
0.0
 20
0.0
 11
1.0
 21
1.0
 12
0.2651368517722679
 22
5.701904527030023
 13
0.0
 23
0.0
 14
1.0
 24
1.0
 15
0.0
 25
0.0
 16
0.0
 26
0.0
 36
1.0
 17
0.0
 27
0.0
 37
0.0
 40
19.32205683397699
 41
1.927321668909824
 42
50.0
 43
0.0
 44
0.0
 50
0.0
 51
0.0
 71
     0
 72
  1000
 73
     1
 74
     1
 75
     0
 76
     0
 77
     0
 78
     0
281
     0
 65
     1
110
0.0
120
0.0
130
0.0
111
1.0
121
0.0
131
0.0
112
0.0
122
1.0
132
0.0
 79
     0
146
0.0
348
2F
 60
     3
 61
     5
292
     1
282
     1
141
0.0
142
0.0
 63
   250
421
  3355443
1001
ACAD_NAV_VCDISPLAY
1070
     3
  0
ENDTAB
  0
TABLE
  2
LTYPE
  5
5
330
0
100
AcDbSymbolTable
 70
     1
  0
LTYPE
  5
5B
330
5
100
AcDbSymbolTableRecord
100
AcDbLinetypeTableRecord
  2
ByBlock
 70
     0
  3

 72
    65
 73
     0
 40
0.0
  0
LTYPE
  5
5C
330
5
100
AcDbSymbolTableRecord
100
AcDbLinetypeTableRecord
  2
ByLayer
 70
     0
  3

 72
    65
 73
     0
 40
0.0
  0
LTYPE
  5
5D
330
5
100
AcDbSymbolTableRecord
100
AcDbLinetypeTableRecord
  2
Continuous
 70
     0
  3
Solid line
 72
    65
 73
     0
 40
0.0
  0
ENDTAB
  0
TABLE
  2
LAYER
  5
2
102
{ACAD_XDICTIONARY
360
802
102
}
330
0
100
AcDbSymbolTable
 70
     4
  0
LAYER
  5
54
330
2
100
AcDbSymbolTableRecord
100
AcDbLayerTableRecord
  2
0
 70
     0
 62
     7
  6
Continuous
370
    -3
390
F
347
21
348
0
  0
LAYER
  5
86
330
2
100
AcDbSymbolTableRecord
100
AcDbLayerTableRecord
  2
D35160527
 70
     0
 62
     7
  6
Continuous
370
     9
390
F
347
21
348
0
  0
ENDTAB
  0
TABLE
  2
STYLE
  5
3
330
0
100
AcDbSymbolTable
 70
     3
  0
STYLE
  5
55
330
3
100
AcDbSymbolTableRecord
100
AcDbTextStyleTableRecord
  2
Standard
 70
     0
 40
0.0
 41
1.0
 50
0.0
 71
     0
 42
0.2
  3
txt
  4

  0
ENDTAB
  0
TABLE
  2
VIEW
  5
6
330
0
100
AcDbSymbolTable
 70
     2
  0
ENDTAB
  0
TABLE
  2
UCS
  5
7
330
0
100
AcDbSymbolTable
 70
     0
  0
ENDTAB
  0
TABLE
  2
APPID
  5
9
330
0
100
AcDbSymbolTable
 70
     4
  0
APPID
  5
56
330
9
100
AcDbSymbolTableRecord
100
AcDbRegAppTableRecord
  2
ACAD
 70
     0
  0
APPID
  5
5E
330
9
100
AcDbSymbolTableRecord
100
AcDbRegAppTableRecord
  2
AcadAnnotative
 70
     0
  0
APPID
  5
78
330
9
100
AcDbSymbolTableRecord
100
AcDbRegAppTableRecord
  2
REVIT
 70
     0
  0
APPID
  5
11B
330
9
100
AcDbSymbolTableRecord
100
AcDbRegAppTableRecord
  2
ACAD_NAV_VCDISPLAY
 70
     0
  0
ENDTAB
  0
TABLE
  2
DIMSTYLE
  5
A
330
0
100
AcDbSymbolTable
 70
     2
100
AcDbDimStyleTable
 71
     0
  0
DIMSTYLE
105
58
330
A
100
AcDbSymbolTableRecord
100
AcDbDimStyleTableRecord
  2
Standard
 70
     0
340
55
  0
ENDTAB
  0
TABLE
  2
BLOCK_RECORD
  5
1
330
0
100
AcDbSymbolTable
 70
     8
  0
BLOCK_RECORD
  5
70
102
{ACAD_XDICTIONARY
360
107
102
}
330
1
100
AcDbSymbolTableRecord
100
AcDbBlockTableRecord
  2
*Model_Space
340
73
 70
     0
280
     1
281
     0
  0
BLOCK_RECORD
  5
6C
330
1
100
AcDbSymbolTableRecord
100
AcDbBlockTableRecord
  2
*Paper_Space
340
6F
 70
     0
280
     1
281
     0
  0
BLOCK_RECORD
  5
74
330
1
100
AcDbSymbolTableRecord
100
AcDbBlockTableRecord
  2
*Paper_Space0
340
77
 70
     0
280
     1
281
     0
  0
BLOCK_RECORD
  5
53F
330
1
100
AcDbSymbolTableRecord
100
AcDbBlockTableRecord
  2
D35160527 Front View
340
0
310
28000000200000002000000001002000000000000010000001000000010000000000000000000000302821FF302821FF302821FF302821FF302821FF302821FF302821FF302821FF302821FF302821FF302821FF302821FF302821FF302821FF302821FF302821FF302821FF302821FF302821FF302821FF302821FF302821
310
FF302821FF302821FF302821FF302821FF302821FF302821FF302821FF302821FF302821FF302821FF302821FF302821FF302821FF302821FF302821FF302821FF302821FF302821FF302821FF302821FF302821FF302821FF302821FF302821FF302821FFFFFFFFFFFFFFFFFFFFFFFFFF302821FF302821FF302821FF3028
310
21FF302821FF302821FF302821FF302821FF302821FF302821FF302821FF302821FF302821FF302821FF302821FF302821FF302821FF302821FF302821FF302821FF302821FF302821FF302821FF302821FF302821FF302821FFFFFFFFFFFFFFFFFFFFFFFFFFFFFFFFFFFFFFFFFFFFFFFFFFFFFFFFFFFFFFFFFF302821FF30
310
2821FF302821FF302821FF302821FF302821FF302821FF302821FF302821FF302821FF302821FF302821FF302821FF302821FF302821FF302821FF302821FF302821FF302821FF302821FF302821FF302821FF302821FFFFFFFFFFFFFFFFFF302821FFFFFFFFFFFFFFFFFFFFFFFFFFFFFFFFFF302821FFFFFFFFFFFFFFFFFF
310
302821FF302821FF302821FF302821FF302821FF302821FF302821FF302821FF302821FF302821FF302821FF302821FF302821FF302821FF302821FF302821FF302821FF302821FF302821FF302821FF302821FFFFFFFFFFFFFFFFFFFFFFFFFFFFFFFFFF302821FFFFFFFFFFFFFFFFFF302821FFFFFFFFFFFFFFFFFF302821
310
FFFFFFFFFF302821FF302821FF302821FF302821FF302821FF302821FF302821FF302821FF302821FF302821FF302821FF302821FF302821FF302821FF302821FF302821FF302821FF302821FF302821FFFFFFFFFFFFFFFFFF302821FFFFFFFFFFFFFFFFFFFFFFFFFFFFFFFFFFFFFFFFFFFFFFFFFFFFFFFFFFFFFFFFFF3028
310
21FFFFFFFFFFFFFFFFFF302821FF302821FF302821FF302821FF302821FF302821FF302821FF302821FF302821FF302821FF302821FF302821FF302821FF302821FF302821FF302821FF302821FF302821FFFFFFFFFF302821FFFFFFFFFFFFFFFFFFFFFFFFFFFFFFFFFFFFFFFFFFFFFFFFFFFFFFFFFFFFFFFFFFFFFFFFFFFF
310
FFFFFF302821FFFFFFFFFF302821FF302821FF302821FF302821FF302821FF302821FF302821FF302821FF302821FF302821FF302821FF302821FF302821FF302821FF302821FF302821FF302821FF302821FFFFFFFFFFFFFFFFFF302821FFFFFFFFFFFFFFFFFFFFFFFFFFFFFFFFFF302821FFFFFFFFFFFFFFFFFFFFFFFFFF
310
302821FFFFFFFFFFFFFFFFFF302821FF302821FF302821FF302821FF302821FF302821FF302821FF302821FF302821FF302821FF302821FF302821FF302821FF302821FF302821FF302821FF302821FF302821FFFFFFFFFFFFFFFFFF302821FFFFFFFFFFFFFFFFFFFFFFFFFF302821FF302821FFFFFFFFFFFFFFFFFFFFFFFF
310
FF302821FFFFFFFFFFFFFFFFFF302821FF302821FF302821FF302821FF302821FF302821FF302821FF302821FF302821FF302821FF302821FF302821FF302821FF302821FF302821FF302821FF302821FF302821FFFFFFFFFFFFFFFFFF302821FFFFFFFFFFFFFFFFFFFFFFFFFF302821FF302821FFFFFFFFFFFFFFFFFFFFFF
310
FFFF302821FFFFFFFFFFFFFFFFFF302821FF302821FF302821FF302821FF302821FF302821FF302821FF302821FF302821FF302821FF302821FF302821FF302821FF302821FF302821FF302821FF302821FF302821FFFFFFFFFFFFFFFFFF302821FFFFFFFFFFFFFFFFFFFFFFFFFFFFFFFFFFFFFFFFFFFFFFFFFFFFFFFFFFFF
310
FFFFFF302821FFFFFFFFFFFFFFFFFF302821FF302821FF302821FF302821FF302821FF302821FF302821FF302821FF302821FF302821FF302821FF302821FF302821FF302821FF302821FF302821FF302821FF302821FFFFFFFFFFFFFFFFFF302821FF302821FFFFFFFFFFFFFFFFFFFFFFFFFFFFFFFFFFFFFFFFFFFFFFFFFF
310
302821FF302821FFFFFFFFFFFFFFFFFF302821FF302821FF302821FF302821FF302821FF302821FF302821FF302821FF302821FF302821FF302821FF302821FF302821FF302821FF302821FF302821FF302821FF302821FFFFFFFFFFFFFFFFFF302821FF302821FF302821FFFFFFFFFFFFFFFFFFFFFFFFFFFFFFFFFF302821
310
FF302821FF302821FFFFFFFFFFFFFFFFFF302821FF302821FF302821FF302821FF302821FF302821FF302821FF302821FF302821FF302821FF302821FF302821FF302821FF302821FF302821FF302821FF302821FF302821FFFFFFFFFFFFFFFFFF302821FF302821FF302821FF302821FF302821FF302821FF302821FF3028
310
21FF302821FF302821FFFFFFFFFFFFFFFFFF302821FF302821FF302821FF302821FF302821FF302821FF302821FF302821FF302821FF302821FF302821FF302821FF302821FF302821FF302821FF302821FF302821FF302821FFFFFFFFFFFFFFFFFF302821FF302821FF302821FF302821FF302821FF302821FF302821FF30
310
2821FF302821FF302821FFFFFFFFFFFFFFFFFF302821FF302821FF302821FF302821FF302821FF302821FF302821FF302821FF302821FF302821FF302821FF302821FF302821FF302821FF302821FF302821FF302821FF302821FFFFFFFFFFFFFFFFFF302821FF302821FF302821FF302821FF302821FF302821FF302821FF
310
302821FF302821FF302821FFFFFFFFFFFFFFFFFF302821FF302821FF302821FF302821FF302821FF302821FF302821FF302821FF302821FF302821FF302821FF302821FF302821FF302821FF302821FF302821FF302821FF302821FFFFFFFFFFFFFFFFFF302821FF302821FF302821FF302821FFFFFFFFFFFFFFFFFF302821
310
FF302821FF302821FF302821FFFFFFFFFFFFFFFFFF302821FF302821FF302821FF302821FF302821FF302821FF302821FF302821FF302821FF302821FF302821FF302821FF302821FF302821FF302821FF302821FF302821FF302821FFFFFFFFFFFFFFFFFF302821FF302821FF302821FF302821FFFFFFFFFFFFFFFFFF3028
310
21FF302821FF302821FF302821FFFFFFFFFFFFFFFFFF302821FF302821FF302821FF302821FF302821FF302821FF302821FF302821FF302821FF302821FF302821FF302821FF302821FF302821FF302821FF302821FF302821FF302821FFFFFFFFFFFFFFFFFF302821FF302821FF302821FF302821FFFFFFFFFFFFFFFFFF30
310
2821FF302821FF302821FF302821FFFFFFFFFFFFFFFFFF302821FF302821FF302821FF302821FF302821FF302821FF302821FF302821FF302821FF302821FF302821FF302821FF302821FF302821FF302821FF302821FF302821FF302821FFFFFFFFFFFFFFFFFF302821FF302821FFFFFFFFFFFFFFFFFFFFFFFFFFFFFFFFFF
310
FFFFFFFFFFFFFFFF302821FF302821FFFFFFFFFFFFFFFFFF302821FF302821FF302821FF302821FF302821FF302821FF302821FF302821FF302821FF302821FF302821FF302821FF302821FF302821FF302821FF302821FF302821FF302821FFFFFFFFFFFFFFFFFF302821FF302821FFFFFFFFFFFFFFFFFFFFFFFFFFFFFFFF
310
FFFFFFFFFFFFFFFFFFFFFFFFFF302821FFFFFFFFFFFFFFFFFF302821FF302821FF302821FF302821FF302821FF302821FF302821FF302821FF302821FF302821FF302821FF302821FF302821FF302821FF302821FF302821FF302821FF302821FFFFFFFFFFFFFFFFFF302821FFFFFFFFFFFFFFFFFFFFFFFFFFFFFFFFFFFFFF
310
FFFFFFFFFFFFFFFFFFFFFFFFFFFF302821FFFFFFFFFFFFFFFFFF302821FF302821FF302821FF302821FF302821FF302821FF302821FF302821FF302821FF302821FF302821FF302821FF302821FF302821FF302821FF302821FF302821FF302821FFFFFFFFFFFFFFFFFF302821FFFFFFFFFFFFFFFFFFFFFFFFFF302821FF30
310
2821FFFFFFFFFFFFFFFFFFFFFFFFFF302821FFFFFFFFFFFFFFFFFF302821FF302821FF302821FF302821FF302821FF302821FF302821FF302821FF302821FF302821FF302821FF302821FF302821FF302821FF302821FF302821FF302821FF302821FFFFFFFFFFFFFFFFFF302821FFFFFFFFFFFFFFFFFFFFFFFFFF302821FF
310
302821FFFFFFFFFFFFFFFFFFFFFFFFFF302821FFFFFFFFFFFFFFFFFF302821FF302821FF302821FF302821FF302821FF302821FF302821FF302821FF302821FF302821FF302821FF302821FF302821FF302821FF302821FF302821FF302821FF302821FFFFFFFFFFFFFFFFFF302821FFFFFFFFFFFFFFFFFFFFFFFFFFFFFFFF
310
FF302821FFFFFFFFFFFFFFFFFFFFFFFFFF302821FFFFFFFFFFFFFFFFFF302821FF302821FF302821FF302821FF302821FF302821FF302821FF302821FF302821FF302821FF302821FF302821FF302821FF302821FF302821FF302821FF302821FF302821FFFFFFFFFF302821FFFFFFFFFFFFFFFFFFFFFFFFFFFFFFFFFFFFFF
310
FFFFFFFFFFFFFFFFFFFFFFFFFFFFFFFFFFFFFFFFFFFF302821FFFFFFFFFF302821FF302821FF302821FF302821FF302821FF302821FF302821FF302821FF302821FF302821FF302821FF302821FF302821FF302821FF302821FF302821FF302821FF302821FFFFFFFFFFFFFFFFFFFFFFFFFFFFFFFFFFFFFFFFFFFFFFFFFFFF
310
FFFFFFFFFFFFFFFFFFFFFFFFFFFFFFFFFFFFFFFFFFFFFFFFFFFFFFFFFFFFFF302821FF302821FF302821FF302821FF302821FF302821FF302821FF302821FF302821FF302821FF302821FF302821FF302821FF302821FF302821FF302821FF302821FF302821FF302821FFFFFFFFFF302821FF302821FFFFFFFFFFFFFFFFFF
310
FFFFFFFFFFFFFFFFFFFFFFFFFFFFFFFF302821FFFFFFFFFFFFFFFFFF302821FF302821FF302821FF302821FF302821FF302821FF302821FF302821FF302821FF302821FF302821FF302821FF302821FF302821FF302821FF302821FF302821FF302821FF302821FF302821FF302821FFFFFFFFFFFFFFFFFF302821FFFFFFFF
310
FFFFFFFFFFFFFFFFFFFFFFFFFF302821FFFFFFFFFFFFFFFFFF302821FF302821FF302821FF302821FF302821FF302821FF302821FF302821FF302821FF302821FF302821FF302821FF302821FF302821FF302821FF302821FF302821FF302821FF302821FF302821FF302821FF302821FF302821FFFFFFFFFFFFFFFFFFFFFF
310
FFFF302821FF302821FFFFFFFFFFFFFFFFFFFFFFFFFF302821FF302821FF302821FF302821FF302821FF302821FF302821FF302821FF302821FF302821FF302821FF302821FF302821FF302821FF302821FF302821FF302821FF302821FF302821FF302821FF302821FF302821FF302821FF302821FF302821FF302821FFFF
310
FFFFFFFFFFFFFFFFFFFFFF302821FF302821FF302821FF302821FF302821FF302821FF302821FF302821FF302821FF302821FF302821FF302821FF302821FF302821FF302821FF302821FF302821FF302821FF302821FF302821FF302821FF302821FF302821FF302821FF302821FF302821FF302821FF302821FF302821FF
310
302821FF302821FF302821FF302821FF302821FF302821FF302821FF302821FF302821FF302821FF302821FF302821FF302821FF302821FF302821FF302821FF302821FF302821FF
102
{BLKREFS
331
645
102
}
 70
     1
280
     1
281
     1
  0
BLOCK_RECORD
  5
646
330
1
100
AcDbSymbolTableRecord
100
AcDbBlockTableRecord
  2
D35160527 Top View
340
0
310
28000000200000002000000001002000000000000010000001000000010000000000000000000000302821FF302821FF302821FF302821FF302821FF302821FF302821FF302821FF302821FF302821FF302821FF302821FF302821FF302821FF302821FF302821FF302821FF302821FF302821FF302821FF302821FF302821
310
FF302821FF302821FF302821FF302821FF302821FF302821FF302821FF302821FF302821FF302821FF302821FF302821FF302821FF302821FF302821FF302821FF302821FF302821FF302821FF302821FF302821FF302821FF302821FF302821FF302821FF302821FF302821FF302821FF302821FF302821FF302821FF3028
310
21FF302821FF302821FF302821FF302821FF302821FF302821FF302821FF302821FF302821FF302821FF302821FF302821FF302821FF302821FF302821FF302821FF302821FF302821FF302821FF302821FF302821FF302821FF302821FF302821FF302821FF302821FF302821FF302821FF302821FF302821FF302821FF30
310
2821FF302821FF302821FF302821FF302821FF302821FF302821FF302821FF302821FF302821FF302821FF302821FF302821FF302821FF302821FF302821FF302821FF302821FF302821FF302821FF302821FF302821FF302821FF302821FF302821FF302821FF302821FF302821FF302821FF302821FF302821FF302821FF
310
302821FF302821FF302821FF302821FF302821FF302821FF302821FF302821FF302821FF302821FF302821FF302821FF302821FF302821FF302821FF302821FF302821FF302821FF302821FF302821FF302821FF302821FF302821FF302821FF302821FF302821FF302821FF302821FF302821FF302821FF302821FF302821
310
FF302821FF302821FF302821FF302821FF302821FF302821FF302821FF302821FF302821FF302821FF302821FF302821FF302821FF302821FF302821FF302821FF302821FF302821FF302821FF302821FF302821FF302821FF302821FF302821FFFFFFFFFFFFFFFFFFFFFFFFFFFFFFFFFFFFFFFFFFFFFFFFFF302821FF3028
310
21FF302821FF302821FF302821FF302821FF302821FF302821FF302821FF302821FF302821FF302821FF302821FF302821FF302821FF302821FF302821FF302821FF302821FF302821FF302821FF302821FF302821FF302821FF302821FFFFFFFFFFFFFFFFFFFFFFFFFFFFFFFFFFFFFFFFFFFFFFFFFFFFFFFFFFFFFFFFFF30
310
2821FF302821FF302821FF302821FF302821FF302821FF302821FF302821FF302821FF302821FF302821FF302821FF302821FF302821FF302821FF302821FF302821FF302821FF302821FF302821FF302821FF302821FF302821FFFFFFFFFFFFFFFFFFFFFFFFFFFFFFFFFFFFFFFFFFFFFFFFFFFFFFFFFFFFFFFFFFFFFFFFFF
310
FFFFFFFF302821FF302821FF302821FF302821FF302821FF302821FF302821FF302821FF302821FF302821FF302821FF302821FF302821FF302821FF302821FF302821FF302821FF302821FF302821FF302821FF302821FF302821FF302821FFFFFFFFFFFFFFFFFF302821FF302821FF302821FF302821FFFFFFFFFFFFFFFF
310
FF302821FF302821FF302821FF302821FF302821FF302821FF302821FF302821FF302821FF302821FF302821FF302821FF302821FF302821FF302821FF302821FF302821FF302821FF302821FF302821FF302821FF302821FF302821FF302821FF302821FFFFFFFFFFFFFFFFFFFFFFFFFFFFFFFFFFFFFFFFFFFFFFFFFF3028
310
21FF302821FF302821FF302821FF302821FF302821FF302821FF302821FF302821FF302821FF302821FF302821FF302821FF302821FF302821FF302821FF302821FF302821FF302821FF302821FF302821FF302821FF302821FF302821FF302821FF302821FFFFFFFFFFFFFFFFFFFFFFFFFFFFFFFFFFFFFFFFFFFFFFFFFF30
310
2821FF302821FF302821FF302821FF302821FF302821FF302821FF302821FF302821FF302821FF302821FF302821FF302821FF302821FF302821FF302821FF302821FF302821FF302821FF302821FF302821FF302821FF302821FF302821FF302821FFFFFFFFFFFFFFFFFFFFFFFFFFFFFFFFFFFFFFFFFFFFFFFFFFFFFFFFFF
310
FFFFFFFF302821FF302821FF302821FF302821FF302821FF302821FF302821FF302821FF302821FF302821FF302821FF302821FF302821FF302821FF302821FF302821FF302821FF302821FF302821FF302821FF302821FF302821FF302821FF302821FFFFFFFFFF302821FFFFFFFFFF302821FF302821FFFFFFFFFF302821
310
FFFFFFFFFF302821FF302821FF302821FF302821FF302821FF302821FF302821FF302821FF302821FF302821FF302821FF302821FF302821FF302821FF302821FF302821FF302821FF302821FF302821FF302821FF302821FF302821FF302821FF302821FFFFFFFFFF302821FFFFFFFFFF302821FF302821FFFFFFFFFF3028
310
21FFFFFFFFFF302821FF302821FF302821FF302821FF302821FF302821FF302821FF302821FF302821FF302821FF302821FF302821FF302821FF302821FF302821FF302821FF302821FF302821FF302821FF302821FF302821FF302821FF302821FF302821FFFFFFFFFF302821FFFFFFFFFF302821FF302821FFFFFFFFFF30
310
2821FFFFFFFFFF302821FF302821FF302821FF302821FF302821FF302821FF302821FF302821FF302821FF302821FF302821FF302821FF302821FF302821FF302821FF302821FF302821FF302821FF302821FF302821FF302821FF302821FF302821FF302821FFFFFFFFFF302821FFFFFFFFFF302821FF302821FFFFFFFFFF
310
302821FFFFFFFFFF302821FF302821FF302821FF302821FF302821FF302821FF302821FF302821FF302821FF302821FF302821FF302821FF302821FF302821FF302821FF302821FF302821FF302821FF302821FF302821FF302821FF302821FF302821FF302821FFFFFFFFFF302821FFFFFFFFFF302821FF302821FFFFFFFF
310
FF302821FFFFFFFFFF302821FF302821FF302821FF302821FF302821FF302821FF302821FF302821FF302821FF302821FF302821FF302821FF302821FF302821FF302821FF302821FF302821FF302821FF302821FF302821FF302821FF302821FF302821FF302821FFFFFFFFFFFFFFFFFF302821FF302821FF302821FF3028
310
21FFFFFFFFFF302821FFFFFFFFFF302821FF302821FF302821FF302821FF302821FF302821FF302821FF302821FF302821FF302821FF302821FF302821FF302821FF302821FF302821FF302821FF302821FF302821FF302821FF302821FF302821FF302821FFFFFFFFFF302821FFFFFFFFFF302821FF302821FF302821FF30
310
2821FFFFFFFFFF302821FFFFFFFFFF302821FF302821FF302821FF302821FF302821FF302821FF302821FF302821FF302821FF302821FF302821FF302821FF302821FF302821FF302821FF302821FF302821FF302821FF302821FF302821FF302821FF302821FFFFFFFFFF302821FFFFFFFFFF302821FF302821FF302821FF
310
302821FFFFFFFFFF302821FFFFFFFFFF302821FF302821FF302821FF302821FF302821FF302821FF302821FF302821FF302821FF302821FF302821FF302821FF302821FF302821FF302821FF302821FF302821FF302821FF302821FF302821FF302821FF302821FFFFFFFFFF302821FFFFFFFFFF302821FF302821FF302821
310
FF302821FF302821FFFFFFFFFF302821FFFFFFFFFF302821FF302821FF302821FF302821FF302821FF302821FF302821FF302821FF302821FF302821FF302821FF302821FF302821FF302821FF302821FF302821FF302821FF302821FF302821FF302821FFFFFFFFFF302821FFFFFFFFFF302821FF302821FF302821FF3028
310
21FF302821FF302821FFFFFFFFFF302821FFFFFFFFFF302821FF302821FF302821FF302821FF302821FF302821FF302821FF302821FF302821FF302821FF302821FF302821FF302821FF302821FF302821FF302821FF302821FF302821FF302821FF302821FFFFFFFFFF302821FFFFFFFFFF302821FF302821FF302821FF30
310
2821FF302821FF302821FF302821FFFFFFFFFF302821FFFFFFFFFF302821FF302821FF302821FF302821FF302821FF302821FF302821FF302821FF302821FF302821FF302821FF302821FF302821FF302821FF302821FF302821FF302821FFFFFFFFFFFFFFFFFFFFFFFFFFFFFFFFFFFFFFFFFFFFFFFFFFFFFFFFFFFFFFFFFF
310
FFFFFFFFFFFFFFFFFFFFFFFFFFFFFFFFFFFFFFFFFFFFFFFFFFFFFFFFFFFFFFFF302821FF302821FF302821FF302821FF302821FF302821FF302821FF302821FF302821FF302821FF302821FF302821FF302821FF302821FF302821FF302821FFFFFFFFFF302821FF302821FF302821FF302821FF302821FF302821FF302821
310
FF302821FF302821FF302821FF302821FF302821FF302821FF302821FFFFFFFFFF302821FF302821FF302821FF302821FF302821FF302821FF302821FF302821FF302821FFFFFFFFFFFFFFFFFFFFFFFFFFFFFFFFFFFFFFFFFFFFFFFFFFFFFFFFFFFFFFFFFFFFFFFFFFFFFFFFFFFFFFFFFFFFFFFFFFFFFFFFFFFFFFFFFFFFFF
310
FFFFFFFFFFFFFFFFFFFFFFFFFFFFFFFFFFFFFFFFFFFFFFFFFFFFFFFFFFFFFFFFFFFFFFFFFFFFFFFFFFFFFFFFFFFFFFFFFFFFFFFFFFFFFFFFFFFFFFFFFFFF302821FF302821FFFFFFFFFFFFFFFFFFFFFFFFFFFFFFFFFFFFFFFFFFFFFFFFFFFFFFFFFFFFFFFFFFFFFFFFFFFFFFFFFFFFFFFFFFFFFFFFFFFFFFFFFFFFFFFFFFFF
310
FFFFFFFFFFFFFFFFFFFFFFFFFFFFFFFFFFFFFFFFFFFFFFFFFFFFFFFFFFFFFFFFFFFFFFFFFFFFFFFFFFFFFFFFFFFFFFFFFFFFFFFFFFFFFFFFFFFFFFFFFFFFFF302821FF302821FF302821FF302821FF302821FF302821FF302821FF302821FF302821FF302821FF302821FF302821FF302821FF302821FF302821FF302821FF
310
302821FF302821FF302821FF302821FF302821FF302821FF302821FF302821FF302821FF302821FF302821FF302821FF302821FF302821FF302821FF302821FF302821FF302821FF302821FF302821FF302821FF302821FF302821FF302821FF302821FF302821FF302821FF302821FF302821FF302821FF302821FF302821
310
FF302821FF302821FF302821FF302821FF302821FF302821FF302821FF302821FF302821FF302821FF302821FF302821FF302821FF302821FF302821FF302821FF302821FF302821FF302821FF302821FF302821FF302821FF302821FF302821FF302821FF302821FF302821FF302821FF302821FF302821FF302821FF3028
310
21FF302821FF302821FF302821FF302821FF302821FF302821FF302821FF302821FF302821FF302821FF302821FF302821FF302821FF302821FF302821FF302821FF302821FF302821FF302821FF302821FF302821FF302821FF302821FF302821FF302821FF302821FF302821FF302821FF302821FF302821FF302821FF30
310
2821FF302821FF302821FF302821FF302821FF302821FF302821FF302821FF302821FF302821FF302821FF302821FF302821FF302821FF302821FF302821FF302821FF302821FF302821FF302821FF302821FF302821FF302821FF302821FF302821FF302821FF302821FF302821FF302821FF302821FF302821FF302821FF
310
302821FF302821FF302821FF302821FF302821FF302821FF302821FF302821FF302821FF302821FF302821FF302821FF302821FF302821FF302821FF302821FF302821FF302821FF
102
{BLKREFS
331
671
102
}
 70
     1
280
     1
281
     1
  0
BLOCK_RECORD
  5
672
330
1
100
AcDbSymbolTableRecord
100
AcDbBlockTableRecord
  2
D35160527 Side View
340
0
310
28000000200000002000000001002000000000000010000001000000010000000000000000000000302821FF302821FF302821FF302821FF302821FF302821FF302821FF302821FF302821FF302821FF302821FF302821FF302821FF302821FF302821FF302821FF302821FF302821FF302821FF302821FF302821FF302821
310
FF302821FF302821FF302821FF302821FF302821FF302821FF302821FF302821FF302821FF302821FF302821FF302821FF302821FF302821FF302821FF302821FF302821FF302821FF302821FF302821FF302821FFFFFFFFFF302821FF302821FF302821FF302821FF302821FF302821FF302821FFFFFFFFFFFFFFFFFF3028
310
21FF302821FF302821FF302821FF302821FF302821FF302821FF302821FF302821FF302821FF302821FF302821FF302821FF302821FF302821FF302821FF302821FF302821FF302821FF302821FF302821FF302821FFFFFFFFFF302821FF302821FF302821FF302821FF302821FF302821FFFFFFFFFFFFFFFFFFFFFFFFFF30
310
2821FF302821FF302821FF302821FF302821FF302821FF302821FF302821FF302821FF302821FF302821FF302821FF302821FF302821FF302821FF302821FF302821FF302821FF302821FF302821FF302821FF302821FFFFFFFFFF302821FF302821FF302821FF302821FF302821FF302821FFFFFFFFFF302821FFFFFFFFFF
310
302821FF302821FF302821FF302821FF302821FF302821FF302821FF302821FF302821FF302821FF302821FF302821FF302821FF302821FF302821FF302821FF302821FF302821FF302821FF302821FF302821FF302821FFFFFFFFFFFFFFFFFF302821FF302821FF302821FF302821FF302821FFFFFFFFFF302821FFFFFFFF
310
FF302821FF302821FF302821FF302821FF302821FF302821FF302821FF302821FF302821FF302821FF302821FF302821FF302821FF302821FF302821FF302821FF302821FF302821FF302821FF302821FF302821FF302821FFFFFFFFFFFFFFFFFFFFFFFFFF302821FF302821FF302821FF302821FFFFFFFFFF302821FFFFFF
310
FFFF302821FF302821FF302821FF302821FF302821FF302821FF302821FF302821FF302821FF302821FF302821FF302821FF302821FF302821FF302821FF302821FF302821FF302821FF302821FF302821FF302821FF302821FFFFFFFFFFFFFFFFFFFFFFFFFFFFFFFFFFFFFFFFFF302821FF302821FFFFFFFFFF302821FFFF
310
FFFFFF302821FF302821FF302821FF302821FF302821FF302821FF302821FF302821FF302821FF302821FF302821FF302821FF302821FF302821FF302821FF302821FF302821FF302821FF302821FF302821FF302821FF302821FFFFFFFFFFFFFFFFFFFFFFFFFFFFFFFFFFFFFFFFFFFFFFFFFFFFFFFFFFFFFFFFFFFFFFFFFF
310
FFFFFFFF302821FF302821FF302821FF302821FF302821FF302821FF302821FF302821FF302821FF302821FF302821FF302821FF302821FF302821FF302821FF302821FF302821FF302821FF302821FF302821FF302821FF302821FFFFFFFFFFFFFFFFFF302821FF302821FF302821FF302821FF302821FFFFFFFFFF302821
310
FFFFFFFFFF302821FF302821FF302821FF302821FF302821FF302821FF302821FF302821FF302821FF302821FF302821FF302821FF302821FF302821FF302821FF302821FF302821FF302821FF302821FF302821FF302821FF302821FFFFFFFFFFFFFFFFFFFFFFFFFFFFFFFFFFFFFFFFFFFFFFFFFFFFFFFFFFFFFFFFFFFFFF
310
FFFFFFFFFFFF302821FF302821FF302821FF302821FF302821FF302821FF302821FF302821FF302821FF302821FF302821FF302821FF302821FF302821FF302821FF302821FF302821FF302821FF302821FF302821FF302821FF302821FFFFFFFFFFFFFFFFFFFFFFFFFFFFFFFFFFFFFFFFFFFFFFFFFFFFFFFFFFFFFFFFFF30
310
2821FFFFFFFFFF302821FF302821FF302821FF302821FF302821FF302821FF302821FF302821FF302821FF302821FF302821FF302821FF302821FF302821FF302821FF302821FF302821FF302821FF302821FF302821FF302821FF302821FFFFFFFFFFFFFFFFFFFFFFFFFF302821FF302821FF302821FF302821FF302821FF
310
302821FF302821FF302821FF302821FF302821FF302821FF302821FF302821FF302821FF302821FF302821FF302821FF302821FF302821FF302821FF302821FF302821FF302821FF302821FF302821FF302821FF302821FF302821FF302821FFFFFFFFFFFFFFFFFF302821FF302821FF302821FF302821FF302821FF302821
310
FF302821FF302821FF302821FF302821FF302821FF302821FF302821FF302821FF302821FF302821FF302821FF302821FF302821FF302821FF302821FF302821FF302821FF302821FF302821FF302821FF302821FF302821FF302821FF302821FFFFFFFFFF302821FF302821FF302821FF302821FF302821FF302821FF3028
310
21FF302821FF302821FF302821FF302821FF302821FF302821FF302821FF302821FF302821FF302821FF302821FF302821FF302821FF302821FF302821FF302821FF302821FF302821FF302821FF302821FF302821FF302821FF302821FF302821FFFFFFFFFF302821FF302821FF302821FF302821FF302821FF302821FF30
310
2821FF302821FF302821FF302821FF302821FF302821FF302821FF302821FF302821FF302821FF302821FF302821FF302821FF302821FF302821FF302821FF302821FF302821FF302821FF302821FF302821FF302821FF302821FF302821FF302821FFFFFFFFFF302821FF302821FF302821FF302821FF302821FF302821FF
310
302821FF302821FF302821FF302821FF302821FF302821FF302821FF302821FF302821FF302821FF302821FF302821FF302821FF302821FF302821FF302821FF302821FF302821FF302821FF302821FF302821FF302821FF302821FF302821FF302821FFFFFFFFFF302821FF302821FF302821FF302821FF302821FF302821
310
FFFFFFFFFFFFFFFFFFFFFFFFFF302821FF302821FF302821FF302821FF302821FF302821FF302821FF302821FF302821FF302821FF302821FF302821FF302821FF302821FF302821FF302821FF302821FF302821FF302821FF302821FF302821FF302821FFFFFFFFFF302821FF302821FF302821FF302821FF302821FF3028
310
21FFFFFFFFFF302821FFFFFFFFFF302821FF302821FF302821FF302821FF302821FF302821FF302821FF302821FF302821FF302821FF302821FF302821FF302821FF302821FF302821FF302821FF302821FF302821FF302821FF302821FF302821FF302821FFFFFFFFFF302821FF302821FF302821FF302821FF302821FF30
310
2821FFFFFFFFFF302821FFFFFFFFFF302821FF302821FF302821FF302821FF302821FF302821FF302821FF302821FF302821FF302821FF302821FF302821FF302821FF302821FF302821FF302821FF302821FF302821FF302821FF302821FF302821FF302821FFFFFFFFFFFFFFFFFF302821FF302821FF302821FF302821FF
310
302821FFFFFFFFFF302821FFFFFFFFFF302821FF302821FF302821FF302821FF302821FF302821FF302821FF302821FF302821FF302821FF302821FF302821FF302821FF302821FF302821FF302821FF302821FF302821FF302821FF302821FF302821FF302821FFFFFFFFFFFFFFFFFFFFFFFFFF302821FF302821FF302821
310
FF302821FFFFFFFFFF302821FFFFFFFFFF302821FF302821FF302821FF302821FF302821FF302821FF302821FF302821FF302821FF302821FF302821FF302821FF302821FF302821FF302821FF302821FF302821FF302821FF302821FF302821FF302821FF302821FFFFFFFFFFFFFFFFFFFFFFFFFFFFFFFFFFFFFFFFFFFFFF
310
FFFFFFFFFFFFFFFFFFFFFFFFFFFFFFFFFFFF302821FF302821FF302821FF302821FF302821FF302821FF302821FF302821FF302821FF302821FF302821FF302821FF302821FF302821FF302821FF302821FF302821FF302821FF302821FF302821FF302821FF302821FFFFFFFFFFFFFFFFFFFFFFFFFFFFFFFFFFFFFFFFFFFF
310
FFFFFFFFFFFFFFFFFFFFFFFFFFFFFFFFFFFFFF302821FF302821FF302821FF302821FF302821FF302821FF302821FF302821FF302821FF302821FF302821FF302821FF302821FF302821FF302821FF302821FF302821FF302821FF302821FF302821FF302821FF302821FFFFFFFFFFFFFFFFFF302821FF302821FF302821FF
310
302821FF302821FFFFFFFFFFFFFFFFFFFFFFFFFF302821FF302821FF302821FF302821FF302821FF302821FF302821FF302821FF302821FF302821FF302821FF302821FF302821FF302821FF302821FF302821FF302821FF302821FF302821FF302821FF302821FF302821FFFFFFFFFFFFFFFFFFFFFFFFFFFFFFFFFFFFFFFF
310
FFFFFFFFFFFFFFFFFFFFFFFFFFFFFFFFFFFFFFFFFF302821FF302821FF302821FF302821FF302821FF302821FF302821FF302821FF302821FF302821FF302821FF302821FF302821FF302821FF302821FF302821FF302821FF302821FF302821FF302821FF302821FF302821FFFFFFFFFFFFFFFFFFFFFFFFFFFFFFFFFFFFFF
310
FFFF302821FF302821FF302821FF302821FFFFFFFFFF302821FF302821FF302821FF302821FF302821FF302821FF302821FF302821FF302821FF302821FF302821FF302821FF302821FF302821FF302821FF302821FF302821FF302821FF302821FF302821FF302821FF302821FFFFFFFFFFFFFFFFFFFFFFFFFF302821FF30
310
2821FF302821FF302821FF302821FF302821FF302821FF302821FF302821FF302821FF302821FF302821FF302821FF302821FF302821FF302821FF302821FF302821FF302821FF302821FF302821FF302821FF302821FF302821FF302821FF302821FF302821FF302821FF302821FFFFFFFFFFFFFFFFFF302821FF302821FF
310
302821FF302821FF302821FF302821FF302821FF302821FF302821FF302821FF302821FF302821FF302821FF302821FF302821FF302821FF302821FF302821FF302821FF302821FF302821FF302821FF302821FF302821FF302821FF302821FF302821FF302821FF302821FF302821FFFFFFFFFF302821FF302821FF302821
310
FF302821FF302821FF302821FF302821FF302821FF302821FF302821FF302821FF302821FF302821FF302821FF302821FF302821FF302821FF302821FF302821FF302821FF302821FF302821FF302821FF302821FF302821FF302821FF302821FF302821FF302821FF302821FF302821FFFFFFFFFF302821FF302821FF3028
310
21FF302821FF302821FF302821FF302821FF302821FF302821FF302821FF302821FF302821FF302821FF302821FF302821FF302821FF302821FF302821FF302821FF302821FF302821FF302821FF302821FF302821FF302821FF302821FF302821FF302821FF302821FF302821FF302821FFFFFFFFFF302821FF302821FF30
310
2821FF302821FF302821FF302821FF302821FF302821FF302821FF302821FF302821FF302821FF302821FF302821FF302821FF302821FF302821FF302821FF302821FF302821FF302821FF302821FF302821FF302821FF302821FF302821FF302821FF302821FF302821FF302821FF302821FF302821FF302821FF302821FF
310
302821FF302821FF302821FF302821FF302821FF302821FF302821FF302821FF302821FF302821FF302821FF302821FF302821FF302821FF302821FF302821FF302821FF302821FF
102
{BLKREFS
331
7FC
102
}
 70
     1
280
     1
281
     1
  0
ENDTAB
  0
ENDSEC
  0
SECTION
  2
BLOCKS
  0
BLOCK
  5
71
330
70
100
AcDbEntity
  8
0
100
AcDbBlockBegin
  2
*Model_Space
 70
     0
 10
0.0
 20
0.0
 30
0.0
  3
*Model_Space
  1

  0
ENDBLK
  5
72
330
70
100
AcDbEntity
  8
0
100
AcDbBlockEnd
  0
BLOCK
  5
6D
330
6C
100
AcDbEntity
 67
     1
  8
0
100
AcDbBlockBegin
  2
*Paper_Space
 70
     0
 10
0.0
 20
0.0
 30
0.0
  3
*Paper_Space
  1

  0
ENDBLK
  5
6E
330
6C
100
AcDbEntity
 67
     1
  8
0
100
AcDbBlockEnd
  0
BLOCK
  5
75
330
74
100
AcDbEntity
 67
     1
  8
0
100
AcDbBlockBegin
  2
*Paper_Space0
 70
     0
 10
0.0
 20
0.0
 30
0.0
  3
*Paper_Space0
  1

  0
ENDBLK
  5
76
330
74
100
AcDbEntity
 67
     1
  8
0
100
AcDbBlockEnd
  0
BLOCK
  5
540
330
53F
100
AcDbEntity
  8
0
100
AcDbBlockBegin
  2
D35160527 Front View
 70
     0
 10
0.0
 20
0.0
 30
0.0
  3
D35160527 Front View
  1

  0
LINE
  5
542
330
53F
100
AcDbEntity
  8
D35160527
100
AcDbLine
 10
-1.874999999999999
 20
1.874130484575218
 30
0.0
 11
-1.87350019998934
 21
1.799150482975278
 31
0.0
1001
REVIT
1002
{
1070
     2
1000
-2001160
1002
}
  0
LINE
  5
543
330
53F
100
AcDbEntity
  8
D35160527
100
AcDbLine
 10
-1.87350019998934
 20
1.799150482975278
 30
0.0
 11
-1.869003199317422
 21
1.724290433383014
 31
0.0
1001
REVIT
1002
{
1070
     2
1000
-2001160
1002
}
  0
LINE
  5
544
330
53F
100
AcDbEntity
  8
D35160527
100
AcDbLine
 10
-1.869003199317422
 20
1.724290433383014
 30
0.0
 11
-1.861516192226001
 21
1.64967009590849
 31
0.0
1001
REVIT
1002
{
1070
     2
1000
-2001160
1002
}
  0
LINE
  5
545
330
53F
100
AcDbEntity
  8
D35160527
100
AcDbLine
 10
-1.861516192226001
 20
1.64967009590849
 30
0.0
 11
-1.851051156329297
 21
1.575408847173498
 31
0.0
1001
REVIT
1002
{
1070
     2
1000
-2001160
1002
}
  0
LINE
  5
546
330
53F
100
AcDbEntity
  8
D35160527
100
AcDbLine
 10
-1.851051156329297
 20
1.575408847173498
 30
0.0
 11
-1.837624833452334
 21
1.501625489334482
 31
0.0
1001
REVIT
1002
{
1070
     2
1000
-2001160
1002
}
  0
LINE
  5
547
330
53F
100
AcDbEntity
  8
D35160527
100
AcDbLine
 10
-1.837624833452334
 20
1.501625489334482
 30
0.0
 11
-1.821258702847558
 21
1.428438060024337
 31
0.0
1001
REVIT
1002
{
1070
     2
1000
-2001160
1002
}
  0
LINE
  5
548
330
53F
100
AcDbEntity
  8
D35160527
100
AcDbLine
 10
-1.821258702847558
 20
1.428438060024337
 30
0.0
 11
-1.801978946832701
 21
1.355963643517508
 31
0.0
1001
REVIT
1002
{
1070
     2
1000
-2001160
1002
}
  0
LINE
  5
549
330
53F
100
AcDbEntity
  8
D35160527
100
AcDbLine
 10
-1.801978946832701
 20
1.355963643517508
 30
0.0
 11
-1.779816408904576
 21
1.284318183419998
 31
0.0
1001
REVIT
1002
{
1070
     2
1000
-2001160
1002
}
  0
LINE
  5
54A
330
53F
100
AcDbEntity
  8
D35160527
100
AcDbLine
 10
-1.779816408904576
 20
1.284318183419998
 30
0.0
 11
-1.754806544396124
 21
1.213616297184422
 31
0.0
1001
REVIT
1002
{
1070
     2
1000
-2001160
1002
}
  0
LINE
  5
54B
330
53F
100
AcDbEntity
  8
D35160527
100
AcDbLine
 10
-1.754806544396124
 20
1.213616297184422
 30
0.0
 11
-1.726989363755411
 21
1.143971092746493
 31
0.0
1001
REVIT
1002
{
1070
     2
1000
-2001160
1002
}
  0
LINE
  5
54C
330
53F
100
AcDbEntity
  8
D35160527
100
AcDbLine
 10
-1.726989363755411
 20
1.143971092746493
 30
0.0
 11
-1.69640936853743
 21
1.075493987576468
 31
0.0
1001
REVIT
1002
{
1070
     2
1000
-2001160
1002
}
  0
LINE
  5
54D
330
53F
100
AcDbEntity
  8
D35160527
100
AcDbLine
 10
-1.69640936853743
 20
1.075493987576468
 30
0.0
 11
-1.66311548021116
 21
1.008294530434937
 31
0.0
1001
REVIT
1002
{
1070
     2
1000
-2001160
1002
}
  0
LINE
  5
54E
330
53F
100
AcDbEntity
  8
D35160527
100
AcDbLine
 10
-1.66311548021116
 20
1.008294530434937
 30
0.0
 11
-1.627160961895594
 21
0.9424802261181994
 31
0.0
1001
REVIT
1002
{
1070
     2
1000
-2001160
1002
}
  0
LINE
  5
54F
330
53F
100
AcDbEntity
  8
D35160527
100
AcDbLine
 10
-1.627160961895594
 20
0.9424802261181994
 30
0.0
 11
-1.58860333315016
 21
0.8781563634735576
 31
0.0
1001
REVIT
1002
{
1070
     2
1000
-2001160
1002
}
  0
LINE
  5
550
330
53F
100
AcDbEntity
  8
D35160527
100
AcDbLine
 10
-1.58860333315016
 20
0.8781563634735576
 30
0.0
 11
-1.547504277955652
 21
0.8154258469595241
 31
0.0
1001
REVIT
1002
{
1070
     2
1000
-2001160
1002
}
  0
LINE
  5
551
330
53F
100
AcDbEntity
  8
D35160527
100
AcDbLine
 10
-1.547504277955652
 20
0.8154258469595241
 30
0.0
 11
-1.503929546033056
 21
0.7543890320207254
 31
0.0
1001
REVIT
1002
{
1070
     2
1000
-2001160
1002
}
  0
LINE
  5
552
330
53F
100
AcDbEntity
  8
D35160527
100
AcDbLine
 10
-1.503929546033056
 20
0.7543890320207254
 30
0.0
 11
-1.457948847657991
 21
0.6951435645405831
 31
0.0
1001
REVIT
1002
{
1070
     2
1000
-2001160
1002
}
  0
LINE
  5
553
330
53F
100
AcDbEntity
  8
D35160527
100
AcDbLine
 10
-1.457948847657991
 20
0.6951435645405831
 30
0.0
 11
-1.409635742139183
 21
0.6377842246287031
 31
0.0
1001
REVIT
1002
{
1070
     2
1000
-2001160
1002
}
  0
LINE
  5
554
330
53F
100
AcDbEntity
  8
D35160527
100
AcDbLine
 10
-1.409635742139183
 20
0.6377842246287031
 30
0.0
 11
-1.359067520139205
 21
0.5824027749929286
 31
0.0
1001
REVIT
1002
{
1070
     2
1000
-2001160
1002
}
  0
LINE
  5
555
330
53F
100
AcDbEntity
  8
D35160527
100
AcDbLine
 10
-1.359067520139205
 20
0.5824027749929286
 30
0.0
 11
-1.306325080025935
 21
0.5290878141386024
 31
0.0
1001
REVIT
1002
{
1070
     2
1000
-2001160
1002
}
  0
LINE
  5
556
330
53F
100
AcDbEntity
  8
D35160527
100
AcDbLine
 10
-1.306325080025935
 20
0.5290878141386024
 30
0.0
 11
-1.251492798452449
 21
0.4779246346298507
 31
0.0
1001
REVIT
1002
{
1070
     2
1000
-2001160
1002
}
  0
LINE
  5
557
330
53F
100
AcDbEntity
  8
D35160527
100
AcDbLine
 10
-1.251492798452449
 20
0.4779246346298507
 30
0.0
 11
-1.194658395372343
 21
0.4289950866396382
 31
0.0
1001
REVIT
1002
{
1070
     2
1000
-2001160
1002
}
  0
LINE
  5
558
330
53F
100
AcDbEntity
  8
D35160527
100
AcDbLine
 10
-1.194658395372343
 20
0.4289950866396382
 30
0.0
 11
-1.135912793706488
 21
0.3823774470070233
 31
0.0
1001
REVIT
1002
{
1070
     2
1000
-2001160
1002
}
  0
LINE
  5
559
330
53F
100
AcDbEntity
  8
D35160527
100
AcDbLine
 10
-1.135912793706488
 20
0.3823774470070233
 30
0.0
 11
-1.075349973885852
 21
0.3381462940108335
 31
0.0
1001
REVIT
1002
{
1070
     2
1000
-2001160
1002
}
  0
LINE
  5
55A
330
53F
100
AcDbEntity
  8
D35160527
100
AcDbLine
 10
-1.075349973885852
 20
0.3381462940108335
 30
0.0
 11
-1.013066823502764
 21
0.2963723880603979
 31
0.0
1001
REVIT
1002
{
1070
     2
1000
-2001160
1002
}
  0
LINE
  5
55B
330
53F
100
AcDbEntity
  8
D35160527
100
AcDbLine
 10
-1.013066823502764
 20
0.2963723880603979
 30
0.0
 11
-0.9491629823114633
 21
0.2571225584939505
 31
0.0
1001
REVIT
1002
{
1070
     2
1000
-2001160
1002
}
  0
LINE
  5
55C
330
53F
100
AcDbEntity
  8
D35160527
100
AcDbLine
 10
-0.9491629823114633
 20
0.2571225584939505
 30
0.0
 11
-0.8837406828257632
 21
0.2204595966659326
 31
0.0
1001
REVIT
1002
{
1070
     2
1000
-2001160
1002
}
  0
LINE
  5
55D
330
53F
100
AcDbEntity
  8
D35160527
100
AcDbLine
 10
-0.8837406828257632
 20
0.2204595966659326
 30
0.0
 11
-0.8169045867688351
 21
0.1864421554942588
 31
0.0
1001
REVIT
1002
{
1070
     2
1000
-2001160
1002
}
  0
LINE
  5
55E
330
53F
100
AcDbEntity
  8
D35160527
100
AcDbLine
 10
-0.8169045867688351
 20
0.1864421554942588
 30
0.0
 11
-0.748761617636763
 21
0.1551246556281427
 31
0.0
1001
REVIT
1002
{
1070
     2
1000
-2001160
1002
}
  0
LINE
  5
55F
330
53F
100
AcDbEntity
  8
D35160527
100
AcDbLine
 10
-0.748761617636763
 20
0.1551246556281427
 30
0.0
 11
-0.6794207896437569
 21
0.1265571983866565
 31
0.0
1001
REVIT
1002
{
1070
     2
1000
-2001160
1002
}
  0
LINE
  5
560
330
53F
100
AcDbEntity
  8
D35160527
100
AcDbLine
 10
-0.6794207896437569
 20
0.1265571983866565
 30
0.0
 11
-0.6089930333227044
 21
0.1007854856073251
 31
0.0
1001
REVIT
1002
{
1070
     2
1000
-2001160
1002
}
  0
LINE
  5
561
330
53F
100
AcDbEntity
  8
D35160527
100
AcDbLine
 10
-0.6089930333227044
 20
0.1007854856073251
 30
0.0
 11
-0.537591018059917
 21
0.0778507465329099
 31
0.0
1001
REVIT
1002
{
1070
     2
1000
-2001160
1002
}
  0
LINE
  5
562
330
53F
100
AcDbEntity
  8
D35160527
100
AcDbLine
 10
-0.537591018059917
 20
0.0778507465329099
 30
0.0
 11
-0.4653289718481978
 21
0.0577896718534596
 31
0.0
1001
REVIT
1002
{
1070
     2
1000
-2001160
1002
}
  0
LINE
  5
563
330
53F
100
AcDbEntity
  8
D35160527
100
AcDbLine
 10
-0.4653289718481978
 20
0.0577896718534596
 30
0.0
 11
-0.3923224985464166
 21
0.0406343550089972
 31
0.0
1001
REVIT
1002
{
1070
     2
1000
-2001160
1002
}
  0
LINE
  5
564
330
53F
100
AcDbEntity
  8
D35160527
100
AcDbLine
 10
-0.3923224985464166
 20
0.0406343550089972
 30
0.0
 11
-0.318688392937954
 21
0.0264122408468346
 31
0.0
1001
REVIT
1002
{
1070
     2
1000
-2001160
1002
}
  0
LINE
  5
565
330
53F
100
AcDbEntity
  8
D35160527
100
AcDbLine
 10
-0.318688392937954
 20
0.0264122408468346
 30
0.0
 11
-0.2445444538840142
 21
0.0151460817157876
 31
0.0
1001
REVIT
1002
{
1070
     2
1000
-2001160
1002
}
  0
LINE
  5
566
330
53F
100
AcDbEntity
  8
D35160527
100
AcDbLine
 10
-0.2445444538840142
 20
0.0151460817157876
 30
0.0
 11
-0.1700092958705745
 21
0.0068539010671316
 31
0.0
1001
REVIT
1002
{
1070
     2
1000
-2001160
1002
}
  0
LINE
  5
567
330
53F
100
AcDbEntity
  8
D35160527
100
AcDbLine
 10
-0.1700092958705745
 20
0.0068539010671316
 30
0.0
 11
-0.0952021592504586
 21
0.0015489646209836
 31
0.0
1001
REVIT
1002
{
1070
     2
1000
-2001160
1002
}
  0
LINE
  5
568
330
53F
100
AcDbEntity
  8
D35160527
100
AcDbLine
 10
-0.0952021592504586
 20
0.0015489646209836
 30
0.0
 11
-0.0202427194842478
 21
-0.0007602408559748
 31
0.0
1001
REVIT
1002
{
1070
     2
1000
-2001160
1002
}
  0
LINE
  5
569
330
53F
100
AcDbEntity
  8
D35160527
100
AcDbLine
 10
-0.0202427194842478
 20
-0.0007602408559748
 30
0.0
 11
0.0547491043149222
 21
-0.0000700211276161
 31
0.0
1001
REVIT
1002
{
1070
     2
1000
-2001160
1002
}
  0
LINE
  5
56A
330
53F
100
AcDbEntity
  8
D35160527
100
AcDbLine
 10
0.0547491043149222
 20
-0.0000700211276161
 30
0.0
 11
0.1296533412263656
 21
0.0036185196017584
 31
0.0
1001
REVIT
1002
{
1070
     2
1000
-2001160
1002
}
  0
LINE
  5
56B
330
53F
100
AcDbEntity
  8
D35160527
100
AcDbLine
 10
0.1296533412263656
 20
0.0036185196017584
 30
0.0
 11
0.2043501604497599
 21
0.0102994804538135
 31
0.0
1001
REVIT
1002
{
1070
     2
1000
-2001160
1002
}
  0
LINE
  5
56C
330
53F
100
AcDbEntity
  8
D35160527
100
AcDbLine
 10
0.2043501604497599
 20
0.0102994804538135
 30
0.0
 11
0.2787200630088122
 21
0.0199621733163937
 31
0.0
1001
REVIT
1002
{
1070
     2
1000
-2001160
1002
}
  0
LINE
  5
56D
330
53F
100
AcDbEntity
  8
D35160527
100
AcDbLine
 10
0.2787200630088122
 20
0.0199621733163937
 30
0.0
 11
0.3526440729241606
 21
0.0325911399421663
 31
0.0
1001
REVIT
1002
{
1070
     2
1000
-2001160
1002
}
  0
LINE
  5
56E
330
53F
100
AcDbEntity
  8
D35160527
100
AcDbLine
 10
0.3526440729241606
 20
0.0325911399421663
 30
0.0
 11
0.4260039275495373
 21
0.0481661766785884
 31
0.0
1001
REVIT
1002
{
1070
     2
1000
-2001160
1002
}
  0
LINE
  5
56F
330
53F
100
AcDbEntity
  8
D35160527
100
AcDbLine
 10
0.4260039275495373
 20
0.0481661766785884
 30
0.0
 11
0.4986822667668491
 21
0.0666623667893696
 31
0.0
1001
REVIT
1002
{
1070
     2
1000
-2001160
1002
}
  0
LINE
  5
570
330
53F
100
AcDbEntity
  8
D35160527
100
AcDbLine
 10
0.4986822667668491
 20
0.0666623667893696
 30
0.0
 11
0.5705628207371979
 21
0.0880501203159625
 31
0.0
1001
REVIT
1002
{
1070
     2
1000
-2001160
1002
}
  0
LINE
  5
571
330
53F
100
AcDbEntity
  8
D35160527
100
AcDbLine
 10
0.5705628207371979
 20
0.0880501203159625
 30
0.0
 11
0.6415305959079411
 21
0.1122952214152271
 31
0.0
1001
REVIT
1002
{
1070
     2
1000
-2001160
1002
}
  0
LINE
  5
572
330
53F
100
AcDbEntity
  8
D35160527
100
AcDbLine
 10
0.6415305959079411
 20
0.1122952214152271
 30
0.0
 11
0.7114720589778009
 21
0.139358883097394
 31
0.0
1001
REVIT
1002
{
1070
     2
1000
-2001160
1002
}
  0
LINE
  5
573
330
53F
100
AcDbEntity
  8
D35160527
100
AcDbLine
 10
0.7114720589778009
 20
0.139358883097394
 30
0.0
 11
0.7802753185259021
 21
0.1691978092770476
 31
0.0
1001
REVIT
1002
{
1070
     2
1000
-2001160
1002
}
  0
LINE
  5
574
330
53F
100
AcDbEntity
  8
D35160527
100
AcDbLine
 10
0.7802753185259021
 20
0.1691978092770476
 30
0.0
 11
0.8478303040142163
 21
0.2017642640376138
 31
0.0
1001
REVIT
1002
{
1070
     2
1000
-2001160
1002
}
  0
LINE
  5
575
330
53F
100
AcDbEntity
  8
D35160527
100
AcDbLine
 10
0.8478303040142163
 20
0.2017642640376138
 30
0.0
 11
0.9140289418769354
 21
0.2370061479986134
 31
0.0
1001
REVIT
1002
{
1070
     2
1000
-2001160
1002
}
  0
LINE
  5
576
330
53F
100
AcDbEntity
  8
D35160527
100
AcDbLine
 10
0.9140289418769354
 20
0.2370061479986134
 30
0.0
 11
0.9787653284150861
 21
0.2748670816635617
 31
0.0
1001
REVIT
1002
{
1070
     2
1000
-2001160
1002
}
  0
LINE
  5
577
330
53F
100
AcDbEntity
  8
D35160527
100
AcDbLine
 10
0.9787653284150861
 20
0.2748670816635617
 30
0.0
 11
1.041935899219907
 21
0.3152864956151795
 31
0.0
1001
REVIT
1002
{
1070
     2
1000
-2001160
1002
}
  0
LINE
  5
578
330
53F
100
AcDbEntity
  8
D35160527
100
AcDbLine
 10
1.041935899219907
 20
0.3152864956151795
 30
0.0
 11
1.103439594853781
 21
0.3581997274134778
 31
0.0
1001
REVIT
1002
{
1070
     2
1000
-2001160
1002
}
  0
LINE
  5
579
330
53F
100
AcDbEntity
  8
D35160527
100
AcDbLine
 10
1.103439594853781
 20
0.3581997274134778
 30
0.0
 11
1.163178022523787
 21
0.4035381250419157
 31
0.0
1001
REVIT
1002
{
1070
     2
1000
-2001160
1002
}
  0
LINE
  5
57A
330
53F
100
AcDbEntity
  8
D35160527
100
AcDbLine
 10
1.163178022523787
 20
0.4035381250419157
 30
0.0
 11
1.221055613489163
 21
0.4512291567359839
 31
0.0
1001
REVIT
1002
{
1070
     2
1000
-2001160
1002
}
  0
LINE
  5
57B
330
53F
100
AcDbEntity
  8
D35160527
100
AcDbLine
 10
1.221055613489163
 20
0.4512291567359839
 30
0.0
 11
1.276979775950923
 21
0.5011965270184824
 31
0.0
1001
REVIT
1002
{
1070
     2
1000
-2001160
1002
}
  0
LINE
  5
57C
330
53F
100
AcDbEntity
  8
D35160527
100
AcDbLine
 10
1.276979775950923
 20
0.5011965270184824
 30
0.0
 11
1.330861043178991
 21
0.5533602987561253
 31
0.0
1001
REVIT
1002
{
1070
     2
1000
-2001160
1002
}
  0
LINE
  5
57D
330
53F
100
AcDbEntity
  8
D35160527
100
AcDbLine
 10
1.330861043178991
 20
0.5533602987561253
 30
0.0
 11
1.382613216639849
 21
0.6076370210417999
 31
0.0
1001
REVIT
1002
{
1070
     2
1000
-2001160
1002
}
  0
LINE
  5
57E
330
53F
100
AcDbEntity
  8
D35160527
100
AcDbLine
 10
1.382613216639849
 20
0.6076370210417999
 30
0.0
 11
1.432153503895836
 21
0.6639398626982605
 31
0.0
1001
REVIT
1002
{
1070
     2
1000
-2001160
1002
}
  0
LINE
  5
57F
330
53F
100
AcDbEntity
  8
D35160527
100
AcDbLine
 10
1.432153503895836
 20
0.6639398626982605
 30
0.0
 11
1.479402651055383
 21
0.722178751189496
 31
0.0
1001
REVIT
1002
{
1070
     2
1000
-2001160
1002
}
  0
LINE
  5
580
330
53F
100
AcDbEntity
  8
D35160527
100
AcDbLine
 10
1.479402651055383
 20
0.722178751189496
 30
0.0
 11
1.524285069562299
 21
0.7822605167175603
 31
0.0
1001
REVIT
1002
{
1070
     2
1000
-2001160
1002
}
  0
LINE
  5
581
330
53F
100
AcDbEntity
  8
D35160527
100
AcDbLine
 10
1.524285069562299
 20
0.7822605167175603
 30
0.0
 11
1.566728957121401
 21
0.8440890412743513
 31
0.0
1001
REVIT
1002
{
1070
     2
1000
-2001160
1002
}
  0
LINE
  5
582
330
53F
100
AcDbEntity
  8
D35160527
100
AcDbLine
 10
1.566728957121401
 20
0.8440890412743513
 30
0.0
 11
1.606666412566784
 21
0.9075654124099585
 31
0.0
1001
REVIT
1002
{
1070
     2
1000
-2001160
1002
}
  0
LINE
  5
583
330
53F
100
AcDbEntity
  8
D35160527
100
AcDbLine
 10
1.606666412566784
 20
0.9075654124099585
 30
0.0
 11
1.644033544489282
 21
0.9725880814714926
 31
0.0
1001
REVIT
1002
{
1070
     2
1000
-2001160
1002
}
  0
LINE
  5
584
330
53F
100
AcDbEntity
  8
D35160527
100
AcDbLine
 10
1.644033544489282
 20
0.9725880814714926
 30
0.0
 11
1.678770573449053
 21
1.039053026059203
 31
0.0
1001
REVIT
1002
{
1070
     2
1000
-2001160
1002
}
  0
LINE
  5
585
330
53F
100
AcDbEntity
  8
D35160527
100
AcDbLine
 10
1.678770573449053
 20
1.039053026059203
 30
0.0
 11
1.710821927609931
 21
1.106853916440179
 31
0.0
1001
REVIT
1002
{
1070
     2
1000
-2001160
1002
}
  0
LINE
  5
586
330
53F
100
AcDbEntity
  8
D35160527
100
AcDbLine
 10
1.710821927609931
 20
1.106853916440179
 30
0.0
 11
1.740136331642513
 21
1.175882285653226
 31
0.0
1001
REVIT
1002
{
1070
     2
1000
-2001160
1002
}
  0
LINE
  5
587
330
53F
100
AcDbEntity
  8
D35160527
100
AcDbLine
 10
1.740136331642513
 20
1.175882285653226
 30
0.0
 11
1.76666688875375
 21
1.24602770303289
 31
0.0
1001
REVIT
1002
{
1070
     2
1000
-2001160
1002
}
  0
LINE
  5
588
330
53F
100
AcDbEntity
  8
D35160527
100
AcDbLine
 10
1.76666688875375
 20
1.24602770303289
 30
0.0
 11
1.790371155711809
 21
1.317177950874899
 31
0.0
1001
REVIT
1002
{
1070
     2
1000
-2001160
1002
}
  0
LINE
  5
589
330
53F
100
AcDbEntity
  8
D35160527
100
AcDbLine
 10
1.790371155711809
 20
1.317177950874899
 30
0.0
 11
1.811211210746222
 21
1.389219203960628
 31
0.0
1001
REVIT
1002
{
1070
     2
1000
-2001160
1002
}
  0
LINE
  5
58A
330
53F
100
AcDbEntity
  8
D35160527
100
AcDbLine
 10
1.811211210746222
 20
1.389219203960628
 30
0.0
 11
1.829153714214548
 21
1.462036211653117
 31
0.0
1001
REVIT
1002
{
1070
     2
1000
-2001160
1002
}
  0
LINE
  5
58B
330
53F
100
AcDbEntity
  8
D35160527
100
AcDbLine
 10
1.829153714214548
 20
1.462036211653117
 30
0.0
 11
1.844169961938778
 21
1.535512482273524
 31
0.0
1001
REVIT
1002
{
1070
     2
1000
-2001160
1002
}
  0
LINE
  5
58C
330
53F
100
AcDbEntity
  8
D35160527
100
AcDbLine
 10
1.844169961938778
 20
1.535512482273524
 30
0.0
 11
1.856235931125855
 21
1.609530469462963
 31
0.0
1001
REVIT
1002
{
1070
     2
1000
-2001160
1002
}
  0
LINE
  5
58D
330
53F
100
AcDbEntity
  8
D35160527
100
AcDbLine
 10
1.856235931125855
 20
1.609530469462963
 30
0.0
 11
1.865332318798994
 21
1.683971760231589
 31
0.0
1001
REVIT
1002
{
1070
     2
1000
-2001160
1002
}
  0
LINE
  5
58E
330
53F
100
AcDbEntity
  8
D35160527
100
AcDbLine
 10
1.865332318798994
 20
1.683971760231589
 30
0.0
 11
1.871444572678409
 21
1.758717264394125
 31
0.0
1001
REVIT
1002
{
1070
     2
1000
-2001160
1002
}
  0
LINE
  5
58F
330
53F
100
AcDbEntity
  8
D35160527
100
AcDbLine
 10
1.871444572678409
 20
1.758717264394125
 30
0.0
 11
1.874562914461751
 21
1.833647405088782
 31
0.0
1001
REVIT
1002
{
1070
     2
1000
-2001160
1002
}
  0
LINE
  5
590
330
53F
100
AcDbEntity
  8
D35160527
100
AcDbLine
 10
1.874562914461751
 20
1.833647405088782
 30
0.0
 11
1.87500000000001
 21
1.874130484575207
 31
0.0
1001
REVIT
1002
{
1070
     2
1000
-2001160
1002
}
  0
LINE
  5
591
330
53F
100
AcDbEntity
  8
D35160527
100
AcDbLine
 10
1.87500000000001
 20
1.874130484575207
 30
0.0
 11
1.87500000000001
 21
5.875869515423349
 31
0.0
1001
REVIT
1002
{
1070
     2
1000
-2001160
1002
}
  0
LINE
  5
592
330
53F
100
AcDbEntity
  8
D35160527
100
AcDbLine
 10
1.87500000000001
 20
5.875869515423349
 30
0.0
 11
1.873500199989351
 21
5.950849517023288
 31
0.0
1001
REVIT
1002
{
1070
     2
1000
-2001160
1002
}
  0
LINE
  5
593
330
53F
100
AcDbEntity
  8
D35160527
100
AcDbLine
 10
1.873500199989351
 20
5.950849517023288
 30
0.0
 11
1.869003199317422
 21
6.025709566615542
 31
0.0
1001
REVIT
1002
{
1070
     2
1000
-2001160
1002
}
  0
LINE
  5
594
330
53F
100
AcDbEntity
  8
D35160527
100
AcDbLine
 10
1.869003199317422
 20
6.025709566615542
 30
0.0
 11
1.861516192226012
 21
6.100329904090076
 31
0.0
1001
REVIT
1002
{
1070
     2
1000
-2001160
1002
}
  0
LINE
  5
595
330
53F
100
AcDbEntity
  8
D35160527
100
AcDbLine
 10
1.861516192226012
 20
6.100329904090076
 30
0.0
 11
1.851051156329308
 21
6.174591152825057
 31
0.0
1001
REVIT
1002
{
1070
     2
1000
-2001160
1002
}
  0
LINE
  5
596
330
53F
100
AcDbEntity
  8
D35160527
100
AcDbLine
 10
1.851051156329308
 20
6.174591152825057
 30
0.0
 11
1.837624833452334
 21
6.248374510664095
 31
0.0
1001
REVIT
1002
{
1070
     2
1000
-2001160
1002
}
  0
LINE
  5
597
330
53F
100
AcDbEntity
  8
D35160527
100
AcDbLine
 10
1.837624833452334
 20
6.248374510664095
 30
0.0
 11
1.821258702847568
 21
6.321561939974229
 31
0.0
1001
REVIT
1002
{
1070
     2
1000
-2001160
1002
}
  0
LINE
  5
598
330
53F
100
AcDbEntity
  8
D35160527
100
AcDbLine
 10
1.821258702847568
 20
6.321561939974229
 30
0.0
 11
1.801978946832711
 21
6.394036356481069
 31
0.0
1001
REVIT
1002
{
1070
     2
1000
-2001160
1002
}
  0
LINE
  5
599
330
53F
100
AcDbEntity
  8
D35160527
100
AcDbLine
 10
1.801978946832711
 20
6.394036356481069
 30
0.0
 11
1.779816408904586
 21
6.465681816578569
 31
0.0
1001
REVIT
1002
{
1070
     2
1000
-2001160
1002
}
  0
LINE
  5
59A
330
53F
100
AcDbEntity
  8
D35160527
100
AcDbLine
 10
1.779816408904586
 20
6.465681816578569
 30
0.0
 11
1.754806544396135
 21
6.536383702814144
 31
0.0
1001
REVIT
1002
{
1070
     2
1000
-2001160
1002
}
  0
LINE
  5
59B
330
53F
100
AcDbEntity
  8
D35160527
100
AcDbLine
 10
1.754806544396135
 20
6.536383702814144
 30
0.0
 11
1.726989363755421
 21
6.606028907252073
 31
0.0
1001
REVIT
1002
{
1070
     2
1000
-2001160
1002
}
  0
LINE
  5
59C
330
53F
100
AcDbEntity
  8
D35160527
100
AcDbLine
 10
1.726989363755421
 20
6.606028907252073
 30
0.0
 11
1.696409368537441
 21
6.674506012422098
 31
0.0
1001
REVIT
1002
{
1070
     2
1000
-2001160
1002
}
  0
LINE
  5
59D
330
53F
100
AcDbEntity
  8
D35160527
100
AcDbLine
 10
1.696409368537441
 20
6.674506012422098
 30
0.0
 11
1.663115480211171
 21
6.74170546956364
 31
0.0
1001
REVIT
1002
{
1070
     2
1000
-2001160
1002
}
  0
LINE
  5
59E
330
53F
100
AcDbEntity
  8
D35160527
100
AcDbLine
 10
1.663115480211171
 20
6.74170546956364
 30
0.0
 11
1.627160961895604
 21
6.807519773880357
 31
0.0
1001
REVIT
1002
{
1070
     2
1000
-2001160
1002
}
  0
LINE
  5
59F
330
53F
100
AcDbEntity
  8
D35160527
100
AcDbLine
 10
1.627160961895604
 20
6.807519773880357
 30
0.0
 11
1.588603333150171
 21
6.871843636525009
 31
0.0
1001
REVIT
1002
{
1070
     2
1000
-2001160
1002
}
  0
LINE
  5
5A0
330
53F
100
AcDbEntity
  8
D35160527
100
AcDbLine
 10
1.588603333150171
 20
6.871843636525009
 30
0.0
 11
1.547504277955652
 21
6.934574153039043
 31
0.0
1001
REVIT
1002
{
1070
     2
1000
-2001160
1002
}
  0
LINE
  5
5A1
330
53F
100
AcDbEntity
  8
D35160527
100
AcDbLine
 10
1.547504277955652
 20
6.934574153039043
 30
0.0
 11
1.503929546033056
 21
6.995610967977841
 31
0.0
1001
REVIT
1002
{
1070
     2
1000
-2001160
1002
}
  0
LINE
  5
5A2
330
53F
100
AcDbEntity
  8
D35160527
100
AcDbLine
 10
1.503929546033056
 20
6.995610967977841
 30
0.0
 11
1.457948847658002
 21
7.054856435457984
 31
0.0
1001
REVIT
1002
{
1070
     2
1000
-2001160
1002
}
  0
LINE
  5
5A3
330
53F
100
AcDbEntity
  8
D35160527
100
AcDbLine
 10
1.457948847658002
 20
7.054856435457984
 30
0.0
 11
1.409635742139183
 21
7.112215775369864
 31
0.0
1001
REVIT
1002
{
1070
     2
1000
-2001160
1002
}
  0
LINE
  5
5A4
330
53F
100
AcDbEntity
  8
D35160527
100
AcDbLine
 10
1.409635742139183
 20
7.112215775369864
 30
0.0
 11
1.359067520139205
 21
7.167597225005638
 31
0.0
1001
REVIT
1002
{
1070
     2
1000
-2001160
1002
}
  0
LINE
  5
5A5
330
53F
100
AcDbEntity
  8
D35160527
100
AcDbLine
 10
1.359067520139205
 20
7.167597225005638
 30
0.0
 11
1.306325080025945
 21
7.220912185859954
 31
0.0
1001
REVIT
1002
{
1070
     2
1000
-2001160
1002
}
  0
LINE
  5
5A6
330
53F
100
AcDbEntity
  8
D35160527
100
AcDbLine
 10
1.306325080025945
 20
7.220912185859954
 30
0.0
 11
1.25149279845246
 21
7.272075365368716
 31
0.0
1001
REVIT
1002
{
1070
     2
1000
-2001160
1002
}
  0
LINE
  5
5A7
330
53F
100
AcDbEntity
  8
D35160527
100
AcDbLine
 10
1.25149279845246
 20
7.272075365368716
 30
0.0
 11
1.194658395372353
 21
7.321004913358918
 31
0.0
1001
REVIT
1002
{
1070
     2
1000
-2001160
1002
}
  0
LINE
  5
5A8
330
53F
100
AcDbEntity
  8
D35160527
100
AcDbLine
 10
1.194658395372353
 20
7.321004913358918
 30
0.0
 11
1.135912793706498
 21
7.367622552991544
 31
0.0
1001
REVIT
1002
{
1070
     2
1000
-2001160
1002
}
  0
LINE
  5
5A9
330
53F
100
AcDbEntity
  8
D35160527
100
AcDbLine
 10
1.135912793706498
 20
7.367622552991544
 30
0.0
 11
1.075349973885874
 21
7.411853705987733
 31
0.0
1001
REVIT
1002
{
1070
     2
1000
-2001160
1002
}
  0
LINE
  5
5AA
330
53F
100
AcDbEntity
  8
D35160527
100
AcDbLine
 10
1.075349973885874
 20
7.411853705987733
 30
0.0
 11
1.013066823502775
 21
7.453627611938158
 31
0.0
1001
REVIT
1002
{
1070
     2
1000
-2001160
1002
}
  0
LINE
  5
5AB
330
53F
100
AcDbEntity
  8
D35160527
100
AcDbLine
 10
1.013066823502775
 20
7.453627611938158
 30
0.0
 11
0.9491629823114633
 21
7.492877441504616
 31
0.0
1001
REVIT
1002
{
1070
     2
1000
-2001160
1002
}
  0
LINE
  5
5AC
330
53F
100
AcDbEntity
  8
D35160527
100
AcDbLine
 10
0.9491629823114633
 20
7.492877441504616
 30
0.0
 11
0.8837406828257739
 21
7.529540403332634
 31
0.0
1001
REVIT
1002
{
1070
     2
1000
-2001160
1002
}
  0
LINE
  5
5AD
330
53F
100
AcDbEntity
  8
D35160527
100
AcDbLine
 10
0.8837406828257739
 20
7.529540403332634
 30
0.0
 11
0.8169045867688458
 21
7.563557844504297
 31
0.0
1001
REVIT
1002
{
1070
     2
1000
-2001160
1002
}
  0
LINE
  5
5AE
330
53F
100
AcDbEntity
  8
D35160527
100
AcDbLine
 10
0.8169045867688458
 20
7.563557844504297
 30
0.0
 11
0.7487616176367737
 21
7.594875344370424
 31
0.0
1001
REVIT
1002
{
1070
     2
1000
-2001160
1002
}
  0
LINE
  5
5AF
330
53F
100
AcDbEntity
  8
D35160527
100
AcDbLine
 10
0.7487616176367737
 20
7.594875344370424
 30
0.0
 11
0.6794207896437676
 21
7.62344280161191
 31
0.0
1001
REVIT
1002
{
1070
     2
1000
-2001160
1002
}
  0
LINE
  5
5B0
330
53F
100
AcDbEntity
  8
D35160527
100
AcDbLine
 10
0.6794207896437676
 20
7.62344280161191
 30
0.0
 11
0.6089930333227151
 21
7.649214514391242
 31
0.0
1001
REVIT
1002
{
1070
     2
1000
-2001160
1002
}
  0
LINE
  5
5B1
330
53F
100
AcDbEntity
  8
D35160527
100
AcDbLine
 10
0.6089930333227151
 20
7.649214514391242
 30
0.0
 11
0.5375910180599277
 21
7.672149253465657
 31
0.0
1001
REVIT
1002
{
1070
     2
1000
-2001160
1002
}
  0
LINE
  5
5B2
330
53F
100
AcDbEntity
  8
D35160527
100
AcDbLine
 10
0.5375910180599277
 20
7.672149253465657
 30
0.0
 11
0.4653289718482085
 21
7.692210328145107
 31
0.0
1001
REVIT
1002
{
1070
     2
1000
-2001160
1002
}
  0
LINE
  5
5B3
330
53F
100
AcDbEntity
  8
D35160527
100
AcDbLine
 10
0.4653289718482085
 20
7.692210328145107
 30
0.0
 11
0.3923224985464166
 21
7.70936564498958
 31
0.0
1001
REVIT
1002
{
1070
     2
1000
-2001160
1002
}
  0
LINE
  5
5B4
330
53F
100
AcDbEntity
  8
D35160527
100
AcDbLine
 10
0.3923224985464166
 20
7.70936564498958
 30
0.0
 11
0.3186883929379646
 21
7.723587759151722
 31
0.0
1001
REVIT
1002
{
1070
     2
1000
-2001160
1002
}
  0
LINE
  5
5B5
330
53F
100
AcDbEntity
  8
D35160527
100
AcDbLine
 10
0.3186883929379646
 20
7.723587759151722
 30
0.0
 11
0.2445444538840355
 21
7.734853918282769
 31
0.0
1001
REVIT
1002
{
1070
     2
1000
-2001160
1002
}
  0
LINE
  5
5B6
330
53F
100
AcDbEntity
  8
D35160527
100
AcDbLine
 10
0.2445444538840355
 20
7.734853918282769
 30
0.0
 11
0.1700092958705852
 21
7.743146098931435
 31
0.0
1001
REVIT
1002
{
1070
     2
1000
-2001160
1002
}
  0
LINE
  5
5B7
330
53F
100
AcDbEntity
  8
D35160527
100
AcDbLine
 10
0.1700092958705852
 20
7.743146098931435
 30
0.0
 11
0.0952021592504693
 21
7.748451035377573
 31
0.0
1001
REVIT
1002
{
1070
     2
1000
-2001160
1002
}
  0
LINE
  5
5B8
330
53F
100
AcDbEntity
  8
D35160527
100
AcDbLine
 10
0.0952021592504693
 20
7.748451035377573
 30
0.0
 11
0.0202427194842585
 21
7.750760240854542
 31
0.0
1001
REVIT
1002
{
1070
     2
1000
-2001160
1002
}
  0
LINE
  5
5B9
330
53F
100
AcDbEntity
  8
D35160527
100
AcDbLine
 10
0.0202427194842585
 20
7.750760240854542
 30
0.0
 11
-0.0547491043149115
 21
7.750070021126183
 31
0.0
1001
REVIT
1002
{
1070
     2
1000
-2001160
1002
}
  0
LINE
  5
5BA
330
53F
100
AcDbEntity
  8
D35160527
100
AcDbLine
 10
-0.0547491043149115
 20
7.750070021126183
 30
0.0
 11
-0.1296533412263549
 21
7.746381480396808
 31
0.0
1001
REVIT
1002
{
1070
     2
1000
-2001160
1002
}
  0
LINE
  5
5BB
330
53F
100
AcDbEntity
  8
D35160527
100
AcDbLine
 10
-0.1296533412263549
 20
7.746381480396808
 30
0.0
 11
-0.2043501604497492
 21
7.739700519544753
 31
0.0
1001
REVIT
1002
{
1070
     2
1000
-2001160
1002
}
  0
LINE
  5
5BC
330
53F
100
AcDbEntity
  8
D35160527
100
AcDbLine
 10
-0.2043501604497492
 20
7.739700519544753
 30
0.0
 11
-0.2787200630088015
 21
7.730037826682173
 31
0.0
1001
REVIT
1002
{
1070
     2
1000
-2001160
1002
}
  0
LINE
  5
5BD
330
53F
100
AcDbEntity
  8
D35160527
100
AcDbLine
 10
-0.2787200630088015
 20
7.730037826682173
 30
0.0
 11
-0.35264407292415
 21
7.71740886005639
 31
0.0
1001
REVIT
1002
{
1070
     2
1000
-2001160
1002
}
  0
LINE
  5
5BE
330
53F
100
AcDbEntity
  8
D35160527
100
AcDbLine
 10
-0.35264407292415
 20
7.71740886005639
 30
0.0
 11
-0.4260039275495373
 21
7.701833823319979
 31
0.0
1001
REVIT
1002
{
1070
     2
1000
-2001160
1002
}
  0
LINE
  5
5BF
330
53F
100
AcDbEntity
  8
D35160527
100
AcDbLine
 10
-0.4260039275495373
 20
7.701833823319979
 30
0.0
 11
-0.4986822667668384
 21
7.683337633209197
 31
0.0
1001
REVIT
1002
{
1070
     2
1000
-2001160
1002
}
  0
LINE
  5
5C0
330
53F
100
AcDbEntity
  8
D35160527
100
AcDbLine
 10
-0.4986822667668384
 20
7.683337633209197
 30
0.0
 11
-0.5705628207371766
 21
7.661949879682604
 31
0.0
1001
REVIT
1002
{
1070
     2
1000
-2001160
1002
}
  0
LINE
  5
5C1
330
53F
100
AcDbEntity
  8
D35160527
100
AcDbLine
 10
-0.5705628207371766
 20
7.661949879682604
 30
0.0
 11
-0.6415305959079304
 21
7.63770477858334
 31
0.0
1001
REVIT
1002
{
1070
     2
1000
-2001160
1002
}
  0
LINE
  5
5C2
330
53F
100
AcDbEntity
  8
D35160527
100
AcDbLine
 10
-0.6415305959079304
 20
7.63770477858334
 30
0.0
 11
-0.7114720589777903
 21
7.610641116901173
 31
0.0
1001
REVIT
1002
{
1070
     2
1000
-2001160
1002
}
  0
LINE
  5
5C3
330
53F
100
AcDbEntity
  8
D35160527
100
AcDbLine
 10
-0.7114720589777903
 20
7.610641116901173
 30
0.0
 11
-0.7802753185258914
 21
7.580802190721509
 31
0.0
1001
REVIT
1002
{
1070
     2
1000
-2001160
1002
}
  0
LINE
  5
5C4
330
53F
100
AcDbEntity
  8
D35160527
100
AcDbLine
 10
-0.7802753185258914
 20
7.580802190721509
 30
0.0
 11
-0.8478303040142057
 21
7.548235735960942
 31
0.0
1001
REVIT
1002
{
1070
     2
1000
-2001160
1002
}
  0
LINE
  5
5C5
330
53F
100
AcDbEntity
  8
D35160527
100
AcDbLine
 10
-0.8478303040142057
 20
7.548235735960942
 30
0.0
 11
-0.9140289418769247
 21
7.512993851999953
 31
0.0
1001
REVIT
1002
{
1070
     2
1000
-2001160
1002
}
  0
LINE
  5
5C6
330
53F
100
AcDbEntity
  8
D35160527
100
AcDbLine
 10
-0.9140289418769247
 20
7.512993851999953
 30
0.0
 11
-0.9787653284150755
 21
7.475132918334995
 31
0.0
1001
REVIT
1002
{
1070
     2
1000
-2001160
1002
}
  0
LINE
  5
5C7
330
53F
100
AcDbEntity
  8
D35160527
100
AcDbLine
 10
-0.9787653284150755
 20
7.475132918334995
 30
0.0
 11
-1.041935899219897
 21
7.434713504383387
 31
0.0
1001
REVIT
1002
{
1070
     2
1000
-2001160
1002
}
  0
LINE
  5
5C8
330
53F
100
AcDbEntity
  8
D35160527
100
AcDbLine
 10
-1.041935899219897
 20
7.434713504383387
 30
0.0
 11
-1.103439594853771
 21
7.391800272585089
 31
0.0
1001
REVIT
1002
{
1070
     2
1000
-2001160
1002
}
  0
LINE
  5
5C9
330
53F
100
AcDbEntity
  8
D35160527
100
AcDbLine
 10
-1.103439594853771
 20
7.391800272585089
 30
0.0
 11
-1.163178022523766
 21
7.346461874956651
 31
0.0
1001
REVIT
1002
{
1070
     2
1000
-2001160
1002
}
  0
LINE
  5
5CA
330
53F
100
AcDbEntity
  8
D35160527
100
AcDbLine
 10
-1.163178022523766
 20
7.346461874956651
 30
0.0
 11
-1.221055613489152
 21
7.298770843262583
 31
0.0
1001
REVIT
1002
{
1070
     2
1000
-2001160
1002
}
  0
LINE
  5
5CB
330
53F
100
AcDbEntity
  8
D35160527
100
AcDbLine
 10
-1.221055613489152
 20
7.298770843262583
 30
0.0
 11
-1.276979775950902
 21
7.248803472980084
 31
0.0
1001
REVIT
1002
{
1070
     2
1000
-2001160
1002
}
  0
LINE
  5
5CC
330
53F
100
AcDbEntity
  8
D35160527
100
AcDbLine
 10
-1.276979775950902
 20
7.248803472980084
 30
0.0
 11
-1.33086104317897
 21
7.196639701242442
 31
0.0
1001
REVIT
1002
{
1070
     2
1000
-2001160
1002
}
  0
LINE
  5
5CD
330
53F
100
AcDbEntity
  8
D35160527
100
AcDbLine
 10
-1.33086104317897
 20
7.196639701242442
 30
0.0
 11
-1.382613216639828
 21
7.142362978956767
 31
0.0
1001
REVIT
1002
{
1070
     2
1000
-2001160
1002
}
  0
LINE
  5
5CE
330
53F
100
AcDbEntity
  8
D35160527
100
AcDbLine
 10
-1.382613216639828
 20
7.142362978956767
 30
0.0
 11
-1.432153503895825
 21
7.086060137300306
 31
0.0
1001
REVIT
1002
{
1070
     2
1000
-2001160
1002
}
  0
LINE
  5
5CF
330
53F
100
AcDbEntity
  8
D35160527
100
AcDbLine
 10
-1.432153503895825
 20
7.086060137300306
 30
0.0
 11
-1.479402651055373
 21
7.02782124880906
 31
0.0
1001
REVIT
1002
{
1070
     2
1000
-2001160
1002
}
  0
LINE
  5
5D0
330
53F
100
AcDbEntity
  8
D35160527
100
AcDbLine
 10
-1.479402651055373
 20
7.02782124880906
 30
0.0
 11
-1.524285069562288
 21
6.967739483281007
 31
0.0
1001
REVIT
1002
{
1070
     2
1000
-2001160
1002
}
  0
LINE
  5
5D1
330
53F
100
AcDbEntity
  8
D35160527
100
AcDbLine
 10
-1.524285069562288
 20
6.967739483281007
 30
0.0
 11
-1.566728957121391
 21
6.905910958724216
 31
0.0
1001
REVIT
1002
{
1070
     2
1000
-2001160
1002
}
  0
LINE
  5
5D2
330
53F
100
AcDbEntity
  8
D35160527
100
AcDbLine
 10
-1.566728957121391
 20
6.905910958724216
 30
0.0
 11
-1.606666412566774
 21
6.842434587588598
 31
0.0
1001
REVIT
1002
{
1070
     2
1000
-2001160
1002
}
  0
LINE
  5
5D3
330
53F
100
AcDbEntity
  8
D35160527
100
AcDbLine
 10
-1.606666412566774
 20
6.842434587588598
 30
0.0
 11
-1.644033544489271
 21
6.777411918527074
 31
0.0
1001
REVIT
1002
{
1070
     2
1000
-2001160
1002
}
  0
LINE
  5
5D4
330
53F
100
AcDbEntity
  8
D35160527
100
AcDbLine
 10
-1.644033544489271
 20
6.777411918527074
 30
0.0
 11
-1.678770573449042
 21
6.710946973939363
 31
0.0
1001
REVIT
1002
{
1070
     2
1000
-2001160
1002
}
  0
LINE
  5
5D5
330
53F
100
AcDbEntity
  8
D35160527
100
AcDbLine
 10
-1.678770573449042
 20
6.710946973939363
 30
0.0
 11
-1.71082192760992
 21
6.643146083558387
 31
0.0
1001
REVIT
1002
{
1070
     2
1000
-2001160
1002
}
  0
LINE
  5
5D6
330
53F
100
AcDbEntity
  8
D35160527
100
AcDbLine
 10
-1.71082192760992
 20
6.643146083558387
 30
0.0
 11
-1.740136331642503
 21
6.574117714345329
 31
0.0
1001
REVIT
1002
{
1070
     2
1000
-2001160
1002
}
  0
LINE
  5
5D7
330
53F
100
AcDbEntity
  8
D35160527
100
AcDbLine
 10
-1.740136331642503
 20
6.574117714345329
 30
0.0
 11
-1.766666888753728
 21
6.503972296965677
 31
0.0
1001
REVIT
1002
{
1070
     2
1000
-2001160
1002
}
  0
LINE
  5
5D8
330
53F
100
AcDbEntity
  8
D35160527
100
AcDbLine
 10
-1.766666888753728
 20
6.503972296965677
 30
0.0
 11
-1.790371155711799
 21
6.432822049123667
 31
0.0
1001
REVIT
1002
{
1070
     2
1000
-2001160
1002
}
  0
LINE
  5
5D9
330
53F
100
AcDbEntity
  8
D35160527
100
AcDbLine
 10
-1.790371155711799
 20
6.432822049123667
 30
0.0
 11
-1.8112112107462
 21
6.360780796037938
 31
0.0
1001
REVIT
1002
{
1070
     2
1000
-2001160
1002
}
  0
LINE
  5
5DA
330
53F
100
AcDbEntity
  8
D35160527
100
AcDbLine
 10
-1.8112112107462
 20
6.360780796037938
 30
0.0
 11
-1.829153714214527
 21
6.287963788345449
 31
0.0
1001
REVIT
1002
{
1070
     2
1000
-2001160
1002
}
  0
LINE
  5
5DB
330
53F
100
AcDbEntity
  8
D35160527
100
AcDbLine
 10
-1.829153714214527
 20
6.287963788345449
 30
0.0
 11
-1.844169961938767
 21
6.214487517725042
 31
0.0
1001
REVIT
1002
{
1070
     2
1000
-2001160
1002
}
  0
LINE
  5
5DC
330
53F
100
AcDbEntity
  8
D35160527
100
AcDbLine
 10
-1.844169961938767
 20
6.214487517725042
 30
0.0
 11
-1.856235931125833
 21
6.140469530535603
 31
0.0
1001
REVIT
1002
{
1070
     2
1000
-2001160
1002
}
  0
LINE
  5
5DD
330
53F
100
AcDbEntity
  8
D35160527
100
AcDbLine
 10
-1.856235931125833
 20
6.140469530535603
 30
0.0
 11
-1.865332318798983
 21
6.066028239766988
 31
0.0
1001
REVIT
1002
{
1070
     2
1000
-2001160
1002
}
  0
LINE
  5
5DE
330
53F
100
AcDbEntity
  8
D35160527
100
AcDbLine
 10
-1.865332318798983
 20
6.066028239766988
 30
0.0
 11
-1.871444572678399
 21
5.991282735604442
 31
0.0
1001
REVIT
1002
{
1070
     2
1000
-2001160
1002
}
  0
LINE
  5
5DF
330
53F
100
AcDbEntity
  8
D35160527
100
AcDbLine
 10
-1.871444572678399
 20
5.991282735604442
 30
0.0
 11
-1.87456291446174
 21
5.916352594909784
 31
0.0
1001
REVIT
1002
{
1070
     2
1000
-2001160
1002
}
  0
LINE
  5
5E0
330
53F
100
AcDbEntity
  8
D35160527
100
AcDbLine
 10
-1.87456291446174
 20
5.916352594909784
 30
0.0
 11
-1.874999999999999
 21
5.87586951542337
 31
0.0
1001
REVIT
1002
{
1070
     2
1000
-2001160
1002
}
  0
LINE
  5
5E1
330
53F
100
AcDbEntity
  8
D35160527
100
AcDbLine
 10
-1.874999999999999
 20
5.875869515423359
 30
0.0
 11
-1.87500000000001
 21
1.874130484575218
 31
0.0
1001
REVIT
1002
{
1070
     2
1000
-2001160
1002
}
  0
LINE
  5
5E2
330
53F
100
AcDbEntity
  8
D35160527
100
AcDbLine
 10
-0.2505816474652924
 20
4.129262912044555
 30
0.0
 11
-0.206796218735004
 21
4.053424324852509
 31
0.0
1001
REVIT
1002
{
1070
     2
1000
-2001160
1002
}
  0
LINE
  5
5E3
330
53F
100
AcDbEntity
  8
D35160527
100
AcDbLine
 10
0.2067962187350467
 20
4.053424324852509
 30
0.0
 11
0.250581647465335
 21
4.129262912044555
 31
0.0
1001
REVIT
1002
{
1070
     2
1000
-2001160
1002
}
  0
LINE
  5
5E4
330
53F
100
AcDbEntity
  8
D35160527
100
AcDbLine
 10
0.0
 20
3.99999999999925
 30
0.0
 11
-0.0170733727173733
 21
4.000341512989872
 31
0.0
1001
REVIT
1002
{
1070
     2
1000
-2001160
1002
}
  0
LINE
  5
5E5
330
53F
100
AcDbEntity
  8
D35160527
100
AcDbLine
 10
-0.0170733727173733
 20
4.000341512989872
 30
0.0
 11
-0.0341194316805549
 21
4.001365505613835
 31
0.0
1001
REVIT
1002
{
1070
     2
1000
-2001160
1002
}
  0
LINE
  5
5E6
330
53F
100
AcDbEntity
  8
D35160527
100
AcDbLine
 10
-0.0341194316805549
 20
4.001365505613835
 30
0.0
 11
-0.0511109068314504
 21
4.003070339701348
 31
0.0
1001
REVIT
1002
{
1070
     2
1000
-2001160
1002
}
  0
LINE
  5
5E7
330
53F
100
AcDbEntity
  8
D35160527
100
AcDbLine
 10
-0.0511109068314504
 20
4.003070339701348
 30
0.0
 11
-0.0680206154345093
 21
4.005453287881556
 31
0.0
1001
REVIT
1002
{
1070
     2
1000
-2001160
1002
}
  0
LINE
  5
5E8
330
53F
100
AcDbEntity
  8
D35160527
100
AcDbLine
 10
-0.0680206154345093
 20
4.005453287881556
 30
0.0
 11
-0.0848215055631556
 21
4.008510537945727
 31
0.0
1001
REVIT
1002
{
1070
     2
1000
-2001160
1002
}
  0
LINE
  5
5E9
330
53F
100
AcDbEntity
  8
D35160527
100
AcDbLine
 10
-0.0848215055631556
 20
4.008510537945727
 30
0.0
 11
-0.101486699377201
 21
4.012237198945913
 31
0.0
1001
REVIT
1002
{
1070
     2
1000
-2001160
1002
}
  0
LINE
  5
5EA
330
53F
100
AcDbEntity
  8
D35160527
100
AcDbLine
 10
-0.101486699377201
 20
4.012237198945913
 30
0.0
 11
-0.1179895361215806
 21
4.016627309019518
 31
0.0
1001
REVIT
1002
{
1070
     2
1000
-2001160
1002
}
  0
LINE
  5
5EB
330
53F
100
AcDbEntity
  8
D35160527
100
AcDbLine
 10
-0.1179895361215806
 20
4.016627309019518
 30
0.0
 11
-0.1343036147779202
 21
4.021673844926897
 31
0.0
1001
REVIT
1002
{
1070
     2
1000
-2001160
1002
}
  0
LINE
  5
5EC
330
53F
100
AcDbEntity
  8
D35160527
100
AcDbLine
 10
-0.1343036147779202
 20
4.021673844926897
 30
0.0
 11
-0.1504028363005218
 21
4.027368733287175
 31
0.0
1001
REVIT
1002
{
1070
     2
1000
-2001160
1002
}
  0
LINE
  5
5ED
330
53F
100
AcDbEntity
  8
D35160527
100
AcDbLine
 10
-0.1504028363005218
 20
4.027368733287175
 30
0.0
 11
-0.1662614453692796
 21
4.033702863493778
 31
0.0
1001
REVIT
1002
{
1070
     2
1000
-2001160
1002
}
  0
LINE
  5
5EE
330
53F
100
AcDbEntity
  8
D35160527
100
AcDbLine
 10
-0.1662614453692796
 20
4.033702863493778
 30
0.0
 11
-0.1818540715926566
 21
4.040666102289626
 31
0.0
1001
REVIT
1002
{
1070
     2
1000
-2001160
1002
}
  0
LINE
  5
5EF
330
53F
100
AcDbEntity
  8
D35160527
100
AcDbLine
 10
-0.1818540715926566
 20
4.040666102289626
 30
0.0
 11
-0.1971557700949517
 21
4.048247309978022
 31
0.0
1001
REVIT
1002
{
1070
     2
1000
-2001160
1002
}
  0
LINE
  5
5F0
330
53F
100
AcDbEntity
  8
D35160527
100
AcDbLine
 10
-0.1971557700949517
 20
4.048247309978022
 30
0.0
 11
-0.206796218735004
 21
4.053424324852509
 31
0.0
1001
REVIT
1002
{
1070
     2
1000
-2001160
1002
}
  0
LINE
  5
5F1
330
53F
100
AcDbEntity
  8
D35160527
100
AcDbLine
 10
0.2067962187350467
 20
4.053424324852509
 30
0.0
 11
0.1916938342800023
 21
4.045453460982009
 31
0.0
1001
REVIT
1002
{
1070
     2
1000
-2001160
1002
}
  0
LINE
  5
5F2
330
53F
100
AcDbEntity
  8
D35160527
100
AcDbLine
 10
0.1916938342800023
 20
4.045453460982009
 30
0.0
 11
0.1762847805826055
 21
4.038092907251427
 31
0.0
1001
REVIT
1002
{
1070
     2
1000
-2001160
1002
}
  0
LINE
  5
5F3
330
53F
100
AcDbEntity
  8
D35160527
100
AcDbLine
 10
0.1762847805826055
 20
4.038092907251427
 30
0.0
 11
0.1605937088417093
 21
4.031354438976548
 31
0.0
1001
REVIT
1002
{
1070
     2
1000
-2001160
1002
}
  0
LINE
  5
5F4
330
53F
100
AcDbEntity
  8
D35160527
100
AcDbLine
 10
0.1605937088417093
 20
4.031354438976548
 30
0.0
 11
0.1446457214248155
 21
4.025248836269141
 31
0.0
1001
REVIT
1002
{
1070
     2
1000
-2001160
1002
}
  0
LINE
  5
5F5
330
53F
100
AcDbEntity
  8
D35160527
100
AcDbLine
 10
0.1446457214248155
 20
4.025248836269141
 30
0.0
 11
0.128466331709756
 21
4.019785866791106
 31
0.0
1001
REVIT
1002
{
1070
     2
1000
-2001160
1002
}
  0
LINE
  5
5F6
330
53F
100
AcDbEntity
  8
D35160527
100
AcDbLine
 10
0.128466331709756
 20
4.019785866791106
 30
0.0
 11
0.1120814232686484
 21
4.014974270128202
 31
0.0
1001
REVIT
1002
{
1070
     2
1000
-2001160
1002
}
  0
LINE
  5
5F7
330
53F
100
AcDbEntity
  8
D35160527
100
AcDbLine
 10
0.1120814232686484
 20
4.014974270128202
 30
0.0
 11
0.0955172084597393
 21
4.010821743808697
 31
0.0
1001
REVIT
1002
{
1070
     2
1000
-2001160
1002
}
  0
LINE
  5
5F8
330
53F
100
AcDbEntity
  8
D35160527
100
AcDbLine
 10
0.0955172084597393
 20
4.010821743808697
 30
0.0
 11
0.0788001864932149
 21
4.007334930988867
 31
0.0
1001
REVIT
1002
{
1070
     2
1000
-2001160
1002
}
  0
LINE
  5
5F9
330
53F
100
AcDbEntity
  8
D35160527
100
AcDbLine
 10
0.0788001864932149
 20
4.007334930988867
 30
0.0
 11
0.0619571010381144
 21
4.004519409825411
 31
0.0
1001
REVIT
1002
{
1070
     2
1000
-2001160
1002
}
  0
LINE
  5
5FA
330
53F
100
AcDbEntity
  8
D35160527
100
AcDbLine
 10
0.0619571010381144
 20
4.004519409825411
 30
0.0
 11
0.0450148974381541
 21
4.002379684551573
 31
0.0
1001
REVIT
1002
{
1070
     2
1000
-2001160
1002
}
  0
LINE
  5
5FB
330
53F
100
AcDbEntity
  8
D35160527
100
AcDbLine
 10
0.0450148974381541
 20
4.002379684551573
 30
0.0
 11
0.0280006796049612
 21
4.000919178271337
 31
0.0
1001
REVIT
1002
{
1070
     2
1000
-2001160
1002
}
  0
LINE
  5
5FC
330
53F
100
AcDbEntity
  8
D35160527
100
AcDbLine
 10
0.0280006796049612
 20
4.000919178271337
 30
0.0
 11
0.010941666657569
 21
4.00014022748322
 31
0.0
1001
REVIT
1002
{
1070
     2
1000
-2001160
1002
}
  0
LINE
  5
5FD
330
53F
100
AcDbEntity
  8
D35160527
100
AcDbLine
 10
0.010941666657569
 20
4.00014022748322
 30
0.0
 11
0.0000000000000213
 21
3.99999999999925
 31
0.0
1001
REVIT
1002
{
1070
     2
1000
-2001160
1002
}
  0
LINE
  5
5FE
330
53F
100
AcDbEntity
  8
D35160527
100
AcDbLine
 10
-0.1667912511197187
 20
5.327521405700362
 30
0.0
 11
-0.2505816474652924
 21
4.129262912044555
 31
0.0
1001
REVIT
1002
{
1070
     2
1000
-2001160
1002
}
  0
LINE
  5
5FF
330
53F
100
AcDbEntity
  8
D35160527
100
AcDbLine
 10
0.250581647465335
 20
4.129262912044555
 30
0.0
 11
0.1667912511197507
 21
5.327521405700351
 31
0.0
1001
REVIT
1002
{
1070
     2
1000
-2001160
1002
}
  0
LINE
  5
600
330
53F
100
AcDbEntity
  8
D35160527
100
AcDbLine
 10
-0.2505816474652924
 20
0.129262912045295
 30
0.0
 11
-0.206796218735004
 21
0.0534243248532498
 31
0.0
1001
REVIT
1002
{
1070
     2
1000
-2001160
1002
}
  0
LINE
  5
601
330
53F
100
AcDbEntity
  8
D35160527
100
AcDbLine
 10
0.2067962187350467
 20
0.0534243248532498
 30
0.0
 11
0.250581647465335
 21
0.129262912045295
 31
0.0
1001
REVIT
1002
{
1070
     2
1000
-2001160
1002
}
  0
LINE
  5
602
330
53F
100
AcDbEntity
  8
D35160527
100
AcDbLine
 10
0.0
 20
0.0
 30
0.0
 11
-0.017073372717384
 21
0.000341512990623
 31
0.0
1001
REVIT
1002
{
1070
     2
1000
-2001160
1002
}
  0
LINE
  5
603
330
53F
100
AcDbEntity
  8
D35160527
100
AcDbLine
 10
-0.017073372717384
 20
0.000341512990623
 30
0.0
 11
-0.0341194316805549
 21
0.0013655056145652
 31
0.0
1001
REVIT
1002
{
1070
     2
1000
-2001160
1002
}
  0
LINE
  5
604
330
53F
100
AcDbEntity
  8
D35160527
100
AcDbLine
 10
-0.0341194316805549
 20
0.0013655056145652
 30
0.0
 11
-0.0511109068314504
 21
0.0030703397020773
 31
0.0
1001
REVIT
1002
{
1070
     2
1000
-2001160
1002
}
  0
LINE
  5
605
330
53F
100
AcDbEntity
  8
D35160527
100
AcDbLine
 10
-0.0511109068314504
 20
0.0030703397020773
 30
0.0
 11
-0.0680206154345093
 21
0.0054532878823075
 31
0.0
1001
REVIT
1002
{
1070
     2
1000
-2001160
1002
}
  0
LINE
  5
606
330
53F
100
AcDbEntity
  8
D35160527
100
AcDbLine
 10
-0.0680206154345093
 20
0.0054532878823075
 30
0.0
 11
-0.0848215055631556
 21
0.0085105379464672
 31
0.0
1001
REVIT
1002
{
1070
     2
1000
-2001160
1002
}
  0
LINE
  5
607
330
53F
100
AcDbEntity
  8
D35160527
100
AcDbLine
 10
-0.0848215055631556
 20
0.0085105379464672
 30
0.0
 11
-0.101486699377201
 21
0.0122371989466643
 31
0.0
1001
REVIT
1002
{
1070
     2
1000
-2001160
1002
}
  0
LINE
  5
608
330
53F
100
AcDbEntity
  8
D35160527
100
AcDbLine
 10
-0.101486699377201
 20
0.0122371989466643
 30
0.0
 11
-0.1179895361215806
 21
0.016627309020258
 31
0.0
1001
REVIT
1002
{
1070
     2
1000
-2001160
1002
}
  0
LINE
  5
609
330
53F
100
AcDbEntity
  8
D35160527
100
AcDbLine
 10
-0.1179895361215806
 20
0.016627309020258
 30
0.0
 11
-0.1343036147779202
 21
0.0216738449276477
 31
0.0
1001
REVIT
1002
{
1070
     2
1000
-2001160
1002
}
  0
LINE
  5
60A
330
53F
100
AcDbEntity
  8
D35160527
100
AcDbLine
 10
-0.1343036147779202
 20
0.0216738449276477
 30
0.0
 11
-0.1504028363005218
 21
0.0273687332879149
 31
0.0
1001
REVIT
1002
{
1070
     2
1000
-2001160
1002
}
  0
LINE
  5
60B
330
53F
100
AcDbEntity
  8
D35160527
100
AcDbLine
 10
-0.1504028363005218
 20
0.0273687332879149
 30
0.0
 11
-0.1662614453692796
 21
0.0337028634945291
 31
0.0
1001
REVIT
1002
{
1070
     2
1000
-2001160
1002
}
  0
LINE
  5
60C
330
53F
100
AcDbEntity
  8
D35160527
100
AcDbLine
 10
-0.1662614453692796
 20
0.0337028634945291
 30
0.0
 11
-0.1818540715926566
 21
0.0406661022903663
 31
0.0
1001
REVIT
1002
{
1070
     2
1000
-2001160
1002
}
  0
LINE
  5
60D
330
53F
100
AcDbEntity
  8
D35160527
100
AcDbLine
 10
-0.1818540715926566
 20
0.0406661022903663
 30
0.0
 11
-0.1971557700949517
 21
0.0482473099787626
 31
0.0
1001
REVIT
1002
{
1070
     2
1000
-2001160
1002
}
  0
LINE
  5
60E
330
53F
100
AcDbEntity
  8
D35160527
100
AcDbLine
 10
-0.1971557700949517
 20
0.0482473099787626
 30
0.0
 11
-0.206796218735004
 21
0.0534243248532498
 31
0.0
1001
REVIT
1002
{
1070
     2
1000
-2001160
1002
}
  0
LINE
  5
60F
330
53F
100
AcDbEntity
  8
D35160527
100
AcDbLine
 10
0.2067962187350467
 20
0.0534243248532498
 30
0.0
 11
0.1916938342800023
 21
0.0454534609827597
 31
0.0
1001
REVIT
1002
{
1070
     2
1000
-2001160
1002
}
  0
LINE
  5
610
330
53F
100
AcDbEntity
  8
D35160527
100
AcDbLine
 10
0.1916938342800023
 20
0.0454534609827597
 30
0.0
 11
0.1762847805826055
 21
0.0380929072521674
 31
0.0
1001
REVIT
1002
{
1070
     2
1000
-2001160
1002
}
  0
LINE
  5
611
330
53F
100
AcDbEntity
  8
D35160527
100
AcDbLine
 10
0.1762847805826055
 20
0.0380929072521674
 30
0.0
 11
0.1605937088417093
 21
0.0313544389772886
 31
0.0
1001
REVIT
1002
{
1070
     2
1000
-2001160
1002
}
  0
LINE
  5
612
330
53F
100
AcDbEntity
  8
D35160527
100
AcDbLine
 10
0.1605937088417093
 20
0.0313544389772886
 30
0.0
 11
0.1446457214248155
 21
0.025248836269892
 31
0.0
1001
REVIT
1002
{
1070
     2
1000
-2001160
1002
}
  0
LINE
  5
613
330
53F
100
AcDbEntity
  8
D35160527
100
AcDbLine
 10
0.1446457214248155
 20
0.025248836269892
 30
0.0
 11
0.128466331709756
 21
0.019785866791846
 31
0.0
1001
REVIT
1002
{
1070
     2
1000
-2001160
1002
}
  0
LINE
  5
614
330
53F
100
AcDbEntity
  8
D35160527
100
AcDbLine
 10
0.128466331709756
 20
0.019785866791846
 30
0.0
 11
0.1120814232686484
 21
0.0149742701289419
 31
0.0
1001
REVIT
1002
{
1070
     2
1000
-2001160
1002
}
  0
LINE
  5
615
330
53F
100
AcDbEntity
  8
D35160527
100
AcDbLine
 10
0.1120814232686484
 20
0.0149742701289419
 30
0.0
 11
0.0955172084597393
 21
0.0108217438094371
 31
0.0
1001
REVIT
1002
{
1070
     2
1000
-2001160
1002
}
  0
LINE
  5
616
330
53F
100
AcDbEntity
  8
D35160527
100
AcDbLine
 10
0.0955172084597393
 20
0.0108217438094371
 30
0.0
 11
0.0788001864932149
 21
0.0073349309896074
 31
0.0
1001
REVIT
1002
{
1070
     2
1000
-2001160
1002
}
  0
LINE
  5
617
330
53F
100
AcDbEntity
  8
D35160527
100
AcDbLine
 10
0.0788001864932149
 20
0.0073349309896074
 30
0.0
 11
0.0619571010381144
 21
0.0045194098261518
 31
0.0
1001
REVIT
1002
{
1070
     2
1000
-2001160
1002
}
  0
LINE
  5
618
330
53F
100
AcDbEntity
  8
D35160527
100
AcDbLine
 10
0.0619571010381144
 20
0.0045194098261518
 30
0.0
 11
0.0450148974381541
 21
0.002379684552313
 31
0.0
1001
REVIT
1002
{
1070
     2
1000
-2001160
1002
}
  0
LINE
  5
619
330
53F
100
AcDbEntity
  8
D35160527
100
AcDbLine
 10
0.0450148974381541
 20
0.002379684552313
 30
0.0
 11
0.0280006796049612
 21
0.0009191782720883
 31
0.0
1001
REVIT
1002
{
1070
     2
1000
-2001160
1002
}
  0
LINE
  5
61A
330
53F
100
AcDbEntity
  8
D35160527
100
AcDbLine
 10
0.0280006796049612
 20
0.0009191782720883
 30
0.0
 11
0.010941666657569
 21
0.0001402274839606
 31
0.0
1001
REVIT
1002
{
1070
     2
1000
-2001160
1002
}
  0
LINE
  5
61B
330
53F
100
AcDbEntity
  8
D35160527
100
AcDbLine
 10
0.010941666657569
 20
0.0001402274839606
 30
0.0
 11
0.0000000000000213
 21
0.0
 31
0.0
1001
REVIT
1002
{
1070
     2
1000
-2001160
1002
}
  0
LINE
  5
61C
330
53F
100
AcDbEntity
  8
D35160527
100
AcDbLine
 10
-0.166791251119708
 20
1.327521405701091
 30
0.0
 11
-0.2505816474652924
 21
0.129262912045295
 31
0.0
1001
REVIT
1002
{
1070
     2
1000
-2001160
1002
}
  0
LINE
  5
61D
330
53F
100
AcDbEntity
  8
D35160527
100
AcDbLine
 10
0.2505816474653244
 20
0.129262912045295
 30
0.0
 11
0.1667912511197507
 21
1.32752140570108
 31
0.0
1001
REVIT
1002
{
1070
     2
1000
-2001160
1002
}
  0
ARC
  5
61E
330
53F
100
AcDbEntity
  8
D35160527
100
AcDbCircle
 10
0.0000000000000004
 20
5.875869515423355
 30
0.0
 40
1.43516986092666
100
AcDbArc
 50
359.9999999999988
 51
179.9999999999987
1001
REVIT
1002
{
1070
     2
1000
-2001160
1002
}
  0
LINE
  5
61F
330
53F
100
AcDbEntity
  8
D35160527
100
AcDbLine
 10
-1.435169860926659
 20
5.875869515423365
 30
0.0
 11
-1.435169860926915
 21
1.874130484575212
 31
0.0
1001
REVIT
1002
{
1070
     2
1000
-2001160
1002
}
  0
ARC
  5
620
330
53F
100
AcDbEntity
  8
D35160527
100
AcDbCircle
 10
-0.0000000000002558
 20
1.87413048457522
 30
0.0
 40
1.43516986092666
100
AcDbArc
 50
179.9999999999998
 51
260.9708049805561
1001
REVIT
1002
{
1070
     2
1000
-2001160
1002
}
  0
ARC
  5
621
330
53F
100
AcDbEntity
  8
D35160527
100
AcDbCircle
 10
-0.0000000000002558
 20
1.87413048457522
 30
0.0
 40
1.435169860926659
100
AcDbArc
 50
279.0291488076372
 51
359.9999999999988
1001
REVIT
1002
{
1070
     2
1000
-2001160
1002
}
  0
LINE
  5
622
330
53F
100
AcDbEntity
  8
D35160527
100
AcDbLine
 10
1.435169860926653
 20
1.874130484575217
 30
0.0
 11
1.435169860926659
 21
5.875869515423352
 31
0.0
1001
REVIT
1002
{
1070
     2
1000
-2001160
1002
}
  0
ARC
  5
623
330
53F
100
AcDbEntity
  8
D35160527
100
AcDbCircle
 10
-0.0000000000000076
 20
5.874999999999284
 30
0.0
 40
1.074975015678361
100
AcDbArc
 50
280.5484477766482
 51
258.7944187412891
1001
REVIT
1002
{
1070
     2
1000
-2001160
1002
}
  0
ARC
  5
624
330
53F
100
AcDbEntity
  8
D35160527
100
AcDbCircle
 10
-0.0000000000000076
 20
1.874999999999954
 30
0.0
 40
1.07497501567835
100
AcDbArc
 50
280.5477533253969
 51
258.7944187412891
1001
REVIT
1002
{
1070
     2
1000
-2001160
1002
}
  0
ARC
  5
625
330
53F
100
AcDbEntity
  8
D35160527
100
AcDbCircle
 10
0.1618086123671768
 20
6.155260737719942
 30
0.0
 40
1.153698730609735
100
AcDbArc
 50
218.0624315677783
 51
252.5786030125842
1001
REVIT
1002
{
1070
     2
1000
-2001160
1002
}
  0
ARC
  5
626
330
53F
100
AcDbEntity
  8
D35160527
100
AcDbCircle
 10
0.3236172247338655
 20
5.874999999998617
 30
0.0
 40
1.153698730609738
100
AcDbArc
 50
158.062291029025
 51
201.9375684322214
1001
REVIT
1002
{
1070
     2
1000
-2001160
1002
}
  0
ARC
  5
627
330
53F
100
AcDbEntity
  8
D35160527
100
AcDbCircle
 10
0.1617201259824487
 20
5.594892525191411
 30
0.0
 40
1.153535359856916
100
AcDbArc
 50
98.05914758576971
 51
141.9407173830685
1001
REVIT
1002
{
1070
     2
1000
-2001160
1002
}
  0
ARC
  5
628
330
53F
100
AcDbEntity
  8
D35160527
100
AcDbCircle
 10
-0.0000000000000049
 20
5.87499999999928
 30
0.0
 40
0.9714447664073368
100
AcDbArc
 50
281.2708090024661
 51
258.7944187412891
1001
REVIT
1002
{
1070
     2
1000
-2001160
1002
}
  0
ARC
  5
629
330
53F
100
AcDbEntity
  8
D35160527
100
AcDbCircle
 10
-0.1618086123662136
 20
5.594739262277292
 30
0.0
 40
1.153698730609738
100
AcDbArc
 50
38.06243156777862
 51
81.93756843224628
1001
REVIT
1002
{
1070
     2
1000
-2001160
1002
}
  0
ARC
  5
62A
330
53F
100
AcDbEntity
  8
D35160527
100
AcDbCircle
 10
-0.3236172247329062
 20
5.874999999998629
 30
0.0
 40
1.153698730609738
100
AcDbArc
 50
338.0624315677723
 51
21.93756843222118
1001
REVIT
1002
{
1070
     2
1000
-2001160
1002
}
  0
ARC
  5
62B
330
53F
100
AcDbEntity
  8
D35160527
100
AcDbCircle
 10
-0.1618086123661846
 20
6.155260737719942
 30
0.0
 40
1.153698730609736
100
AcDbArc
 50
287.4213970242609
 51
321.9375684322157
1001
REVIT
1002
{
1070
     2
1000
-2001160
1002
}
  0
ARC
  5
62C
330
53F
100
AcDbEntity
  8
D35160527
100
AcDbCircle
 10
-0.0000000000000049
 20
1.874999999999958
 30
0.0
 40
0.9714447664073365
100
AcDbArc
 50
281.2701441762704
 51
258.7944187412891
1001
REVIT
1002
{
1070
     2
1000
-2001160
1002
}
  0
ARC
  5
62D
330
53F
100
AcDbEntity
  8
D35160527
100
AcDbCircle
 10
0.1617201259824487
 20
2.155107474807827
 30
0.0
 40
1.153535359856897
100
AcDbArc
 50
218.0592826169316
 51
252.5810027636982
1001
REVIT
1002
{
1070
     2
1000
-2001160
1002
}
  0
ARC
  5
62E
330
53F
100
AcDbEntity
  8
D35160527
100
AcDbCircle
 10
0.3236172247338655
 20
1.87500000000062
 30
0.0
 40
1.153698730609718
100
AcDbArc
 50
158.0624315677785
 51
201.937708970975
1001
REVIT
1002
{
1070
     2
1000
-2001160
1002
}
  0
ARC
  5
62F
330
53F
100
AcDbEntity
  8
D35160527
100
AcDbCircle
 10
0.1618086123671768
 20
1.594739262279296
 30
0.0
 40
1.153698730609713
100
AcDbArc
 50
98.06243156780274
 51
141.9375684322217
1001
REVIT
1002
{
1070
     2
1000
-2001160
1002
}
  0
ARC
  5
630
330
53F
100
AcDbEntity
  8
D35160527
100
AcDbCircle
 10
-0.1618086123661845
 20
1.594739262279296
 30
0.0
 40
1.153698730609717
100
AcDbArc
 50
38.06243156778445
 51
81.93756843224646
1001
REVIT
1002
{
1070
     2
1000
-2001160
1002
}
  0
ARC
  5
631
330
53F
100
AcDbEntity
  8
D35160527
100
AcDbCircle
 10
-0.3236172247329062
 20
1.875000000000609
 30
0.0
 40
1.153698730609718
100
AcDbArc
 50
338.062431567779
 51
21.93756843222754
1001
REVIT
1002
{
1070
     2
1000
-2001160
1002
}
  0
ARC
  5
632
330
53F
100
AcDbEntity
  8
D35160527
100
AcDbCircle
 10
-0.1618086123662135
 20
2.155260737721946
 30
0.0
 40
1.153698730609717
100
AcDbArc
 50
287.4209497450254
 51
321.9375684322212
1001
REVIT
1002
{
1070
     2
1000
-2001160
1002
}
  0
SPLINE
  5
633
330
53F
100
AcDbEntity
  8
D35160527
100
AcDbSpline
210
0.0
220
0.0
230
1.0
 70
     8
 71
     3
 72
     9
 73
     5
 74
     0
 42
0.000000001
 43
0.0000000001
 40
0.548635628338841
 40
0.548635628338841
 40
0.548635628338841
 40
0.548635628338841
 40
0.6666666666666666
 40
1.0
 40
1.0
 40
1.0
 40
1.0
 10
-0.487793922849226
 20
6.156758732866755
 30
0.0
 10
-0.5038132551529576
 20
6.166036999108707
 30
0.0
 10
-0.5718875364946846
 20
6.205286280733345
 30
0.0
 10
-0.6657537334214034
 20
6.257638510420137
 30
0.0
 10
-0.7465428414720542
 20
6.306019945834821
 30
0.0
1001
REVIT
1002
{
1070
     2
1000
-2001160
1002
}
  0
SPLINE
  5
634
330
53F
100
AcDbEntity
  8
D35160527
100
AcDbSpline
210
0.0
220
0.0
230
1.0
 70
     8
 71
     3
 72
     9
 73
     5
 74
     0
 42
0.000000001
 43
0.0000000001
 40
-1.0
 40
-1.0
 40
-1.0
 40
-1.0
 40
-0.6666666666666666
 40
-0.5485538936384397
 40
-0.5485538936384397
 40
-0.5485538936384397
 40
-0.5485538936384397
 10
-0.7465438987021395
 20
5.443982679120791
 30
0.0
 10
-0.6642857813741557
 20
5.489733996463968
 30
0.0
 10
-0.5720075574371996
 20
5.544849268956397
 30
0.0
 10
-0.5039543427725071
 20
5.584190904656693
 30
0.0
 10
-0.4878956450014299
 20
5.593432357130645
 30
0.0
1001
REVIT
1002
{
1070
     2
1000
-2001160
1002
}
  0
SPLINE
  5
635
330
53F
100
AcDbEntity
  8
D35160527
100
AcDbSpline
210
0.0
220
0.0
230
1.0
 70
     8
 71
     3
 72
     9
 73
     5
 74
     0
 42
0.000000001
 43
0.0000000001
 40
-1.0
 40
-1.0
 40
-1.0
 40
-1.0
 40
-0.6666666666666666
 40
-0.5485538936359969
 40
-0.5485538936359969
 40
-0.5485538936359969
 40
-0.5485538936359969
 10
0.7465438987030627
 20
5.443982679120683
 30
0.0
 10
0.6657930369632789
 20
5.492344639722618
 30
0.0
 10
0.5719226988793499
 20
5.54470228962221
 30
0.0
 10
0.5038252356038897
 20
5.583967284481033
 30
0.0
 10
0.4877925541077848
 20
5.593253798465659
 30
0.0
1001
REVIT
1002
{
1070
     2
1000
-2001160
1002
}
  0
SPLINE
  5
636
330
53F
100
AcDbEntity
  8
D35160527
100
AcDbSpline
210
0.0
220
0.0
230
1.0
 70
     8
 71
     3
 72
     9
 73
     5
 74
     0
 42
0.000000001
 43
0.0000000001
 40
-1.0
 40
-1.0
 40
-1.0
 40
-1.0
 40
-0.6666666666666666
 40
-0.5485538936359311
 40
-0.5485538936359311
 40
-0.5485538936359311
 40
-0.5485538936359311
 10
0.7465438987031082
 20
6.306017320876446
 30
0.0
 10
0.6642857813751238
 20
6.260266003533269
 30
0.0
 10
0.5720075574376537
 20
6.205150731040533
 30
0.0
 10
0.5039543427727159
 20
6.165809095340108
 30
0.0
 10
0.4878956450013715
 20
6.156567642866004
 30
0.0
1001
REVIT
1002
{
1070
     2
1000
-2001160
1002
}
  0
SPLINE
  5
637
330
53F
100
AcDbEntity
  8
D35160527
100
AcDbSpline
210
0.0
220
0.0
230
1.0
 70
     8
 71
     3
 72
     9
 73
     5
 74
     0
 42
0.000000001
 43
0.0000000001
 40
-1.0
 40
-1.0
 40
-1.0
 40
-1.0
 40
-0.6666666666666666
 40
-0.5486224435666298
 40
-0.5486224435666298
 40
-0.5486224435666298
 40
-0.5486224435666298
 10
-0.0000000816284899
 20
6.737035218252355
 30
0.0
 10
-0.0015116623318163
 20
6.642879028533242
 30
0.0
 10
0.0000767364915772
 20
6.535409055078888
 30
0.0
 10
0.0001192313952812
 20
6.45682890331269
 30
0.0
 10
0.0000928439913641
 20
6.438315014716916
 30
0.0
1001
REVIT
1002
{
1070
     2
1000
-2001160
1002
}
  0
SPLINE
  5
638
330
53F
100
AcDbEntity
  8
D35160527
100
AcDbSpline
210
0.0
220
0.0
230
1.0
 70
     8
 71
     3
 72
     9
 73
     5
 74
     0
 42
0.000000001
 43
0.0000000001
 40
0.0
 40
0.0
 40
0.0
 40
0.0
 40
0.3333333333333333
 40
0.4515242211381513
 40
0.4515242211381513
 40
0.4515242211381513
 40
0.4515242211381513
 10
-0.7465428414720531
 20
1.443980054164416
 30
0.0
 10
-0.6657799509866193
 20
1.492344045339641
 30
0.0
 10
-0.5719060786523067
 20
1.54470147819738
 30
0.0
 10
-0.5038323152043071
 20
1.583952879003278
 30
0.0
 10
-0.487798503088048
 20
1.593239965083293
 30
0.0
1001
REVIT
1002
{
1070
     2
1000
-2001160
1002
}
  0
SPLINE
  5
639
330
53F
100
AcDbEntity
  8
D35160527
100
AcDbSpline
210
0.0
220
0.0
230
1.0
 70
     8
 71
     3
 72
     9
 73
     5
 74
     0
 42
0.000000001
 43
0.0000000001
 40
-0.4516649384639649
 40
-0.4516649384639649
 40
-0.4516649384639649
 40
-0.4516649384639649
 40
-0.3333333333333333
 40
0.0
 40
0.0
 40
0.0
 40
0.0
 10
-0.4878967594159338
 20
2.15656941797879
 30
0.0
 10
-0.5039833871494141
 20
2.165826568748167
 30
0.0
 10
-0.5720679381295478
 20
2.205184088887963
 30
0.0
 10
-0.6643569146402406
 20
2.260304538200315
 30
0.0
 10
-0.7465438987021398
 20
2.306017320878447
 30
0.0
1001
REVIT
1002
{
1070
     2
1000
-2001160
1002
}
  0
SPLINE
  5
63A
330
53F
100
AcDbEntity
  8
D35160527
100
AcDbSpline
210
0.0
220
0.0
230
1.0
 70
     8
 71
     3
 72
     9
 73
     5
 74
     0
 42
0.000000001
 43
0.0000000001
 40
-0.4516649004667297
 40
-0.4516649004667297
 40
-0.4516649004667297
 40
-0.4516649004667297
 40
-0.3333333333333333
 40
0.0
 40
0.0
 40
0.0
 40
0.0
 10
-0.000102110897506
 20
2.438315697347325
 30
0.0
 10
-0.0001284969908297
 20
2.45687569425509
 30
0.0
 10
-0.0000861600068438
 20
2.535517394365851
 30
0.0
 10
0.001505061262138
 20
2.643002215208271
 30
0.0
 10
0.000000000000007
 20
2.737034641756298
 30
0.0
1001
REVIT
1002
{
1070
     2
1000
-2001160
1002
}
  0
SPLINE
  5
63B
330
53F
100
AcDbEntity
  8
D35160527
100
AcDbSpline
210
0.0
220
0.0
230
1.0
 70
     8
 71
     3
 72
     9
 73
     5
 74
     0
 42
0.000000001
 43
0.0000000001
 40
-0.4516649384663952
 40
-0.4516649384663952
 40
-0.4516649384663952
 40
-0.4516649384663952
 40
-0.3333333333333333
 40
0.0
 40
0.0
 40
0.0
 40
0.0
 10
0.4877946486055615
 20
2.15674627908975
 30
0.0
 10
0.5038548902055
 20
2.16604913198363
 30
0.0
 10
0.5719817779668092
 20
2.205333322667931
 30
0.0
 10
0.6658619755951622
 20
2.257697696159572
 30
0.0
 10
0.7465438987030469
 20
2.306017320878546
 30
0.0
1001
REVIT
1002
{
1070
     2
1000
-2001160
1002
}
  0
SPLINE
  5
63C
330
53F
100
AcDbEntity
  8
D35160527
100
AcDbSpline
210
0.0
220
0.0
230
1.0
 70
     8
 71
     3
 72
     9
 73
     5
 74
     0
 42
0.000000001
 43
0.0000000001
 40
-0.4516649384664725
 40
-0.4516649384664725
 40
-0.4516649384664725
 40
-0.4516649384664725
 40
-0.3333333333333333
 40
0.0
 40
0.0
 40
0.0
 40
0.0
 10
0.4878967594158697
 20
1.593430582023039
 30
0.0
 10
0.5039833871496161
 20
1.584173431253511
 30
0.0
 10
0.5720679381299911
 20
1.544815911113588
 30
0.0
 10
0.6643569146411922
 20
1.489695461800929
 30
0.0
 10
0.7465438987030914
 20
1.443982679122802
 30
0.0
1001
REVIT
1002
{
1070
     2
1000
-2001160
1002
}
  0
LINE
  5
63D
330
53F
100
AcDbEntity
  8
D35160527
100
AcDbLine
 10
0.2505816474653313
 20
4.129262912044561
 30
0.0
 11
-0.2505816474653011
 21
4.129262912044561
 31
0.0
1001
REVIT
1002
{
1070
     2
1000
-2001160
1002
}
  0
LINE
  5
63E
330
53F
100
AcDbEntity
  8
D35160527
100
AcDbLine
 10
-0.2067962187350072
 20
4.053424324852511
 30
0.0
 11
0.2067962187350372
 21
4.053424324852511
 31
0.0
1001
REVIT
1002
{
1070
     2
1000
-2001160
1002
}
  0
LINE
  5
63F
330
53F
100
AcDbEntity
  8
D35160527
100
AcDbLine
 10
0.25058164746533
 20
0.1292629120453079
 30
0.0
 11
-0.2505816474652998
 21
0.1292629120453079
 31
0.0
1001
REVIT
1002
{
1070
     2
1000
-2001160
1002
}
  0
LINE
  5
640
330
53F
100
AcDbEntity
  8
D35160527
100
AcDbLine
 10
-0.2067962187350088
 20
0.0534243248532578
 30
0.0
 11
0.2067962187350389
 21
0.0534243248532578
 31
0.0
1001
REVIT
1002
{
1070
     2
1000
-2001160
1002
}
  0
CIRCLE
  5
641
330
53F
100
AcDbEntity
  8
D35160527
100
AcDbCircle
 10
0.0000000000000181
 20
1.874999999999987
 30
0.0
 40
0.5316524139450666
  0
CIRCLE
  5
642
330
53F
100
AcDbEntity
  8
D35160527
100
AcDbCircle
 10
0.0000000000000181
 20
5.874999999999251
 30
0.0
 40
0.5316524139450665
  0
CIRCLE
  5
643
330
53F
100
AcDbEntity
  8
D35160527
100
AcDbCircle
 10
0.0000000000000172
 20
1.874999999999986
 30
0.0
 40
0.5745478527554644
  0
CIRCLE
  5
644
330
53F
100
AcDbEntity
  8
D35160527
100
AcDbCircle
 10
0.0000000000000172
 20
5.874999999999252
 30
0.0
 40
0.5745478527554643
  0
ENDBLK
  5
541
330
53F
100
AcDbEntity
  8
0
100
AcDbBlockEnd
  0
BLOCK
  5
647
330
646
100
AcDbEntity
  8
0
100
AcDbBlockBegin
  2
D35160527 Top View
 70
     0
 10
0.0
 20
0.0
 30
0.0
  3
D35160527 Top View
  1

  0
ARC
  5
649
330
646
100
AcDbEntity
  8
D35160527
100
AcDbCircle
 10
1.839735364695957
 20
-0.086892578372062
 30
0.0
 40
0.0352646353040575
100
AcDbArc
 50
270.0
 51
0.0
1001
REVIT
1002
{
1070
     1
1000
53039
1002
}
1002
{
1070
     2
1000
-2001160
1002
}
  0
LINE
  5
64A
330
646
100
AcDbEntity
  8
D35160527
100
AcDbLine
 10
1.435169860926674
 20
-0.1221572136761218
 30
0.0
 11
1.435169860926674
 21
-0.1582893603347664
 31
0.0
1001
REVIT
1002
{
1070
     1
1000
53039
1002
}
1002
{
1070
     2
1000
-2001160
1002
}
  0
LINE
  5
64B
330
646
100
AcDbEntity
  8
D35160527
100
AcDbLine
 10
1.074624280505798
 20
-0.1582893603347664
 30
0.0
 11
1.050259922692379
 21
-0.2729146517018783
 31
0.0
1001
REVIT
1002
{
1070
     1
1000
53039
1002
}
1002
{
1070
     2
1000
-2001160
1002
}
  0
ARC
  5
64C
330
646
100
AcDbEntity
  8
D35160527
100
AcDbCircle
 10
1.001514323467485
 20
-0.2625534547340926
 30
0.0
 40
0.0498346049086309
100
AcDbArc
 50
310.9999999999993
 51
348.0000000000012
1001
REVIT
1002
{
1070
     1
1000
53039
1002
}
1002
{
1070
     2
1000
-2001160
1002
}
  0
LINE
  5
64D
330
646
100
AcDbEntity
  8
D35160527
100
AcDbLine
 10
1.034208765973968
 20
-0.3001641084852515
 30
0.0
 11
1.001835519523272
 21
-0.3283057422849005
 31
0.0
1001
REVIT
1002
{
1070
     1
1000
53039
1002
}
1002
{
1070
     2
1000
-2001160
1002
}
  0
ARC
  5
64E
330
646
100
AcDbEntity
  8
D35160527
100
AcDbCircle
 10
1.040254987465733
 20
-0.3725022844281405
 30
0.0
 40
0.0585609926008848
100
AcDbArc
 50
131.0000000000002
 51
167.9999999999995
1001
REVIT
1002
{
1070
     1
1000
53039
1002
}
1002
{
1070
     2
1000
-2001160
1002
}
  0
LINE
  5
64F
330
646
100
AcDbEntity
  8
D35160527
100
AcDbLine
 10
0.9829736930565822
 20
-0.3603267694405225
 30
0.0
 11
0.9714447664073411
 21
-0.4145661048845249
 31
0.0
1001
REVIT
1002
{
1070
     1
1000
53039
1002
}
1002
{
1070
     2
1000
-2001160
1002
}
  0
ARC
  5
650
330
646
100
AcDbEntity
  8
D35160527
100
AcDbCircle
 10
3.582263204571599
 20
-1.97955410901687
 30
0.0
 40
3.166021407967503
100
AcDbArc
 50
150.3759060943656
 51
180.1244291962392
1001
REVIT
1002
{
1070
     1
1000
53039
1002
}
1002
{
1070
     2
1000
-2001160
1002
}
  0
LINE
  5
651
330
646
100
AcDbEntity
  8
D35160527
100
AcDbLine
 10
0.4162492625185302
 20
-1.986429749644482
 30
0.0
 11
0.316085799688917
 21
-2.134928190106752
 31
0.0
1001
REVIT
1002
{
1070
     1
1000
53039
1002
}
1002
{
1070
     2
1000
-2001160
1002
}
  0
LINE
  5
652
330
646
100
AcDbEntity
  8
D35160527
100
AcDbLine
 10
0.316085799688917
 20
-2.134928190106752
 30
0.0
 11
0.316085799688917
 21
-2.175349542108964
 31
0.0
1001
REVIT
1002
{
1070
     1
1000
53039
1002
}
1002
{
1070
     2
1000
-2001160
1002
}
  0
LINE
  5
653
330
646
100
AcDbEntity
  8
D35160527
100
AcDbLine
 10
0.316085799688917
 20
-2.175349542108964
 30
0.0
 11
0.5745478527554902
 21
-2.56377220689762
 31
0.0
1001
REVIT
1002
{
1070
     1
1000
53039
1002
}
1002
{
1070
     2
1000
-2001160
1002
}
  0
LINE
  5
654
330
646
100
AcDbEntity
  8
D35160527
100
AcDbLine
 10
0.5745478527554902
 20
-2.56377220689762
 30
0.0
 11
0.5316524139450927
 21
-2.655761772284815
 31
0.0
1001
REVIT
1002
{
1070
     1
1000
53039
1002
}
1002
{
1070
     2
1000
-2001160
1002
}
  0
ARC
  5
655
330
646
100
AcDbEntity
  8
D35160527
100
AcDbCircle
 10
0.000000000000032
 20
-1.246353884222099
 30
0.0
 40
1.506348194869639
100
AcDbArc
 50
249.3326790398685
 51
290.6673209601284
1001
REVIT
1002
{
1070
     1
1000
53039
1002
}
1002
{
1070
     2
1000
-2001160
1002
}
  0
LINE
  5
656
330
646
100
AcDbEntity
  8
D35160527
100
AcDbLine
 10
-0.531652413945114
 20
-2.655761772284787
 30
0.0
 11
-0.5745478527555044
 21
-2.563772206897613
 31
0.0
1001
REVIT
1002
{
1070
     1
1000
53039
1002
}
1002
{
1070
     2
1000
-2001160
1002
}
  0
LINE
  5
657
330
646
100
AcDbEntity
  8
D35160527
100
AcDbLine
 10
-0.5745478527555044
 20
-2.563772206897613
 30
0.0
 11
-0.3160857996889241
 21
-2.175349542108964
 31
0.0
1001
REVIT
1002
{
1070
     1
1000
53039
1002
}
1002
{
1070
     2
1000
-2001160
1002
}
  0
LINE
  5
658
330
646
100
AcDbEntity
  8
D35160527
100
AcDbLine
 10
-0.3160857996889241
 20
-2.175349542108964
 30
0.0
 11
-0.3160857996889241
 21
-2.134928190106744
 31
0.0
1001
REVIT
1002
{
1070
     1
1000
53039
1002
}
1002
{
1070
     2
1000
-2001160
1002
}
  0
LINE
  5
659
330
646
100
AcDbEntity
  8
D35160527
100
AcDbLine
 10
-0.3160857996889241
 20
-2.134928190106744
 30
0.0
 11
-0.4162492625185373
 21
-1.986429749644475
 31
0.0
1001
REVIT
1002
{
1070
     1
1000
53039
1002
}
1002
{
1070
     2
1000
-2001160
1002
}
  0
ARC
  5
65A
330
646
100
AcDbEntity
  8
D35160527
100
AcDbCircle
 10
-3.582263204571614
 20
-1.97955410901687
 30
0.0
 40
3.166021407967504
100
AcDbArc
 50
359.8755708037603
 51
29.62409390563342
1001
REVIT
1002
{
1070
     1
1000
53039
1002
}
1002
{
1070
     2
1000
-2001160
1002
}
  0
LINE
  5
65B
330
646
100
AcDbEntity
  8
D35160527
100
AcDbLine
 10
0.9714447664073411
 20
-0.4145661048845249
 30
0.0
 11
-0.9714447664073411
 21
-0.4145661048845178
 31
0.0
1001
REVIT
1002
{
1070
     1
1000
53039
1002
}
1002
{
1070
     2
1000
-2001160
1002
}
  0
LINE
  5
65C
330
646
100
AcDbEntity
  8
D35160527
100
AcDbLine
 10
-0.9714447664073411
 20
-0.4145661048845178
 30
0.0
 11
-0.9829736930565893
 21
-0.3603267694405225
 31
0.0
1001
REVIT
1002
{
1070
     1
1000
53039
1002
}
1002
{
1070
     2
1000
-2001160
1002
}
  0
ARC
  5
65D
330
646
100
AcDbEntity
  8
D35160527
100
AcDbCircle
 10
-1.040254987465733
 20
-0.3725022844281405
 30
0.0
 40
0.0585609926008825
100
AcDbArc
 50
11.99999999999877
 51
48.99999999999947
1001
REVIT
1002
{
1070
     1
1000
53039
1002
}
1002
{
1070
     2
1000
-2001160
1002
}
  0
LINE
  5
65E
330
646
100
AcDbEntity
  8
D35160527
100
AcDbLine
 10
-1.001835519523272
 20
-0.3283057422848934
 30
0.0
 11
-1.034208765973968
 21
-0.3001641084852515
 31
0.0
1001
REVIT
1002
{
1070
     1
1000
53039
1002
}
1002
{
1070
     2
1000
-2001160
1002
}
  0
ARC
  5
65F
330
646
100
AcDbEntity
  8
D35160527
100
AcDbCircle
 10
-1.001514323467485
 20
-0.2625534547340926
 30
0.0
 40
0.0498346049086342
100
AcDbArc
 50
192.0000000000008
 51
229.0000000000007
1001
REVIT
1002
{
1070
     1
1000
53039
1002
}
1002
{
1070
     2
1000
-2001160
1002
}
  0
LINE
  5
660
330
646
100
AcDbEntity
  8
D35160527
100
AcDbLine
 10
-1.050259922692379
 20
-0.2729146517018783
 30
0.0
 11
-1.074624280505798
 21
-0.1582893603347593
 31
0.0
1001
REVIT
1002
{
1070
     1
1000
53039
1002
}
1002
{
1070
     2
1000
-2001160
1002
}
  0
LINE
  5
661
330
646
100
AcDbEntity
  8
D35160527
100
AcDbLine
 10
1.435169860926674
 20
-0.1582893603347664
 30
0.0
 11
-1.435169860926674
 21
-0.1582893603347593
 31
0.0
1001
REVIT
1002
{
1070
     1
1000
53039
1002
}
1002
{
1070
     2
1000
-2001160
1002
}
  0
LINE
  5
662
330
646
100
AcDbEntity
  8
D35160527
100
AcDbLine
 10
-1.435169860926674
 20
-0.1582893603347593
 30
0.0
 11
-1.435169860926674
 21
-0.1221572136761146
 31
0.0
1001
REVIT
1002
{
1070
     1
1000
53039
1002
}
1002
{
1070
     2
1000
-2001160
1002
}
  0
LINE
  5
663
330
646
100
AcDbEntity
  8
D35160527
100
AcDbLine
 10
1.839735364695957
 20
-0.1221572136761218
 30
0.0
 11
-1.838029077708416
 21
-0.1221572136761146
 31
0.0
1001
REVIT
1002
{
1070
     1
1000
53039
1002
}
1002
{
1070
     2
1000
-2001160
1002
}
  0
ARC
  5
664
330
646
100
AcDbEntity
  8
D35160527
100
AcDbCircle
 10
-1.838029077708416
 20
-0.0851862913845132
 30
0.0
 40
0.0369709222916042
100
AcDbArc
 50
179.9999999999988
 51
270.0
1001
REVIT
1002
{
1070
     1
1000
53039
1002
}
1002
{
1070
     2
1000
-2001160
1002
}
  0
LINE
  5
665
330
646
100
AcDbEntity
  8
D35160527
100
AcDbLine
 10
-1.875000000000017
 20
-0.0851862913845132
 30
0.0
 11
-1.875000000000017
 21
-0.0000000000000036
 31
0.0
1001
REVIT
1002
{
1070
     1
1000
53039
1002
}
1002
{
1070
     2
1000
-2001160
1002
}
  0
LINE
  5
666
330
646
100
AcDbEntity
  8
D35160527
100
AcDbLine
 10
-1.875000000000017
 20
-0.0000000000000036
 30
0.0
 11
1.875000000000017
 21
0.0000000000000036
 31
0.0
1001
REVIT
1002
{
1070
     1
1000
53039
1002
}
1002
{
1070
     2
1000
-2001160
1002
}
  0
LINE
  5
667
330
646
100
AcDbEntity
  8
D35160527
100
AcDbLine
 10
1.875000000000017
 20
0.0000000000000036
 30
0.0
 11
1.875000000000017
 21
-0.086892578372062
 31
0.0
1001
REVIT
1002
{
1070
     1
1000
53039
1002
}
1002
{
1070
     2
1000
-2001160
1002
}
  0
LINE
  5
668
330
646
100
AcDbEntity
  8
D35160527
100
AcDbLine
 10
0.416249262518523
 20
-1.986429749644475
 30
0.0
 11
-0.4162492625185302
 21
-1.986429749644475
 31
0.0
1001
REVIT
1002
{
1070
     1
1000
54499
1002
}
1002
{
1070
     2
1000
-2001160
1002
}
  0
LINE
  5
669
330
646
100
AcDbEntity
  8
D35160527
100
AcDbLine
 10
0.316085799688917
 20
-2.134928190106752
 30
0.0
 11
-0.3160857996889241
 21
-2.134928190106752
 31
0.0
1001
REVIT
1002
{
1070
     1
1000
54546
1002
}
1002
{
1070
     2
1000
-2001160
1002
}
  0
LINE
  5
66A
330
646
100
AcDbEntity
  8
D35160527
100
AcDbLine
 10
0.316085799688917
 20
-2.175349542108964
 30
0.0
 11
-0.3160857996889241
 21
-2.175349542108964
 31
0.0
1001
REVIT
1002
{
1070
     1
1000
54593
1002
}
1002
{
1070
     2
1000
-2001160
1002
}
  0
LINE
  5
66B
330
646
100
AcDbEntity
  8
D35160527
100
AcDbLine
 10
0.5745478527554902
 20
-2.56377220689762
 30
0.0
 11
-0.5745478527554404
 21
-2.56377220689762
 31
0.0
1001
REVIT
1002
{
1070
     1
1000
54646
1002
}
1002
{
1070
     2
1000
-2001160
1002
}
  0
LINE
  5
66C
330
646
100
AcDbEntity
  8
D35160527
100
AcDbLine
 10
0.5316524139450927
 20
-2.655761772284815
 30
0.0
 11
-0.5316524139450288
 21
-2.655761772284822
 31
0.0
1001
REVIT
1002
{
1070
     1
1000
54699
1002
}
1002
{
1070
     2
1000
-2001160
1002
}
  0
LINE
  5
66D
330
646
100
AcDbEntity
  8
D35160527
100
AcDbLine
 10
0.3459680619899395
 20
-2.56377220689762
 30
0.0
 11
0.1979164116213106
 21
-2.134928190106752
 31
0.0
1001
REVIT
1002
{
1070
     1
1000
54774
1002
}
1002
{
1070
     2
1000
-2001160
1002
}
  0
ARC
  5
66E
330
646
100
AcDbEntity
  8
D35160527
100
AcDbCircle
 10
4.702586131519947
 20
-2.164871547751719
 30
0.0
 40
4.504769238267232
100
AcDbArc
 50
157.1360063628465
 51
179.6191501582798
1001
REVIT
1002
{
1070
     1
1000
54837
1002
}
1002
{
1070
     2
1000
-2001160
1002
}
  0
LINE
  5
66F
330
646
100
AcDbEntity
  8
D35160527
100
AcDbLine
 10
-0.3459680619899608
 20
-2.56377220689762
 30
0.0
 11
-0.1979164116213248
 21
-2.134928190106752
 31
0.0
1001
REVIT
1002
{
1070
     1
1000
54891
1002
}
1002
{
1070
     2
1000
-2001160
1002
}
  0
ARC
  5
670
330
646
100
AcDbEntity
  8
D35160527
100
AcDbCircle
 10
-4.702586131519961
 20
-2.164871547751705
 30
0.0
 40
4.504769238267232
100
AcDbArc
 50
0.3808498417193209
 51
22.86399363715255
1001
REVIT
1002
{
1070
     1
1000
54892
1002
}
1002
{
1070
     2
1000
-2001160
1002
}
  0
ENDBLK
  5
648
330
646
100
AcDbEntity
  8
0
100
AcDbBlockEnd
  0
BLOCK
  5
673
330
672
100
AcDbEntity
  8
0
100
AcDbBlockBegin
  2
D35160527 Side View
 70
     0
 10
0.0
 20
0.0
 30
0.0
  3
D35160527 Side View
  1

  0
LINE
  5
675
330
672
100
AcDbEntity
  8
D35160527
100
AcDbLine
 10
-0.0000000000000036
 20
-3.875869515424074
 30
0.0
 11
0.0809951103392361
 21
-3.875869515424074
 31
0.0
1001
REVIT
1002
{
1070
     2
1000
-2001160
1002
}
  0
LINE
  5
676
330
672
100
AcDbEntity
  8
D35160527
100
AcDbLine
 10
0.1250000000000071
 20
-3.831864625763301
 30
0.0
 11
0.124964800781882
 21
-3.833624352001798
 31
0.0
1001
REVIT
1002
{
1070
     2
1000
-2001160
1002
}
  0
LINE
  5
677
330
672
100
AcDbEntity
  8
D35160527
100
AcDbLine
 10
0.124964800781882
 20
-3.833624352001798
 30
0.0
 11
0.1248592594387503
 21
-3.835381263053693
 31
0.0
1001
REVIT
1002
{
1070
     2
1000
-2001160
1002
}
  0
LINE
  5
678
330
672
100
AcDbEntity
  8
D35160527
100
AcDbLine
 10
0.1248592594387503
 20
-3.835381263053693
 30
0.0
 11
0.1246835448142463
 21
-3.837132548236101
 31
0.0
1001
REVIT
1002
{
1070
     2
1000
-2001160
1002
}
  0
LINE
  5
679
330
672
100
AcDbEntity
  8
D35160527
100
AcDbLine
 10
0.1246835448142463
 20
-3.837132548236101
 30
0.0
 11
0.1244379380142835
 21
-3.838875405866317
 31
0.0
1001
REVIT
1002
{
1070
     2
1000
-2001160
1002
}
  0
LINE
  5
67A
330
672
100
AcDbEntity
  8
D35160527
100
AcDbLine
 10
0.1244379380142835
 20
-3.838875405866317
 30
0.0
 11
0.1241228319573473
 21
-3.840607047743919
 31
0.0
1001
REVIT
1002
{
1070
     2
1000
-2001160
1002
}
  0
LINE
  5
67B
330
672
100
AcDbEntity
  8
D35160527
100
AcDbLine
 10
0.1241228319573473
 20
-3.840607047743919
 30
0.0
 11
0.1237387307459166
 21
-3.842324703611303
 31
0.0
1001
REVIT
1002
{
1070
     2
1000
-2001160
1002
}
  0
LINE
  5
67C
330
672
100
AcDbEntity
  8
D35160527
100
AcDbLine
 10
0.1237387307459166
 20
-3.842324703611303
 30
0.0
 11
0.1232862488599853
 21
-3.844025625585494
 31
0.0
1001
REVIT
1002
{
1070
     2
1000
-2001160
1002
}
  0
LINE
  5
67D
330
672
100
AcDbEntity
  8
D35160527
100
AcDbLine
 10
0.1232862488599853
 20
-3.844025625585494
 30
0.0
 11
0.1227661101740498
 21
-3.845707092554185
 31
0.0
1001
REVIT
1002
{
1070
     2
1000
-2001160
1002
}
  0
LINE
  5
67E
330
672
100
AcDbEntity
  8
D35160527
100
AcDbLine
 10
0.1227661101740498
 20
-3.845707092554185
 30
0.0
 11
0.1221791467990485
 21
-3.847366414528909
 31
0.0
1001
REVIT
1002
{
1070
     2
1000
-2001160
1002
}
  0
LINE
  5
67F
330
672
100
AcDbEntity
  8
D35160527
100
AcDbLine
 10
0.1221791467990485
 20
-3.847366414528909
 30
0.0
 11
0.1215262977511724
 21
-3.849000936948477
 31
0.0
1001
REVIT
1002
{
1070
     2
1000
-2001160
1002
}
  0
LINE
  5
680
330
672
100
AcDbEntity
  8
D35160527
100
AcDbLine
 10
0.1215262977511724
 20
-3.849000936948477
 30
0.0
 11
0.1208086074496286
 21
-3.850608044925703
 31
0.0
1001
REVIT
1002
{
1070
     2
1000
-2001160
1002
}
  0
LINE
  5
681
330
672
100
AcDbEntity
  8
D35160527
100
AcDbLine
 10
0.1208086074496286
 20
-3.850608044925703
 30
0.0
 11
0.1200272240458009
 21
-3.852185167430647
 31
0.0
1001
REVIT
1002
{
1070
     2
1000
-2001160
1002
}
  0
LINE
  5
682
330
672
100
AcDbEntity
  8
D35160527
100
AcDbLine
 10
0.1200272240458009
 20
-3.852185167430647
 30
0.0
 11
0.1191833975864505
 21
-3.853729781403746
 31
0.0
1001
REVIT
1002
{
1070
     2
1000
-2001160
1002
}
  0
LINE
  5
683
330
672
100
AcDbEntity
  8
D35160527
100
AcDbLine
 10
0.1191833975864505
 20
-3.853729781403746
 30
0.0
 11
0.1182784780139059
 21
-3.855239415792133
 31
0.0
1001
REVIT
1002
{
1070
     2
1000
-2001160
1002
}
  0
LINE
  5
684
330
672
100
AcDbEntity
  8
D35160527
100
AcDbLine
 10
0.1182784780139059
 20
-3.855239415792133
 30
0.0
 11
0.1173139130064396
 21
-3.856711655502841
 31
0.0
1001
REVIT
1002
{
1070
     2
1000
-2001160
1002
}
  0
LINE
  5
685
330
672
100
AcDbEntity
  8
D35160527
100
AcDbLine
 10
0.1173139130064396
 20
-3.856711655502841
 30
0.0
 11
0.1162912456623069
 21
-3.858144145266365
 31
0.0
1001
REVIT
1002
{
1070
     2
1000
-2001160
1002
}
  0
LINE
  5
686
330
672
100
AcDbEntity
  8
D35160527
100
AcDbLine
 10
0.1162912456623069
 20
-3.858144145266365
 30
0.0
 11
0.1152121120310952
 21
-3.859534593404699
 31
0.0
1001
REVIT
1002
{
1070
     2
1000
-2001160
1002
}
  0
LINE
  5
687
330
672
100
AcDbEntity
  8
D35160527
100
AcDbLine
 10
0.1152121120310952
 20
-3.859534593404699
 30
0.0
 11
0.1140782384964165
 21
-3.860880775497409
 31
0.0
1001
REVIT
1002
{
1070
     2
1000
-2001160
1002
}
  0
LINE
  5
688
330
672
100
AcDbEntity
  8
D35160527
100
AcDbLine
 10
0.1140782384964165
 20
-3.860880775497409
 30
0.0
 11
0.1128914390140423
 21
-3.862180537940332
 31
0.0
1001
REVIT
1002
{
1070
     2
1000
-2001160
1002
}
  0
LINE
  5
689
330
672
100
AcDbEntity
  8
D35160527
100
AcDbLine
 10
0.1128914390140423
 20
-3.862180537940332
 30
0.0
 11
0.1116536122099756
 21
-3.863431801390816
 31
0.0
1001
REVIT
1002
{
1070
     2
1000
-2001160
1002
}
  0
LINE
  5
68A
330
672
100
AcDbEntity
  8
D35160527
100
AcDbLine
 10
0.1116536122099756
 20
-3.863431801390816
 30
0.0
 11
0.110366738343048
 21
-3.864632564094282
 31
0.0
1001
REVIT
1002
{
1070
     2
1000
-2001160
1002
}
  0
LINE
  5
68B
330
672
100
AcDbEntity
  8
D35160527
100
AcDbLine
 10
0.110366738343048
 20
-3.864632564094282
 30
0.0
 11
0.1090328761369292
 21
-3.86578090508652
 31
0.0
1001
REVIT
1002
{
1070
     2
1000
-2001160
1002
}
  0
LINE
  5
68C
330
672
100
AcDbEntity
  8
D35160527
100
AcDbLine
 10
0.1090328761369292
 20
-3.86578090508652
 30
0.0
 11
0.1076541594866018
 21
-3.866874987266935
 31
0.0
1001
REVIT
1002
{
1070
     2
1000
-2001160
1002
}
  0
LINE
  5
68D
330
672
100
AcDbEntity
  8
D35160527
100
AcDbLine
 10
0.1076541594866018
 20
-3.866874987266935
 30
0.0
 11
0.1062327940446011
 21
-3.867913060337425
 31
0.0
1001
REVIT
1002
{
1070
     2
1000
-2001160
1002
}
  0
LINE
  5
68E
330
672
100
AcDbEntity
  8
D35160527
100
AcDbLine
 10
0.1062327940446011
 20
-3.867913060337425
 30
0.0
 11
0.1047710536924224
 21
-3.868893463602514
 31
0.0
1001
REVIT
1002
{
1070
     2
1000
-2001160
1002
}
  0
LINE
  5
68F
330
672
100
AcDbEntity
  8
D35160527
100
AcDbLine
 10
0.1047710536924224
 20
-3.868893463602514
 30
0.0
 11
0.1032712769028112
 21
-3.869814628626133
 31
0.0
1001
REVIT
1002
{
1070
     2
1000
-2001160
1002
}
  0
LINE
  5
690
330
672
100
AcDbEntity
  8
D35160527
100
AcDbLine
 10
0.1032712769028112
 20
-3.869814628626133
 30
0.0
 11
0.1017358629986926
 21
-3.870675081740738
 31
0.0
1001
REVIT
1002
{
1070
     2
1000
-2001160
1002
}
  0
LINE
  5
691
330
672
100
AcDbEntity
  8
D35160527
100
AcDbLine
 10
0.1017358629986926
 20
-3.870675081740738
 30
0.0
 11
0.1001672683147774
 21
-3.871473446404887
 31
0.0
1001
REVIT
1002
{
1070
     2
1000
-2001160
1002
}
  0
LINE
  5
692
330
672
100
AcDbEntity
  8
D35160527
100
AcDbLine
 10
0.1001672683147774
 20
-3.871473446404887
 30
0.0
 11
0.0985680022679425
 21
-3.872208445405451
 31
0.0
1001
REVIT
1002
{
1070
     2
1000
-2001160
1002
}
  0
LINE
  5
693
330
672
100
AcDbEntity
  8
D35160527
100
AcDbLine
 10
0.0985680022679425
 20
-3.872208445405451
 30
0.0
 11
0.0969406233427055
 21
-3.872878902900818
 31
0.0
1001
REVIT
1002
{
1070
     2
1000
-2001160
1002
}
  0
LINE
  5
694
330
672
100
AcDbEntity
  8
D35160527
100
AcDbLine
 10
0.0969406233427055
 20
-3.872878902900818
 30
0.0
 11
0.0952877349981929
 21
-3.873483746302006
 31
0.0
1001
REVIT
1002
{
1070
     2
1000
-2001160
1002
}
  0
LINE
  5
695
330
672
100
AcDbEntity
  8
D35160527
100
AcDbLine
 10
0.0952877349981929
 20
-3.873483746302006
 30
0.0
 11
0.0936119815031553
 21
-3.874022007988599
 31
0.0
1001
REVIT
1002
{
1070
     2
1000
-2001160
1002
}
  0
LINE
  5
696
330
672
100
AcDbEntity
  8
D35160527
100
AcDbLine
 10
0.0936119815031553
 20
-3.874022007988599
 30
0.0
 11
0.0919160437057105
 21
-3.874492826856726
 31
0.0
1001
REVIT
1002
{
1070
     2
1000
-2001160
1002
}
  0
LINE
  5
697
330
672
100
AcDbEntity
  8
D35160527
100
AcDbLine
 10
0.0919160437057105
 20
-3.874492826856726
 30
0.0
 11
0.0902026347445535
 21
-3.874895449696647
 31
0.0
1001
REVIT
1002
{
1070
     2
1000
-2001160
1002
}
  0
LINE
  5
698
330
672
100
AcDbEntity
  8
D35160527
100
AcDbLine
 10
0.0902026347445535
 20
-3.874895449696647
 30
0.0
 11
0.0884744957085175
 21
-3.875229232397678
 31
0.0
1001
REVIT
1002
{
1070
     2
1000
-2001160
1002
}
  0
LINE
  5
699
330
672
100
AcDbEntity
  8
D35160527
100
AcDbLine
 10
0.0884744957085175
 20
-3.875229232397678
 30
0.0
 11
0.0867343912514063
 21
-3.875493640978724
 31
0.0
1001
REVIT
1002
{
1070
     2
1000
-2001160
1002
}
  0
LINE
  5
69A
330
672
100
AcDbEntity
  8
D35160527
100
AcDbLine
 10
0.0867343912514063
 20
-3.875493640978724
 30
0.0
 11
0.0849851051691513
 21
-3.875688252442457
 31
0.0
1001
REVIT
1002
{
1070
     2
1000
-2001160
1002
}
  0
LINE
  5
69B
330
672
100
AcDbEntity
  8
D35160527
100
AcDbLine
 10
0.0849851051691513
 20
-3.875688252442457
 30
0.0
 11
0.0832294359463202
 21
-3.875812755452045
 31
0.0
1001
REVIT
1002
{
1070
     2
1000
-2001160
1002
}
  0
LINE
  5
69C
330
672
100
AcDbEntity
  8
D35160527
100
AcDbLine
 10
0.0832294359463202
 20
-3.875812755452045
 30
0.0
 11
0.0814701922791503
 21
-3.875866950829223
 31
0.0
1001
REVIT
1002
{
1070
     2
1000
-2001160
1002
}
  0
LINE
  5
69D
330
672
100
AcDbEntity
  8
D35160527
100
AcDbLine
 10
0.0814701922791503
 20
-3.875866950829223
 30
0.0
 11
0.0809951103392361
 21
-3.875869515424074
 31
0.0
1001
REVIT
1002
{
1070
     2
1000
-2001160
1002
}
  0
LINE
  5
69E
330
672
100
AcDbEntity
  8
D35160527
100
AcDbLine
 10
0.1250000000000089
 20
3.808477844078325
 30
0.0
 11
0.1250000000000071
 21
-3.824322472253004
 31
0.0
1001
REVIT
1002
{
1070
     2
1000
-2001160
1002
}
  0
LINE
  5
69F
330
672
100
AcDbEntity
  8
D35160527
100
AcDbLine
 10
0.0809951103392379
 20
3.875869515424078
 30
0.0
 11
-0.0000000000000018
 21
3.875869515424078
 31
0.0
1001
REVIT
1002
{
1070
     2
1000
-2001160
1002
}
  0
LINE
  5
6A0
330
672
100
AcDbEntity
  8
D35160527
100
AcDbLine
 10
0.0809951103392379
 20
3.875869515424078
 30
0.0
 11
0.0827548365777276
 21
3.875834316205956
 31
0.0
1001
REVIT
1002
{
1070
     2
1000
-2001160
1002
}
  0
LINE
  5
6A1
330
672
100
AcDbEntity
  8
D35160527
100
AcDbLine
 10
0.0827548365777276
 20
3.875834316205956
 30
0.0
 11
0.0845117476296249
 21
3.875728774862814
 31
0.0
1001
REVIT
1002
{
1070
     2
1000
-2001160
1002
}
  0
LINE
  5
6A2
330
672
100
AcDbEntity
  8
D35160527
100
AcDbLine
 10
0.0845117476296249
 20
3.875728774862814
 30
0.0
 11
0.0862630328120329
 21
3.87555306023831
 31
0.0
1001
REVIT
1002
{
1070
     2
1000
-2001160
1002
}
  0
LINE
  5
6A3
330
672
100
AcDbEntity
  8
D35160527
100
AcDbLine
 10
0.0862630328120329
 20
3.87555306023831
 30
0.0
 11
0.0880058904422487
 21
3.875307453438345
 31
0.0
1001
REVIT
1002
{
1070
     2
1000
-2001160
1002
}
  0
LINE
  5
6A4
330
672
100
AcDbEntity
  8
D35160527
100
AcDbLine
 10
0.0880058904422487
 20
3.875307453438345
 30
0.0
 11
0.0897375323198535
 21
3.874992347381418
 31
0.0
1001
REVIT
1002
{
1070
     2
1000
-2001160
1002
}
  0
LINE
  5
6A5
330
672
100
AcDbEntity
  8
D35160527
100
AcDbLine
 10
0.0897375323198535
 20
3.874992347381418
 30
0.0
 11
0.0914551881872381
 21
3.874608246169984
 31
0.0
1001
REVIT
1002
{
1070
     2
1000
-2001160
1002
}
  0
LINE
  5
6A6
330
672
100
AcDbEntity
  8
D35160527
100
AcDbLine
 10
0.0914551881872381
 20
3.874608246169984
 30
0.0
 11
0.0931561101614325
 21
3.874155764284051
 31
0.0
1001
REVIT
1002
{
1070
     2
1000
-2001160
1002
}
  0
LINE
  5
6A7
330
672
100
AcDbEntity
  8
D35160527
100
AcDbLine
 10
0.0931561101614325
 20
3.874155764284051
 30
0.0
 11
0.094837577130118
 21
3.873635625598115
 31
0.0
1001
REVIT
1002
{
1070
     2
1000
-2001160
1002
}
  0
LINE
  5
6A8
330
672
100
AcDbEntity
  8
D35160527
100
AcDbLine
 10
0.094837577130118
 20
3.873635625598115
 30
0.0
 11
0.0964968991048405
 21
3.873048662223123
 31
0.0
1001
REVIT
1002
{
1070
     2
1000
-2001160
1002
}
  0
LINE
  5
6A9
330
672
100
AcDbEntity
  8
D35160527
100
AcDbLine
 10
0.0964968991048405
 20
3.873048662223123
 30
0.0
 11
0.0981314215244087
 21
3.872395813175245
 31
0.0
1001
REVIT
1002
{
1070
     2
1000
-2001160
1002
}
  0
LINE
  5
6AA
330
672
100
AcDbEntity
  8
D35160527
100
AcDbLine
 10
0.0981314215244087
 20
3.872395813175245
 30
0.0
 11
0.099738529501634
 21
3.871678122873699
 31
0.0
1001
REVIT
1002
{
1070
     2
1000
-2001160
1002
}
  0
LINE
  5
6AB
330
672
100
AcDbEntity
  8
D35160527
100
AcDbLine
 10
0.099738529501634
 20
3.871678122873699
 30
0.0
 11
0.1013156520065817
 21
3.870896739469873
 31
0.0
1001
REVIT
1002
{
1070
     2
1000
-2001160
1002
}
  0
LINE
  5
6AC
330
672
100
AcDbEntity
  8
D35160527
100
AcDbLine
 10
0.1013156520065817
 20
3.870896739469873
 30
0.0
 11
0.1028602659796807
 21
3.870052913010521
 31
0.0
1001
REVIT
1002
{
1070
     2
1000
-2001160
1002
}
  0
LINE
  5
6AD
330
672
100
AcDbEntity
  8
D35160527
100
AcDbLine
 10
0.1028602659796807
 20
3.870052913010521
 30
0.0
 11
0.10436990036807
 21
3.869147993437977
 31
0.0
1001
REVIT
1002
{
1070
     2
1000
-2001160
1002
}
  0
LINE
  5
6AE
330
672
100
AcDbEntity
  8
D35160527
100
AcDbLine
 10
0.10436990036807
 20
3.869147993437977
 30
0.0
 11
0.1058421400787708
 21
3.868183428430505
 31
0.0
1001
REVIT
1002
{
1070
     2
1000
-2001160
1002
}
  0
LINE
  5
6AF
330
672
100
AcDbEntity
  8
D35160527
100
AcDbLine
 10
0.1058421400787708
 20
3.868183428430505
 30
0.0
 11
0.1072746298423048
 21
3.867160761086374
 31
0.0
1001
REVIT
1002
{
1070
     2
1000
-2001160
1002
}
  0
LINE
  5
6B0
330
672
100
AcDbEntity
  8
D35160527
100
AcDbLine
 10
0.1072746298423048
 20
3.867160761086374
 30
0.0
 11
0.108665077980632
 21
3.866081627455162
 31
0.0
1001
REVIT
1002
{
1070
     2
1000
-2001160
1002
}
  0
LINE
  5
6B1
330
672
100
AcDbEntity
  8
D35160527
100
AcDbLine
 10
0.108665077980632
 20
3.866081627455162
 30
0.0
 11
0.1100112600733443
 21
3.864947753920482
 31
0.0
1001
REVIT
1002
{
1070
     2
1000
-2001160
1002
}
  0
LINE
  5
6B2
330
672
100
AcDbEntity
  8
D35160527
100
AcDbLine
 10
0.1100112600733443
 20
3.864947753920482
 30
0.0
 11
0.1113110225162668
 21
3.863760954438113
 31
0.0
1001
REVIT
1002
{
1070
     2
1000
-2001160
1002
}
  0
LINE
  5
6B3
330
672
100
AcDbEntity
  8
D35160527
100
AcDbLine
 10
0.1113110225162668
 20
3.863760954438113
 30
0.0
 11
0.112562285966753
 21
3.862523127634048
 31
0.0
1001
REVIT
1002
{
1070
     2
1000
-2001160
1002
}
  0
LINE
  5
6B4
330
672
100
AcDbEntity
  8
D35160527
100
AcDbLine
 10
0.112562285966753
 20
3.862523127634048
 30
0.0
 11
0.1137630486702061
 21
3.861236253767124
 31
0.0
1001
REVIT
1002
{
1070
     2
1000
-2001160
1002
}
  0
LINE
  5
6B5
330
672
100
AcDbEntity
  8
D35160527
100
AcDbLine
 10
0.1137630486702061
 20
3.861236253767124
 30
0.0
 11
0.1149113896624527
 21
3.859902391560996
 31
0.0
1001
REVIT
1002
{
1070
     2
1000
-2001160
1002
}
  0
LINE
  5
6B6
330
672
100
AcDbEntity
  8
D35160527
100
AcDbLine
 10
0.1149113896624527
 20
3.859902391560996
 30
0.0
 11
0.1160054718428682
 21
3.858523674910667
 31
0.0
1001
REVIT
1002
{
1070
     2
1000
-2001160
1002
}
  0
LINE
  5
6B7
330
672
100
AcDbEntity
  8
D35160527
100
AcDbLine
 10
0.1160054718428682
 20
3.858523674910667
 30
0.0
 11
0.117043544913356
 21
3.857102309468672
 31
0.0
1001
REVIT
1002
{
1070
     2
1000
-2001160
1002
}
  0
LINE
  5
6B8
330
672
100
AcDbEntity
  8
D35160527
100
AcDbLine
 10
0.117043544913356
 20
3.857102309468672
 30
0.0
 11
0.1180239481784486
 21
3.855640569116488
 31
0.0
1001
REVIT
1002
{
1070
     2
1000
-2001160
1002
}
  0
LINE
  5
6B9
330
672
100
AcDbEntity
  8
D35160527
100
AcDbLine
 10
0.1180239481784486
 20
3.855640569116488
 30
0.0
 11
0.1189451132020629
 21
3.85414079232688
 31
0.0
1001
REVIT
1002
{
1070
     2
1000
-2001160
1002
}
  0
LINE
  5
6BA
330
672
100
AcDbEntity
  8
D35160527
100
AcDbLine
 10
0.1189451132020629
 20
3.85414079232688
 30
0.0
 11
0.1198055663166642
 21
3.852605378422765
 31
0.0
1001
REVIT
1002
{
1070
     2
1000
-2001160
1002
}
  0
LINE
  5
6BB
330
672
100
AcDbEntity
  8
D35160527
100
AcDbLine
 10
0.1198055663166642
 20
3.852605378422765
 30
0.0
 11
0.120603930980824
 21
3.851036783738841
 31
0.0
1001
REVIT
1002
{
1070
     2
1000
-2001160
1002
}
  0
LINE
  5
6BC
330
672
100
AcDbEntity
  8
D35160527
100
AcDbLine
 10
0.120603930980824
 20
3.851036783738841
 30
0.0
 11
0.1213389299813912
 21
3.849437517692006
 31
0.0
1001
REVIT
1002
{
1070
     2
1000
-2001160
1002
}
  0
LINE
  5
6BD
330
672
100
AcDbEntity
  8
D35160527
100
AcDbLine
 10
0.1213389299813912
 20
3.849437517692006
 30
0.0
 11
0.1220093874767514
 21
3.847810138766778
 31
0.0
1001
REVIT
1002
{
1070
     2
1000
-2001160
1002
}
  0
LINE
  5
6BE
330
672
100
AcDbEntity
  8
D35160527
100
AcDbLine
 10
0.1220093874767514
 20
3.847810138766778
 30
0.0
 11
0.1226142308779359
 21
3.846157250422258
 31
0.0
1001
REVIT
1002
{
1070
     2
1000
-2001160
1002
}
  0
LINE
  5
6BF
330
672
100
AcDbEntity
  8
D35160527
100
AcDbLine
 10
0.1226142308779359
 20
3.846157250422258
 30
0.0
 11
0.1231524925645324
 21
3.844481496927219
 31
0.0
1001
REVIT
1002
{
1070
     2
1000
-2001160
1002
}
  0
LINE
  5
6C0
330
672
100
AcDbEntity
  8
D35160527
100
AcDbLine
 10
0.1231524925645324
 20
3.844481496927219
 30
0.0
 11
0.123623311432663
 21
3.842785559129779
 31
0.0
1001
REVIT
1002
{
1070
     2
1000
-2001160
1002
}
  0
LINE
  5
6C1
330
672
100
AcDbEntity
  8
D35160527
100
AcDbLine
 10
0.123623311432663
 20
3.842785559129779
 30
0.0
 11
0.1240259342725771
 21
3.841072150168624
 31
0.0
1001
REVIT
1002
{
1070
     2
1000
-2001160
1002
}
  0
LINE
  5
6C2
330
672
100
AcDbEntity
  8
D35160527
100
AcDbLine
 10
0.1240259342725771
 20
3.841072150168624
 30
0.0
 11
0.1243597169736148
 21
3.839344011132592
 31
0.0
1001
REVIT
1002
{
1070
     2
1000
-2001160
1002
}
  0
LINE
  5
6C3
330
672
100
AcDbEntity
  8
D35160527
100
AcDbLine
 10
0.1243597169736148
 20
3.839344011132592
 30
0.0
 11
0.1246241255546625
 21
3.837603906675479
 31
0.0
1001
REVIT
1002
{
1070
     2
1000
-2001160
1002
}
  0
LINE
  5
6C4
330
672
100
AcDbEntity
  8
D35160527
100
AcDbLine
 10
0.1246241255546625
 20
3.837603906675479
 30
0.0
 11
0.1248187370183906
 21
3.83585462059322
 31
0.0
1001
REVIT
1002
{
1070
     2
1000
-2001160
1002
}
  0
LINE
  5
6C5
330
672
100
AcDbEntity
  8
D35160527
100
AcDbLine
 10
0.1248187370183906
 20
3.83585462059322
 30
0.0
 11
0.1249432400279762
 21
3.834098951370386
 31
0.0
1001
REVIT
1002
{
1070
     2
1000
-2001160
1002
}
  0
LINE
  5
6C6
330
672
100
AcDbEntity
  8
D35160527
100
AcDbLine
 10
0.1249432400279762
 20
3.834098951370386
 30
0.0
 11
0.1249974354051577
 21
3.832339707703216
 31
0.0
1001
REVIT
1002
{
1070
     2
1000
-2001160
1002
}
  0
LINE
  5
6C7
330
672
100
AcDbEntity
  8
D35160527
100
AcDbLine
 10
0.1249974354051577
 20
3.832339707703216
 30
0.0
 11
0.1250000000000089
 21
3.831864625763305
 31
0.0
1001
REVIT
1002
{
1070
     2
1000
-2001160
1002
}
  0
LINE
  5
6C8
330
672
100
AcDbEntity
  8
D35160527
100
AcDbLine
 10
0.1529748626131226
 20
3.436039376350731
 30
0.0
 11
0.1250000000000071
 21
3.436039376350731
 31
0.0
1001
REVIT
1002
{
1070
     2
1000
-2001160
1002
}
  0
LINE
  5
6C9
330
672
100
AcDbEntity
  8
D35160527
100
AcDbLine
 10
0.1250000000000071
 20
-3.436039376350727
 30
0.0
 11
0.1529748626131226
 21
-3.436039376350727
 31
0.0
1001
REVIT
1002
{
1070
     2
1000
-2001160
1002
}
  0
LINE
  5
6CA
330
672
100
AcDbEntity
  8
D35160527
100
AcDbLine
 10
0.1529748626131226
 20
0.925024984321638
 30
0.0
 11
0.2665807777939868
 21
0.9471077372343685
 31
0.0
1001
REVIT
1002
{
1070
     2
1000
-2001160
1002
}
  0
LINE
  5
6CB
330
672
100
AcDbEntity
  8
D35160527
100
AcDbLine
 10
0.2665807777940135
 20
3.05289226276563
 30
0.0
 11
0.1529748626131511
 21
3.074975015678361
 31
0.0
1001
REVIT
1002
{
1070
     2
1000
-2001160
1002
}
  0
LINE
  5
6CC
330
672
100
AcDbEntity
  8
D35160527
100
AcDbLine
 10
0.2665807777940117
 20
3.05289226276563
 30
0.0
 11
0.2688878300093282
 21
3.052395739501068
 31
0.0
1001
REVIT
1002
{
1070
     2
1000
-2001160
1002
}
  0
LINE
  5
6CD
330
672
100
AcDbEntity
  8
D35160527
100
AcDbLine
 10
0.2688878300093282
 20
3.052395739501068
 30
0.0
 11
0.2711731811941878
 21
3.051807355920128
 31
0.0
1001
REVIT
1002
{
1070
     2
1000
-2001160
1002
}
  0
LINE
  5
6CE
330
672
100
AcDbEntity
  8
D35160527
100
AcDbLine
 10
0.2711731811941878
 20
3.051807355920128
 30
0.0
 11
0.2734331752742101
 21
3.051128053311021
 31
0.0
1001
REVIT
1002
{
1070
     2
1000
-2001160
1002
}
  0
LINE
  5
6CF
330
672
100
AcDbEntity
  8
D35160527
100
AcDbLine
 10
0.2734331752742101
 20
3.051128053311021
 30
0.0
 11
0.275664196740971
 21
3.050358918413042
 31
0.0
1001
REVIT
1002
{
1070
     2
1000
-2001160
1002
}
  0
LINE
  5
6D0
330
672
100
AcDbEntity
  8
D35160527
100
AcDbLine
 10
0.275664196740971
 20
3.050358918413042
 30
0.0
 11
0.277862676436051
 21
3.049501181677921
 31
0.0
1001
REVIT
1002
{
1070
     2
1000
-2001160
1002
}
  0
LINE
  5
6D1
330
672
100
AcDbEntity
  8
D35160527
100
AcDbLine
 10
0.277862676436051
 20
3.049501181677921
 30
0.0
 11
0.280025097260923
 21
3.048556215301466
 31
0.0
1001
REVIT
1002
{
1070
     2
1000
-2001160
1002
}
  0
LINE
  5
6D2
330
672
100
AcDbEntity
  8
D35160527
100
AcDbLine
 10
0.280025097260923
 20
3.048556215301466
 30
0.0
 11
0.2821479998035574
 21
3.047525531028316
 31
0.0
1001
REVIT
1002
{
1070
     2
1000
-2001160
1002
}
  0
LINE
  5
6D3
330
672
100
AcDbEntity
  8
D35160527
100
AcDbLine
 10
0.2821479998035574
 20
3.047525531028316
 30
0.0
 11
0.2842279878727485
 21
3.046410777733416
 31
0.0
1001
REVIT
1002
{
1070
     2
1000
-2001160
1002
}
  0
LINE
  5
6D4
330
672
100
AcDbEntity
  8
D35160527
100
AcDbLine
 10
0.2842279878727485
 20
3.046410777733416
 30
0.0
 11
0.2862617339312923
 21
3.045213738784258
 31
0.0
1001
REVIT
1002
{
1070
     2
1000
-2001160
1002
}
  0
LINE
  5
6D5
330
672
100
AcDbEntity
  8
D35160527
100
AcDbLine
 10
0.2862617339312923
 20
3.045213738784258
 30
0.0
 11
0.2882459844193388
 21
3.043936329187789
 31
0.0
1001
REVIT
1002
{
1070
     2
1000
-2001160
1002
}
  0
LINE
  5
6D6
330
672
100
AcDbEntity
  8
D35160527
100
AcDbLine
 10
0.2882459844193388
 20
3.043936329187789
 30
0.0
 11
0.2901775649593912
 21
3.04258059252687
 31
0.0
1001
REVIT
1002
{
1070
     2
1000
-2001160
1002
}
  0
LINE
  5
6D7
330
672
100
AcDbEntity
  8
D35160527
100
AcDbLine
 10
0.2901775649593912
 20
3.04258059252687
 30
0.0
 11
0.292053385434631
 21
3.041148697690953
 31
0.0
1001
REVIT
1002
{
1070
     2
1000
-2001160
1002
}
  0
LINE
  5
6D8
330
672
100
AcDbEntity
  8
D35160527
100
AcDbLine
 10
0.292053385434631
 20
3.041148697690953
 30
0.0
 11
0.2938704449324572
 21
3.039642935406323
 31
0.0
1001
REVIT
1002
{
1070
     2
1000
-2001160
1002
}
  0
LINE
  5
6D9
330
672
100
AcDbEntity
  8
D35160527
100
AcDbLine
 10
0.2938704449324572
 20
3.039642935406323
 30
0.0
 11
0.2956258365452857
 21
3.038065714571416
 31
0.0
1001
REVIT
1002
{
1070
     2
1000
-2001160
1002
}
  0
LINE
  5
6DA
330
672
100
AcDbEntity
  8
D35160527
100
AcDbLine
 10
0.2956258365452857
 20
3.038065714571416
 30
0.0
 11
0.297316752021004
 21
3.036419558403121
 31
0.0
1001
REVIT
1002
{
1070
     2
1000
-2001160
1002
}
  0
LINE
  5
6DB
330
672
100
AcDbEntity
  8
D35160527
100
AcDbLine
 10
0.297316752021004
 20
3.036419558403121
 30
0.0
 11
0.2989404862555585
 21
3.034707100400126
 31
0.0
1001
REVIT
1002
{
1070
     2
1000
-2001160
1002
}
  0
LINE
  5
6DC
330
672
100
AcDbEntity
  8
D35160527
100
AcDbLine
 10
0.2989404862555585
 20
3.034707100400126
 30
0.0
 11
0.299851413691492
 21
3.033683452174112
 31
0.0
1001
REVIT
1002
{
1070
     2
1000
-2001160
1002
}
  0
LINE
  5
6DD
330
672
100
AcDbEntity
  8
D35160527
100
AcDbLine
 10
0.2998514136914636
 20
0.9663165478258868
 30
0.0
 11
0.2982678858231207
 21
0.9645668436318537
 31
0.0
1001
REVIT
1002
{
1070
     2
1000
-2001160
1002
}
  0
LINE
  5
6DE
330
672
100
AcDbEntity
  8
D35160527
100
AcDbLine
 10
0.2982678858231207
 20
0.9645668436318537
 30
0.0
 11
0.2966156551024284
 21
0.9628818632396587
 31
0.0
1001
REVIT
1002
{
1070
     2
1000
-2001160
1002
}
  0
LINE
  5
6DF
330
672
100
AcDbEntity
  8
D35160527
100
AcDbLine
 10
0.2966156551024284
 20
0.9628818632396587
 30
0.0
 11
0.2948973647460828
 21
0.9612643022585096
 31
0.0
1001
REVIT
1002
{
1070
     2
1000
-2001160
1002
}
  0
LINE
  5
6E0
330
672
100
AcDbEntity
  8
D35160527
100
AcDbLine
 10
0.2948973647460828
 20
0.9612643022585096
 30
0.0
 11
0.2931157636521053
 21
0.9597167484409041
 31
0.0
1001
REVIT
1002
{
1070
     2
1000
-2001160
1002
}
  0
LINE
  5
6E1
330
672
100
AcDbEntity
  8
D35160527
100
AcDbLine
 10
0.2931157636521053
 20
0.9597167484409041
 30
0.0
 11
0.2912737020021918
 21
0.9582416775428157
 31
0.0
1001
REVIT
1002
{
1070
     2
1000
-2001160
1002
}
  0
LINE
  5
6E2
330
672
100
AcDbEntity
  8
D35160527
100
AcDbLine
 10
0.2912737020021918
 20
0.9582416775428157
 30
0.0
 11
0.2893741267020289
 21
0.9568414493630328
 31
0.0
1001
REVIT
1002
{
1070
     2
1000
-2001160
1002
}
  0
LINE
  5
6E3
330
672
100
AcDbEntity
  8
D35160527
100
AcDbLine
 10
0.2893741267020289
 20
0.9568414493630328
 30
0.0
 11
0.2874200766668782
 21
0.9555183039679278
 31
0.0
1001
REVIT
1002
{
1070
     2
1000
-2001160
1002
}
  0
LINE
  5
6E4
330
672
100
AcDbEntity
  8
D35160527
100
AcDbLine
 10
0.2874200766668782
 20
0.9555183039679278
 30
0.0
 11
0.2854146779599507
 21
0.9542743581078809
 31
0.0
1001
REVIT
1002
{
1070
     2
1000
-2001160
1002
}
  0
LINE
  5
6E5
330
672
100
AcDbEntity
  8
D35160527
100
AcDbLine
 10
0.2854146779599507
 20
0.9542743581078809
 30
0.0
 11
0.2833611387913848
 21
0.9531116018309226
 31
0.0
1001
REVIT
1002
{
1070
     2
1000
-2001160
1002
}
  0
LINE
  5
6E6
330
672
100
AcDbEntity
  8
D35160527
100
AcDbLine
 10
0.2833611387913848
 20
0.9531116018309226
 30
0.0
 11
0.2812627443857831
 21
0.95203189529904
 31
0.0
1001
REVIT
1002
{
1070
     2
1000
-2001160
1002
}
  0
LINE
  5
6E7
330
672
100
AcDbEntity
  8
D35160527
100
AcDbLine
 10
0.2812627443857831
 20
0.95203189529904
 30
0.0
 11
0.2791228517265623
 21
0.9510369658123494
 31
0.0
1001
REVIT
1002
{
1070
     2
1000
-2001160
1002
}
  0
LINE
  5
6E8
330
672
100
AcDbEntity
  8
D35160527
100
AcDbLine
 10
0.2791228517265623
 20
0.9510369658123494
 30
0.0
 11
0.2769448841854913
 21
0.9501284050458131
 31
0.0
1001
REVIT
1002
{
1070
     2
1000
-2001160
1002
}
  0
LINE
  5
6E9
330
672
100
AcDbEntity
  8
D35160527
100
AcDbLine
 10
0.2769448841854913
 20
0.9501284050458131
 30
0.0
 11
0.2747323260460277
 21
0.949307666502829
 31
0.0
1001
REVIT
1002
{
1070
     2
1000
-2001160
1002
}
  0
LINE
  5
6EA
330
672
100
AcDbEntity
  8
D35160527
100
AcDbLine
 10
0.2747323260460277
 20
0.949307666502829
 30
0.0
 11
0.2724887169292049
 21
0.9485760631899751
 31
0.0
1001
REVIT
1002
{
1070
     2
1000
-2001160
1002
}
  0
LINE
  5
6EB
330
672
100
AcDbEntity
  8
D35160527
100
AcDbLine
 10
0.2724887169292049
 20
0.9485760631899751
 30
0.0
 11
0.2702176461310017
 21
0.9479347655165035
 31
0.0
1001
REVIT
1002
{
1070
     2
1000
-2001160
1002
}
  0
LINE
  5
6EC
330
672
100
AcDbEntity
  8
D35160527
100
AcDbLine
 10
0.2702176461310017
 20
0.9479347655165035
 30
0.0
 11
0.2679227468802239
 21
0.9473847994218758
 31
0.0
1001
REVIT
1002
{
1070
     2
1000
-2001160
1002
}
  0
LINE
  5
6ED
330
672
100
AcDbEntity
  8
D35160527
100
AcDbLine
 10
0.2679227468802239
 20
0.9473847994218758
 30
0.0
 11
0.2665807777939833
 21
0.9471077372343685
 31
0.0
1001
REVIT
1002
{
1070
     2
1000
-2001160
1002
}
  0
LINE
  5
6EE
330
672
100
AcDbEntity
  8
D35160527
100
AcDbLine
 10
0.2998514136914672
 20
0.9663165478258868
 30
0.0
 11
0.3267184964512406
 21
0.9972235910269089
 31
0.0
1001
REVIT
1002
{
1070
     2
1000
-2001160
1002
}
  0
LINE
  5
6EF
330
672
100
AcDbEntity
  8
D35160527
100
AcDbLine
 10
0.3267184964512673
 20
3.002776408973079
 30
0.0
 11
0.2998514136914956
 21
3.033683452174112
 31
0.0
1001
REVIT
1002
{
1070
     2
1000
-2001160
1002
}
  0
LINE
  5
6F0
330
672
100
AcDbEntity
  8
D35160527
100
AcDbLine
 10
0.3267184964512655
 20
3.002776408973079
 30
0.0
 11
0.328490201451455
 21
3.000818780230694
 31
0.0
1001
REVIT
1002
{
1070
     2
1000
-2001160
1002
}
  0
LINE
  5
6F1
330
672
100
AcDbEntity
  8
D35160527
100
AcDbLine
 10
0.328490201451455
 20
3.000818780230694
 30
0.0
 11
0.3303387735466092
 21
2.998933566685838
 31
0.0
1001
REVIT
1002
{
1070
     2
1000
-2001160
1002
}
  0
LINE
  5
6F2
330
672
100
AcDbEntity
  8
D35160527
100
AcDbLine
 10
0.3303387735466092
 20
2.998933566685838
 30
0.0
 11
0.332261255415716
 21
2.99712378427802
 31
0.0
1001
REVIT
1002
{
1070
     2
1000
-2001160
1002
}
  0
LINE
  5
6F3
330
672
100
AcDbEntity
  8
D35160527
100
AcDbLine
 10
0.332261255415716
 20
2.99712378427802
 30
0.0
 11
0.3342545714978922
 21
2.995392328273026
 31
0.0
1001
REVIT
1002
{
1070
     2
1000
-2001160
1002
}
  0
LINE
  5
6F4
330
672
100
AcDbEntity
  8
D35160527
100
AcDbLine
 10
0.3342545714978922
 20
2.995392328273026
 30
0.0
 11
0.3363155329126251
 21
2.993741968631109
 31
0.0
1001
REVIT
1002
{
1070
     2
1000
-2001160
1002
}
  0
LINE
  5
6F5
330
672
100
AcDbEntity
  8
D35160527
100
AcDbLine
 10
0.3363155329126251
 20
2.993741968631109
 30
0.0
 11
0.3384408425612992
 21
2.992175345575624
 31
0.0
1001
REVIT
1002
{
1070
     2
1000
-2001160
1002
}
  0
LINE
  5
6F6
330
672
100
AcDbEntity
  8
D35160527
100
AcDbLine
 10
0.3384408425612992
 20
2.992175345575624
 30
0.0
 11
0.3406271004018535
 21
2.990694965369289
 31
0.0
1001
REVIT
1002
{
1070
     2
1000
-2001160
1002
}
  0
LINE
  5
6F7
330
672
100
AcDbEntity
  8
D35160527
100
AcDbLine
 10
0.3406271004018535
 20
2.990694965369289
 30
0.0
 11
0.3428708088881152
 21
2.989303196304621
 31
0.0
1001
REVIT
1002
{
1070
     2
1000
-2001160
1002
}
  0
LINE
  5
6F8
330
672
100
AcDbEntity
  8
D35160527
100
AcDbLine
 10
0.3428708088881152
 20
2.989303196304621
 30
0.0
 11
0.3451683785651429
 21
2.988002264915234
 31
0.0
1001
REVIT
1002
{
1070
     2
1000
-2001160
1002
}
  0
LINE
  5
6F9
330
672
100
AcDbEntity
  8
D35160527
100
AcDbLine
 10
0.3451683785651429
 20
2.988002264915234
 30
0.0
 11
0.3475161338115758
 21
2.986794252413822
 31
0.0
1001
REVIT
1002
{
1070
     2
1000
-2001160
1002
}
  0
LINE
  5
6FA
330
672
100
AcDbEntity
  8
D35160527
100
AcDbLine
 10
0.3475161338115758
 20
2.986794252413822
 30
0.0
 11
0.3499103187198447
 21
2.985681091362721
 31
0.0
1001
REVIT
1002
{
1070
     2
1000
-2001160
1002
}
  0
LINE
  5
6FB
330
672
100
AcDbEntity
  8
D35160527
100
AcDbLine
 10
0.3499103187198447
 20
2.985681091362721
 30
0.0
 11
0.3523471031048295
 21
2.984664562582114
 31
0.0
1001
REVIT
1002
{
1070
     2
1000
-2001160
1002
}
  0
LINE
  5
6FC
330
672
100
AcDbEntity
  8
D35160527
100
AcDbLine
 10
0.3523471031048295
 20
2.984664562582114
 30
0.0
 11
0.3548225886313325
 21
2.983746292301222
 31
0.0
1001
REVIT
1002
{
1070
     2
1000
-2001160
1002
}
  0
LINE
  5
6FD
330
672
100
AcDbEntity
  8
D35160527
100
AcDbLine
 10
0.3548225886313325
 20
2.983746292301222
 30
0.0
 11
0.3573328150505901
 21
2.982927749556608
 31
0.0
1001
REVIT
1002
{
1070
     2
1000
-2001160
1002
}
  0
LINE
  5
6FE
330
672
100
AcDbEntity
  8
D35160527
100
AcDbLine
 10
0.3573328150505901
 20
2.982927749556608
 30
0.0
 11
0.3598737665358147
 21
2.982210243842043
 31
0.0
1001
REVIT
1002
{
1070
     2
1000
-2001160
1002
}
  0
LINE
  5
6FF
330
672
100
AcDbEntity
  8
D35160527
100
AcDbLine
 10
0.3598737665358147
 20
2.982210243842043
 30
0.0
 11
0.3624413781066735
 21
2.98159492301362
 31
0.0
1001
REVIT
1002
{
1070
     2
1000
-2001160
1002
}
  0
LINE
  5
700
330
672
100
AcDbEntity
  8
D35160527
100
AcDbLine
 10
0.3624413781066735
 20
2.98159492301362
 30
0.0
 11
0.3639428189008171
 21
2.981284936386426
 31
0.0
1001
REVIT
1002
{
1070
     2
1000
-2001160
1002
}
  0
LINE
  5
701
330
672
100
AcDbEntity
  8
D35160527
100
AcDbLine
 10
0.3639428189007905
 20
1.018715063613562
 30
0.0
 11
0.3613616101786139
 21
1.018159536446585
 31
0.0
1001
REVIT
1002
{
1070
     2
1000
-2001160
1002
}
  0
LINE
  5
702
330
672
100
AcDbEntity
  8
D35160527
100
AcDbLine
 10
0.3613616101786139
 20
1.018159536446585
 30
0.0
 11
0.3588046813096319
 21
1.017501232823878
 31
0.0
1001
REVIT
1002
{
1070
     2
1000
-2001160
1002
}
  0
LINE
  5
703
330
672
100
AcDbEntity
  8
D35160527
100
AcDbLine
 10
0.3588046813096319
 20
1.017501232823878
 30
0.0
 11
0.3562761228345845
 21
1.01674120589083
 31
0.0
1001
REVIT
1002
{
1070
     2
1000
-2001160
1002
}
  0
LINE
  5
704
330
672
100
AcDbEntity
  8
D35160527
100
AcDbLine
 10
0.3562761228345845
 20
1.01674120589083
 30
0.0
 11
0.3537799799076353
 21
1.015880671528385
 31
0.0
1001
REVIT
1002
{
1070
     2
1000
-2001160
1002
}
  0
LINE
  5
705
330
672
100
AcDbEntity
  8
D35160527
100
AcDbLine
 10
0.3537799799076353
 20
1.015880671528385
 30
0.0
 11
0.3513202458249864
 21
1.01492100640797
 31
0.0
1001
REVIT
1002
{
1070
     2
1000
-2001160
1002
}
  0
LINE
  5
706
330
672
100
AcDbEntity
  8
D35160527
100
AcDbLine
 10
0.3513202458249864
 20
1.01492100640797
 30
0.0
 11
0.3489008556364528
 21
1.013863745789045
 31
0.0
1001
REVIT
1002
{
1070
     2
1000
-2001160
1002
}
  0
LINE
  5
707
330
672
100
AcDbEntity
  8
D35160527
100
AcDbLine
 10
0.3489008556364528
 20
1.013863745789045
 30
0.0
 11
0.3465256798502274
 21
1.012710581063074
 31
0.0
1001
REVIT
1002
{
1070
     2
1000
-2001160
1002
}
  0
LINE
  5
708
330
672
100
AcDbEntity
  8
D35160527
100
AcDbLine
 10
0.3465256798502274
 20
1.012710581063074
 30
0.0
 11
0.3441985182408924
 21
1.011463357047617
 31
0.0
1001
REVIT
1002
{
1070
     2
1000
-2001160
1002
}
  0
LINE
  5
709
330
672
100
AcDbEntity
  8
D35160527
100
AcDbLine
 10
0.3441985182408924
 20
1.011463357047617
 30
0.0
 11
0.3419230937705855
 21
1.010124069035039
 31
0.0
1001
REVIT
1002
{
1070
     2
1000
-2001160
1002
}
  0
LINE
  5
70A
330
672
100
AcDbEntity
  8
D35160527
100
AcDbLine
 10
0.3419230937705855
 20
1.010124069035039
 30
0.0
 11
0.3397030466330637
 21
1.008694859600463
 31
0.0
1001
REVIT
1002
{
1070
     2
1000
-2001160
1002
}
  0
LINE
  5
70B
330
672
100
AcDbEntity
  8
D35160527
100
AcDbLine
 10
0.3397030466330637
 20
1.008694859600463
 30
0.0
 11
0.3375419284301628
 21
1.007178015174101
 31
0.0
1001
REVIT
1002
{
1070
     2
1000
-2001160
1002
}
  0
LINE
  5
70C
330
672
100
AcDbEntity
  8
D35160527
100
AcDbLine
 10
0.3375419284301628
 20
1.007178015174101
 30
0.0
 11
0.335443196489992
 21
1.00557596238346
 31
0.0
1001
REVIT
1002
{
1070
     2
1000
-2001160
1002
}
  0
LINE
  5
70D
330
672
100
AcDbEntity
  8
D35160527
100
AcDbLine
 10
0.335443196489992
 20
1.00557596238346
 30
0.0
 11
0.3334102083359482
 21
1.003891264171261
 31
0.0
1001
REVIT
1002
{
1070
     2
1000
-2001160
1002
}
  0
LINE
  5
70E
330
672
100
AcDbEntity
  8
D35160527
100
AcDbLine
 10
0.3334102083359482
 20
1.003891264171261
 30
0.0
 11
0.3314462163154008
 21
1.002126615695235
 31
0.0
1001
REVIT
1002
{
1070
     2
1000
-2001160
1002
}
  0
LINE
  5
70F
330
672
100
AcDbEntity
  8
D35160527
100
AcDbLine
 10
0.3314462163154008
 20
1.002126615695235
 30
0.0
 11
0.3295543623966157
 21
1.000284840016526
 31
0.0
1001
REVIT
1002
{
1070
     2
1000
-2001160
1002
}
  0
LINE
  5
710
330
672
100
AcDbEntity
  8
D35160527
100
AcDbLine
 10
0.3295543623966157
 20
1.000284840016526
 30
0.0
 11
0.327737673142293
 21
0.9983688835833282
 31
0.0
1001
REVIT
1002
{
1070
     2
1000
-2001160
1002
}
  0
LINE
  5
711
330
672
100
AcDbEntity
  8
D35160527
100
AcDbLine
 10
0.327737673142293
 20
0.9983688835833282
 30
0.0
 11
0.3267184964512388
 21
0.9972235910269089
 31
0.0
1001
REVIT
1002
{
1070
     2
1000
-2001160
1002
}
  0
LINE
  5
712
330
672
100
AcDbEntity
  8
D35160527
100
AcDbLine
 10
0.3639428189007923
 20
1.018715063613562
 30
0.0
 11
0.4145661048845799
 21
1.028555233592655
 31
0.0
1001
REVIT
1002
{
1070
     2
1000
-2001160
1002
}
  0
LINE
  5
713
330
672
100
AcDbEntity
  8
D35160527
100
AcDbLine
 10
0.4145661048846066
 20
2.971444766407333
 30
0.0
 11
0.3639428189008171
 21
2.981284936386426
 31
0.0
1001
REVIT
1002
{
1070
     2
1000
-2001160
1002
}
  0
LINE
  5
714
330
672
100
AcDbEntity
  8
D35160527
100
AcDbLine
 10
2.563772206897677
 20
1.425452147244498
 30
0.0
 11
2.655761772284876
 21
1.468347586054902
 31
0.0
1001
REVIT
1002
{
1070
     2
1000
-2001160
1002
}
  0
LINE
  5
715
330
672
100
AcDbEntity
  8
D35160527
100
AcDbLine
 10
2.65576177228489
 20
2.531652413945031
 30
0.0
 11
2.563772206897693
 21
2.574547852755435
 31
0.0
1001
REVIT
1002
{
1070
     2
1000
-2001160
1002
}
  0
LINE
  5
716
330
672
100
AcDbEntity
  8
D35160527
100
AcDbLine
 10
2.655761772284892
 20
2.531652413945031
 30
0.0
 11
2.675860304905494
 21
2.473140223294332
 31
0.0
1001
REVIT
1002
{
1070
     2
1000
-2001160
1002
}
  0
LINE
  5
717
330
672
100
AcDbEntity
  8
D35160527
100
AcDbLine
 10
2.675860304905494
 20
2.473140223294332
 30
0.0
 11
2.693602897297806
 21
2.413871109217573
 31
0.0
1001
REVIT
1002
{
1070
     2
1000
-2001160
1002
}
  0
LINE
  5
718
330
672
100
AcDbEntity
  8
D35160527
100
AcDbLine
 10
2.693602897297806
 20
2.413871109217573
 30
0.0
 11
2.708961165098886
 21
2.353939889653854
 31
0.0
1001
REVIT
1002
{
1070
     2
1000
-2001160
1002
}
  0
LINE
  5
719
330
672
100
AcDbEntity
  8
D35160527
100
AcDbLine
 10
2.708961165098886
 20
2.353939889653854
 30
0.0
 11
2.721910538356507
 21
2.293442441769829
 31
0.0
1001
REVIT
1002
{
1070
     2
1000
-2001160
1002
}
  0
LINE
  5
71A
330
672
100
AcDbEntity
  8
D35160527
100
AcDbLine
 10
2.721910538356507
 20
2.293442441769829
 30
0.0
 11
2.73243030083584
 21
2.232475548576693
 31
0.0
1001
REVIT
1002
{
1070
     2
1000
-2001160
1002
}
  0
LINE
  5
71B
330
672
100
AcDbEntity
  8
D35160527
100
AcDbLine
 10
2.73243030083584
 20
2.232475548576693
 30
0.0
 11
2.740503623161018
 21
2.17113674409797
 31
0.0
1001
REVIT
1002
{
1070
     2
1000
-2001160
1002
}
  0
LINE
  5
71C
330
672
100
AcDbEntity
  8
D35160527
100
AcDbLine
 10
2.740503623161018
 20
2.17113674409797
 30
0.0
 11
2.746117589738537
 21
2.109524157335928
 31
0.0
1001
REVIT
1002
{
1070
     2
1000
-2001160
1002
}
  0
LINE
  5
71D
330
672
100
AcDbEntity
  8
D35160527
100
AcDbLine
 10
2.746117589738537
 20
2.109524157335928
 30
0.0
 11
2.749263219419454
 21
2.04773635528605
 31
0.0
1001
REVIT
1002
{
1070
     2
1000
-2001160
1002
}
  0
LINE
  5
71E
330
672
100
AcDbEntity
  8
D35160527
100
AcDbLine
 10
2.749263219419454
 20
2.04773635528605
 30
0.0
 11
2.750000000000014
 21
1.999999999999956
 31
0.0
1001
REVIT
1002
{
1070
     2
1000
-2001160
1002
}
  0
LINE
  5
71F
330
672
100
AcDbEntity
  8
D35160527
100
AcDbLine
 10
2.750000000000014
 20
1.999999999999967
 30
0.0
 11
2.748762726037604
 21
1.938144550592613
 31
0.0
1001
REVIT
1002
{
1070
     2
1000
-2001160
1002
}
  0
LINE
  5
720
330
672
100
AcDbEntity
  8
D35160527
100
AcDbLine
 10
2.748762726037604
 20
1.938144550592613
 30
0.0
 11
2.745052883524779
 21
1.876388056709173
 31
0.0
1001
REVIT
1002
{
1070
     2
1000
-2001160
1002
}
  0
LINE
  5
721
330
672
100
AcDbEntity
  8
D35160527
100
AcDbLine
 10
2.745052883524779
 20
1.876388056709173
 30
0.0
 11
2.738876407418171
 21
1.814829315565858
 31
0.0
1001
REVIT
1002
{
1070
     2
1000
-2001160
1002
}
  0
LINE
  5
722
330
672
100
AcDbEntity
  8
D35160527
100
AcDbLine
 10
2.738876407418171
 20
1.814829315565858
 30
0.0
 11
2.730243178761968
 21
1.753566808016677
 31
0.0
1001
REVIT
1002
{
1070
     2
1000
-2001160
1002
}
  0
LINE
  5
723
330
672
100
AcDbEntity
  8
D35160527
100
AcDbLine
 10
2.730243178761968
 20
1.753566808016677
 30
0.0
 11
2.719167008880368
 21
1.692698541005046
 31
0.0
1001
REVIT
1002
{
1070
     2
1000
-2001160
1002
}
  0
LINE
  5
724
330
672
100
AcDbEntity
  8
D35160527
100
AcDbLine
 10
2.719167008880368
 20
1.692698541005046
 30
0.0
 11
2.705665617282388
 21
1.632321890773659
 31
0.0
1001
REVIT
1002
{
1070
     2
1000
-2001160
1002
}
  0
LINE
  5
725
330
672
100
AcDbEntity
  8
D35160527
100
AcDbLine
 10
2.705665617282388
 20
1.632321890773659
 30
0.0
 11
2.689760603314443
 21
1.572533447083229
 31
0.0
1001
REVIT
1002
{
1070
     2
1000
-2001160
1002
}
  0
LINE
  5
726
330
672
100
AcDbEntity
  8
D35160527
100
AcDbLine
 10
2.689760603314443
 20
1.572533447083229
 30
0.0
 11
2.671477411605993
 21
1.513428858689457
 31
0.0
1001
REVIT
1002
{
1070
     2
1000
-2001160
1002
}
  0
LINE
  5
727
330
672
100
AcDbEntity
  8
D35160527
100
AcDbLine
 10
2.671477411605993
 20
1.513428858689457
 30
0.0
 11
2.655761772284877
 21
1.468347586054902
 31
0.0
1001
REVIT
1002
{
1070
     2
1000
-2001160
1002
}
  0
LINE
  5
728
330
672
100
AcDbEntity
  8
D35160527
100
AcDbLine
 10
0.2665807777939868
 20
-0.947107737233704
 30
0.0
 11
0.1529748626131759
 21
-0.9250249843209841
 31
0.0
1001
REVIT
1002
{
1070
     2
1000
-2001160
1002
}
  0
LINE
  5
729
330
672
100
AcDbEntity
  8
D35160527
100
AcDbLine
 10
0.1529748626132044
 20
-3.074975015677686
 30
0.0
 11
0.2665807777940135
 21
-3.052892262764966
 31
0.0
1001
REVIT
1002
{
1070
     2
1000
-2001160
1002
}
  0
LINE
  5
72A
330
672
100
AcDbEntity
  8
D35160527
100
AcDbLine
 10
0.2998514136914903
 20
-3.033683452173448
 30
0.0
 11
0.2982678858231473
 21
-3.035433156367481
 31
0.0
1001
REVIT
1002
{
1070
     2
1000
-2001160
1002
}
  0
LINE
  5
72B
330
672
100
AcDbEntity
  8
D35160527
100
AcDbLine
 10
0.2982678858231473
 20
-3.035433156367481
 30
0.0
 11
0.296615655102455
 21
-3.037118136759665
 31
0.0
1001
REVIT
1002
{
1070
     2
1000
-2001160
1002
}
  0
LINE
  5
72C
330
672
100
AcDbEntity
  8
D35160527
100
AcDbLine
 10
0.296615655102455
 20
-3.037118136759665
 30
0.0
 11
0.2948973647461095
 21
-3.038735697740825
 31
0.0
1001
REVIT
1002
{
1070
     2
1000
-2001160
1002
}
  0
LINE
  5
72D
330
672
100
AcDbEntity
  8
D35160527
100
AcDbLine
 10
0.2948973647461095
 20
-3.038735697740825
 30
0.0
 11
0.293115763652132
 21
-3.040283251558431
 31
0.0
1001
REVIT
1002
{
1070
     2
1000
-2001160
1002
}
  0
LINE
  5
72E
330
672
100
AcDbEntity
  8
D35160527
100
AcDbLine
 10
0.293115763652132
 20
-3.040283251558431
 30
0.0
 11
0.2912737020022185
 21
-3.041758322456508
 31
0.0
1001
REVIT
1002
{
1070
     2
1000
-2001160
1002
}
  0
LINE
  5
72F
330
672
100
AcDbEntity
  8
D35160527
100
AcDbLine
 10
0.2912737020022185
 20
-3.041758322456508
 30
0.0
 11
0.2893741267020573
 21
-3.043158550636302
 31
0.0
1001
REVIT
1002
{
1070
     2
1000
-2001160
1002
}
  0
LINE
  5
730
330
672
100
AcDbEntity
  8
D35160527
100
AcDbLine
 10
0.2893741267020573
 20
-3.043158550636302
 30
0.0
 11
0.2874200766669048
 21
-3.044481696031396
 31
0.0
1001
REVIT
1002
{
1070
     2
1000
-2001160
1002
}
  0
LINE
  5
731
330
672
100
AcDbEntity
  8
D35160527
100
AcDbLine
 10
0.2874200766669048
 20
-3.044481696031396
 30
0.0
 11
0.2854146779599773
 21
-3.045725641891443
 31
0.0
1001
REVIT
1002
{
1070
     2
1000
-2001160
1002
}
  0
LINE
  5
732
330
672
100
AcDbEntity
  8
D35160527
100
AcDbLine
 10
0.2854146779599773
 20
-3.045725641891443
 30
0.0
 11
0.2833611387914114
 21
-3.046888398168412
 31
0.0
1001
REVIT
1002
{
1070
     2
1000
-2001160
1002
}
  0
LINE
  5
733
330
672
100
AcDbEntity
  8
D35160527
100
AcDbLine
 10
0.2833611387914114
 20
-3.046888398168412
 30
0.0
 11
0.2812627443858115
 21
-3.047968104700295
 31
0.0
1001
REVIT
1002
{
1070
     2
1000
-2001160
1002
}
  0
LINE
  5
734
330
672
100
AcDbEntity
  8
D35160527
100
AcDbLine
 10
0.2812627443858115
 20
-3.047968104700295
 30
0.0
 11
0.2791228517265907
 21
-3.048963034186975
 31
0.0
1001
REVIT
1002
{
1070
     2
1000
-2001160
1002
}
  0
LINE
  5
735
330
672
100
AcDbEntity
  8
D35160527
100
AcDbLine
 10
0.2791228517265907
 20
-3.048963034186975
 30
0.0
 11
0.2769448841855198
 21
-3.049871594953511
 31
0.0
1001
REVIT
1002
{
1070
     2
1000
-2001160
1002
}
  0
LINE
  5
736
330
672
100
AcDbEntity
  8
D35160527
100
AcDbLine
 10
0.2769448841855198
 20
-3.049871594953511
 30
0.0
 11
0.2747323260460543
 21
-3.050692333496506
 31
0.0
1001
REVIT
1002
{
1070
     2
1000
-2001160
1002
}
  0
LINE
  5
737
330
672
100
AcDbEntity
  8
D35160527
100
AcDbLine
 10
0.2747323260460543
 20
-3.050692333496506
 30
0.0
 11
0.2724887169292316
 21
-3.051423936809349
 31
0.0
1001
REVIT
1002
{
1070
     2
1000
-2001160
1002
}
  0
LINE
  5
738
330
672
100
AcDbEntity
  8
D35160527
100
AcDbLine
 10
0.2724887169292316
 20
-3.051423936809349
 30
0.0
 11
0.2702176461310302
 21
-3.052065234482831
 31
0.0
1001
REVIT
1002
{
1070
     2
1000
-2001160
1002
}
  0
LINE
  5
739
330
672
100
AcDbEntity
  8
D35160527
100
AcDbLine
 10
0.2702176461310302
 20
-3.052065234482831
 30
0.0
 11
0.2679227468802523
 21
-3.052615200577448
 31
0.0
1001
REVIT
1002
{
1070
     2
1000
-2001160
1002
}
  0
LINE
  5
73A
330
672
100
AcDbEntity
  8
D35160527
100
AcDbLine
 10
0.2679227468802523
 20
-3.052615200577448
 30
0.0
 11
0.2665807777940099
 21
-3.052892262764955
 31
0.0
1001
REVIT
1002
{
1070
     2
1000
-2001160
1002
}
  0
LINE
  5
73B
330
672
100
AcDbEntity
  8
D35160527
100
AcDbLine
 10
0.2665807777939833
 20
-0.947107737233704
 30
0.0
 11
0.2688878300092998
 21
-0.9476042604982664
 31
0.0
1001
REVIT
1002
{
1070
     2
1000
-2001160
1002
}
  0
LINE
  5
73C
330
672
100
AcDbEntity
  8
D35160527
100
AcDbLine
 10
0.2688878300092998
 20
-0.9476042604982664
 30
0.0
 11
0.2711731811941593
 21
-0.9481926440792063
 31
0.0
1001
REVIT
1002
{
1070
     2
1000
-2001160
1002
}
  0
LINE
  5
73D
330
672
100
AcDbEntity
  8
D35160527
100
AcDbLine
 10
0.2711731811941593
 20
-0.9481926440792063
 30
0.0
 11
0.2734331752741799
 21
-0.9488719466883031
 31
0.0
1001
REVIT
1002
{
1070
     2
1000
-2001160
1002
}
  0
LINE
  5
73E
330
672
100
AcDbEntity
  8
D35160527
100
AcDbLine
 10
0.2734331752741799
 20
-0.9488719466883031
 30
0.0
 11
0.2756641967409426
 21
-0.9496410815862928
 31
0.0
1001
REVIT
1002
{
1070
     2
1000
-2001160
1002
}
  0
LINE
  5
73F
330
672
100
AcDbEntity
  8
D35160527
100
AcDbLine
 10
0.2756641967409426
 20
-0.9496410815862928
 30
0.0
 11
0.2778626764360226
 21
-0.9504988183214136
 31
0.0
1001
REVIT
1002
{
1070
     2
1000
-2001160
1002
}
  0
LINE
  5
740
330
672
100
AcDbEntity
  8
D35160527
100
AcDbLine
 10
0.2778626764360226
 20
-0.9504988183214136
 30
0.0
 11
0.2800250972608928
 21
-0.9514437846978578
 31
0.0
1001
REVIT
1002
{
1070
     2
1000
-2001160
1002
}
  0
LINE
  5
741
330
672
100
AcDbEntity
  8
D35160527
100
AcDbLine
 10
0.2800250972608928
 20
-0.9514437846978578
 30
0.0
 11
0.282147999803529
 21
-0.9524744689710187
 31
0.0
1001
REVIT
1002
{
1070
     2
1000
-2001160
1002
}
  0
LINE
  5
742
330
672
100
AcDbEntity
  8
D35160527
100
AcDbLine
 10
0.282147999803529
 20
-0.9524744689710187
 30
0.0
 11
0.2842279878727201
 21
-0.9535892222659077
 31
0.0
1001
REVIT
1002
{
1070
     2
1000
-2001160
1002
}
  0
LINE
  5
743
330
672
100
AcDbEntity
  8
D35160527
100
AcDbLine
 10
0.2842279878727201
 20
-0.9535892222659077
 30
0.0
 11
0.2862617339312638
 21
-0.9547862612150657
 31
0.0
1001
REVIT
1002
{
1070
     2
1000
-2001160
1002
}
  0
LINE
  5
744
330
672
100
AcDbEntity
  8
D35160527
100
AcDbLine
 10
0.2862617339312638
 20
-0.9547862612150657
 30
0.0
 11
0.2882459844193121
 21
-0.9560636708115451
 31
0.0
1001
REVIT
1002
{
1070
     2
1000
-2001160
1002
}
  0
LINE
  5
745
330
672
100
AcDbEntity
  8
D35160527
100
AcDbLine
 10
0.2882459844193121
 20
-0.9560636708115451
 30
0.0
 11
0.2901775649593627
 21
-0.9574194074724536
 31
0.0
1001
REVIT
1002
{
1070
     2
1000
-2001160
1002
}
  0
LINE
  5
746
330
672
100
AcDbEntity
  8
D35160527
100
AcDbLine
 10
0.2901775649593627
 20
-0.9574194074724536
 30
0.0
 11
0.2920533854346043
 21
-0.9588513023083711
 31
0.0
1001
REVIT
1002
{
1070
     2
1000
-2001160
1002
}
  0
LINE
  5
747
330
672
100
AcDbEntity
  8
D35160527
100
AcDbLine
 10
0.2920533854346043
 20
-0.9588513023083711
 30
0.0
 11
0.2938704449324287
 21
-0.9603570645930011
 31
0.0
1001
REVIT
1002
{
1070
     2
1000
-2001160
1002
}
  0
LINE
  5
748
330
672
100
AcDbEntity
  8
D35160527
100
AcDbLine
 10
0.2938704449324287
 20
-0.9603570645930011
 30
0.0
 11
0.2956258365452591
 21
-0.961934285427908
 31
0.0
1001
REVIT
1002
{
1070
     2
1000
-2001160
1002
}
  0
LINE
  5
749
330
672
100
AcDbEntity
  8
D35160527
100
AcDbLine
 10
0.2956258365452591
 20
-0.961934285427908
 30
0.0
 11
0.2973167520209756
 21
-0.9635804415962139
 31
0.0
1001
REVIT
1002
{
1070
     2
1000
-2001160
1002
}
  0
LINE
  5
74A
330
672
100
AcDbEntity
  8
D35160527
100
AcDbLine
 10
0.2973167520209756
 20
-0.9635804415962139
 30
0.0
 11
0.2989404862555318
 21
-0.9652928995991983
 31
0.0
1001
REVIT
1002
{
1070
     2
1000
-2001160
1002
}
  0
LINE
  5
74B
330
672
100
AcDbEntity
  8
D35160527
100
AcDbLine
 10
0.2989404862555318
 20
-0.9652928995991983
 30
0.0
 11
0.2998514136914636
 21
-0.9663165478252222
 31
0.0
1001
REVIT
1002
{
1070
     2
1000
-2001160
1002
}
  0
LINE
  5
74C
330
672
100
AcDbEntity
  8
D35160527
100
AcDbLine
 10
0.3267184964512388
 20
-0.9972235910262448
 30
0.0
 11
0.2998514136914654
 21
-0.9663165478252116
 31
0.0
1001
REVIT
1002
{
1070
     2
1000
-2001160
1002
}
  0
LINE
  5
74D
330
672
100
AcDbEntity
  8
D35160527
100
AcDbLine
 10
0.2998514136914938
 20
-3.033683452173448
 30
0.0
 11
0.3267184964512655
 21
-3.002776408972415
 31
0.0
1001
REVIT
1002
{
1070
     2
1000
-2001160
1002
}
  0
LINE
  5
74E
330
672
100
AcDbEntity
  8
D35160527
100
AcDbLine
 10
0.3639428189008171
 20
-2.981284936385761
 30
0.0
 11
0.3613616101786405
 21
-2.981840463552749
 31
0.0
1001
REVIT
1002
{
1070
     2
1000
-2001160
1002
}
  0
LINE
  5
74F
330
672
100
AcDbEntity
  8
D35160527
100
AcDbLine
 10
0.3613616101786405
 20
-2.981840463552749
 30
0.0
 11
0.3588046813096586
 21
-2.982498767175446
 31
0.0
1001
REVIT
1002
{
1070
     2
1000
-2001160
1002
}
  0
LINE
  5
750
330
672
100
AcDbEntity
  8
D35160527
100
AcDbLine
 10
0.3588046813096586
 20
-2.982498767175446
 30
0.0
 11
0.3562761228346112
 21
-2.983258794108504
 31
0.0
1001
REVIT
1002
{
1070
     2
1000
-2001160
1002
}
  0
LINE
  5
751
330
672
100
AcDbEntity
  8
D35160527
100
AcDbLine
 10
0.3562761228346112
 20
-2.983258794108504
 30
0.0
 11
0.353779979907662
 21
-2.984119328470938
 31
0.0
1001
REVIT
1002
{
1070
     2
1000
-2001160
1002
}
  0
LINE
  5
752
330
672
100
AcDbEntity
  8
D35160527
100
AcDbLine
 10
0.353779979907662
 20
-2.984119328470938
 30
0.0
 11
0.3513202458250113
 21
-2.985078993591354
 31
0.0
1001
REVIT
1002
{
1070
     2
1000
-2001160
1002
}
  0
LINE
  5
753
330
672
100
AcDbEntity
  8
D35160527
100
AcDbLine
 10
0.3513202458250113
 20
-2.985078993591354
 30
0.0
 11
0.3489008556364777
 21
-2.986136254210279
 31
0.0
1001
REVIT
1002
{
1070
     2
1000
-2001160
1002
}
  0
LINE
  5
754
330
672
100
AcDbEntity
  8
D35160527
100
AcDbLine
 10
0.3489008556364777
 20
-2.986136254210279
 30
0.0
 11
0.3465256798502523
 21
-2.987289418936249
 31
0.0
1001
REVIT
1002
{
1070
     2
1000
-2001160
1002
}
  0
LINE
  5
755
330
672
100
AcDbEntity
  8
D35160527
100
AcDbLine
 10
0.3465256798502523
 20
-2.987289418936249
 30
0.0
 11
0.3441985182409173
 21
-2.988536642951707
 31
0.0
1001
REVIT
1002
{
1070
     2
1000
-2001160
1002
}
  0
LINE
  5
756
330
672
100
AcDbEntity
  8
D35160527
100
AcDbLine
 10
0.3441985182409173
 20
-2.988536642951707
 30
0.0
 11
0.3419230937706121
 21
-2.989875930964284
 31
0.0
1001
REVIT
1002
{
1070
     2
1000
-2001160
1002
}
  0
LINE
  5
757
330
672
100
AcDbEntity
  8
D35160527
100
AcDbLine
 10
0.3419230937706121
 20
-2.989875930964284
 30
0.0
 11
0.3397030466330904
 21
-2.99130514039886
 31
0.0
1001
REVIT
1002
{
1070
     2
1000
-2001160
1002
}
  0
LINE
  5
758
330
672
100
AcDbEntity
  8
D35160527
100
AcDbLine
 10
0.3397030466330904
 20
-2.99130514039886
 30
0.0
 11
0.3375419284301877
 21
-2.992821984825222
 31
0.0
1001
REVIT
1002
{
1070
     2
1000
-2001160
1002
}
  0
LINE
  5
759
330
672
100
AcDbEntity
  8
D35160527
100
AcDbLine
 10
0.3375419284301877
 20
-2.992821984825222
 30
0.0
 11
0.3354431964900169
 21
-2.994424037615864
 31
0.0
1001
REVIT
1002
{
1070
     2
1000
-2001160
1002
}
  0
LINE
  5
75A
330
672
100
AcDbEntity
  8
D35160527
100
AcDbLine
 10
0.3354431964900169
 20
-2.994424037615864
 30
0.0
 11
0.3334102083359749
 21
-2.996108735828073
 31
0.0
1001
REVIT
1002
{
1070
     2
1000
-2001160
1002
}
  0
LINE
  5
75B
330
672
100
AcDbEntity
  8
D35160527
100
AcDbLine
 10
0.3334102083359749
 20
-2.996108735828073
 30
0.0
 11
0.3314462163154257
 21
-2.997873384304099
 31
0.0
1001
REVIT
1002
{
1070
     2
1000
-2001160
1002
}
  0
LINE
  5
75C
330
672
100
AcDbEntity
  8
D35160527
100
AcDbLine
 10
0.3314462163154257
 20
-2.997873384304099
 30
0.0
 11
0.3295543623966424
 21
-2.999715159982798
 31
0.0
1001
REVIT
1002
{
1070
     2
1000
-2001160
1002
}
  0
LINE
  5
75D
330
672
100
AcDbEntity
  8
D35160527
100
AcDbLine
 10
0.3295543623966424
 20
-2.999715159982798
 30
0.0
 11
0.3277376731423196
 21
-3.001631116415996
 31
0.0
1001
REVIT
1002
{
1070
     2
1000
-2001160
1002
}
  0
LINE
  5
75E
330
672
100
AcDbEntity
  8
D35160527
100
AcDbLine
 10
0.3277376731423196
 20
-3.001631116415996
 30
0.0
 11
0.3267184964512655
 21
-3.002776408972404
 31
0.0
1001
REVIT
1002
{
1070
     2
1000
-2001160
1002
}
  0
LINE
  5
75F
330
672
100
AcDbEntity
  8
D35160527
100
AcDbLine
 10
0.3267184964512388
 20
-0.9972235910262554
 30
0.0
 11
0.3284902014514284
 21
-0.99918121976863
 31
0.0
1001
REVIT
1002
{
1070
     2
1000
-2001160
1002
}
  0
LINE
  5
760
330
672
100
AcDbEntity
  8
D35160527
100
AcDbLine
 10
0.3284902014514284
 20
-0.99918121976863
 30
0.0
 11
0.3303387735465826
 21
-1.001066433313485
 31
0.0
1001
REVIT
1002
{
1070
     2
1000
-2001160
1002
}
  0
LINE
  5
761
330
672
100
AcDbEntity
  8
D35160527
100
AcDbLine
 10
0.3303387735465826
 20
-1.001066433313485
 30
0.0
 11
0.3322612554156894
 21
-1.002876215721314
 31
0.0
1001
REVIT
1002
{
1070
     2
1000
-2001160
1002
}
  0
LINE
  5
762
330
672
100
AcDbEntity
  8
D35160527
100
AcDbLine
 10
0.3322612554156894
 20
-1.002876215721314
 30
0.0
 11
0.3342545714978655
 21
-1.004607671726297
 31
0.0
1001
REVIT
1002
{
1070
     2
1000
-2001160
1002
}
  0
LINE
  5
763
330
672
100
AcDbEntity
  8
D35160527
100
AcDbLine
 10
0.3342545714978655
 20
-1.004607671726297
 30
0.0
 11
0.3363155329126002
 21
-1.006258031368225
 31
0.0
1001
REVIT
1002
{
1070
     2
1000
-2001160
1002
}
  0
LINE
  5
764
330
672
100
AcDbEntity
  8
D35160527
100
AcDbLine
 10
0.3363155329126002
 20
-1.006258031368225
 30
0.0
 11
0.3384408425612726
 21
-1.0078246544237
 31
0.0
1001
REVIT
1002
{
1070
     2
1000
-2001160
1002
}
  0
LINE
  5
765
330
672
100
AcDbEntity
  8
D35160527
100
AcDbLine
 10
0.3384408425612726
 20
-1.0078246544237
 30
0.0
 11
0.3406271004018251
 21
-1.009305034630034
 31
0.0
1001
REVIT
1002
{
1070
     2
1000
-2001160
1002
}
  0
LINE
  5
766
330
672
100
AcDbEntity
  8
D35160527
100
AcDbLine
 10
0.3406271004018251
 20
-1.009305034630034
 30
0.0
 11
0.3428708088880885
 21
-1.010696803694702
 31
0.0
1001
REVIT
1002
{
1070
     2
1000
-2001160
1002
}
  0
LINE
  5
767
330
672
100
AcDbEntity
  8
D35160527
100
AcDbLine
 10
0.3428708088880885
 20
-1.010696803694702
 30
0.0
 11
0.3451683785651181
 21
-1.01199773508409
 31
0.0
1001
REVIT
1002
{
1070
     2
1000
-2001160
1002
}
  0
LINE
  5
768
330
672
100
AcDbEntity
  8
D35160527
100
AcDbLine
 10
0.3451683785651181
 20
-1.01199773508409
 30
0.0
 11
0.3475161338115491
 21
-1.013205747585501
 31
0.0
1001
REVIT
1002
{
1070
     2
1000
-2001160
1002
}
  0
LINE
  5
769
330
672
100
AcDbEntity
  8
D35160527
100
AcDbLine
 10
0.3475161338115491
 20
-1.013205747585501
 30
0.0
 11
0.349910318719818
 21
-1.014318908636614
 31
0.0
1001
REVIT
1002
{
1070
     2
1000
-2001160
1002
}
  0
LINE
  5
76A
330
672
100
AcDbEntity
  8
D35160527
100
AcDbLine
 10
0.349910318719818
 20
-1.014318908636614
 30
0.0
 11
0.3523471031048029
 21
-1.01533543741722
 31
0.0
1001
REVIT
1002
{
1070
     2
1000
-2001160
1002
}
  0
LINE
  5
76B
330
672
100
AcDbEntity
  8
D35160527
100
AcDbLine
 10
0.3523471031048029
 20
-1.01533543741722
 30
0.0
 11
0.3548225886313059
 21
-1.016253707698101
 31
0.0
1001
REVIT
1002
{
1070
     2
1000
-2001160
1002
}
  0
LINE
  5
76C
330
672
100
AcDbEntity
  8
D35160527
100
AcDbLine
 10
0.3548225886313059
 20
-1.016253707698101
 30
0.0
 11
0.3573328150505635
 21
-1.017072250442715
 31
0.0
1001
REVIT
1002
{
1070
     2
1000
-2001160
1002
}
  0
LINE
  5
76D
330
672
100
AcDbEntity
  8
D35160527
100
AcDbLine
 10
0.3573328150505635
 20
-1.017072250442715
 30
0.0
 11
0.3598737665357898
 21
-1.017789756157281
 31
0.0
1001
REVIT
1002
{
1070
     2
1000
-2001160
1002
}
  0
LINE
  5
76E
330
672
100
AcDbEntity
  8
D35160527
100
AcDbLine
 10
0.3598737665357898
 20
-1.017789756157281
 30
0.0
 11
0.3624413781066469
 21
-1.018405076985704
 31
0.0
1001
REVIT
1002
{
1070
     2
1000
-2001160
1002
}
  0
LINE
  5
76F
330
672
100
AcDbEntity
  8
D35160527
100
AcDbLine
 10
0.3624413781066469
 20
-1.018405076985704
 30
0.0
 11
0.3639428189007905
 21
-1.018715063612898
 31
0.0
1001
REVIT
1002
{
1070
     2
1000
-2001160
1002
}
  0
LINE
  5
770
330
672
100
AcDbEntity
  8
D35160527
100
AcDbLine
 10
0.4145661048845799
 20
-1.02855523359199
 30
0.0
 11
0.3639428189007905
 21
-1.018715063612898
 31
0.0
1001
REVIT
1002
{
1070
     2
1000
-2001160
1002
}
  0
LINE
  5
771
330
672
100
AcDbEntity
  8
D35160527
100
AcDbLine
 10
0.3639428189008171
 20
-2.981284936385761
 30
0.0
 11
0.4145661048846066
 21
-2.971444766406669
 31
0.0
1001
REVIT
1002
{
1070
     2
1000
-2001160
1002
}
  0
LINE
  5
772
330
672
100
AcDbEntity
  8
D35160527
100
AcDbLine
 10
2.655761772284876
 20
-1.468347586054239
 30
0.0
 11
2.563772206897677
 21
-1.425452147243835
 31
0.0
1001
REVIT
1002
{
1070
     2
1000
-2001160
1002
}
  0
LINE
  5
773
330
672
100
AcDbEntity
  8
D35160527
100
AcDbLine
 10
2.563772206897692
 20
-2.574547852754772
 30
0.0
 11
2.65576177228489
 21
-2.531652413944367
 31
0.0
1001
REVIT
1002
{
1070
     2
1000
-2001160
1002
}
  0
LINE
  5
774
330
672
100
AcDbEntity
  8
D35160527
100
AcDbLine
 10
2.750000000000012
 20
-1.999999999999282
 30
0.0
 11
2.748762726037604
 21
-2.061855449406646
 31
0.0
1001
REVIT
1002
{
1070
     2
1000
-2001160
1002
}
  0
LINE
  5
775
330
672
100
AcDbEntity
  8
D35160527
100
AcDbLine
 10
2.748762726037604
 20
-2.061855449406646
 30
0.0
 11
2.745052883524781
 21
-2.123611943290086
 31
0.0
1001
REVIT
1002
{
1070
     2
1000
-2001160
1002
}
  0
LINE
  5
776
330
672
100
AcDbEntity
  8
D35160527
100
AcDbLine
 10
2.745052883524781
 20
-2.123611943290086
 30
0.0
 11
2.738876407418175
 21
-2.185170684433391
 31
0.0
1001
REVIT
1002
{
1070
     2
1000
-2001160
1002
}
  0
LINE
  5
777
330
672
100
AcDbEntity
  8
D35160527
100
AcDbLine
 10
2.738876407418175
 20
-2.185170684433391
 30
0.0
 11
2.730243178761975
 21
-2.246433191982582
 31
0.0
1001
REVIT
1002
{
1070
     2
1000
-2001160
1002
}
  0
LINE
  5
778
330
672
100
AcDbEntity
  8
D35160527
100
AcDbLine
 10
2.730243178761975
 20
-2.246433191982582
 30
0.0
 11
2.719167008880377
 21
-2.307301458994203
 31
0.0
1001
REVIT
1002
{
1070
     2
1000
-2001160
1002
}
  0
LINE
  5
779
330
672
100
AcDbEntity
  8
D35160527
100
AcDbLine
 10
2.719167008880377
 20
-2.307301458994203
 30
0.0
 11
2.7056656172824
 21
-2.36767810922559
 31
0.0
1001
REVIT
1002
{
1070
     2
1000
-2001160
1002
}
  0
LINE
  5
77A
330
672
100
AcDbEntity
  8
D35160527
100
AcDbLine
 10
2.7056656172824
 20
-2.36767810922559
 30
0.0
 11
2.689760603314457
 21
-2.427466552916019
 31
0.0
1001
REVIT
1002
{
1070
     2
1000
-2001160
1002
}
  0
LINE
  5
77B
330
672
100
AcDbEntity
  8
D35160527
100
AcDbLine
 10
2.689760603314457
 20
-2.427466552916019
 30
0.0
 11
2.671477411606009
 21
-2.486571141309791
 31
0.0
1001
REVIT
1002
{
1070
     2
1000
-2001160
1002
}
  0
LINE
  5
77C
330
672
100
AcDbEntity
  8
D35160527
100
AcDbLine
 10
2.671477411606009
 20
-2.486571141309791
 30
0.0
 11
2.655761772284893
 21
-2.531652413944357
 31
0.0
1001
REVIT
1002
{
1070
     2
1000
-2001160
1002
}
  0
LINE
  5
77D
330
672
100
AcDbEntity
  8
D35160527
100
AcDbLine
 10
2.655761772284879
 20
-1.468347586054239
 30
0.0
 11
2.675860304905484
 21
-1.526859776704938
 31
0.0
1001
REVIT
1002
{
1070
     2
1000
-2001160
1002
}
  0
LINE
  5
77E
330
672
100
AcDbEntity
  8
D35160527
100
AcDbLine
 10
2.675860304905484
 20
-1.526859776704938
 30
0.0
 11
2.693602897297797
 21
-1.586128890781708
 31
0.0
1001
REVIT
1002
{
1070
     2
1000
-2001160
1002
}
  0
LINE
  5
77F
330
672
100
AcDbEntity
  8
D35160527
100
AcDbLine
 10
2.693602897297797
 20
-1.586128890781708
 30
0.0
 11
2.708961165098878
 21
-1.646060110345427
 31
0.0
1001
REVIT
1002
{
1070
     2
1000
-2001160
1002
}
  0
LINE
  5
780
330
672
100
AcDbEntity
  8
D35160527
100
AcDbLine
 10
2.708961165098878
 20
-1.646060110345427
 30
0.0
 11
2.7219105383565
 21
-1.706557558229441
 31
0.0
1001
REVIT
1002
{
1070
     2
1000
-2001160
1002
}
  0
LINE
  5
781
330
672
100
AcDbEntity
  8
D35160527
100
AcDbLine
 10
2.7219105383565
 20
-1.706557558229441
 30
0.0
 11
2.732430300835835
 21
-1.767524451422577
 31
0.0
1001
REVIT
1002
{
1070
     2
1000
-2001160
1002
}
  0
LINE
  5
782
330
672
100
AcDbEntity
  8
D35160527
100
AcDbLine
 10
2.732430300835835
 20
-1.767524451422577
 30
0.0
 11
2.740503623161014
 21
-1.8288632559013
 31
0.0
1001
REVIT
1002
{
1070
     2
1000
-2001160
1002
}
  0
LINE
  5
783
330
672
100
AcDbEntity
  8
D35160527
100
AcDbLine
 10
2.740503623161014
 20
-1.8288632559013
 30
0.0
 11
2.746117589738535
 21
-1.890475842663352
 31
0.0
1001
REVIT
1002
{
1070
     2
1000
-2001160
1002
}
  0
LINE
  5
784
330
672
100
AcDbEntity
  8
D35160527
100
AcDbLine
 10
2.746117589738535
 20
-1.890475842663352
 30
0.0
 11
2.749263219419452
 21
-1.95226364471323
 31
0.0
1001
REVIT
1002
{
1070
     2
1000
-2001160
1002
}
  0
LINE
  5
785
330
672
100
AcDbEntity
  8
D35160527
100
AcDbLine
 10
2.749263219419452
 20
-1.95226364471323
 30
0.0
 11
2.750000000000012
 21
-1.999999999999314
 31
0.0
1001
REVIT
1002
{
1070
     2
1000
-2001160
1002
}
  0
LINE
  5
786
330
672
100
AcDbEntity
  8
D35160527
100
AcDbLine
 10
2.101608286314128
 20
0.2542629120452733
 30
0.0
 11
2.14539371504442
 21
0.178424324853228
 31
0.0
1001
REVIT
1002
{
1070
     2
1000
-2001160
1002
}
  0
LINE
  5
787
330
672
100
AcDbEntity
  8
D35160527
100
AcDbLine
 10
2.558986152514471
 20
0.178424324853228
 30
0.0
 11
2.602771581244763
 21
0.2542629120452732
 31
0.0
1001
REVIT
1002
{
1070
     2
1000
-2001160
1002
}
  0
LINE
  5
788
330
672
100
AcDbEntity
  8
D35160527
100
AcDbLine
 10
2.558986152514467
 20
0.178424324853228
 30
0.0
 11
2.543883768059423
 21
0.1704534609827379
 31
0.0
1001
REVIT
1002
{
1070
     2
1000
-2001160
1002
}
  0
LINE
  5
789
330
672
100
AcDbEntity
  8
D35160527
100
AcDbLine
 10
2.543883768059423
 20
0.1704534609827379
 30
0.0
 11
2.528474714362035
 21
0.1630929072521456
 31
0.0
1001
REVIT
1002
{
1070
     2
1000
-2001160
1002
}
  0
LINE
  5
78A
330
672
100
AcDbEntity
  8
D35160527
100
AcDbLine
 10
2.528474714362035
 20
0.1630929072521456
 30
0.0
 11
2.51278364262113
 21
0.1563544389772669
 31
0.0
1001
REVIT
1002
{
1070
     2
1000
-2001160
1002
}
  0
LINE
  5
78B
330
672
100
AcDbEntity
  8
D35160527
100
AcDbLine
 10
2.51278364262113
 20
0.1563544389772669
 30
0.0
 11
2.49683565520424
 21
0.1502488362698595
 31
0.0
1001
REVIT
1002
{
1070
     2
1000
-2001160
1002
}
  0
LINE
  5
78C
330
672
100
AcDbEntity
  8
D35160527
100
AcDbLine
 10
2.49683565520424
 20
0.1502488362698595
 30
0.0
 11
2.48065626548918
 21
0.1447858667918243
 31
0.0
1001
REVIT
1002
{
1070
     2
1000
-2001160
1002
}
  0
LINE
  5
78D
330
672
100
AcDbEntity
  8
D35160527
100
AcDbLine
 10
2.48065626548918
 20
0.1447858667918243
 30
0.0
 11
2.464271357048072
 21
0.1399742701289202
 31
0.0
1001
REVIT
1002
{
1070
     2
1000
-2001160
1002
}
  0
LINE
  5
78E
330
672
100
AcDbEntity
  8
D35160527
100
AcDbLine
 10
2.464271357048072
 20
0.1399742701289202
 30
0.0
 11
2.447707142239165
 21
0.1358217438094154
 31
0.0
1001
REVIT
1002
{
1070
     2
1000
-2001160
1002
}
  0
LINE
  5
78F
330
672
100
AcDbEntity
  8
D35160527
100
AcDbLine
 10
2.447707142239165
 20
0.1358217438094154
 30
0.0
 11
2.430990120272639
 21
0.1323349309895856
 31
0.0
1001
REVIT
1002
{
1070
     2
1000
-2001160
1002
}
  0
LINE
  5
790
330
672
100
AcDbEntity
  8
D35160527
100
AcDbLine
 10
2.430990120272639
 20
0.1323349309895856
 30
0.0
 11
2.414147034817535
 21
0.1295194098261301
 31
0.0
1001
REVIT
1002
{
1070
     2
1000
-2001160
1002
}
  0
LINE
  5
791
330
672
100
AcDbEntity
  8
D35160527
100
AcDbLine
 10
2.414147034817535
 20
0.1295194098261301
 30
0.0
 11
2.397204831217578
 21
0.1273796845522912
 31
0.0
1001
REVIT
1002
{
1070
     2
1000
-2001160
1002
}
  0
LINE
  5
792
330
672
100
AcDbEntity
  8
D35160527
100
AcDbLine
 10
2.397204831217578
 20
0.1273796845522912
 30
0.0
 11
2.380190613384387
 21
0.1259191782720666
 31
0.0
1001
REVIT
1002
{
1070
     2
1000
-2001160
1002
}
  0
LINE
  5
793
330
672
100
AcDbEntity
  8
D35160527
100
AcDbLine
 10
2.380190613384387
 20
0.1259191782720666
 30
0.0
 11
2.363131600436988
 21
0.1251402274839388
 31
0.0
1001
REVIT
1002
{
1070
     2
1000
-2001160
1002
}
  0
LINE
  5
794
330
672
100
AcDbEntity
  8
D35160527
100
AcDbLine
 10
2.363131600436988
 20
0.1251402274839388
 30
0.0
 11
2.352189933779445
 21
0.1249999999999676
 31
0.0
1001
REVIT
1002
{
1070
     2
1000
-2001160
1002
}
  0
LINE
  5
795
330
672
100
AcDbEntity
  8
D35160527
100
AcDbLine
 10
2.352189933779445
 20
0.1249999999999676
 30
0.0
 11
2.335116561062051
 21
0.1253415129905906
 31
0.0
1001
REVIT
1002
{
1070
     2
1000
-2001160
1002
}
  0
LINE
  5
796
330
672
100
AcDbEntity
  8
D35160527
100
AcDbLine
 10
2.335116561062051
 20
0.1253415129905906
 30
0.0
 11
2.318070502098878
 21
0.1263655056145541
 31
0.0
1001
REVIT
1002
{
1070
     2
1000
-2001160
1002
}
  0
LINE
  5
797
330
672
100
AcDbEntity
  8
D35160527
100
AcDbLine
 10
2.318070502098878
 20
0.1263655056145541
 30
0.0
 11
2.30107902694797
 21
0.1280703397020662
 31
0.0
1001
REVIT
1002
{
1070
     2
1000
-2001160
1002
}
  0
LINE
  5
798
330
672
100
AcDbEntity
  8
D35160527
100
AcDbLine
 10
2.30107902694797
 20
0.1280703397020662
 30
0.0
 11
2.284169318344915
 21
0.1304532878822751
 31
0.0
1001
REVIT
1002
{
1070
     2
1000
-2001160
1002
}
  0
LINE
  5
799
330
672
100
AcDbEntity
  8
D35160527
100
AcDbLine
 10
2.284169318344915
 20
0.1304532878822751
 30
0.0
 11
2.267368428216263
 21
0.1335105379464454
 31
0.0
1001
REVIT
1002
{
1070
     2
1000
-2001160
1002
}
  0
LINE
  5
79A
330
672
100
AcDbEntity
  8
D35160527
100
AcDbLine
 10
2.267368428216263
 20
0.1335105379464454
 30
0.0
 11
2.250703234402223
 21
0.1372371989466319
 31
0.0
1001
REVIT
1002
{
1070
     2
1000
-2001160
1002
}
  0
LINE
  5
79B
330
672
100
AcDbEntity
  8
D35160527
100
AcDbLine
 10
2.250703234402223
 20
0.1372371989466319
 30
0.0
 11
2.234200397657847
 21
0.1416273090202362
 31
0.0
1001
REVIT
1002
{
1070
     2
1000
-2001160
1002
}
  0
LINE
  5
79C
330
672
100
AcDbEntity
  8
D35160527
100
AcDbLine
 10
2.234200397657847
 20
0.1416273090202362
 30
0.0
 11
2.217886319001506
 21
0.1466738449276153
 31
0.0
1001
REVIT
1002
{
1070
     2
1000
-2001160
1002
}
  0
LINE
  5
79D
330
672
100
AcDbEntity
  8
D35160527
100
AcDbLine
 10
2.217886319001506
 20
0.1466738449276153
 30
0.0
 11
2.201787097478899
 21
0.1523687332878931
 31
0.0
1001
REVIT
1002
{
1070
     2
1000
-2001160
1002
}
  0
LINE
  5
79E
330
672
100
AcDbEntity
  8
D35160527
100
AcDbLine
 10
2.201787097478899
 20
0.1523687332878931
 30
0.0
 11
2.185928488410146
 21
0.1587028634944967
 31
0.0
1001
REVIT
1002
{
1070
     2
1000
-2001160
1002
}
  0
LINE
  5
79F
330
672
100
AcDbEntity
  8
D35160527
100
AcDbLine
 10
2.185928488410146
 20
0.1587028634944967
 30
0.0
 11
2.170335862186767
 21
0.1656661022903338
 31
0.0
1001
REVIT
1002
{
1070
     2
1000
-2001160
1002
}
  0
LINE
  5
7A0
330
672
100
AcDbEntity
  8
D35160527
100
AcDbLine
 10
2.170335862186767
 20
0.1656661022903338
 30
0.0
 11
2.15503416368447
 21
0.1732473099787408
 31
0.0
1001
REVIT
1002
{
1070
     2
1000
-2001160
1002
}
  0
LINE
  5
7A1
330
672
100
AcDbEntity
  8
D35160527
100
AcDbLine
 10
2.15503416368447
 20
0.1732473099787408
 30
0.0
 11
2.145393715044423
 21
0.178424324853228
 31
0.0
1001
REVIT
1002
{
1070
     2
1000
-2001160
1002
}
  0
LINE
  5
7A2
330
672
100
AcDbEntity
  8
D35160527
100
AcDbLine
 10
2.199124770398094
 20
1.648813605458104
 30
0.0
 11
2.101608286314128
 21
0.2542629120452733
 31
0.0
1001
REVIT
1002
{
1070
     2
1000
-2001160
1002
}
  0
LINE
  5
7A3
330
672
100
AcDbEntity
  8
D35160527
100
AcDbLine
 10
2.602771581244763
 20
0.2542629120452732
 30
0.0
 11
2.517389123786541
 21
1.475288940333149
 31
0.0
1001
REVIT
1002
{
1070
     2
1000
-2001160
1002
}
  0
LINE
  5
7A4
330
672
100
AcDbEntity
  8
D35160527
100
AcDbLine
 10
2.101608286314144
 20
-3.745737087953987
 30
0.0
 11
2.145393715044436
 21
-3.821575675146032
 31
0.0
1001
REVIT
1002
{
1070
     2
1000
-2001160
1002
}
  0
LINE
  5
7A5
330
672
100
AcDbEntity
  8
D35160527
100
AcDbLine
 10
2.558986152514481
 20
-3.821575675146032
 30
0.0
 11
2.602771581244773
 21
-3.745737087953987
 31
0.0
1001
REVIT
1002
{
1070
     2
1000
-2001160
1002
}
  0
LINE
  5
7A6
330
672
100
AcDbEntity
  8
D35160527
100
AcDbLine
 10
2.558986152514483
 20
-3.821575675146032
 30
0.0
 11
2.543883768059439
 21
-3.829546539016522
 31
0.0
1001
REVIT
1002
{
1070
     2
1000
-2001160
1002
}
  0
LINE
  5
7A7
330
672
100
AcDbEntity
  8
D35160527
100
AcDbLine
 10
2.543883768059439
 20
-3.829546539016522
 30
0.0
 11
2.528474714362051
 21
-3.836907092747104
 31
0.0
1001
REVIT
1002
{
1070
     2
1000
-2001160
1002
}
  0
LINE
  5
7A8
330
672
100
AcDbEntity
  8
D35160527
100
AcDbLine
 10
2.528474714362051
 20
-3.836907092747104
 30
0.0
 11
2.512783642621144
 21
-3.843645561021993
 31
0.0
1001
REVIT
1002
{
1070
     2
1000
-2001160
1002
}
  0
LINE
  5
7A9
330
672
100
AcDbEntity
  8
D35160527
100
AcDbLine
 10
2.512783642621144
 20
-3.843645561021993
 30
0.0
 11
2.496835655204256
 21
-3.84975116372939
 31
0.0
1001
REVIT
1002
{
1070
     2
1000
-2001160
1002
}
  0
LINE
  5
7AA
330
672
100
AcDbEntity
  8
D35160527
100
AcDbLine
 10
2.496835655204256
 20
-3.84975116372939
 30
0.0
 11
2.480656265489194
 21
-3.855214133207436
 31
0.0
1001
REVIT
1002
{
1070
     2
1000
-2001160
1002
}
  0
LINE
  5
7AB
330
672
100
AcDbEntity
  8
D35160527
100
AcDbLine
 10
2.480656265489194
 20
-3.855214133207436
 30
0.0
 11
2.464271357048088
 21
-3.86002572987034
 31
0.0
1001
REVIT
1002
{
1070
     2
1000
-2001160
1002
}
  0
LINE
  5
7AC
330
672
100
AcDbEntity
  8
D35160527
100
AcDbLine
 10
2.464271357048088
 20
-3.86002572987034
 30
0.0
 11
2.447707142239181
 21
-3.864178256189845
 31
0.0
1001
REVIT
1002
{
1070
     2
1000
-2001160
1002
}
  0
LINE
  5
7AD
330
672
100
AcDbEntity
  8
D35160527
100
AcDbLine
 10
2.447707142239181
 20
-3.864178256189845
 30
0.0
 11
2.430990120272655
 21
-3.867665069009674
 31
0.0
1001
REVIT
1002
{
1070
     2
1000
-2001160
1002
}
  0
LINE
  5
7AE
330
672
100
AcDbEntity
  8
D35160527
100
AcDbLine
 10
2.430990120272655
 20
-3.867665069009674
 30
0.0
 11
2.414147034817549
 21
-3.87048059017313
 31
0.0
1001
REVIT
1002
{
1070
     2
1000
-2001160
1002
}
  0
LINE
  5
7AF
330
672
100
AcDbEntity
  8
D35160527
100
AcDbLine
 10
2.414147034817549
 20
-3.87048059017313
 30
0.0
 11
2.397204831217592
 21
-3.872620315446969
 31
0.0
1001
REVIT
1002
{
1070
     2
1000
-2001160
1002
}
  0
LINE
  5
7B0
330
672
100
AcDbEntity
  8
D35160527
100
AcDbLine
 10
2.397204831217592
 20
-3.872620315446969
 30
0.0
 11
2.380190613384403
 21
-3.874080821727194
 31
0.0
1001
REVIT
1002
{
1070
     2
1000
-2001160
1002
}
  0
LINE
  5
7B1
330
672
100
AcDbEntity
  8
D35160527
100
AcDbLine
 10
2.380190613384403
 20
-3.874080821727194
 30
0.0
 11
2.363131600437004
 21
-3.874859772515321
 31
0.0
1001
REVIT
1002
{
1070
     2
1000
-2001160
1002
}
  0
LINE
  5
7B2
330
672
100
AcDbEntity
  8
D35160527
100
AcDbLine
 10
2.363131600437004
 20
-3.874859772515321
 30
0.0
 11
2.35218993377946
 21
-3.874999999999282
 31
0.0
1001
REVIT
1002
{
1070
     2
1000
-2001160
1002
}
  0
LINE
  5
7B3
330
672
100
AcDbEntity
  8
D35160527
100
AcDbLine
 10
2.352189933779458
 20
-3.874999999999282
 30
0.0
 11
2.335116561062061
 21
-3.874658487008659
 31
0.0
1001
REVIT
1002
{
1070
     2
1000
-2001160
1002
}
  0
LINE
  5
7B4
330
672
100
AcDbEntity
  8
D35160527
100
AcDbLine
 10
2.335116561062061
 20
-3.874658487008659
 30
0.0
 11
2.31807050209889
 21
-3.873634494384717
 31
0.0
1001
REVIT
1002
{
1070
     2
1000
-2001160
1002
}
  0
LINE
  5
7B5
330
672
100
AcDbEntity
  8
D35160527
100
AcDbLine
 10
2.31807050209889
 20
-3.873634494384717
 30
0.0
 11
2.301079026947983
 21
-3.871929660297194
 31
0.0
1001
REVIT
1002
{
1070
     2
1000
-2001160
1002
}
  0
LINE
  5
7B6
330
672
100
AcDbEntity
  8
D35160527
100
AcDbLine
 10
2.301079026947983
 20
-3.871929660297194
 30
0.0
 11
2.284169318344927
 21
-3.869546712116974
 31
0.0
1001
REVIT
1002
{
1070
     2
1000
-2001160
1002
}
  0
LINE
  5
7B7
330
672
100
AcDbEntity
  8
D35160527
100
AcDbLine
 10
2.284169318344927
 20
-3.869546712116974
 30
0.0
 11
2.267368428216276
 21
-3.866489462052815
 31
0.0
1001
REVIT
1002
{
1070
     2
1000
-2001160
1002
}
  0
LINE
  5
7B8
330
672
100
AcDbEntity
  8
D35160527
100
AcDbLine
 10
2.267368428216276
 20
-3.866489462052815
 30
0.0
 11
2.250703234402235
 21
-3.862762801052618
 31
0.0
1001
REVIT
1002
{
1070
     2
1000
-2001160
1002
}
  0
LINE
  5
7B9
330
672
100
AcDbEntity
  8
D35160527
100
AcDbLine
 10
2.250703234402235
 20
-3.862762801052618
 30
0.0
 11
2.234200397657858
 21
-3.858372690979024
 31
0.0
1001
REVIT
1002
{
1070
     2
1000
-2001160
1002
}
  0
LINE
  5
7BA
330
672
100
AcDbEntity
  8
D35160527
100
AcDbLine
 10
2.234200397657858
 20
-3.858372690979024
 30
0.0
 11
2.217886319001518
 21
-3.853326155071634
 31
0.0
1001
REVIT
1002
{
1070
     2
1000
-2001160
1002
}
  0
LINE
  5
7BB
330
672
100
AcDbEntity
  8
D35160527
100
AcDbLine
 10
2.217886319001518
 20
-3.853326155071634
 30
0.0
 11
2.201787097478911
 21
-3.847631266711367
 31
0.0
1001
REVIT
1002
{
1070
     2
1000
-2001160
1002
}
  0
LINE
  5
7BC
330
672
100
AcDbEntity
  8
D35160527
100
AcDbLine
 10
2.201787097478911
 20
-3.847631266711367
 30
0.0
 11
2.185928488410159
 21
-3.841297136504753
 31
0.0
1001
REVIT
1002
{
1070
     2
1000
-2001160
1002
}
  0
LINE
  5
7BD
330
672
100
AcDbEntity
  8
D35160527
100
AcDbLine
 10
2.185928488410159
 20
-3.841297136504753
 30
0.0
 11
2.170335862186778
 21
-3.834333897708916
 31
0.0
1001
REVIT
1002
{
1070
     2
1000
-2001160
1002
}
  0
LINE
  5
7BE
330
672
100
AcDbEntity
  8
D35160527
100
AcDbLine
 10
2.170335862186778
 20
-3.834333897708916
 30
0.0
 11
2.155034163684483
 21
-3.826752690020519
 31
0.0
1001
REVIT
1002
{
1070
     2
1000
-2001160
1002
}
  0
LINE
  5
7BF
330
672
100
AcDbEntity
  8
D35160527
100
AcDbLine
 10
2.155034163684483
 20
-3.826752690020519
 30
0.0
 11
2.145393715044434
 21
-3.821575675146032
 31
0.0
1001
REVIT
1002
{
1070
     2
1000
-2001160
1002
}
  0
LINE
  5
7C0
330
672
100
AcDbEntity
  8
D35160527
100
AcDbLine
 10
2.199124793463834
 20
-2.351186064685951
 30
0.0
 11
2.101608286299969
 21
-3.745737088156737
 31
0.0
1001
REVIT
1002
{
1070
     2
1000
-2001160
1002
}
  0
LINE
  5
7C1
330
672
100
AcDbEntity
  8
D35160527
100
AcDbLine
 10
2.60277158124477
 20
-3.745737087953987
 30
0.0
 11
2.517389097061087
 21
-2.524710677474168
 31
0.0
1001
REVIT
1002
{
1070
     2
1000
-2001160
1002
}
  0
LINE
  5
7C2
330
672
100
AcDbEntity
  8
D35160527
100
AcDbLine
 10
0.1529748626131226
 20
3.436039376350732
 30
0.0
 11
0.1529748626131226
 21
-3.436039376350721
 31
0.0
1001
REVIT
1002
{
1070
     2
1000
-2001160
1002
}
  0
LINE
  5
7C3
330
672
100
AcDbEntity
  8
D35160527
100
AcDbLine
 10
0.4145661048845799
 20
1.028555233592662
 30
0.0
 11
0.4145661048846066
 21
2.971444766407334
 31
0.0
1001
REVIT
1002
{
1070
     2
1000
-2001160
1002
}
  0
LINE
  5
7C4
330
672
100
AcDbEntity
  8
D35160527
100
AcDbLine
 10
2.563772206897692
 20
2.574547852755434
 30
0.0
 11
2.563772206897676
 21
1.425452147244505
 31
0.0
1001
REVIT
1002
{
1070
     2
1000
-2001160
1002
}
  0
LINE
  5
7C5
330
672
100
AcDbEntity
  8
D35160527
100
AcDbLine
 10
2.655761772284876
 20
1.468347586054902
 30
0.0
 11
2.65576177228489
 21
2.531652413945034
 31
0.0
1001
REVIT
1002
{
1070
     2
1000
-2001160
1002
}
  0
LINE
  5
7C6
330
672
100
AcDbEntity
  8
D35160527
100
AcDbLine
 10
0.4145661048846048
 20
-2.971444766406659
 30
0.0
 11
0.4145661048845799
 21
-1.028555233591987
 31
0.0
1001
REVIT
1002
{
1070
     2
1000
-2001160
1002
}
  0
LINE
  5
7C7
330
672
100
AcDbEntity
  8
D35160527
100
AcDbLine
 10
2.655761772284888
 20
-2.53165241394436
 30
0.0
 11
2.655761772284874
 21
-1.468347586054228
 31
0.0
1001
REVIT
1002
{
1070
     2
1000
-2001160
1002
}
  0
LINE
  5
7C8
330
672
100
AcDbEntity
  8
D35160527
100
AcDbLine
 10
2.563772206897676
 20
-1.425452147243831
 30
0.0
 11
2.56377220689769
 21
-2.57454785275476
 31
0.0
1001
REVIT
1002
{
1070
     2
1000
-2001160
1002
}
  0
SPLINE
  5
7C9
330
672
100
AcDbEntity
  8
D35160527
100
AcDbSpline
210
0.0
220
0.0
230
1.0
 70
     8
 71
     3
 72
     9
 73
     5
 74
     0
 42
0.000000001
 43
0.0000000001
 40
0.0
 40
0.0
 40
0.0
 40
0.0
 40
0.5
 40
1.0
 40
1.0
 40
1.0
 40
1.0
 10
2.136037160001379
 20
2.168947707892355
 30
0.0
 10
2.111143128927491
 20
2.177581578394845
 30
0.0
 10
2.061314529460807
 20
2.194950169059186
 30
0.0
 10
2.0114048553563
 20
2.212272026127662
 30
0.0
 10
1.986429749644592
 20
2.220859977865578
 30
0.0
1001
REVIT
1002
{
1070
     2
1000
-2001160
1002
}
  0
LINE
  5
7CA
330
672
100
AcDbEntity
  8
D35160527
100
AcDbLine
 10
2.174874149869975
 20
2.168947707892355
 30
0.0
 11
2.136037160001379
 21
2.168947707892355
 31
0.0
1001
REVIT
1002
{
1070
     2
1000
-2001160
1002
}
  0
SPLINE
  5
7CB
330
672
100
AcDbEntity
  8
D35160527
100
AcDbSpline
210
0.0
220
0.0
230
1.0
 70
     8
 71
     3
 72
     9
 73
     5
 74
     0
 42
0.000000001
 43
0.0000000001
 40
0.0
 40
0.0
 40
0.0
 40
0.0
 40
0.5
 40
1.0
 40
1.0
 40
1.0
 40
1.0
 10
2.563772206897692
 20
2.274935991680849
 30
0.0
 10
2.498824950168931
 20
2.257645459630657
 30
0.0
 10
2.369061350602219
 20
2.222123264479708
 30
0.0
 10
2.239559578817122
 20
2.186414141706934
 30
0.0
 10
2.174874149869975
 20
2.168947707892356
 30
0.0
1001
REVIT
1002
{
1070
     2
1000
-2001160
1002
}
  0
SPLINE
  5
7CC
330
672
100
AcDbEntity
  8
D35160527
100
AcDbSpline
210
0.0
220
0.0
230
1.0
 70
     8
 71
     3
 72
    10
 73
     6
 74
     0
 42
0.000000001
 43
0.0000000001
 40
0.0
 40
0.0
 40
0.0
 40
0.0
 40
0.3333333333333333
 40
0.6666666666666666
 40
1.0
 40
1.0
 40
1.0
 40
1.0
 10
1.986429749644571
 20
2.220859977865576
 30
0.0
 10
1.803376054751147
 20
2.22009998503473
 30
0.0
 10
1.436735515211179
 20
2.232204353730951
 30
0.0
 10
0.9037964243760718
 20
2.305314094385507
 30
0.0
 10
0.5718850365249076
 20
2.382638510420854
 30
0.0
 10
0.4145661048846084
 20
2.431019945835538
 30
0.0
1001
REVIT
1002
{
1070
     2
1000
-2001160
1002
}
  0
SPLINE
  5
7CD
330
672
100
AcDbEntity
  8
D35160527
100
AcDbSpline
210
0.0
220
0.0
230
1.0
 70
     8
 71
     3
 72
     9
 73
     5
 74
     0
 42
0.000000001
 43
0.0000000001
 40
-1.0
 40
-1.0
 40
-1.0
 40
-1.0
 40
-0.5
 40
0.0
 40
0.0
 40
0.0
 40
0.0
 10
1.986429749644592
 20
1.779152394489773
 30
0.0
 10
2.0113991146579
 20
1.787816052823619
 30
0.0
 10
2.061303048064003
 20
1.805059160709753
 30
0.0
 10
2.11113738822909
 20
1.822353367649322
 30
0.0
 10
2.136037160001379
 20
1.831066668354606
 30
0.0
1001
REVIT
1002
{
1070
     2
1000
-2001160
1002
}
  0
LINE
  5
7CE
330
672
100
AcDbEntity
  8
D35160527
100
AcDbLine
 10
1.986429749644592
 20
2.441698045995982
 30
0.0
 11
1.986429749644592
 21
1.55830478898021
 31
0.0
1001
REVIT
1002
{
1070
     2
1000
-2001160
1002
}
  0
LINE
  5
7CF
330
672
100
AcDbEntity
  8
D35160527
100
AcDbLine
 10
2.136037160001379
 20
1.831066668354605
 30
0.0
 11
2.174874149869976
 21
1.831066668354604
 31
0.0
1001
REVIT
1002
{
1070
     2
1000
-2001160
1002
}
  0
LINE
  5
7D0
330
672
100
AcDbEntity
  8
D35160527
100
AcDbLine
 10
2.136037160001379
 20
1.662133336709873
 30
0.0
 11
2.136037160001379
 21
2.337870438094605
 31
0.0
1001
REVIT
1002
{
1070
     2
1000
-2001160
1002
}
  0
SPLINE
  5
7D1
330
672
100
AcDbEntity
  8
D35160527
100
AcDbSpline
210
0.0
220
0.0
230
1.0
 70
     8
 71
     3
 72
     9
 73
     5
 74
     0
 42
0.000000001
 43
0.0000000001
 40
-1.0
 40
-1.0
 40
-1.0
 40
-1.0
 40
-0.5
 40
0.0
 40
0.0
 40
0.0
 40
0.0
 10
2.174874149869976
 20
1.831066668354606
 30
0.0
 10
2.239585089742776
 20
1.813054512525035
 30
0.0
 10
2.369112372453532
 20
1.777874113067955
 30
0.0
 10
2.498850461094589
 20
1.742898724016304
 30
0.0
 10
2.563772206897692
 20
1.725074052813545
 30
0.0
1001
REVIT
1002
{
1070
     2
1000
-2001160
1002
}
  0
LINE
  5
7D2
330
672
100
AcDbEntity
  8
D35160527
100
AcDbLine
 10
2.174874149869976
 20
1.662133336709874
 30
0.0
 11
2.174874149869976
 21
2.337870438094605
 31
0.0
1001
REVIT
1002
{
1070
     2
1000
-2001160
1002
}
  0
SPLINE
  5
7D3
330
672
100
AcDbEntity
  8
D35160527
100
AcDbSpline
210
0.0
220
0.0
230
1.0
 70
     8
 71
     3
 72
    40
 73
    36
 74
     0
 42
0.000000001
 43
0.0000000001
 40
0.0
 40
0.0
 40
0.0
 40
0.0
 40
0.0555555555555556
 40
0.0833333333333333
 40
0.1111111111111111
 40
0.1666666666666666
 40
0.1944444444444444
 40
0.2222222222222222
 40
0.25
 40
0.2777777777777778
 40
0.3055555555555556
 40
0.3194444444444444
 40
0.3333333333333333
 40
0.3611111111111111
 40
0.3888888888888888
 40
0.4166666666666666
 40
0.4305555555555556
 40
0.4444444444444445
 40
0.4583333333333333
 40
0.4722222222222223
 40
0.5
 40
0.5277777777777778
 40
0.5555555555555556
 40
0.5833333333333334
 40
0.6111111111111112
 40
0.6666666666666666
 40
0.75
 40
0.7708333333333333
 40
0.7916666666666666
 40
0.8333333333333332
 40
0.875
 40
0.8958333333333332
 40
0.9166666666666666
 40
0.9583333333333332
 40
1.0
 40
1.0
 40
1.0
 40
1.0
 10
2.199124770398094
 20
1.648813605458103
 30
0.0
 10
2.199386971930126
 20
1.651333276973563
 30
0.0
 10
2.20108380669567
 20
1.654628438437959
 30
0.0
 10
2.20599135024509
 20
1.657892138574831
 30
0.0
 10
2.212560872563765
 20
1.660350037726728
 30
0.0
 10
2.222231879202245
 20
1.661565599872589
 30
0.0
 10
2.234282960394484
 20
1.661397669097034
 30
0.0
 10
2.244011775661526
 20
1.660520557006233
 30
0.0
 10
2.254792335745339
 20
1.658631033264927
 30
0.0
 10
2.266793999273685
 20
1.655741950394885
 30
0.0
 10
2.277272285534397
 20
1.652679346813781
 30
0.0
 10
2.285753691894004
 20
1.649899943120457
 30
0.0
 10
2.29414541602928
 20
1.646975451543793
 30
0.0
 10
2.304875958281103
 20
1.642755749508411
 30
0.0
 10
2.318262255701217
 20
1.636753484001421
 30
0.0
 10
2.329469022828799
 20
1.631251792562648
 30
0.0
 10
2.33833114420104
 20
1.626665343604639
 30
0.0
 10
2.344858247766135
 20
1.623194140545085
 30
0.0
 10
2.351326732969962
 20
1.619625932204233
 30
0.0
 10
2.359981583278083
 20
1.614635772048755
 30
0.0
 10
2.370743186419126
 20
1.608086914287897
 30
0.0
 10
2.38344675947102
 20
1.599886520269054
 30
0.0
 10
2.395721474428626
 20
1.591617543973507
 30
0.0
 10
2.407628423956523
 20
1.583224610695337
 30
0.0
 10
2.42319706350991
 20
1.571672270848064
 30
0.0
 10
2.445107498900474
 20
1.554345761130411
 30
0.0
 10
2.464154116509114
 20
1.53782981994074
 30
0.0
 10
2.477169360810478
 20
1.525592280668274
 30
0.0
 10
2.485234372022704
 20
1.517715268605401
 30
0.0
 10
2.494746828026187
 20
1.508041045975629
 30
0.0
 10
2.502671114436061
 20
1.499216426657052
 30
0.0
 10
2.507598772256297
 20
1.493003485579715
 30
0.0
 10
2.511742317213435
 20
1.487271237084842
 30
0.0
 10
2.51551376034541
 20
1.480999466003093
 30
0.0
 10
2.517015786557413
 20
1.477010300441969
 30
0.0
 10
2.517389123786536
 20
1.475288940333154
 30
0.0
1001
REVIT
1002
{
1070
     2
1000
-2001160
1002
}
  0
SPLINE
  5
7D4
330
672
100
AcDbEntity
  8
D35160527
100
AcDbSpline
210
0.0
220
0.0
230
1.0
 70
     8
 71
     3
 72
    10
 73
     6
 74
     0
 42
0.000000001
 43
0.0000000001
 40
-1.0
 40
-1.0
 40
-1.0
 40
-1.0
 40
-0.6666666666666666
 40
-0.3333333333333333
 40
0.0
 40
0.0
 40
0.0
 40
0.0
 10
0.4145661048845941
 20
1.568982679121509
 30
0.0
 10
0.5718126663149264
 20
1.614733996464686
 30
0.0
 10
0.9036119475243413
 20
1.69612469731952
 30
0.0
 10
1.43674545537396
 20
1.766613237395777
 30
0.0
 10
1.803382244489499
 20
1.781737840385782
 30
0.0
 10
1.986429749644573
 20
1.779152394489777
 30
0.0
1001
REVIT
1002
{
1070
     2
1000
-2001160
1002
}
  0
SPLINE
  5
7D5
330
672
100
AcDbEntity
  8
D35160527
100
AcDbSpline
210
0.0
220
0.0
230
1.0
 70
     8
 71
     3
 72
     9
 73
     5
 74
     0
 42
0.000000001
 43
0.0000000001
 40
-1.0
 40
-1.0
 40
-1.0
 40
-1.0
 40
-0.5
 40
0.0
 40
0.0
 40
0.0
 40
0.0
 10
1.986429749644592
 20
1.558304788980209
 30
0.0
 10
2.011399114657898
 20
1.57555463758295
 30
0.0
 10
2.061303048064003
 20
1.610118423164256
 30
0.0
 10
2.111137388229089
 20
1.644783999876058
 30
0.0
 10
2.136037160001379
 20
1.662133336709874
 30
0.0
1001
REVIT
1002
{
1070
     2
1000
-2001160
1002
}
  0
LINE
  5
7D6
330
672
100
AcDbEntity
  8
D35160527
100
AcDbLine
 10
2.136037160001379
 20
1.662133336709875
 30
0.0
 11
2.174874149869976
 21
1.662133336709874
 31
0.0
1001
REVIT
1002
{
1070
     2
1000
-2001160
1002
}
  0
LINE
  5
7D7
330
672
100
AcDbEntity
  8
D35160527
100
AcDbLine
 10
2.517389123786536
 20
1.475288940333152
 30
0.0
 11
2.540579883489963
 21
1.462715303013166
 31
0.0
1001
REVIT
1002
{
1070
     2
1000
-2001160
1002
}
  0
LINE
  5
7D8
330
672
100
AcDbEntity
  8
D35160527
100
AcDbLine
 10
2.540579883489963
 20
1.462715303013166
 30
0.0
 11
2.563772206897692
 21
1.450148105627754
 31
0.0
1001
REVIT
1002
{
1070
     2
1000
-2001160
1002
}
  0
LINE
  5
7D9
330
672
100
AcDbEntity
  8
D35160527
100
AcDbLine
 10
2.174874149869976
 20
1.662133336709874
 30
0.0
 11
2.18699811648095
 21
1.655471977793753
 31
0.0
1001
REVIT
1002
{
1070
     2
1000
-2001160
1002
}
  0
LINE
  5
7DA
330
672
100
AcDbEntity
  8
D35160527
100
AcDbLine
 10
2.18699811648095
 20
1.655471977793753
 30
0.0
 11
2.199124770398094
 21
1.648813605458101
 31
0.0
1001
REVIT
1002
{
1070
     2
1000
-2001160
1002
}
  0
SPLINE
  5
7DB
330
672
100
AcDbEntity
  8
D35160527
100
AcDbSpline
210
0.0
220
0.0
230
1.0
 70
     8
 71
     3
 72
    10
 73
     6
 74
     0
 42
0.000000001
 43
0.0000000001
 40
-1.0
 40
-1.0
 40
-1.0
 40
-1.0
 40
-0.6666666666666666
 40
-0.3333333333333333
 40
0.0
 40
0.0
 40
0.0
 40
0.0
 10
0.4145661048846439
 20
1.137965358243627
 30
0.0
 10
0.5718126983668573
 20
1.232078655372203
 30
0.0
 10
0.9036120291333844
 20
1.390787787291439
 30
0.0
 10
1.436745481492275
 20
1.534426240179349
 30
0.0
 10
1.80338225513821
 20
1.561650654597642
 30
0.0
 10
1.986429749644573
 20
1.558304788980215
 30
0.0
1001
REVIT
1002
{
1070
     2
1000
-2001160
1002
}
  0
SPLINE
  5
7DC
330
672
100
AcDbEntity
  8
D35160527
100
AcDbSpline
210
0.0
220
0.0
230
1.0
 70
     8
 71
     3
 72
     9
 73
     5
 74
     0
 42
0.000000001
 43
0.0000000001
 40
-1.0
 40
-1.0
 40
-1.0
 40
-1.0
 40
-0.5
 40
0.0
 40
0.0
 40
0.0
 40
0.0
 10
1.986429749644592
 20
2.441698045995982
 30
0.0
 10
2.011404855434804
 20
2.424444340119306
 30
0.0
 10
2.061314529617813
 20
2.389876881322946
 30
0.0
 10
2.111143129005995
 20
2.355215636756684
 30
0.0
 10
2.136037160001379
 20
2.337870438094611
 30
0.0
1001
REVIT
1002
{
1070
     2
1000
-2001160
1002
}
  0
LINE
  5
7DD
330
672
100
AcDbEntity
  8
D35160527
100
AcDbLine
 10
2.136037160001379
 20
2.337870438094606
 30
0.0
 11
2.174874149869976
 21
2.337870438094606
 31
0.0
1001
REVIT
1002
{
1070
     2
1000
-2001160
1002
}
  0
SPLINE
  5
7DE
330
672
100
AcDbEntity
  8
D35160527
100
AcDbSpline
210
0.0
220
0.0
230
1.0
 70
     8
 71
     3
 72
     9
 73
     5
 74
     0
 42
0.000000001
 43
0.0000000001
 40
-1.0
 40
-1.0
 40
-1.0
 40
-1.0
 40
-0.5
 40
0.0
 40
0.0
 40
0.0
 40
0.0
 10
2.174874149869976
 20
2.337870438094606
 30
0.0
 10
2.239559578537338
 20
2.373341607733824
 30
0.0
 10
2.369061350042656
 20
2.444225722074512
 30
0.0
 10
2.498824949889149
 20
2.514731890195993
 30
0.0
 10
2.563772206897692
 20
2.549853926417803
 30
0.0
1001
REVIT
1002
{
1070
     2
1000
-2001160
1002
}
  0
SPLINE
  5
7DF
330
672
100
AcDbEntity
  8
D35160527
100
AcDbSpline
210
0.0
220
0.0
230
1.0
 70
     8
 71
     3
 72
    10
 73
     6
 74
     0
 42
0.000000001
 43
0.0000000001
 40
-1.0
 40
-1.0
 40
-1.0
 40
-1.0
 40
-0.6666666666666666
 40
-0.3333333333333333
 40
0.0
 40
0.0
 40
0.0
 40
0.0
 10
0.4145664491374462
 20
2.862035218253073
 30
0.0
 10
0.5718853188016535
 20
2.767879028533959
 30
0.0
 10
0.9037965868565347
 20
2.609150159655994
 30
0.0
 10
1.436735622808059
 20
2.465587731814184
 30
0.0
 10
1.803376088689359
 20
2.438352144786572
 30
0.0
 10
1.986429749644573
 20
2.441698045995974
 30
0.0
1001
REVIT
1002
{
1070
     2
1000
-2001160
1002
}
  0
SPLINE
  5
7E0
330
672
100
AcDbEntity
  8
D35160527
100
AcDbSpline
210
0.0
220
0.0
230
1.0
 70
     8
 71
     3
 72
     9
 73
     5
 74
     0
 42
0.000000001
 43
0.0000000001
 40
0.0
 40
0.0
 40
0.0
 40
0.0
 40
0.5
 40
1.0
 40
1.0
 40
1.0
 40
1.0
 10
1.986429749644615
 20
-2.220859977864897
 30
0.0
 10
2.011404855356319
 20
-2.212272026126982
 30
0.0
 10
2.061314529460819
 20
-2.194950169058507
 30
0.0
 10
2.111143128927494
 20
-2.177581578394168
 30
0.0
 10
2.136037160001377
 20
-2.168947707891681
 30
0.0
1001
REVIT
1002
{
1070
     2
1000
-2001160
1002
}
  0
LINE
  5
7E1
330
672
100
AcDbEntity
  8
D35160527
100
AcDbLine
 10
2.136037160001377
 20
-2.168947707891681
 30
0.0
 11
2.174874149869975
 21
-2.168947707891681
 31
0.0
1001
REVIT
1002
{
1070
     2
1000
-2001160
1002
}
  0
SPLINE
  5
7E2
330
672
100
AcDbEntity
  8
D35160527
100
AcDbSpline
210
0.0
220
0.0
230
1.0
 70
     8
 71
     3
 72
     9
 73
     5
 74
     0
 42
0.000000001
 43
0.0000000001
 40
0.0
 40
0.0
 40
0.0
 40
0.0
 40
0.5
 40
1.0
 40
1.0
 40
1.0
 40
1.0
 10
2.174874149869975
 20
-2.168947707891681
 30
0.0
 10
2.23955957881712
 20
-2.18641414170626
 30
0.0
 10
2.369061350602216
 20
-2.222123264479035
 30
0.0
 10
2.498824950168931
 20
-2.257645459629982
 30
0.0
 10
2.56377220689769
 20
-2.274935991680174
 30
0.0
1001
REVIT
1002
{
1070
     2
1000
-2001160
1002
}
  0
SPLINE
  5
7E3
330
672
100
AcDbEntity
  8
D35160527
100
AcDbSpline
210
0.0
220
0.0
230
1.0
 70
     8
 71
     3
 72
    10
 73
     6
 74
     0
 42
0.000000001
 43
0.0000000001
 40
0.0
 40
0.0
 40
0.0
 40
0.0
 40
0.3333333333333333
 40
0.6666666666666666
 40
1.0
 40
1.0
 40
1.0
 40
1.0
 10
0.4145661048846066
 20
-2.431019945834865
 30
0.0
 10
0.5718328818846921
 20
-2.382655954659639
 30
0.0
 10
0.9036651863626445
 20
-2.305351230783459
 30
0.0
 10
1.43617973001521
 20
-2.232250759647663
 30
0.0
 10
1.803133532749257
 20
-2.220105772396294
 30
0.0
 10
1.98642974964464
 20
-2.220859977864901
 30
0.0
1001
REVIT
1002
{
1070
     2
1000
-2001160
1002
}
  0
SPLINE
  5
7E4
330
672
100
AcDbEntity
  8
D35160527
100
AcDbSpline
210
0.0
220
0.0
230
1.0
 70
     8
 71
     3
 72
     9
 73
     5
 74
     0
 42
0.000000001
 43
0.0000000001
 40
-1.0
 40
-1.0
 40
-1.0
 40
-1.0
 40
-0.5
 40
0.0
 40
0.0
 40
0.0
 40
0.0
 10
2.136037160001377
 20
-1.831066668353932
 30
0.0
 10
2.111137388229092
 20
-1.822353367648649
 30
0.0
 10
2.061303048064013
 20
-1.805059160709082
 30
0.0
 10
2.011399114657917
 20
-1.787816052822953
 30
0.0
 10
1.986429749644615
 20
-1.779152394489109
 30
0.0
1001
REVIT
1002
{
1070
     2
1000
-2001160
1002
}
  0
LINE
  5
7E5
330
672
100
AcDbEntity
  8
D35160527
100
AcDbLine
 10
2.174874149869975
 20
-1.83106666835393
 30
0.0
 11
2.136037160001377
 21
-1.83106666835393
 31
0.0
1001
REVIT
1002
{
1070
     2
1000
-2001160
1002
}
  0
SPLINE
  5
7E6
330
672
100
AcDbEntity
  8
D35160527
100
AcDbSpline
210
0.0
220
0.0
230
1.0
 70
     8
 71
     3
 72
     9
 73
     5
 74
     0
 42
0.000000001
 43
0.0000000001
 40
-1.0
 40
-1.0
 40
-1.0
 40
-1.0
 40
-0.5
 40
0.0
 40
0.0
 40
0.0
 40
0.0
 10
2.56377220689769
 20
-1.72507405281287
 30
0.0
 10
2.498850461094585
 20
-1.74289872401563
 30
0.0
 10
2.369112372453528
 20
-1.777874113067281
 30
0.0
 10
2.239585089742774
 20
-1.813054512524361
 30
0.0
 10
2.174874149869975
 20
-1.831066668353932
 30
0.0
1001
REVIT
1002
{
1070
     2
1000
-2001160
1002
}
  0
SPLINE
  5
7E7
330
672
100
AcDbEntity
  8
D35160527
100
AcDbSpline
210
0.0
220
0.0
230
1.0
 70
     8
 71
     3
 72
    10
 73
     6
 74
     0
 42
0.000000001
 43
0.0000000001
 40
-1.0
 40
-1.0
 40
-1.0
 40
-1.0
 40
-0.6666666666666666
 40
-0.3333333333333333
 40
0.0
 40
0.0
 40
0.0
 40
0.0
 10
1.986429749644642
 20
-1.779152394489101
 30
0.0
 10
1.803202576237959
 20
-1.781743904636699
 30
0.0
 10
1.436328163035803
 20
-1.766580198764102
 30
0.0
 10
0.903269396914732
 20
-1.69605436987185
 30
0.0
 10
0.5716777593672316
 20
-1.614695461798967
 30
0.0
 10
0.4145661048845941
 20
-1.568982679120834
 30
0.0
1001
REVIT
1002
{
1070
     2
1000
-2001160
1002
}
  0
SPLINE
  5
7E8
330
672
100
AcDbEntity
  8
D35160527
100
AcDbSpline
210
0.0
220
0.0
230
1.0
 70
     8
 71
     3
 72
     9
 73
     5
 74
     0
 42
0.000000001
 43
0.0000000001
 40
-1.0
 40
-1.0
 40
-1.0
 40
-1.0
 40
-0.5
 40
0.0
 40
0.0
 40
0.0
 40
0.0
 10
2.136037160001377
 20
-1.6621333367092
 30
0.0
 10
2.111137388229092
 20
-1.644783999875387
 30
0.0
 10
2.061303048064015
 20
-1.610118423163591
 30
0.0
 10
2.011399114657917
 20
-1.57555463758229
 30
0.0
 10
1.986429749644614
 20
-1.558304788979551
 30
0.0
1001
REVIT
1002
{
1070
     2
1000
-2001160
1002
}
  0
LINE
  5
7E9
330
672
100
AcDbEntity
  8
D35160527
100
AcDbLine
 10
2.174874149869975
 20
-1.662133336709201
 30
0.0
 11
2.136037160001377
 21
-1.662133336709201
 31
0.0
1001
REVIT
1002
{
1070
     2
1000
-2001160
1002
}
  0
SPLINE
  5
7EA
330
672
100
AcDbEntity
  8
D35160527
100
AcDbSpline
210
0.0
220
0.0
230
1.0
 70
     8
 71
     3
 72
     9
 73
     5
 74
     0
 42
0.000000001
 43
0.0000000001
 40
-1.0
 40
-1.0
 40
-1.0
 40
-1.0
 40
-0.5
 40
0.0
 40
0.0
 40
0.0
 40
0.0
 10
2.56377220689769
 20
-1.45014810562708
 30
0.0
 10
2.498850461094587
 20
-1.485256395405097
 30
0.0
 10
2.369112372453528
 20
-1.55574924739449
 30
0.0
 10
2.239585089742774
 20
-1.626648035160348
 30
0.0
 10
2.174874149869975
 20
-1.662133336709201
 30
0.0
1001
REVIT
1002
{
1070
     2
1000
-2001160
1002
}
  0
SPLINE
  5
7EB
330
672
100
AcDbEntity
  8
D35160527
100
AcDbSpline
210
0.0
220
0.0
230
1.0
 70
     8
 71
     3
 72
    10
 73
     6
 74
     0
 42
0.000000001
 43
0.0000000001
 40
-1.0
 40
-1.0
 40
-1.0
 40
-1.0
 40
-0.6666666666666666
 40
-0.3333333333333333
 40
0.0
 40
0.0
 40
0.0
 40
0.0
 10
1.986429749644642
 20
-1.55830478897954
 30
0.0
 10
1.803202586883044
 20
-1.561652890385573
 30
0.0
 10
1.436328189142836
 20
-1.534364272696255
 30
0.0
 10
0.903269478381139
 20
-1.390647587231345
 30
0.0
 10
0.5716777913648201
 20
-1.23199778479101
 30
0.0
 10
0.4145661048846936
 20
-1.137965358242983
 30
0.0
1001
REVIT
1002
{
1070
     2
1000
-2001160
1002
}
  0
SPLINE
  5
7EC
330
672
100
AcDbEntity
  8
D35160527
100
AcDbSpline
210
0.0
220
0.0
230
1.0
 70
     8
 71
     3
 72
     9
 73
     5
 74
     0
 42
0.000000001
 43
0.0000000001
 40
-1.0
 40
-1.0
 40
-1.0
 40
-1.0
 40
-0.5
 40
0.0
 40
0.0
 40
0.0
 40
0.0
 10
2.136037160001377
 20
-2.337870438093937
 30
0.0
 10
2.111143129005997
 20
-2.355215636756008
 30
0.0
 10
2.061314529617822
 20
-2.389876881322264
 30
0.0
 10
2.011404855434822
 20
-2.424444340118619
 30
0.0
 10
1.986429749644614
 20
-2.441698045995292
 30
0.0
1001
REVIT
1002
{
1070
     2
1000
-2001160
1002
}
  0
LINE
  5
7ED
330
672
100
AcDbEntity
  8
D35160527
100
AcDbLine
 10
2.136037160001377
 20
-2.337870438093937
 30
0.0
 11
2.136037160001377
 21
-1.662133336709201
 31
0.0
1001
REVIT
1002
{
1070
     2
1000
-2001160
1002
}
  0
LINE
  5
7EE
330
672
100
AcDbEntity
  8
D35160527
100
AcDbLine
 10
2.174874149869975
 20
-2.337870438093932
 30
0.0
 11
2.136037160001377
 21
-2.337870438093932
 31
0.0
1001
REVIT
1002
{
1070
     2
1000
-2001160
1002
}
  0
LINE
  5
7EF
330
672
100
AcDbEntity
  8
D35160527
100
AcDbLine
 10
2.174874149869975
 20
-2.337870438093932
 30
0.0
 11
2.174874149869975
 21
-1.6621333367092
 31
0.0
1001
REVIT
1002
{
1070
     2
1000
-2001160
1002
}
  0
LINE
  5
7F0
330
672
100
AcDbEntity
  8
D35160527
100
AcDbLine
 10
2.199124525667569
 20
-2.351189903796309
 30
0.0
 11
2.186997860667549
 21
-2.344531590463538
 31
0.0
1001
REVIT
1002
{
1070
     2
1000
-2001160
1002
}
  0
LINE
  5
7F1
330
672
100
AcDbEntity
  8
D35160527
100
AcDbLine
 10
2.186997860667549
 20
-2.344531590463538
 30
0.0
 11
2.174874149869975
 21
-2.337870438093932
 31
0.0
1001
REVIT
1002
{
1070
     2
1000
-2001160
1002
}
  0
SPLINE
  5
7F2
330
672
100
AcDbEntity
  8
D35160527
100
AcDbSpline
210
0.0
220
0.0
230
1.0
 70
     8
 71
     3
 72
    40
 73
    36
 74
     0
 42
0.000000001
 43
0.0000000001
 40
0.0
 40
0.0
 40
0.0
 40
0.0
 40
0.0555555555555556
 40
0.0833333333333333
 40
0.1111111111111111
 40
0.1666666666666666
 40
0.1944444444444444
 40
0.2222222222222222
 40
0.25
 40
0.2777777777777778
 40
0.3055555555555556
 40
0.3194444444444444
 40
0.3333333333333333
 40
0.3611111111111111
 40
0.3888888888888888
 40
0.4166666666666666
 40
0.4305555555555556
 40
0.4444444444444445
 40
0.4583333333333333
 40
0.4722222222222223
 40
0.5
 40
0.5277777777777778
 40
0.5555555555555556
 40
0.5833333333333334
 40
0.6111111111111112
 40
0.6666666666666666
 40
0.75
 40
0.7708333333333333
 40
0.7916666666666666
 40
0.8333333333333332
 40
0.875
 40
0.8958333333333332
 40
0.9166666666666666
 40
0.9583333333333332
 40
1.0
 40
1.0
 40
1.0
 40
1.0
 10
2.199124525667569
 20
-2.351189903796309
 30
0.0
 10
2.199386996031421
 20
-2.348672117270572
 30
0.0
 10
2.201083621259408
 20
-2.345379449110643
 30
0.0
 10
2.205989736202059
 20
-2.342118189064438
 30
0.0
 10
2.212556860172476
 20
-2.339661994531793
 30
0.0
 10
2.222225235405961
 20
-2.338447389767726
 30
0.0
 10
2.234271740749868
 20
-2.338614664571306
 30
0.0
 10
2.243996267750308
 20
-2.339490614668738
 30
0.0
 10
2.254768262878338
 20
-2.341376718476541
 30
0.0
 10
2.266758118958463
 20
-2.344260560037946
 30
0.0
 10
2.277227874995579
 20
-2.347319144156065
 30
0.0
 10
2.28570512211367
 20
-2.350096368120233
 30
0.0
 10
2.294095185681069
 20
-2.353019746533119
 30
0.0
 10
2.304829358169849
 20
-2.357240120331403
 30
0.0
 10
2.318225284885389
 20
-2.363244937992213
 30
0.0
 10
2.329441390990556
 20
-2.368749370885482
 30
0.0
 10
2.338309998780903
 20
-2.373337864220946
 30
0.0
 10
2.344840804721881
 20
-2.376810301364081
 30
0.0
 10
2.351312218166704
 20
-2.380379680816863
 30
0.0
 10
2.359971018381525
 20
-2.38537171464045
 30
0.0
 10
2.370737005551696
 20
-2.391923048584668
 30
0.0
 10
2.383444805707686
 20
-2.400126122915203
 30
0.0
 10
2.395722197302466
 20
-2.408396496238579
 30
0.0
 10
2.40763039772548
 20
-2.416790021936664
 30
0.0
 10
2.423198754246053
 20
-2.428342316994799
 30
0.0
 10
2.445107293244554
 20
-2.445667197140654
 30
0.0
 10
2.464131922087542
 20
-2.462160167675653
 30
0.0
 10
2.477139775712155
 20
-2.47438995822021
 30
0.0
 10
2.485205483395827
 20
-2.482267120326827
 30
0.0
 10
2.494727081505811
 20
-2.491948932979581
 30
0.0
 10
2.502662621308374
 20
-2.500782537805786
 30
0.0
 10
2.507594368609213
 20
-2.506998218307146
 30
0.0
 10
2.511740805640354
 20
-2.512732116736829
 30
0.0
 10
2.515514386279525
 20
-2.519004572587955
 30
0.0
 10
2.517016382661857
 20
-2.522992792702191
 30
0.0
 10
2.517389283662655
 20
-2.524713351208804
 30
0.0
1001
REVIT
1002
{
1070
     2
1000
-2001160
1002
}
  0
LINE
  5
7F3
330
672
100
AcDbEntity
  8
D35160527
100
AcDbLine
 10
2.56377220689769
 20
-2.549853926417129
 30
0.0
 11
2.540579417092891
 21
-2.537286561636739
 31
0.0
1001
REVIT
1002
{
1070
     2
1000
-2001160
1002
}
  0
LINE
  5
7F4
330
672
100
AcDbEntity
  8
D35160527
100
AcDbLine
 10
2.540579417092891
 20
-2.537286561636739
 30
0.0
 11
2.517389283662655
 21
-2.524713351208804
 31
0.0
1001
REVIT
1002
{
1070
     2
1000
-2001160
1002
}
  0
LINE
  5
7F5
330
672
100
AcDbEntity
  8
D35160527
100
AcDbLine
 10
1.986429749644642
 20
-1.55830478897954
 30
0.0
 11
1.986429749644642
 21
-2.4416980459953
 31
0.0
1001
REVIT
1002
{
1070
     2
1000
-2001160
1002
}
  0
SPLINE
  5
7F6
330
672
100
AcDbEntity
  8
D35160527
100
AcDbSpline
210
0.0
220
0.0
230
1.0
 70
     8
 71
     3
 72
    10
 73
     6
 74
     0
 42
0.000000001
 43
0.0000000001
 40
-1.0
 40
-1.0
 40
-1.0
 40
-1.0
 40
-0.6666666666666666
 40
-0.3333333333333333
 40
0.0
 40
0.0
 40
0.0
 40
0.0
 10
1.986429749644642
 20
-2.441698045995301
 30
0.0
 10
1.803133564201534
 20
-2.438349268345997
 30
0.0
 10
1.436179831877398
 20
-2.465686830007007
 30
0.0
 10
0.9036653459303796
 20
-2.609224126034842
 30
0.0
 10
0.5718331630095932
 20
-2.767910456319131
 30
0.0
 10
0.4145664491374941
 20
-2.862035218252369
 30
0.0
1001
REVIT
1002
{
1070
     2
1000
-2001160
1002
}
  0
LINE
  5
7F7
330
672
100
AcDbEntity
  8
D35160527
100
AcDbLine
 10
2.602771581244759
 20
0.2542629120452795
 30
0.0
 11
2.101608286314128
 21
0.2542629120452777
 31
0.0
1001
REVIT
1002
{
1070
     2
1000
-2001160
1002
}
  0
LINE
  5
7F8
330
672
100
AcDbEntity
  8
D35160527
100
AcDbLine
 10
2.145393715044422
 20
0.1784243248532286
 30
0.0
 11
2.558986152514465
 21
0.17842432485323
 31
0.0
1001
REVIT
1002
{
1070
     2
1000
-2001160
1002
}
  0
LINE
  5
7F9
330
672
100
AcDbEntity
  8
D35160527
100
AcDbLine
 10
2.602771581244772
 20
-3.745737087953973
 30
0.0
 11
2.101608286314142
 21
-3.745737087953975
 31
0.0
1001
REVIT
1002
{
1070
     2
1000
-2001160
1002
}
  0
LINE
  5
7FA
330
672
100
AcDbEntity
  8
D35160527
100
AcDbLine
 10
2.145393715044434
 20
-3.821575675146025
 30
0.0
 11
2.558986152514481
 21
-3.821575675146023
 31
0.0
1001
REVIT
1002
{
1070
     2
1000
-2001160
1002
}
  0
LINE
  5
7FB
330
672
100
AcDbEntity
  8
D35160527
100
AcDbLine
 10
0.0
 20
3.875869515424074
 30
0.0
 11
0.0
 21
-3.875869515424074
 31
0.0
  0
ENDBLK
  5
674
330
672
100
AcDbEntity
  8
0
100
AcDbBlockEnd
  0
ENDSEC
  0
SECTION
  2
ENTITIES
  0
INSERT
  5
645
330
70
100
AcDbEntity
  8
D35160527
100
AcDbBlockReference
  2
D35160527 Front View
 10
0.0000000000002558
 20
-3.874999999999619
 30
0.0
  0
INSERT
  5
671
330
70
100
AcDbEntity
  8
D35160527
100
AcDbBlockReference
  2
D35160527 Top View
 10
0.0000000000002487
 20
15.28141424188981
 30
0.0
  0
INSERT
  5
7FC
330
70
100
AcDbEntity
  8
D35160527
100
AcDbBlockReference
  2
D35160527 Side View
 10
-11.46555852388826
 20
-0.000109274569156
 30
0.0
  0
ENDSEC
  0
SECTION
  2
OBJECTS
  0
DICTIONARY
  5
C
330
0
100
AcDbDictionary
281
     1
  3
ACAD_CIP_PREVIOUS_PRODUCT_INFO
350
79
  3
ACAD_COLOR
350
63
  3
ACAD_DETAILVIEWSTYLE
350
6A
  3
ACAD_GROUP
350
D
  3
ACAD_IMAGE_VARS
350
7A
  3
ACAD_LAYOUT
350
62
  3
ACAD_MATERIAL
350
10
  3
ACAD_MLEADERSTYLE
350
66
  3
ACAD_MLINESTYLE
350
5F
  3
ACAD_PLOTSETTINGS
350
61
  3
ACAD_PLOTSTYLENAME
350
E
  3
ACAD_SCALELIST
350
42
  3
ACAD_SECTIONVIEWSTYLE
350
68
  3
ACAD_TABLESTYLE
350
64
  3
ACAD_VISUALSTYLE
350
29
  3
ACDB_RECOMPOSE_DATA
350
819
  3
AcDbVariableDictionary
350
10F
  3
REVIT_DICTIONARY
350
103
  0
DICTIONARY
  5
802
330
2
100
AcDbDictionary
280
     1
281
     1
  3
ACAD_LAYERSTATES
360
803
  0
DICTIONARY
  5
107
330
70
100
AcDbDictionary
280
     1
281
     1
  3
ACAD_SORTENTS
360
108
  0
XRECORD
  5
79
102
{ACAD_REACTORS
330
C
102
}
330
C
100
AcDbXrecord
280
     1
300
ACD
300
2016
300
86445ACD_2016_0F
  0
DICTIONARY
  5
63
102
{ACAD_REACTORS
330
C
102
}
330
C
100
AcDbDictionary
281
     1
  0
DICTIONARY
  5
6A
102
{ACAD_REACTORS
330
C
102
}
330
C
100
AcDbDictionary
281
     1
  3
Imperial24
350
6B
  0
DICTIONARY
  5
D
102
{ACAD_REACTORS
330
C
102
}
330
C
100
AcDbDictionary
281
     1
  0
RASTERVARIABLES
  5
7A
102
{ACAD_REACTORS
330
C
102
}
330
C
100
AcDbRasterVariables
 90
        0
 70
     0
 71
     1
 72
     5
  0
DICTIONARY
  5
62
102
{ACAD_REACTORS
330
C
102
}
330
C
100
AcDbDictionary
281
     1
  3
Layout1
350
6F
  3
Layout2
350
77
  3
Model
350
73
  0
DICTIONARY
  5
10
102
{ACAD_REACTORS
330
C
102
}
330
C
100
AcDbDictionary
281
     1
  3
ByBlock
350
19
  3
ByLayer
350
11
  3
Global
350
21
  0
DICTIONARY
  5
66
102
{ACAD_REACTORS
330
C
102
}
330
C
100
AcDbDictionary
281
     1
  3
Standard
350
67
  0
DICTIONARY
  5
5F
102
{ACAD_REACTORS
330
C
102
}
330
C
100
AcDbDictionary
281
     1
  3
Standard
350
60
  0
DICTIONARY
  5
61
102
{ACAD_REACTORS
330
C
102
}
330
C
100
AcDbDictionary
281
     1
  0
ACDBDICTIONARYWDFLT
  5
E
102
{ACAD_REACTORS
330
C
102
}
330
C
100
AcDbDictionary
281
     1
  3
Normal
350
F
100
AcDbDictionaryWithDefault
340
F
  0
DICTIONARY
  5
42
102
{ACAD_REACTORS
330
C
102
}
330
C
100
AcDbDictionary
281
     1
  3
A0
350
43
  3
A1
350
44
  3
A2
350
45
  3
A3
350
46
  3
A4
350
47
  3
A5
350
48
  3
A6
350
49
  3
A7
350
4A
  3
A8
350
4B
  3
A9
350
4C
  3
B0
350
4D
  3
B1
350
4E
  3
B2
350
4F
  3
B3
350
50
  3
B4
350
51
  3
B5
350
52
  3
B6
350
53
  0
DICTIONARY
  5
68
102
{ACAD_REACTORS
330
C
102
}
330
C
100
AcDbDictionary
281
     1
  3
Imperial24
350
69
  0
DICTIONARY
  5
64
102
{ACAD_REACTORS
330
C
102
}
330
C
100
AcDbDictionary
281
     1
  3
Standard
350
65
  0
DICTIONARY
  5
29
102
{ACAD_REACTORS
330
C
102
}
330
C
100
AcDbDictionary
281
     1
  3
2dWireframe
350
2F
  3
Basic
350
2E
  3
Brighten
350
35
  3
ColorChange
350
39
  3
Conceptual
350
32
  3
Dim
350
34
  3
EdgeColorOff
350
41
  3
Facepattern
350
38
  3
Flat
350
2A
  3
FlatWithEdges
350
2B
  3
Gouraud
350
2C
  3
GouraudWithEdges
350
2D
  3
Hidden
350
31
  3
JitterOff
350
3F
  3
Linepattern
350
37
  3
OverhangOff
350
40
  3
Realistic
350
33
  3
Shaded
350
3E
  3
Shaded with edges
350
3D
  3
Shades of Gray
350
3A
  3
Sketchy
350
3B
  3
Thicken
350
36
  3
Wireframe
350
30
  3
X-Ray
350
3C
  0
XRECORD
  5
819
102
{ACAD_REACTORS
330
C
102
}
330
C
100
AcDbXrecord
280
     1
 90
        1
330
65
330
69
330
6B
  0
DICTIONARY
  5
10F
102
{ACAD_REACTORS
330
C
102
}
330
C
100
AcDbDictionary
281
     1
  3
CANNOSCALE
350
114
  3
CMLEADERSTYLE
350
111
  3
CTABLESTYLE
350
110
  3
CVIEWDETAILSTYLE
350
112
  3
CVIEWSECTIONSTYLE
350
113
  0
DICTIONARY
  5
103
102
{ACAD_REACTORS
330
C
102
}
330
C
100
AcDbDictionary
281
     1
  3
DRAWING_TOOL
350
106
  3
REVIT_CATEGORY_MAPPING
350
104
  3
REVIT_SUB_CATEGORY_MAPPING
350
105
  0
DICTIONARY
  5
803
102
{ACAD_REACTORS
330
802
102
}
330
802
100
AcDbDictionary
281
     1
  0
SORTENTSTABLE
  5
108
102
{ACAD_REACTORS
330
107
102
}
330
107
100
AcDbSortentsTable
330
70
  0
ACDBDETAILVIEWSTYLE
  5
6B
102
{ACAD_XDICTIONARY
360
10C
102
}
102
{ACAD_REACTORS
330
6A
102
}
330
6A
100
AcDbModelDocViewStyle
 70
     0
  3
Imperial24
290
     0
100
AcDbDetailViewStyle
 70
     0
 71
     0
 90
        3
 71
     1
340
55
 62
   256
 40
0.24
340
0
 62
   256
 40
0.24
300

 40
0.36
280
     3
 71
     2
340
5D
 90
       25
 62
   256
 71
     3
340
55
 62
   256
 40
0.24
 90
        1
 40
0.75
 90
        1
300
%<\AcVar ViewType \f "%tc1">% %<\AcVar ViewDetailId>%\PSCALE %<\AcVar ViewScale \f "%sn">%
 71
     4
340
5D
 90
       25
 62
   256
340
5D
 90
       25
 62
   256
280
     0
  0
LAYOUT
  5
6F
102
{ACAD_REACTORS
330
62
102
}
330
62
100
AcDbPlotSettings
  1

  2

  4

  6

 40
0.0
 41
0.0
 42
0.0
 43
0.0
 44
0.0
 45
0.0
 46
0.0
 47
0.0
 48
0.0
 49
0.0
140
0.0
141
0.0
142
1.0
143
1.0
 70
   688
 72
     0
 73
     0
 74
     5
  7

 75
    16
147
1.0
 76
     0
 77
     2
 78
   300
148
0.0
149
0.0
100
AcDbLayout
  1
Layout1
 70
     1
 71
     1
 10
0.0
 20
0.0
 11
12.0
 21
9.0
 12
0.0
 22
0.0
 32
0.0
 14
1.000000000000000E+20
 24
1.000000000000000E+20
 34
1.000000000000000E+20
 15
-1.000000000000000E+20
 25
-1.000000000000000E+20
 35
-1.000000000000000E+20
146
0.0
 13
0.0
 23
0.0
 33
0.0
 16
1.0
 26
0.0
 36
0.0
 17
0.0
 27
1.0
 37
0.0
 76
     0
330
6C
  0
LAYOUT
  5
77
102
{ACAD_REACTORS
330
62
102
}
330
62
100
AcDbPlotSettings
  1

  2

  4

  6

 40
0.0
 41
0.0
 42
0.0
 43
0.0
 44
0.0
 45
0.0
 46
0.0
 47
0.0
 48
0.0
 49
0.0
140
0.0
141
0.0
142
1.0
143
1.0
 70
   688
 72
     0
 73
     0
 74
     5
  7

 75
    16
147
1.0
 76
     0
 77
     2
 78
   300
148
0.0
149
0.0
100
AcDbLayout
  1
Layout2
 70
     1
 71
     2
 10
0.0
 20
0.0
 11
12.0
 21
9.0
 12
0.0
 22
0.0
 32
0.0
 14
0.0
 24
0.0
 34
0.0
 15
0.0
 25
0.0
 35
0.0
146
0.0
 13
0.0
 23
0.0
 33
0.0
 16
1.0
 26
0.0
 36
0.0
 17
0.0
 27
1.0
 37
0.0
 76
     0
330
74
  0
LAYOUT
  5
73
102
{ACAD_REACTORS
330
62
102
}
330
62
100
AcDbPlotSettings
  1

  2

  4

  6

 40
0.0
 41
0.0
 42
0.0
 43
0.0
 44
0.0
 45
0.0
 46
0.0
 47
0.0
 48
0.0
 49
0.0
140
0.0
141
0.0
142
1.0
143
1.0
 70
  1712
 72
     0
 73
     0
 74
     0
  7

 75
     0
147
1.0
 76
     0
 77
     2
 78
   300
148
0.0
149
0.0
100
AcDbLayout
  1
Model
 70
     1
 71
     0
 10
0.0
 20
0.0
 11
12.0
 21
9.0
 12
0.0
 22
0.0
 32
0.0
 14
0.0
 24
0.0
 34
0.0
 15
0.0
 25
0.0
 35
0.0
146
0.0
 13
0.0
 23
0.0
 33
0.0
 16
1.0
 26
0.0
 36
0.0
 17
0.0
 27
1.0
 37
0.0
 76
     0
330
70
331
57
  0
MATERIAL
  5
19
102
{ACAD_XDICTIONARY
360
1A
102
}
102
{ACAD_REACTORS
330
10
102
}
330
10
100
AcDbMaterial
  1
ByBlock
 72
     0
 43
0.0208333333333333
 43
0.0
 43
0.0
 43
0.0
 43
0.0
 43
0.0208333333333333
 43
0.0
 43
0.0
 43
0.0
 43
0.0
 43
1.0
 43
0.0
 43
0.0
 43
0.0
 43
0.0
 43
1.0
 77
     0
 47
0.0208333333333333
 47
0.0
 47
0.0
 47
0.0
 47
0.0
 47
0.0208333333333333
 47
0.0
 47
0.0
 47
0.0
 47
0.0
 47
1.0
 47
0.0
 47
0.0
 47
0.0
 47
0.0
 47
1.0
171
     0
 49
0.0208333333333333
 49
0.0
 49
0.0
 49
0.0
 49
0.0
 49
0.0208333333333333
 49
0.0
 49
0.0
 49
0.0
 49
0.0
 49
1.0
 49
0.0
 49
0.0
 49
0.0
 49
0.0
 49
1.0
175
     0
142
0.0208333333333333
142
0.0
142
0.0
142
0.0
142
0.0
142
0.0208333333333333
142
0.0
142
0.0
142
0.0
142
0.0
142
1.0
142
0.0
142
0.0
142
0.0
142
0.0
142
1.0
179
     0
144
0.0208333333333333
144
0.0
144
0.0
144
0.0
144
0.0
144
0.0208333333333333
144
0.0
144
0.0
144
0.0
144
0.0
144
1.0
144
0.0
144
0.0
144
0.0
144
0.0
144
1.0
147
0.0208333333333333
147
0.0
147
0.0
147
0.0
147
0.0
147
0.0208333333333333
147
0.0
147
0.0
147
0.0
147
0.0
147
1.0
147
0.0
147
0.0
147
0.0
147
0.0
147
1.0
  0
MATERIAL
  5
11
102
{ACAD_XDICTIONARY
360
12
102
}
102
{ACAD_REACTORS
330
10
102
}
330
10
100
AcDbMaterial
  1
ByLayer
 72
     0
 43
0.0208333333333333
 43
0.0
 43
0.0
 43
0.0
 43
0.0
 43
0.0208333333333333
 43
0.0
 43
0.0
 43
0.0
 43
0.0
 43
1.0
 43
0.0
 43
0.0
 43
0.0
 43
0.0
 43
1.0
 77
     0
 47
0.0208333333333333
 47
0.0
 47
0.0
 47
0.0
 47
0.0
 47
0.0208333333333333
 47
0.0
 47
0.0
 47
0.0
 47
0.0
 47
1.0
 47
0.0
 47
0.0
 47
0.0
 47
0.0
 47
1.0
171
     0
 49
0.0208333333333333
 49
0.0
 49
0.0
 49
0.0
 49
0.0
 49
0.0208333333333333
 49
0.0
 49
0.0
 49
0.0
 49
0.0
 49
1.0
 49
0.0
 49
0.0
 49
0.0
 49
0.0
 49
1.0
175
     0
142
0.0208333333333333
142
0.0
142
0.0
142
0.0
142
0.0
142
0.0208333333333333
142
0.0
142
0.0
142
0.0
142
0.0
142
1.0
142
0.0
142
0.0
142
0.0
142
0.0
142
1.0
179
     0
144
0.0208333333333333
144
0.0
144
0.0
144
0.0
144
0.0
144
0.0208333333333333
144
0.0
144
0.0
144
0.0
144
0.0
144
1.0
144
0.0
144
0.0
144
0.0
144
0.0
144
1.0
147
0.0208333333333333
147
0.0
147
0.0
147
0.0
147
0.0
147
0.0208333333333333
147
0.0
147
0.0
147
0.0
147
0.0
147
1.0
147
0.0
147
0.0
147
0.0
147
0.0
147
1.0
  0
MATERIAL
  5
21
102
{ACAD_XDICTIONARY
360
22
102
}
102
{ACAD_REACTORS
330
10
102
}
330
10
100
AcDbMaterial
  1
Global
 72
     0
 43
0.0208333333333333
 43
0.0
 43
0.0
 43
0.0
 43
0.0
 43
0.0208333333333333
 43
0.0
 43
0.0
 43
0.0
 43
0.0
 43
1.0
 43
0.0
 43
0.0
 43
0.0
 43
0.0
 43
1.0
 77
     0
 47
0.0208333333333333
 47
0.0
 47
0.0
 47
0.0
 47
0.0
 47
0.0208333333333333
 47
0.0
 47
0.0
 47
0.0
 47
0.0
 47
1.0
 47
0.0
 47
0.0
 47
0.0
 47
0.0
 47
1.0
171
     0
 49
0.0208333333333333
 49
0.0
 49
0.0
 49
0.0
 49
0.0
 49
0.0208333333333333
 49
0.0
 49
0.0
 49
0.0
 49
0.0
 49
1.0
 49
0.0
 49
0.0
 49
0.0
 49
0.0
 49
1.0
175
     0
142
0.0208333333333333
142
0.0
142
0.0
142
0.0
142
0.0
142
0.0208333333333333
142
0.0
142
0.0
142
0.0
142
0.0
142
1.0
142
0.0
142
0.0
142
0.0
142
0.0
142
1.0
179
     0
144
0.0208333333333333
144
0.0
144
0.0
144
0.0
144
0.0
144
0.0208333333333333
144
0.0
144
0.0
144
0.0
144
0.0
144
1.0
144
0.0
144
0.0
144
0.0
144
0.0
144
1.0
147
0.0208333333333333
147
0.0
147
0.0
147
0.0
147
0.0
147
0.0208333333333333
147
0.0
147
0.0
147
0.0
147
0.0
147
1.0
147
0.0
147
0.0
147
0.0
147
0.0
147
1.0
  0
MLEADERSTYLE
  5
67
102
{ACAD_REACTORS
330
66
102
}
330
66
100
AcDbMLeaderStyle
179
     2
170
     2
171
     1
172
     0
 90
        2
 40
0.0
 41
0.0
173
     1
 91
-1056964608
340
5B
 92
       -2
290
     1
 42
0.09
291
     1
 43
0.36
  3
Standard
 44
0.18
300

342
55
174
     1
178
     6
175
     1
176
     0
 93
-1056964608
 45
0.18
292
     0
297
     0
 46
0.18
 94
-1056964608
 47
1.0
 49
1.0
140
1.0
293
     1
141
0.0
294
     1
177
     0
142
1.0
295
     1
296
     0
143
0.125
271
     0
272
     9
273
     9
298
     1
  0
MLINESTYLE
  5
60
102
{ACAD_REACTORS
330
5F
102
}
330
5F
100
AcDbMlineStyle
  2
STANDARD
 70
     0
  3

 62
   256
 51
90.0
 52
90.0
 71
     2
 49
0.5
 62
   256
  6
BYLAYER
 49
-0.5
 62
   256
  6
BYLAYER
  0
ACDBPLACEHOLDER
  5
F
102
{ACAD_REACTORS
330
E
102
}
330
E
  0
SCALE
  5
43
102
{ACAD_REACTORS
330
42
102
}
330
42
100
AcDbScale
 70
     0
300
1:1
140
1.0
141
1.0
290
     1
  0
SCALE
  5
44
102
{ACAD_REACTORS
330
42
102
}
330
42
100
AcDbScale
 70
     0
300
1/128" = 1'-0"
140
0.0078125
141
12.0
290
     0
  0
SCALE
  5
45
102
{ACAD_REACTORS
330
42
102
}
330
42
100
AcDbScale
 70
     0
300
1/64" = 1'-0"
140
0.015625
141
12.0
290
     0
  0
SCALE
  5
46
102
{ACAD_REACTORS
330
42
102
}
330
42
100
AcDbScale
 70
     0
300
1/32" = 1'-0"
140
0.03125
141
12.0
290
     0
  0
SCALE
  5
47
102
{ACAD_REACTORS
330
42
102
}
330
42
100
AcDbScale
 70
     0
300
1/16" = 1'-0"
140
0.0625
141
12.0
290
     0
  0
SCALE
  5
48
102
{ACAD_REACTORS
330
42
102
}
330
42
100
AcDbScale
 70
     0
300
3/32" = 1'-0"
140
0.09375
141
12.0
290
     0
  0
SCALE
  5
49
102
{ACAD_REACTORS
330
42
102
}
330
42
100
AcDbScale
 70
     0
300
1/8" = 1'-0"
140
0.125
141
12.0
290
     0
  0
SCALE
  5
4A
102
{ACAD_REACTORS
330
42
102
}
330
42
100
AcDbScale
 70
     0
300
3/16" = 1'-0"
140
0.1875
141
12.0
290
     0
  0
SCALE
  5
4B
102
{ACAD_REACTORS
330
42
102
}
330
42
100
AcDbScale
 70
     0
300
1/4" = 1'-0"
140
0.25
141
12.0
290
     0
  0
SCALE
  5
4C
102
{ACAD_REACTORS
330
42
102
}
330
42
100
AcDbScale
 70
     0
300
3/8" = 1'-0"
140
0.375
141
12.0
290
     0
  0
SCALE
  5
4D
102
{ACAD_REACTORS
330
42
102
}
330
42
100
AcDbScale
 70
     0
300
1/2" = 1'-0"
140
0.5
141
12.0
290
     0
  0
SCALE
  5
4E
102
{ACAD_REACTORS
330
42
102
}
330
42
100
AcDbScale
 70
     0
300
3/4" = 1'-0"
140
0.75
141
12.0
290
     0
  0
SCALE
  5
4F
102
{ACAD_REACTORS
330
42
102
}
330
42
100
AcDbScale
 70
     0
300
1" = 1'-0"
140
1.0
141
12.0
290
     0
  0
SCALE
  5
50
102
{ACAD_REACTORS
330
42
102
}
330
42
100
AcDbScale
 70
     0
300
1-1/2" = 1'-0"
140
1.5
141
12.0
290
     0
  0
SCALE
  5
51
102
{ACAD_REACTORS
330
42
102
}
330
42
100
AcDbScale
 70
     0
300
3" = 1'-0"
140
3.0
141
12.0
290
     0
  0
SCALE
  5
52
102
{ACAD_REACTORS
330
42
102
}
330
42
100
AcDbScale
 70
     0
300
6" = 1'-0"
140
6.0
141
12.0
290
     0
  0
SCALE
  5
53
102
{ACAD_REACTORS
330
42
102
}
330
42
100
AcDbScale
 70
     0
300
1'-0" = 1'-0"
140
12.0
141
12.0
290
     0
  0
ACDBSECTIONVIEWSTYLE
  5
69
102
{ACAD_XDICTIONARY
360
10A
102
}
102
{ACAD_REACTORS
330
68
102
}
330
68
100
AcDbModelDocViewStyle
 70
     0
  3
Imperial24
290
     0
100
AcDbSectionViewStyle
 70
     0
 71
     0
 90
       78
 71
     1
340
55
 62
   256
 40
0.24
340
0
340
0
 62
   256
 40
0.24
300
I, O, Q, S, X, Z
 40
0.48
 90
        3
 40
0.18
 90
        1
 71
     2
340
5D
 90
       25
 62
   256
340
5D
 90
       50
 62
   256
 40
0.24
 40
0.0
 40
0.24
 71
     3
340
55
 62
   256
 40
0.24
 90
        1
 40
0.75
 90
        1
300
%<\AcVar ViewType \f "%tc1">% %<\AcVar ViewSectionStartId>%-%<\AcVar ViewSectionEndId>%\PSCALE %<\AcVar ViewScale \f "%sn">%
 71
     4
 62
   256
 62
   257
300
ANSI31
 40
1.0
 90
        0
290
     0
290
     0
 90
        6
 40
0.0
 40
1.570796326794896
 40
0.2617993877991494
 40
1.308996938995747
 40
-0.2617993877991494
 40
1.832595714594046
  0
TABLESTYLE
  5
65
102
{ACAD_XDICTIONARY
360
815
102
}
102
{ACAD_REACTORS
330
64
102
}
330
64
100
AcDbTableStyle
280
     0
  3
Standard
 70
     0
 71
     0
 40
0.06
 41
0.06
280
     0
281
     0
  7
Standard
140
0.18
170
     2
 62
     0
 63
     7
283
     0
 90
      512
 91
        0
  1

274
    -2
284
     1
 64
     0
275
    -2
285
     1
 65
     0
276
    -2
286
     1
 66
     0
277
    -2
287
     1
 67
     0
278
    -2
288
     1
 68
     0
279
    -2
289
     1
 69
     0
  7
Standard
140
0.25
170
     5
 62
     0
 63
     7
283
     0
 90
      512
 91
        0
  1

274
    -2
284
     1
 64
     0
275
    -2
285
     1
 65
     0
276
    -2
286
     1
 66
     0
277
    -2
287
     1
 67
     0
278
    -2
288
     1
 68
     0
279
    -2
289
     1
 69
     0
  7
Standard
140
0.18
170
     5
 62
     0
 63
     7
283
     0
 90
      512
 91
        0
  1

274
    -2
284
     1
 64
     0
275
    -2
285
     1
 65
     0
276
    -2
286
     1
 66
     0
277
    -2
287
     1
 67
     0
278
    -2
288
     1
 68
     0
279
    -2
289
     1
 69
     0
  0
VISUALSTYLE
  5
2F
102
{ACAD_REACTORS
330
29
102
}
330
29
100
AcDbVisualStyle
  2
2dWireframe
 70
     4
177
     3
291
     0
 70
    58
 90
        0
176
     1
 90
        2
176
     1
 90
        0
176
     1
 90
        0
176
     1
 40
0.6
176
     1
 40
30.0
176
     1
 62
     7
420
 16777215
176
     1
 90
        1
176
     1
 90
        4
176
     1
 62
     7
176
     1
 62
   257
176
     1
 90
        1
176
     1
 90
        1
176
     1
 40
1.0
176
     1
 90
        0
176
     1
 62
   257
176
     1
 40
1.0
176
     1
 90
        1
176
     1
 90
        6
176
     1
 90
        2
176
     1
 62
     7
176
     1
 90
        5
176
     1
 90
        0
176
     1
 90
        0
176
     1
290
     0
176
     1
 90
        1
176
     1
 40
0.0
176
     1
 90
        0
176
     1
290
     1
176
     1
290
     1
176
     1
290
     0
176
     1
290
     0
176
     1
290
     0
176
     1
290
     0
176
     1
290
     0
176
     1
290
     0
176
     1
290
     0
176
     1
 90
       50
176
     1
 40
0.0
176
     1
 40
1.0
176
     1
 90
        0
176
     1
 62
    18
420
        0
176
     1
 90
       50
176
     1
 90
        3
176
     1
 62
     5
420
      255
176
     1
290
     0
176
     1
 90
       50
176
     1
 90
       50
176
     1
 90
       50
176
     1
290
     0
176
     1
 90
       50
176
     1
 62
   256
176
     0
 40
1.0
176
     0
 90
        2
176
     1
  1
strokes_ogs.tif
176
     1
290
     0
176
     1
 40
1.0
176
     1
 40
1.0
176
     1
  0
VISUALSTYLE
  5
2E
102
{ACAD_REACTORS
330
29
102
}
330
29
100
AcDbVisualStyle
  2
Basic
 70
     7
177
     3
291
     1
 70
    58
 90
        1
176
     1
 90
        0
176
     1
 90
        1
176
     1
 90
        0
176
     1
 40
0.6
176
     1
 40
30.0
176
     1
 62
     7
420
 16777215
176
     1
 90
        0
176
     1
 90
        4
176
     1
 62
     7
176
     1
 62
   257
176
     1
 90
        1
176
     1
 90
        1
176
     1
 40
1.0
176
     1
 90
        8
176
     1
 62
     7
176
     1
 40
1.0
176
     1
 90
        1
176
     1
 90
        6
176
     1
 90
        2
176
     1
 62
     7
176
     1
 90
        5
176
     1
 90
        0
176
     1
 90
        0
176
     1
290
     0
176
     1
 90
        1
176
     1
 40
0.0
176
     1
 90
        0
176
     1
290
     0
176
     1
290
     1
176
     1
290
     1
176
     1
290
     0
176
     1
290
     0
176
     1
290
     0
176
     1
290
     0
176
     1
290
     0
176
     1
290
     0
176
     1
 90
       50
176
     1
 40
0.0
176
     1
 40
1.0
176
     1
 90
        0
176
     1
 62
    18
420
        0
176
     1
 90
       50
176
     1
 90
        3
176
     1
 62
     5
420
      255
176
     1
290
     0
176
     1
 90
       50
176
     1
 90
       50
176
     1
 90
       50
176
     1
290
     0
176
     1
 90
       50
176
     1
 62
   256
176
     0
 40
1.0
176
     0
 90
        2
176
     1
  1
strokes_ogs.tif
176
     1
290
     0
176
     1
 40
1.0
176
     1
 40
1.0
176
     1
  0
VISUALSTYLE
  5
35
102
{ACAD_REACTORS
330
29
102
}
330
29
100
AcDbVisualStyle
  2
Brighten
 70
    12
177
     3
291
     1
 70
    58
 90
        2
176
     1
 90
        2
176
     1
 90
        0
176
     1
 90
        0
176
     1
 40
0.6
176
     1
 40
30.0
176
     1
 62
     7
420
 16777215
176
     1
 90
        1
176
     1
 90
        4
176
     1
 62
     7
176
     1
 62
   257
176
     1
 90
        1
176
     1
 90
        1
176
     1
 40
1.0
176
     1
 90
        8
176
     1
 62
     7
176
     1
 40
1.0
176
     1
 90
        1
176
     1
 90
        6
176
     1
 90
        2
176
     1
 62
     7
176
     1
 90
        5
176
     1
 90
        0
176
     1
 90
        0
176
     1
290
     0
176
     1
 90
        1
176
     1
 40
50.0
176
     1
 90
        0
176
     1
290
     0
176
     1
290
     1
176
     1
290
     1
176
     1
290
     0
176
     1
290
     0
176
     1
290
     0
176
     1
290
     0
176
     1
290
     0
176
     1
290
     0
176
     1
 90
       50
176
     1
 40
0.0
176
     1
 40
1.0
176
     1
 90
        0
176
     1
 62
    18
420
        0
176
     1
 90
       50
176
     1
 90
        3
176
     1
 62
     5
420
      255
176
     1
290
     0
176
     1
 90
       50
176
     1
 90
       50
176
     1
 90
       50
176
     1
290
     0
176
     1
 90
       50
176
     1
 62
   256
176
     0
 40
1.0
176
     0
 90
        2
176
     1
  1
strokes_ogs.tif
176
     1
290
     0
176
     1
 40
1.0
176
     1
 40
1.0
176
     1
  0
VISUALSTYLE
  5
39
102
{ACAD_REACTORS
330
29
102
}
330
29
100
AcDbVisualStyle
  2
ColorChange
 70
    16
177
     3
291
     1
 70
    58
 90
        2
176
     1
 90
        2
176
     1
 90
        3
176
     1
 90
        0
176
     1
 40
0.6
176
     1
 40
30.0
176
     1
 62
     8
420
  8421504
176
     1
 90
        1
176
     1
 90
        4
176
     1
 62
     7
176
     1
 62
   257
176
     1
 90
        1
176
     1
 90
        1
176
     1
 40
1.0
176
     1
 90
        8
176
     1
 62
     8
420
  8421504
176
     1
 40
1.0
176
     1
 90
        1
176
     1
 90
        6
176
     1
 90
        2
176
     1
 62
     7
176
     1
 90
        5
176
     1
 90
        0
176
     1
 90
        0
176
     1
290
     0
176
     1
 90
        1
176
     1
 40
0.0
176
     1
 90
        0
176
     1
290
     0
176
     1
290
     1
176
     1
290
     1
176
     1
290
     0
176
     1
290
     0
176
     1
290
     0
176
     1
290
     0
176
     1
290
     0
176
     1
290
     0
176
     1
 90
       50
176
     1
 40
0.0
176
     1
 40
1.0
176
     1
 90
        0
176
     1
 62
    18
420
        0
176
     1
 90
       50
176
     1
 90
        3
176
     1
 62
     5
420
      255
176
     1
290
     0
176
     1
 90
       50
176
     1
 90
       50
176
     1
 90
       50
176
     1
290
     0
176
     1
 90
       50
176
     1
 62
   256
176
     0
 40
1.0
176
     0
 90
        2
176
     1
  1
strokes_ogs.tif
176
     1
290
     0
176
     1
 40
1.0
176
     1
 40
1.0
176
     1
  0
VISUALSTYLE
  5
32
102
{ACAD_REACTORS
330
29
102
}
330
29
100
AcDbVisualStyle
  2
Conceptual
 70
     9
177
     3
291
     0
 70
    58
 90
        3
176
     1
 90
        2
176
     1
 90
        0
176
     1
 90
        0
176
     1
 40
0.6
176
     1
 40
30.0
176
     1
 62
     7
420
 16777215
176
     1
 90
        2
176
     1
 90
        2
176
     1
 62
     7
176
     1
 62
   257
176
     1
 90
        1
176
     1
 90
        1
176
     1
 40
179.0
176
     1
 90
        8
176
     1
 62
     7
176
     1
 40
1.0
176
     1
 90
        1
176
     1
 90
        6
176
     1
 90
        2
176
     1
 62
     7
176
     1
 90
        3
176
     1
 90
        0
176
     1
 90
        0
176
     1
290
     0
176
     1
 90
        1
176
     1
 40
0.0
176
     1
 90
        0
176
     1
290
     0
176
     1
290
     1
176
     1
290
     1
176
     1
290
     0
176
     1
290
     0
176
     1
290
     0
176
     1
290
     0
176
     1
290
     0
176
     1
290
     0
176
     1
 90
       50
176
     1
 40
0.0
176
     1
 40
1.0
176
     1
 90
        0
176
     1
 62
    18
420
        0
176
     1
 90
       50
176
     1
 90
        3
176
     1
 62
     5
420
      255
176
     1
290
     0
176
     1
 90
       50
176
     1
 90
       50
176
     1
 90
       50
176
     1
290
     0
176
     1
 90
       50
176
     1
 62
   256
176
     0
 40
1.0
176
     0
 90
        2
176
     1
  1
strokes_ogs.tif
176
     1
290
     0
176
     1
 40
1.0
176
     1
 40
1.0
176
     1
  0
VISUALSTYLE
  5
34
102
{ACAD_REACTORS
330
29
102
}
330
29
100
AcDbVisualStyle
  2
Dim
 70
    11
177
     3
291
     1
 70
    58
 90
        2
176
     1
 90
        2
176
     1
 90
        0
176
     1
 90
        0
176
     1
 40
0.6
176
     1
 40
30.0
176
     1
 62
     7
420
 16777215
176
     1
 90
        1
176
     1
 90
        4
176
     1
 62
     7
176
     1
 62
   257
176
     1
 90
        1
176
     1
 90
        1
176
     1
 40
1.0
176
     1
 90
        8
176
     1
 62
     7
176
     1
 40
1.0
176
     1
 90
        1
176
     1
 90
        6
176
     1
 90
        2
176
     1
 62
     7
176
     1
 90
        5
176
     1
 90
        0
176
     1
 90
        0
176
     1
290
     0
176
     1
 90
        1
176
     1
 40
-50.0
176
     1
 90
        0
176
     1
290
     0
176
     1
290
     1
176
     1
290
     1
176
     1
290
     0
176
     1
290
     0
176
     1
290
     0
176
     1
290
     0
176
     1
290
     0
176
     1
290
     0
176
     1
 90
       50
176
     1
 40
0.0
176
     1
 40
1.0
176
     1
 90
        0
176
     1
 62
    18
420
        0
176
     1
 90
       50
176
     1
 90
        3
176
     1
 62
     5
420
      255
176
     1
290
     0
176
     1
 90
       50
176
     1
 90
       50
176
     1
 90
       50
176
     1
290
     0
176
     1
 90
       50
176
     1
 62
   256
176
     0
 40
1.0
176
     0
 90
        2
176
     1
  1
strokes_ogs.tif
176
     1
290
     0
176
     1
 40
1.0
176
     1
 40
1.0
176
     1
  0
VISUALSTYLE
  5
41
102
{ACAD_REACTORS
330
29
102
}
330
29
100
AcDbVisualStyle
  2
EdgeColorOff
 70
    22
177
     3
291
     1
 70
    58
 90
        2
176
     0
 90
        2
176
     0
 90
        0
176
     0
 90
        0
176
     0
 40
0.6
176
     0
 40
30.0
176
     0
 62
     7
420
 16777215
176
     0
 90
        1
176
     0
 90
        4
176
     0
 62
     7
176
     0
 62
   257
176
     0
 90
        1
176
     0
 90
        1
176
     0
 40
1.0
176
     0
 90
        8
176
     2
 62
     7
176
     0
 40
1.0
176
     0
 90
        1
176
     0
 90
        6
176
     0
 90
        2
176
     0
 62
     7
176
     0
 90
        5
176
     0
 90
        0
176
     0
 90
        0
176
     0
290
     0
176
     0
 90
        1
176
     0
 40
0.0
176
     0
 90
        0
176
     0
290
     0
176
     0
290
     1
176
     0
290
     1
176
     0
290
     0
176
     0
290
     0
176
     0
290
     0
176
     0
290
     0
176
     0
290
     0
176
     0
290
     0
176
     0
 90
       50
176
     0
 40
0.0
176
     0
 40
1.0
176
     0
 90
        0
176
     0
 62
    18
420
        0
176
     0
 90
       50
176
     0
 90
        3
176
     0
 62
     5
420
      255
176
     0
290
     0
176
     0
 90
       50
176
     0
 90
       50
176
     0
 90
       50
176
     0
290
     0
176
     0
 90
       50
176
     0
 62
   256
176
     0
 40
1.0
176
     0
 90
        2
176
     0
  1
strokes_ogs.tif
176
     0
290
     0
176
     0
 40
1.0
176
     0
 40
1.0
176
     0
  0
VISUALSTYLE
  5
38
102
{ACAD_REACTORS
330
29
102
}
330
29
100
AcDbVisualStyle
  2
Facepattern
 70
    15
177
     3
291
     1
 70
    58
 90
        2
176
     1
 90
        2
176
     1
 90
        0
176
     1
 90
        0
176
     1
 40
0.6
176
     1
 40
30.0
176
     1
 62
     7
420
 16777215
176
     1
 90
        1
176
     1
 90
        4
176
     1
 62
     7
176
     1
 62
   257
176
     1
 90
        1
176
     1
 90
        1
176
     1
 40
1.0
176
     1
 90
        8
176
     1
 62
     7
176
     1
 40
1.0
176
     1
 90
        1
176
     1
 90
        6
176
     1
 90
        2
176
     1
 62
     7
176
     1
 90
        5
176
     1
 90
        0
176
     1
 90
        0
176
     1
290
     0
176
     1
 90
        1
176
     1
 40
0.0
176
     1
 90
        0
176
     1
290
     0
176
     1
290
     1
176
     1
290
     1
176
     1
290
     0
176
     1
290
     0
176
     1
290
     0
176
     1
290
     0
176
     1
290
     0
176
     1
290
     0
176
     1
 90
       50
176
     1
 40
0.0
176
     1
 40
1.0
176
     1
 90
        0
176
     1
 62
    18
420
        0
176
     1
 90
       50
176
     1
 90
        3
176
     1
 62
     5
420
      255
176
     1
290
     0
176
     1
 90
       50
176
     1
 90
       50
176
     1
 90
       50
176
     1
290
     0
176
     1
 90
       50
176
     1
 62
   256
176
     0
 40
1.0
176
     0
 90
        2
176
     1
  1
strokes_ogs.tif
176
     1
290
     0
176
     1
 40
1.0
176
     1
 40
1.0
176
     1
  0
VISUALSTYLE
  5
2A
102
{ACAD_REACTORS
330
29
102
}
330
29
100
AcDbVisualStyle
  2
Flat
 70
     0
177
     3
291
     1
 70
    58
 90
        2
176
     1
 90
        1
176
     1
 90
        1
176
     1
 90
        2
176
     1
 40
0.6
176
     1
 40
30.0
176
     1
 62
     7
420
 16777215
176
     1
 90
        0
176
     1
 90
        0
176
     1
 62
     7
176
     1
 62
   257
176
     1
 90
        1
176
     1
 90
        1
176
     1
 40
1.0
176
     1
 90
        8
176
     1
 62
     7
176
     1
 40
1.0
176
     1
 90
        1
176
     1
 90
        6
176
     1
 90
        2
176
     1
 62
     7
176
     1
 90
        5
176
     1
 90
        0
176
     1
 90
        0
176
     1
290
     0
176
     1
 90
       13
176
     1
 40
0.0
176
     1
 90
        0
176
     1
290
     0
176
     1
290
     1
176
     1
290
     1
176
     1
290
     0
176
     1
290
     0
176
     1
290
     0
176
     1
290
     0
176
     1
290
     0
176
     1
290
     0
176
     1
 90
       50
176
     1
 40
0.0
176
     1
 40
1.0
176
     1
 90
        0
176
     1
 62
    18
420
        0
176
     1
 90
       50
176
     1
 90
        3
176
     1
 62
     5
420
      255
176
     1
290
     0
176
     1
 90
       50
176
     1
 90
       50
176
     1
 90
       50
176
     1
290
     0
176
     1
 90
       50
176
     1
 62
   256
176
     0
 40
1.0
176
     0
 90
        2
176
     1
  1
strokes_ogs.tif
176
     1
290
     0
176
     1
 40
1.0
176
     1
 40
1.0
176
     1
  0
VISUALSTYLE
  5
2B
102
{ACAD_REACTORS
330
29
102
}
330
29
100
AcDbVisualStyle
  2
FlatWithEdges
 70
     1
177
     3
291
     1
 70
    58
 90
        2
176
     1
 90
        1
176
     1
 90
        1
176
     1
 90
        2
176
     1
 40
0.6
176
     1
 40
30.0
176
     1
 62
     7
420
 16777215
176
     1
 90
        1
176
     1
 90
        0
176
     1
 62
     7
176
     1
 62
   257
176
     1
 90
        1
176
     1
 90
        1
176
     1
 40
1.0
176
     1
 90
        0
176
     1
 62
   257
176
     1
 40
1.0
176
     1
 90
        1
176
     1
 90
        6
176
     1
 90
        2
176
     1
 62
     7
176
     1
 90
        5
176
     1
 90
        0
176
     1
 90
        0
176
     1
290
     0
176
     1
 90
       13
176
     1
 40
0.0
176
     1
 90
        0
176
     1
290
     0
176
     1
290
     1
176
     1
290
     1
176
     1
290
     0
176
     1
290
     0
176
     1
290
     0
176
     1
290
     0
176
     1
290
     0
176
     1
290
     0
176
     1
 90
       50
176
     1
 40
0.0
176
     1
 40
1.0
176
     1
 90
        0
176
     1
 62
    18
420
        0
176
     1
 90
       50
176
     1
 90
        3
176
     1
 62
     5
420
      255
176
     1
290
     0
176
     1
 90
       50
176
     1
 90
       50
176
     1
 90
       50
176
     1
290
     0
176
     1
 90
       50
176
     1
 62
   256
176
     0
 40
1.0
176
     0
 90
        2
176
     1
  1
strokes_ogs.tif
176
     1
290
     0
176
     1
 40
1.0
176
     1
 40
1.0
176
     1
  0
VISUALSTYLE
  5
2C
102
{ACAD_REACTORS
330
29
102
}
330
29
100
AcDbVisualStyle
  2
Gouraud
 70
     2
177
     3
291
     1
 70
    58
 90
        2
176
     1
 90
        2
176
     1
 90
        1
176
     1
 90
        2
176
     1
 40
0.6
176
     1
 40
30.0
176
     1
 62
     7
420
 16777215
176
     1
 90
        0
176
     1
 90
        0
176
     1
 62
     7
176
     1
 62
   257
176
     1
 90
        1
176
     1
 90
        1
176
     1
 40
1.0
176
     1
 90
        0
176
     1
 62
     7
176
     1
 40
1.0
176
     1
 90
        1
176
     1
 90
        6
176
     1
 90
        2
176
     1
 62
     7
176
     1
 90
        5
176
     1
 90
        0
176
     1
 90
        0
176
     1
290
     0
176
     1
 90
       13
176
     1
 40
0.0
176
     1
 90
        0
176
     1
290
     0
176
     1
290
     1
176
     1
290
     1
176
     1
290
     0
176
     1
290
     0
176
     1
290
     0
176
     1
290
     0
176
     1
290
     0
176
     1
290
     0
176
     1
 90
       50
176
     1
 40
0.0
176
     1
 40
1.0
176
     1
 90
        0
176
     1
 62
    18
420
        0
176
     1
 90
       50
176
     1
 90
        3
176
     1
 62
     5
420
      255
176
     1
290
     0
176
     1
 90
       50
176
     1
 90
       50
176
     1
 90
       50
176
     1
290
     0
176
     1
 90
       50
176
     1
 62
   256
176
     0
 40
1.0
176
     0
 90
        2
176
     1
  1
strokes_ogs.tif
176
     1
290
     0
176
     1
 40
1.0
176
     1
 40
1.0
176
     1
  0
VISUALSTYLE
  5
2D
102
{ACAD_REACTORS
330
29
102
}
330
29
100
AcDbVisualStyle
  2
GouraudWithEdges
 70
     3
177
     3
291
     1
 70
    58
 90
        2
176
     1
 90
        2
176
     1
 90
        1
176
     1
 90
        2
176
     1
 40
0.6
176
     1
 40
30.0
176
     1
 62
     7
420
 16777215
176
     1
 90
        1
176
     1
 90
        0
176
     1
 62
     7
176
     1
 62
   257
176
     1
 90
        1
176
     1
 90
        1
176
     1
 40
1.0
176
     1
 90
        0
176
     1
 62
   257
176
     1
 40
1.0
176
     1
 90
        1
176
     1
 90
        6
176
     1
 90
        2
176
     1
 62
     7
176
     1
 90
        5
176
     1
 90
        0
176
     1
 90
        0
176
     1
290
     0
176
     1
 90
       13
176
     1
 40
0.0
176
     1
 90
        0
176
     1
290
     0
176
     1
290
     1
176
     1
290
     1
176
     1
290
     0
176
     1
290
     0
176
     1
290
     0
176
     1
290
     0
176
     1
290
     0
176
     1
290
     0
176
     1
 90
       50
176
     1
 40
0.0
176
     1
 40
1.0
176
     1
 90
        0
176
     1
 62
    18
420
        0
176
     1
 90
       50
176
     1
 90
        3
176
     1
 62
     5
420
      255
176
     1
290
     0
176
     1
 90
       50
176
     1
 90
       50
176
     1
 90
       50
176
     1
290
     0
176
     1
 90
       50
176
     1
 62
   256
176
     0
 40
1.0
176
     0
 90
        2
176
     1
  1
strokes_ogs.tif
176
     1
290
     0
176
     1
 40
1.0
176
     1
 40
1.0
176
     1
  0
VISUALSTYLE
  5
31
102
{ACAD_REACTORS
330
29
102
}
330
29
100
AcDbVisualStyle
  2
Hidden
 70
     6
177
     3
291
     0
 70
    58
 90
        1
176
     1
 90
        2
176
     1
 90
        2
176
     1
 90
        0
176
     1
 40
0.6
176
     1
 40
30.0
176
     1
 62
     7
420
 16777215
176
     1
 90
        2
176
     1
 90
        2
176
     1
 62
     7
176
     1
 62
   257
176
     1
 90
        2
176
     1
 90
        1
176
     1
 40
40.0
176
     1
 90
        0
176
     1
 62
   257
176
     1
 40
1.0
176
     1
 90
        1
176
     1
 90
        6
176
     1
 90
        2
176
     1
 62
     7
176
     1
 90
        3
176
     1
 90
        0
176
     1
 90
        0
176
     1
290
     0
176
     1
 90
        1
176
     1
 40
0.0
176
     1
 90
        0
176
     1
290
     0
176
     1
290
     1
176
     1
290
     1
176
     1
290
     0
176
     1
290
     0
176
     1
290
     0
176
     1
290
     0
176
     1
290
     0
176
     1
290
     0
176
     1
 90
       50
176
     1
 40
0.0
176
     1
 40
1.0
176
     1
 90
        0
176
     1
 62
    18
420
        0
176
     1
 90
       50
176
     1
 90
        3
176
     1
 62
     5
420
      255
176
     1
290
     0
176
     1
 90
       50
176
     1
 90
       50
176
     1
 90
       50
176
     1
290
     0
176
     1
 90
       50
176
     1
 62
   256
176
     0
 40
1.0
176
     0
 90
        2
176
     1
  1
strokes_ogs.tif
176
     1
290
     0
176
     1
 40
1.0
176
     1
 40
1.0
176
     1
  0
VISUALSTYLE
  5
3F
102
{ACAD_REACTORS
330
29
102
}
330
29
100
AcDbVisualStyle
  2
JitterOff
 70
    20
177
     3
291
     1
 70
    58
 90
        2
176
     0
 90
        2
176
     0
 90
        0
176
     0
 90
        0
176
     0
 40
0.6
176
     0
 40
30.0
176
     0
 62
     7
420
 16777215
176
     0
 90
        1
176
     0
 90
        4
176
     0
 62
     7
176
     0
 62
   257
176
     0
 90
        1
176
     0
 90
        1
176
     0
 40
1.0
176
     0
 90
       10
176
     2
 62
     7
176
     0
 40
1.0
176
     0
 90
        1
176
     0
 90
        6
176
     0
 90
        2
176
     0
 62
     7
176
     0
 90
        5
176
     0
 90
        0
176
     0
 90
        0
176
     0
290
     0
176
     0
 90
        1
176
     0
 40
0.0
176
     0
 90
        0
176
     0
290
     0
176
     0
290
     1
176
     0
290
     1
176
     0
290
     0
176
     0
290
     0
176
     0
290
     0
176
     0
290
     0
176
     0
290
     0
176
     0
290
     0
176
     0
 90
       50
176
     0
 40
0.0
176
     0
 40
1.0
176
     0
 90
        0
176
     0
 62
    18
420
        0
176
     0
 90
       50
176
     0
 90
        3
176
     0
 62
     5
420
      255
176
     0
290
     0
176
     0
 90
       50
176
     0
 90
       50
176
     0
 90
       50
176
     0
290
     0
176
     0
 90
       50
176
     0
 62
   256
176
     0
 40
1.0
176
     0
 90
        2
176
     0
  1
strokes_ogs.tif
176
     0
290
     0
176
     0
 40
1.0
176
     0
 40
1.0
176
     0
  0
VISUALSTYLE
  5
37
102
{ACAD_REACTORS
330
29
102
}
330
29
100
AcDbVisualStyle
  2
Linepattern
 70
    14
177
     3
291
     1
 70
    58
 90
        2
176
     1
 90
        2
176
     1
 90
        0
176
     1
 90
        0
176
     1
 40
0.6
176
     1
 40
30.0
176
     1
 62
     7
420
 16777215
176
     1
 90
        1
176
     1
 90
        4
176
     1
 62
     7
176
     1
 62
   257
176
     1
 90
        7
176
     1
 90
        7
176
     1
 40
1.0
176
     1
 90
        8
176
     1
 62
     7
176
     1
 40
1.0
176
     1
 90
        1
176
     1
 90
        6
176
     1
 90
        2
176
     1
 62
     7
176
     1
 90
        5
176
     1
 90
        0
176
     1
 90
        0
176
     1
290
     0
176
     1
 90
        1
176
     1
 40
0.0
176
     1
 90
        0
176
     1
290
     0
176
     1
290
     1
176
     1
290
     1
176
     1
290
     0
176
     1
290
     0
176
     1
290
     0
176
     1
290
     0
176
     1
290
     0
176
     1
290
     0
176
     1
 90
       50
176
     1
 40
0.0
176
     1
 40
1.0
176
     1
 90
        0
176
     1
 62
    18
420
        0
176
     1
 90
       50
176
     1
 90
        3
176
     1
 62
     5
420
      255
176
     1
290
     0
176
     1
 90
       50
176
     1
 90
       50
176
     1
 90
       50
176
     1
290
     0
176
     1
 90
       50
176
     1
 62
   256
176
     0
 40
1.0
176
     0
 90
        2
176
     1
  1
strokes_ogs.tif
176
     1
290
     0
176
     1
 40
1.0
176
     1
 40
1.0
176
     1
  0
VISUALSTYLE
  5
40
102
{ACAD_REACTORS
330
29
102
}
330
29
100
AcDbVisualStyle
  2
OverhangOff
 70
    21
177
     3
291
     1
 70
    58
 90
        2
176
     0
 90
        2
176
     0
 90
        0
176
     0
 90
        0
176
     0
 40
0.6
176
     0
 40
30.0
176
     0
 62
     7
420
 16777215
176
     0
 90
        1
176
     0
 90
        4
176
     0
 62
     7
176
     0
 62
   257
176
     0
 90
        1
176
     0
 90
        1
176
     0
 40
1.0
176
     0
 90
        9
176
     2
 62
     7
176
     0
 40
1.0
176
     0
 90
        1
176
     0
 90
        6
176
     0
 90
        2
176
     0
 62
     7
176
     0
 90
        5
176
     0
 90
        0
176
     0
 90
        0
176
     0
290
     0
176
     0
 90
        1
176
     0
 40
0.0
176
     0
 90
        0
176
     0
290
     0
176
     0
290
     1
176
     0
290
     1
176
     0
290
     0
176
     0
290
     0
176
     0
290
     0
176
     0
290
     0
176
     0
290
     0
176
     0
290
     0
176
     0
 90
       50
176
     0
 40
0.0
176
     0
 40
1.0
176
     0
 90
        0
176
     0
 62
    18
420
        0
176
     0
 90
       50
176
     0
 90
        3
176
     0
 62
     5
420
      255
176
     0
290
     0
176
     0
 90
       50
176
     0
 90
       50
176
     0
 90
       50
176
     0
290
     0
176
     0
 90
       50
176
     0
 62
   256
176
     0
 40
1.0
176
     0
 90
        2
176
     0
  1
strokes_ogs.tif
176
     0
290
     0
176
     0
 40
1.0
176
     0
 40
1.0
176
     0
  0
VISUALSTYLE
  5
33
102
{ACAD_REACTORS
330
29
102
}
330
29
100
AcDbVisualStyle
  2
Realistic
 70
     8
177
     3
291
     0
 70
    58
 90
        2
176
     1
 90
        3
176
     1
 90
        0
176
     1
 90
        2
176
     1
 40
0.6
176
     1
 40
30.0
176
     1
 62
     7
420
 16777215
176
     1
 90
        0
176
     1
 90
        0
176
     1
 62
     7
176
     1
 62
   257
176
     1
 90
        1
176
     1
 90
        1
176
     1
 40
1.0
176
     1
 90
        8
176
     1
 62
   257
176
     1
 40
1.0
176
     1
 90
        1
176
     1
 90
        6
176
     1
 90
        2
176
     1
 62
     7
176
     1
 90
        3
176
     1
 90
        0
176
     1
 90
        0
176
     1
290
     0
176
     1
 90
       13
176
     1
 40
0.0
176
     1
 90
        0
176
     1
290
     0
176
     1
290
     1
176
     1
290
     1
176
     1
290
     0
176
     1
290
     0
176
     1
290
     0
176
     1
290
     0
176
     1
290
     0
176
     1
290
     0
176
     1
 90
       50
176
     1
 40
0.0
176
     1
 40
1.0
176
     1
 90
        0
176
     1
 62
    18
420
        0
176
     1
 90
       50
176
     1
 90
        3
176
     1
 62
     5
420
      255
176
     1
290
     0
176
     1
 90
       50
176
     1
 90
       50
176
     1
 90
       50
176
     1
290
     0
176
     1
 90
       50
176
     1
 62
   256
176
     0
 40
1.0
176
     0
 90
        2
176
     1
  1
strokes_ogs.tif
176
     1
290
     0
176
     1
 40
1.0
176
     1
 40
1.0
176
     1
  0
VISUALSTYLE
  5
3E
102
{ACAD_REACTORS
330
29
102
}
330
29
100
AcDbVisualStyle
  2
Shaded
 70
    27
177
     3
291
     0
 70
    58
 90
        2
176
     1
 90
        2
176
     1
 90
        1
176
     1
 90
        2
176
     1
 40
0.6
176
     1
 40
30.0
176
     1
 62
     7
420
 16777215
176
     1
 90
        0
176
     1
 90
        4
176
     1
 62
     7
176
     1
 62
   257
176
     1
 90
        1
176
     1
 90
        1
176
     1
 40
1.0
176
     1
 90
        8
176
     1
 62
   257
176
     1
 40
1.0
176
     1
 90
        1
176
     1
 90
        6
176
     1
 90
        2
176
     1
 62
     8
420
  7895160
176
     1
 90
        3
176
     1
 90
        0
176
     1
 90
        0
176
     1
290
     0
176
     1
 90
        5
176
     1
 40
0.0
176
     1
 90
        0
176
     1
290
     0
176
     1
290
     1
176
     1
290
     1
176
     1
290
     0
176
     1
290
     0
176
     1
290
     0
176
     1
290
     0
176
     1
290
     0
176
     1
290
     0
176
     1
 90
       50
176
     1
 40
0.0
176
     1
 40
1.0
176
     1
 90
        0
176
     1
 62
    18
420
        0
176
     1
 90
       50
176
     1
 90
        3
176
     1
 62
     5
420
      255
176
     1
290
     0
176
     1
 90
       50
176
     1
 90
       50
176
     1
 90
       50
176
     1
290
     0
176
     1
 90
       50
176
     1
 62
   256
176
     0
 40
1.0
176
     0
 90
        2
176
     1
  1
strokes_ogs.tif
176
     1
290
     0
176
     1
 40
1.0
176
     1
 40
1.0
176
     1
  0
VISUALSTYLE
  5
3D
102
{ACAD_REACTORS
330
29
102
}
330
29
100
AcDbVisualStyle
  2
Shaded with edges
 70
    26
177
     3
291
     0
 70
    58
 90
        2
176
     1
 90
        2
176
     1
 90
        1
176
     1
 90
        2
176
     1
 40
0.6
176
     1
 40
30.0
176
     1
 62
     7
420
 16777215
176
     1
 90
        1
176
     1
 90
       10
176
     1
 62
     7
176
     1
 62
   257
176
     1
 90
        2
176
     1
 90
        1
176
     1
 40
1.0
176
     1
 90
        8
176
     1
 62
   257
176
     1
 40
1.0
176
     1
 90
        1
176
     1
 90
        6
176
     1
 90
        2
176
     1
 62
     7
176
     1
 90
        3
176
     1
 90
        0
176
     1
 90
        0
176
     1
290
     0
176
     1
 90
        5
176
     1
 40
0.0
176
     1
 90
        0
176
     1
290
     0
176
     1
290
     1
176
     1
290
     1
176
     1
290
     0
176
     1
290
     0
176
     1
290
     0
176
     1
290
     0
176
     1
290
     0
176
     1
290
     0
176
     1
 90
       50
176
     1
 40
0.0
176
     1
 40
1.0
176
     1
 90
        0
176
     1
 62
    18
420
        0
176
     1
 90
       50
176
     1
 90
        3
176
     1
 62
     5
420
      255
176
     1
290
     0
176
     1
 90
       50
176
     1
 90
       50
176
     1
 90
       50
176
     1
290
     0
176
     1
 90
       50
176
     1
 62
   256
176
     0
 40
1.0
176
     0
 90
        2
176
     1
  1
strokes_ogs.tif
176
     1
290
     0
176
     1
 40
1.0
176
     1
 40
1.0
176
     1
  0
VISUALSTYLE
  5
3A
102
{ACAD_REACTORS
330
29
102
}
330
29
100
AcDbVisualStyle
  2
Shades of Gray
 70
    23
177
     3
291
     0
 70
    58
 90
        2
176
     1
 90
        2
176
     1
 90
        3
176
     1
 90
        0
176
     1
 40
0.6
176
     1
 40
30.0
176
     1
 62
     7
420
 16777215
176
     1
 90
        2
176
     1
 90
        2
176
     1
 62
     7
176
     1
 62
     7
176
     1
 90
        1
176
     1
 90
        1
176
     1
 40
40.0
176
     1
 90
        8
176
     1
 62
     7
176
     1
 40
1.0
176
     1
 90
        1
176
     1
 90
        6
176
     1
 90
        2
176
     1
 62
     7
176
     1
 90
        3
176
     1
 90
        0
176
     1
 90
        0
176
     1
290
     0
176
     1
 90
        1
176
     1
 40
0.0
176
     1
 90
        0
176
     1
290
     0
176
     1
290
     1
176
     1
290
     1
176
     1
290
     0
176
     1
290
     0
176
     1
290
     0
176
     1
290
     0
176
     1
290
     0
176
     1
290
     0
176
     1
 90
       50
176
     1
 40
0.0
176
     1
 40
1.0
176
     1
 90
        0
176
     1
 62
    18
420
        0
176
     1
 90
       50
176
     1
 90
        3
176
     1
 62
     5
420
      255
176
     1
290
     0
176
     1
 90
       50
176
     1
 90
       50
176
     1
 90
       50
176
     1
290
     0
176
     1
 90
       50
176
     1
 62
   256
176
     0
 40
1.0
176
     0
 90
        2
176
     1
  1
strokes_ogs.tif
176
     1
290
     0
176
     1
 40
1.0
176
     1
 40
1.0
176
     1
  0
VISUALSTYLE
  5
3B
102
{ACAD_REACTORS
330
29
102
}
330
29
100
AcDbVisualStyle
  2
Sketchy
 70
    24
177
     3
291
     0
 70
    58
 90
        1
176
     1
 90
        2
176
     1
 90
        2
176
     1
 90
        0
176
     1
 40
0.6
176
     1
 40
30.0
176
     1
 62
     7
420
 16777215
176
     1
 90
        2
176
     1
 90
        2
176
     1
 62
     7
176
     1
 62
     7
176
     1
 90
        1
176
     1
 90
        1
176
     1
 40
40.0
176
     1
 90
       11
176
     1
 62
     7
176
     1
 40
1.0
176
     1
 90
        1
176
     1
 90
        6
176
     1
 90
        2
176
     1
 62
     7
176
     1
 90
        6
176
     1
 90
        0
176
     1
 90
        0
176
     1
290
     0
176
     1
 90
        1
176
     1
 40
0.0
176
     1
 90
        0
176
     1
290
     0
176
     1
290
     1
176
     1
290
     1
176
     1
290
     0
176
     1
290
     0
176
     1
290
     0
176
     1
290
     0
176
     1
290
     0
176
     1
290
     0
176
     1
 90
       50
176
     1
 40
0.0
176
     1
 40
1.0
176
     1
 90
        0
176
     1
 62
    18
420
        0
176
     1
 90
       50
176
     1
 90
        3
176
     1
 62
     5
420
      255
176
     1
290
     0
176
     1
 90
       50
176
     1
 90
       50
176
     1
 90
       50
176
     1
290
     0
176
     1
 90
       50
176
     1
 62
   256
176
     0
 40
1.0
176
     0
 90
        2
176
     1
  1
strokes_ogs.tif
176
     1
290
     0
176
     1
 40
1.0
176
     1
 40
1.0
176
     1
  0
VISUALSTYLE
  5
36
102
{ACAD_REACTORS
330
29
102
}
330
29
100
AcDbVisualStyle
  2
Thicken
 70
    13
177
     3
291
     1
 70
    58
 90
        2
176
     1
 90
        2
176
     1
 90
        0
176
     1
 90
        0
176
     1
 40
0.6
176
     1
 40
30.0
176
     1
 62
     7
420
 16777215
176
     1
 90
        1
176
     1
 90
        4
176
     1
 62
     7
176
     1
 62
   257
176
     1
 90
        1
176
     1
 90
        1
176
     1
 40
1.0
176
     1
 90
       12
176
     1
 62
     7
176
     1
 40
1.0
176
     1
 90
        1
176
     1
 90
        6
176
     1
 90
        2
176
     1
 62
     7
176
     1
 90
        5
176
     1
 90
        0
176
     1
 90
        0
176
     1
290
     0
176
     1
 90
        1
176
     1
 40
0.0
176
     1
 90
        0
176
     1
290
     0
176
     1
290
     1
176
     1
290
     1
176
     1
290
     0
176
     1
290
     0
176
     1
290
     0
176
     1
290
     0
176
     1
290
     0
176
     1
290
     0
176
     1
 90
       50
176
     1
 40
0.0
176
     1
 40
1.0
176
     1
 90
        0
176
     1
 62
    18
420
        0
176
     1
 90
       50
176
     1
 90
        3
176
     1
 62
     5
420
      255
176
     1
290
     0
176
     1
 90
       50
176
     1
 90
       50
176
     1
 90
       50
176
     1
290
     0
176
     1
 90
       50
176
     1
 62
   256
176
     0
 40
1.0
176
     0
 90
        2
176
     1
  1
strokes_ogs.tif
176
     1
290
     0
176
     1
 40
1.0
176
     1
 40
1.0
176
     1
  0
VISUALSTYLE
  5
30
102
{ACAD_REACTORS
330
29
102
}
330
29
100
AcDbVisualStyle
  2
Wireframe
 70
     5
177
     3
291
     0
 70
    58
 90
        0
176
     1
 90
        2
176
     1
 90
        0
176
     1
 90
        0
176
     1
 40
0.6
176
     1
 40
30.0
176
     1
 62
     7
420
 16777215
176
     1
 90
        1
176
     1
 90
        4
176
     1
 62
     7
176
     1
 62
   257
176
     1
 90
        1
176
     1
 90
        1
176
     1
 40
1.0
176
     1
 90
        0
176
     1
 62
   257
176
     1
 40
1.0
176
     1
 90
        1
176
     1
 90
        6
176
     1
 90
        2
176
     1
 62
     7
176
     1
 90
        3
176
     1
 90
        0
176
     1
 90
        0
176
     1
290
     0
176
     1
 90
        1
176
     1
 40
0.0
176
     1
 90
        0
176
     1
290
     0
176
     1
290
     1
176
     1
290
     1
176
     1
290
     0
176
     1
290
     0
176
     1
290
     0
176
     1
290
     0
176
     1
290
     0
176
     1
290
     0
176
     1
 90
       50
176
     1
 40
0.0
176
     1
 40
1.0
176
     1
 90
        0
176
     1
 62
    18
420
        0
176
     1
 90
       50
176
     1
 90
        3
176
     1
 62
     5
420
      255
176
     1
290
     0
176
     1
 90
       50
176
     1
 90
       50
176
     1
 90
       50
176
     1
290
     0
176
     1
 90
       50
176
     1
 62
   256
176
     0
 40
1.0
176
     0
 90
        2
176
     1
  1
strokes_ogs.tif
176
     1
290
     0
176
     1
 40
1.0
176
     1
 40
1.0
176
     1
  0
VISUALSTYLE
  5
3C
102
{ACAD_REACTORS
330
29
102
}
330
29
100
AcDbVisualStyle
  2
X-Ray
 70
    25
177
     3
291
     0
 70
    58
 90
        2
176
     1
 90
        2
176
     1
 90
        1
176
     1
 90
        1
176
     1
 40
0.5
176
     1
 40
30.0
176
     1
 62
     7
420
 16777215
176
     1
 90
        1
176
     1
 90
        0
176
     1
 62
     7
176
     1
 62
   257
176
     1
 90
        1
176
     1
 90
        1
176
     1
 40
1.0
176
     1
 90
        8
176
     1
 62
     7
176
     1
 40
1.0
176
     1
 90
        1
176
     1
 90
        6
176
     1
 90
        2
176
     1
 62
     7
176
     1
 90
        3
176
     1
 90
        0
176
     1
 90
        0
176
     1
290
     0
176
     1
 90
       13
176
     1
 40
0.0
176
     1
 90
        0
176
     1
290
     0
176
     1
290
     1
176
     1
290
     1
176
     1
290
     0
176
     1
290
     0
176
     1
290
     0
176
     1
290
     0
176
     1
290
     0
176
     1
290
     0
176
     1
 90
       50
176
     1
 40
0.0
176
     1
 40
1.0
176
     1
 90
        0
176
     1
 62
    18
420
        0
176
     1
 90
       50
176
     1
 90
        3
176
     1
 62
     5
420
      255
176
     1
290
     0
176
     1
 90
       50
176
     1
 90
       50
176
     1
 90
       50
176
     1
290
     0
176
     1
 90
       50
176
     1
 62
   256
176
     0
 40
1.0
176
     0
 90
        2
176
     1
  1
strokes_ogs.tif
176
     1
290
     0
176
     1
 40
1.0
176
     1
 40
1.0
176
     1
  0
DICTIONARYVAR
  5
114
102
{ACAD_REACTORS
330
10F
102
}
330
10F
100
DictionaryVariables
280
     0
  1
1:1
  0
DICTIONARYVAR
  5
111
102
{ACAD_REACTORS
330
10F
102
}
330
10F
100
DictionaryVariables
280
     0
  1
STANDARD
  0
DICTIONARYVAR
  5
110
102
{ACAD_REACTORS
330
10F
102
}
330
10F
100
DictionaryVariables
280
     0
  1
STANDARD
  0
DICTIONARYVAR
  5
112
102
{ACAD_REACTORS
330
10F
102
}
330
10F
100
DictionaryVariables
280
     0
  1
Imperial24
  0
DICTIONARYVAR
  5
113
102
{ACAD_REACTORS
330
10F
102
}
330
10F
100
DictionaryVariables
280
     0
  1
Imperial24
  0
XRECORD
  5
106
102
{ACAD_REACTORS
330
103
102
}
330
103
100
AcDbXrecord
280
     1
  1
BUILDING_ID
  1
Valve_Trim-DXV-Fitzgerald-D35160527_Series
  1
FLOOR_ID
  1
1884
  0
XRECORD
  5
104
102
{ACAD_REACTORS
330
103
102
}
330
103
100
AcDbXrecord
280
     1
  1
-2000051
  1
Lines
  1
-2001160
  1
Plumbing Fixtures
  1
-2007000
  1
Connector Element
  0
XRECORD
  5
105
102
{ACAD_REACTORS
330
103
102
}
330
103
100
AcDbXrecord
280
     1
  1
-2000287
  1
<Beyond>
  0
DICTIONARY
  5
10C
330
6B
100
AcDbDictionary
280
     1
281
     1
  3
ACAD_XREC_ROUNDTRIP
360
818
  0
DICTIONARY
  5
1A
330
19
100
AcDbDictionary
280
     1
281
     1
  3
BUMPTILE
360
1C
  3
DIFFUSETILE
360
1B
  3
OPACITYTILE
360
1F
  3
REFLECTIONTILE
360
1E
  3
REFRACTIONTILE
360
20
  3
SPECULARTILE
360
1D
  0
DICTIONARY
  5
12
330
11
100
AcDbDictionary
280
     1
281
     1
  3
BUMPTILE
360
14
  3
DIFFUSETILE
360
13
  3
OPACITYTILE
360
17
  3
REFLECTIONTILE
360
16
  3
REFRACTIONTILE
360
18
  3
SPECULARTILE
360
15
  0
DICTIONARY
  5
22
330
21
100
AcDbDictionary
280
     1
281
     1
  3
BUMPTILE
360
24
  3
DIFFUSETILE
360
23
  3
OPACITYTILE
360
27
  3
REFLECTIONTILE
360
26
  3
REFRACTIONTILE
360
28
  3
SPECULARTILE
360
25
  0
DICTIONARY
  5
10A
330
69
100
AcDbDictionary
280
     1
281
     1
  3
ACAD_XREC_ROUNDTRIP
360
817
  0
DICTIONARY
  5
815
330
65
100
AcDbDictionary
280
     1
281
     1
  3
ACAD_ROUNDTRIP_2008_TABLESTYLE_CELLSTYLEMAP
360
816
  0
XRECORD
  5
818
102
{ACAD_REACTORS
330
10C
102
}
330
10C
100
AcDbXrecord
280
     1
102
DISPLAYNAME
  1
Imperial24
102
FLAGS
 90
        0
  0
XRECORD
  5
1C
102
{ACAD_REACTORS
330
1A
102
}
330
1A
100
AcDbXrecord
280
     1
270
     1
271
     1
  0
XRECORD
  5
1B
102
{ACAD_REACTORS
330
1A
102
}
330
1A
100
AcDbXrecord
280
     1
270
     1
271
     1
  0
XRECORD
  5
1F
102
{ACAD_REACTORS
330
1A
102
}
330
1A
100
AcDbXrecord
280
     1
270
     1
271
     1
  0
XRECORD
  5
1E
102
{ACAD_REACTORS
330
1A
102
}
330
1A
100
AcDbXrecord
280
     1
270
     1
271
     1
  0
XRECORD
  5
20
102
{ACAD_REACTORS
330
1A
102
}
330
1A
100
AcDbXrecord
280
     1
270
     1
271
     1
  0
XRECORD
  5
1D
102
{ACAD_REACTORS
330
1A
102
}
330
1A
100
AcDbXrecord
280
     1
270
     1
271
     1
  0
XRECORD
  5
14
102
{ACAD_REACTORS
330
12
102
}
330
12
100
AcDbXrecord
280
     1
270
     1
271
     1
  0
XRECORD
  5
13
102
{ACAD_REACTORS
330
12
102
}
330
12
100
AcDbXrecord
280
     1
270
     1
271
     1
  0
XRECORD
  5
17
102
{ACAD_REACTORS
330
12
102
}
330
12
100
AcDbXrecord
280
     1
270
     1
271
     1
  0
XRECORD
  5
16
102
{ACAD_REACTORS
330
12
102
}
330
12
100
AcDbXrecord
280
     1
270
     1
271
     1
  0
XRECORD
  5
18
102
{ACAD_REACTORS
330
12
102
}
330
12
100
AcDbXrecord
280
     1
270
     1
271
     1
  0
XRECORD
  5
15
102
{ACAD_REACTORS
330
12
102
}
330
12
100
AcDbXrecord
280
     1
270
     1
271
     1
  0
XRECORD
  5
24
102
{ACAD_REACTORS
330
22
102
}
330
22
100
AcDbXrecord
280
     1
270
     1
271
     1
  0
XRECORD
  5
23
102
{ACAD_REACTORS
330
22
102
}
330
22
100
AcDbXrecord
280
     1
270
     1
271
     1
  0
XRECORD
  5
27
102
{ACAD_REACTORS
330
22
102
}
330
22
100
AcDbXrecord
280
     1
270
     1
271
     1
  0
XRECORD
  5
26
102
{ACAD_REACTORS
330
22
102
}
330
22
100
AcDbXrecord
280
     1
270
     1
271
     1
  0
XRECORD
  5
28
102
{ACAD_REACTORS
330
22
102
}
330
22
100
AcDbXrecord
280
     1
270
     1
271
     1
  0
XRECORD
  5
25
102
{ACAD_REACTORS
330
22
102
}
330
22
100
AcDbXrecord
280
     1
270
     1
271
     1
  0
XRECORD
  5
817
102
{ACAD_REACTORS
330
10A
102
}
330
10A
100
AcDbXrecord
280
     1
102
DISPLAYNAME
  1
Imperial24
102
FLAGS
 90
        0
  0
CELLSTYLEMAP
  5
816
102
{ACAD_REACTORS
330
815
102
}
330
815
100
AcDbCellStyleMap
 90
        3
300
CELLSTYLE
  1
TABLEFORMAT_BEGIN
 90
        5
170
     1
 91
        0
 92
    32768
 62
   257
 93
        1
300
CONTENTFORMAT
  1
CONTENTFORMAT_BEGIN
 90
        0
 91
        0
 92
      512
 93
        0
300

 40
0.0
140
1.0
 94
        5
 62
     0
340
55
144
0.25
309
CONTENTFORMAT_END
171
     0
 94
        0
309
TABLEFORMAT_END
  1
CELLSTYLE_BEGIN
 90
        1
 91
        1
300
_TITLE
309
CELLSTYLE_END
300
CELLSTYLE
  1
TABLEFORMAT_BEGIN
 90
        5
170
     1
 91
        0
 92
        0
 62
   257
 93
        1
300
CONTENTFORMAT
  1
CONTENTFORMAT_BEGIN
 90
        0
 91
        0
 92
      512
 93
        0
300

 40
0.0
140
1.0
 94
        5
 62
     0
340
55
144
0.18
309
CONTENTFORMAT_END
171
     0
 94
        0
309
TABLEFORMAT_END
  1
CELLSTYLE_BEGIN
 90
        2
 91
        1
300
_HEADER
309
CELLSTYLE_END
300
CELLSTYLE
  1
TABLEFORMAT_BEGIN
 90
        5
170
     1
 91
        0
 92
        0
 62
   257
 93
        1
300
CONTENTFORMAT
  1
CONTENTFORMAT_BEGIN
 90
        0
 91
        0
 92
      512
 93
        0
300

 40
0.0
140
1.0
 94
        2
 62
     0
340
55
144
0.18
309
CONTENTFORMAT_END
171
     0
 94
        0
309
TABLEFORMAT_END
  1
CELLSTYLE_BEGIN
 90
        3
 91
        2
300
_DATA
309
CELLSTYLE_END
  0
ENDSEC
  0
SECTION
  2
ACDSDATA
 70
     2
 71
     8
  0
ACDSSCHEMA
 90
        0
  1
AcDb_Thumbnail_Schema
  2
AcDbDs::ID
280
    10
 91
        8
  2
Thumbnail_Data
280
    15
 91
        0
101
ACDSRECORD
 95
        0
 90
        1
  2
AcDbDs::TreatedAsObjectData
280
     1
291
     1
101
ACDSRECORD
 95
        0
 90
        2
  2
AcDbDs::Legacy
280
     1
291
     1
101
ACDSRECORD
  1
AcDbDs::ID
 90
        3
  2
AcDs:Indexable
280
     1
291
     1
101
ACDSRECORD
  1
AcDbDs::ID
 90
        4
  2
AcDbDs::HandleAttribute
280
     7
282
     1
  0
ACDSSCHEMA
 90
        1
  1
AcDbDs::TreatedAsObjectDataSchema
  2
AcDbDs::TreatedAsObjectData
280
     1
 91
        0
  0
ACDSSCHEMA
 90
        2
  1
AcDbDs::LegacySchema
  2
AcDbDs::Legacy
280
     1
 91
        0
  0
ACDSSCHEMA
 90
        3
  1
AcDbDs::IndexedPropertySchema
  2
AcDs:Indexable
280
     1
 91
        0
  0
ACDSSCHEMA
 90
        4
  1
AcDbDs::HandleAttributeSchema
  2
AcDbDs::HandleAttribute
280
     7
 91
        1
284
     1
  0
ACDSRECORD
 90
        0
  2
AcDbDs::ID
280
    10
320
73
  2
Thumbnail_Data
280
    15
 94
     1397
310
89504E470D0A1A0A0000000D494844520000010000000084080300000048FA052E00000300504C5445212830000000C8C8C80000000000000000000000000000000000000000000000000000330000660000990000CC0000FF0033000033330033660033990033CC0033FF0066000066330066660066990066CC0066FF0099
310
000099330099660099990099CC0099FF00CC0000CC3300CC6600CC9900CCCC00CCFF00FF0000FF3300FF6600FF9900FFCC00FFFF3300003300333300663300993300CC3300FF3333003333333333663333993333CC3333FF3366003366333366663366993366CC3366FF3399003399333399663399993399CC3399FF33CC00
310
33CC3333CC6633CC9933CCCC33CCFF33FF0033FF3333FF6633FF9933FFCC33FFFF6600006600336600666600996600CC6600FF6633006633336633666633996633CC6633FF6666006666336666666666996666CC6666FF6699006699336699666699996699CC6699FF66CC0066CC3366CC6666CC9966CCCC66CCFF66FF0066
310
FF3366FF6666FF9966FFCC66FFFF9900009900339900669900999900CC9900FF9933009933339933669933999933CC9933FF9966009966339966669966999966CC9966FF9999009999339999669999999999CC9999FF99CC0099CC3399CC6699CC9999CCCC99CCFF99FF0099FF3399FF6699FF9999FFCC99FFFFCC0000CC00
310
33CC0066CC0099CC00CCCC00FFCC3300CC3333CC3366CC3399CC33CCCC33FFCC6600CC6633CC6666CC6699CC66CCCC66FFCC9900CC9933CC9966CC9999CC99CCCC99FFCCCC00CCCC33CCCC66CCCC99CCCCCCCCCCFFCCFF00CCFF33CCFF66CCFF99CCFFCCCCFFFFFF0000FF0033FF0066FF0099FF00CCFF00FFFF3300FF3333
310
FF3366FF3399FF33CCFF33FFFF6600FF6633FF6666FF6699FF66CCFF66FFFF9900FF9933FF9966FF9999FF99CCFF99FFFFCC00FFCC33FFCC66FFCC99FFCCCCFFCCFFFFFF00FFFF33FFFF66FFFF99FFFFCCFFFFFF0000000D0D0D1A1A1A2828283535354343435050505D5D5D6B6B6B787878868686939393A1A1A1AEAEAEBB
310
BBBBC9C9C9D6D6D6E4E4E4F1F1F1FFFFFF000000000000000000000000000000000000000000000000000000000000B21171F6000002304944415478DAED9DDB6EC4200C05FDFFFF7BDEAB6A8138DB8B2AB0DA3DF5CC53B70F51188C9760C246C0EFA26F6862E00B09CDE3A0DF4808A53F15CD05B44C86B3D94DDB8F80F602
310
56E653D3F62300018FB1DF3605CCAE6F1B00D774B8FB8361EB27E3D62920821CD03C09900401000000000000000000000000000000000000000000000000000000E02F297CD3D5F3D5D9AAFB4D0DF7725074B3F7CB3819A8B9D70F57F1515072A7E322390718095059FBE7472B030569FB6AFF08002B033A3FFEF0DEFE7705
310
321370380EE60152A9FD4606467FA5ECA5BD00D03845E78A291F019A87603DFA4FBB01F03408FC22606F2E9B046885829D8094D077048C466B65C390CB64A844C0E875DD3F879580A321303B3D45403809C85F01BB02520E58B321CB08D8FA1A9C02F292809580ABD7374EC353248523A2C26D08A4D61C0BD09A069908B8C5
310
FC81809106D6E1B23E023E6FCD8680A723D66D86409D80BB0B0420C051807422202F8E23C052C0DE82907EFE6F04200001084000025EF769F04C405E4FB25A0F2812A0A7F2B0D39A6081806B25506E026E23617B4D709607639545DC2260BF34B614BA2E8A86745A17B82F8BFB0D81F4A5D8B030722EE01F94C6E2A83AFC79
310
71345C045CCD2E298FA72C601401A934D67083449A056CCC0366CECFA5312F0167A5B1DB26A9700B8082D2D80801A5D298BC04C4A1806B9F58A4AD313E3B450B9EE29567119BBBEDAC052403763F3C5A23209EF60418BD30502420F2BE20E737460E1647247E6FEF157803F2FFBD36961522FD0000000049454E44AE426082
  0
ENDSEC
  0
EOF
