  0
SECTION
  2
HEADER
  9
$ACADVER
  1
AC1027
  9
$ACADMAINTVER
 70
   105
  9
$DWGCODEPAGE
  3
ANSI_1252
  9
$LASTSAVEDBY
  1
Ibrahim
  9
$REQUIREDVERSIONS
160
                 0
  9
$INSBASE
 10
0.0
 20
0.0
 30
0.0
  9
$EXTMIN
 10
-11.54296848404072
 20
-5.881347383700301
 30
-0.0000000000022887
  9
$EXTMAX
 10
1.875000169821134
 20
14.61181659089817
 30
0.0000000000000001
  9
$LIMMIN
 10
0.0
 20
0.0
  9
$LIMMAX
 10
12.0
 20
9.0
  9
$ORTHOMODE
 70
     1
  9
$REGENMODE
 70
     1
  9
$FILLMODE
 70
     1
  9
$QTEXTMODE
 70
     0
  9
$MIRRTEXT
 70
     0
  9
$LTSCALE
 40
1.0
  9
$ATTMODE
 70
     1
  9
$TEXTSIZE
 40
0.2
  9
$TRACEWID
 40
0.05
  9
$TEXTSTYLE
  7
Standard
  9
$CLAYER
  8
D35160537
  9
$CELTYPE
  6
ByLayer
  9
$CECOLOR
 62
   256
  9
$CELTSCALE
 40
1.0
  9
$DISPSILH
 70
     0
  9
$DIMSCALE
 40
1.0
  9
$DIMASZ
 40
0.18
  9
$DIMEXO
 40
0.0625
  9
$DIMDLI
 40
0.38
  9
$DIMRND
 40
0.0
  9
$DIMDLE
 40
0.0
  9
$DIMEXE
 40
0.18
  9
$DIMTP
 40
0.0
  9
$DIMTM
 40
0.0
  9
$DIMTXT
 40
0.18
  9
$DIMCEN
 40
0.09
  9
$DIMTSZ
 40
0.0
  9
$DIMTOL
 70
     0
  9
$DIMLIM
 70
     0
  9
$DIMTIH
 70
     1
  9
$DIMTOH
 70
     1
  9
$DIMSE1
 70
     0
  9
$DIMSE2
 70
     0
  9
$DIMTAD
 70
     0
  9
$DIMZIN
 70
     0
  9
$DIMBLK
  1

  9
$DIMASO
 70
     1
  9
$DIMSHO
 70
     1
  9
$DIMPOST
  1

  9
$DIMAPOST
  1

  9
$DIMALT
 70
     0
  9
$DIMALTD
 70
     2
  9
$DIMALTF
 40
25.4
  9
$DIMLFAC
 40
1.0
  9
$DIMTOFL
 70
     0
  9
$DIMTVP
 40
0.0
  9
$DIMTIX
 70
     0
  9
$DIMSOXD
 70
     0
  9
$DIMSAH
 70
     0
  9
$DIMBLK1
  1

  9
$DIMBLK2
  1

  9
$DIMSTYLE
  2
Standard
  9
$DIMCLRD
 70
     0
  9
$DIMCLRE
 70
     0
  9
$DIMCLRT
 70
     0
  9
$DIMTFAC
 40
1.0
  9
$DIMGAP
 40
0.09
  9
$DIMJUST
 70
     0
  9
$DIMSD1
 70
     0
  9
$DIMSD2
 70
     0
  9
$DIMTOLJ
 70
     1
  9
$DIMTZIN
 70
     0
  9
$DIMALTZ
 70
     0
  9
$DIMALTTZ
 70
     0
  9
$DIMUPT
 70
     0
  9
$DIMDEC
 70
     4
  9
$DIMTDEC
 70
     4
  9
$DIMALTU
 70
     4
  9
$DIMALTTD
 70
     2
  9
$DIMTXSTY
  7
Standard
  9
$DIMAUNIT
 70
     0
  9
$DIMADEC
 70
     0
  9
$DIMALTRND
 40
0.0
  9
$DIMAZIN
 70
     0
  9
$DIMDSEP
 70
    46
  9
$DIMATFIT
 70
     3
  9
$DIMFRAC
 70
     0
  9
$DIMLDRBLK
  1

  9
$DIMLUNIT
 70
     4
  9
$DIMLWD
 70
    -2
  9
$DIMLWE
 70
    -2
  9
$DIMTMOVE
 70
     0
  9
$DIMFXL
 40
1.0
  9
$DIMFXLON
 70
     0
  9
$DIMJOGANG
 40
0.7853981633974483
  9
$DIMTFILL
 70
     0
  9
$DIMTFILLCLR
 70
     0
  9
$DIMARCSYM
 70
     0
  9
$DIMLTYPE
  6

  9
$DIMLTEX1
  6

  9
$DIMLTEX2
  6

  9
$DIMTXTDIRECTION
 70
     0
  9
$LUNITS
 70
     4
  9
$LUPREC
 70
     4
  9
$SKETCHINC
 40
0.1
  9
$FILLETRAD
 40
0.0
  9
$AUNITS
 70
     0
  9
$AUPREC
 70
     0
  9
$MENU
  1
.
  9
$ELEVATION
 40
0.0
  9
$PELEVATION
 40
0.0
  9
$THICKNESS
 40
0.0
  9
$LIMCHECK
 70
     0
  9
$CHAMFERA
 40
0.0
  9
$CHAMFERB
 40
0.0
  9
$CHAMFERC
 40
0.0
  9
$CHAMFERD
 40
0.0
  9
$SKPOLY
 70
     0
  9
$TDCREATE
 40
2458418.400109525
  9
$TDUCREATE
 40
2458418.566776192
  9
$TDUPDATE
 40
2458425.388950440
  9
$TDUUPDATE
 40
2458425.555617107
  9
$TDINDWG
 40
0.0115693750
  9
$TDUSRTIMER
 40
0.0115693750
  9
$USRTIMER
 70
     1
  9
$ANGBASE
 50
0.0
  9
$ANGDIR
 70
     0
  9
$PDMODE
 70
     0
  9
$PDSIZE
 40
0.0
  9
$PLINEWID
 40
0.0
  9
$SPLFRAME
 70
     0
  9
$SPLINETYPE
 70
     6
  9
$SPLINESEGS
 70
     8
  9
$HANDSEED
  5
AB1
  9
$SURFTAB1
 70
     6
  9
$SURFTAB2
 70
     6
  9
$SURFTYPE
 70
     6
  9
$SURFU
 70
     6
  9
$SURFV
 70
     6
  9
$UCSBASE
  2

  9
$UCSNAME
  2

  9
$UCSORG
 10
0.0
 20
0.0
 30
0.0
  9
$UCSXDIR
 10
1.0
 20
0.0
 30
0.0
  9
$UCSYDIR
 10
0.0
 20
1.0
 30
0.0
  9
$UCSORTHOREF
  2

  9
$UCSORTHOVIEW
 70
     0
  9
$UCSORGTOP
 10
0.0
 20
0.0
 30
0.0
  9
$UCSORGBOTTOM
 10
0.0
 20
0.0
 30
0.0
  9
$UCSORGLEFT
 10
0.0
 20
0.0
 30
0.0
  9
$UCSORGRIGHT
 10
0.0
 20
0.0
 30
0.0
  9
$UCSORGFRONT
 10
0.0
 20
0.0
 30
0.0
  9
$UCSORGBACK
 10
0.0
 20
0.0
 30
0.0
  9
$PUCSBASE
  2

  9
$PUCSNAME
  2

  9
$PUCSORG
 10
0.0
 20
0.0
 30
0.0
  9
$PUCSXDIR
 10
1.0
 20
0.0
 30
0.0
  9
$PUCSYDIR
 10
0.0
 20
1.0
 30
0.0
  9
$PUCSORTHOREF
  2

  9
$PUCSORTHOVIEW
 70
     0
  9
$PUCSORGTOP
 10
0.0
 20
0.0
 30
0.0
  9
$PUCSORGBOTTOM
 10
0.0
 20
0.0
 30
0.0
  9
$PUCSORGLEFT
 10
0.0
 20
0.0
 30
0.0
  9
$PUCSORGRIGHT
 10
0.0
 20
0.0
 30
0.0
  9
$PUCSORGFRONT
 10
0.0
 20
0.0
 30
0.0
  9
$PUCSORGBACK
 10
0.0
 20
0.0
 30
0.0
  9
$USERI1
 70
     0
  9
$USERI2
 70
     0
  9
$USERI3
 70
     0
  9
$USERI4
 70
     0
  9
$USERI5
 70
     0
  9
$USERR1
 40
0.0
  9
$USERR2
 40
0.0
  9
$USERR3
 40
0.0
  9
$USERR4
 40
0.0
  9
$USERR5
 40
0.0
  9
$WORLDVIEW
 70
     1
  9
$SHADEDGE
 70
     3
  9
$SHADEDIF
 70
    70
  9
$TILEMODE
 70
     1
  9
$MAXACTVP
 70
    64
  9
$PINSBASE
 10
0.0
 20
0.0
 30
0.0
  9
$PLIMCHECK
 70
     0
  9
$PEXTMIN
 10
1.000000000000000E+20
 20
1.000000000000000E+20
 30
1.000000000000000E+20
  9
$PEXTMAX
 10
-1.000000000000000E+20
 20
-1.000000000000000E+20
 30
-1.000000000000000E+20
  9
$PLIMMIN
 10
0.0
 20
0.0
  9
$PLIMMAX
 10
12.0
 20
9.0
  9
$UNITMODE
 70
     0
  9
$VISRETAIN
 70
     1
  9
$PLINEGEN
 70
     0
  9
$PSLTSCALE
 70
     1
  9
$TREEDEPTH
 70
  3020
  9
$CMLSTYLE
  2
Standard
  9
$CMLJUST
 70
     0
  9
$CMLSCALE
 40
1.0
  9
$PROXYGRAPHICS
 70
     1
  9
$MEASUREMENT
 70
     0
  9
$CELWEIGHT
370
    -1
  9
$ENDCAPS
280
     0
  9
$JOINSTYLE
280
     0
  9
$LWDISPLAY
290
     0
  9
$INSUNITS
 70
     1
  9
$HYPERLINKBASE
  1

  9
$STYLESHEET
  1

  9
$XEDIT
290
     1
  9
$CEPSNTYPE
380
     0
  9
$PSTYLEMODE
290
     1
  9
$FINGERPRINTGUID
  2
{A4AEC23B-4C6F-49BE-B022-CABB62144224}
  9
$VERSIONGUID
  2
{81C22974-4934-4A51-8F09-F10F8A90EAC2}
  9
$EXTNAMES
290
     1
  9
$PSVPSCALE
 40
0.0
  9
$OLESTARTUP
290
     0
  9
$SORTENTS
280
   127
  9
$INDEXCTL
280
     0
  9
$HIDETEXT
280
     1
  9
$XCLIPFRAME
280
     2
  9
$HALOGAP
280
     0
  9
$OBSCOLOR
 70
   257
  9
$OBSLTYPE
280
     0
  9
$INTERSECTIONDISPLAY
280
     0
  9
$INTERSECTIONCOLOR
 70
   257
  9
$DIMASSOC
280
     2
  9
$PROJECTNAME
  1

  9
$CAMERADISPLAY
290
     0
  9
$LENSLENGTH
 40
50.0
  9
$CAMERAHEIGHT
 40
0.0
  9
$STEPSPERSEC
 40
2.0
  9
$STEPSIZE
 40
6.0
  9
$3DDWFPREC
 40
2.0
  9
$PSOLWIDTH
 40
0.25
  9
$PSOLHEIGHT
 40
4.0
  9
$LOFTANG1
 40
1.570796326794896
  9
$LOFTANG2
 40
1.570796326794896
  9
$LOFTMAG1
 40
0.0
  9
$LOFTMAG2
 40
0.0
  9
$LOFTPARAM
 70
     7
  9
$LOFTNORMALS
280
     1
  9
$LATITUDE
 40
0.0
  9
$LONGITUDE
 40
0.0
  9
$NORTHDIRECTION
 40
0.0
  9
$TIMEZONE
 70
     0
  9
$LIGHTGLYPHDISPLAY
280
     1
  9
$TILEMODELIGHTSYNCH
280
     1
  9
$CMATERIAL
347
11
  9
$SOLIDHIST
280
     0
  9
$SHOWHIST
280
     1
  9
$DWFFRAME
280
     2
  9
$DGNFRAME
280
     0
  9
$REALWORLDSCALE
290
     1
  9
$INTERFERECOLOR
 62
     1
  9
$INTERFEREOBJVS
345
33
  9
$INTERFEREVPVS
346
30
  9
$CSHADOW
280
     0
  9
$SHADOWPLANELOCATION
 40
0.0
  0
ENDSEC
  0
SECTION
  2
CLASSES
  0
CLASS
  1
ACDBDICTIONARYWDFLT
  2
AcDbDictionaryWithDefault
  3
ObjectDBX Classes
 90
        0
 91
        1
280
     0
281
     0
  0
CLASS
  1
MATERIAL
  2
AcDbMaterial
  3
ObjectDBX Classes
 90
     1153
 91
        3
280
     0
281
     0
  0
CLASS
  1
VISUALSTYLE
  2
AcDbVisualStyle
  3
ObjectDBX Classes
 90
     4095
 91
       24
280
     0
281
     0
  0
CLASS
  1
SCALE
  2
AcDbScale
  3
ObjectDBX Classes
 90
     1153
 91
       17
280
     0
281
     0
  0
CLASS
  1
TABLESTYLE
  2
AcDbTableStyle
  3
ObjectDBX Classes
 90
     4095
 91
        1
280
     0
281
     0
  0
CLASS
  1
MLEADERSTYLE
  2
AcDbMLeaderStyle
  3
ACDB_MLEADERSTYLE_CLASS
 90
     4095
 91
        1
280
     0
281
     0
  0
CLASS
  1
ACDBSECTIONVIEWSTYLE
  2
AcDbSectionViewStyle
  3
ObjectDBX Classes
 90
     1025
 91
        1
280
     0
281
     0
  0
CLASS
  1
ACDBDETAILVIEWSTYLE
  2
AcDbDetailViewStyle
  3
ObjectDBX Classes
 90
     1025
 91
        1
280
     0
281
     0
  0
CLASS
  1
RASTERVARIABLES
  2
AcDbRasterVariables
  3
ISM
 90
        0
 91
        1
280
     0
281
     0
  0
CLASS
  1
DICTIONARYVAR
  2
AcDbDictionaryVar
  3
ObjectDBX Classes
 90
        0
 91
        5
280
     0
281
     0
  0
CLASS
  1
SORTENTSTABLE
  2
AcDbSortentsTable
  3
ObjectDBX Classes
 90
        0
 91
        3
280
     0
281
     0
  0
CLASS
  1
CELLSTYLEMAP
  2
AcDbCellStyleMap
  3
ObjectDBX Classes
 90
     1152
 91
        1
280
     0
281
     0
  0
ENDSEC
  0
SECTION
  2
TABLES
  0
TABLE
  2
VPORT
  5
8
330
0
100
AcDbSymbolTable
 70
     1
  0
VPORT
  5
57
330
8
100
AcDbSymbolTableRecord
100
AcDbViewportTableRecord
  2
*Active
 70
     0
 10
0.0
 20
0.0
 11
1.0
 21
1.0
 12
0.2285157579796362
 22
4.365234603598935
 13
0.0
 23
0.0
 14
1.0
 24
1.0
 15
0.0
 25
0.0
 16
0.0
 26
0.0
 36
1.0
 17
0.0
 27
0.0
 37
0.0
 40
20.65843142600653
 41
1.927321668909824
 42
50.0
 43
0.0
 44
0.0
 50
0.0
 51
0.0
 71
     0
 72
  1000
 73
     1
 74
     1
 75
     0
 76
     0
 77
     0
 78
     0
281
     0
 65
     1
110
0.0
120
0.0
130
0.0
111
1.0
121
0.0
131
0.0
112
0.0
122
1.0
132
0.0
 79
     0
146
0.0
348
2F
 60
     3
 61
     5
292
     1
282
     1
141
0.0
142
0.0
 63
   250
421
  3355443
1001
ACAD_NAV_VCDISPLAY
1070
     3
  0
ENDTAB
  0
TABLE
  2
LTYPE
  5
5
330
0
100
AcDbSymbolTable
 70
     1
  0
LTYPE
  5
5B
330
5
100
AcDbSymbolTableRecord
100
AcDbLinetypeTableRecord
  2
ByBlock
 70
     0
  3

 72
    65
 73
     0
 40
0.0
  0
LTYPE
  5
5C
330
5
100
AcDbSymbolTableRecord
100
AcDbLinetypeTableRecord
  2
ByLayer
 70
     0
  3

 72
    65
 73
     0
 40
0.0
  0
LTYPE
  5
5D
330
5
100
AcDbSymbolTableRecord
100
AcDbLinetypeTableRecord
  2
Continuous
 70
     0
  3
Solid line
 72
    65
 73
     0
 40
0.0
  0
ENDTAB
  0
TABLE
  2
LAYER
  5
2
102
{ACAD_XDICTIONARY
360
A99
102
}
330
0
100
AcDbSymbolTable
 70
     4
  0
LAYER
  5
54
330
2
100
AcDbSymbolTableRecord
100
AcDbLayerTableRecord
  2
0
 70
     0
 62
     7
  6
Continuous
370
    -3
390
F
347
21
348
0
  0
LAYER
  5
86
330
2
100
AcDbSymbolTableRecord
100
AcDbLayerTableRecord
  2
D35160537
 70
     0
 62
     7
  6
Continuous
370
     9
390
F
347
21
348
0
  0
ENDTAB
  0
TABLE
  2
STYLE
  5
3
330
0
100
AcDbSymbolTable
 70
     3
  0
STYLE
  5
55
330
3
100
AcDbSymbolTableRecord
100
AcDbTextStyleTableRecord
  2
Standard
 70
     0
 40
0.0
 41
1.0
 50
0.0
 71
     0
 42
0.2
  3
txt
  4

  0
ENDTAB
  0
TABLE
  2
VIEW
  5
6
330
0
100
AcDbSymbolTable
 70
     2
  0
ENDTAB
  0
TABLE
  2
UCS
  5
7
330
0
100
AcDbSymbolTable
 70
     0
  0
ENDTAB
  0
TABLE
  2
APPID
  5
9
330
0
100
AcDbSymbolTable
 70
     4
  0
APPID
  5
56
330
9
100
AcDbSymbolTableRecord
100
AcDbRegAppTableRecord
  2
ACAD
 70
     0
  0
APPID
  5
5E
330
9
100
AcDbSymbolTableRecord
100
AcDbRegAppTableRecord
  2
AcadAnnotative
 70
     0
  0
APPID
  5
78
330
9
100
AcDbSymbolTableRecord
100
AcDbRegAppTableRecord
  2
REVIT
 70
     0
  0
APPID
  5
14F
330
9
100
AcDbSymbolTableRecord
100
AcDbRegAppTableRecord
  2
ACAD_NAV_VCDISPLAY
 70
     0
  0
ENDTAB
  0
TABLE
  2
DIMSTYLE
  5
A
330
0
100
AcDbSymbolTable
 70
     2
100
AcDbDimStyleTable
 71
     0
  0
DIMSTYLE
105
58
330
A
100
AcDbSymbolTableRecord
100
AcDbDimStyleTableRecord
  2
Standard
 70
     0
340
55
  0
ENDTAB
  0
TABLE
  2
BLOCK_RECORD
  5
1
330
0
100
AcDbSymbolTable
 70
     8
  0
BLOCK_RECORD
  5
70
102
{ACAD_XDICTIONARY
360
11B
102
}
330
1
100
AcDbSymbolTableRecord
100
AcDbBlockTableRecord
  2
*Model_Space
340
73
 70
     0
280
     1
281
     0
  0
BLOCK_RECORD
  5
6C
330
1
100
AcDbSymbolTableRecord
100
AcDbBlockTableRecord
  2
*Paper_Space
340
6F
 70
     0
280
     1
281
     0
  0
BLOCK_RECORD
  5
74
330
1
100
AcDbSymbolTableRecord
100
AcDbBlockTableRecord
  2
*Paper_Space0
340
77
 70
     0
280
     1
281
     0
  0
BLOCK_RECORD
  5
6E9
330
1
100
AcDbSymbolTableRecord
100
AcDbBlockTableRecord
  2
D35160537 Front View
340
0
310
28000000200000002000000001002000000000000010000001000000010000000000000000000000302821FF302821FF302821FF302821FF302821FF302821FF302821FF302821FF302821FF302821FF302821FF302821FF302821FF302821FF302821FF302821FF302821FF302821FF302821FF302821FF302821FF302821
310
FF302821FF302821FF302821FF302821FF302821FF302821FF302821FF302821FF302821FF302821FF302821FF302821FF302821FF302821FF302821FF302821FF302821FF302821FF302821FF302821FF302821FF302821FF302821FF302821FF302821FFFFFFFFFFFFFFFFFF302821FF302821FF302821FF302821FF3028
310
21FF302821FF302821FF302821FF302821FF302821FF302821FF302821FF302821FF302821FF302821FF302821FF302821FF302821FF302821FF302821FF302821FF302821FF302821FF302821FF302821FF302821FF302821FF302821FFFFFFFFFFFFFFFFFFFFFFFFFFFFFFFFFFFFFFFFFFFFFFFFFF302821FF302821FF30
310
2821FF302821FF302821FF302821FF302821FF302821FF302821FF302821FF302821FF302821FF302821FF302821FF302821FF302821FF302821FF302821FF302821FF302821FF302821FF302821FF302821FF302821FF302821FFFFFFFFFFFFFFFFFFFFFFFFFFFFFFFFFFFFFFFFFFFFFFFFFFFFFFFFFFFFFFFFFF302821FF
310
302821FF302821FF302821FF302821FF302821FF302821FF302821FF302821FF302821FF302821FF302821FF302821FF302821FF302821FF302821FF302821FF302821FF302821FF302821FF302821FF302821FF302821FFFFFFFFFFFFFFFFFFFFFFFFFFFFFFFFFFFFFFFFFFFFFFFFFFFFFFFFFFFFFFFFFFFFFFFFFFFFFFFF
310
FF302821FF302821FF302821FF302821FF302821FF302821FF302821FF302821FF302821FF302821FF302821FF302821FF302821FF302821FF302821FF302821FF302821FF302821FF302821FF302821FF302821FF302821FFFFFFFFFFFFFFFFFFFFFFFFFFFFFFFFFFFFFFFFFFFFFFFFFFFFFFFFFFFFFFFFFFFFFFFFFFFFFF
310
FFFF302821FF302821FF302821FF302821FF302821FF302821FF302821FF302821FF302821FF302821FF302821FF302821FF302821FF302821FF302821FF302821FF302821FF302821FF302821FF302821FF302821FF302821FFFFFFFFFFFFFFFFFFFFFFFFFFFFFFFFFF302821FF302821FFFFFFFFFFFFFFFFFFFFFFFFFFFF
310
FFFFFF302821FF302821FF302821FF302821FF302821FF302821FF302821FF302821FF302821FF302821FF302821FF302821FF302821FF302821FF302821FF302821FF302821FF302821FF302821FF302821FF302821FF302821FFFFFFFFFFFFFFFFFFFFFFFFFFFFFFFFFFFFFFFFFFFFFFFFFFFFFFFFFFFFFFFFFFFFFFFFFF
310
FFFFFFFF302821FF302821FF302821FF302821FF302821FF302821FF302821FF302821FF302821FF302821FF302821FF302821FF302821FF302821FF302821FF302821FF302821FF302821FF302821FF302821FF302821FF302821FFFFFFFFFFFFFFFFFF302821FFFFFFFFFFFFFFFFFFFFFFFFFFFFFFFFFF302821FFFFFFFF
310
FFFFFFFFFF302821FF302821FF302821FF302821FF302821FF302821FF302821FF302821FF302821FF302821FF302821FF302821FF302821FF302821FF302821FF302821FF302821FF302821FF302821FF302821FF302821FF302821FFFFFFFFFFFFFFFFFF302821FF302821FF302821FF302821FF302821FF302821FFFFFF
310
FFFFFFFFFFFF302821FF302821FF302821FF302821FF302821FF302821FF302821FF302821FF302821FF302821FF302821FF302821FF302821FF302821FF302821FF302821FF302821FF302821FF302821FF302821FF302821FF302821FFFFFFFFFFFFFFFFFF302821FF302821FF302821FF302821FF302821FF302821FFFF
310
FFFFFFFFFFFFFF302821FF302821FF302821FF302821FF302821FF302821FF302821FF302821FF302821FF302821FF302821FF302821FF302821FF302821FF302821FF302821FF302821FF302821FF302821FF302821FF302821FF302821FFFFFFFFFFFFFFFFFF302821FF302821FFFFFFFFFFFFFFFFFF302821FF302821FF
310
FFFFFFFFFFFFFFFF302821FF302821FF302821FF302821FF302821FF302821FF302821FF302821FF302821FF302821FF302821FF302821FF302821FF302821FF302821FF302821FF302821FF302821FF302821FF302821FF302821FF302821FFFFFFFFFFFFFFFFFF302821FF302821FFFFFFFFFFFFFFFFFF302821FF302821
310
FFFFFFFFFFFFFFFFFF302821FF302821FF302821FF302821FF302821FF302821FF302821FF302821FF302821FF302821FF302821FF302821FF302821FF302821FF302821FF302821FF302821FF302821FF302821FF302821FF302821FF302821FFFFFFFFFFFFFFFFFF302821FFFFFFFFFFFFFFFFFFFFFFFFFFFFFFFFFF3028
310
21FFFFFFFFFFFFFFFFFF302821FF302821FF302821FF302821FF302821FF302821FF302821FF302821FF302821FF302821FF302821FF302821FF302821FF302821FF302821FF302821FF302821FF302821FF302821FF302821FF302821FF302821FFFFFFFFFFFFFFFFFFFFFFFFFFFFFFFFFFFFFFFFFFFFFFFFFFFFFFFFFFFF
310
FFFFFFFFFFFFFFFFFFFFFF302821FF302821FF302821FF302821FF302821FF302821FF302821FF302821FF302821FF302821FF302821FF302821FF302821FF302821FF302821FF302821FF302821FF302821FF302821FF302821FF302821FF302821FFFFFFFFFFFFFFFFFFFFFFFFFFFFFFFFFFFFFFFFFFFFFFFFFFFFFFFFFF
310
FFFFFFFFFFFFFFFFFFFFFFFF302821FF302821FF302821FF302821FF302821FF302821FF302821FF302821FF302821FF302821FF302821FF302821FF302821FF302821FF302821FF302821FF302821FF302821FF302821FF302821FF302821FF302821FFFFFFFFFFFFFFFFFFFFFFFFFFFFFFFFFFFFFFFFFFFFFFFFFFFFFFFF
310
FFFFFFFFFFFFFFFFFFFFFFFFFF302821FF302821FF302821FF302821FF302821FF302821FF302821FF302821FF302821FF302821FF302821FF302821FF302821FF302821FF302821FF302821FF302821FF302821FF302821FF302821FF302821FF302821FFFFFFFFFFFFFFFFFFFFFFFFFFFFFFFFFFFFFFFFFFFFFFFFFFFFFF
310
FFFFFFFFFFFFFFFFFFFFFFFFFFFF302821FF302821FF302821FF302821FF302821FF302821FF302821FF302821FF302821FF302821FF302821FF302821FF302821FF302821FF302821FF302821FF302821FF302821FF302821FF302821FF302821FF302821FFFFFFFFFFFFFFFFFF302821FFFFFFFFFFFFFFFFFFFFFFFFFFFF
310
FFFFFF302821FFFFFFFFFFFFFFFFFF302821FF302821FF302821FF302821FF302821FF302821FF302821FF302821FF302821FF302821FF302821FF302821FF302821FF302821FF302821FF302821FF302821FF302821FF302821FF302821FF302821FF302821FFFFFFFFFFFFFFFFFF302821FF302821FF302821FF302821FF
310
302821FF302821FFFFFFFFFFFFFFFFFF302821FF302821FF302821FF302821FF302821FF302821FF302821FF302821FF302821FF302821FF302821FF302821FF302821FF302821FF302821FF302821FF302821FF302821FF302821FF302821FF302821FF302821FFFFFFFFFFFFFFFFFF302821FF302821FF302821FF302821
310
FF302821FF302821FFFFFFFFFFFFFFFFFF302821FF302821FF302821FF302821FF302821FF302821FF302821FF302821FF302821FF302821FF302821FF302821FF302821FF302821FF302821FF302821FF302821FF302821FF302821FF302821FF302821FF302821FFFFFFFFFFFFFFFFFF302821FF302821FFFFFFFFFFFFFF
310
FFFF302821FF302821FFFFFFFFFFFFFFFFFF302821FF302821FF302821FF302821FF302821FF302821FF302821FF302821FF302821FF302821FF302821FF302821FF302821FF302821FF302821FF302821FF302821FF302821FF302821FF302821FF302821FF302821FFFFFFFFFFFFFFFFFF302821FF302821FFFFFFFFFFFF
310
FFFFFF302821FF302821FFFFFFFFFFFFFFFFFF302821FF302821FF302821FF302821FF302821FF302821FF302821FF302821FF302821FF302821FF302821FF302821FF302821FF302821FF302821FF302821FF302821FF302821FF302821FF302821FF302821FF302821FFFFFFFFFFFFFFFFFF302821FFFFFFFFFFFFFFFFFF
310
FFFFFFFFFFFFFFFF302821FFFFFFFFFFFFFFFFFF302821FF302821FF302821FF302821FF302821FF302821FF302821FF302821FF302821FF302821FF302821FF302821FF302821FF302821FF302821FF302821FF302821FF302821FF302821FF302821FF302821FF302821FFFFFFFFFFFFFFFFFFFFFFFFFFFFFFFFFFFFFFFF
310
FFFFFFFFFFFFFFFFFFFFFFFFFFFFFFFFFFFFFFFFFF302821FF302821FF302821FF302821FF302821FF302821FF302821FF302821FF302821FF302821FF302821FF302821FF302821FF302821FF302821FF302821FF302821FF302821FF302821FF302821FF302821FF302821FFFFFFFFFFFFFFFFFFFFFFFFFFFFFFFFFF3028
310
21FF302821FFFFFFFFFFFFFFFFFFFFFFFFFFFFFFFFFF302821FF302821FF302821FF302821FF302821FF302821FF302821FF302821FF302821FF302821FF302821FF302821FF302821FF302821FF302821FF302821FF302821FF302821FF302821FF302821FF302821FF302821FFFFFFFFFFFFFFFFFFFFFFFFFFFFFFFFFFFF
310
FFFFFFFFFFFFFFFFFFFFFFFFFFFFFFFFFFFFFFFFFFFFFF302821FF302821FF302821FF302821FF302821FF302821FF302821FF302821FF302821FF302821FF302821FF302821FF302821FF302821FF302821FF302821FF302821FF302821FF302821FF302821FF302821FF302821FFFFFFFFFFFFFFFFFFFFFFFFFFFFFFFFFF
310
FFFFFFFFFFFFFFFFFFFFFFFFFFFFFFFFFFFFFFFFFFFFFFFF302821FF302821FF302821FF302821FF302821FF302821FF302821FF302821FF302821FF302821FF302821FF302821FF302821FF302821FF302821FF302821FF302821FF302821FF302821FF302821FF302821FF302821FF302821FFFFFFFFFF302821FFFFFFFF
310
FFFFFFFFFFFFFFFFFFFFFFFFFF302821FFFFFFFFFF302821FF302821FF302821FF302821FF302821FF302821FF302821FF302821FF302821FF302821FF302821FF302821FF302821FF302821FF302821FF302821FF302821FF302821FF302821FF302821FF302821FF302821FF302821FF302821FF302821FFFFFFFFFFFFFF
310
FFFF302821FFFFFFFFFFFFFFFFFFFFFFFFFF302821FF302821FF302821FF302821FF302821FF302821FF302821FF302821FF302821FF302821FF302821FF302821FF302821FF302821FF302821FF302821FF302821FF302821FF302821FF302821FF302821FF302821FF302821FF302821FF302821FF302821FF302821FF30
310
2821FFFFFFFFFFFFFFFFFF302821FF302821FF302821FF302821FF302821FF302821FF302821FF302821FF302821FF302821FF302821FF302821FF302821FF302821FF302821FF302821FF302821FF302821FF302821FF302821FF302821FF302821FF302821FF302821FF302821FF302821FF302821FF302821FF302821FF
310
302821FF302821FF302821FF302821FF302821FF302821FF302821FF302821FF302821FF302821FF302821FF302821FF302821FF302821FF302821FF302821FF302821FF302821FF
102
{BLKREFS
331
81E
102
}
 70
     1
280
     1
281
     1
  0
BLOCK_RECORD
  5
81F
330
1
100
AcDbSymbolTableRecord
100
AcDbBlockTableRecord
  2
D35160537 Side View
340
0
310
28000000200000002000000001002000000000000010000001000000010000000000000000000000302821FF302821FF302821FF302821FF302821FF302821FF302821FF302821FF302821FF302821FF302821FF302821FF302821FF302821FF302821FF302821FF302821FF302821FF302821FF302821FF302821FF302821
310
FF302821FF302821FF302821FF302821FF302821FF302821FF302821FF302821FF302821FF302821FF302821FF302821FF302821FF302821FF302821FF302821FF302821FF302821FF302821FF302821FF302821FF302821FFFFFFFFFF302821FF302821FF302821FF302821FFFFFFFFFFFFFFFFFF302821FF302821FF3028
310
21FF302821FF302821FF302821FF302821FF302821FF302821FF302821FF302821FF302821FF302821FF302821FF302821FF302821FF302821FF302821FF302821FF302821FF302821FF302821FF302821FF302821FF302821FFFFFFFFFFFFFFFFFF302821FF302821FF302821FFFFFFFFFFFFFFFFFF302821FF302821FF30
310
2821FF302821FF302821FF302821FF302821FF302821FF302821FF302821FF302821FF302821FF302821FF302821FF302821FF302821FF302821FF302821FF302821FF302821FF302821FF302821FF302821FF302821FF302821FFFFFFFFFFFFFFFFFF302821FF302821FF302821FFFFFFFFFFFFFFFFFF302821FF302821FF
310
302821FF302821FF302821FF302821FF302821FF302821FF302821FF302821FF302821FF302821FF302821FF302821FF302821FF302821FF302821FF302821FF302821FF302821FF302821FF302821FF302821FF302821FF302821FFFFFFFFFFFFFFFFFFFFFFFFFFFFFFFFFF302821FFFFFFFFFFFFFFFFFF302821FF302821
310
FF302821FF302821FF302821FF302821FF302821FF302821FF302821FF302821FF302821FF302821FF302821FF302821FF302821FF302821FF302821FF302821FF302821FF302821FF302821FF302821FF302821FF302821FF302821FFFFFFFFFFFFFFFFFFFFFFFFFFFFFFFFFFFFFFFFFFFFFFFFFFFFFFFFFFFFFFFFFF3028
310
21FF302821FF302821FF302821FF302821FF302821FF302821FF302821FF302821FF302821FF302821FF302821FF302821FF302821FF302821FF302821FF302821FF302821FF302821FF302821FF302821FF302821FF302821FF302821FFFFFFFFFFFFFFFFFF302821FF302821FFFFFFFFFFFFFFFFFFFFFFFFFFFFFFFFFF30
310
2821FF302821FF302821FF302821FF302821FF302821FF302821FF302821FF302821FF302821FF302821FF302821FF302821FF302821FF302821FF302821FF302821FF302821FF302821FF302821FF302821FF302821FF302821FF302821FFFFFFFFFFFFFFFFFFFFFFFFFFFFFFFFFFFFFFFFFFFFFFFFFFFFFFFFFFFFFFFFFF
310
302821FF302821FF302821FF302821FF302821FF302821FF302821FF302821FF302821FF302821FF302821FF302821FF302821FF302821FF302821FF302821FF302821FF302821FF302821FF302821FF302821FF302821FF302821FF302821FFFFFFFFFFFFFFFFFFFFFFFFFF302821FF302821FF302821FF302821FF302821
310
FF302821FF302821FF302821FF302821FF302821FF302821FF302821FF302821FF302821FF302821FF302821FF302821FF302821FF302821FF302821FF302821FF302821FF302821FF302821FF302821FF302821FF302821FF302821FF302821FFFFFFFFFFFFFFFFFF302821FF302821FF302821FF302821FF302821FF3028
310
21FF302821FF302821FF302821FF302821FF302821FF302821FF302821FF302821FF302821FF302821FF302821FF302821FF302821FF302821FF302821FF302821FF302821FF302821FF302821FF302821FF302821FF302821FF302821FF302821FFFFFFFFFFFFFFFFFF302821FF302821FF302821FF302821FF302821FF30
310
2821FF302821FF302821FF302821FF302821FF302821FF302821FF302821FF302821FF302821FF302821FF302821FF302821FF302821FF302821FF302821FF302821FF302821FF302821FF302821FF302821FF302821FF302821FF302821FF302821FFFFFFFFFFFFFFFFFF302821FF302821FF302821FFFFFFFFFFFFFFFFFF
310
302821FF302821FF302821FF302821FF302821FF302821FF302821FF302821FF302821FF302821FF302821FF302821FF302821FF302821FF302821FF302821FF302821FF302821FF302821FF302821FF302821FF302821FF302821FF302821FF302821FFFFFFFFFFFFFFFFFF302821FF302821FF302821FFFFFFFFFFFFFFFF
310
FF302821FF302821FF302821FF302821FF302821FF302821FF302821FF302821FF302821FF302821FF302821FF302821FF302821FF302821FF302821FF302821FF302821FF302821FF302821FF302821FF302821FF302821FF302821FF302821FF302821FFFFFFFFFFFFFFFFFF302821FF302821FF302821FFFFFFFFFFFFFF
310
FFFF302821FF302821FF302821FF302821FF302821FF302821FF302821FF302821FF302821FF302821FF302821FF302821FF302821FF302821FF302821FF302821FF302821FF302821FF302821FF302821FF302821FF302821FF302821FF302821FF302821FFFFFFFFFFFFFFFFFFFFFFFFFFFFFFFFFFFFFFFFFFFFFFFFFFFF
310
FFFFFFFFFFFFFF302821FF302821FF302821FF302821FF302821FF302821FF302821FF302821FF302821FF302821FF302821FF302821FF302821FF302821FF302821FF302821FF302821FF302821FF302821FF302821FF302821FF302821FF302821FF302821FFFFFFFFFFFFFFFFFFFFFFFFFFFFFFFFFFFFFFFFFFFFFFFFFF
310
FFFFFFFFFFFFFFFF302821FF302821FF302821FF302821FF302821FF302821FF302821FF302821FF302821FF302821FF302821FF302821FF302821FF302821FF302821FF302821FF302821FF302821FF302821FF302821FF302821FF302821FF302821FF302821FFFFFFFFFFFFFFFFFFFFFFFFFFFFFFFFFFFFFFFFFFFFFFFF
310
FFFFFFFFFFFFFFFFFF302821FF302821FF302821FF302821FF302821FF302821FF302821FF302821FF302821FF302821FF302821FF302821FF302821FF302821FF302821FF302821FF302821FF302821FF302821FF302821FF302821FF302821FF302821FF302821FFFFFFFFFFFFFFFFFFFFFFFFFFFFFFFFFFFFFFFFFFFFFF
310
FFFFFFFFFFFFFFFFFFFF302821FF302821FF302821FF302821FF302821FF302821FF302821FF302821FF302821FF302821FF302821FF302821FF302821FF302821FF302821FF302821FF302821FF302821FF302821FF302821FF302821FF302821FF302821FF302821FFFFFFFFFFFFFFFFFF302821FF302821FF302821FF30
310
2821FF302821FF302821FF302821FF302821FF302821FF302821FF302821FF302821FF302821FF302821FF302821FF302821FF302821FF302821FF302821FF302821FF302821FF302821FF302821FF302821FF302821FF302821FF302821FF302821FF302821FF302821FFFFFFFFFFFFFFFFFF302821FF302821FF302821FF
310
302821FF302821FF302821FF302821FF302821FF302821FF302821FF302821FF302821FF302821FF302821FF302821FF302821FF302821FF302821FF302821FF302821FF302821FF302821FF302821FF302821FF302821FF302821FF302821FF302821FF302821FF302821FFFFFFFFFFFFFFFFFF302821FF302821FF302821
310
FF302821FF302821FF302821FF302821FF302821FF302821FF302821FF302821FF302821FF302821FF302821FF302821FF302821FF302821FF302821FF302821FF302821FF302821FF302821FF302821FF302821FF302821FF302821FF302821FF302821FF302821FF302821FFFFFFFFFFFFFFFFFF302821FF302821FF3028
310
21FFFFFFFFFFFFFFFFFF302821FF302821FF302821FF302821FF302821FF302821FF302821FF302821FF302821FF302821FF302821FF302821FF302821FF302821FF302821FF302821FF302821FF302821FF302821FF302821FF302821FF302821FF302821FF302821FF302821FFFFFFFFFFFFFFFFFF302821FF302821FF30
310
2821FFFFFFFFFFFFFFFFFF302821FF302821FF302821FF302821FF302821FF302821FF302821FF302821FF302821FF302821FF302821FF302821FF302821FF302821FF302821FF302821FF302821FF302821FF302821FF302821FF302821FF302821FF302821FF302821FF302821FFFFFFFFFFFFFFFFFFFFFFFFFF302821FF
310
302821FFFFFFFFFFFFFFFFFF302821FF302821FF302821FF302821FF302821FF302821FF302821FF302821FF302821FF302821FF302821FF302821FF302821FF302821FF302821FF302821FF302821FF302821FF302821FF302821FF302821FF302821FF302821FF302821FF302821FFFFFFFFFFFFFFFFFFFFFFFFFFFFFFFF
310
FFFFFFFFFFFFFFFFFFFFFFFFFFFFFFFFFF302821FF302821FF302821FF302821FF302821FF302821FF302821FF302821FF302821FF302821FF302821FF302821FF302821FF302821FF302821FF302821FF302821FF302821FF302821FF302821FF302821FF302821FF302821FF302821FFFFFFFFFFFFFFFFFF302821FF3028
310
21FFFFFFFFFFFFFFFFFFFFFFFFFFFFFFFFFF302821FF302821FF302821FF302821FF302821FF302821FF302821FF302821FF302821FF302821FF302821FF302821FF302821FF302821FF302821FF302821FF302821FF302821FF302821FF302821FF302821FF302821FF302821FF302821FFFFFFFFFFFFFFFFFFFFFFFFFFFF
310
FFFFFFFFFFFFFFFFFFFFFFFFFFFFFFFFFFFFFF302821FF302821FF302821FF302821FF302821FF302821FF302821FF302821FF302821FF302821FF302821FF302821FF302821FF302821FF302821FF302821FF302821FF302821FF302821FF302821FF302821FF302821FF302821FF302821FFFFFFFFFFFFFFFFFFFFFFFFFF
310
FFFFFFFF302821FF302821FF302821FF302821FF302821FF302821FF302821FF302821FF302821FF302821FF302821FF302821FF302821FF302821FF302821FF302821FF302821FF302821FF302821FF302821FF302821FF302821FF302821FF302821FF302821FF302821FF302821FF302821FFFFFFFFFFFFFFFFFF302821
310
FF302821FF302821FF302821FF302821FF302821FF302821FF302821FF302821FF302821FF302821FF302821FF302821FF302821FF302821FF302821FF302821FF302821FF302821FF302821FF302821FF302821FF302821FF302821FF302821FF302821FF302821FF302821FF302821FF302821FFFFFFFFFFFFFFFFFF3028
310
21FF302821FF302821FF302821FF302821FF302821FF302821FF302821FF302821FF302821FF302821FF302821FF302821FF302821FF302821FF302821FF302821FF302821FF302821FF302821FF302821FF302821FF302821FF302821FF302821FF302821FF302821FF302821FF302821FF302821FFFFFFFFFF302821FF30
310
2821FF302821FF302821FF302821FF302821FF302821FF302821FF302821FF302821FF302821FF302821FF302821FF302821FF302821FF302821FF302821FF302821FF302821FF302821FF302821FF302821FF302821FF302821FF302821FF302821FF302821FF302821FF302821FF302821FF302821FF302821FF302821FF
310
302821FF302821FF302821FF302821FF302821FF302821FF302821FF302821FF302821FF302821FF302821FF302821FF302821FF302821FF302821FF302821FF302821FF302821FF
102
{BLKREFS
331
A41
102
}
 70
     1
280
     1
281
     1
  0
BLOCK_RECORD
  5
A42
330
1
100
AcDbSymbolTableRecord
100
AcDbBlockTableRecord
  2
D35160537 Top View
340
0
310
28000000200000002000000001002000000000000010000001000000010000000000000000000000302821FF302821FF302821FF302821FF302821FF302821FF302821FF302821FF302821FF302821FF302821FF302821FF302821FF302821FF302821FF302821FF302821FF302821FF302821FF302821FF302821FF302821
310
FF302821FF302821FF302821FF302821FF302821FF302821FF302821FF302821FF302821FF302821FF302821FF302821FF302821FF302821FF302821FF302821FF302821FF302821FF302821FF302821FF302821FF302821FF302821FF302821FF302821FF302821FF302821FF302821FF302821FF302821FF302821FF3028
310
21FF302821FF302821FF302821FF302821FF302821FF302821FF302821FF302821FF302821FF302821FF302821FF302821FF302821FF302821FF302821FF302821FF302821FF302821FF302821FF302821FF302821FF302821FF302821FF302821FF302821FF302821FF302821FF302821FF302821FF302821FF302821FF30
310
2821FF302821FF302821FF302821FF302821FF302821FF302821FF302821FF302821FF302821FF302821FF302821FF302821FF302821FF302821FF302821FF302821FF302821FF302821FF302821FF302821FF302821FF302821FF302821FF302821FF302821FF302821FF302821FF302821FF302821FF302821FF302821FF
310
302821FF302821FF302821FF302821FF302821FF302821FF302821FF302821FF302821FF302821FF302821FF302821FF302821FF302821FF302821FF302821FF302821FF302821FF302821FF302821FF302821FF302821FF302821FF302821FF302821FF302821FF302821FF302821FF302821FF302821FF302821FF302821
310
FF302821FF302821FF302821FF302821FF302821FF302821FF302821FF302821FF302821FF302821FF302821FF302821FF302821FF302821FF302821FF302821FF302821FF302821FF302821FF302821FF302821FF302821FF302821FF302821FFFFFFFFFFFFFFFFFFFFFFFFFFFFFFFFFFFFFFFFFFFFFFFFFF302821FF3028
310
21FF302821FF302821FF302821FF302821FF302821FF302821FF302821FF302821FF302821FF302821FF302821FF302821FF302821FF302821FF302821FF302821FF302821FF302821FF302821FF302821FF302821FF302821FF302821FFFFFFFFFFFFFFFFFFFFFFFFFFFFFFFFFFFFFFFFFFFFFFFFFFFFFFFFFFFFFFFFFF30
310
2821FF302821FF302821FF302821FF302821FF302821FF302821FF302821FF302821FF302821FF302821FF302821FF302821FF302821FF302821FF302821FF302821FF302821FF302821FF302821FF302821FF302821FF302821FFFFFFFFFFFFFFFFFFFFFFFFFFFFFFFFFFFFFFFFFFFFFFFFFFFFFFFFFFFFFFFFFFFFFFFFFF
310
FFFFFFFF302821FF302821FF302821FF302821FF302821FF302821FF302821FF302821FF302821FF302821FF302821FF302821FF302821FF302821FF302821FF302821FF302821FF302821FF302821FF302821FF302821FF302821FF302821FFFFFFFFFFFFFFFFFF302821FF302821FF302821FF302821FFFFFFFFFFFFFFFF
310
FF302821FF302821FF302821FF302821FF302821FF302821FF302821FF302821FF302821FF302821FF302821FF302821FF302821FF302821FF302821FF302821FF302821FF302821FF302821FF302821FF302821FF302821FF302821FF302821FF302821FFFFFFFFFFFFFFFFFFFFFFFFFFFFFFFFFFFFFFFFFFFFFFFFFF3028
310
21FF302821FF302821FF302821FF302821FF302821FF302821FF302821FF302821FF302821FF302821FF302821FF302821FF302821FF302821FF302821FF302821FF302821FF302821FF302821FF302821FF302821FF302821FF302821FF302821FF302821FFFFFFFFFFFFFFFFFFFFFFFFFFFFFFFFFFFFFFFFFFFFFFFFFF30
310
2821FF302821FF302821FF302821FF302821FF302821FF302821FF302821FF302821FF302821FF302821FF302821FF302821FF302821FF302821FF302821FF302821FF302821FF302821FF302821FF302821FF302821FF302821FF302821FF302821FFFFFFFFFFFFFFFFFFFFFFFFFFFFFFFFFFFFFFFFFFFFFFFFFFFFFFFFFF
310
FFFFFFFF302821FF302821FF302821FF302821FF302821FF302821FF302821FF302821FF302821FF302821FF302821FF302821FF302821FF302821FF302821FF302821FF302821FF302821FF302821FF302821FF302821FF302821FF302821FF302821FFFFFFFFFF302821FFFFFFFFFF302821FF302821FFFFFFFFFF302821
310
FFFFFFFFFF302821FF302821FF302821FF302821FF302821FF302821FF302821FF302821FF302821FF302821FF302821FF302821FF302821FF302821FF302821FF302821FF302821FF302821FF302821FF302821FF302821FF302821FF302821FF302821FFFFFFFFFF302821FFFFFFFFFF302821FF302821FFFFFFFFFF3028
310
21FFFFFFFFFF302821FF302821FF302821FF302821FF302821FF302821FF302821FF302821FF302821FF302821FF302821FF302821FF302821FF302821FF302821FF302821FF302821FF302821FF302821FF302821FF302821FF302821FF302821FF302821FFFFFFFFFF302821FFFFFFFFFF302821FF302821FFFFFFFFFF30
310
2821FFFFFFFFFF302821FF302821FF302821FF302821FF302821FF302821FF302821FF302821FF302821FF302821FF302821FF302821FF302821FF302821FF302821FF302821FF302821FF302821FF302821FF302821FF302821FF302821FF302821FF302821FFFFFFFFFF302821FFFFFFFFFF302821FF302821FFFFFFFFFF
310
302821FFFFFFFFFF302821FF302821FF302821FF302821FF302821FF302821FF302821FF302821FF302821FF302821FF302821FF302821FF302821FF302821FF302821FF302821FF302821FF302821FF302821FF302821FF302821FF302821FF302821FF302821FFFFFFFFFF302821FFFFFFFFFF302821FF302821FFFFFFFF
310
FF302821FFFFFFFFFF302821FF302821FF302821FF302821FF302821FF302821FF302821FF302821FF302821FF302821FF302821FF302821FF302821FF302821FF302821FF302821FF302821FF302821FF302821FF302821FF302821FF302821FF302821FF302821FFFFFFFFFFFFFFFFFF302821FF302821FF302821FF3028
310
21FFFFFFFFFF302821FFFFFFFFFF302821FF302821FF302821FF302821FF302821FF302821FF302821FF302821FF302821FF302821FF302821FF302821FF302821FF302821FF302821FF302821FF302821FF302821FF302821FF302821FF302821FF302821FFFFFFFFFF302821FFFFFFFFFF302821FF302821FF302821FF30
310
2821FFFFFFFFFF302821FFFFFFFFFF302821FF302821FF302821FF302821FF302821FF302821FF302821FF302821FF302821FF302821FF302821FF302821FF302821FF302821FF302821FF302821FF302821FF302821FF302821FF302821FF302821FF302821FFFFFFFFFF302821FFFFFFFFFF302821FF302821FF302821FF
310
302821FFFFFFFFFF302821FFFFFFFFFF302821FF302821FF302821FF302821FF302821FF302821FF302821FF302821FF302821FF302821FF302821FF302821FF302821FF302821FF302821FF302821FF302821FF302821FF302821FF302821FF302821FF302821FFFFFFFFFF302821FFFFFFFFFF302821FF302821FF302821
310
FF302821FF302821FFFFFFFFFF302821FFFFFFFFFF302821FF302821FF302821FF302821FF302821FF302821FF302821FF302821FF302821FF302821FF302821FF302821FF302821FF302821FF302821FF302821FF302821FF302821FF302821FF302821FFFFFFFFFF302821FFFFFFFFFF302821FF302821FF302821FF3028
310
21FF302821FF302821FFFFFFFFFF302821FFFFFFFFFF302821FF302821FF302821FF302821FF302821FF302821FF302821FF302821FF302821FF302821FF302821FF302821FF302821FF302821FF302821FF302821FF302821FF302821FF302821FF302821FFFFFFFFFF302821FFFFFFFFFF302821FF302821FF302821FF30
310
2821FF302821FF302821FF302821FFFFFFFFFF302821FFFFFFFFFF302821FF302821FF302821FF302821FF302821FF302821FF302821FF302821FF302821FF302821FF302821FF302821FF302821FF302821FF302821FF302821FF302821FFFFFFFFFFFFFFFFFFFFFFFFFFFFFFFFFFFFFFFFFFFFFFFFFFFFFFFFFFFFFFFFFF
310
FFFFFFFFFFFFFFFFFFFFFFFFFFFFFFFFFFFFFFFFFFFFFFFFFFFFFFFFFFFFFFFF302821FF302821FF302821FF302821FF302821FF302821FF302821FF302821FF302821FF302821FF302821FF302821FF302821FF302821FF302821FF302821FFFFFFFFFF302821FF302821FF302821FF302821FF302821FF302821FF302821
310
FF302821FF302821FF302821FF302821FF302821FF302821FF302821FFFFFFFFFF302821FF302821FF302821FF302821FF302821FF302821FF302821FF302821FF302821FFFFFFFFFFFFFFFFFFFFFFFFFFFFFFFFFFFFFFFFFFFFFFFFFFFFFFFFFFFFFFFFFFFFFFFFFFFFFFFFFFFFFFFFFFFFFFFFFFFFFFFFFFFFFFFFFFFFFF
310
FFFFFFFFFFFFFFFFFFFFFFFFFFFFFFFFFFFFFFFFFFFFFFFFFFFFFFFFFFFFFFFFFFFFFFFFFFFFFFFFFFFFFFFFFFFFFFFFFFFFFFFFFFFFFFFFFFFFFFFFFFFF302821FF302821FFFFFFFFFFFFFFFFFFFFFFFFFFFFFFFFFFFFFFFFFFFFFFFFFFFFFFFFFFFFFFFFFFFFFFFFFFFFFFFFFFFFFFFFFFFFFFFFFFFFFFFFFFFFFFFFFFFF
310
FFFFFFFFFFFFFFFFFFFFFFFFFFFFFFFFFFFFFFFFFFFFFFFFFFFFFFFFFFFFFFFFFFFFFFFFFFFFFFFFFFFFFFFFFFFFFFFFFFFFFFFFFFFFFFFFFFFFFFFFFFFFFF302821FF302821FF302821FF302821FF302821FF302821FF302821FF302821FF302821FF302821FF302821FF302821FF302821FF302821FF302821FF302821FF
310
302821FF302821FF302821FF302821FF302821FF302821FF302821FF302821FF302821FF302821FF302821FF302821FF302821FF302821FF302821FF302821FF302821FF302821FF302821FF302821FF302821FF302821FF302821FF302821FF302821FF302821FF302821FF302821FF302821FF302821FF302821FF302821
310
FF302821FF302821FF302821FF302821FF302821FF302821FF302821FF302821FF302821FF302821FF302821FF302821FF302821FF302821FF302821FF302821FF302821FF302821FF302821FF302821FF302821FF302821FF302821FF302821FF302821FF302821FF302821FF302821FF302821FF302821FF302821FF3028
310
21FF302821FF302821FF302821FF302821FF302821FF302821FF302821FF302821FF302821FF302821FF302821FF302821FF302821FF302821FF302821FF302821FF302821FF302821FF302821FF302821FF302821FF302821FF302821FF302821FF302821FF302821FF302821FF302821FF302821FF302821FF302821FF30
310
2821FF302821FF302821FF302821FF302821FF302821FF302821FF302821FF302821FF302821FF302821FF302821FF302821FF302821FF302821FF302821FF302821FF302821FF302821FF302821FF302821FF302821FF302821FF302821FF302821FF302821FF302821FF302821FF302821FF302821FF302821FF302821FF
310
302821FF302821FF302821FF302821FF302821FF302821FF302821FF302821FF302821FF302821FF302821FF302821FF302821FF302821FF302821FF302821FF302821FF302821FF
102
{BLKREFS
331
A93
102
}
 70
     1
280
     1
281
     1
  0
ENDTAB
  0
ENDSEC
  0
SECTION
  2
BLOCKS
  0
BLOCK
  5
71
330
70
100
AcDbEntity
  8
0
100
AcDbBlockBegin
  2
*Model_Space
 70
     0
 10
0.0
 20
0.0
 30
0.0
  3
*Model_Space
  1

  0
ENDBLK
  5
72
330
70
100
AcDbEntity
  8
0
100
AcDbBlockEnd
  0
BLOCK
  5
6D
330
6C
100
AcDbEntity
 67
     1
  8
0
100
AcDbBlockBegin
  2
*Paper_Space
 70
     0
 10
0.0
 20
0.0
 30
0.0
  3
*Paper_Space
  1

  0
ENDBLK
  5
6E
330
6C
100
AcDbEntity
 67
     1
  8
0
100
AcDbBlockEnd
  0
BLOCK
  5
75
330
74
100
AcDbEntity
 67
     1
  8
0
100
AcDbBlockBegin
  2
*Paper_Space0
 70
     0
 10
0.0
 20
0.0
 30
0.0
  3
*Paper_Space0
  1

  0
ENDBLK
  5
76
330
74
100
AcDbEntity
 67
     1
  8
0
100
AcDbBlockEnd
  0
BLOCK
  5
6EA
330
6E9
100
AcDbEntity
  8
0
100
AcDbBlockBegin
  2
D35160537 Front View
 70
     0
 10
0.0
 20
0.0
 30
0.0
  3
D35160537 Front View
  1

  0
LINE
  5
6EC
330
6E9
100
AcDbEntity
  8
D35160537
100
AcDbLine
 10
1.874999999999982
 20
-4.001739030846711
 30
0.0
 11
1.874999999999993
 21
4.000000000000061
 31
0.0
1001
REVIT
1002
{
1070
     2
1000
-2001160
1002
}
  0
LINE
  5
6ED
330
6E9
100
AcDbEntity
  8
D35160537
100
AcDbLine
 10
-1.875000000000016
 20
4.000000000000061
 30
0.0
 11
-1.875000000000027
 21
-4.001739030846711
 31
0.0
1001
REVIT
1002
{
1070
     2
1000
-2001160
1002
}
  0
LINE
  5
6EE
330
6E9
100
AcDbEntity
  8
D35160537
100
AcDbLine
 10
-1.875000000000027
 20
-4.001739030846711
 30
0.0
 11
-1.873500199989357
 21
-4.076719032446651
 31
0.0
1001
REVIT
1002
{
1070
     2
1000
-2001160
1002
}
  0
LINE
  5
6EF
330
6E9
100
AcDbEntity
  8
D35160537
100
AcDbLine
 10
-1.873500199989357
 20
-4.076719032446651
 30
0.0
 11
-1.869003199317439
 21
-4.151579082038915
 31
0.0
1001
REVIT
1002
{
1070
     2
1000
-2001160
1002
}
  0
LINE
  5
6F0
330
6E9
100
AcDbEntity
  8
D35160537
100
AcDbLine
 10
-1.869003199317439
 20
-4.151579082038915
 30
0.0
 11
-1.861516192226019
 21
-4.226199419513428
 31
0.0
1001
REVIT
1002
{
1070
     2
1000
-2001160
1002
}
  0
LINE
  5
6F1
330
6E9
100
AcDbEntity
  8
D35160537
100
AcDbLine
 10
-1.861516192226019
 20
-4.226199419513428
 30
0.0
 11
-1.851051156329325
 21
-4.30046066824842
 31
0.0
1001
REVIT
1002
{
1070
     2
1000
-2001160
1002
}
  0
LINE
  5
6F2
330
6E9
100
AcDbEntity
  8
D35160537
100
AcDbLine
 10
-1.851051156329325
 20
-4.30046066824842
 30
0.0
 11
-1.837624833452351
 21
-4.374244026087446
 31
0.0
1001
REVIT
1002
{
1070
     2
1000
-2001160
1002
}
  0
LINE
  5
6F3
330
6E9
100
AcDbEntity
  8
D35160537
100
AcDbLine
 10
-1.837624833452351
 20
-4.374244026087446
 30
0.0
 11
-1.821258702847585
 21
-4.447431455397592
 31
0.0
1001
REVIT
1002
{
1070
     2
1000
-2001160
1002
}
  0
LINE
  5
6F4
330
6E9
100
AcDbEntity
  8
D35160537
100
AcDbLine
 10
-1.821258702847585
 20
-4.447431455397592
 30
0.0
 11
-1.801978946832718
 21
-4.519905871904421
 31
0.0
1001
REVIT
1002
{
1070
     2
1000
-2001160
1002
}
  0
LINE
  5
6F5
330
6E9
100
AcDbEntity
  8
D35160537
100
AcDbLine
 10
-1.801978946832718
 20
-4.519905871904421
 30
0.0
 11
-1.779816408904603
 21
-4.591551332001931
 31
0.0
1001
REVIT
1002
{
1070
     2
1000
-2001160
1002
}
  0
LINE
  5
6F6
330
6E9
100
AcDbEntity
  8
D35160537
100
AcDbLine
 10
-1.779816408904603
 20
-4.591551332001931
 30
0.0
 11
-1.754806544396152
 21
-4.662253218237506
 31
0.0
1001
REVIT
1002
{
1070
     2
1000
-2001160
1002
}
  0
LINE
  5
6F7
330
6E9
100
AcDbEntity
  8
D35160537
100
AcDbLine
 10
-1.754806544396152
 20
-4.662253218237506
 30
0.0
 11
-1.726989363755428
 21
-4.731898422675425
 31
0.0
1001
REVIT
1002
{
1070
     2
1000
-2001160
1002
}
  0
LINE
  5
6F8
330
6E9
100
AcDbEntity
  8
D35160537
100
AcDbLine
 10
-1.726989363755428
 20
-4.731898422675425
 30
0.0
 11
-1.696409368537458
 21
-4.800375527845461
 31
0.0
1001
REVIT
1002
{
1070
     2
1000
-2001160
1002
}
  0
LINE
  5
6F9
330
6E9
100
AcDbEntity
  8
D35160537
100
AcDbLine
 10
-1.696409368537458
 20
-4.800375527845461
 30
0.0
 11
-1.663115480211188
 21
-4.867574984986991
 31
0.0
1001
REVIT
1002
{
1070
     2
1000
-2001160
1002
}
  0
LINE
  5
6FA
330
6E9
100
AcDbEntity
  8
D35160537
100
AcDbLine
 10
-1.663115480211188
 20
-4.867574984986991
 30
0.0
 11
-1.627160961895621
 21
-4.933389289303719
 31
0.0
1001
REVIT
1002
{
1070
     2
1000
-2001160
1002
}
  0
LINE
  5
6FB
330
6E9
100
AcDbEntity
  8
D35160537
100
AcDbLine
 10
-1.627160961895621
 20
-4.933389289303719
 30
0.0
 11
-1.588603333150177
 21
-4.997713151948372
 31
0.0
1001
REVIT
1002
{
1070
     2
1000
-2001160
1002
}
  0
LINE
  5
6FC
330
6E9
100
AcDbEntity
  8
D35160537
100
AcDbLine
 10
-1.588603333150177
 20
-4.997713151948372
 30
0.0
 11
-1.54750427795567
 21
-5.060443668462405
 31
0.0
1001
REVIT
1002
{
1070
     2
1000
-2001160
1002
}
  0
LINE
  5
6FD
330
6E9
100
AcDbEntity
  8
D35160537
100
AcDbLine
 10
-1.54750427795567
 20
-5.060443668462405
 30
0.0
 11
-1.503929546033073
 21
-5.121480483401193
 31
0.0
1001
REVIT
1002
{
1070
     2
1000
-2001160
1002
}
  0
LINE
  5
6FE
330
6E9
100
AcDbEntity
  8
D35160537
100
AcDbLine
 10
-1.503929546033073
 20
-5.121480483401193
 30
0.0
 11
-1.457948847658019
 21
-5.180725950881346
 31
0.0
1001
REVIT
1002
{
1070
     2
1000
-2001160
1002
}
  0
LINE
  5
6FF
330
6E9
100
AcDbEntity
  8
D35160537
100
AcDbLine
 10
-1.306325080025962
 20
-5.346781701283327
 30
0.0
 11
-1.251492798452477
 21
-5.397944880792079
 31
0.0
1001
REVIT
1002
{
1070
     2
1000
-2001160
1002
}
  0
LINE
  5
700
330
6E9
100
AcDbEntity
  8
D35160537
100
AcDbLine
 10
-1.135912793706515
 20
-5.493492068414895
 30
0.0
 11
-1.07534997388588
 21
-5.537723221411085
 31
0.0
1001
REVIT
1002
{
1070
     2
1000
-2001160
1002
}
  0
LINE
  5
701
330
6E9
100
AcDbEntity
  8
D35160537
100
AcDbLine
 10
-1.07534997388588
 20
-5.537723221411085
 30
0.0
 11
-1.013066823502792
 21
-5.579497127361521
 31
0.0
1001
REVIT
1002
{
1070
     2
1000
-2001160
1002
}
  0
LINE
  5
702
330
6E9
100
AcDbEntity
  8
D35160537
100
AcDbLine
 10
-1.359067520139222
 20
-5.293466740429001
 30
0.0
 11
-1.306325080025962
 21
-5.346781701283327
 31
0.0
1001
REVIT
1002
{
1070
     2
1000
-2001160
1002
}
  0
LINE
  5
703
330
6E9
100
AcDbEntity
  8
D35160537
100
AcDbLine
 10
-1.4096357421392
 20
-5.238085290793226
 30
0.0
 11
-1.359067520139222
 21
-5.293466740429001
 31
0.0
1001
REVIT
1002
{
1070
     2
1000
-2001160
1002
}
  0
LINE
  5
704
330
6E9
100
AcDbEntity
  8
D35160537
100
AcDbLine
 10
-1.457948847658019
 20
-5.180725950881346
 30
0.0
 11
-1.4096357421392
 21
-5.238085290793226
 31
0.0
1001
REVIT
1002
{
1070
     2
1000
-2001160
1002
}
  0
LINE
  5
705
330
6E9
100
AcDbEntity
  8
D35160537
100
AcDbLine
 10
-1.251492798452477
 20
-5.397944880792079
 30
0.0
 11
-1.19465839537236
 21
-5.446874428782281
 31
0.0
1001
REVIT
1002
{
1070
     2
1000
-2001160
1002
}
  0
LINE
  5
706
330
6E9
100
AcDbEntity
  8
D35160537
100
AcDbLine
 10
-1.19465839537236
 20
-5.446874428782281
 30
0.0
 11
-1.135912793706515
 21
-5.493492068414895
 31
0.0
1001
REVIT
1002
{
1070
     2
1000
-2001160
1002
}
  0
LINE
  5
707
330
6E9
100
AcDbEntity
  8
D35160537
100
AcDbLine
 10
-1.013066823502792
 20
-5.579497127361521
 30
0.0
 11
-0.9491629823114806
 21
-5.618746956927968
 31
0.0
1001
REVIT
1002
{
1070
     2
1000
-2001160
1002
}
  0
LINE
  5
708
330
6E9
100
AcDbEntity
  8
D35160537
100
AcDbLine
 10
-0.9491629823114806
 20
-5.618746956927968
 30
0.0
 11
-0.8837406828257805
 21
-5.655409918755986
 31
0.0
1001
REVIT
1002
{
1070
     2
1000
-2001160
1002
}
  0
LINE
  5
709
330
6E9
100
AcDbEntity
  8
D35160537
100
AcDbLine
 10
-0.465328971848215
 20
-5.818079843568459
 30
0.0
 11
-0.3923224985464337
 21
-5.835235160412932
 31
0.0
1001
REVIT
1002
{
1070
     2
1000
-2001160
1002
}
  0
LINE
  5
70A
330
6E9
100
AcDbEntity
  8
D35160537
100
AcDbLine
 10
-0.5375910180599448
 20
-5.798018768889009
 30
0.0
 11
-0.465328971848215
 21
-5.818079843568459
 31
0.0
1001
REVIT
1002
{
1070
     2
1000
-2001160
1002
}
  0
LINE
  5
70B
330
6E9
100
AcDbEntity
  8
D35160537
100
AcDbLine
 10
-0.6089930333227216
 20
-5.775084029814604
 30
0.0
 11
-0.5375910180599448
 21
-5.798018768889009
 31
0.0
1001
REVIT
1002
{
1070
     2
1000
-2001160
1002
}
  0
LINE
  5
70C
330
6E9
100
AcDbEntity
  8
D35160537
100
AcDbLine
 10
-0.6794207896437847
 20
-5.749312317035262
 30
0.0
 11
-0.6089930333227216
 21
-5.775084029814604
 31
0.0
1001
REVIT
1002
{
1070
     2
1000
-2001160
1002
}
  0
LINE
  5
70D
330
6E9
100
AcDbEntity
  8
D35160537
100
AcDbLine
 10
-0.7487616176367802
 20
-5.720744859793776
 30
0.0
 11
-0.6794207896437847
 21
-5.749312317035262
 31
0.0
1001
REVIT
1002
{
1070
     2
1000
-2001160
1002
}
  0
LINE
  5
70E
330
6E9
100
AcDbEntity
  8
D35160537
100
AcDbLine
 10
-0.816904586768863
 20
-5.689427359927671
 30
0.0
 11
-0.7487616176367802
 21
-5.720744859793776
 31
0.0
1001
REVIT
1002
{
1070
     2
1000
-2001160
1002
}
  0
LINE
  5
70F
330
6E9
100
AcDbEntity
  8
D35160537
100
AcDbLine
 10
-0.8837406828257805
 20
-5.655409918755986
 30
0.0
 11
-0.816904586768863
 21
-5.689427359927671
 31
0.0
1001
REVIT
1002
{
1070
     2
1000
-2001160
1002
}
  0
LINE
  5
710
330
6E9
100
AcDbEntity
  8
D35160537
100
AcDbLine
 10
-0.3923224985464337
 20
-5.835235160412932
 30
0.0
 11
-0.3186883929379711
 21
-5.849457274575084
 31
0.0
1001
REVIT
1002
{
1070
     2
1000
-2001160
1002
}
  0
LINE
  5
711
330
6E9
100
AcDbEntity
  8
D35160537
100
AcDbLine
 10
-0.0952021592504758
 20
-5.874320550800935
 30
0.0
 11
-0.020242719484265
 21
-5.876629756277904
 31
0.0
1001
REVIT
1002
{
1070
     2
1000
-2001160
1002
}
  0
LINE
  5
712
330
6E9
100
AcDbEntity
  8
D35160537
100
AcDbLine
 10
0.054749104314905
 20
-5.875939536549535
 30
0.0
 11
0.1296533412263484
 21
-5.872250995820171
 31
0.0
1001
REVIT
1002
{
1070
     2
1000
-2001160
1002
}
  0
LINE
  5
713
330
6E9
100
AcDbEntity
  8
D35160537
100
AcDbLine
 10
-0.1700092958706023
 20
-5.869015614354787
 30
0.0
 11
-0.0952021592504758
 21
-5.874320550800935
 31
0.0
1001
REVIT
1002
{
1070
     2
1000
-2001160
1002
}
  0
LINE
  5
714
330
6E9
100
AcDbEntity
  8
D35160537
100
AcDbLine
 10
-0.020242719484265
 20
-5.876629756277904
 30
0.0
 11
0.054749104314905
 21
-5.875939536549535
 31
0.0
1001
REVIT
1002
{
1070
     2
1000
-2001160
1002
}
  0
LINE
  5
715
330
6E9
100
AcDbEntity
  8
D35160537
100
AcDbLine
 10
-0.3186883929379711
 20
-5.849457274575084
 30
0.0
 11
-0.244544453884042
 21
-5.860723433706131
 31
0.0
1001
REVIT
1002
{
1070
     2
1000
-2001160
1002
}
  0
LINE
  5
716
330
6E9
100
AcDbEntity
  8
D35160537
100
AcDbLine
 10
0.1296533412263484
 20
-5.872250995820171
 30
0.0
 11
0.2043501604497428
 21
-5.865570034968105
 31
0.0
1001
REVIT
1002
{
1070
     2
1000
-2001160
1002
}
  0
LINE
  5
717
330
6E9
100
AcDbEntity
  8
D35160537
100
AcDbLine
 10
-0.244544453884042
 20
-5.860723433706131
 30
0.0
 11
-0.1700092958706023
 21
-5.869015614354787
 31
0.0
1001
REVIT
1002
{
1070
     2
1000
-2001160
1002
}
  0
LINE
  5
718
330
6E9
100
AcDbEntity
  8
D35160537
100
AcDbLine
 10
0.278720063008795
 20
-5.855907342105536
 30
0.0
 11
0.3526440729241328
 21
-5.843278375479752
 31
0.0
1001
REVIT
1002
{
1070
     2
1000
-2001160
1002
}
  0
LINE
  5
719
330
6E9
100
AcDbEntity
  8
D35160537
100
AcDbLine
 10
0.3526440729241328
 20
-5.843278375479752
 30
0.0
 11
0.4260039275495201
 21
-5.82770333874333
 31
0.0
1001
REVIT
1002
{
1070
     2
1000
-2001160
1002
}
  0
LINE
  5
71A
330
6E9
100
AcDbEntity
  8
D35160537
100
AcDbLine
 10
0.4260039275495201
 20
-5.82770333874333
 30
0.0
 11
0.4986822667668213
 21
-5.80920714863256
 31
0.0
1001
REVIT
1002
{
1070
     2
1000
-2001160
1002
}
  0
LINE
  5
71B
330
6E9
100
AcDbEntity
  8
D35160537
100
AcDbLine
 10
0.4986822667668213
 20
-5.80920714863256
 30
0.0
 11
0.5705628207371701
 21
-5.787819395105956
 31
0.0
1001
REVIT
1002
{
1070
     2
1000
-2001160
1002
}
  0
LINE
  5
71C
330
6E9
100
AcDbEntity
  8
D35160537
100
AcDbLine
 10
0.2043501604497428
 20
-5.865570034968105
 30
0.0
 11
0.278720063008795
 21
-5.855907342105536
 31
0.0
1001
REVIT
1002
{
1070
     2
1000
-2001160
1002
}
  0
LINE
  5
71D
330
6E9
100
AcDbEntity
  8
D35160537
100
AcDbLine
 10
0.5705628207371701
 20
-5.787819395105956
 30
0.0
 11
0.6415305959079239
 21
-5.763574294006702
 31
0.0
1001
REVIT
1002
{
1070
     2
1000
-2001160
1002
}
  0
LINE
  5
71E
330
6E9
100
AcDbEntity
  8
D35160537
100
AcDbLine
 10
0.6415305959079239
 20
-5.763574294006702
 30
0.0
 11
0.711472058977773
 21
-5.736510632324535
 31
0.0
1001
REVIT
1002
{
1070
     2
1000
-2001160
1002
}
  0
LINE
  5
71F
330
6E9
100
AcDbEntity
  8
D35160537
100
AcDbLine
 10
0.9787653284150689
 20
-5.601002433758368
 30
0.0
 11
1.04193589921989
 21
-5.56058301980675
 31
0.0
1001
REVIT
1002
{
1070
     2
1000
-2001160
1002
}
  0
LINE
  5
720
330
6E9
100
AcDbEntity
  8
D35160537
100
AcDbLine
 10
0.9140289418769075
 20
-5.638863367423316
 30
0.0
 11
0.9787653284150689
 21
-5.601002433758368
 31
0.0
1001
REVIT
1002
{
1070
     2
1000
-2001160
1002
}
  0
LINE
  5
721
330
6E9
100
AcDbEntity
  8
D35160537
100
AcDbLine
 10
0.711472058977773
 20
-5.736510632324535
 30
0.0
 11
0.7802753185258742
 21
-5.706671706144871
 31
0.0
1001
REVIT
1002
{
1070
     2
1000
-2001160
1002
}
  0
LINE
  5
722
330
6E9
100
AcDbEntity
  8
D35160537
100
AcDbLine
 10
0.7802753185258742
 20
-5.706671706144871
 30
0.0
 11
0.8478303040141884
 21
-5.674105251384305
 31
0.0
1001
REVIT
1002
{
1070
     2
1000
-2001160
1002
}
  0
LINE
  5
723
330
6E9
100
AcDbEntity
  8
D35160537
100
AcDbLine
 10
0.8478303040141884
 20
-5.674105251384305
 30
0.0
 11
0.9140289418769075
 21
-5.638863367423316
 31
0.0
1001
REVIT
1002
{
1070
     2
1000
-2001160
1002
}
  0
LINE
  5
724
330
6E9
100
AcDbEntity
  8
D35160537
100
AcDbLine
 10
1.163178022523759
 20
-5.472331390380003
 30
0.0
 11
1.221055613489135
 21
-5.424640358685945
 31
0.0
1001
REVIT
1002
{
1070
     2
1000
-2001160
1002
}
  0
LINE
  5
725
330
6E9
100
AcDbEntity
  8
D35160537
100
AcDbLine
 10
1.103439594853754
 20
-5.517669788008451
 30
0.0
 11
1.163178022523759
 21
-5.472331390380003
 31
0.0
1001
REVIT
1002
{
1070
     2
1000
-2001160
1002
}
  0
LINE
  5
726
330
6E9
100
AcDbEntity
  8
D35160537
100
AcDbLine
 10
1.04193589921989
 20
-5.56058301980675
 30
0.0
 11
1.103439594853754
 21
-5.517669788008451
 31
0.0
1001
REVIT
1002
{
1070
     2
1000
-2001160
1002
}
  0
LINE
  5
727
330
6E9
100
AcDbEntity
  8
D35160537
100
AcDbLine
 10
1.221055613489135
 20
-5.424640358685945
 30
0.0
 11
1.276979775950895
 21
-5.374672988403436
 31
0.0
1001
REVIT
1002
{
1070
     2
1000
-2001160
1002
}
  0
LINE
  5
728
330
6E9
100
AcDbEntity
  8
D35160537
100
AcDbLine
 10
1.432153503895819
 20
-5.211929652723658
 30
0.0
 11
1.479402651055356
 21
-5.153690764232423
 31
0.0
1001
REVIT
1002
{
1070
     2
1000
-2001160
1002
}
  0
LINE
  5
729
330
6E9
100
AcDbEntity
  8
D35160537
100
AcDbLine
 10
1.276979775950895
 20
-5.374672988403436
 30
0.0
 11
1.330861043178963
 21
-5.322509216665793
 31
0.0
1001
REVIT
1002
{
1070
     2
1000
-2001160
1002
}
  0
LINE
  5
72A
330
6E9
100
AcDbEntity
  8
D35160537
100
AcDbLine
 10
1.330861043178963
 20
-5.322509216665793
 30
0.0
 11
1.382613216639822
 21
-5.268232494380119
 31
0.0
1001
REVIT
1002
{
1070
     2
1000
-2001160
1002
}
  0
LINE
  5
72B
330
6E9
100
AcDbEntity
  8
D35160537
100
AcDbLine
 10
1.382613216639822
 20
-5.268232494380119
 30
0.0
 11
1.432153503895819
 21
-5.211929652723658
 31
0.0
1001
REVIT
1002
{
1070
     2
1000
-2001160
1002
}
  0
LINE
  5
72C
330
6E9
100
AcDbEntity
  8
D35160537
100
AcDbLine
 10
1.524285069562282
 20
-5.093608998704369
 30
0.0
 11
1.566728957121384
 21
-5.031780474147578
 31
0.0
1001
REVIT
1002
{
1070
     2
1000
-2001160
1002
}
  0
LINE
  5
72D
330
6E9
100
AcDbEntity
  8
D35160537
100
AcDbLine
 10
1.479402651055356
 20
-5.153690764232423
 30
0.0
 11
1.524285069562282
 21
-5.093608998704369
 31
0.0
1001
REVIT
1002
{
1070
     2
1000
-2001160
1002
}
  0
LINE
  5
72E
330
6E9
100
AcDbEntity
  8
D35160537
100
AcDbLine
 10
1.644033544489265
 20
-4.903281433950437
 30
0.0
 11
1.678770573449036
 21
-4.836816489362726
 31
0.0
1001
REVIT
1002
{
1070
     2
1000
-2001160
1002
}
  0
LINE
  5
72F
330
6E9
100
AcDbEntity
  8
D35160537
100
AcDbLine
 10
1.678770573449036
 20
-4.836816489362726
 30
0.0
 11
1.710821927609913
 21
-4.769015598981749
 31
0.0
1001
REVIT
1002
{
1070
     2
1000
-2001160
1002
}
  0
LINE
  5
730
330
6E9
100
AcDbEntity
  8
D35160537
100
AcDbLine
 10
1.606666412566767
 20
-4.96830410301196
 30
0.0
 11
1.644033544489265
 21
-4.903281433950437
 31
0.0
1001
REVIT
1002
{
1070
     2
1000
-2001160
1002
}
  0
LINE
  5
731
330
6E9
100
AcDbEntity
  8
D35160537
100
AcDbLine
 10
1.566728957121384
 20
-5.031780474147578
 30
0.0
 11
1.606666412566767
 21
-4.96830410301196
 31
0.0
1001
REVIT
1002
{
1070
     2
1000
-2001160
1002
}
  0
LINE
  5
732
330
6E9
100
AcDbEntity
  8
D35160537
100
AcDbLine
 10
1.811211210746194
 20
-4.48665031146129
 30
0.0
 11
1.82915371421452
 21
-4.413833303768801
 31
0.0
1001
REVIT
1002
{
1070
     2
1000
-2001160
1002
}
  0
LINE
  5
733
330
6E9
100
AcDbEntity
  8
D35160537
100
AcDbLine
 10
1.710821927609913
 20
-4.769015598981749
 30
0.0
 11
1.740136331642486
 21
-4.699987229768692
 31
0.0
1001
REVIT
1002
{
1070
     2
1000
-2001160
1002
}
  0
LINE
  5
734
330
6E9
100
AcDbEntity
  8
D35160537
100
AcDbLine
 10
1.740136331642486
 20
-4.699987229768692
 30
0.0
 11
1.766666888753722
 21
-4.629841812389028
 31
0.0
1001
REVIT
1002
{
1070
     2
1000
-2001160
1002
}
  0
LINE
  5
735
330
6E9
100
AcDbEntity
  8
D35160537
100
AcDbLine
 10
1.82915371421452
 20
-4.413833303768801
 30
0.0
 11
1.84416996193875
 21
-4.340357033148394
 31
0.0
1001
REVIT
1002
{
1070
     2
1000
-2001160
1002
}
  0
LINE
  5
736
330
6E9
100
AcDbEntity
  8
D35160537
100
AcDbLine
 10
1.766666888753722
 20
-4.629841812389028
 30
0.0
 11
1.790371155711782
 21
-4.558691564547019
 31
0.0
1001
REVIT
1002
{
1070
     2
1000
-2001160
1002
}
  0
LINE
  5
737
330
6E9
100
AcDbEntity
  8
D35160537
100
AcDbLine
 10
1.790371155711782
 20
-4.558691564547019
 30
0.0
 11
1.811211210746194
 21
-4.48665031146129
 31
0.0
1001
REVIT
1002
{
1070
     2
1000
-2001160
1002
}
  0
LINE
  5
738
330
6E9
100
AcDbEntity
  8
D35160537
100
AcDbLine
 10
1.871444572678392
 20
-4.117152251027794
 30
0.0
 11
1.874562914461734
 21
-4.042222110333136
 31
0.0
1001
REVIT
1002
{
1070
     2
1000
-2001160
1002
}
  0
LINE
  5
739
330
6E9
100
AcDbEntity
  8
D35160537
100
AcDbLine
 10
1.856235931125827
 20
-4.266339045958965
 30
0.0
 11
1.865332318798977
 21
-4.19189775519034
 31
0.0
1001
REVIT
1002
{
1070
     2
1000
-2001160
1002
}
  0
LINE
  5
73A
330
6E9
100
AcDbEntity
  8
D35160537
100
AcDbLine
 10
1.84416996193875
 20
-4.340357033148394
 30
0.0
 11
1.856235931125827
 21
-4.266339045958965
 31
0.0
1001
REVIT
1002
{
1070
     2
1000
-2001160
1002
}
  0
LINE
  5
73B
330
6E9
100
AcDbEntity
  8
D35160537
100
AcDbLine
 10
1.874562914461734
 20
-4.042222110333136
 30
0.0
 11
1.874999999999993
 21
-4.001739030846711
 31
0.0
1001
REVIT
1002
{
1070
     2
1000
-2001160
1002
}
  0
LINE
  5
73C
330
6E9
100
AcDbEntity
  8
D35160537
100
AcDbLine
 10
1.865332318798977
 20
-4.19189775519034
 30
0.0
 11
1.871444572678392
 21
-4.117152251027794
 31
0.0
1001
REVIT
1002
{
1070
     2
1000
-2001160
1002
}
  0
LINE
  5
73D
330
6E9
100
AcDbEntity
  8
D35160537
100
AcDbLine
 10
1.873500199989323
 20
4.074980001600001
 30
0.0
 11
1.869003199317404
 21
4.149840051192264
 31
0.0
1001
REVIT
1002
{
1070
     2
1000
-2001160
1002
}
  0
LINE
  5
73E
330
6E9
100
AcDbEntity
  8
D35160537
100
AcDbLine
 10
1.874999999999993
 20
4.000000000000061
 30
0.0
 11
1.873500199989323
 21
4.074980001600001
 31
0.0
1001
REVIT
1002
{
1070
     2
1000
-2001160
1002
}
  0
LINE
  5
73F
330
6E9
100
AcDbEntity
  8
D35160537
100
AcDbLine
 10
1.869003199317404
 20
4.149840051192264
 30
0.0
 11
1.861516192225995
 21
4.224460388666789
 31
0.0
1001
REVIT
1002
{
1070
     2
1000
-2001160
1002
}
  0
LINE
  5
740
330
6E9
100
AcDbEntity
  8
D35160537
100
AcDbLine
 10
1.851051156329291
 20
4.29872163740177
 30
0.0
 11
1.837624833452327
 21
4.372504995240796
 31
0.0
1001
REVIT
1002
{
1070
     2
1000
-2001160
1002
}
  0
LINE
  5
741
330
6E9
100
AcDbEntity
  8
D35160537
100
AcDbLine
 10
1.861516192225995
 20
4.224460388666789
 30
0.0
 11
1.851051156329291
 21
4.29872163740177
 31
0.0
1001
REVIT
1002
{
1070
     2
1000
-2001160
1002
}
  0
LINE
  5
742
330
6E9
100
AcDbEntity
  8
D35160537
100
AcDbLine
 10
1.837624833452327
 20
4.372504995240796
 30
0.0
 11
1.821258702847551
 21
4.445692424550942
 31
0.0
1001
REVIT
1002
{
1070
     2
1000
-2001160
1002
}
  0
LINE
  5
743
330
6E9
100
AcDbEntity
  8
D35160537
100
AcDbLine
 10
1.779816408904569
 20
4.589812301155292
 30
0.0
 11
1.754806544396128
 21
4.660514187390856
 31
0.0
1001
REVIT
1002
{
1070
     2
1000
-2001160
1002
}
  0
LINE
  5
744
330
6E9
100
AcDbEntity
  8
D35160537
100
AcDbLine
 10
1.821258702847551
 20
4.445692424550942
 30
0.0
 11
1.801978946832694
 21
4.518166841057781
 31
0.0
1001
REVIT
1002
{
1070
     2
1000
-2001160
1002
}
  0
LINE
  5
745
330
6E9
100
AcDbEntity
  8
D35160537
100
AcDbLine
 10
1.801978946832694
 20
4.518166841057781
 30
0.0
 11
1.779816408904569
 21
4.589812301155292
 31
0.0
1001
REVIT
1002
{
1070
     2
1000
-2001160
1002
}
  0
LINE
  5
746
330
6E9
100
AcDbEntity
  8
D35160537
100
AcDbLine
 10
1.627160961895587
 20
4.931650258457069
 30
0.0
 11
1.588603333150154
 21
4.995974121101721
 31
0.0
1001
REVIT
1002
{
1070
     2
1000
-2001160
1002
}
  0
LINE
  5
747
330
6E9
100
AcDbEntity
  8
D35160537
100
AcDbLine
 10
1.754806544396128
 20
4.660514187390856
 30
0.0
 11
1.726989363755404
 21
4.730159391828785
 31
0.0
1001
REVIT
1002
{
1070
     2
1000
-2001160
1002
}
  0
LINE
  5
748
330
6E9
100
AcDbEntity
  8
D35160537
100
AcDbLine
 10
1.726989363755404
 20
4.730159391828785
 30
0.0
 11
1.696409368537424
 21
4.798636496998811
 31
0.0
1001
REVIT
1002
{
1070
     2
1000
-2001160
1002
}
  0
LINE
  5
749
330
6E9
100
AcDbEntity
  8
D35160537
100
AcDbLine
 10
1.696409368537424
 20
4.798636496998811
 30
0.0
 11
1.663115480211154
 21
4.865835954140346
 31
0.0
1001
REVIT
1002
{
1070
     2
1000
-2001160
1002
}
  0
LINE
  5
74A
330
6E9
100
AcDbEntity
  8
D35160537
100
AcDbLine
 10
1.663115480211154
 20
4.865835954140346
 30
0.0
 11
1.627160961895587
 21
4.931650258457069
 31
0.0
1001
REVIT
1002
{
1070
     2
1000
-2001160
1002
}
  0
LINE
  5
74B
330
6E9
100
AcDbEntity
  8
D35160537
100
AcDbLine
 10
1.588603333150154
 20
4.995974121101721
 30
0.0
 11
1.547504277955646
 21
5.05870463761576
 31
0.0
1001
REVIT
1002
{
1070
     2
1000
-2001160
1002
}
  0
LINE
  5
74C
330
6E9
100
AcDbEntity
  8
D35160537
100
AcDbLine
 10
1.547504277955646
 20
5.05870463761576
 30
0.0
 11
1.503929546033049
 21
5.119741452554548
 31
0.0
1001
REVIT
1002
{
1070
     2
1000
-2001160
1002
}
  0
LINE
  5
74D
330
6E9
100
AcDbEntity
  8
D35160537
100
AcDbLine
 10
1.503929546033049
 20
5.119741452554548
 30
0.0
 11
1.457948847657985
 21
5.178986920034696
 31
0.0
1001
REVIT
1002
{
1070
     2
1000
-2001160
1002
}
  0
LINE
  5
74E
330
6E9
100
AcDbEntity
  8
D35160537
100
AcDbLine
 10
1.359067520139199
 20
5.291727709582356
 30
0.0
 11
1.306325080025928
 21
5.345042670436677
 31
0.0
1001
REVIT
1002
{
1070
     2
1000
-2001160
1002
}
  0
LINE
  5
74F
330
6E9
100
AcDbEntity
  8
D35160537
100
AcDbLine
 10
1.457948847657985
 20
5.178986920034696
 30
0.0
 11
1.409635742139176
 21
5.236346259946581
 31
0.0
1001
REVIT
1002
{
1070
     2
1000
-2001160
1002
}
  0
LINE
  5
750
330
6E9
100
AcDbEntity
  8
D35160537
100
AcDbLine
 10
1.135912793706492
 20
5.491753037568256
 30
0.0
 11
1.075349973885846
 21
5.53598419056444
 31
0.0
1001
REVIT
1002
{
1070
     2
1000
-2001160
1002
}
  0
LINE
  5
751
330
6E9
100
AcDbEntity
  8
D35160537
100
AcDbLine
 10
1.251492798452453
 20
5.396205849945428
 30
0.0
 11
1.194658395372325
 21
5.445135397935641
 31
0.0
1001
REVIT
1002
{
1070
     2
1000
-2001160
1002
}
  0
LINE
  5
752
330
6E9
100
AcDbEntity
  8
D35160537
100
AcDbLine
 10
1.409635742139176
 20
5.236346259946581
 30
0.0
 11
1.359067520139199
 21
5.291727709582356
 31
0.0
1001
REVIT
1002
{
1070
     2
1000
-2001160
1002
}
  0
LINE
  5
753
330
6E9
100
AcDbEntity
  8
D35160537
100
AcDbLine
 10
1.194658395372325
 20
5.445135397935641
 30
0.0
 11
1.135912793706492
 21
5.491753037568256
 31
0.0
1001
REVIT
1002
{
1070
     2
1000
-2001160
1002
}
  0
LINE
  5
754
330
6E9
100
AcDbEntity
  8
D35160537
100
AcDbLine
 10
1.075349973885846
 20
5.53598419056444
 30
0.0
 11
1.013066823502758
 21
5.577758096514876
 31
0.0
1001
REVIT
1002
{
1070
     2
1000
-2001160
1002
}
  0
LINE
  5
755
330
6E9
100
AcDbEntity
  8
D35160537
100
AcDbLine
 10
1.306325080025928
 20
5.345042670436677
 30
0.0
 11
1.251492798452453
 21
5.396205849945428
 31
0.0
1001
REVIT
1002
{
1070
     2
1000
-2001160
1002
}
  0
LINE
  5
756
330
6E9
100
AcDbEntity
  8
D35160537
100
AcDbLine
 10
0.7487616176367565
 20
5.719005828947136
 30
0.0
 11
0.679420789643761
 21
5.747573286188617
 31
0.0
1001
REVIT
1002
{
1070
     2
1000
-2001160
1002
}
  0
LINE
  5
757
330
6E9
100
AcDbEntity
  8
D35160537
100
AcDbLine
 10
0.8169045867688286
 20
5.68768832908102
 30
0.0
 11
0.7487616176367565
 21
5.719005828947136
 31
0.0
1001
REVIT
1002
{
1070
     2
1000
-2001160
1002
}
  0
LINE
  5
758
330
6E9
100
AcDbEntity
  8
D35160537
100
AcDbLine
 10
0.9491629823114568
 20
5.617007926081329
 30
0.0
 11
0.8837406828257567
 21
5.653670887909352
 31
0.0
1001
REVIT
1002
{
1070
     2
1000
-2001160
1002
}
  0
LINE
  5
759
330
6E9
100
AcDbEntity
  8
D35160537
100
AcDbLine
 10
0.8837406828257567
 20
5.653670887909352
 30
0.0
 11
0.8169045867688286
 21
5.68768832908102
 31
0.0
1001
REVIT
1002
{
1070
     2
1000
-2001160
1002
}
  0
LINE
  5
75A
330
6E9
100
AcDbEntity
  8
D35160537
100
AcDbLine
 10
1.013066823502758
 20
5.577758096514876
 30
0.0
 11
0.9491629823114568
 21
5.617007926081329
 31
0.0
1001
REVIT
1002
{
1070
     2
1000
-2001160
1002
}
  0
LINE
  5
75B
330
6E9
100
AcDbEntity
  8
D35160537
100
AcDbLine
 10
0.6089930333226979
 20
5.773344998967954
 30
0.0
 11
0.5375910180599104
 21
5.796279738042364
 31
0.0
1001
REVIT
1002
{
1070
     2
1000
-2001160
1002
}
  0
LINE
  5
75C
330
6E9
100
AcDbEntity
  8
D35160537
100
AcDbLine
 10
0.679420789643761
 20
5.747573286188617
 30
0.0
 11
0.6089930333226979
 21
5.773344998967954
 31
0.0
1001
REVIT
1002
{
1070
     2
1000
-2001160
1002
}
  0
LINE
  5
75D
330
6E9
100
AcDbEntity
  8
D35160537
100
AcDbLine
 10
0.3923224985463994
 20
5.833496129566287
 30
0.0
 11
0.3186883929379475
 21
5.847718243728434
 31
0.0
1001
REVIT
1002
{
1070
     2
1000
-2001160
1002
}
  0
LINE
  5
75E
330
6E9
100
AcDbEntity
  8
D35160537
100
AcDbLine
 10
0.5375910180599104
 20
5.796279738042364
 30
0.0
 11
0.4653289718481913
 21
5.816340812721814
 31
0.0
1001
REVIT
1002
{
1070
     2
1000
-2001160
1002
}
  0
LINE
  5
75F
330
6E9
100
AcDbEntity
  8
D35160537
100
AcDbLine
 10
0.2445444538840077
 20
5.858984402859481
 30
0.0
 11
0.1700092958705787
 21
5.867276583508153
 31
0.0
1001
REVIT
1002
{
1070
     2
1000
-2001160
1002
}
  0
LINE
  5
760
330
6E9
100
AcDbEntity
  8
D35160537
100
AcDbLine
 10
0.0952021592504521
 20
5.87258151995429
 30
0.0
 11
0.0202427194842413
 21
5.874890725431259
 31
0.0
1001
REVIT
1002
{
1070
     2
1000
-2001160
1002
}
  0
LINE
  5
761
330
6E9
100
AcDbEntity
  8
D35160537
100
AcDbLine
 10
0.3186883929379475
 20
5.847718243728434
 30
0.0
 11
0.2445444538840077
 21
5.858984402859481
 31
0.0
1001
REVIT
1002
{
1070
     2
1000
-2001160
1002
}
  0
LINE
  5
762
330
6E9
100
AcDbEntity
  8
D35160537
100
AcDbLine
 10
0.4653289718481913
 20
5.816340812721814
 30
0.0
 11
0.3923224985463994
 21
5.833496129566287
 31
0.0
1001
REVIT
1002
{
1070
     2
1000
-2001160
1002
}
  0
LINE
  5
763
330
6E9
100
AcDbEntity
  8
D35160537
100
AcDbLine
 10
0.1700092958705787
 20
5.867276583508153
 30
0.0
 11
0.0952021592504521
 21
5.87258151995429
 31
0.0
1001
REVIT
1002
{
1070
     2
1000
-2001160
1002
}
  0
LINE
  5
764
330
6E9
100
AcDbEntity
  8
D35160537
100
AcDbLine
 10
-0.2787200630088187
 20
5.854168311258885
 30
0.0
 11
-0.3526440729241564
 21
5.841539344633107
 31
0.0
1001
REVIT
1002
{
1070
     2
1000
-2001160
1002
}
  0
LINE
  5
765
330
6E9
100
AcDbEntity
  8
D35160537
100
AcDbLine
 10
-0.0547491043149287
 20
5.87420050570289
 30
0.0
 11
-0.1296533412263721
 21
5.870511964973526
 31
0.0
1001
REVIT
1002
{
1070
     2
1000
-2001160
1002
}
  0
LINE
  5
766
330
6E9
100
AcDbEntity
  8
D35160537
100
AcDbLine
 10
-0.1296533412263721
 20
5.870511964973526
 30
0.0
 11
-0.2043501604497664
 21
5.863831004121466
 31
0.0
1001
REVIT
1002
{
1070
     2
1000
-2001160
1002
}
  0
LINE
  5
767
330
6E9
100
AcDbEntity
  8
D35160537
100
AcDbLine
 10
0.0202427194842413
 20
5.874890725431259
 30
0.0
 11
-0.0547491043149287
 21
5.87420050570289
 31
0.0
1001
REVIT
1002
{
1070
     2
1000
-2001160
1002
}
  0
LINE
  5
768
330
6E9
100
AcDbEntity
  8
D35160537
100
AcDbLine
 10
-0.2043501604497664
 20
5.863831004121466
 30
0.0
 11
-0.2787200630088187
 21
5.854168311258885
 31
0.0
1001
REVIT
1002
{
1070
     2
1000
-2001160
1002
}
  0
LINE
  5
769
330
6E9
100
AcDbEntity
  8
D35160537
100
AcDbLine
 10
-0.4260039275495544
 20
5.825964307896685
 30
0.0
 11
-0.4986822667668449
 21
5.807468117785909
 31
0.0
1001
REVIT
1002
{
1070
     2
1000
-2001160
1002
}
  0
LINE
  5
76A
330
6E9
100
AcDbEntity
  8
D35160537
100
AcDbLine
 10
-0.3526440729241564
 20
5.841539344633107
 30
0.0
 11
-0.4260039275495544
 21
5.825964307896685
 31
0.0
1001
REVIT
1002
{
1070
     2
1000
-2001160
1002
}
  0
LINE
  5
76B
330
6E9
100
AcDbEntity
  8
D35160537
100
AcDbLine
 10
-0.4986822667668449
 20
5.807468117785909
 30
0.0
 11
-0.5705628207372044
 21
5.786080364259311
 31
0.0
1001
REVIT
1002
{
1070
     2
1000
-2001160
1002
}
  0
LINE
  5
76C
330
6E9
100
AcDbEntity
  8
D35160537
100
AcDbLine
 10
-0.6415305959079476
 20
5.761835263160057
 30
0.0
 11
-0.7114720589777967
 21
5.734771601477885
 31
0.0
1001
REVIT
1002
{
1070
     2
1000
-2001160
1002
}
  0
LINE
  5
76D
330
6E9
100
AcDbEntity
  8
D35160537
100
AcDbLine
 10
-0.5705628207372044
 20
5.786080364259311
 30
0.0
 11
-0.6415305959079476
 21
5.761835263160057
 31
0.0
1001
REVIT
1002
{
1070
     2
1000
-2001160
1002
}
  0
LINE
  5
76E
330
6E9
100
AcDbEntity
  8
D35160537
100
AcDbLine
 10
-0.8478303040142229
 20
5.672366220537655
 30
0.0
 11
-0.9140289418769313
 21
5.637124336576666
 31
0.0
1001
REVIT
1002
{
1070
     2
1000
-2001160
1002
}
  0
LINE
  5
76F
330
6E9
100
AcDbEntity
  8
D35160537
100
AcDbLine
 10
-0.7114720589777967
 20
5.734771601477885
 30
0.0
 11
-0.7802753185259086
 21
5.704932675298226
 31
0.0
1001
REVIT
1002
{
1070
     2
1000
-2001160
1002
}
  0
LINE
  5
770
330
6E9
100
AcDbEntity
  8
D35160537
100
AcDbLine
 10
-0.7802753185259086
 20
5.704932675298226
 30
0.0
 11
-0.8478303040142229
 21
5.672366220537655
 31
0.0
1001
REVIT
1002
{
1070
     2
1000
-2001160
1002
}
  0
LINE
  5
771
330
6E9
100
AcDbEntity
  8
D35160537
100
AcDbLine
 10
-0.9787653284150927
 20
5.599263402911717
 30
0.0
 11
-1.041935899219914
 21
5.5588439889601
 31
0.0
1001
REVIT
1002
{
1070
     2
1000
-2001160
1002
}
  0
LINE
  5
772
330
6E9
100
AcDbEntity
  8
D35160537
100
AcDbLine
 10
-1.041935899219914
 20
5.5588439889601
 30
0.0
 11
-1.103439594853788
 21
5.515930757161801
 31
0.0
1001
REVIT
1002
{
1070
     2
1000
-2001160
1002
}
  0
LINE
  5
773
330
6E9
100
AcDbEntity
  8
D35160537
100
AcDbLine
 10
-1.163178022523783
 20
5.470592359533358
 30
0.0
 11
-1.221055613489158
 21
5.422901327839301
 31
0.0
1001
REVIT
1002
{
1070
     2
1000
-2001160
1002
}
  0
LINE
  5
774
330
6E9
100
AcDbEntity
  8
D35160537
100
AcDbLine
 10
-1.103439594853788
 20
5.515930757161801
 30
0.0
 11
-1.163178022523783
 21
5.470592359533358
 31
0.0
1001
REVIT
1002
{
1070
     2
1000
-2001160
1002
}
  0
LINE
  5
775
330
6E9
100
AcDbEntity
  8
D35160537
100
AcDbLine
 10
-0.9140289418769313
 20
5.637124336576666
 30
0.0
 11
-0.9787653284150927
 21
5.599263402911717
 31
0.0
1001
REVIT
1002
{
1070
     2
1000
-2001160
1002
}
  0
LINE
  5
776
330
6E9
100
AcDbEntity
  8
D35160537
100
AcDbLine
 10
-1.330861043178987
 20
5.320770185819148
 30
0.0
 11
-1.382613216639856
 21
5.266493463533474
 31
0.0
1001
REVIT
1002
{
1070
     2
1000
-2001160
1002
}
  0
LINE
  5
777
330
6E9
100
AcDbEntity
  8
D35160537
100
AcDbLine
 10
-1.27697977595093
 20
5.372933957556791
 30
0.0
 11
-1.330861043178987
 21
5.320770185819148
 31
0.0
1001
REVIT
1002
{
1070
     2
1000
-2001160
1002
}
  0
LINE
  5
778
330
6E9
100
AcDbEntity
  8
D35160537
100
AcDbLine
 10
-1.566728957121408
 20
5.030041443300928
 30
0.0
 11
-1.606666412566791
 21
4.96656507216531
 31
0.0
1001
REVIT
1002
{
1070
     2
1000
-2001160
1002
}
  0
LINE
  5
779
330
6E9
100
AcDbEntity
  8
D35160537
100
AcDbLine
 10
-1.221055613489158
 20
5.422901327839301
 30
0.0
 11
-1.27697977595093
 21
5.372933957556791
 31
0.0
1001
REVIT
1002
{
1070
     2
1000
-2001160
1002
}
  0
LINE
  5
77A
330
6E9
100
AcDbEntity
  8
D35160537
100
AcDbLine
 10
-1.47940265105539
 20
5.151951733385778
 30
0.0
 11
-1.524285069562316
 21
5.091869967857724
 31
0.0
1001
REVIT
1002
{
1070
     2
1000
-2001160
1002
}
  0
LINE
  5
77B
330
6E9
100
AcDbEntity
  8
D35160537
100
AcDbLine
 10
-1.382613216639856
 20
5.266493463533474
 30
0.0
 11
-1.432153503895842
 21
5.210190621877019
 31
0.0
1001
REVIT
1002
{
1070
     2
1000
-2001160
1002
}
  0
LINE
  5
77C
330
6E9
100
AcDbEntity
  8
D35160537
100
AcDbLine
 10
-1.524285069562316
 20
5.091869967857724
 30
0.0
 11
-1.566728957121408
 21
5.030041443300928
 31
0.0
1001
REVIT
1002
{
1070
     2
1000
-2001160
1002
}
  0
LINE
  5
77D
330
6E9
100
AcDbEntity
  8
D35160537
100
AcDbLine
 10
-1.67877057344907
 20
4.835077458516075
 30
0.0
 11
-1.710821927609937
 21
4.767276568135099
 31
0.0
1001
REVIT
1002
{
1070
     2
1000
-2001160
1002
}
  0
LINE
  5
77E
330
6E9
100
AcDbEntity
  8
D35160537
100
AcDbLine
 10
-1.432153503895842
 20
5.210190621877019
 30
0.0
 11
-1.47940265105539
 21
5.151951733385778
 31
0.0
1001
REVIT
1002
{
1070
     2
1000
-2001160
1002
}
  0
LINE
  5
77F
330
6E9
100
AcDbEntity
  8
D35160537
100
AcDbLine
 10
-1.644033544489299
 20
4.901542403103786
 30
0.0
 11
-1.67877057344907
 21
4.835077458516075
 31
0.0
1001
REVIT
1002
{
1070
     2
1000
-2001160
1002
}
  0
LINE
  5
780
330
6E9
100
AcDbEntity
  8
D35160537
100
AcDbLine
 10
-1.606666412566791
 20
4.96656507216531
 30
0.0
 11
-1.644033544489299
 21
4.901542403103786
 31
0.0
1001
REVIT
1002
{
1070
     2
1000
-2001160
1002
}
  0
LINE
  5
781
330
6E9
100
AcDbEntity
  8
D35160537
100
AcDbLine
 10
-1.710821927609937
 20
4.767276568135099
 30
0.0
 11
-1.74013633164252
 21
4.698248198922041
 31
0.0
1001
REVIT
1002
{
1070
     2
1000
-2001160
1002
}
  0
LINE
  5
782
330
6E9
100
AcDbEntity
  8
D35160537
100
AcDbLine
 10
-1.74013633164252
 20
4.698248198922041
 30
0.0
 11
-1.766666888753756
 21
4.628102781542389
 31
0.0
1001
REVIT
1002
{
1070
     2
1000
-2001160
1002
}
  0
LINE
  5
783
330
6E9
100
AcDbEntity
  8
D35160537
100
AcDbLine
 10
-1.766666888753756
 20
4.628102781542389
 30
0.0
 11
-1.790371155711816
 21
4.556952533700379
 31
0.0
1001
REVIT
1002
{
1070
     2
1000
-2001160
1002
}
  0
LINE
  5
784
330
6E9
100
AcDbEntity
  8
D35160537
100
AcDbLine
 10
-1.790371155711816
 20
4.556952533700379
 30
0.0
 11
-1.811211210746217
 21
4.48491128061465
 31
0.0
1001
REVIT
1002
{
1070
     2
1000
-2001160
1002
}
  0
LINE
  5
785
330
6E9
100
AcDbEntity
  8
D35160537
100
AcDbLine
 10
-1.811211210746217
 20
4.48491128061465
 30
0.0
 11
-1.829153714214544
 21
4.412094272922161
 31
0.0
1001
REVIT
1002
{
1070
     2
1000
-2001160
1002
}
  0
LINE
  5
786
330
6E9
100
AcDbEntity
  8
D35160537
100
AcDbLine
 10
-1.844169961938784
 20
4.338618002301754
 30
0.0
 11
-1.85623593112585
 21
4.264600015112315
 31
0.0
1001
REVIT
1002
{
1070
     2
1000
-2001160
1002
}
  0
LINE
  5
787
330
6E9
100
AcDbEntity
  8
D35160537
100
AcDbLine
 10
-1.829153714214544
 20
4.412094272922161
 30
0.0
 11
-1.844169961938784
 21
4.338618002301754
 31
0.0
1001
REVIT
1002
{
1070
     2
1000
-2001160
1002
}
  0
LINE
  5
788
330
6E9
100
AcDbEntity
  8
D35160537
100
AcDbLine
 10
-1.871444572678416
 20
4.115413220181154
 30
0.0
 11
-1.874562914461757
 21
4.040483079486496
 31
0.0
1001
REVIT
1002
{
1070
     2
1000
-2001160
1002
}
  0
LINE
  5
789
330
6E9
100
AcDbEntity
  8
D35160537
100
AcDbLine
 10
-1.865332318799011
 20
4.19015872434369
 30
0.0
 11
-1.871444572678416
 21
4.115413220181154
 31
0.0
1001
REVIT
1002
{
1070
     2
1000
-2001160
1002
}
  0
LINE
  5
78A
330
6E9
100
AcDbEntity
  8
D35160537
100
AcDbLine
 10
-1.874562914461757
 20
4.040483079486496
 30
0.0
 11
-1.875000000000016
 21
4.000000000000061
 31
0.0
1001
REVIT
1002
{
1070
     2
1000
-2001160
1002
}
  0
LINE
  5
78B
330
6E9
100
AcDbEntity
  8
D35160537
100
AcDbLine
 10
-1.85623593112585
 20
4.264600015112315
 30
0.0
 11
-1.865332318799011
 21
4.19015872434369
 31
0.0
1001
REVIT
1002
{
1070
     2
1000
-2001160
1002
}
  0
LINE
  5
78C
330
6E9
100
AcDbEntity
  8
D35160537
100
AcDbLine
 10
-0.0000000000000278
 20
2.125000000000029
 30
0.0
 11
-0.0170733727173905
 21
2.125341512990663
 31
0.0
1001
REVIT
1002
{
1070
     2
1000
-2001160
1002
}
  0
LINE
  5
78D
330
6E9
100
AcDbEntity
  8
D35160537
100
AcDbLine
 10
-0.2505816474653095
 20
2.254262912045346
 30
0.0
 11
-0.2067962187350212
 21
2.17842432485329
 31
0.0
1001
REVIT
1002
{
1070
     2
1000
-2001160
1002
}
  0
LINE
  5
78E
330
6E9
100
AcDbEntity
  8
D35160537
100
AcDbLine
 10
0.2067962187350189
 20
2.17842432485329
 30
0.0
 11
0.2505816474653178
 21
2.254262912045346
 31
0.0
1001
REVIT
1002
{
1070
     2
1000
-2001160
1002
}
  0
LINE
  5
78F
330
6E9
100
AcDbEntity
  8
D35160537
100
AcDbLine
 10
-0.0170733727173905
 20
2.125341512990663
 30
0.0
 11
-0.0341194316805614
 21
2.126365505614616
 31
0.0
1001
REVIT
1002
{
1070
     2
1000
-2001160
1002
}
  0
LINE
  5
790
330
6E9
100
AcDbEntity
  8
D35160537
100
AcDbLine
 10
-0.0341194316805614
 20
2.126365505614616
 30
0.0
 11
-0.0511109068314782
 21
2.128070339702128
 31
0.0
1001
REVIT
1002
{
1070
     2
1000
-2001160
1002
}
  0
LINE
  5
791
330
6E9
100
AcDbEntity
  8
D35160537
100
AcDbLine
 10
-0.0848215055631834
 20
2.133510537946507
 30
0.0
 11
-0.1014866993772181
 21
2.137237198946704
 31
0.0
1001
REVIT
1002
{
1070
     2
1000
-2001160
1002
}
  0
LINE
  5
792
330
6E9
100
AcDbEntity
  8
D35160537
100
AcDbLine
 10
-0.1014866993772181
 20
2.137237198946704
 30
0.0
 11
-0.1179895361215977
 21
2.141627309020298
 31
0.0
1001
REVIT
1002
{
1070
     2
1000
-2001160
1002
}
  0
LINE
  5
793
330
6E9
100
AcDbEntity
  8
D35160537
100
AcDbLine
 10
-0.0680206154345265
 20
2.130453287882347
 30
0.0
 11
-0.0848215055631834
 21
2.133510537946507
 31
0.0
1001
REVIT
1002
{
1070
     2
1000
-2001160
1002
}
  0
LINE
  5
794
330
6E9
100
AcDbEntity
  8
D35160537
100
AcDbLine
 10
-0.0511109068314782
 20
2.128070339702128
 30
0.0
 11
-0.0680206154345265
 21
2.130453287882347
 31
0.0
1001
REVIT
1002
{
1070
     2
1000
-2001160
1002
}
  0
LINE
  5
795
330
6E9
100
AcDbEntity
  8
D35160537
100
AcDbLine
 10
-0.1343036147779373
 20
2.146673844927688
 30
0.0
 11
-0.1504028363005496
 21
2.152368733287955
 31
0.0
1001
REVIT
1002
{
1070
     2
1000
-2001160
1002
}
  0
LINE
  5
796
330
6E9
100
AcDbEntity
  8
D35160537
100
AcDbLine
 10
-0.1179895361215977
 20
2.141627309020298
 30
0.0
 11
-0.1343036147779373
 21
2.146673844927688
 31
0.0
1001
REVIT
1002
{
1070
     2
1000
-2001160
1002
}
  0
LINE
  5
797
330
6E9
100
AcDbEntity
  8
D35160537
100
AcDbLine
 10
-0.1504028363005496
 20
2.152368733287955
 30
0.0
 11
-0.1662614453692968
 21
2.158702863494569
 31
0.0
1001
REVIT
1002
{
1070
     2
1000
-2001160
1002
}
  0
LINE
  5
798
330
6E9
100
AcDbEntity
  8
D35160537
100
AcDbLine
 10
-0.1662614453692968
 20
2.158702863494569
 30
0.0
 11
-0.1818540715926738
 21
2.165666102290406
 31
0.0
1001
REVIT
1002
{
1070
     2
1000
-2001160
1002
}
  0
LINE
  5
799
330
6E9
100
AcDbEntity
  8
D35160537
100
AcDbLine
 10
0.1120814232686206
 20
2.139974270128992
 30
0.0
 11
0.0955172084597115
 21
2.135821743809477
 31
0.0
1001
REVIT
1002
{
1070
     2
1000
-2001160
1002
}
  0
LINE
  5
79A
330
6E9
100
AcDbEntity
  8
D35160537
100
AcDbLine
 10
0.2067962187350189
 20
2.17842432485329
 30
0.0
 11
0.1916938342799745
 21
2.1704534609828
 31
0.0
1001
REVIT
1002
{
1070
     2
1000
-2001160
1002
}
  0
LINE
  5
79B
330
6E9
100
AcDbEntity
  8
D35160537
100
AcDbLine
 10
0.1916938342799745
 20
2.1704534609828
 30
0.0
 11
0.1762847805825884
 21
2.163092907252207
 31
0.0
1001
REVIT
1002
{
1070
     2
1000
-2001160
1002
}
  0
LINE
  5
79C
330
6E9
100
AcDbEntity
  8
D35160537
100
AcDbLine
 10
-0.1971557700949689
 20
2.173247309978802
 30
0.0
 11
-0.2067962187350212
 21
2.17842432485329
 31
0.0
1001
REVIT
1002
{
1070
     2
1000
-2001160
1002
}
  0
LINE
  5
79D
330
6E9
100
AcDbEntity
  8
D35160537
100
AcDbLine
 10
-0.1818540715926738
 20
2.165666102290406
 30
0.0
 11
-0.1971557700949689
 21
2.173247309978802
 31
0.0
1001
REVIT
1002
{
1070
     2
1000
-2001160
1002
}
  0
LINE
  5
79E
330
6E9
100
AcDbEntity
  8
D35160537
100
AcDbLine
 10
0.1762847805825884
 20
2.163092907252207
 30
0.0
 11
0.1605937088416815
 21
2.156354438977329
 31
0.0
1001
REVIT
1002
{
1070
     2
1000
-2001160
1002
}
  0
LINE
  5
79F
330
6E9
100
AcDbEntity
  8
D35160537
100
AcDbLine
 10
0.1605937088416815
 20
2.156354438977329
 30
0.0
 11
0.1446457214247877
 21
2.150248836269932
 31
0.0
1001
REVIT
1002
{
1070
     2
1000
-2001160
1002
}
  0
LINE
  5
7A0
330
6E9
100
AcDbEntity
  8
D35160537
100
AcDbLine
 10
0.1446457214247877
 20
2.150248836269932
 30
0.0
 11
0.1284663317097282
 21
2.144785866791886
 31
0.0
1001
REVIT
1002
{
1070
     2
1000
-2001160
1002
}
  0
LINE
  5
7A1
330
6E9
100
AcDbEntity
  8
D35160537
100
AcDbLine
 10
0.1284663317097282
 20
2.144785866791886
 30
0.0
 11
0.1120814232686206
 21
2.139974270128992
 31
0.0
1001
REVIT
1002
{
1070
     2
1000
-2001160
1002
}
  0
LINE
  5
7A2
330
6E9
100
AcDbEntity
  8
D35160537
100
AcDbLine
 10
0.078800186493187
 20
2.132334930989647
 30
0.0
 11
0.0619571010380866
 21
2.129519409826192
 31
0.0
1001
REVIT
1002
{
1070
     2
1000
-2001160
1002
}
  0
LINE
  5
7A3
330
6E9
100
AcDbEntity
  8
D35160537
100
AcDbLine
 10
0.0955172084597115
 20
2.135821743809477
 30
0.0
 11
0.078800186493187
 21
2.132334930989647
 31
0.0
1001
REVIT
1002
{
1070
     2
1000
-2001160
1002
}
  0
LINE
  5
7A4
330
6E9
100
AcDbEntity
  8
D35160537
100
AcDbLine
 10
0.0619571010380866
 20
2.129519409826192
 30
0.0
 11
0.045014897438137
 21
2.127379684552353
 31
0.0
1001
REVIT
1002
{
1070
     2
1000
-2001160
1002
}
  0
LINE
  5
7A5
330
6E9
100
AcDbEntity
  8
D35160537
100
AcDbLine
 10
-0.1667912511197252
 20
3.452521405701153
 30
0.0
 11
-0.2505816474653095
 21
2.254262912045346
 31
0.0
1001
REVIT
1002
{
1070
     2
1000
-2001160
1002
}
  0
LINE
  5
7A6
330
6E9
100
AcDbEntity
  8
D35160537
100
AcDbLine
 10
0.0109416666575412
 20
2.125140227484
 30
0.0
 11
-0.0000000000000065
 21
2.125000000000029
 31
0.0
1001
REVIT
1002
{
1070
     2
1000
-2001160
1002
}
  0
LINE
  5
7A7
330
6E9
100
AcDbEntity
  8
D35160537
100
AcDbLine
 10
0.0280006796049334
 20
2.125919178272128
 30
0.0
 11
0.0109416666575412
 21
2.125140227484
 31
0.0
1001
REVIT
1002
{
1070
     2
1000
-2001160
1002
}
  0
LINE
  5
7A8
330
6E9
100
AcDbEntity
  8
D35160537
100
AcDbLine
 10
0.2505816474653178
 20
2.254262912045346
 30
0.0
 11
0.1667912511197228
 21
3.452521405701142
 31
0.0
1001
REVIT
1002
{
1070
     2
1000
-2001160
1002
}
  0
LINE
  5
7A9
330
6E9
100
AcDbEntity
  8
D35160537
100
AcDbLine
 10
-0.0341194316805614
 20
-1.873634494384644
 30
0.0
 11
-0.0511109068314782
 21
-1.871929660297132
 31
0.0
1001
REVIT
1002
{
1070
     2
1000
-2001160
1002
}
  0
LINE
  5
7AA
330
6E9
100
AcDbEntity
  8
D35160537
100
AcDbLine
 10
-0.0000000000000278
 20
-1.87499999999922
 30
0.0
 11
-0.0170733727173905
 21
-1.874658487008596
 31
0.0
1001
REVIT
1002
{
1070
     2
1000
-2001160
1002
}
  0
LINE
  5
7AB
330
6E9
100
AcDbEntity
  8
D35160537
100
AcDbLine
 10
-0.0170733727173905
 20
-1.874658487008596
 30
0.0
 11
-0.0341194316805614
 21
-1.873634494384644
 31
0.0
1001
REVIT
1002
{
1070
     2
1000
-2001160
1002
}
  0
LINE
  5
7AC
330
6E9
100
AcDbEntity
  8
D35160537
100
AcDbLine
 10
0.045014897438137
 20
2.127379684552353
 30
0.0
 11
0.0280006796049334
 21
2.125919178272128
 31
0.0
1001
REVIT
1002
{
1070
     2
1000
-2001160
1002
}
  0
LINE
  5
7AD
330
6E9
100
AcDbEntity
  8
D35160537
100
AcDbLine
 10
-0.0511109068314782
 20
-1.871929660297132
 30
0.0
 11
-0.0680206154345265
 21
-1.869546712116923
 31
0.0
1001
REVIT
1002
{
1070
     2
1000
-2001160
1002
}
  0
LINE
  5
7AE
330
6E9
100
AcDbEntity
  8
D35160537
100
AcDbLine
 10
0.2067962187350189
 20
-1.82157567514597
 30
0.0
 11
0.2505816474653072
 21
-1.745737087953914
 31
0.0
1001
REVIT
1002
{
1070
     2
1000
-2001160
1002
}
  0
LINE
  5
7AF
330
6E9
100
AcDbEntity
  8
D35160537
100
AcDbLine
 10
-0.1179895361215977
 20
-1.858372690978962
 30
0.0
 11
-0.1343036147779373
 21
-1.853326155071572
 31
0.0
1001
REVIT
1002
{
1070
     2
1000
-2001160
1002
}
  0
LINE
  5
7B0
330
6E9
100
AcDbEntity
  8
D35160537
100
AcDbLine
 10
-0.1014866993772181
 20
-1.862762801052555
 30
0.0
 11
-0.1179895361215977
 21
-1.858372690978962
 31
0.0
1001
REVIT
1002
{
1070
     2
1000
-2001160
1002
}
  0
LINE
  5
7B1
330
6E9
100
AcDbEntity
  8
D35160537
100
AcDbLine
 10
-0.2505816474653095
 20
-1.745737087953914
 30
0.0
 11
-0.2067962187350212
 21
-1.82157567514597
 31
0.0
1001
REVIT
1002
{
1070
     2
1000
-2001160
1002
}
  0
LINE
  5
7B2
330
6E9
100
AcDbEntity
  8
D35160537
100
AcDbLine
 10
-0.0848215055631834
 20
-1.866489462052752
 30
0.0
 11
-0.1014866993772181
 21
-1.862762801052555
 31
0.0
1001
REVIT
1002
{
1070
     2
1000
-2001160
1002
}
  0
LINE
  5
7B3
330
6E9
100
AcDbEntity
  8
D35160537
100
AcDbLine
 10
-0.1504028363005496
 20
-1.847631266711305
 30
0.0
 11
-0.1662614453692968
 21
-1.84129713650469
 31
0.0
1001
REVIT
1002
{
1070
     2
1000
-2001160
1002
}
  0
LINE
  5
7B4
330
6E9
100
AcDbEntity
  8
D35160537
100
AcDbLine
 10
-0.1343036147779373
 20
-1.853326155071572
 30
0.0
 11
-0.1504028363005496
 21
-1.847631266711305
 31
0.0
1001
REVIT
1002
{
1070
     2
1000
-2001160
1002
}
  0
LINE
  5
7B5
330
6E9
100
AcDbEntity
  8
D35160537
100
AcDbLine
 10
-0.0680206154345265
 20
-1.869546712116923
 30
0.0
 11
-0.0848215055631834
 21
-1.866489462052752
 31
0.0
1001
REVIT
1002
{
1070
     2
1000
-2001160
1002
}
  0
LINE
  5
7B6
330
6E9
100
AcDbEntity
  8
D35160537
100
AcDbLine
 10
-0.1971557700949689
 20
-1.826752690020446
 30
0.0
 11
-0.2067962187350212
 21
-1.82157567514597
 31
0.0
1001
REVIT
1002
{
1070
     2
1000
-2001160
1002
}
  0
LINE
  5
7B7
330
6E9
100
AcDbEntity
  8
D35160537
100
AcDbLine
 10
0.1916938342799745
 20
-1.82954653901646
 30
0.0
 11
0.1762847805825884
 21
-1.836907092747041
 31
0.0
1001
REVIT
1002
{
1070
     2
1000
-2001160
1002
}
  0
LINE
  5
7B8
330
6E9
100
AcDbEntity
  8
D35160537
100
AcDbLine
 10
-0.1662614453692968
 20
-1.84129713650469
 30
0.0
 11
-0.1818540715926738
 21
-1.834333897708853
 31
0.0
1001
REVIT
1002
{
1070
     2
1000
-2001160
1002
}
  0
LINE
  5
7B9
330
6E9
100
AcDbEntity
  8
D35160537
100
AcDbLine
 10
0.1120814232686313
 20
-1.860025729870278
 30
0.0
 11
0.0955172084597115
 21
-1.864178256189782
 31
0.0
1001
REVIT
1002
{
1070
     2
1000
-2001160
1002
}
  0
LINE
  5
7BA
330
6E9
100
AcDbEntity
  8
D35160537
100
AcDbLine
 10
-0.1818540715926738
 20
-1.834333897708853
 30
0.0
 11
-0.1971557700949689
 21
-1.826752690020446
 31
0.0
1001
REVIT
1002
{
1070
     2
1000
-2001160
1002
}
  0
LINE
  5
7BB
330
6E9
100
AcDbEntity
  8
D35160537
100
AcDbLine
 10
0.1762847805825884
 20
-1.836907092747041
 30
0.0
 11
0.1605937088416815
 21
-1.843645561021931
 31
0.0
1001
REVIT
1002
{
1070
     2
1000
-2001160
1002
}
  0
LINE
  5
7BC
330
6E9
100
AcDbEntity
  8
D35160537
100
AcDbLine
 10
0.2067962187350189
 20
-1.82157567514597
 30
0.0
 11
0.1916938342799745
 21
-1.82954653901646
 31
0.0
1001
REVIT
1002
{
1070
     2
1000
-2001160
1002
}
  0
LINE
  5
7BD
330
6E9
100
AcDbEntity
  8
D35160537
100
AcDbLine
 10
0.1284663317097282
 20
-1.855214133207373
 30
0.0
 11
0.1120814232686313
 21
-1.860025729870278
 31
0.0
1001
REVIT
1002
{
1070
     2
1000
-2001160
1002
}
  0
LINE
  5
7BE
330
6E9
100
AcDbEntity
  8
D35160537
100
AcDbLine
 10
0.1605937088416815
 20
-1.843645561021931
 30
0.0
 11
0.1446457214247877
 21
-1.849751163729328
 31
0.0
1001
REVIT
1002
{
1070
     2
1000
-2001160
1002
}
  0
LINE
  5
7BF
330
6E9
100
AcDbEntity
  8
D35160537
100
AcDbLine
 10
0.1446457214247877
 20
-1.849751163729328
 30
0.0
 11
0.1284663317097282
 21
-1.855214133207373
 31
0.0
1001
REVIT
1002
{
1070
     2
1000
-2001160
1002
}
  0
LINE
  5
7C0
330
6E9
100
AcDbEntity
  8
D35160537
100
AcDbLine
 10
0.0955172084597115
 20
-1.864178256189782
 30
0.0
 11
0.078800186493187
 21
-1.867665069009612
 31
0.0
1001
REVIT
1002
{
1070
     2
1000
-2001160
1002
}
  0
LINE
  5
7C1
330
6E9
100
AcDbEntity
  8
D35160537
100
AcDbLine
 10
0.0109416666575412
 20
-1.874859772515259
 30
0.0
 11
-0.0000000000000065
 21
-1.87499999999922
 31
0.0
1001
REVIT
1002
{
1070
     2
1000
-2001160
1002
}
  0
LINE
  5
7C2
330
6E9
100
AcDbEntity
  8
D35160537
100
AcDbLine
 10
0.045014897438137
 20
-1.872620315446907
 30
0.0
 11
0.0280006796049334
 21
-1.874080821727131
 31
0.0
1001
REVIT
1002
{
1070
     2
1000
-2001160
1002
}
  0
LINE
  5
7C3
330
6E9
100
AcDbEntity
  8
D35160537
100
AcDbLine
 10
0.2505816474653072
 20
-1.745737087953924
 30
0.0
 11
0.1667912511197761
 21
-0.5474785942988642
 31
0.0
1001
REVIT
1002
{
1070
     2
1000
-2001160
1002
}
  0
LINE
  5
7C4
330
6E9
100
AcDbEntity
  8
D35160537
100
AcDbLine
 10
0.0619571010380866
 20
-1.870480590173078
 30
0.0
 11
0.045014897438137
 21
-1.872620315446907
 31
0.0
1001
REVIT
1002
{
1070
     2
1000
-2001160
1002
}
  0
LINE
  5
7C5
330
6E9
100
AcDbEntity
  8
D35160537
100
AcDbLine
 10
0.078800186493187
 20
-1.867665069009612
 30
0.0
 11
0.0619571010380866
 21
-1.870480590173078
 31
0.0
1001
REVIT
1002
{
1070
     2
1000
-2001160
1002
}
  0
LINE
  5
7C6
330
6E9
100
AcDbEntity
  8
D35160537
100
AcDbLine
 10
-0.0000000000000278
 20
-5.87499999999849
 30
0.0
 11
-0.0170733727173905
 21
-5.874658487007867
 31
0.0
1001
REVIT
1002
{
1070
     2
1000
-2001160
1002
}
  0
LINE
  5
7C7
330
6E9
100
AcDbEntity
  8
D35160537
100
AcDbLine
 10
-0.1667912511197785
 20
-0.5474785942988642
 30
0.0
 11
-0.2505816474653095
 21
-1.745737087953924
 31
0.0
1001
REVIT
1002
{
1070
     2
1000
-2001160
1002
}
  0
LINE
  5
7C8
330
6E9
100
AcDbEntity
  8
D35160537
100
AcDbLine
 10
0.0280006796049334
 20
-1.874080821727131
 30
0.0
 11
0.0109416666575412
 21
-1.874859772515259
 31
0.0
1001
REVIT
1002
{
1070
     2
1000
-2001160
1002
}
  0
LINE
  5
7C9
330
6E9
100
AcDbEntity
  8
D35160537
100
AcDbLine
 10
-0.0170733727173905
 20
-5.874658487007867
 30
0.0
 11
-0.0341194316805614
 21
-5.873634494383915
 31
0.0
1001
REVIT
1002
{
1070
     2
1000
-2001160
1002
}
  0
LINE
  5
7CA
330
6E9
100
AcDbEntity
  8
D35160537
100
AcDbLine
 10
-0.0341194316805614
 20
-5.873634494383915
 30
0.0
 11
-0.0511109068314782
 21
-5.871929660296403
 31
0.0
1001
REVIT
1002
{
1070
     2
1000
-2001160
1002
}
  0
LINE
  5
7CB
330
6E9
100
AcDbEntity
  8
D35160537
100
AcDbLine
 10
0.2067962187350189
 20
-5.821575675145241
 30
0.0
 11
0.2505816474653072
 21
-5.745737087953195
 31
0.0
1001
REVIT
1002
{
1070
     2
1000
-2001160
1002
}
  0
LINE
  5
7CC
330
6E9
100
AcDbEntity
  8
D35160537
100
AcDbLine
 10
-0.0511109068314782
 20
-5.871929660296403
 30
0.0
 11
-0.0680206154345265
 21
-5.869546712116183
 31
0.0
1001
REVIT
1002
{
1070
     2
1000
-2001160
1002
}
  0
LINE
  5
7CD
330
6E9
100
AcDbEntity
  8
D35160537
100
AcDbLine
 10
-0.0848215055631834
 20
-5.866489462052013
 30
0.0
 11
-0.1014866993772181
 21
-5.862762801051826
 31
0.0
1001
REVIT
1002
{
1070
     2
1000
-2001160
1002
}
  0
LINE
  5
7CE
330
6E9
100
AcDbEntity
  8
D35160537
100
AcDbLine
 10
-0.2505816474653095
 20
-5.745737087953195
 30
0.0
 11
-0.2067962187350212
 21
-5.821575675145241
 31
0.0
1001
REVIT
1002
{
1070
     2
1000
-2001160
1002
}
  0
LINE
  5
7CF
330
6E9
100
AcDbEntity
  8
D35160537
100
AcDbLine
 10
-0.1343036147779373
 20
-5.853326155070843
 30
0.0
 11
-0.1504028363005496
 21
-5.847631266710576
 31
0.0
1001
REVIT
1002
{
1070
     2
1000
-2001160
1002
}
  0
LINE
  5
7D0
330
6E9
100
AcDbEntity
  8
D35160537
100
AcDbLine
 10
-0.0680206154345265
 20
-5.869546712116183
 30
0.0
 11
-0.0848215055631834
 21
-5.866489462052013
 31
0.0
1001
REVIT
1002
{
1070
     2
1000
-2001160
1002
}
  0
LINE
  5
7D1
330
6E9
100
AcDbEntity
  8
D35160537
100
AcDbLine
 10
-0.1179895361215977
 20
-5.858372690978232
 30
0.0
 11
-0.1343036147779373
 21
-5.853326155070843
 31
0.0
1001
REVIT
1002
{
1070
     2
1000
-2001160
1002
}
  0
LINE
  5
7D2
330
6E9
100
AcDbEntity
  8
D35160537
100
AcDbLine
 10
-0.1662614453692968
 20
-5.841297136503961
 30
0.0
 11
-0.1818540715926738
 21
-5.834333897708124
 31
0.0
1001
REVIT
1002
{
1070
     2
1000
-2001160
1002
}
  0
LINE
  5
7D3
330
6E9
100
AcDbEntity
  8
D35160537
100
AcDbLine
 10
-0.1971557700949689
 20
-5.826752690019728
 30
0.0
 11
-0.2067962187350212
 21
-5.821575675145241
 31
0.0
1001
REVIT
1002
{
1070
     2
1000
-2001160
1002
}
  0
LINE
  5
7D4
330
6E9
100
AcDbEntity
  8
D35160537
100
AcDbLine
 10
-0.1818540715926738
 20
-5.834333897708124
 30
0.0
 11
-0.1971557700949689
 21
-5.826752690019728
 31
0.0
1001
REVIT
1002
{
1070
     2
1000
-2001160
1002
}
  0
LINE
  5
7D5
330
6E9
100
AcDbEntity
  8
D35160537
100
AcDbLine
 10
-0.1014866993772181
 20
-5.862762801051826
 30
0.0
 11
-0.1179895361215977
 21
-5.858372690978232
 31
0.0
1001
REVIT
1002
{
1070
     2
1000
-2001160
1002
}
  0
LINE
  5
7D6
330
6E9
100
AcDbEntity
  8
D35160537
100
AcDbLine
 10
0.1446457214247877
 20
-5.849751163728599
 30
0.0
 11
0.1284663317097282
 21
-5.855214133206644
 31
0.0
1001
REVIT
1002
{
1070
     2
1000
-2001160
1002
}
  0
LINE
  5
7D7
330
6E9
100
AcDbEntity
  8
D35160537
100
AcDbLine
 10
0.2067962187350189
 20
-5.821575675145241
 30
0.0
 11
0.1916938342799745
 21
-5.829546539015731
 31
0.0
1001
REVIT
1002
{
1070
     2
1000
-2001160
1002
}
  0
LINE
  5
7D8
330
6E9
100
AcDbEntity
  8
D35160537
100
AcDbLine
 10
-0.1504028363005496
 20
-5.847631266710576
 30
0.0
 11
-0.1662614453692968
 21
-5.841297136503961
 31
0.0
1001
REVIT
1002
{
1070
     2
1000
-2001160
1002
}
  0
LINE
  5
7D9
330
6E9
100
AcDbEntity
  8
D35160537
100
AcDbLine
 10
0.1916938342799745
 20
-5.829546539015731
 30
0.0
 11
0.1762847805825884
 21
-5.836907092746323
 31
0.0
1001
REVIT
1002
{
1070
     2
1000
-2001160
1002
}
  0
LINE
  5
7DA
330
6E9
100
AcDbEntity
  8
D35160537
100
AcDbLine
 10
0.1284663317097282
 20
-5.855214133206644
 30
0.0
 11
0.1120814232686206
 21
-5.860025729869549
 31
0.0
1001
REVIT
1002
{
1070
     2
1000
-2001160
1002
}
  0
LINE
  5
7DB
330
6E9
100
AcDbEntity
  8
D35160537
100
AcDbLine
 10
0.1762847805825884
 20
-5.836907092746323
 30
0.0
 11
0.1605937088416815
 21
-5.843645561021202
 31
0.0
1001
REVIT
1002
{
1070
     2
1000
-2001160
1002
}
  0
LINE
  5
7DC
330
6E9
100
AcDbEntity
  8
D35160537
100
AcDbLine
 10
0.078800186493187
 20
-5.867665069008883
 30
0.0
 11
0.0619571010380866
 21
-5.870480590172339
 31
0.0
1001
REVIT
1002
{
1070
     2
1000
-2001160
1002
}
  0
LINE
  5
7DD
330
6E9
100
AcDbEntity
  8
D35160537
100
AcDbLine
 10
0.1605937088416815
 20
-5.843645561021202
 30
0.0
 11
0.1446457214247877
 21
-5.849751163728599
 31
0.0
1001
REVIT
1002
{
1070
     2
1000
-2001160
1002
}
  0
LINE
  5
7DE
330
6E9
100
AcDbEntity
  8
D35160537
100
AcDbLine
 10
0.1120814232686206
 20
-5.860025729869549
 30
0.0
 11
0.0955172084597115
 21
-5.864178256189043
 31
0.0
1001
REVIT
1002
{
1070
     2
1000
-2001160
1002
}
  0
LINE
  5
7DF
330
6E9
100
AcDbEntity
  8
D35160537
100
AcDbLine
 10
0.0955172084597115
 20
-5.864178256189043
 30
0.0
 11
0.078800186493187
 21
-5.867665069008883
 31
0.0
1001
REVIT
1002
{
1070
     2
1000
-2001160
1002
}
  0
LINE
  5
7E0
330
6E9
100
AcDbEntity
  8
D35160537
100
AcDbLine
 10
0.0280006796049334
 20
-5.874080821726402
 30
0.0
 11
0.0109416666575412
 21
-5.87485977251453
 31
0.0
1001
REVIT
1002
{
1070
     2
1000
-2001160
1002
}
  0
LINE
  5
7E1
330
6E9
100
AcDbEntity
  8
D35160537
100
AcDbLine
 10
0.045014897438137
 20
-5.872620315446178
 30
0.0
 11
0.0280006796049334
 21
-5.874080821726402
 31
0.0
1001
REVIT
1002
{
1070
     2
1000
-2001160
1002
}
  0
ARC
  5
7E2
330
6E9
100
AcDbEntity
  8
D35160537
100
AcDbCircle
 10
-0.0000000000000134
 20
4.000000000000061
 30
0.0
 40
1.375000000000007
100
AcDbArc
 50
359.9999999999988
 51
179.9999999999988
1001
REVIT
1002
{
1070
     2
1000
-2001160
1002
}
  0
LINE
  5
7E3
330
6E9
100
AcDbEntity
  8
D35160537
100
AcDbLine
 10
0.2505816474653072
 20
-5.745737087953195
 30
0.0
 11
0.1667912511197761
 21
-4.547478594298167
 31
0.0
1001
REVIT
1002
{
1070
     2
1000
-2001160
1002
}
  0
LINE
  5
7E4
330
6E9
100
AcDbEntity
  8
D35160537
100
AcDbLine
 10
0.0619571010380866
 20
-5.870480590172339
 30
0.0
 11
0.045014897438137
 21
-5.872620315446178
 31
0.0
1001
REVIT
1002
{
1070
     2
1000
-2001160
1002
}
  0
LINE
  5
7E5
330
6E9
100
AcDbEntity
  8
D35160537
100
AcDbLine
 10
0.0109416666575412
 20
-5.87485977251453
 30
0.0
 11
-0.0000000000000065
 21
-5.87499999999849
 31
0.0
1001
REVIT
1002
{
1070
     2
1000
-2001160
1002
}
  0
ARC
  5
7E6
330
6E9
100
AcDbEntity
  8
D35160537
100
AcDbCircle
 10
-0.0000000000000248
 20
0.0000000000000319
 30
0.0
 40
1.0748252166633
100
AcDbArc
 50
280.5494296538013
 51
258.7944187412891
1001
REVIT
1002
{
1070
     2
1000
-2001160
1002
}
  0
LINE
  5
7E7
330
6E9
100
AcDbEntity
  8
D35160537
100
AcDbLine
 10
-1.375000000000019
 20
4.000000000000071
 30
0.0
 11
-1.375000000000278
 21
-4.001739030846712
 31
0.0
1001
REVIT
1002
{
1070
     2
1000
-2001160
1002
}
  0
ARC
  5
7E8
330
6E9
100
AcDbEntity
  8
D35160537
100
AcDbCircle
 10
-0.000000000000273
 20
-4.001739030846706
 30
0.0
 40
1.375000000000007
100
AcDbArc
 50
179.9999999999998
 51
260.7722413908148
1001
REVIT
1002
{
1070
     2
1000
-2001160
1002
}
  0
LINE
  5
7E9
330
6E9
100
AcDbEntity
  8
D35160537
100
AcDbLine
 10
1.374999999999979
 20
-4.001739030846708
 30
0.0
 11
1.374999999999992
 21
4.000000000000059
 31
0.0
1001
REVIT
1002
{
1070
     2
1000
-2001160
1002
}
  0
LINE
  5
7EA
330
6E9
100
AcDbEntity
  8
D35160537
100
AcDbLine
 10
-0.1667912511197785
 20
-4.547478594298156
 30
0.0
 11
-0.2505816474653095
 21
-5.745737087953195
 31
0.0
1001
REVIT
1002
{
1070
     2
1000
-2001160
1002
}
  0
ARC
  5
7EB
330
6E9
100
AcDbEntity
  8
D35160537
100
AcDbCircle
 10
-0.0000000000000248
 20
-3.999999999999253
 30
0.0
 40
1.074825216663311
100
AcDbArc
 50
280.5494296538013
 51
258.7944187412891
1001
REVIT
1002
{
1070
     2
1000
-2001160
1002
}
  0
ARC
  5
7EC
330
6E9
100
AcDbEntity
  8
D35160537
100
AcDbCircle
 10
-0.000000000000273
 20
-4.001739030846706
 30
0.0
 40
1.375000000000006
100
AcDbArc
 50
279.2277586548356
 51
359.9999999999988
1001
REVIT
1002
{
1070
     2
1000
-2001160
1002
}
  0
ARC
  5
7ED
330
6E9
100
AcDbEntity
  8
D35160537
100
AcDbCircle
 10
-0.0000000000000221
 20
-3.999999999999257
 30
0.0
 40
0.9714447664073439
100
AcDbArc
 50
281.2708090024688
 51
258.7944187412891
1001
REVIT
1002
{
1070
     2
1000
-2001160
1002
}
  0
ARC
  5
7EE
330
6E9
100
AcDbEntity
  8
D35160537
100
AcDbCircle
 10
0.1617201259824316
 20
-4.280107474807126
 30
0.0
 40
1.153535359856901
100
AcDbArc
 50
98.05914758576973
 51
141.9407173830693
1001
REVIT
1002
{
1070
     2
1000
-2001160
1002
}
  0
ARC
  5
7EF
330
6E9
100
AcDbEntity
  8
D35160537
100
AcDbCircle
 10
0.1618086123671596
 20
-3.719739262278595
 30
0.0
 40
1.153698730609734
100
AcDbArc
 50
218.0624315677786
 51
252.5786030125817
1001
REVIT
1002
{
1070
     2
1000
-2001160
1002
}
  0
ARC
  5
7F0
330
6E9
100
AcDbEntity
  8
D35160537
100
AcDbCircle
 10
-0.1618086123662307
 20
-4.280260737721246
 30
0.0
 40
1.153698730609733
100
AcDbArc
 50
38.06243156777855
 51
81.93756843224628
1001
REVIT
1002
{
1070
     2
1000
-2001160
1002
}
  0
ARC
  5
7F1
330
6E9
100
AcDbEntity
  8
D35160537
100
AcDbCircle
 10
0.1618086123671596
 20
0.2802607377206904
 30
0.0
 40
1.153698730609736
100
AcDbArc
 50
218.0624315677787
 51
252.5786030125818
1001
REVIT
1002
{
1070
     2
1000
-2001160
1002
}
  0
ARC
  5
7F2
330
6E9
100
AcDbEntity
  8
D35160537
100
AcDbCircle
 10
-0.0000000000000248
 20
4.000000000000062
 30
0.0
 40
1.074825216663293
100
AcDbArc
 50
280.5494296537984
 51
258.7944187412891
1001
REVIT
1002
{
1070
     2
1000
-2001160
1002
}
  0
ARC
  5
7F3
330
6E9
100
AcDbEntity
  8
D35160537
100
AcDbCircle
 10
0.3236172247338484
 20
-3.999999999999919
 30
0.0
 40
1.153698730609735
100
AcDbArc
 50
158.0622910290259
 51
201.9375684322216
1001
REVIT
1002
{
1070
     2
1000
-2001160
1002
}
  0
ARC
  5
7F4
330
6E9
100
AcDbEntity
  8
D35160537
100
AcDbCircle
 10
0.3236172247338484
 20
-0.0000000000006337
 30
0.0
 40
1.153698730609733
100
AcDbArc
 50
158.0622910290252
 51
201.9375684322219
1001
REVIT
1002
{
1070
     2
1000
-2001160
1002
}
  0
ARC
  5
7F5
330
6E9
100
AcDbEntity
  8
D35160537
100
AcDbCircle
 10
-0.0000000000000221
 20
0.0000000000000284
 30
0.0
 40
0.9714447664073375
100
AcDbArc
 50
281.2708090024687
 51
258.7944187412891
1001
REVIT
1002
{
1070
     2
1000
-2001160
1002
}
  0
ARC
  5
7F6
330
6E9
100
AcDbEntity
  8
D35160537
100
AcDbCircle
 10
-0.1618086123662017
 20
-3.719739262278595
 30
0.0
 40
1.153698730609733
100
AcDbArc
 50
287.4213970242634
 51
321.9375684322155
1001
REVIT
1002
{
1070
     2
1000
-2001160
1002
}
  0
ARC
  5
7F7
330
6E9
100
AcDbEntity
  8
D35160537
100
AcDbCircle
 10
-0.3236172247329234
 20
-3.999999999999907
 30
0.0
 40
1.153698730609733
100
AcDbArc
 50
338.0624315677721
 51
21.93756843222094
1001
REVIT
1002
{
1070
     2
1000
-2001160
1002
}
  0
ARC
  5
7F8
330
6E9
100
AcDbEntity
  8
D35160537
100
AcDbCircle
 10
0.1617201259824316
 20
-0.2801074748078407
 30
0.0
 40
1.15353535985691
100
AcDbArc
 50
98.05914758576973
 51
141.9407173830686
1001
REVIT
1002
{
1070
     2
1000
-2001160
1002
}
  0
ARC
  5
7F9
330
6E9
100
AcDbEntity
  8
D35160537
100
AcDbCircle
 10
-0.3236172247329234
 20
-0.0000000000006218
 30
0.0
 40
1.153698730609736
100
AcDbArc
 50
338.0624315677725
 51
21.93756843222108
1001
REVIT
1002
{
1070
     2
1000
-2001160
1002
}
  0
ARC
  5
7FA
330
6E9
100
AcDbEntity
  8
D35160537
100
AcDbCircle
 10
-0.1618086123662017
 20
0.2802607377206904
 30
0.0
 40
1.153698730609734
100
AcDbArc
 50
287.4213970242633
 51
321.9375684322159
1001
REVIT
1002
{
1070
     2
1000
-2001160
1002
}
  0
ARC
  5
7FB
330
6E9
100
AcDbEntity
  8
D35160537
100
AcDbCircle
 10
-0.1618086123662307
 20
-0.2802607377219605
 30
0.0
 40
1.153698730609738
100
AcDbArc
 50
38.06243156777858
 51
81.93756843224628
1001
REVIT
1002
{
1070
     2
1000
-2001160
1002
}
  0
ARC
  5
7FC
330
6E9
100
AcDbEntity
  8
D35160537
100
AcDbCircle
 10
-0.0000000000000221
 20
4.000000000000058
 30
0.0
 40
0.9714447664073444
100
AcDbArc
 50
281.2708090024656
 51
258.7944187412891
1001
REVIT
1002
{
1070
     2
1000
-2001160
1002
}
  0
ARC
  5
7FD
330
6E9
100
AcDbEntity
  8
D35160537
100
AcDbCircle
 10
0.3236172247338484
 20
3.999999999999396
 30
0.0
 40
1.153698730609735
100
AcDbArc
 50
158.0622910290251
 51
201.9375684322219
1001
REVIT
1002
{
1070
     2
1000
-2001160
1002
}
  0
ARC
  5
7FE
330
6E9
100
AcDbEntity
  8
D35160537
100
AcDbCircle
 10
0.1617201259824316
 20
3.719892525192189
 30
0.0
 40
1.153535359856913
100
AcDbArc
 50
98.05914758576973
 51
141.9407173830685
1001
REVIT
1002
{
1070
     2
1000
-2001160
1002
}
  0
ARC
  5
7FF
330
6E9
100
AcDbEntity
  8
D35160537
100
AcDbCircle
 10
0.1618086123671596
 20
4.280260737720721
 30
0.0
 40
1.153698730609739
100
AcDbArc
 50
218.0624315677787
 51
252.5786030125846
1001
REVIT
1002
{
1070
     2
1000
-2001160
1002
}
  0
ARC
  5
800
330
6E9
100
AcDbEntity
  8
D35160537
100
AcDbCircle
 10
-0.3236172247329234
 20
3.999999999999408
 30
0.0
 40
1.153698730609738
100
AcDbArc
 50
338.0624315677724
 51
21.93756843222093
1001
REVIT
1002
{
1070
     2
1000
-2001160
1002
}
  0
ARC
  5
801
330
6E9
100
AcDbEntity
  8
D35160537
100
AcDbCircle
 10
-0.1618086123662017
 20
4.280260737720721
 30
0.0
 40
1.153698730609736
100
AcDbArc
 50
287.4213970242605
 51
321.9375684322157
1001
REVIT
1002
{
1070
     2
1000
-2001160
1002
}
  0
SPLINE
  5
802
330
6E9
100
AcDbEntity
  8
D35160537
100
AcDbSpline
210
0.0
220
0.0
230
1.0
 70
     8
 71
     3
 72
     9
 73
     5
 74
     0
 42
0.000000001
 43
0.0000000001
 40
0.5486356283388526
 40
0.5486356283388526
 40
0.5486356283388526
 40
0.5486356283388526
 40
0.6666666666666666
 40
1.0
 40
1.0
 40
1.0
 40
1.0
 10
-0.4877939228492448
 20
0.2817587328675024
 30
0.0
 10
-0.5038132551529754
 20
0.2910369991094542
 30
0.0
 10
-0.5718875364947012
 20
0.3302862807340908
 30
0.0
 10
-0.665753733421417
 20
0.3826385104208798
 30
0.0
 10
-0.7465428414720686
 20
0.4310199458355645
 30
0.0
1001
REVIT
1002
{
1070
     2
1000
-2001160
1002
}
  0
SPLINE
  5
803
330
6E9
100
AcDbEntity
  8
D35160537
100
AcDbSpline
210
0.0
220
0.0
230
1.0
 70
     8
 71
     3
 72
     9
 73
     5
 74
     0
 42
0.000000001
 43
0.0000000001
 40
-1.0
 40
-1.0
 40
-1.0
 40
-1.0
 40
-0.6666666666666666
 40
-0.5485538936359311
 40
-0.5485538936359311
 40
-0.5485538936359311
 40
-0.5485538936359311
 10
0.7465438987030923
 20
4.431017320877218
 30
0.0
 10
0.6642857813751075
 20
4.385266003534042
 30
0.0
 10
0.5720075574376376
 20
4.330150731041308
 30
0.0
 10
0.5039543427727003
 20
4.290809095340883
 30
0.0
 10
0.4878956450013559
 20
4.28156764286678
 30
0.0
1001
REVIT
1002
{
1070
     2
1000
-2001160
1002
}
  0
SPLINE
  5
804
330
6E9
100
AcDbEntity
  8
D35160537
100
AcDbSpline
210
0.0
220
0.0
230
1.0
 70
     8
 71
     3
 72
     9
 73
     5
 74
     0
 42
0.000000001
 43
0.0000000001
 40
0.5486356283388526
 40
0.5486356283388526
 40
0.5486356283388526
 40
0.5486356283388526
 40
0.6666666666666666
 40
1.0
 40
1.0
 40
1.0
 40
1.0
 10
-0.4877939228492467
 20
4.281758732867533
 30
0.0
 10
-0.5038132551529772
 20
4.291036999109485
 30
0.0
 10
-0.5718875364947033
 20
4.330286280734124
 30
0.0
 10
-0.6657537334214194
 20
4.382638510420911
 30
0.0
 10
-0.7465428414720701
 20
4.431019945835597
 30
0.0
1001
REVIT
1002
{
1070
     2
1000
-2001160
1002
}
  0
ARC
  5
805
330
6E9
100
AcDbEntity
  8
D35160537
100
AcDbCircle
 10
-0.1618086123662307
 20
3.71973926227807
 30
0.0
 40
1.153698730609736
100
AcDbArc
 50
38.06243156777835
 51
81.93756843224633
1001
REVIT
1002
{
1070
     2
1000
-2001160
1002
}
  0
SPLINE
  5
806
330
6E9
100
AcDbEntity
  8
D35160537
100
AcDbSpline
210
0.0
220
0.0
230
1.0
 70
     8
 71
     3
 72
     9
 73
     5
 74
     0
 42
0.000000001
 43
0.0000000001
 40
-1.0
 40
-1.0
 40
-1.0
 40
-1.0
 40
-0.6666666666666666
 40
-0.5536887397892983
 40
-0.5536887397892983
 40
-0.5536887397892983
 40
-0.5536887397892983
 10
-0.7465438987021544
 20
3.56898267912156
 30
0.0
 10
-0.6642857813741712
 20
3.614733996464738
 30
0.0
 10
-0.5730571500160725
 20
3.669222375866669
 30
0.0
 10
-0.5055055809448483
 20
3.708293903344189
 30
0.0
 10
-0.4899999508922991
 20
3.717221100962444
 30
0.0
1001
REVIT
1002
{
1070
     2
1000
-2001160
1002
}
  0
SPLINE
  5
807
330
6E9
100
AcDbEntity
  8
D35160537
100
AcDbSpline
210
0.0
220
0.0
230
1.0
 70
     8
 71
     3
 72
     9
 73
     5
 74
     0
 42
0.000000001
 43
0.0000000001
 40
-1.0
 40
-1.0
 40
-1.0
 40
-1.0
 40
-0.6666666666666666
 40
-0.5485538936384577
 40
-0.5485538936384577
 40
-0.5485538936384577
 40
-0.5485538936384577
 10
-0.7465438987021518
 20
-0.4310173208784679
 30
0.0
 10
-0.6642857813741678
 20
-0.3852660035352897
 30
0.0
 10
-0.572007557437216
 20
-0.3301507310428613
 30
0.0
 10
-0.5039543427725245
 20
-0.2908090953425682
 30
0.0
 10
-0.4878956450014491
 20
-0.2815676428686171
 30
0.0
1001
REVIT
1002
{
1070
     2
1000
-2001160
1002
}
  0
SPLINE
  5
808
330
6E9
100
AcDbEntity
  8
D35160537
100
AcDbSpline
210
0.0
220
0.0
230
1.0
 70
     8
 71
     3
 72
     9
 73
     5
 74
     0
 42
0.000000001
 43
0.0000000001
 40
-1.0
 40
-1.0
 40
-1.0
 40
-1.0
 40
-0.6666666666666666
 40
-0.5486224435666298
 40
-0.5486224435666298
 40
-0.5486224435666298
 40
-0.5486224435666298
 10
-0.0000000816285073
 20
4.862035218253132
 30
0.0
 10
-0.0015116623318346
 20
4.767879028534018
 30
0.0
 10
0.0000767364915583
 20
4.660409055079663
 30
0.0
 10
0.0001192313952623
 20
4.581828903313465
 30
0.0
 10
0.0000928439913452
 20
4.563315014717692
 30
0.0
1001
REVIT
1002
{
1070
     2
1000
-2001160
1002
}
  0
SPLINE
  5
809
330
6E9
100
AcDbEntity
  8
D35160537
100
AcDbSpline
210
0.0
220
0.0
230
1.0
 70
     8
 71
     3
 72
     9
 73
     5
 74
     0
 42
0.000000001
 43
0.0000000001
 40
-1.0
 40
-1.0
 40
-1.0
 40
-1.0
 40
-0.6666666666666666
 40
-0.5536887397889734
 40
-0.5536887397889734
 40
-0.5536887397889734
 40
-0.5536887397889734
 10
0.7465438987030455
 20
3.568982679121462
 30
0.0
 10
0.6657930369632608
 20
3.617344639723398
 30
0.0
 10
0.5729904005110304
 20
3.66910676233108
 30
0.0
 10
0.5053776806151973
 20
3.708072373473526
 30
0.0
 10
0.4898936856668744
 20
3.717037044191612
 30
0.0
1001
REVIT
1002
{
1070
     2
1000
-2001160
1002
}
  0
SPLINE
  5
80A
330
6E9
100
AcDbEntity
  8
D35160537
100
AcDbSpline
210
0.0
220
0.0
230
1.0
 70
     8
 71
     3
 72
     9
 73
     5
 74
     0
 42
0.000000001
 43
0.0000000001
 40
-1.0
 40
-1.0
 40
-1.0
 40
-1.0
 40
-0.6666666666666666
 40
-0.5485538936359969
 40
-0.5485538936359969
 40
-0.5485538936359969
 40
-0.5485538936359969
 10
0.7465438987030446
 20
-0.4310173208785652
 30
0.0
 10
0.6657930369632608
 20
-0.3826553602766304
 30
0.0
 10
0.5719226988793312
 20
-0.3302977103770385
 30
0.0
 10
0.5038252356038711
 20
-0.291032715518216
 30
0.0
 10
0.4877925541077662
 20
-0.2817462015335896
 30
0.0
1001
REVIT
1002
{
1070
     2
1000
-2001160
1002
}
  0
SPLINE
  5
80B
330
6E9
100
AcDbEntity
  8
D35160537
100
AcDbSpline
210
0.0
220
0.0
230
1.0
 70
     8
 71
     3
 72
     9
 73
     5
 74
     0
 42
0.000000001
 43
0.0000000001
 40
-1.0
 40
-1.0
 40
-1.0
 40
-1.0
 40
-0.6666666666666666
 40
-0.5485538936359311
 40
-0.5485538936359311
 40
-0.5485538936359311
 40
-0.5485538936359311
 10
0.7465438987030906
 20
0.4310173208771923
 30
0.0
 10
0.6642857813751056
 20
0.3852660035340153
 30
0.0
 10
0.5720075574376358
 20
0.3301507310412798
 30
0.0
 10
0.5039543427726981
 20
0.2908090953408554
 30
0.0
 10
0.4878956450013538
 20
0.2815676428667518
 30
0.0
1001
REVIT
1002
{
1070
     2
1000
-2001160
1002
}
  0
SPLINE
  5
80C
330
6E9
100
AcDbEntity
  8
D35160537
100
AcDbSpline
210
0.0
220
0.0
230
1.0
 70
     8
 71
     3
 72
     9
 73
     5
 74
     0
 42
0.000000001
 43
0.0000000001
 40
-1.0
 40
-1.0
 40
-1.0
 40
-1.0
 40
-0.6666666666666666
 40
-0.5486224435666198
 40
-0.5486224435666198
 40
-0.5486224435666198
 40
-0.5486224435666198
 10
-0.0000000816285069
 20
0.8620352182530998
 30
0.0
 10
-0.0015116623318291
 20
0.7678790285339873
 30
0.0
 10
0.0000767364915669
 20
0.6604090550796313
 30
0.0
 10
0.0001192313952713
 20
0.5818289033134324
 30
0.0
 10
0.0000928439913541
 20
0.5633150147176585
 30
0.0
1001
REVIT
1002
{
1070
     2
1000
-2001160
1002
}
  0
SPLINE
  5
80D
330
6E9
100
AcDbEntity
  8
D35160537
100
AcDbSpline
210
0.0
220
0.0
230
1.0
 70
     8
 71
     3
 72
     9
 73
     5
 74
     0
 42
0.000000001
 43
0.0000000001
 40
0.548635628338841
 40
0.548635628338841
 40
0.548635628338841
 40
0.548635628338841
 40
0.6666666666666666
 40
1.0
 40
1.0
 40
1.0
 40
1.0
 10
-0.4877939228492455
 20
-3.718241267131797
 30
0.0
 10
-0.5038132551529774
 20
-3.708963000889845
 30
0.0
 10
-0.5718875364947045
 20
-3.669713719265206
 30
0.0
 10
-0.6657537334214236
 20
-3.617361489578413
 30
0.0
 10
-0.7465428414720751
 20
-3.568980054163732
 30
0.0
1001
REVIT
1002
{
1070
     2
1000
-2001160
1002
}
  0
SPLINE
  5
80E
330
6E9
100
AcDbEntity
  8
D35160537
100
AcDbSpline
210
0.0
220
0.0
230
1.0
 70
     8
 71
     3
 72
     9
 73
     5
 74
     0
 42
0.000000001
 43
0.0000000001
 40
-1.0
 40
-1.0
 40
-1.0
 40
-1.0
 40
-0.6666666666666666
 40
-0.5485538936384577
 40
-0.5485538936384577
 40
-0.5485538936384577
 40
-0.5485538936384577
 10
-0.7465438987021537
 20
-4.431017320877749
 30
0.0
 10
-0.6642857813741699
 20
-4.385266003534572
 30
0.0
 10
-0.5720075574372176
 20
-4.330150731042143
 30
0.0
 10
-0.5039543427725267
 20
-4.290809095341851
 30
0.0
 10
-0.4878956450014516
 20
-4.281567642867899
 30
0.0
1001
REVIT
1002
{
1070
     2
1000
-2001160
1002
}
  0
SPLINE
  5
80F
330
6E9
100
AcDbEntity
  8
D35160537
100
AcDbSpline
210
0.0
220
0.0
230
1.0
 70
     8
 71
     3
 72
     9
 73
     5
 74
     0
 42
0.000000001
 43
0.0000000001
 40
-1.0
 40
-1.0
 40
-1.0
 40
-1.0
 40
-0.6666666666666666
 40
-0.5486224435666454
 40
-0.5486224435666454
 40
-0.5486224435666454
 40
-0.5486224435666454
 10
-0.000000081628506
 20
-3.137964781746194
 30
0.0
 10
-0.0015116623318279
 20
-3.232120971465306
 30
0.0
 10
0.0000767364915683
 20
-3.339590944919656
 30
0.0
 10
0.0001192313952732
 20
-3.418171096685854
 30
0.0
 10
0.0000928439913562
 20
-3.436684985281625
 30
0.0
1001
REVIT
1002
{
1070
     2
1000
-2001160
1002
}
  0
SPLINE
  5
810
330
6E9
100
AcDbEntity
  8
D35160537
100
AcDbSpline
210
0.0
220
0.0
230
1.0
 70
     8
 71
     3
 72
     9
 73
     5
 74
     0
 42
0.000000001
 43
0.0000000001
 40
-1.0
 40
-1.0
 40
-1.0
 40
-1.0
 40
-0.6666666666666666
 40
-0.5485538936360149
 40
-0.5485538936360149
 40
-0.5485538936360149
 40
-0.5485538936360149
 10
0.7465438987030389
 20
-4.431017320877856
 30
0.0
 10
0.6657930369632554
 20
-4.382655360275921
 30
0.0
 10
0.5719226988793304
 20
-4.330297710376332
 30
0.0
 10
0.5038252356038721
 20
-4.291032715517509
 30
0.0
 10
0.4877925541077691
 20
-4.281746201532882
 30
0.0
1001
REVIT
1002
{
1070
     2
1000
-2001160
1002
}
  0
LINE
  5
811
330
6E9
100
AcDbEntity
  8
D35160537
100
AcDbLine
 10
0.2505816474653118
 20
2.25426291204534
 30
0.0
 11
-0.250581647465316
 21
2.25426291204534
 31
0.0
1001
REVIT
1002
{
1070
     2
1000
-2001160
1002
}
  0
SPLINE
  5
812
330
6E9
100
AcDbEntity
  8
D35160537
100
AcDbSpline
210
0.0
220
0.0
230
1.0
 70
     8
 71
     3
 72
     9
 73
     5
 74
     0
 42
0.000000001
 43
0.0000000001
 40
-1.0
 40
-1.0
 40
-1.0
 40
-1.0
 40
-0.6666666666666666
 40
-0.5485538936359311
 40
-0.5485538936359311
 40
-0.5485538936359311
 40
-0.5485538936359311
 10
0.7465438987030875
 20
-3.568982679122097
 30
0.0
 10
0.6642857813751031
 20
-3.614733996465274
 30
0.0
 10
0.5720075574376333
 20
-3.669849268958009
 30
0.0
 10
0.5039543427726955
 20
-3.709190904658435
 30
0.0
 10
0.4878956450013512
 20
-3.718432357132538
 30
0.0
1001
REVIT
1002
{
1070
     2
1000
-2001160
1002
}
  0
LINE
  5
813
330
6E9
100
AcDbEntity
  8
D35160537
100
AcDbLine
 10
-0.2067962187350214
 20
2.17842432485329
 30
0.0
 11
0.2067962187350167
 21
2.178424324853289
 31
0.0
1001
REVIT
1002
{
1070
     2
1000
-2001160
1002
}
  0
LINE
  5
814
330
6E9
100
AcDbEntity
  8
D35160537
100
AcDbLine
 10
0.2505816474653101
 20
-1.745737087953914
 30
0.0
 11
-0.2505816474653143
 21
-1.745737087953914
 31
0.0
1001
REVIT
1002
{
1070
     2
1000
-2001160
1002
}
  0
LINE
  5
815
330
6E9
100
AcDbEntity
  8
D35160537
100
AcDbLine
 10
0.2505816474653079
 20
-5.745737087953184
 30
0.0
 11
-0.2505816474653122
 21
-5.745737087953184
 31
0.0
1001
REVIT
1002
{
1070
     2
1000
-2001160
1002
}
  0
LINE
  5
816
330
6E9
100
AcDbEntity
  8
D35160537
100
AcDbLine
 10
-0.2067962187350226
 20
-1.821575675145965
 30
0.0
 11
0.2067962187350184
 21
-1.821575675145965
 31
0.0
1001
REVIT
1002
{
1070
     2
1000
-2001160
1002
}
  0
LINE
  5
817
330
6E9
100
AcDbEntity
  8
D35160537
100
AcDbLine
 10
-0.2067962187350206
 20
-5.82157567514523
 30
0.0
 11
0.2067962187350164
 21
-5.82157567514523
 31
0.0
1001
REVIT
1002
{
1070
     2
1000
-2001160
1002
}
  0
CIRCLE
  5
818
330
6E9
100
AcDbEntity
  8
D35160537
100
AcDbCircle
 10
0.0000000000000009
 20
-3.999999999999286
 30
0.0
 40
0.5316524139450668
  0
CIRCLE
  5
819
330
6E9
100
AcDbEntity
  8
D35160537
100
AcDbCircle
 10
0.0000000000000009
 20
-0.0000000000000012
 30
0.0
 40
0.5316524139450669
  0
CIRCLE
  5
81A
330
6E9
100
AcDbEntity
  8
D35160537
100
AcDbCircle
 10
0.0000000000000009
 20
4.000000000000029
 30
0.0
 40
0.5316524139450668
  0
CIRCLE
  5
81B
330
6E9
100
AcDbEntity
  8
D35160537
100
AcDbCircle
 10
0.0
 20
-3.999999999999285
 30
0.0
 40
0.5745478527554651
  0
CIRCLE
  5
81C
330
6E9
100
AcDbEntity
  8
D35160537
100
AcDbCircle
 10
0.0
 20
0.0
 30
0.0
 40
0.5745478527554648
  0
CIRCLE
  5
81D
330
6E9
100
AcDbEntity
  8
D35160537
100
AcDbCircle
 10
0.0
 20
4.00000000000003
 30
0.0
 40
0.5745478527554649
  0
ENDBLK
  5
6EB
330
6E9
100
AcDbEntity
  8
0
100
AcDbBlockEnd
  0
BLOCK
  5
820
330
81F
100
AcDbEntity
  8
0
100
AcDbBlockBegin
  2
D35160537 Side View
 70
     0
 10
0.0
 20
0.0
 30
0.0
  3
D35160537 Side View
  1

  0
LINE
  5
822
330
81F
100
AcDbEntity
  8
D35160537
100
AcDbLine
 10
0.0
 20
-5.875869515423397
 30
0.0
 11
0.046334736609353
 21
-5.875869515423397
 31
0.0
1001
REVIT
1002
{
1070
     2
1000
-2001160
1002
}
  0
LINE
  5
823
330
81F
100
AcDbEntity
  8
D35160537
100
AcDbLine
 10
0.125
 20
-5.79720425203275
 30
0.0
 11
0.1249370761798048
 21
-5.800350023539364
 31
0.0
1001
REVIT
1002
{
1070
     2
1000
-2001160
1002
}
  0
LINE
  5
824
330
81F
100
AcDbEntity
  8
D35160537
100
AcDbLine
 10
0.1249370761798048
 20
-5.800350023539364
 30
0.0
 11
0.1247484053838974
 21
-5.803490762482619
 31
0.0
1001
REVIT
1002
{
1070
     2
1000
-2001160
1002
}
  0
LINE
  5
825
330
81F
100
AcDbEntity
  8
D35160537
100
AcDbLine
 10
0.1244342894453041
 20
-5.806621444350211
 30
0.0
 11
0.1239952308825281
 21
-5.809737060718981
 31
0.0
1001
REVIT
1002
{
1070
     2
1000
-2001160
1002
}
  0
LINE
  5
826
330
81F
100
AcDbEntity
  8
D35160537
100
AcDbLine
 10
0.1227452942424207
 20
-5.815903191749287
 30
0.0
 11
0.1219364157970801
 21
-5.818943841916533
 31
0.0
1001
REVIT
1002
{
1070
     2
1000
-2001160
1002
}
  0
LINE
  5
827
330
81F
100
AcDbEntity
  8
D35160537
100
AcDbLine
 10
0.1247484053838974
 20
-5.803490762482619
 30
0.0
 11
0.1244342894453041
 21
-5.806621444350211
 31
0.0
1001
REVIT
1002
{
1070
     2
1000
-2001160
1002
}
  0
LINE
  5
828
330
81F
100
AcDbEntity
  8
D35160537
100
AcDbLine
 10
0.1239952308825281
 20
-5.809737060718981
 30
0.0
 11
0.123431932095599
 21
-5.812832627267388
 31
0.0
1001
REVIT
1002
{
1070
     2
1000
-2001160
1002
}
  0
LINE
  5
829
330
81F
100
AcDbEntity
  8
D35160537
100
AcDbLine
 10
0.123431932095599
 20
-5.812832627267388
 30
0.0
 11
0.1227452942424207
 21
-5.815903191749287
 31
0.0
1001
REVIT
1002
{
1070
     2
1000
-2001160
1002
}
  0
LINE
  5
82A
330
81F
100
AcDbEntity
  8
D35160537
100
AcDbLine
 10
0.1210065907925468
 20
-5.821949713377508
 30
0.0
 11
0.1199573067504502
 21
-5.82491599737907
 31
0.0
1001
REVIT
1002
{
1070
     2
1000
-2001160
1002
}
  0
LINE
  5
82B
330
81F
100
AcDbEntity
  8
D35160537
100
AcDbLine
 10
0.1199573067504502
 20
-5.82491599737907
 30
0.0
 11
0.1187902423014435
 21
-5.827837948499608
 31
0.0
1001
REVIT
1002
{
1070
     2
1000
-2001160
1002
}
  0
LINE
  5
82C
330
81F
100
AcDbEntity
  8
D35160537
100
AcDbLine
 10
0.1187902423014435
 20
-5.827837948499608
 30
0.0
 11
0.1175072644996788
 21
-5.830710892240636
 31
0.0
1001
REVIT
1002
{
1070
     2
1000
-2001160
1002
}
  0
LINE
  5
82D
330
81F
100
AcDbEntity
  8
D35160537
100
AcDbLine
 10
0.1161104258359558
 20
-5.833530232505031
 30
0.0
 11
0.1146019609541469
 21
-5.836291458949803
 31
0.0
1001
REVIT
1002
{
1070
     2
1000
-2001160
1002
}
  0
LINE
  5
82E
330
81F
100
AcDbEntity
  8
D35160537
100
AcDbLine
 10
0.1219364157970801
 20
-5.818943841916533
 30
0.0
 11
0.1210065907925468
 21
-5.821949713377508
 31
0.0
1001
REVIT
1002
{
1070
     2
1000
-2001160
1002
}
  0
LINE
  5
82F
330
81F
100
AcDbEntity
  8
D35160537
100
AcDbLine
 10
0.1175072644996788
 20
-5.830710892240636
 30
0.0
 11
0.1161104258359558
 21
-5.833530232505031
 31
0.0
1001
REVIT
1002
{
1070
     2
1000
-2001160
1002
}
  0
LINE
  5
830
330
81F
100
AcDbEntity
  8
D35160537
100
AcDbLine
 10
0.1146019609541469
 20
-5.836291458949803
 30
0.0
 11
0.112984283076301
 21
-5.838990154201669
 31
0.0
1001
REVIT
1002
{
1070
     2
1000
-2001160
1002
}
  0
LINE
  5
831
330
81F
100
AcDbEntity
  8
D35160537
100
AcDbLine
 10
0.1112599801419094
 20
-5.841622000923921
 30
0.0
 11
0.1094318106678429
 21
-5.844182788723214
 31
0.0
1001
REVIT
1002
{
1070
     2
1000
-2001160
1002
}
  0
LINE
  5
832
330
81F
100
AcDbEntity
  8
D35160537
100
AcDbLine
 10
0.112984283076301
 20
-5.838990154201669
 30
0.0
 11
0.1112599801419094
 21
-5.841622000923921
 31
0.0
1001
REVIT
1002
{
1070
     2
1000
-2001160
1002
}
  0
LINE
  5
833
330
81F
100
AcDbEntity
  8
D35160537
100
AcDbLine
 10
0.1094318106678429
 20
-5.844182788723214
 30
0.0
 11
0.107502699335285
 21
-5.846668420885359
 31
0.0
1001
REVIT
1002
{
1070
     2
1000
-2001160
1002
}
  0
LINE
  5
834
330
81F
100
AcDbEntity
  8
D35160537
100
AcDbLine
 10
0.107502699335285
 20
-5.846668420885359
 30
0.0
 11
0.105475732310822
 21
-5.849074920929142
 31
0.0
1001
REVIT
1002
{
1070
     2
1000
-2001160
1002
}
  0
LINE
  5
835
330
81F
100
AcDbEntity
  8
D35160537
100
AcDbLine
 10
0.105475732310822
 20
-5.849074920929142
 30
0.0
 11
0.1033541523093078
 21
-5.851398438967839
 31
0.0
1001
REVIT
1002
{
1070
     2
1000
-2001160
1002
}
  0
LINE
  5
836
330
81F
100
AcDbEntity
  8
D35160537
100
AcDbLine
 10
0.0988408756076211
 20
-5.855781799197293
 30
0.0
 11
0.0964563991873888
 21
-5.857834628946745
 31
0.0
1001
REVIT
1002
{
1070
     2
1000
-2001160
1002
}
  0
LINE
  5
837
330
81F
100
AcDbEntity
  8
D35160537
100
AcDbLine
 10
0.1033541523093078
 20
-5.851398438967839
 30
0.0
 11
0.1011413534061774
 21
-5.853635257868246
 31
0.0
1001
REVIT
1002
{
1070
     2
1000
-2001160
1002
}
  0
LINE
  5
838
330
81F
100
AcDbEntity
  8
D35160537
100
AcDbLine
 10
0.1011413534061774
 20
-5.853635257868246
 30
0.0
 11
0.0988408756076211
 21
-5.855781799197293
 31
0.0
1001
REVIT
1002
{
1070
     2
1000
-2001160
1002
}
  0
LINE
  5
839
330
81F
100
AcDbEntity
  8
D35160537
100
AcDbLine
 10
0.0939917387990761
 20
-5.85979046302693
 30
0.0
 11
0.091450837373543
 21
-5.861646172520542
 31
0.0
1001
REVIT
1002
{
1070
     2
1000
-2001160
1002
}
  0
LINE
  5
83A
330
81F
100
AcDbEntity
  8
D35160537
100
AcDbLine
 10
0.0964563991873888
 20
-5.857834628946745
 30
0.0
 11
0.0939917387990761
 21
-5.85979046302693
 31
0.0
1001
REVIT
1002
{
1070
     2
1000
-2001160
1002
}
  0
LINE
  5
83B
330
81F
100
AcDbEntity
  8
D35160537
100
AcDbLine
 10
0.0888377598110424
 20
-5.863398788688245
 30
0.0
 11
0.0861566864782475
 21
-5.865045507718052
 31
0.0
1001
REVIT
1002
{
1070
     2
1000
-2001160
1002
}
  0
LINE
  5
83C
330
81F
100
AcDbEntity
  8
D35160537
100
AcDbLine
 10
0.091450837373543
 20
-5.861646172520542
 30
0.0
 11
0.0888377598110424
 21
-5.863398788688245
 31
0.0
1001
REVIT
1002
{
1070
     2
1000
-2001160
1002
}
  0
LINE
  5
83D
330
81F
100
AcDbEntity
  8
D35160537
100
AcDbLine
 10
0.0861566864782475
 20
-5.865045507718052
 30
0.0
 11
0.083411906520567
 21
-5.86658369521079
 31
0.0
1001
REVIT
1002
{
1070
     2
1000
-2001160
1002
}
  0
LINE
  5
83E
330
81F
100
AcDbEntity
  8
D35160537
100
AcDbLine
 10
0.083411906520567
 20
-5.86658369521079
 30
0.0
 11
0.080607811000391
 21
-5.868010890394595
 31
0.0
1001
REVIT
1002
{
1070
     2
1000
-2001160
1002
}
  0
LINE
  5
83F
330
81F
100
AcDbEntity
  8
D35160537
100
AcDbLine
 10
0.080607811000391
 20
-5.868010890394595
 30
0.0
 11
0.0777488858723956
 21
-5.869324810061636
 31
0.0
1001
REVIT
1002
{
1070
     2
1000
-2001160
1002
}
  0
LINE
  5
840
330
81F
100
AcDbEntity
  8
D35160537
100
AcDbLine
 10
0.0777488858723956
 20
-5.869324810061636
 30
0.0
 11
0.0748397048069052
 21
-5.870523352220745
 31
0.0
1001
REVIT
1002
{
1070
     2
1000
-2001160
1002
}
  0
LINE
  5
841
330
81F
100
AcDbEntity
  8
D35160537
100
AcDbLine
 10
0.0748397048069052
 20
-5.870523352220745
 30
0.0
 11
0.0718849218730355
 21
-5.871604599460104
 31
0.0
1001
REVIT
1002
{
1070
     2
1000
-2001160
1002
}
  0
LINE
  5
842
330
81F
100
AcDbEntity
  8
D35160537
100
AcDbLine
 10
0.0718849218730355
 20
-5.871604599460104
 30
0.0
 11
0.0688892640931584
 21
-5.872566822014816
 31
0.0
1001
REVIT
1002
{
1070
     2
1000
-2001160
1002
}
  0
LINE
  5
843
330
81F
100
AcDbEntity
  8
D35160537
100
AcDbLine
 10
0.0688892640931584
 20
-5.872566822014816
 30
0.0
 11
0.0658575238806805
 21
-5.873408480534047
 31
0.0
1001
REVIT
1002
{
1070
     2
1000
-2001160
1002
}
  0
LINE
  5
844
330
81F
100
AcDbEntity
  8
D35160537
100
AcDbLine
 10
0.0658575238806805
 20
-5.873408480534047
 30
0.0
 11
0.0627945513732158
 21
-5.874128228543719
 31
0.0
1001
REVIT
1002
{
1070
     2
1000
-2001160
1002
}
  0
LINE
  5
845
330
81F
100
AcDbEntity
  8
D35160537
100
AcDbLine
 10
0.0627945513732158
 20
-5.874128228543719
 30
0.0
 11
0.0597052466733601
 21
-5.874724914600529
 31
0.0
1001
REVIT
1002
{
1070
     2
1000
-2001160
1002
}
  0
LINE
  5
846
330
81F
100
AcDbEntity
  8
D35160537
100
AcDbLine
 10
0.0597052466733601
 20
-5.874724914600529
 30
0.0
 11
0.0565945520096278
 21
-5.875197584134101
 31
0.0
1001
REVIT
1002
{
1070
     2
1000
-2001160
1002
}
  0
LINE
  5
847
330
81F
100
AcDbEntity
  8
D35160537
100
AcDbLine
 10
0.0565945520096278
 20
-5.875197584134101
 30
0.0
 11
0.0534674438299021
 21
-5.875545480974002
 31
0.0
1001
REVIT
1002
{
1070
     2
1000
-2001160
1002
}
  0
LINE
  5
848
330
81F
100
AcDbEntity
  8
D35160537
100
AcDbLine
 10
0.0534674438299021
 20
-5.875545480974002
 30
0.0
 11
0.050328924840187
 21
-5.875768048559494
 31
0.0
1001
REVIT
1002
{
1070
     2
1000
-2001160
1002
}
  0
LINE
  5
849
330
81F
100
AcDbEntity
  8
D35160537
100
AcDbLine
 10
0.050328924840187
 20
-5.875768048559494
 30
0.0
 11
0.0471840160013386
 21
-5.875864930829935
 31
0.0
1001
REVIT
1002
{
1070
     2
1000
-2001160
1002
}
  0
LINE
  5
84A
330
81F
100
AcDbEntity
  8
D35160537
100
AcDbLine
 10
0.0471840160013386
 20
-5.875864930829935
 30
0.0
 11
0.046334736609353
 21
-5.875869515423397
 31
0.0
1001
REVIT
1002
{
1070
     2
1000
-2001160
1002
}
  0
LINE
  5
84B
330
81F
100
AcDbEntity
  8
D35160537
100
AcDbLine
 10
0.046334736609353
 20
5.875869515423397
 30
0.0
 11
0.0
 21
5.875869515423397
 31
0.0
1001
REVIT
1002
{
1070
     2
1000
-2001160
1002
}
  0
LINE
  5
84C
330
81F
100
AcDbEntity
  8
D35160537
100
AcDbLine
 10
0.125
 20
5.784286154813445
 30
0.0
 11
0.125
 21
-5.781860586181457
 31
0.0
1001
REVIT
1002
{
1070
     2
1000
-2001160
1002
}
  0
LINE
  5
84D
330
81F
100
AcDbEntity
  8
D35160537
100
AcDbLine
 10
0.0526212470592213
 20
5.875617920807291
 30
0.0
 11
0.05575192892681
 21
5.875303804868709
 31
0.0
1001
REVIT
1002
{
1070
     2
1000
-2001160
1002
}
  0
LINE
  5
84E
330
81F
100
AcDbEntity
  8
D35160537
100
AcDbLine
 10
0.046334736609353
 20
5.875869515423397
 30
0.0
 11
0.0494805081159626
 21
5.875806591603199
 31
0.0
1001
REVIT
1002
{
1070
     2
1000
-2001160
1002
}
  0
LINE
  5
84F
330
81F
100
AcDbEntity
  8
D35160537
100
AcDbLine
 10
0.0619631118439941
 20
5.874301447519
 30
0.0
 11
0.0650336763258963
 21
5.873614809665825
 31
0.0
1001
REVIT
1002
{
1070
     2
1000
-2001160
1002
}
  0
LINE
  5
850
330
81F
100
AcDbEntity
  8
D35160537
100
AcDbLine
 10
0.0494805081159626
 20
5.875806591603199
 30
0.0
 11
0.0526212470592213
 21
5.875617920807291
 31
0.0
1001
REVIT
1002
{
1070
     2
1000
-2001160
1002
}
  0
LINE
  5
851
330
81F
100
AcDbEntity
  8
D35160537
100
AcDbLine
 10
0.05575192892681
 20
5.875303804868709
 30
0.0
 11
0.0588675452955982
 21
5.874864746305926
 31
0.0
1001
REVIT
1002
{
1070
     2
1000
-2001160
1002
}
  0
LINE
  5
852
330
81F
100
AcDbEntity
  8
D35160537
100
AcDbLine
 10
0.0650336763258963
 20
5.873614809665825
 30
0.0
 11
0.0680743264931465
 21
5.872805931220481
 31
0.0
1001
REVIT
1002
{
1070
     2
1000
-2001160
1002
}
  0
LINE
  5
853
330
81F
100
AcDbEntity
  8
D35160537
100
AcDbLine
 10
0.0710801979541174
 20
5.871876106215937
 30
0.0
 11
0.0740464819556763
 21
5.870826822173848
 31
0.0
1001
REVIT
1002
{
1070
     2
1000
-2001160
1002
}
  0
LINE
  5
854
330
81F
100
AcDbEntity
  8
D35160537
100
AcDbLine
 10
0.0680743264931465
 20
5.872805931220481
 30
0.0
 11
0.0710801979541174
 21
5.871876106215937
 31
0.0
1001
REVIT
1002
{
1070
     2
1000
-2001160
1002
}
  0
LINE
  5
855
330
81F
100
AcDbEntity
  8
D35160537
100
AcDbLine
 10
0.0588675452955982
 20
5.874864746305926
 30
0.0
 11
0.0619631118439941
 21
5.874301447519
 31
0.0
1001
REVIT
1002
{
1070
     2
1000
-2001160
1002
}
  0
LINE
  5
856
330
81F
100
AcDbEntity
  8
D35160537
100
AcDbLine
 10
0.0740464819556763
 20
5.870826822173848
 30
0.0
 11
0.0769684330762175
 21
5.869659757724841
 31
0.0
1001
REVIT
1002
{
1070
     2
1000
-2001160
1002
}
  0
LINE
  5
857
330
81F
100
AcDbEntity
  8
D35160537
100
AcDbLine
 10
0.0769684330762175
 20
5.869659757724841
 30
0.0
 11
0.0798413768172424
 21
5.868376779923076
 31
0.0
1001
REVIT
1002
{
1070
     2
1000
-2001160
1002
}
  0
LINE
  5
858
330
81F
100
AcDbEntity
  8
D35160537
100
AcDbLine
 10
0.0881206387782783
 20
5.863853798499695
 30
0.0
 11
0.0907524855005306
 21
5.862129495565307
 31
0.0
1001
REVIT
1002
{
1070
     2
1000
-2001160
1002
}
  0
LINE
  5
859
330
81F
100
AcDbEntity
  8
D35160537
100
AcDbLine
 10
0.0826607170816374
 20
5.86697994125935
 30
0.0
 11
0.0854219435264128
 21
5.865471476377544
 31
0.0
1001
REVIT
1002
{
1070
     2
1000
-2001160
1002
}
  0
LINE
  5
85A
330
81F
100
AcDbEntity
  8
D35160537
100
AcDbLine
 10
0.0854219435264128
 20
5.865471476377544
 30
0.0
 11
0.0881206387782783
 21
5.863853798499695
 31
0.0
1001
REVIT
1002
{
1070
     2
1000
-2001160
1002
}
  0
LINE
  5
85B
330
81F
100
AcDbEntity
  8
D35160537
100
AcDbLine
 10
0.0798413768172424
 20
5.868376779923076
 30
0.0
 11
0.0826607170816374
 21
5.86697994125935
 31
0.0
1001
REVIT
1002
{
1070
     2
1000
-2001160
1002
}
  0
LINE
  5
85C
330
81F
100
AcDbEntity
  8
D35160537
100
AcDbLine
 10
0.0957989054619759
 20
5.858372214758675
 30
0.0
 11
0.0982054055057518
 21
5.856345247734219
 31
0.0
1001
REVIT
1002
{
1070
     2
1000
-2001160
1002
}
  0
LINE
  5
85D
330
81F
100
AcDbEntity
  8
D35160537
100
AcDbLine
 10
0.0907524855005306
 20
5.862129495565307
 30
0.0
 11
0.0933132732998274
 21
5.860301326091233
 31
0.0
1001
REVIT
1002
{
1070
     2
1000
-2001160
1002
}
  0
LINE
  5
85E
330
81F
100
AcDbEntity
  8
D35160537
100
AcDbLine
 10
0.0933132732998274
 20
5.860301326091233
 30
0.0
 11
0.0957989054619759
 21
5.858372214758675
 31
0.0
1001
REVIT
1002
{
1070
     2
1000
-2001160
1002
}
  0
LINE
  5
85F
330
81F
100
AcDbEntity
  8
D35160537
100
AcDbLine
 10
0.1005289235444451
 20
5.854223667732709
 30
0.0
 11
0.1027657424448591
 21
5.852010868829578
 31
0.0
1001
REVIT
1002
{
1070
     2
1000
-2001160
1002
}
  0
LINE
  5
860
330
81F
100
AcDbEntity
  8
D35160537
100
AcDbLine
 10
0.1027657424448591
 20
5.852010868829578
 30
0.0
 11
0.1049122837738992
 21
5.849710391031019
 31
0.0
1001
REVIT
1002
{
1070
     2
1000
-2001160
1002
}
  0
LINE
  5
861
330
81F
100
AcDbEntity
  8
D35160537
100
AcDbLine
 10
0.0982054055057518
 20
5.856345247734219
 30
0.0
 11
0.1005289235444451
 21
5.854223667732709
 31
0.0
1001
REVIT
1002
{
1070
     2
1000
-2001160
1002
}
  0
LINE
  5
862
330
81F
100
AcDbEntity
  8
D35160537
100
AcDbLine
 10
0.1049122837738992
 20
5.849710391031019
 30
0.0
 11
0.1069651135233585
 21
5.847325914610786
 31
0.0
1001
REVIT
1002
{
1070
     2
1000
-2001160
1002
}
  0
LINE
  5
863
330
81F
100
AcDbEntity
  8
D35160537
100
AcDbLine
 10
0.1069651135233585
 20
5.847325914610786
 30
0.0
 11
0.1089209476035364
 21
5.844861254222477
 31
0.0
1001
REVIT
1002
{
1070
     2
1000
-2001160
1002
}
  0
LINE
  5
864
330
81F
100
AcDbEntity
  8
D35160537
100
AcDbLine
 10
0.1089209476035364
 20
5.844861254222477
 30
0.0
 11
0.1107766570971478
 21
5.842320352796944
 31
0.0
1001
REVIT
1002
{
1070
     2
1000
-2001160
1002
}
  0
LINE
  5
865
330
81F
100
AcDbEntity
  8
D35160537
100
AcDbLine
 10
0.1107766570971478
 20
5.842320352796944
 30
0.0
 11
0.1125292732648546
 21
5.839707275234443
 31
0.0
1001
REVIT
1002
{
1070
     2
1000
-2001160
1002
}
  0
LINE
  5
866
330
81F
100
AcDbEntity
  8
D35160537
100
AcDbLine
 10
0.1157141797874033
 20
5.834281421943961
 30
0.0
 11
0.1171413749712116
 21
5.831477326423788
 31
0.0
1001
REVIT
1002
{
1070
     2
1000
-2001160
1002
}
  0
LINE
  5
867
330
81F
100
AcDbEntity
  8
D35160537
100
AcDbLine
 10
0.1125292732648546
 20
5.839707275234443
 30
0.0
 11
0.1141759922946619
 21
5.837026201901649
 31
0.0
1001
REVIT
1002
{
1070
     2
1000
-2001160
1002
}
  0
LINE
  5
868
330
81F
100
AcDbEntity
  8
D35160537
100
AcDbLine
 10
0.1141759922946619
 20
5.837026201901649
 30
0.0
 11
0.1157141797874033
 21
5.834281421943961
 31
0.0
1001
REVIT
1002
{
1070
     2
1000
-2001160
1002
}
  0
LINE
  5
869
330
81F
100
AcDbEntity
  8
D35160537
100
AcDbLine
 10
0.1184552946382524
 20
5.828618401295793
 30
0.0
 11
0.1196538367973403
 21
5.825709220230303
 31
0.0
1001
REVIT
1002
{
1070
     2
1000
-2001160
1002
}
  0
LINE
  5
86A
330
81F
100
AcDbEntity
  8
D35160537
100
AcDbLine
 10
0.1171413749712116
 20
5.831477326423788
 30
0.0
 11
0.1184552946382524
 21
5.828618401295793
 31
0.0
1001
REVIT
1002
{
1070
     2
1000
-2001160
1002
}
  0
LINE
  5
86B
330
81F
100
AcDbEntity
  8
D35160537
100
AcDbLine
 10
0.1196538367973403
 20
5.825709220230303
 30
0.0
 11
0.1207350840367098
 21
5.822754437296433
 31
0.0
1001
REVIT
1002
{
1070
     2
1000
-2001160
1002
}
  0
LINE
  5
86C
330
81F
100
AcDbEntity
  8
D35160537
100
AcDbLine
 10
0.1207350840367098
 20
5.822754437296433
 30
0.0
 11
0.1216973065914288
 21
5.819758779516552
 31
0.0
1001
REVIT
1002
{
1070
     2
1000
-2001160
1002
}
  0
LINE
  5
86D
330
81F
100
AcDbEntity
  8
D35160537
100
AcDbLine
 10
0.1225389651106497
 20
5.816727039304081
 30
0.0
 11
0.1232587131203218
 21
5.813664066796606
 31
0.0
1001
REVIT
1002
{
1070
     2
1000
-2001160
1002
}
  0
LINE
  5
86E
330
81F
100
AcDbEntity
  8
D35160537
100
AcDbLine
 10
0.1216973065914288
 20
5.819758779516552
 30
0.0
 11
0.1225389651106497
 21
5.816727039304081
 31
0.0
1001
REVIT
1002
{
1070
     2
1000
-2001160
1002
}
  0
LINE
  5
86F
330
81F
100
AcDbEntity
  8
D35160537
100
AcDbLine
 10
0.1232587131203218
 20
5.813664066796606
 30
0.0
 11
0.1238553991771454
 21
5.810574762096754
 31
0.0
1001
REVIT
1002
{
1070
     2
1000
-2001160
1002
}
  0
LINE
  5
870
330
81F
100
AcDbEntity
  8
D35160537
100
AcDbLine
 10
0.1238553991771454
 20
5.810574762096754
 30
0.0
 11
0.1243280687107102
 21
5.807464067433029
 31
0.0
1001
REVIT
1002
{
1070
     2
1000
-2001160
1002
}
  0
LINE
  5
871
330
81F
100
AcDbEntity
  8
D35160537
100
AcDbLine
 10
0.1243280687107102
 20
5.807464067433029
 30
0.0
 11
0.1246759655506082
 21
5.8043369592533
 31
0.0
1001
REVIT
1002
{
1070
     2
1000
-2001160
1002
}
  0
LINE
  5
872
330
81F
100
AcDbEntity
  8
D35160537
100
AcDbLine
 10
0.1246759655506082
 20
5.8043369592533
 30
0.0
 11
0.1248985331361041
 21
5.801198440263577
 31
0.0
1001
REVIT
1002
{
1070
     2
1000
-2001160
1002
}
  0
LINE
  5
873
330
81F
100
AcDbEntity
  8
D35160537
100
AcDbLine
 10
0.1248985331361041
 20
5.801198440263577
 30
0.0
 11
0.1249954154065449
 21
5.798053531424736
 31
0.0
1001
REVIT
1002
{
1070
     2
1000
-2001160
1002
}
  0
LINE
  5
874
330
81F
100
AcDbEntity
  8
D35160537
100
AcDbLine
 10
0.1249954154065449
 20
5.798053531424736
 30
0.0
 11
0.125
 21
5.797204252032754
 31
0.0
1001
REVIT
1002
{
1070
     2
1000
-2001160
1002
}
  0
LINE
  5
875
330
81F
100
AcDbEntity
  8
D35160537
100
AcDbLine
 10
0.153745511737668
 20
5.375869515423397
 30
0.0
 11
0.125
 21
5.375869515423397
 31
0.0
1001
REVIT
1002
{
1070
     2
1000
-2001160
1002
}
  0
LINE
  5
876
330
81F
100
AcDbEntity
  8
D35160537
100
AcDbLine
 10
0.125
 20
-5.375869515423394
 30
0.0
 11
0.153745511737668
 21
-5.375869515423394
 31
0.0
1001
REVIT
1002
{
1070
     2
1000
-2001160
1002
}
  0
LINE
  5
877
330
81F
100
AcDbEntity
  8
D35160537
100
AcDbLine
 10
0.1537455117375686
 20
-5.073955701239247
 30
0.0
 11
0.2665807777939477
 21
-5.052022747341576
 31
0.0
1001
REVIT
1002
{
1070
     2
1000
-2001160
1002
}
  0
LINE
  5
878
330
81F
100
AcDbEntity
  8
D35160537
100
AcDbLine
 10
0.2665807777939761
 20
-2.946238221810292
 30
0.0
 11
0.153745511737597
 21
-2.924305267912631
 31
0.0
1001
REVIT
1002
{
1070
     2
1000
-2001160
1002
}
  0
LINE
  5
879
330
81F
100
AcDbEntity
  8
D35160537
100
AcDbLine
 10
0.2665807777939761
 20
-2.946238221810302
 30
0.0
 11
0.2688878300092909
 21
-2.946734745074865
 31
0.0
1001
REVIT
1002
{
1070
     2
1000
-2001160
1002
}
  0
LINE
  5
87A
330
81F
100
AcDbEntity
  8
D35160537
100
AcDbLine
 10
0.2688878300092909
 20
-2.946734745074865
 30
0.0
 11
0.2711731811941576
 21
-2.947323128655805
 31
0.0
1001
REVIT
1002
{
1070
     2
1000
-2001160
1002
}
  0
LINE
  5
87B
330
81F
100
AcDbEntity
  8
D35160537
100
AcDbLine
 10
0.2711731811941576
 20
-2.947323128655805
 30
0.0
 11
0.2734331752741639
 21
-2.948002431264901
 31
0.0
1001
REVIT
1002
{
1070
     2
1000
-2001160
1002
}
  0
LINE
  5
87C
330
81F
100
AcDbEntity
  8
D35160537
100
AcDbLine
 10
0.2734331752741639
 20
-2.948002431264901
 30
0.0
 11
0.2756641967409337
 21
-2.948771566162891
 31
0.0
1001
REVIT
1002
{
1070
     2
1000
-2001160
1002
}
  0
LINE
  5
87D
330
81F
100
AcDbEntity
  8
D35160537
100
AcDbLine
 10
0.2756641967409337
 20
-2.948771566162891
 30
0.0
 11
0.2778626764360155
 21
-2.949629302898012
 31
0.0
1001
REVIT
1002
{
1070
     2
1000
-2001160
1002
}
  0
LINE
  5
87E
330
81F
100
AcDbEntity
  8
D35160537
100
AcDbLine
 10
0.2778626764360155
 20
-2.949629302898012
 30
0.0
 11
0.2800250972608893
 21
-2.950574269274456
 31
0.0
1001
REVIT
1002
{
1070
     2
1000
-2001160
1002
}
  0
LINE
  5
87F
330
81F
100
AcDbEntity
  8
D35160537
100
AcDbLine
 10
0.2800250972608893
 20
-2.950574269274456
 30
0.0
 11
0.282147999803513
 21
-2.951604953547617
 31
0.0
1001
REVIT
1002
{
1070
     2
1000
-2001160
1002
}
  0
LINE
  5
880
330
81F
100
AcDbEntity
  8
D35160537
100
AcDbLine
 10
0.282147999803513
 20
-2.951604953547617
 30
0.0
 11
0.2842279878727112
 21
-2.952719706842517
 31
0.0
1001
REVIT
1002
{
1070
     2
1000
-2001160
1002
}
  0
LINE
  5
881
330
81F
100
AcDbEntity
  8
D35160537
100
AcDbLine
 10
0.2842279878727112
 20
-2.952719706842517
 30
0.0
 11
0.286261733931255
 21
-2.953916745791675
 31
0.0
1001
REVIT
1002
{
1070
     2
1000
-2001160
1002
}
  0
LINE
  5
882
330
81F
100
AcDbEntity
  8
D35160537
100
AcDbLine
 10
0.286261733931255
 20
-2.953916745791675
 30
0.0
 11
0.288245984419305
 21
-2.955194155388143
 31
0.0
1001
REVIT
1002
{
1070
     2
1000
-2001160
1002
}
  0
LINE
  5
883
330
81F
100
AcDbEntity
  8
D35160537
100
AcDbLine
 10
0.288245984419305
 20
-2.955194155388143
 30
0.0
 11
0.2901775649593503
 21
-2.956549892049052
 31
0.0
1001
REVIT
1002
{
1070
     2
1000
-2001160
1002
}
  0
LINE
  5
884
330
81F
100
AcDbEntity
  8
D35160537
100
AcDbLine
 10
0.2901775649593503
 20
-2.956549892049052
 30
0.0
 11
0.292053385434599
 21
-2.957981786884969
 31
0.0
1001
REVIT
1002
{
1070
     2
1000
-2001160
1002
}
  0
LINE
  5
885
330
81F
100
AcDbEntity
  8
D35160537
100
AcDbLine
 10
0.292053385434599
 20
-2.957981786884969
 30
0.0
 11
0.2938704449324234
 21
-2.95948754916961
 31
0.0
1001
REVIT
1002
{
1070
     2
1000
-2001160
1002
}
  0
LINE
  5
886
330
81F
100
AcDbEntity
  8
D35160537
100
AcDbLine
 10
0.2938704449324234
 20
-2.95948754916961
 30
0.0
 11
0.2956258365452555
 21
-2.961064770004506
 31
0.0
1001
REVIT
1002
{
1070
     2
1000
-2001160
1002
}
  0
LINE
  5
887
330
81F
100
AcDbEntity
  8
D35160537
100
AcDbLine
 10
0.2956258365452555
 20
-2.961064770004506
 30
0.0
 11
0.2973167520209614
 21
-2.962710926172812
 31
0.0
1001
REVIT
1002
{
1070
     2
1000
-2001160
1002
}
  0
LINE
  5
888
330
81F
100
AcDbEntity
  8
D35160537
100
AcDbLine
 10
0.2973167520209614
 20
-2.962710926172812
 30
0.0
 11
0.2989404862555176
 21
-2.964423384175796
 31
0.0
1001
REVIT
1002
{
1070
     2
1000
-2001160
1002
}
  0
LINE
  5
889
330
81F
100
AcDbEntity
  8
D35160537
100
AcDbLine
 10
0.2989404862555176
 20
-2.964423384175796
 30
0.0
 11
0.2998514136914565
 21
-2.96544703240182
 31
0.0
1001
REVIT
1002
{
1070
     2
1000
-2001160
1002
}
  0
LINE
  5
88A
330
81F
100
AcDbEntity
  8
D35160537
100
AcDbLine
 10
0.2998514136914281
 20
-5.032813936750057
 30
0.0
 11
0.2982678858230798
 21
-5.034563640944091
 31
0.0
1001
REVIT
1002
{
1070
     2
1000
-2001160
1002
}
  0
LINE
  5
88B
330
81F
100
AcDbEntity
  8
D35160537
100
AcDbLine
 10
0.2982678858230798
 20
-5.034563640944091
 30
0.0
 11
0.2966156551023857
 21
-5.036248621336275
 31
0.0
1001
REVIT
1002
{
1070
     2
1000
-2001160
1002
}
  0
LINE
  5
88C
330
81F
100
AcDbEntity
  8
D35160537
100
AcDbLine
 10
0.2966156551023857
 20
-5.036248621336275
 30
0.0
 11
0.2948973647460491
 21
-5.037866182317435
 31
0.0
1001
REVIT
1002
{
1070
     2
1000
-2001160
1002
}
  0
LINE
  5
88D
330
81F
100
AcDbEntity
  8
D35160537
100
AcDbLine
 10
0.2948973647460491
 20
-5.037866182317435
 30
0.0
 11
0.293115763652068
 21
-5.03941373613504
 31
0.0
1001
REVIT
1002
{
1070
     2
1000
-2001160
1002
}
  0
LINE
  5
88E
330
81F
100
AcDbEntity
  8
D35160537
100
AcDbLine
 10
0.293115763652068
 20
-5.03941373613504
 30
0.0
 11
0.2912737020021581
 21
-5.040888807033129
 31
0.0
1001
REVIT
1002
{
1070
     2
1000
-2001160
1002
}
  0
LINE
  5
88F
330
81F
100
AcDbEntity
  8
D35160537
100
AcDbLine
 10
0.2912737020021581
 20
-5.040888807033129
 30
0.0
 11
0.2893741267019862
 21
-5.042289035212911
 31
0.0
1001
REVIT
1002
{
1070
     2
1000
-2001160
1002
}
  0
LINE
  5
890
330
81F
100
AcDbEntity
  8
D35160537
100
AcDbLine
 10
0.2893741267019862
 20
-5.042289035212911
 30
0.0
 11
0.2874200766668338
 21
-5.043612180608006
 31
0.0
1001
REVIT
1002
{
1070
     2
1000
-2001160
1002
}
  0
LINE
  5
891
330
81F
100
AcDbEntity
  8
D35160537
100
AcDbLine
 10
0.2874200766668338
 20
-5.043612180608006
 30
0.0
 11
0.2854146779599063
 21
-5.044856126468053
 31
0.0
1001
REVIT
1002
{
1070
     2
1000
-2001160
1002
}
  0
LINE
  5
892
330
81F
100
AcDbEntity
  8
D35160537
100
AcDbLine
 10
0.2854146779599063
 20
-5.044856126468053
 30
0.0
 11
0.2833611387913493
 21
-5.046018882745011
 31
0.0
1001
REVIT
1002
{
1070
     2
1000
-2001160
1002
}
  0
LINE
  5
893
330
81F
100
AcDbEntity
  8
D35160537
100
AcDbLine
 10
0.2833611387913493
 20
-5.046018882745011
 30
0.0
 11
0.2812627443857423
 21
-5.047098589276904
 31
0.0
1001
REVIT
1002
{
1070
     2
1000
-2001160
1002
}
  0
LINE
  5
894
330
81F
100
AcDbEntity
  8
D35160537
100
AcDbLine
 10
0.2812627443857423
 20
-5.047098589276904
 30
0.0
 11
0.2791228517265267
 21
-5.048093518763584
 31
0.0
1001
REVIT
1002
{
1070
     2
1000
-2001160
1002
}
  0
LINE
  5
895
330
81F
100
AcDbEntity
  8
D35160537
100
AcDbLine
 10
0.2791228517265267
 20
-5.048093518763584
 30
0.0
 11
0.276944884185454
 21
-5.04900207953012
 31
0.0
1001
REVIT
1002
{
1070
     2
1000
-2001160
1002
}
  0
LINE
  5
896
330
81F
100
AcDbEntity
  8
D35160537
100
AcDbLine
 10
0.276944884185454
 20
-5.04900207953012
 30
0.0
 11
0.2747323260459922
 21
-5.049822818073115
 31
0.0
1001
REVIT
1002
{
1070
     2
1000
-2001160
1002
}
  0
LINE
  5
897
330
81F
100
AcDbEntity
  8
D35160537
100
AcDbLine
 10
0.2747323260459922
 20
-5.049822818073115
 30
0.0
 11
0.2724887169291605
 21
-5.050554421385969
 31
0.0
1001
REVIT
1002
{
1070
     2
1000
-2001160
1002
}
  0
LINE
  5
898
330
81F
100
AcDbEntity
  8
D35160537
100
AcDbLine
 10
0.2724887169291605
 20
-5.050554421385969
 30
0.0
 11
0.2702176461309591
 21
-5.051195719059441
 31
0.0
1001
REVIT
1002
{
1070
     2
1000
-2001160
1002
}
  0
LINE
  5
899
330
81F
100
AcDbEntity
  8
D35160537
100
AcDbLine
 10
0.2702176461309591
 20
-5.051195719059441
 30
0.0
 11
0.2679227468801884
 21
-5.051745685154058
 31
0.0
1001
REVIT
1002
{
1070
     2
1000
-2001160
1002
}
  0
LINE
  5
89A
330
81F
100
AcDbEntity
  8
D35160537
100
AcDbLine
 10
0.2679227468801884
 20
-5.051745685154058
 30
0.0
 11
0.2665807777939477
 21
-5.052022747341576
 31
0.0
1001
REVIT
1002
{
1070
     2
1000
-2001160
1002
}
  0
LINE
  5
89B
330
81F
100
AcDbEntity
  8
D35160537
100
AcDbLine
 10
0.2998514136914281
 20
-5.032813936750057
 30
0.0
 11
0.3267184964512069
 21
-5.001906893549014
 31
0.0
1001
REVIT
1002
{
1070
     2
1000
-2001160
1002
}
  0
LINE
  5
89C
330
81F
100
AcDbEntity
  8
D35160537
100
AcDbLine
 10
0.3267184964512211
 20
-2.996354075602853
 30
0.0
 11
0.2998514136914565
 21
-2.96544703240182
 31
0.0
1001
REVIT
1002
{
1070
     2
1000
-2001160
1002
}
  0
LINE
  5
89D
330
81F
100
AcDbEntity
  8
D35160537
100
AcDbLine
 10
0.3267184964512211
 20
-2.996354075602853
 30
0.0
 11
0.3284902014514159
 21
-2.998311704345228
 31
0.0
1001
REVIT
1002
{
1070
     2
1000
-2001160
1002
}
  0
LINE
  5
89E
330
81F
100
AcDbEntity
  8
D35160537
100
AcDbLine
 10
0.3284902014514159
 20
-2.998311704345228
 30
0.0
 11
0.3303387735465719
 21
-3.000196917890084
 31
0.0
1001
REVIT
1002
{
1070
     2
1000
-2001160
1002
}
  0
LINE
  5
89F
330
81F
100
AcDbEntity
  8
D35160537
100
AcDbLine
 10
0.3303387735465719
 20
-3.000196917890084
 30
0.0
 11
0.3322612554156734
 21
-3.002006700297913
 31
0.0
1001
REVIT
1002
{
1070
     2
1000
-2001160
1002
}
  0
LINE
  5
8A0
330
81F
100
AcDbEntity
  8
D35160537
100
AcDbLine
 10
0.3322612554156734
 20
-3.002006700297913
 30
0.0
 11
0.3342545714978513
 21
-3.003738156302906
 31
0.0
1001
REVIT
1002
{
1070
     2
1000
-2001160
1002
}
  0
LINE
  5
8A1
330
81F
100
AcDbEntity
  8
D35160537
100
AcDbLine
 10
0.3342545714978513
 20
-3.003738156302906
 30
0.0
 11
0.3363155329125931
 21
-3.005388515944824
 31
0.0
1001
REVIT
1002
{
1070
     2
1000
-2001160
1002
}
  0
LINE
  5
8A2
330
81F
100
AcDbEntity
  8
D35160537
100
AcDbLine
 10
0.3363155329125931
 20
-3.005388515944824
 30
0.0
 11
0.3384408425612548
 21
-3.006955139000309
 31
0.0
1001
REVIT
1002
{
1070
     2
1000
-2001160
1002
}
  0
LINE
  5
8A3
330
81F
100
AcDbEntity
  8
D35160537
100
AcDbLine
 10
0.3384408425612548
 20
-3.006955139000309
 30
0.0
 11
0.340627100401818
 21
-3.008435519206644
 31
0.0
1001
REVIT
1002
{
1070
     2
1000
-2001160
1002
}
  0
LINE
  5
8A4
330
81F
100
AcDbEntity
  8
D35160537
100
AcDbLine
 10
0.340627100401818
 20
-3.008435519206644
 30
0.0
 11
0.3428708088880796
 21
-3.009827288271312
 31
0.0
1001
REVIT
1002
{
1070
     2
1000
-2001160
1002
}
  0
LINE
  5
8A5
330
81F
100
AcDbEntity
  8
D35160537
100
AcDbLine
 10
0.3428708088880796
 20
-3.009827288271312
 30
0.0
 11
0.3451683785651056
 21
-3.011128219660699
 31
0.0
1001
REVIT
1002
{
1070
     2
1000
-2001160
1002
}
  0
LINE
  5
8A6
330
81F
100
AcDbEntity
  8
D35160537
100
AcDbLine
 10
0.3451683785651056
 20
-3.011128219660699
 30
0.0
 11
0.3475161338115384
 21
-3.0123362321621
 31
0.0
1001
REVIT
1002
{
1070
     2
1000
-2001160
1002
}
  0
LINE
  5
8A7
330
81F
100
AcDbEntity
  8
D35160537
100
AcDbLine
 10
0.3475161338115384
 20
-3.0123362321621
 30
0.0
 11
0.3499103187198074
 21
-3.013449393213212
 31
0.0
1001
REVIT
1002
{
1070
     2
1000
-2001160
1002
}
  0
LINE
  5
8A8
330
81F
100
AcDbEntity
  8
D35160537
100
AcDbLine
 10
0.3499103187198074
 20
-3.013449393213212
 30
0.0
 11
0.3523471031047904
 21
-3.014465921993819
 31
0.0
1001
REVIT
1002
{
1070
     2
1000
-2001160
1002
}
  0
LINE
  5
8A9
330
81F
100
AcDbEntity
  8
D35160537
100
AcDbLine
 10
0.3523471031047904
 20
-3.014465921993819
 30
0.0
 11
0.3548225886312935
 21
-3.01538419227471
 31
0.0
1001
REVIT
1002
{
1070
     2
1000
-2001160
1002
}
  0
LINE
  5
8AA
330
81F
100
AcDbEntity
  8
D35160537
100
AcDbLine
 10
0.3548225886312935
 20
-3.01538419227471
 30
0.0
 11
0.3573328150505546
 21
-3.016202735019325
 31
0.0
1001
REVIT
1002
{
1070
     2
1000
-2001160
1002
}
  0
LINE
  5
8AB
330
81F
100
AcDbEntity
  8
D35160537
100
AcDbLine
 10
0.3573328150505546
 20
-3.016202735019325
 30
0.0
 11
0.3598737665357703
 21
-3.01692024073389
 31
0.0
1001
REVIT
1002
{
1070
     2
1000
-2001160
1002
}
  0
LINE
  5
8AC
330
81F
100
AcDbEntity
  8
D35160537
100
AcDbLine
 10
0.3598737665357703
 20
-3.01692024073389
 30
0.0
 11
0.362441378106638
 21
-3.017535561562313
 31
0.0
1001
REVIT
1002
{
1070
     2
1000
-2001160
1002
}
  0
LINE
  5
8AD
330
81F
100
AcDbEntity
  8
D35160537
100
AcDbLine
 10
0.362441378106638
 20
-3.017535561562313
 30
0.0
 11
0.3639428189007816
 21
-3.017845548189507
 31
0.0
1001
REVIT
1002
{
1070
     2
1000
-2001160
1002
}
  0
LINE
  5
8AE
330
81F
100
AcDbEntity
  8
D35160537
100
AcDbLine
 10
0.3639428189007532
 20
-4.980415420962371
 30
0.0
 11
0.3613616101785766
 21
-4.980970948129359
 31
0.0
1001
REVIT
1002
{
1070
     2
1000
-2001160
1002
}
  0
LINE
  5
8AF
330
81F
100
AcDbEntity
  8
D35160537
100
AcDbLine
 10
0.3613616101785766
 20
-4.980970948129359
 30
0.0
 11
0.3588046813095929
 21
-4.981629251752055
 31
0.0
1001
REVIT
1002
{
1070
     2
1000
-2001160
1002
}
  0
LINE
  5
8B0
330
81F
100
AcDbEntity
  8
D35160537
100
AcDbLine
 10
0.3588046813095929
 20
-4.981629251752055
 30
0.0
 11
0.3562761228345437
 21
-4.982389278685113
 31
0.0
1001
REVIT
1002
{
1070
     2
1000
-2001160
1002
}
  0
LINE
  5
8B1
330
81F
100
AcDbEntity
  8
D35160537
100
AcDbLine
 10
0.3562761228345437
 20
-4.982389278685113
 30
0.0
 11
0.3537799799075998
 21
-4.983249813047548
 31
0.0
1001
REVIT
1002
{
1070
     2
1000
-2001160
1002
}
  0
LINE
  5
8B2
330
81F
100
AcDbEntity
  8
D35160537
100
AcDbLine
 10
0.3537799799075998
 20
-4.983249813047548
 30
0.0
 11
0.3513202458249509
 21
-4.984209478167963
 31
0.0
1001
REVIT
1002
{
1070
     2
1000
-2001160
1002
}
  0
LINE
  5
8B3
330
81F
100
AcDbEntity
  8
D35160537
100
AcDbLine
 10
0.3513202458249509
 20
-4.984209478167963
 30
0.0
 11
0.3489008556364155
 21
-4.985266738786888
 31
0.0
1001
REVIT
1002
{
1070
     2
1000
-2001160
1002
}
  0
LINE
  5
8B4
330
81F
100
AcDbEntity
  8
D35160537
100
AcDbLine
 10
0.3489008556364155
 20
-4.985266738786888
 30
0.0
 11
0.3465256798501883
 21
-4.986419903512858
 31
0.0
1001
REVIT
1002
{
1070
     2
1000
-2001160
1002
}
  0
LINE
  5
8B5
330
81F
100
AcDbEntity
  8
D35160537
100
AcDbLine
 10
0.3465256798501883
 20
-4.986419903512858
 30
0.0
 11
0.3441985182408587
 21
-4.987667127528316
 31
0.0
1001
REVIT
1002
{
1070
     2
1000
-2001160
1002
}
  0
LINE
  5
8B6
330
81F
100
AcDbEntity
  8
D35160537
100
AcDbLine
 10
0.3441985182408587
 20
-4.987667127528316
 30
0.0
 11
0.3419230937705464
 21
-4.989006415540893
 31
0.0
1001
REVIT
1002
{
1070
     2
1000
-2001160
1002
}
  0
LINE
  5
8B7
330
81F
100
AcDbEntity
  8
D35160537
100
AcDbLine
 10
0.3419230937705464
 20
-4.989006415540893
 30
0.0
 11
0.3397030466330193
 21
-4.99043562497547
 31
0.0
1001
REVIT
1002
{
1070
     2
1000
-2001160
1002
}
  0
LINE
  5
8B8
330
81F
100
AcDbEntity
  8
D35160537
100
AcDbLine
 10
0.3397030466330193
 20
-4.99043562497547
 30
0.0
 11
0.3375419284301273
 21
-4.991952469401832
 31
0.0
1001
REVIT
1002
{
1070
     2
1000
-2001160
1002
}
  0
LINE
  5
8B9
330
81F
100
AcDbEntity
  8
D35160537
100
AcDbLine
 10
0.3375419284301273
 20
-4.991952469401832
 30
0.0
 11
0.3354431964899476
 21
-4.993554522192473
 31
0.0
1001
REVIT
1002
{
1070
     2
1000
-2001160
1002
}
  0
LINE
  5
8BA
330
81F
100
AcDbEntity
  8
D35160537
100
AcDbLine
 10
0.3354431964899476
 20
-4.993554522192473
 30
0.0
 11
0.3334102083359056
 21
-4.995239220404682
 31
0.0
1001
REVIT
1002
{
1070
     2
1000
-2001160
1002
}
  0
LINE
  5
8BB
330
81F
100
AcDbEntity
  8
D35160537
100
AcDbLine
 10
0.3334102083359056
 20
-4.995239220404682
 30
0.0
 11
0.3314462163153564
 21
-4.997003868880709
 31
0.0
1001
REVIT
1002
{
1070
     2
1000
-2001160
1002
}
  0
LINE
  5
8BC
330
81F
100
AcDbEntity
  8
D35160537
100
AcDbLine
 10
0.3314462163153564
 20
-4.997003868880709
 30
0.0
 11
0.3295543623965784
 21
-4.998845644559418
 31
0.0
1001
REVIT
1002
{
1070
     2
1000
-2001160
1002
}
  0
LINE
  5
8BD
330
81F
100
AcDbEntity
  8
D35160537
100
AcDbLine
 10
2.655761772284847
 20
-3.467478070630901
 30
0.0
 11
2.675860304905455
 21
-3.52599026128159
 31
0.0
1001
REVIT
1002
{
1070
     2
1000
-2001160
1002
}
  0
LINE
  5
8BE
330
81F
100
AcDbEntity
  8
D35160537
100
AcDbLine
 10
2.721910538356468
 20
-3.705688042806103
 30
0.0
 11
2.732430300835801
 21
-3.766654935999239
 31
0.0
1001
REVIT
1002
{
1070
     2
1000
-2001160
1002
}
  0
LINE
  5
8BF
330
81F
100
AcDbEntity
  8
D35160537
100
AcDbLine
 10
2.655761772284847
 20
-3.467478070630901
 30
0.0
 11
2.563772206897652
 21
-3.424582631820507
 31
0.0
1001
REVIT
1002
{
1070
     2
1000
-2001160
1002
}
  0
LINE
  5
8C0
330
81F
100
AcDbEntity
  8
D35160537
100
AcDbLine
 10
2.749999999999971
 20
-3.999130484575966
 30
0.0
 11
2.748762726037568
 21
-4.06098593398333
 31
0.0
1001
REVIT
1002
{
1070
     2
1000
-2001160
1002
}
  0
LINE
  5
8C1
330
81F
100
AcDbEntity
  8
D35160537
100
AcDbLine
 10
0.3277376731422521
 20
-5.000761600992605
 30
0.0
 11
0.3267184964512069
 21
-5.001906893549014
 31
0.0
1001
REVIT
1002
{
1070
     2
1000
-2001160
1002
}
  0
LINE
  5
8C2
330
81F
100
AcDbEntity
  8
D35160537
100
AcDbLine
 10
2.738876407418132
 20
-4.184301169010074
 30
0.0
 11
2.730243178761924
 21
-4.245563676559266
 31
0.0
1001
REVIT
1002
{
1070
     2
1000
-2001160
1002
}
  0
LINE
  5
8C3
330
81F
100
AcDbEntity
  8
D35160537
100
AcDbLine
 10
0.3295543623965784
 20
-4.998845644559418
 30
0.0
 11
0.3277376731422521
 21
-5.000761600992605
 31
0.0
1001
REVIT
1002
{
1070
     2
1000
-2001160
1002
}
  0
LINE
  5
8C4
330
81F
100
AcDbEntity
  8
D35160537
100
AcDbLine
 10
2.693602897297765
 20
-3.58525937535837
 30
0.0
 11
2.708961165098841
 21
-3.645190594922089
 31
0.0
1001
REVIT
1002
{
1070
     2
1000
-2001160
1002
}
  0
LINE
  5
8C5
330
81F
100
AcDbEntity
  8
D35160537
100
AcDbLine
 10
0.4145661048845711
 20
-3.0276857181686
 30
0.0
 11
0.3639428189007816
 21
-3.017845548189496
 31
0.0
1001
REVIT
1002
{
1070
     2
1000
-2001160
1002
}
  0
LINE
  5
8C6
330
81F
100
AcDbEntity
  8
D35160537
100
AcDbLine
 10
2.740503623160975
 20
-3.827993740477952
 30
0.0
 11
2.746117589738503
 21
-3.889606327240004
 31
0.0
1001
REVIT
1002
{
1070
     2
1000
-2001160
1002
}
  0
LINE
  5
8C7
330
81F
100
AcDbEntity
  8
D35160537
100
AcDbLine
 10
2.732430300835801
 20
-3.766654935999239
 30
0.0
 11
2.740503623160975
 21
-3.827993740477952
 31
0.0
1001
REVIT
1002
{
1070
     2
1000
-2001160
1002
}
  0
LINE
  5
8C8
330
81F
100
AcDbEntity
  8
D35160537
100
AcDbLine
 10
2.708961165098841
 20
-3.645190594922089
 30
0.0
 11
2.721910538356468
 21
-3.705688042806103
 31
0.0
1001
REVIT
1002
{
1070
     2
1000
-2001160
1002
}
  0
LINE
  5
8C9
330
81F
100
AcDbEntity
  8
D35160537
100
AcDbLine
 10
0.2756641967409479
 20
1.051228433836401
 30
0.0
 11
0.2778626764360297
 21
1.05037069710128
 31
0.0
1001
REVIT
1002
{
1070
     2
1000
-2001160
1002
}
  0
LINE
  5
8CA
330
81F
100
AcDbEntity
  8
D35160537
100
AcDbLine
 10
0.2665807777939904
 20
1.05376177818899
 30
0.0
 11
0.153745511737668
 21
1.075694732086651
 31
0.0
1001
REVIT
1002
{
1070
     2
1000
-2001160
1002
}
  0
LINE
  5
8CB
330
81F
100
AcDbEntity
  8
D35160537
100
AcDbLine
 10
2.748762726037568
 20
-4.06098593398333
 30
0.0
 11
2.745052883524735
 21
-4.122742427866759
 31
0.0
1001
REVIT
1002
{
1070
     2
1000
-2001160
1002
}
  0
LINE
  5
8CC
330
81F
100
AcDbEntity
  8
D35160537
100
AcDbLine
 10
2.705665617282349
 20
-4.366808593802263
 30
0.0
 11
2.689760603314411
 21
-4.426597037492703
 31
0.0
1001
REVIT
1002
{
1070
     2
1000
-2001160
1002
}
  0
LINE
  5
8CD
330
81F
100
AcDbEntity
  8
D35160537
100
AcDbLine
 10
0.2998514136914423
 20
-1.032813936750754
 30
0.0
 11
0.298267885823094
 21
-1.034563640944798
 31
0.0
1001
REVIT
1002
{
1070
     2
1000
-2001160
1002
}
  0
LINE
  5
8CE
330
81F
100
AcDbEntity
  8
D35160537
100
AcDbLine
 10
2.749263219419418
 20
-3.951394129289893
 30
0.0
 11
2.749999999999971
 21
-3.999130484575966
 31
0.0
1001
REVIT
1002
{
1070
     2
1000
-2001160
1002
}
  0
LINE
  5
8CF
330
81F
100
AcDbEntity
  8
D35160537
100
AcDbLine
 10
0.2901775649593645
 20
1.04345010795023
 30
0.0
 11
0.2920533854346132
 21
1.042018213114312
 31
0.0
1001
REVIT
1002
{
1070
     2
1000
-2001160
1002
}
  0
LINE
  5
8D0
330
81F
100
AcDbEntity
  8
D35160537
100
AcDbLine
 10
2.746117589738503
 20
-3.889606327240004
 30
0.0
 11
2.749263219419418
 21
-3.951394129289893
 31
0.0
1001
REVIT
1002
{
1070
     2
1000
-2001160
1002
}
  0
LINE
  5
8D1
330
81F
100
AcDbEntity
  8
D35160537
100
AcDbLine
 10
2.563772206897638
 20
-4.573678337331434
 30
0.0
 11
2.655761772284833
 21
-4.53078289852104
 31
0.0
1001
REVIT
1002
{
1070
     2
1000
-2001160
1002
}
  0
LINE
  5
8D2
330
81F
100
AcDbEntity
  8
D35160537
100
AcDbLine
 10
0.3639428189007532
 20
-4.980415420962371
 30
0.0
 11
0.4145661048845426
 21
-4.970575250983278
 31
0.0
1001
REVIT
1002
{
1070
     2
1000
-2001160
1002
}
  0
LINE
  5
8D3
330
81F
100
AcDbEntity
  8
D35160537
100
AcDbLine
 10
2.730243178761924
 20
-4.245563676559266
 30
0.0
 11
2.719167008880333
 21
-4.306431943570887
 31
0.0
1001
REVIT
1002
{
1070
     2
1000
-2001160
1002
}
  0
LINE
  5
8D4
330
81F
100
AcDbEntity
  8
D35160537
100
AcDbLine
 10
0.2931157636520822
 20
-1.039413736135747
 30
0.0
 11
0.2912737020021723
 21
-1.040888807033836
 31
0.0
1001
REVIT
1002
{
1070
     2
1000
-2001160
1002
}
  0
LINE
  5
8D5
330
81F
100
AcDbEntity
  8
D35160537
100
AcDbLine
 10
2.671477411605962
 20
-4.485701625886475
 30
0.0
 11
2.655761772284833
 21
-4.53078289852104
 31
0.0
1001
REVIT
1002
{
1070
     2
1000
-2001160
1002
}
  0
LINE
  5
8D6
330
81F
100
AcDbEntity
  8
D35160537
100
AcDbLine
 10
0.2893741267020005
 20
-1.042289035213618
 30
0.0
 11
0.287420076666848
 21
-1.043612180608723
 31
0.0
1001
REVIT
1002
{
1070
     2
1000
-2001160
1002
}
  0
LINE
  5
8D7
330
81F
100
AcDbEntity
  8
D35160537
100
AcDbLine
 10
0.2800250972609035
 20
1.049425730724825
 30
0.0
 11
0.2821479998035272
 21
1.048395046451675
 31
0.0
1001
REVIT
1002
{
1070
     2
1000
-2001160
1002
}
  0
LINE
  5
8D8
330
81F
100
AcDbEntity
  8
D35160537
100
AcDbLine
 10
2.719167008880333
 20
-4.306431943570887
 30
0.0
 11
2.705665617282349
 21
-4.366808593802263
 31
0.0
1001
REVIT
1002
{
1070
     2
1000
-2001160
1002
}
  0
LINE
  5
8D9
330
81F
100
AcDbEntity
  8
D35160537
100
AcDbLine
 10
0.2821479998035272
 20
1.048395046451675
 30
0.0
 11
0.2842279878727254
 21
1.047280293156775
 31
0.0
1001
REVIT
1002
{
1070
     2
1000
-2001160
1002
}
  0
LINE
  5
8DA
330
81F
100
AcDbEntity
  8
D35160537
100
AcDbLine
 10
0.2842279878727254
 20
1.047280293156775
 30
0.0
 11
0.2862617339312692
 21
1.046083254207617
 31
0.0
1001
REVIT
1002
{
1070
     2
1000
-2001160
1002
}
  0
LINE
  5
8DB
330
81F
100
AcDbEntity
  8
D35160537
100
AcDbLine
 10
0.2882459844193192
 20
1.044805844611149
 30
0.0
 11
0.2901775649593645
 21
1.04345010795023
 31
0.0
1001
REVIT
1002
{
1070
     2
1000
-2001160
1002
}
  0
LINE
  5
8DC
330
81F
100
AcDbEntity
  8
D35160537
100
AcDbLine
 10
0.153745511737668
 20
-1.073955701239933
 30
0.0
 11
0.2665807777939619
 21
-1.052022747342283
 31
0.0
1001
REVIT
1002
{
1070
     2
1000
-2001160
1002
}
  0
LINE
  5
8DD
330
81F
100
AcDbEntity
  8
D35160537
100
AcDbLine
 10
2.675860304905455
 20
-3.52599026128159
 30
0.0
 11
2.693602897297765
 21
-3.58525937535837
 31
0.0
1001
REVIT
1002
{
1070
     2
1000
-2001160
1002
}
  0
LINE
  5
8DE
330
81F
100
AcDbEntity
  8
D35160537
100
AcDbLine
 10
0.2778626764360297
 20
1.05037069710128
 30
0.0
 11
0.2800250972609035
 21
1.049425730724825
 31
0.0
1001
REVIT
1002
{
1070
     2
1000
-2001160
1002
}
  0
LINE
  5
8DF
330
81F
100
AcDbEntity
  8
D35160537
100
AcDbLine
 10
0.2688878300093052
 20
1.053265254924427
 30
0.0
 11
0.2711731811941576
 21
1.052676871343487
 31
0.0
1001
REVIT
1002
{
1070
     2
1000
-2001160
1002
}
  0
LINE
  5
8E0
330
81F
100
AcDbEntity
  8
D35160537
100
AcDbLine
 10
0.2665807777939904
 20
1.05376177818899
 30
0.0
 11
0.2688878300093052
 21
1.053265254924427
 31
0.0
1001
REVIT
1002
{
1070
     2
1000
-2001160
1002
}
  0
LINE
  5
8E1
330
81F
100
AcDbEntity
  8
D35160537
100
AcDbLine
 10
0.2956258365452555
 20
1.038935229994775
 30
0.0
 11
0.2973167520209756
 21
1.03728907382648
 31
0.0
1001
REVIT
1002
{
1070
     2
1000
-2001160
1002
}
  0
LINE
  5
8E2
330
81F
100
AcDbEntity
  8
D35160537
100
AcDbLine
 10
0.2973167520209756
 20
1.03728907382648
 30
0.0
 11
0.2989404862555318
 21
1.035576615823496
 31
0.0
1001
REVIT
1002
{
1070
     2
1000
-2001160
1002
}
  0
LINE
  5
8E3
330
81F
100
AcDbEntity
  8
D35160537
100
AcDbLine
 10
0.2989404862555318
 20
1.035576615823496
 30
0.0
 11
0.2998514136914707
 21
1.034552967597472
 31
0.0
1001
REVIT
1002
{
1070
     2
1000
-2001160
1002
}
  0
LINE
  5
8E4
330
81F
100
AcDbEntity
  8
D35160537
100
AcDbLine
 10
2.745052883524735
 20
-4.122742427866759
 30
0.0
 11
2.738876407418132
 21
-4.184301169010074
 31
0.0
1001
REVIT
1002
{
1070
     2
1000
-2001160
1002
}
  0
LINE
  5
8E5
330
81F
100
AcDbEntity
  8
D35160537
100
AcDbLine
 10
2.689760603314411
 20
-4.426597037492703
 30
0.0
 11
2.671477411605962
 21
-4.485701625886475
 31
0.0
1001
REVIT
1002
{
1070
     2
1000
-2001160
1002
}
  0
LINE
  5
8E6
330
81F
100
AcDbEntity
  8
D35160537
100
AcDbLine
 10
0.2966156551023999
 20
-1.036248621336982
 30
0.0
 11
0.2948973647460633
 21
-1.037866182318142
 31
0.0
1001
REVIT
1002
{
1070
     2
1000
-2001160
1002
}
  0
LINE
  5
8E7
330
81F
100
AcDbEntity
  8
D35160537
100
AcDbLine
 10
0.298267885823094
 20
-1.034563640944798
 30
0.0
 11
0.2966156551023999
 21
-1.036248621336982
 31
0.0
1001
REVIT
1002
{
1070
     2
1000
-2001160
1002
}
  0
LINE
  5
8E8
330
81F
100
AcDbEntity
  8
D35160537
100
AcDbLine
 10
0.2711731811941576
 20
1.052676871343487
 30
0.0
 11
0.2734331752741781
 21
1.051997568734391
 31
0.0
1001
REVIT
1002
{
1070
     2
1000
-2001160
1002
}
  0
LINE
  5
8E9
330
81F
100
AcDbEntity
  8
D35160537
100
AcDbLine
 10
0.2938704449324376
 20
1.040512450829682
 30
0.0
 11
0.2956258365452555
 21
1.038935229994775
 31
0.0
1001
REVIT
1002
{
1070
     2
1000
-2001160
1002
}
  0
LINE
  5
8EA
330
81F
100
AcDbEntity
  8
D35160537
100
AcDbLine
 10
0.2998514136914423
 20
-1.032813936750754
 30
0.0
 11
0.3267184964512211
 21
-1.001906893549731
 31
0.0
1001
REVIT
1002
{
1070
     2
1000
-2001160
1002
}
  0
LINE
  5
8EB
330
81F
100
AcDbEntity
  8
D35160537
100
AcDbLine
 10
0.2920533854346132
 20
1.042018213114312
 30
0.0
 11
0.2938704449324376
 21
1.040512450829682
 31
0.0
1001
REVIT
1002
{
1070
     2
1000
-2001160
1002
}
  0
LINE
  5
8EC
330
81F
100
AcDbEntity
  8
D35160537
100
AcDbLine
 10
0.2702176461309733
 20
-1.051195719060148
 30
0.0
 11
0.2679227468802026
 21
-1.051745685154775
 31
0.0
1001
REVIT
1002
{
1070
     2
1000
-2001160
1002
}
  0
LINE
  5
8ED
330
81F
100
AcDbEntity
  8
D35160537
100
AcDbLine
 10
0.2854146779599205
 20
-1.04485612646876
 30
0.0
 11
0.2833611387913635
 21
-1.046018882745729
 31
0.0
1001
REVIT
1002
{
1070
     2
1000
-2001160
1002
}
  0
LINE
  5
8EE
330
81F
100
AcDbEntity
  8
D35160537
100
AcDbLine
 10
0.2948973647460633
 20
-1.037866182318142
 30
0.0
 11
0.2931157636520822
 21
-1.039413736135747
 31
0.0
1001
REVIT
1002
{
1070
     2
1000
-2001160
1002
}
  0
LINE
  5
8EF
330
81F
100
AcDbEntity
  8
D35160537
100
AcDbLine
 10
0.2734331752741781
 20
1.051997568734391
 30
0.0
 11
0.2756641967409479
 21
1.051228433836401
 31
0.0
1001
REVIT
1002
{
1070
     2
1000
-2001160
1002
}
  0
LINE
  5
8F0
330
81F
100
AcDbEntity
  8
D35160537
100
AcDbLine
 10
0.2912737020021723
 20
-1.040888807033836
 30
0.0
 11
0.2893741267020005
 21
-1.042289035213618
 31
0.0
1001
REVIT
1002
{
1070
     2
1000
-2001160
1002
}
  0
LINE
  5
8F1
330
81F
100
AcDbEntity
  8
D35160537
100
AcDbLine
 10
0.287420076666848
 20
-1.043612180608723
 30
0.0
 11
0.2854146779599205
 21
-1.04485612646876
 31
0.0
1001
REVIT
1002
{
1070
     2
1000
-2001160
1002
}
  0
LINE
  5
8F2
330
81F
100
AcDbEntity
  8
D35160537
100
AcDbLine
 10
0.3406271004018322
 20
0.9915644807926486
 30
0.0
 11
0.3428708088880938
 21
0.9901727117279808
 31
0.0
1001
REVIT
1002
{
1070
     2
1000
-2001160
1002
}
  0
LINE
  5
8F3
330
81F
100
AcDbEntity
  8
D35160537
100
AcDbLine
 10
0.2812627443857565
 20
-1.047098589277611
 30
0.0
 11
0.2791228517265409
 21
-1.048093518764291
 31
0.0
1001
REVIT
1002
{
1070
     2
1000
-2001160
1002
}
  0
LINE
  5
8F4
330
81F
100
AcDbEntity
  8
D35160537
100
AcDbLine
 10
0.3267184964512353
 20
1.003645924396439
 30
0.0
 11
0.2998514136914707
 21
1.034552967597472
 31
0.0
1001
REVIT
1002
{
1070
     2
1000
-2001160
1002
}
  0
LINE
  5
8F5
330
81F
100
AcDbEntity
  8
D35160537
100
AcDbLine
 10
0.2862617339312692
 20
1.046083254207617
 30
0.0
 11
0.2882459844193192
 21
1.044805844611149
 31
0.0
1001
REVIT
1002
{
1070
     2
1000
-2001160
1002
}
  0
LINE
  5
8F6
330
81F
100
AcDbEntity
  8
D35160537
100
AcDbLine
 10
0.3322612554156876
 20
0.9979932997013793
 30
0.0
 11
0.3342545714978655
 21
0.9962618436963754
 31
0.0
1001
REVIT
1002
{
1070
     2
1000
-2001160
1002
}
  0
LINE
  5
8F7
330
81F
100
AcDbEntity
  8
D35160537
100
AcDbLine
 10
0.2791228517265409
 20
-1.048093518764291
 30
0.0
 11
0.2769448841854682
 21
-1.049002079530838
 31
0.0
1001
REVIT
1002
{
1070
     2
1000
-2001160
1002
}
  0
LINE
  5
8F8
330
81F
100
AcDbEntity
  8
D35160537
100
AcDbLine
 10
0.2724887169291748
 20
-1.050554421386676
 30
0.0
 11
0.2702176461309733
 21
-1.051195719060148
 31
0.0
1001
REVIT
1002
{
1070
     2
1000
-2001160
1002
}
  0
LINE
  5
8F9
330
81F
100
AcDbEntity
  8
D35160537
100
AcDbLine
 10
0.3428708088880938
 20
0.9901727117279808
 30
0.0
 11
0.3451683785651198
 21
0.9888717803385826
 31
0.0
1001
REVIT
1002
{
1070
     2
1000
-2001160
1002
}
  0
LINE
  5
8FA
330
81F
100
AcDbEntity
  8
D35160537
100
AcDbLine
 10
0.2769448841854682
 20
-1.049002079530838
 30
0.0
 11
0.2747323260460064
 21
-1.049822818073822
 31
0.0
1001
REVIT
1002
{
1070
     2
1000
-2001160
1002
}
  0
LINE
  5
8FB
330
81F
100
AcDbEntity
  8
D35160537
100
AcDbLine
 10
0.3451683785651198
 20
0.9888717803385826
 30
0.0
 11
0.3475161338115527
 21
0.9876637678371817
 31
0.0
1001
REVIT
1002
{
1070
     2
1000
-2001160
1002
}
  0
LINE
  5
8FC
330
81F
100
AcDbEntity
  8
D35160537
100
AcDbLine
 10
0.2833611387913635
 20
-1.046018882745729
 30
0.0
 11
0.2812627443857565
 21
-1.047098589277611
 31
0.0
1001
REVIT
1002
{
1070
     2
1000
-2001160
1002
}
  0
LINE
  5
8FD
330
81F
100
AcDbEntity
  8
D35160537
100
AcDbLine
 10
0.3588046813096071
 20
-0.9816292517527624
 30
0.0
 11
0.3562761228345579
 21
-0.9823892786858205
 31
0.0
1001
REVIT
1002
{
1070
     2
1000
-2001160
1002
}
  0
LINE
  5
8FE
330
81F
100
AcDbEntity
  8
D35160537
100
AcDbLine
 10
0.338440842561269
 20
0.9930448609989834
 30
0.0
 11
0.3406271004018322
 21
0.9915644807926486
 31
0.0
1001
REVIT
1002
{
1070
     2
1000
-2001160
1002
}
  0
LINE
  5
8FF
330
81F
100
AcDbEntity
  8
D35160537
100
AcDbLine
 10
0.3363155329126073
 20
0.9946114840544577
 30
0.0
 11
0.338440842561269
 21
0.9930448609989834
 31
0.0
1001
REVIT
1002
{
1070
     2
1000
-2001160
1002
}
  0
LINE
  5
900
330
81F
100
AcDbEntity
  8
D35160537
100
AcDbLine
 10
0.3475161338115527
 20
0.9876637678371817
 30
0.0
 11
0.3499103187198216
 21
0.9865506067860696
 31
0.0
1001
REVIT
1002
{
1070
     2
1000
-2001160
1002
}
  0
LINE
  5
901
330
81F
100
AcDbEntity
  8
D35160537
100
AcDbLine
 10
0.3303387735465861
 20
0.9998030821091976
 30
0.0
 11
0.3322612554156876
 21
0.9979932997013793
 31
0.0
1001
REVIT
1002
{
1070
     2
1000
-2001160
1002
}
  0
LINE
  5
902
330
81F
100
AcDbEntity
  8
D35160537
100
AcDbLine
 10
0.3284902014514301
 20
1.001688295654053
 30
0.0
 11
0.3303387735465861
 21
0.9998030821091976
 31
0.0
1001
REVIT
1002
{
1070
     2
1000
-2001160
1002
}
  0
LINE
  5
903
330
81F
100
AcDbEntity
  8
D35160537
100
AcDbLine
 10
0.3624413781066522
 20
0.9824644384369793
 30
0.0
 11
0.3639428189007958
 21
0.9821544518097855
 31
0.0
1001
REVIT
1002
{
1070
     2
1000
-2001160
1002
}
  0
LINE
  5
904
330
81F
100
AcDbEntity
  8
D35160537
100
AcDbLine
 10
0.3523471031048047
 20
0.9855340780054735
 30
0.0
 11
0.3548225886313077
 21
0.9846158077245821
 31
0.0
1001
REVIT
1002
{
1070
     2
1000
-2001160
1002
}
  0
LINE
  5
905
330
81F
100
AcDbEntity
  8
D35160537
100
AcDbLine
 10
0.2679227468802026
 20
-1.051745685154775
 30
0.0
 11
0.2665807777939619
 21
-1.052022747342283
 31
0.0
1001
REVIT
1002
{
1070
     2
1000
-2001160
1002
}
  0
LINE
  5
906
330
81F
100
AcDbEntity
  8
D35160537
100
AcDbLine
 10
0.2747323260460064
 20
-1.049822818073822
 30
0.0
 11
0.2724887169291748
 21
-1.050554421386676
 31
0.0
1001
REVIT
1002
{
1070
     2
1000
-2001160
1002
}
  0
LINE
  5
907
330
81F
100
AcDbEntity
  8
D35160537
100
AcDbLine
 10
0.3598737665357845
 20
0.9830797592654025
 30
0.0
 11
0.3624413781066522
 21
0.9824644384369793
 31
0.0
1001
REVIT
1002
{
1070
     2
1000
-2001160
1002
}
  0
LINE
  5
908
330
81F
100
AcDbEntity
  8
D35160537
100
AcDbLine
 10
0.3441985182408729
 20
-0.9876671275290238
 30
0.0
 11
0.3419230937705606
 21
-0.9890064155416009
 31
0.0
1001
REVIT
1002
{
1070
     2
1000
-2001160
1002
}
  0
LINE
  5
909
330
81F
100
AcDbEntity
  8
D35160537
100
AcDbLine
 10
0.3613616101785908
 20
-0.9809709481300661
 30
0.0
 11
0.3588046813096071
 21
-0.9816292517527624
 31
0.0
1001
REVIT
1002
{
1070
     2
1000
-2001160
1002
}
  0
LINE
  5
90A
330
81F
100
AcDbEntity
  8
D35160537
100
AcDbLine
 10
0.3334102083359198
 20
-0.9952392204053897
 30
0.0
 11
0.3314462163153706
 21
-0.9970038688814053
 31
0.0
1001
REVIT
1002
{
1070
     2
1000
-2001160
1002
}
  0
LINE
  5
90B
330
81F
100
AcDbEntity
  8
D35160537
100
AcDbLine
 10
0.3277376731422663
 20
-1.000761600993323
 30
0.0
 11
0.3267184964512211
 21
-1.001906893549731
 31
0.0
1001
REVIT
1002
{
1070
     2
1000
-2001160
1002
}
  0
LINE
  5
90C
330
81F
100
AcDbEntity
  8
D35160537
100
AcDbLine
 10
0.3513202458249651
 20
-0.9842094781686707
 30
0.0
 11
0.3489008556364297
 21
-0.9852667387875957
 31
0.0
1001
REVIT
1002
{
1070
     2
1000
-2001160
1002
}
  0
LINE
  5
90D
330
81F
100
AcDbEntity
  8
D35160537
100
AcDbLine
 10
0.3548225886313077
 20
0.9846158077245821
 30
0.0
 11
0.3573328150505688
 21
0.9837972649799677
 31
0.0
1001
REVIT
1002
{
1070
     2
1000
-2001160
1002
}
  0
LINE
  5
90E
330
81F
100
AcDbEntity
  8
D35160537
100
AcDbLine
 10
0.3562761228345579
 20
-0.9823892786858205
 30
0.0
 11
0.353779979907614
 21
-0.9832498130482552
 31
0.0
1001
REVIT
1002
{
1070
     2
1000
-2001160
1002
}
  0
LINE
  5
90F
330
81F
100
AcDbEntity
  8
D35160537
100
AcDbLine
 10
0.3639428189007674
 20
-0.9804154209630784
 30
0.0
 11
0.3613616101785908
 21
-0.9809709481300661
 31
0.0
1001
REVIT
1002
{
1070
     2
1000
-2001160
1002
}
  0
LINE
  5
910
330
81F
100
AcDbEntity
  8
D35160537
100
AcDbLine
 10
0.3499103187198216
 20
0.9865506067860696
 30
0.0
 11
0.3523471031048047
 21
0.9855340780054735
 31
0.0
1001
REVIT
1002
{
1070
     2
1000
-2001160
1002
}
  0
LINE
  5
911
330
81F
100
AcDbEntity
  8
D35160537
100
AcDbLine
 10
0.3573328150505688
 20
0.9837972649799677
 30
0.0
 11
0.3598737665357845
 21
0.9830797592654025
 31
0.0
1001
REVIT
1002
{
1070
     2
1000
-2001160
1002
}
  0
LINE
  5
912
330
81F
100
AcDbEntity
  8
D35160537
100
AcDbLine
 10
0.3267184964512353
 20
1.003645924396439
 30
0.0
 11
0.3284902014514301
 21
1.001688295654053
 31
0.0
1001
REVIT
1002
{
1070
     2
1000
-2001160
1002
}
  0
LINE
  5
913
330
81F
100
AcDbEntity
  8
D35160537
100
AcDbLine
 10
0.353779979907614
 20
-0.9832498130482552
 30
0.0
 11
0.3513202458249651
 21
-0.9842094781686707
 31
0.0
1001
REVIT
1002
{
1070
     2
1000
-2001160
1002
}
  0
LINE
  5
914
330
81F
100
AcDbEntity
  8
D35160537
100
AcDbLine
 10
0.3342545714978655
 20
0.9962618436963754
 30
0.0
 11
0.3363155329126073
 21
0.9946114840544577
 31
0.0
1001
REVIT
1002
{
1070
     2
1000
-2001160
1002
}
  0
LINE
  5
915
330
81F
100
AcDbEntity
  8
D35160537
100
AcDbLine
 10
0.3397030466330335
 20
-0.9904356249761772
 30
0.0
 11
0.3375419284301415
 21
-0.9919524694025394
 31
0.0
1001
REVIT
1002
{
1070
     2
1000
-2001160
1002
}
  0
LINE
  5
916
330
81F
100
AcDbEntity
  8
D35160537
100
AcDbLine
 10
2.732430300835815
 20
0.2333450640000523
 30
0.0
 11
2.740503623160989
 21
0.1720062595213294
 31
0.0
1001
REVIT
1002
{
1070
     2
1000
-2001160
1002
}
  0
LINE
  5
917
330
81F
100
AcDbEntity
  8
D35160537
100
AcDbLine
 10
0.3354431964899618
 20
-0.9935545221931807
 30
0.0
 11
0.3334102083359198
 21
-0.9952392204053897
 31
0.0
1001
REVIT
1002
{
1070
     2
1000
-2001160
1002
}
  0
LINE
  5
918
330
81F
100
AcDbEntity
  8
D35160537
100
AcDbLine
 10
0.3375419284301415
 20
-0.9919524694025394
 30
0.0
 11
0.3354431964899618
 21
-0.9935545221931807
 31
0.0
1001
REVIT
1002
{
1070
     2
1000
-2001160
1002
}
  0
LINE
  5
919
330
81F
100
AcDbEntity
  8
D35160537
100
AcDbLine
 10
2.738876407418146
 20
-0.1843011690107827
 30
0.0
 11
2.730243178761938
 21
-0.245563676559974
 31
0.0
1001
REVIT
1002
{
1070
     2
1000
-2001160
1002
}
  0
LINE
  5
91A
330
81F
100
AcDbEntity
  8
D35160537
100
AcDbLine
 10
2.693602897297779
 20
0.4147406246409214
 30
0.0
 11
2.708961165098855
 21
0.3548094050772024
 31
0.0
1001
REVIT
1002
{
1070
     2
1000
-2001160
1002
}
  0
LINE
  5
91B
330
81F
100
AcDbEntity
  8
D35160537
100
AcDbLine
 10
0.3639428189007674
 20
-0.9804154209630784
 30
0.0
 11
0.4145661048845568
 21
-0.9705752509839857
 31
0.0
1001
REVIT
1002
{
1070
     2
1000
-2001160
1002
}
  0
LINE
  5
91C
330
81F
100
AcDbEntity
  8
D35160537
100
AcDbLine
 10
0.3465256798502025
 20
-0.9864199035135658
 30
0.0
 11
0.3441985182408729
 21
-0.9876671275290238
 31
0.0
1001
REVIT
1002
{
1070
     2
1000
-2001160
1002
}
  0
LINE
  5
91D
330
81F
100
AcDbEntity
  8
D35160537
100
AcDbLine
 10
2.655761772284861
 20
0.5325219293683903
 30
0.0
 11
2.563772206897667
 21
0.5754173681787842
 31
0.0
1001
REVIT
1002
{
1070
     2
1000
-2001160
1002
}
  0
LINE
  5
91E
330
81F
100
AcDbEntity
  8
D35160537
100
AcDbLine
 10
0.3489008556364297
 20
-0.9852667387875957
 30
0.0
 11
0.3465256798502025
 21
-0.9864199035135658
 31
0.0
1001
REVIT
1002
{
1070
     2
1000
-2001160
1002
}
  0
LINE
  5
91F
330
81F
100
AcDbEntity
  8
D35160537
100
AcDbLine
 10
0.3419230937705606
 20
-0.9890064155416009
 30
0.0
 11
0.3397030466330335
 21
-0.9904356249761772
 31
0.0
1001
REVIT
1002
{
1070
     2
1000
-2001160
1002
}
  0
LINE
  5
920
330
81F
100
AcDbEntity
  8
D35160537
100
AcDbLine
 10
2.740503623160989
 20
0.1720062595213294
 30
0.0
 11
2.746117589738517
 21
0.1103936727592876
 31
0.0
1001
REVIT
1002
{
1070
     2
1000
-2001160
1002
}
  0
LINE
  5
921
330
81F
100
AcDbEntity
  8
D35160537
100
AcDbLine
 10
2.708961165098855
 20
0.3548094050772024
 30
0.0
 11
2.721910538356482
 21
0.2943119571931882
 31
0.0
1001
REVIT
1002
{
1070
     2
1000
-2001160
1002
}
  0
LINE
  5
922
330
81F
100
AcDbEntity
  8
D35160537
100
AcDbLine
 10
2.563772206897652
 20
-0.5736783373321419
 30
0.0
 11
2.655761772284847
 21
-0.530782898521748
 31
0.0
1001
REVIT
1002
{
1070
     2
1000
-2001160
1002
}
  0
LINE
  5
923
330
81F
100
AcDbEntity
  8
D35160537
100
AcDbLine
 10
2.675860304905469
 20
0.4740097387176912
 30
0.0
 11
2.693602897297779
 21
0.4147406246409214
 31
0.0
1001
REVIT
1002
{
1070
     2
1000
-2001160
1002
}
  0
LINE
  5
924
330
81F
100
AcDbEntity
  8
D35160537
100
AcDbLine
 10
0.3295543623965926
 20
-0.9988456445601148
 30
0.0
 11
0.3277376731422663
 21
-1.000761600993323
 31
0.0
1001
REVIT
1002
{
1070
     2
1000
-2001160
1002
}
  0
LINE
  5
925
330
81F
100
AcDbEntity
  8
D35160537
100
AcDbLine
 10
2.655761772284861
 20
0.5325219293683903
 30
0.0
 11
2.675860304905469
 21
0.4740097387176912
 31
0.0
1001
REVIT
1002
{
1070
     2
1000
-2001160
1002
}
  0
LINE
  5
926
330
81F
100
AcDbEntity
  8
D35160537
100
AcDbLine
 10
2.721910538356482
 20
0.2943119571931882
 30
0.0
 11
2.732430300835815
 21
0.2333450640000523
 31
0.0
1001
REVIT
1002
{
1070
     2
1000
-2001160
1002
}
  0
LINE
  5
927
330
81F
100
AcDbEntity
  8
D35160537
100
AcDbLine
 10
2.746117589738517
 20
0.1103936727592876
 30
0.0
 11
2.749263219419432
 21
0.048605870709399
 31
0.0
1001
REVIT
1002
{
1070
     2
1000
-2001160
1002
}
  0
LINE
  5
928
330
81F
100
AcDbEntity
  8
D35160537
100
AcDbLine
 10
2.745052883524749
 20
-0.122742427867478
 30
0.0
 11
2.738876407418146
 21
-0.1843011690107827
 31
0.0
1001
REVIT
1002
{
1070
     2
1000
-2001160
1002
}
  0
LINE
  5
929
330
81F
100
AcDbEntity
  8
D35160537
100
AcDbLine
 10
2.749999999999985
 20
0.000869515423326
 30
0.0
 11
2.748762726037583
 21
-0.0609859339840382
 31
0.0
1001
REVIT
1002
{
1070
     2
1000
-2001160
1002
}
  0
LINE
  5
92A
330
81F
100
AcDbEntity
  8
D35160537
100
AcDbLine
 10
0.3314462163153706
 20
-0.9970038688814053
 30
0.0
 11
0.3295543623965926
 21
-0.9988456445601148
 31
0.0
1001
REVIT
1002
{
1070
     2
1000
-2001160
1002
}
  0
LINE
  5
92B
330
81F
100
AcDbEntity
  8
D35160537
100
AcDbLine
 10
2.749263219419432
 20
0.048605870709399
 30
0.0
 11
2.749999999999985
 21
0.0008695154233154
 31
0.0
1001
REVIT
1002
{
1070
     2
1000
-2001160
1002
}
  0
LINE
  5
92C
330
81F
100
AcDbEntity
  8
D35160537
100
AcDbLine
 10
0.2688878300093194
 20
5.053265254924459
 30
0.0
 11
0.271173181194186
 21
5.052676871343519
 31
0.0
1001
REVIT
1002
{
1070
     2
1000
-2001160
1002
}
  0
LINE
  5
92D
330
81F
100
AcDbEntity
  8
D35160537
100
AcDbLine
 10
2.689760603314425
 20
-0.426597037493421
 30
0.0
 11
2.671477411605962
 21
-0.4857016258871827
 31
0.0
1001
REVIT
1002
{
1070
     2
1000
-2001160
1002
}
  0
LINE
  5
92E
330
81F
100
AcDbEntity
  8
D35160537
100
AcDbLine
 10
0.271173181194186
 20
5.052676871343519
 30
0.0
 11
0.2734331752742065
 21
5.051997568734419
 31
0.0
1001
REVIT
1002
{
1070
     2
1000
-2001160
1002
}
  0
LINE
  5
92F
330
81F
100
AcDbEntity
  8
D35160537
100
AcDbLine
 10
0.2665807777940046
 20
5.053761778189022
 30
0.0
 11
0.1537455117376965
 21
5.07569473208669
 31
0.0
1001
REVIT
1002
{
1070
     2
1000
-2001160
1002
}
  0
LINE
  5
930
330
81F
100
AcDbEntity
  8
D35160537
100
AcDbLine
 10
0.2920533854346274
 20
5.042018213114355
 30
0.0
 11
0.2938704449324518
 21
5.040512450829721
 31
0.0
1001
REVIT
1002
{
1070
     2
1000
-2001160
1002
}
  0
LINE
  5
931
330
81F
100
AcDbEntity
  8
D35160537
100
AcDbLine
 10
0.4145661048845853
 20
0.9723142818306929
 30
0.0
 11
0.3639428189007958
 21
0.9821544518097855
 31
0.0
1001
REVIT
1002
{
1070
     2
1000
-2001160
1002
}
  0
LINE
  5
932
330
81F
100
AcDbEntity
  8
D35160537
100
AcDbLine
 10
2.705665617282363
 20
-0.3668085938029808
 30
0.0
 11
2.689760603314425
 21
-0.426597037493421
 31
0.0
1001
REVIT
1002
{
1070
     2
1000
-2001160
1002
}
  0
LINE
  5
933
330
81F
100
AcDbEntity
  8
D35160537
100
AcDbLine
 10
0.2931157636520964
 20
2.960586263864291
 30
0.0
 11
0.2912737020021865
 21
2.959111192966203
 31
0.0
1001
REVIT
1002
{
1070
     2
1000
-2001160
1002
}
  0
LINE
  5
934
330
81F
100
AcDbEntity
  8
D35160537
100
AcDbLine
 10
0.2665807777940046
 20
5.053761778189022
 30
0.0
 11
0.2688878300093194
 21
5.053265254924459
 31
0.0
1001
REVIT
1002
{
1070
     2
1000
-2001160
1002
}
  0
LINE
  5
935
330
81F
100
AcDbEntity
  8
D35160537
100
AcDbLine
 10
0.2778626764360439
 20
5.050370697101309
 30
0.0
 11
0.2800250972609177
 21
5.049425730724864
 31
0.0
1001
REVIT
1002
{
1070
     2
1000
-2001160
1002
}
  0
LINE
  5
936
330
81F
100
AcDbEntity
  8
D35160537
100
AcDbLine
 10
2.730243178761938
 20
-0.245563676559974
 30
0.0
 11
2.719167008880347
 21
-0.3064319435716047
 31
0.0
1001
REVIT
1002
{
1070
     2
1000
-2001160
1002
}
  0
LINE
  5
937
330
81F
100
AcDbEntity
  8
D35160537
100
AcDbLine
 10
2.748762726037583
 20
-0.0609859339840382
 30
0.0
 11
2.745052883524749
 21
-0.122742427867478
 31
0.0
1001
REVIT
1002
{
1070
     2
1000
-2001160
1002
}
  0
LINE
  5
938
330
81F
100
AcDbEntity
  8
D35160537
100
AcDbLine
 10
0.153745511737668
 20
2.926044298760094
 30
0.0
 11
0.2665807777939761
 21
2.947977252657755
 31
0.0
1001
REVIT
1002
{
1070
     2
1000
-2001160
1002
}
  0
LINE
  5
939
330
81F
100
AcDbEntity
  8
D35160537
100
AcDbLine
 10
0.2966156551024284
 20
2.963751378663046
 30
0.0
 11
0.2948973647460775
 21
2.962133817681896
 31
0.0
1001
REVIT
1002
{
1070
     2
1000
-2001160
1002
}
  0
LINE
  5
93A
330
81F
100
AcDbEntity
  8
D35160537
100
AcDbLine
 10
0.2800250972609177
 20
5.049425730724864
 30
0.0
 11
0.2821479998035556
 21
5.048395046451707
 31
0.0
1001
REVIT
1002
{
1070
     2
1000
-2001160
1002
}
  0
LINE
  5
93B
330
81F
100
AcDbEntity
  8
D35160537
100
AcDbLine
 10
2.671477411605962
 20
-0.4857016258871827
 30
0.0
 11
2.655761772284847
 21
-0.530782898521748
 31
0.0
1001
REVIT
1002
{
1070
     2
1000
-2001160
1002
}
  0
LINE
  5
93C
330
81F
100
AcDbEntity
  8
D35160537
100
AcDbLine
 10
2.719167008880347
 20
-0.3064319435716047
 30
0.0
 11
2.705665617282363
 21
-0.3668085938029808
 31
0.0
1001
REVIT
1002
{
1070
     2
1000
-2001160
1002
}
  0
LINE
  5
93D
330
81F
100
AcDbEntity
  8
D35160537
100
AcDbLine
 10
0.2982678858231082
 20
2.965436359055241
 30
0.0
 11
0.2966156551024284
 21
2.963751378663046
 31
0.0
1001
REVIT
1002
{
1070
     2
1000
-2001160
1002
}
  0
LINE
  5
93E
330
81F
100
AcDbEntity
  8
D35160537
100
AcDbLine
 10
0.2821479998035556
 20
5.048395046451707
 30
0.0
 11
0.2842279878727396
 21
5.047280293156815
 31
0.0
1001
REVIT
1002
{
1070
     2
1000
-2001160
1002
}
  0
LINE
  5
93F
330
81F
100
AcDbEntity
  8
D35160537
100
AcDbLine
 10
0.2956258365452839
 20
5.038935229994818
 30
0.0
 11
0.297316752021004
 21
5.037289073826512
 31
0.0
1001
REVIT
1002
{
1070
     2
1000
-2001160
1002
}
  0
LINE
  5
940
330
81F
100
AcDbEntity
  8
D35160537
100
AcDbLine
 10
0.2734331752742065
 20
5.051997568734419
 30
0.0
 11
0.2756641967409621
 21
5.051228433836433
 31
0.0
1001
REVIT
1002
{
1070
     2
1000
-2001160
1002
}
  0
LINE
  5
941
330
81F
100
AcDbEntity
  8
D35160537
100
AcDbLine
 10
0.2756641967409621
 20
5.051228433836433
 30
0.0
 11
0.2778626764360439
 21
5.050370697101309
 31
0.0
1001
REVIT
1002
{
1070
     2
1000
-2001160
1002
}
  0
LINE
  5
942
330
81F
100
AcDbEntity
  8
D35160537
100
AcDbLine
 10
0.2874200766668764
 20
2.956387819391315
 30
0.0
 11
0.2854146779599489
 21
2.955143873531268
 31
0.0
1001
REVIT
1002
{
1070
     2
1000
-2001160
1002
}
  0
LINE
  5
943
330
81F
100
AcDbEntity
  8
D35160537
100
AcDbLine
 10
0.2862617339312834
 20
5.046083254207649
 30
0.0
 11
0.2882459844193335
 21
5.044805844611181
 31
0.0
1001
REVIT
1002
{
1070
     2
1000
-2001160
1002
}
  0
LINE
  5
944
330
81F
100
AcDbEntity
  8
D35160537
100
AcDbLine
 10
0.2882459844193335
 20
5.044805844611181
 30
0.0
 11
0.2901775649593787
 21
5.043450107950269
 31
0.0
1001
REVIT
1002
{
1070
     2
1000
-2001160
1002
}
  0
LINE
  5
945
330
81F
100
AcDbEntity
  8
D35160537
100
AcDbLine
 10
0.2948973647460775
 20
2.962133817681896
 30
0.0
 11
0.2931157636520964
 21
2.960586263864291
 31
0.0
1001
REVIT
1002
{
1070
     2
1000
-2001160
1002
}
  0
LINE
  5
946
330
81F
100
AcDbEntity
  8
D35160537
100
AcDbLine
 10
0.2938704449324518
 20
5.040512450829721
 30
0.0
 11
0.2956258365452839
 21
5.038935229994818
 31
0.0
1001
REVIT
1002
{
1070
     2
1000
-2001160
1002
}
  0
LINE
  5
947
330
81F
100
AcDbEntity
  8
D35160537
100
AcDbLine
 10
0.2842279878727396
 20
5.047280293156815
 30
0.0
 11
0.2862617339312834
 21
5.046083254207649
 31
0.0
1001
REVIT
1002
{
1070
     2
1000
-2001160
1002
}
  0
LINE
  5
948
330
81F
100
AcDbEntity
  8
D35160537
100
AcDbLine
 10
0.297316752021004
 20
5.037289073826512
 30
0.0
 11
0.298940486255546
 21
5.035576615823524
 31
0.0
1001
REVIT
1002
{
1070
     2
1000
-2001160
1002
}
  0
LINE
  5
949
330
81F
100
AcDbEntity
  8
D35160537
100
AcDbLine
 10
0.2912737020021865
 20
2.959111192966203
 30
0.0
 11
0.2893741267020289
 21
2.95771096478642
 31
0.0
1001
REVIT
1002
{
1070
     2
1000
-2001160
1002
}
  0
LINE
  5
94A
330
81F
100
AcDbEntity
  8
D35160537
100
AcDbLine
 10
0.298940486255546
 20
5.035576615823524
 30
0.0
 11
0.2998514136914849
 21
5.0345529675975
 31
0.0
1001
REVIT
1002
{
1070
     2
1000
-2001160
1002
}
  0
LINE
  5
94B
330
81F
100
AcDbEntity
  8
D35160537
100
AcDbLine
 10
0.2724887169292032
 20
2.949445578613362
 30
0.0
 11
0.2702176461310017
 21
2.94880428093989
 31
0.0
1001
REVIT
1002
{
1070
     2
1000
-2001160
1002
}
  0
LINE
  5
94C
330
81F
100
AcDbEntity
  8
D35160537
100
AcDbLine
 10
0.2901775649593787
 20
5.043450107950269
 30
0.0
 11
0.2920533854346274
 21
5.042018213114355
 31
0.0
1001
REVIT
1002
{
1070
     2
1000
-2001160
1002
}
  0
LINE
  5
94D
330
81F
100
AcDbEntity
  8
D35160537
100
AcDbLine
 10
0.2893741267020289
 20
2.95771096478642
 30
0.0
 11
0.2874200766668764
 21
2.956387819391315
 31
0.0
1001
REVIT
1002
{
1070
     2
1000
-2001160
1002
}
  0
LINE
  5
94E
330
81F
100
AcDbEntity
  8
D35160537
100
AcDbLine
 10
0.2854146779599489
 20
2.955143873531268
 30
0.0
 11
0.2833611387913777
 21
2.95398111725431
 31
0.0
1001
REVIT
1002
{
1070
     2
1000
-2001160
1002
}
  0
LINE
  5
94F
330
81F
100
AcDbEntity
  8
D35160537
100
AcDbLine
 10
0.2769448841854825
 20
2.9509979204692
 30
0.0
 11
0.2747323260460206
 21
2.950177181926216
 31
0.0
1001
REVIT
1002
{
1070
     2
1000
-2001160
1002
}
  0
LINE
  5
950
330
81F
100
AcDbEntity
  8
D35160537
100
AcDbLine
 10
0.2833611387913777
 20
2.95398111725431
 30
0.0
 11
0.2812627443857707
 21
2.952901410722427
 31
0.0
1001
REVIT
1002
{
1070
     2
1000
-2001160
1002
}
  0
LINE
  5
951
330
81F
100
AcDbEntity
  8
D35160537
100
AcDbLine
 10
0.2747323260460206
 20
2.950177181926216
 30
0.0
 11
0.2724887169292032
 21
2.949445578613362
 31
0.0
1001
REVIT
1002
{
1070
     2
1000
-2001160
1002
}
  0
LINE
  5
952
330
81F
100
AcDbEntity
  8
D35160537
100
AcDbLine
 10
0.2998514136914565
 20
2.967186063249274
 30
0.0
 11
0.2982678858231082
 21
2.965436359055241
 31
0.0
1001
REVIT
1002
{
1070
     2
1000
-2001160
1002
}
  0
LINE
  5
953
330
81F
100
AcDbEntity
  8
D35160537
100
AcDbLine
 10
0.2812627443857707
 20
2.952901410722427
 30
0.0
 11
0.2791228517265551
 21
2.951906481235736
 31
0.0
1001
REVIT
1002
{
1070
     2
1000
-2001160
1002
}
  0
LINE
  5
954
330
81F
100
AcDbEntity
  8
D35160537
100
AcDbLine
 10
0.3284902014514444
 20
5.001688295654085
 30
0.0
 11
0.3303387735466003
 21
4.999803082109229
 31
0.0
1001
REVIT
1002
{
1070
     2
1000
-2001160
1002
}
  0
LINE
  5
955
330
81F
100
AcDbEntity
  8
D35160537
100
AcDbLine
 10
0.2998514136914565
 20
2.967186063249274
 30
0.0
 11
0.3267184964512353
 21
2.998093106450307
 31
0.0
1001
REVIT
1002
{
1070
     2
1000
-2001160
1002
}
  0
LINE
  5
956
330
81F
100
AcDbEntity
  8
D35160537
100
AcDbLine
 10
0.2791228517265551
 20
2.951906481235736
 30
0.0
 11
0.2769448841854825
 21
2.9509979204692
 31
0.0
1001
REVIT
1002
{
1070
     2
1000
-2001160
1002
}
  0
LINE
  5
957
330
81F
100
AcDbEntity
  8
D35160537
100
AcDbLine
 10
0.2702176461310017
 20
2.94880428093989
 30
0.0
 11
0.2679227468802168
 21
2.948254314845263
 31
0.0
1001
REVIT
1002
{
1070
     2
1000
-2001160
1002
}
  0
LINE
  5
958
330
81F
100
AcDbEntity
  8
D35160537
100
AcDbLine
 10
0.3406271004018464
 20
4.991564480792677
 30
0.0
 11
0.3428708088881081
 21
4.990172711728009
 31
0.0
1001
REVIT
1002
{
1070
     2
1000
-2001160
1002
}
  0
LINE
  5
959
330
81F
100
AcDbEntity
  8
D35160537
100
AcDbLine
 10
0.3267184964512637
 20
5.003645924396471
 30
0.0
 11
0.3284902014514444
 21
5.001688295654085
 31
0.0
1001
REVIT
1002
{
1070
     2
1000
-2001160
1002
}
  0
LINE
  5
95A
330
81F
100
AcDbEntity
  8
D35160537
100
AcDbLine
 10
0.3267184964512495
 20
5.003645924396471
 30
0.0
 11
0.2998514136914849
 21
5.0345529675975
 31
0.0
1001
REVIT
1002
{
1070
     2
1000
-2001160
1002
}
  0
LINE
  5
95B
330
81F
100
AcDbEntity
  8
D35160537
100
AcDbLine
 10
0.3384408425612975
 20
4.993044860999015
 30
0.0
 11
0.3406271004018464
 21
4.991564480792677
 31
0.0
1001
REVIT
1002
{
1070
     2
1000
-2001160
1002
}
  0
LINE
  5
95C
330
81F
100
AcDbEntity
  8
D35160537
100
AcDbLine
 10
0.3303387735466003
 20
4.999803082109229
 30
0.0
 11
0.3322612554157018
 21
4.997993299701411
 31
0.0
1001
REVIT
1002
{
1070
     2
1000
-2001160
1002
}
  0
LINE
  5
95D
330
81F
100
AcDbEntity
  8
D35160537
100
AcDbLine
 10
0.3322612554157018
 20
4.997993299701411
 30
0.0
 11
0.3342545714978797
 21
4.996261843696414
 31
0.0
1001
REVIT
1002
{
1070
     2
1000
-2001160
1002
}
  0
LINE
  5
95E
330
81F
100
AcDbEntity
  8
D35160537
100
AcDbLine
 10
0.3428708088881081
 20
4.990172711728009
 30
0.0
 11
0.345168378565134
 21
4.988871780338625
 31
0.0
1001
REVIT
1002
{
1070
     2
1000
-2001160
1002
}
  0
LINE
  5
95F
330
81F
100
AcDbEntity
  8
D35160537
100
AcDbLine
 10
0.3342545714978797
 20
4.996261843696414
 30
0.0
 11
0.3363155329126215
 21
4.994611484054496
 31
0.0
1001
REVIT
1002
{
1070
     2
1000
-2001160
1002
}
  0
LINE
  5
960
330
81F
100
AcDbEntity
  8
D35160537
100
AcDbLine
 10
0.3499103187198358
 20
4.986550606786101
 30
0.0
 11
0.3523471031048189
 21
4.985534078005501
 31
0.0
1001
REVIT
1002
{
1070
     2
1000
-2001160
1002
}
  0
LINE
  5
961
330
81F
100
AcDbEntity
  8
D35160537
100
AcDbLine
 10
0.3513202458249793
 20
3.015790521831357
 30
0.0
 11
0.3489008556364439
 21
3.014733261212432
 31
0.0
1001
REVIT
1002
{
1070
     2
1000
-2001160
1002
}
  0
LINE
  5
962
330
81F
100
AcDbEntity
  8
D35160537
100
AcDbLine
 10
0.3363155329126215
 20
4.994611484054496
 30
0.0
 11
0.3384408425612975
 21
4.993044860999015
 31
0.0
1001
REVIT
1002
{
1070
     2
1000
-2001160
1002
}
  0
LINE
  5
963
330
81F
100
AcDbEntity
  8
D35160537
100
AcDbLine
 10
0.3598737665358129
 20
4.983079759265441
 30
0.0
 11
0.3624413781066664
 21
4.982464438437018
 31
0.0
1001
REVIT
1002
{
1070
     2
1000
-2001160
1002
}
  0
LINE
  5
964
330
81F
100
AcDbEntity
  8
D35160537
100
AcDbLine
 10
0.2679227468802168
 20
2.948254314845263
 30
0.0
 11
0.2665807777939761
 21
2.947977252657755
 31
0.0
1001
REVIT
1002
{
1070
     2
1000
-2001160
1002
}
  0
LINE
  5
965
330
81F
100
AcDbEntity
  8
D35160537
100
AcDbLine
 10
0.3475161338115669
 20
4.987663767837224
 30
0.0
 11
0.3499103187198358
 21
4.986550606786101
 31
0.0
1001
REVIT
1002
{
1070
     2
1000
-2001160
1002
}
  0
LINE
  5
966
330
81F
100
AcDbEntity
  8
D35160537
100
AcDbLine
 10
0.345168378565134
 20
4.988871780338625
 30
0.0
 11
0.3475161338115669
 21
4.987663767837224
 31
0.0
1001
REVIT
1002
{
1070
     2
1000
-2001160
1002
}
  0
LINE
  5
967
330
81F
100
AcDbEntity
  8
D35160537
100
AcDbLine
 10
0.357332815050583
 20
4.983797264979999
 30
0.0
 11
0.3598737665358129
 21
4.983079759265441
 31
0.0
1001
REVIT
1002
{
1070
     2
1000
-2001160
1002
}
  0
LINE
  5
968
330
81F
100
AcDbEntity
  8
D35160537
100
AcDbLine
 10
0.3523471031048189
 20
4.985534078005501
 30
0.0
 11
0.3548225886313219
 21
4.984615807724614
 31
0.0
1001
REVIT
1002
{
1070
     2
1000
-2001160
1002
}
  0
LINE
  5
969
330
81F
100
AcDbEntity
  8
D35160537
100
AcDbLine
 10
0.3624413781066664
 20
4.982464438437018
 30
0.0
 11
0.36394281890081
 21
4.982154451809824
 31
0.0
1001
REVIT
1002
{
1070
     2
1000
-2001160
1002
}
  0
LINE
  5
96A
330
81F
100
AcDbEntity
  8
D35160537
100
AcDbLine
 10
0.3489008556364439
 20
3.014733261212432
 30
0.0
 11
0.3465256798502168
 21
3.013580096486462
 31
0.0
1001
REVIT
1002
{
1070
     2
1000
-2001160
1002
}
  0
LINE
  5
96B
330
81F
100
AcDbEntity
  8
D35160537
100
AcDbLine
 10
0.3537799799076282
 20
3.016750186951773
 30
0.0
 11
0.3513202458249793
 21
3.015790521831357
 31
0.0
1001
REVIT
1002
{
1070
     2
1000
-2001160
1002
}
  0
LINE
  5
96C
330
81F
100
AcDbEntity
  8
D35160537
100
AcDbLine
 10
0.3588046813096213
 20
3.018370748247276
 30
0.0
 11
0.3562761228345721
 21
3.017610721314218
 31
0.0
1001
REVIT
1002
{
1070
     2
1000
-2001160
1002
}
  0
LINE
  5
96D
330
81F
100
AcDbEntity
  8
D35160537
100
AcDbLine
 10
0.3548225886313219
 20
4.984615807724614
 30
0.0
 11
0.357332815050583
 21
4.983797264979999
 31
0.0
1001
REVIT
1002
{
1070
     2
1000
-2001160
1002
}
  0
LINE
  5
96E
330
81F
100
AcDbEntity
  8
D35160537
100
AcDbLine
 10
0.361361610178605
 20
3.019029051869972
 30
0.0
 11
0.3588046813096213
 21
3.018370748247276
 31
0.0
1001
REVIT
1002
{
1070
     2
1000
-2001160
1002
}
  0
LINE
  5
96F
330
81F
100
AcDbEntity
  8
D35160537
100
AcDbLine
 10
0.4145661048845995
 20
4.972314281830731
 30
0.0
 11
0.36394281890081
 21
4.982154451809828
 31
0.0
1001
REVIT
1002
{
1070
     2
1000
-2001160
1002
}
  0
LINE
  5
970
330
81F
100
AcDbEntity
  8
D35160537
100
AcDbLine
 10
0.3562761228345721
 20
3.017610721314218
 30
0.0
 11
0.3537799799076282
 21
3.016750186951773
 31
0.0
1001
REVIT
1002
{
1070
     2
1000
-2001160
1002
}
  0
LINE
  5
971
330
81F
100
AcDbEntity
  8
D35160537
100
AcDbLine
 10
0.3639428189007816
 20
3.01958457903696
 30
0.0
 11
0.361361610178605
 21
3.019029051869972
 31
0.0
1001
REVIT
1002
{
1070
     2
1000
-2001160
1002
}
  0
LINE
  5
972
330
81F
100
AcDbEntity
  8
D35160537
100
AcDbLine
 10
0.3465256798502168
 20
3.013580096486462
 30
0.0
 11
0.3441985182408871
 21
3.012332872471004
 31
0.0
1001
REVIT
1002
{
1070
     2
1000
-2001160
1002
}
  0
LINE
  5
973
330
81F
100
AcDbEntity
  8
D35160537
100
AcDbLine
 10
0.3314462163153991
 20
3.002996131118623
 30
0.0
 11
0.3295543623966068
 21
3.001154355439924
 31
0.0
1001
REVIT
1002
{
1070
     2
1000
-2001160
1002
}
  0
LINE
  5
974
330
81F
100
AcDbEntity
  8
D35160537
100
AcDbLine
 10
2.655761772284876
 20
4.532521929368417
 30
0.0
 11
2.563772206897681
 21
4.575417368178822
 31
0.0
1001
REVIT
1002
{
1070
     2
1000
-2001160
1002
}
  0
LINE
  5
975
330
81F
100
AcDbEntity
  8
D35160537
100
AcDbLine
 10
0.3441985182408871
 20
3.012332872471004
 30
0.0
 11
0.3419230937705748
 21
3.010993584458438
 31
0.0
1001
REVIT
1002
{
1070
     2
1000
-2001160
1002
}
  0
LINE
  5
976
330
81F
100
AcDbEntity
  8
D35160537
100
AcDbLine
 10
0.3419230937705748
 20
3.010993584458438
 30
0.0
 11
0.3397030466330619
 21
3.009564375023851
 31
0.0
1001
REVIT
1002
{
1070
     2
1000
-2001160
1002
}
  0
LINE
  5
977
330
81F
100
AcDbEntity
  8
D35160537
100
AcDbLine
 10
0.3397030466330619
 20
3.009564375023851
 30
0.0
 11
0.3375419284301557
 21
3.008047530597499
 31
0.0
1001
REVIT
1002
{
1070
     2
1000
-2001160
1002
}
  0
LINE
  5
978
330
81F
100
AcDbEntity
  8
D35160537
100
AcDbLine
 10
0.3295543623966068
 20
3.001154355439924
 30
0.0
 11
0.3277376731422805
 21
2.999238399006715
 31
0.0
1001
REVIT
1002
{
1070
     2
1000
-2001160
1002
}
  0
LINE
  5
979
330
81F
100
AcDbEntity
  8
D35160537
100
AcDbLine
 10
0.333410208335934
 20
3.004760779594649
 30
0.0
 11
0.3314462163153991
 21
3.002996131118623
 31
0.0
1001
REVIT
1002
{
1070
     2
1000
-2001160
1002
}
  0
LINE
  5
97A
330
81F
100
AcDbEntity
  8
D35160537
100
AcDbLine
 10
0.3354431964899902
 20
3.006445477806858
 30
0.0
 11
0.333410208335934
 21
3.004760779594649
 31
0.0
1001
REVIT
1002
{
1070
     2
1000
-2001160
1002
}
  0
LINE
  5
97B
330
81F
100
AcDbEntity
  8
D35160537
100
AcDbLine
 10
0.3375419284301557
 20
3.008047530597499
 30
0.0
 11
0.3354431964899902
 21
3.006445477806858
 31
0.0
1001
REVIT
1002
{
1070
     2
1000
-2001160
1002
}
  0
LINE
  5
97C
330
81F
100
AcDbEntity
  8
D35160537
100
AcDbLine
 10
2.563772206897667
 20
3.426321662667897
 30
0.0
 11
2.655761772284861
 21
3.469217101478291
 31
0.0
1001
REVIT
1002
{
1070
     2
1000
-2001160
1002
}
  0
LINE
  5
97D
330
81F
100
AcDbEntity
  8
D35160537
100
AcDbLine
 10
0.3639428189007816
 20
3.019584579036949
 30
0.0
 11
0.4145661048845711
 21
3.029424749016042
 31
0.0
1001
REVIT
1002
{
1070
     2
1000
-2001160
1002
}
  0
LINE
  5
97E
330
81F
100
AcDbEntity
  8
D35160537
100
AcDbLine
 10
0.3277376731422805
 20
2.999238399006715
 30
0.0
 11
0.3267184964512353
 21
2.998093106450307
 31
0.0
1001
REVIT
1002
{
1070
     2
1000
-2001160
1002
}
  0
LINE
  5
97F
330
81F
100
AcDbEntity
  8
D35160537
100
AcDbLine
 10
2.655761772284876
 20
4.532521929368417
 30
0.0
 11
2.675860304905484
 21
4.474009738717729
 31
0.0
1001
REVIT
1002
{
1070
     2
1000
-2001160
1002
}
  0
LINE
  5
980
330
81F
100
AcDbEntity
  8
D35160537
100
AcDbLine
 10
2.675860304905484
 20
4.474009738717729
 30
0.0
 11
2.693602897297793
 21
4.414740624640959
 31
0.0
1001
REVIT
1002
{
1070
     2
1000
-2001160
1002
}
  0
LINE
  5
981
330
81F
100
AcDbEntity
  8
D35160537
100
AcDbLine
 10
2.70896116509887
 20
4.35480940507724
 30
0.0
 11
2.721910538356496
 21
4.294311957193215
 31
0.0
1001
REVIT
1002
{
1070
     2
1000
-2001160
1002
}
  0
LINE
  5
982
330
81F
100
AcDbEntity
  8
D35160537
100
AcDbLine
 10
2.740503623161004
 20
4.172006259521367
 30
0.0
 11
2.746117589738531
 21
4.110393672759315
 31
0.0
1001
REVIT
1002
{
1070
     2
1000
-2001160
1002
}
  0
LINE
  5
983
330
81F
100
AcDbEntity
  8
D35160537
100
AcDbLine
 10
2.721910538356496
 20
4.294311957193215
 30
0.0
 11
2.732430300835829
 21
4.233345064000079
 31
0.0
1001
REVIT
1002
{
1070
     2
1000
-2001160
1002
}
  0
LINE
  5
984
330
81F
100
AcDbEntity
  8
D35160537
100
AcDbLine
 10
2.732430300835829
 20
4.233345064000079
 30
0.0
 11
2.740503623161004
 21
4.172006259521367
 31
0.0
1001
REVIT
1002
{
1070
     2
1000
-2001160
1002
}
  0
LINE
  5
985
330
81F
100
AcDbEntity
  8
D35160537
100
AcDbLine
 10
2.693602897297793
 20
4.414740624640959
 30
0.0
 11
2.70896116509887
 21
4.35480940507724
 31
0.0
1001
REVIT
1002
{
1070
     2
1000
-2001160
1002
}
  0
LINE
  5
986
330
81F
100
AcDbEntity
  8
D35160537
100
AcDbLine
 10
2.746117589738531
 20
4.110393672759315
 30
0.0
 11
2.749263219419447
 21
4.048605870709437
 31
0.0
1001
REVIT
1002
{
1070
     2
1000
-2001160
1002
}
  0
LINE
  5
987
330
81F
100
AcDbEntity
  8
D35160537
100
AcDbLine
 10
2.745052883524763
 20
3.877257572132561
 30
0.0
 11
2.73887640741816
 21
3.815698830989257
 31
0.0
1001
REVIT
1002
{
1070
     2
1000
-2001160
1002
}
  0
LINE
  5
988
330
81F
100
AcDbEntity
  8
D35160537
100
AcDbLine
 10
2.749263219419447
 20
4.048605870709437
 30
0.0
 11
2.75
 21
4.000869515423353
 31
0.0
1001
REVIT
1002
{
1070
     2
1000
-2001160
1002
}
  0
LINE
  5
989
330
81F
100
AcDbEntity
  8
D35160537
100
AcDbLine
 10
2.748762726037597
 20
3.939014066016001
 30
0.0
 11
2.745052883524763
 21
3.877257572132561
 31
0.0
1001
REVIT
1002
{
1070
     2
1000
-2001160
1002
}
  0
LINE
  5
98A
330
81F
100
AcDbEntity
  8
D35160537
100
AcDbLine
 10
2.75
 20
4.000869515423364
 30
0.0
 11
2.748762726037597
 21
3.939014066016001
 31
0.0
1001
REVIT
1002
{
1070
     2
1000
-2001160
1002
}
  0
LINE
  5
98B
330
81F
100
AcDbEntity
  8
D35160537
100
AcDbLine
 10
2.689760603314439
 20
3.573402962506618
 30
0.0
 11
2.671477411605977
 21
3.514298374112856
 31
0.0
1001
REVIT
1002
{
1070
     2
1000
-2001160
1002
}
  0
LINE
  5
98C
330
81F
100
AcDbEntity
  8
D35160537
100
AcDbLine
 10
2.730243178761952
 20
3.754436323440065
 30
0.0
 11
2.719167008880361
 21
3.693568056428434
 31
0.0
1001
REVIT
1002
{
1070
     2
1000
-2001160
1002
}
  0
LINE
  5
98D
330
81F
100
AcDbEntity
  8
D35160537
100
AcDbLine
 10
2.719167008880361
 20
3.693568056428434
 30
0.0
 11
2.705665617282377
 21
3.633191406197058
 31
0.0
1001
REVIT
1002
{
1070
     2
1000
-2001160
1002
}
  0
LINE
  5
98E
330
81F
100
AcDbEntity
  8
D35160537
100
AcDbLine
 10
2.73887640741816
 20
3.815698830989257
 30
0.0
 11
2.730243178761952
 21
3.754436323440065
 31
0.0
1001
REVIT
1002
{
1070
     2
1000
-2001160
1002
}
  0
LINE
  5
98F
330
81F
100
AcDbEntity
  8
D35160537
100
AcDbLine
 10
2.705665617282377
 20
3.633191406197058
 30
0.0
 11
2.689760603314439
 21
3.573402962506618
 31
0.0
1001
REVIT
1002
{
1070
     2
1000
-2001160
1002
}
  0
LINE
  5
990
330
81F
100
AcDbEntity
  8
D35160537
100
AcDbLine
 10
2.558986152514464
 20
2.179293840276615
 30
0.0
 11
2.602771581244752
 21
2.255132427468671
 31
0.0
1001
REVIT
1002
{
1070
     2
1000
-2001160
1002
}
  0
LINE
  5
991
330
81F
100
AcDbEntity
  8
D35160537
100
AcDbLine
 10
2.101608286314117
 20
2.255132427468671
 30
0.0
 11
2.145393715044406
 21
2.179293840276615
 31
0.0
1001
REVIT
1002
{
1070
     2
1000
-2001160
1002
}
  0
LINE
  5
992
330
81F
100
AcDbEntity
  8
D35160537
100
AcDbLine
 10
2.671477411605977
 20
3.514298374112856
 30
0.0
 11
2.655761772284861
 21
3.469217101478291
 31
0.0
1001
REVIT
1002
{
1070
     2
1000
-2001160
1002
}
  0
LINE
  5
993
330
81F
100
AcDbEntity
  8
D35160537
100
AcDbLine
 10
2.558986152514449
 20
2.179293840276615
 30
0.0
 11
2.543883768059416
 21
2.171322976406125
 31
0.0
1001
REVIT
1002
{
1070
     2
1000
-2001160
1002
}
  0
LINE
  5
994
330
81F
100
AcDbEntity
  8
D35160537
100
AcDbLine
 10
2.543883768059416
 20
2.171322976406125
 30
0.0
 11
2.528474714362019
 21
2.163962422675533
 31
0.0
1001
REVIT
1002
{
1070
     2
1000
-2001160
1002
}
  0
LINE
  5
995
330
81F
100
AcDbEntity
  8
D35160537
100
AcDbLine
 10
2.528474714362019
 20
2.163962422675533
 30
0.0
 11
2.512783642621116
 21
2.157223954400654
 31
0.0
1001
REVIT
1002
{
1070
     2
1000
-2001160
1002
}
  0
LINE
  5
996
330
81F
100
AcDbEntity
  8
D35160537
100
AcDbLine
 10
2.512783642621116
 20
2.157223954400654
 30
0.0
 11
2.496835655204222
 21
2.151118351693257
 31
0.0
1001
REVIT
1002
{
1070
     2
1000
-2001160
1002
}
  0
LINE
  5
997
330
81F
100
AcDbEntity
  8
D35160537
100
AcDbLine
 10
2.496835655204222
 20
2.151118351693257
 30
0.0
 11
2.480656265489173
 21
2.145655382215212
 31
0.0
1001
REVIT
1002
{
1070
     2
1000
-2001160
1002
}
  0
LINE
  5
998
330
81F
100
AcDbEntity
  8
D35160537
100
AcDbLine
 10
2.480656265489173
 20
2.145655382215212
 30
0.0
 11
2.464271357048062
 21
2.140843785552318
 31
0.0
1001
REVIT
1002
{
1070
     2
1000
-2001160
1002
}
  0
LINE
  5
999
330
81F
100
AcDbEntity
  8
D35160537
100
AcDbLine
 10
2.464271357048062
 20
2.140843785552318
 30
0.0
 11
2.447707142239153
 21
2.136691259232803
 31
0.0
1001
REVIT
1002
{
1070
     2
1000
-2001160
1002
}
  0
LINE
  5
99A
330
81F
100
AcDbEntity
  8
D35160537
100
AcDbLine
 10
2.447707142239153
 20
2.136691259232803
 30
0.0
 11
2.430990120272625
 21
2.133204446412973
 31
0.0
1001
REVIT
1002
{
1070
     2
1000
-2001160
1002
}
  0
LINE
  5
99B
330
81F
100
AcDbEntity
  8
D35160537
100
AcDbLine
 10
2.430990120272625
 20
2.133204446412973
 30
0.0
 11
2.414147034817517
 21
2.130388925249517
 31
0.0
1001
REVIT
1002
{
1070
     2
1000
-2001160
1002
}
  0
LINE
  5
99C
330
81F
100
AcDbEntity
  8
D35160537
100
AcDbLine
 10
2.414147034817517
 20
2.130388925249517
 30
0.0
 11
2.397204831217564
 21
2.128249199975678
 31
0.0
1001
REVIT
1002
{
1070
     2
1000
-2001160
1002
}
  0
LINE
  5
99D
330
81F
100
AcDbEntity
  8
D35160537
100
AcDbLine
 10
2.318070502098876
 20
2.127235021037941
 30
0.0
 11
2.301079026947959
 21
2.128939855125453
 31
0.0
1001
REVIT
1002
{
1070
     2
1000
-2001160
1002
}
  0
LINE
  5
99E
330
81F
100
AcDbEntity
  8
D35160537
100
AcDbLine
 10
2.267368428216258
 20
2.134380053369833
 30
0.0
 11
2.250703234402223
 21
2.13810671437003
 31
0.0
1001
REVIT
1002
{
1070
     2
1000
-2001160
1002
}
  0
LINE
  5
99F
330
81F
100
AcDbEntity
  8
D35160537
100
AcDbLine
 10
2.380190613384371
 20
2.126788693695454
 30
0.0
 11
2.363131600436972
 21
2.126009742907326
 31
0.0
1001
REVIT
1002
{
1070
     2
1000
-2001160
1002
}
  0
LINE
  5
9A0
330
81F
100
AcDbEntity
  8
D35160537
100
AcDbLine
 10
2.397204831217564
 20
2.128249199975678
 30
0.0
 11
2.380190613384371
 21
2.126788693695454
 31
0.0
1001
REVIT
1002
{
1070
     2
1000
-2001160
1002
}
  0
LINE
  5
9A1
330
81F
100
AcDbEntity
  8
D35160537
100
AcDbLine
 10
2.363131600436972
 20
2.126009742907326
 30
0.0
 11
2.352189933779428
 21
2.125869515423355
 31
0.0
1001
REVIT
1002
{
1070
     2
1000
-2001160
1002
}
  0
LINE
  5
9A2
330
81F
100
AcDbEntity
  8
D35160537
100
AcDbLine
 10
2.352189933779442
 20
2.125869515423355
 30
0.0
 11
2.335116561062051
 21
2.126211028413989
 31
0.0
1001
REVIT
1002
{
1070
     2
1000
-2001160
1002
}
  0
LINE
  5
9A3
330
81F
100
AcDbEntity
  8
D35160537
100
AcDbLine
 10
2.335116561062051
 20
2.126211028413989
 30
0.0
 11
2.318070502098876
 21
2.127235021037941
 31
0.0
1001
REVIT
1002
{
1070
     2
1000
-2001160
1002
}
  0
LINE
  5
9A4
330
81F
100
AcDbEntity
  8
D35160537
100
AcDbLine
 10
2.217886319001493
 20
2.147543360351013
 30
0.0
 11
2.201787097478899
 21
2.15323824871128
 31
0.0
1001
REVIT
1002
{
1070
     2
1000
-2001160
1002
}
  0
LINE
  5
9A5
330
81F
100
AcDbEntity
  8
D35160537
100
AcDbLine
 10
2.284169318344908
 20
2.131322803305673
 30
0.0
 11
2.267368428216258
 21
2.134380053369833
 31
0.0
1001
REVIT
1002
{
1070
     2
1000
-2001160
1002
}
  0
LINE
  5
9A6
330
81F
100
AcDbEntity
  8
D35160537
100
AcDbLine
 10
2.234200397657843
 20
2.142496824443623
 30
0.0
 11
2.217886319001493
 21
2.147543360351013
 31
0.0
1001
REVIT
1002
{
1070
     2
1000
-2001160
1002
}
  0
LINE
  5
9A7
330
81F
100
AcDbEntity
  8
D35160537
100
AcDbLine
 10
2.250703234402223
 20
2.13810671437003
 30
0.0
 11
2.234200397657843
 21
2.142496824443623
 31
0.0
1001
REVIT
1002
{
1070
     2
1000
-2001160
1002
}
  0
LINE
  5
9A8
330
81F
100
AcDbEntity
  8
D35160537
100
AcDbLine
 10
2.201787097478899
 20
2.15323824871128
 30
0.0
 11
2.185928488410141
 21
2.159572378917895
 31
0.0
1001
REVIT
1002
{
1070
     2
1000
-2001160
1002
}
  0
LINE
  5
9A9
330
81F
100
AcDbEntity
  8
D35160537
100
AcDbLine
 10
2.17033586218676
 20
2.166535617713732
 30
0.0
 11
2.155034163684462
 21
2.174116825402128
 31
0.0
1001
REVIT
1002
{
1070
     2
1000
-2001160
1002
}
  0
LINE
  5
9AA
330
81F
100
AcDbEntity
  8
D35160537
100
AcDbLine
 10
2.301079026947959
 20
2.128939855125453
 30
0.0
 11
2.284169318344908
 21
2.131322803305673
 31
0.0
1001
REVIT
1002
{
1070
     2
1000
-2001160
1002
}
  0
LINE
  5
9AB
330
81F
100
AcDbEntity
  8
D35160537
100
AcDbLine
 10
2.185928488410141
 20
2.159572378917895
 30
0.0
 11
2.17033586218676
 21
2.166535617713732
 31
0.0
1001
REVIT
1002
{
1070
     2
1000
-2001160
1002
}
  0
LINE
  5
9AC
330
81F
100
AcDbEntity
  8
D35160537
100
AcDbLine
 10
2.155034163684462
 20
2.174116825402128
 30
0.0
 11
2.14539371504442
 21
2.179293840276615
 31
0.0
1001
REVIT
1002
{
1070
     2
1000
-2001160
1002
}
  0
LINE
  5
9AD
330
81F
100
AcDbEntity
  8
D35160537
100
AcDbLine
 10
2.602771581244752
 20
2.255132427468671
 30
0.0
 11
2.517389123786529
 21
3.476158455756538
 31
0.0
1001
REVIT
1002
{
1070
     2
1000
-2001160
1002
}
  0
LINE
  5
9AE
330
81F
100
AcDbEntity
  8
D35160537
100
AcDbLine
 10
2.199124770398086
 20
3.649683120881492
 30
0.0
 11
2.101608286314117
 21
2.255132427468671
 31
0.0
1001
REVIT
1002
{
1070
     2
1000
-2001160
1002
}
  0
LINE
  5
9AF
330
81F
100
AcDbEntity
  8
D35160537
100
AcDbLine
 10
2.54388376805943
 20
-1.828677023593135
 30
0.0
 11
2.528474714362033
 21
-1.836037577323716
 31
0.0
1001
REVIT
1002
{
1070
     2
1000
-2001160
1002
}
  0
LINE
  5
9B0
330
81F
100
AcDbEntity
  8
D35160537
100
AcDbLine
 10
2.528474714362033
 20
-1.836037577323716
 30
0.0
 11
2.51278364262113
 21
-1.842776045598606
 31
0.0
1001
REVIT
1002
{
1070
     2
1000
-2001160
1002
}
  0
LINE
  5
9B1
330
81F
100
AcDbEntity
  8
D35160537
100
AcDbLine
 10
2.558986152514464
 20
-1.820706159722645
 30
0.0
 11
2.602771581244766
 21
-1.744867572530589
 31
0.0
1001
REVIT
1002
{
1070
     2
1000
-2001160
1002
}
  0
LINE
  5
9B2
330
81F
100
AcDbEntity
  8
D35160537
100
AcDbLine
 10
2.101608286314132
 20
-1.744867572530589
 30
0.0
 11
2.145393715044434
 21
-1.820706159722645
 31
0.0
1001
REVIT
1002
{
1070
     2
1000
-2001160
1002
}
  0
LINE
  5
9B3
330
81F
100
AcDbEntity
  8
D35160537
100
AcDbLine
 10
2.558986152514464
 20
-1.820706159722645
 30
0.0
 11
2.54388376805943
 21
-1.828677023593135
 31
0.0
1001
REVIT
1002
{
1070
     2
1000
-2001160
1002
}
  0
LINE
  5
9B4
330
81F
100
AcDbEntity
  8
D35160537
100
AcDbLine
 10
2.51278364262113
 20
-1.842776045598606
 30
0.0
 11
2.496835655204236
 21
-1.848881648306003
 31
0.0
1001
REVIT
1002
{
1070
     2
1000
-2001160
1002
}
  0
LINE
  5
9B5
330
81F
100
AcDbEntity
  8
D35160537
100
AcDbLine
 10
2.430990120272639
 20
-1.866795553586287
 30
0.0
 11
2.414147034817531
 21
-1.869611074749753
 31
0.0
1001
REVIT
1002
{
1070
     2
1000
-2001160
1002
}
  0
LINE
  5
9B6
330
81F
100
AcDbEntity
  8
D35160537
100
AcDbLine
 10
2.480656265489187
 20
-1.854344617784049
 30
0.0
 11
2.464271357048076
 21
-1.859156214446953
 31
0.0
1001
REVIT
1002
{
1070
     2
1000
-2001160
1002
}
  0
LINE
  5
9B7
330
81F
100
AcDbEntity
  8
D35160537
100
AcDbLine
 10
2.414147034817531
 20
-1.869611074749753
 30
0.0
 11
2.397204831217578
 21
-1.871750800023582
 31
0.0
1001
REVIT
1002
{
1070
     2
1000
-2001160
1002
}
  0
LINE
  5
9B8
330
81F
100
AcDbEntity
  8
D35160537
100
AcDbLine
 10
2.397204831217578
 20
-1.871750800023582
 30
0.0
 11
2.380190613384385
 21
-1.873211306303806
 31
0.0
1001
REVIT
1002
{
1070
     2
1000
-2001160
1002
}
  0
LINE
  5
9B9
330
81F
100
AcDbEntity
  8
D35160537
100
AcDbLine
 10
2.496835655204236
 20
-1.848881648306003
 30
0.0
 11
2.480656265489187
 21
-1.854344617784049
 31
0.0
1001
REVIT
1002
{
1070
     2
1000
-2001160
1002
}
  0
LINE
  5
9BA
330
81F
100
AcDbEntity
  8
D35160537
100
AcDbLine
 10
2.363131600436986
 20
-1.873990257091934
 30
0.0
 11
2.352189933779442
 21
-1.874130484575895
 31
0.0
1001
REVIT
1002
{
1070
     2
1000
-2001160
1002
}
  0
LINE
  5
9BB
330
81F
100
AcDbEntity
  8
D35160537
100
AcDbLine
 10
2.447707142239167
 20
-1.863308740766457
 30
0.0
 11
2.430990120272639
 21
-1.866795553586287
 31
0.0
1001
REVIT
1002
{
1070
     2
1000
-2001160
1002
}
  0
LINE
  5
9BC
330
81F
100
AcDbEntity
  8
D35160537
100
AcDbLine
 10
2.464271357048076
 20
-1.859156214446953
 30
0.0
 11
2.447707142239167
 21
-1.863308740766457
 31
0.0
1001
REVIT
1002
{
1070
     2
1000
-2001160
1002
}
  0
LINE
  5
9BD
330
81F
100
AcDbEntity
  8
D35160537
100
AcDbLine
 10
2.380190613384385
 20
-1.873211306303806
 30
0.0
 11
2.363131600436986
 21
-1.873990257091934
 31
0.0
1001
REVIT
1002
{
1070
     2
1000
-2001160
1002
}
  0
LINE
  5
9BE
330
81F
100
AcDbEntity
  8
D35160537
100
AcDbLine
 10
2.284169318344922
 20
-1.868677196693598
 30
0.0
 11
2.267368428216272
 21
-1.865619946629427
 31
0.0
1001
REVIT
1002
{
1070
     2
1000
-2001160
1002
}
  0
LINE
  5
9BF
330
81F
100
AcDbEntity
  8
D35160537
100
AcDbLine
 10
2.335116561062051
 20
-1.873788971585272
 30
0.0
 11
2.318070502098876
 21
-1.872764978961319
 31
0.0
1001
REVIT
1002
{
1070
     2
1000
-2001160
1002
}
  0
LINE
  5
9C0
330
81F
100
AcDbEntity
  8
D35160537
100
AcDbLine
 10
2.352189933779456
 20
-1.874130484575895
 30
0.0
 11
2.335116561062051
 21
-1.873788971585272
 31
0.0
1001
REVIT
1002
{
1070
     2
1000
-2001160
1002
}
  0
LINE
  5
9C1
330
81F
100
AcDbEntity
  8
D35160537
100
AcDbLine
 10
2.267368428216272
 20
-1.865619946629427
 30
0.0
 11
2.250703234402223
 21
-1.86189328562923
 31
0.0
1001
REVIT
1002
{
1070
     2
1000
-2001160
1002
}
  0
LINE
  5
9C2
330
81F
100
AcDbEntity
  8
D35160537
100
AcDbLine
 10
2.301079026947974
 20
-1.871060144873807
 30
0.0
 11
2.284169318344922
 21
-1.868677196693598
 31
0.0
1001
REVIT
1002
{
1070
     2
1000
-2001160
1002
}
  0
LINE
  5
9C3
330
81F
100
AcDbEntity
  8
D35160537
100
AcDbLine
 10
2.217886319001507
 20
-1.852456639648247
 30
0.0
 11
2.201787097478899
 21
-1.84676175128798
 31
0.0
1001
REVIT
1002
{
1070
     2
1000
-2001160
1002
}
  0
LINE
  5
9C4
330
81F
100
AcDbEntity
  8
D35160537
100
AcDbLine
 10
2.250703234402223
 20
-1.86189328562923
 30
0.0
 11
2.234200397657858
 21
-1.857503175555637
 31
0.0
1001
REVIT
1002
{
1070
     2
1000
-2001160
1002
}
  0
LINE
  5
9C5
330
81F
100
AcDbEntity
  8
D35160537
100
AcDbLine
 10
2.234200397657858
 20
-1.857503175555637
 30
0.0
 11
2.217886319001507
 21
-1.852456639648247
 31
0.0
1001
REVIT
1002
{
1070
     2
1000
-2001160
1002
}
  0
LINE
  5
9C6
330
81F
100
AcDbEntity
  8
D35160537
100
AcDbLine
 10
2.201787097478899
 20
-1.84676175128798
 30
0.0
 11
2.185928488410155
 21
-1.840427621081365
 31
0.0
1001
REVIT
1002
{
1070
     2
1000
-2001160
1002
}
  0
LINE
  5
9C7
330
81F
100
AcDbEntity
  8
D35160537
100
AcDbLine
 10
2.318070502098876
 20
-1.872764978961319
 30
0.0
 11
2.301079026947974
 21
-1.871060144873807
 31
0.0
1001
REVIT
1002
{
1070
     2
1000
-2001160
1002
}
  0
LINE
  5
9C8
330
81F
100
AcDbEntity
  8
D35160537
100
AcDbLine
 10
2.185928488410155
 20
-1.840427621081365
 30
0.0
 11
2.170335862186774
 21
-1.833464382285528
 31
0.0
1001
REVIT
1002
{
1070
     2
1000
-2001160
1002
}
  0
LINE
  5
9C9
330
81F
100
AcDbEntity
  8
D35160537
100
AcDbLine
 10
2.199124770398043
 20
-0.3503168791185356
 30
0.0
 11
2.101608286314132
 21
-1.744867572530599
 31
0.0
1001
REVIT
1002
{
1070
     2
1000
-2001160
1002
}
  0
LINE
  5
9CA
330
81F
100
AcDbEntity
  8
D35160537
100
AcDbLine
 10
2.170335862186774
 20
-1.833464382285528
 30
0.0
 11
2.155034163684476
 21
-1.825883174597132
 31
0.0
1001
REVIT
1002
{
1070
     2
1000
-2001160
1002
}
  0
LINE
  5
9CB
330
81F
100
AcDbEntity
  8
D35160537
100
AcDbLine
 10
2.155034163684476
 20
-1.825883174597132
 30
0.0
 11
2.145393715044434
 21
-1.820706159722645
 31
0.0
1001
REVIT
1002
{
1070
     2
1000
-2001160
1002
}
  0
LINE
  5
9CC
330
81F
100
AcDbEntity
  8
D35160537
100
AcDbLine
 10
2.602771581244766
 20
-1.744867572530589
 30
0.0
 11
2.5173891237866
 21
-0.5238415442435436
 31
0.0
1001
REVIT
1002
{
1070
     2
1000
-2001160
1002
}
  0
LINE
  5
9CD
330
81F
100
AcDbEntity
  8
D35160537
100
AcDbLine
 10
2.101608286314146
 20
-5.744867572529871
 30
0.0
 11
2.145393715044448
 21
-5.820706159721916
 31
0.0
1001
REVIT
1002
{
1070
     2
1000
-2001160
1002
}
  0
LINE
  5
9CE
330
81F
100
AcDbEntity
  8
D35160537
100
AcDbLine
 10
2.512783642621144
 20
-5.842776045597878
 30
0.0
 11
2.49683565520425
 21
-5.848881648305274
 31
0.0
1001
REVIT
1002
{
1070
     2
1000
-2001160
1002
}
  0
LINE
  5
9CF
330
81F
100
AcDbEntity
  8
D35160537
100
AcDbLine
 10
2.543883768059444
 20
-5.828677023592396
 30
0.0
 11
2.528474714362047
 21
-5.836037577322999
 31
0.0
1001
REVIT
1002
{
1070
     2
1000
-2001160
1002
}
  0
LINE
  5
9D0
330
81F
100
AcDbEntity
  8
D35160537
100
AcDbLine
 10
2.558986152514478
 20
-5.820706159721916
 30
0.0
 11
2.602771581244766
 21
-5.744867572529871
 31
0.0
1001
REVIT
1002
{
1070
     2
1000
-2001160
1002
}
  0
LINE
  5
9D1
330
81F
100
AcDbEntity
  8
D35160537
100
AcDbLine
 10
2.414147034817546
 20
-5.869611074749014
 30
0.0
 11
2.397204831217592
 21
-5.871750800022853
 31
0.0
1001
REVIT
1002
{
1070
     2
1000
-2001160
1002
}
  0
LINE
  5
9D2
330
81F
100
AcDbEntity
  8
D35160537
100
AcDbLine
 10
2.558986152514478
 20
-5.820706159721916
 30
0.0
 11
2.543883768059444
 21
-5.828677023592396
 31
0.0
1001
REVIT
1002
{
1070
     2
1000
-2001160
1002
}
  0
LINE
  5
9D3
330
81F
100
AcDbEntity
  8
D35160537
100
AcDbLine
 10
2.528474714362047
 20
-5.836037577322999
 30
0.0
 11
2.512783642621144
 21
-5.842776045597878
 31
0.0
1001
REVIT
1002
{
1070
     2
1000
-2001160
1002
}
  0
LINE
  5
9D4
330
81F
100
AcDbEntity
  8
D35160537
100
AcDbLine
 10
2.480656265489187
 20
-5.85434461778332
 30
0.0
 11
2.46427135704809
 21
-5.859156214446224
 31
0.0
1001
REVIT
1002
{
1070
     2
1000
-2001160
1002
}
  0
LINE
  5
9D5
330
81F
100
AcDbEntity
  8
D35160537
100
AcDbLine
 10
2.430990120272653
 20
-5.866795553585559
 30
0.0
 11
2.414147034817546
 21
-5.869611074749014
 31
0.0
1001
REVIT
1002
{
1070
     2
1000
-2001160
1002
}
  0
LINE
  5
9D6
330
81F
100
AcDbEntity
  8
D35160537
100
AcDbLine
 10
2.46427135704809
 20
-5.859156214446224
 30
0.0
 11
2.447707142239181
 21
-5.863308740765718
 31
0.0
1001
REVIT
1002
{
1070
     2
1000
-2001160
1002
}
  0
LINE
  5
9D7
330
81F
100
AcDbEntity
  8
D35160537
100
AcDbLine
 10
2.49683565520425
 20
-5.848881648305274
 30
0.0
 11
2.480656265489187
 21
-5.85434461778332
 31
0.0
1001
REVIT
1002
{
1070
     2
1000
-2001160
1002
}
  0
LINE
  5
9D8
330
81F
100
AcDbEntity
  8
D35160537
100
AcDbLine
 10
2.447707142239181
 20
-5.863308740765718
 30
0.0
 11
2.430990120272653
 21
-5.866795553585559
 31
0.0
1001
REVIT
1002
{
1070
     2
1000
-2001160
1002
}
  0
LINE
  5
9D9
330
81F
100
AcDbEntity
  8
D35160537
100
AcDbLine
 10
2.380190613384399
 20
-5.873211306303078
 30
0.0
 11
2.363131600437
 21
-5.873990257091206
 31
0.0
1001
REVIT
1002
{
1070
     2
1000
-2001160
1002
}
  0
LINE
  5
9DA
330
81F
100
AcDbEntity
  8
D35160537
100
AcDbLine
 10
2.363131600437
 20
-5.873990257091206
 30
0.0
 11
2.352189933779456
 21
-5.874130484575166
 31
0.0
1001
REVIT
1002
{
1070
     2
1000
-2001160
1002
}
  0
LINE
  5
9DB
330
81F
100
AcDbEntity
  8
D35160537
100
AcDbLine
 10
2.397204831217592
 20
-5.871750800022853
 30
0.0
 11
2.380190613384399
 21
-5.873211306303078
 31
0.0
1001
REVIT
1002
{
1070
     2
1000
-2001160
1002
}
  0
LINE
  5
9DC
330
81F
100
AcDbEntity
  8
D35160537
100
AcDbLine
 10
2.335116561062065
 20
-5.873788971584543
 30
0.0
 11
2.318070502098905
 21
-5.87276497896059
 31
0.0
1001
REVIT
1002
{
1070
     2
1000
-2001160
1002
}
  0
LINE
  5
9DD
330
81F
100
AcDbEntity
  8
D35160537
100
AcDbLine
 10
2.35218993377947
 20
-5.874130484575166
 30
0.0
 11
2.335116561062065
 21
-5.873788971584543
 31
0.0
1001
REVIT
1002
{
1070
     2
1000
-2001160
1002
}
  0
LINE
  5
9DE
330
81F
100
AcDbEntity
  8
D35160537
100
AcDbLine
 10
2.318070502098905
 20
-5.87276497896059
 30
0.0
 11
2.301079026947988
 21
-5.871060144873078
 31
0.0
1001
REVIT
1002
{
1070
     2
1000
-2001160
1002
}
  0
LINE
  5
9DF
330
81F
100
AcDbEntity
  8
D35160537
100
AcDbLine
 10
2.267368428216286
 20
-5.865619946628688
 30
0.0
 11
2.250703234402237
 21
-5.861893285628502
 31
0.0
1001
REVIT
1002
{
1070
     2
1000
-2001160
1002
}
  0
LINE
  5
9E0
330
81F
100
AcDbEntity
  8
D35160537
100
AcDbLine
 10
2.217886319001522
 20
-5.852456639647519
 30
0.0
 11
2.201787097478913
 21
-5.846761751287251
 31
0.0
1001
REVIT
1002
{
1070
     2
1000
-2001160
1002
}
  0
LINE
  5
9E1
330
81F
100
AcDbEntity
  8
D35160537
100
AcDbLine
 10
2.185928488410169
 20
-5.840427621080637
 30
0.0
 11
2.170335862186789
 21
-5.8334643822848
 31
0.0
1001
REVIT
1002
{
1070
     2
1000
-2001160
1002
}
  0
LINE
  5
9E2
330
81F
100
AcDbEntity
  8
D35160537
100
AcDbLine
 10
2.234200397657872
 20
-5.857503175554908
 30
0.0
 11
2.217886319001522
 21
-5.852456639647519
 31
0.0
1001
REVIT
1002
{
1070
     2
1000
-2001160
1002
}
  0
LINE
  5
9E3
330
81F
100
AcDbEntity
  8
D35160537
100
AcDbLine
 10
2.284169318344936
 20
-5.868677196692859
 30
0.0
 11
2.267368428216286
 21
-5.865619946628688
 31
0.0
1001
REVIT
1002
{
1070
     2
1000
-2001160
1002
}
  0
LINE
  5
9E4
330
81F
100
AcDbEntity
  8
D35160537
100
AcDbLine
 10
2.250703234402237
 20
-5.861893285628502
 30
0.0
 11
2.234200397657872
 21
-5.857503175554908
 31
0.0
1001
REVIT
1002
{
1070
     2
1000
-2001160
1002
}
  0
LINE
  5
9E5
330
81F
100
AcDbEntity
  8
D35160537
100
AcDbLine
 10
2.301079026947988
 20
-5.871060144873078
 30
0.0
 11
2.284169318344936
 21
-5.868677196692859
 31
0.0
1001
REVIT
1002
{
1070
     2
1000
-2001160
1002
}
  0
LINE
  5
9E6
330
81F
100
AcDbEntity
  8
D35160537
100
AcDbLine
 10
2.201787097478913
 20
-5.846761751287251
 30
0.0
 11
2.185928488410169
 21
-5.840427621080637
 31
0.0
1001
REVIT
1002
{
1070
     2
1000
-2001160
1002
}
  0
LINE
  5
9E7
330
81F
100
AcDbEntity
  8
D35160537
100
AcDbLine
 10
2.170335862186789
 20
-5.8334643822848
 30
0.0
 11
2.15503416368449
 21
-5.825883174596404
 31
0.0
1001
REVIT
1002
{
1070
     2
1000
-2001160
1002
}
  0
LINE
  5
9E8
330
81F
100
AcDbEntity
  8
D35160537
100
AcDbLine
 10
2.15503416368449
 20
-5.825883174596404
 30
0.0
 11
2.145393715044448
 21
-5.820706159721916
 31
0.0
1001
REVIT
1002
{
1070
     2
1000
-2001160
1002
}
  0
LINE
  5
9E9
330
81F
100
AcDbEntity
  8
D35160537
100
AcDbLine
 10
2.199124770398057
 20
-4.350316879117839
 30
0.0
 11
2.101608286314146
 21
-5.744867572529871
 31
0.0
1001
REVIT
1002
{
1070
     2
1000
-2001160
1002
}
  0
LINE
  5
9EA
330
81F
100
AcDbEntity
  8
D35160537
100
AcDbLine
 10
2.655761772284833
 20
-4.530782898521028
 30
0.0
 11
2.655761772284847
 21
-3.467478070630894
 31
0.0
1001
REVIT
1002
{
1070
     2
1000
-2001160
1002
}
  0
LINE
  5
9EB
330
81F
100
AcDbEntity
  8
D35160537
100
AcDbLine
 10
0.153745511737668
 20
5.375869515423392
 30
0.0
 11
0.153745511737668
 21
-5.375869515423387
 31
0.0
1001
REVIT
1002
{
1070
     2
1000
-2001160
1002
}
  0
LINE
  5
9EC
330
81F
100
AcDbEntity
  8
D35160537
100
AcDbLine
 10
2.602771581244766
 20
-5.744867572529871
 30
0.0
 11
2.517389123786614
 21
-4.523841544242836
 31
0.0
1001
REVIT
1002
{
1070
     2
1000
-2001160
1002
}
  0
LINE
  5
9ED
330
81F
100
AcDbEntity
  8
D35160537
100
AcDbLine
 10
2.563772206897652
 20
-3.424582631820495
 30
0.0
 11
2.563772206897638
 21
-4.573678337331427
 31
0.0
1001
REVIT
1002
{
1070
     2
1000
-2001160
1002
}
  0
LINE
  5
9EE
330
81F
100
AcDbEntity
  8
D35160537
100
AcDbLine
 10
0.4145661048845426
 20
-4.970575250983275
 30
0.0
 11
0.4145661048845711
 21
-3.027685718168589
 31
0.0
1001
REVIT
1002
{
1070
     2
1000
-2001160
1002
}
  0
LINE
  5
9EF
330
81F
100
AcDbEntity
  8
D35160537
100
AcDbLine
 10
2.563772206897667
 20
0.5754173681787896
 30
0.0
 11
2.563772206897652
 21
-0.5736783373321402
 31
0.0
1001
REVIT
1002
{
1070
     2
1000
-2001160
1002
}
  0
LINE
  5
9F0
330
81F
100
AcDbEntity
  8
D35160537
100
AcDbLine
 10
0.4145661048845568
 20
-0.9705752509839831
 30
0.0
 11
0.4145661048845853
 21
0.9723142818306902
 31
0.0
1001
REVIT
1002
{
1070
     2
1000
-2001160
1002
}
  0
LINE
  5
9F1
330
81F
100
AcDbEntity
  8
D35160537
100
AcDbLine
 10
2.655761772284847
 20
-0.5307828985217427
 30
0.0
 11
2.655761772284861
 21
0.5325219293683903
 31
0.0
1001
REVIT
1002
{
1070
     2
1000
-2001160
1002
}
  0
LINE
  5
9F2
330
81F
100
AcDbEntity
  8
D35160537
100
AcDbLine
 10
2.563772206897681
 20
4.57541736817882
 30
0.0
 11
2.563772206897667
 21
3.42632166266789
 31
0.0
1001
REVIT
1002
{
1070
     2
1000
-2001160
1002
}
  0
LINE
  5
9F3
330
81F
100
AcDbEntity
  8
D35160537
100
AcDbLine
 10
2.655761772284861
 20
3.469217101478287
 30
0.0
 11
2.655761772284876
 21
4.532521929368419
 31
0.0
1001
REVIT
1002
{
1070
     2
1000
-2001160
1002
}
  0
SPLINE
  5
9F4
330
81F
100
AcDbEntity
  8
D35160537
100
AcDbSpline
210
0.0
220
0.0
230
1.0
 70
     8
 71
     3
 72
     9
 73
     5
 74
     0
 42
0.000000001
 43
0.0000000001
 40
0.0
 40
0.0
 40
0.0
 40
0.0
 40
0.5
 40
1.0
 40
1.0
 40
1.0
 40
1.0
 10
2.136037160001365
 20
4.169817223315742
 30
0.0
 10
2.11114312892748
 20
4.178451093818232
 30
0.0
 10
2.061314529460787
 20
4.195819684482573
 30
0.0
 10
2.011404855356289
 20
4.213141541551051
 30
0.0
 10
1.986429749644585
 20
4.221729493288966
 30
0.0
1001
REVIT
1002
{
1070
     2
1000
-2001160
1002
}
  0
LINE
  5
9F5
330
81F
100
AcDbEntity
  8
D35160537
100
AcDbLine
 10
2.174874149869964
 20
4.169817223315742
 30
0.0
 11
2.136037160001365
 21
4.169817223315744
 31
0.0
1001
REVIT
1002
{
1070
     2
1000
-2001160
1002
}
  0
LINE
  5
9F6
330
81F
100
AcDbEntity
  8
D35160537
100
AcDbLine
 10
0.4145661048845711
 20
3.02942474901604
 30
0.0
 11
0.4145661048845995
 21
4.972314281830726
 31
0.0
1001
REVIT
1002
{
1070
     2
1000
-2001160
1002
}
  0
SPLINE
  5
9F7
330
81F
100
AcDbEntity
  8
D35160537
100
AcDbSpline
210
0.0
220
0.0
230
1.0
 70
     8
 71
     3
 72
    10
 73
     6
 74
     0
 42
0.000000001
 43
0.0000000001
 40
0.0
 40
0.0
 40
0.0
 40
0.0
 40
0.3333333333333333
 40
0.6666666666666666
 40
1.0
 40
1.0
 40
1.0
 40
1.0
 10
1.986429749644557
 20
4.221729493288963
 30
0.0
 10
1.80337605475114
 20
4.220969500458116
 30
0.0
 10
1.436735515211168
 20
4.233073869154335
 30
0.0
 10
0.9037964243760541
 20
4.306183609808888
 30
0.0
 10
0.571885036524904
 20
4.383508025844237
 30
0.0
 10
0.4145661048845995
 20
4.431889461258922
 30
0.0
1001
REVIT
1002
{
1070
     2
1000
-2001160
1002
}
  0
LINE
  5
9F8
330
81F
100
AcDbEntity
  8
D35160537
100
AcDbLine
 10
2.136037160001365
 20
3.831936183777989
 30
0.0
 11
2.174874149869964
 21
3.831936183777989
 31
0.0
1001
REVIT
1002
{
1070
     2
1000
-2001160
1002
}
  0
SPLINE
  5
9F9
330
81F
100
AcDbEntity
  8
D35160537
100
AcDbSpline
210
0.0
220
0.0
230
1.0
 70
     8
 71
     3
 72
     9
 73
     5
 74
     0
 42
0.000000001
 43
0.0000000001
 40
0.0
 40
0.0
 40
0.0
 40
0.0
 40
0.5
 40
1.0
 40
1.0
 40
1.0
 40
1.0
 10
2.563772206897681
 20
4.275805507104234
 30
0.0
 10
2.498824950168923
 20
4.258514975054042
 30
0.0
 10
2.369061350602208
 20
4.222992779903096
 30
0.0
 10
2.239559578817107
 20
4.18728365713032
 30
0.0
 10
2.174874149869964
 20
4.169817223315741
 30
0.0
1001
REVIT
1002
{
1070
     2
1000
-2001160
1002
}
  0
LINE
  5
9FA
330
81F
100
AcDbEntity
  8
D35160537
100
AcDbLine
 10
2.136037160001365
 20
3.663002852133256
 30
0.0
 11
2.136037160001365
 21
4.338739953517992
 31
0.0
1001
REVIT
1002
{
1070
     2
1000
-2001160
1002
}
  0
LINE
  5
9FB
330
81F
100
AcDbEntity
  8
D35160537
100
AcDbLine
 10
1.986429749644585
 20
4.44256756141937
 30
0.0
 11
1.986429749644585
 21
3.559174304403594
 31
0.0
1001
REVIT
1002
{
1070
     2
1000
-2001160
1002
}
  0
SPLINE
  5
9FC
330
81F
100
AcDbEntity
  8
D35160537
100
AcDbSpline
210
0.0
220
0.0
230
1.0
 70
     8
 71
     3
 72
     9
 73
     5
 74
     0
 42
0.000000001
 43
0.0000000001
 40
-1.0
 40
-1.0
 40
-1.0
 40
-1.0
 40
-0.5
 40
0.0
 40
0.0
 40
0.0
 40
0.0
 10
1.986429749644585
 20
3.780021909913157
 30
0.0
 10
2.011399114657891
 20
3.788685568247005
 30
0.0
 10
2.06130304806399
 20
3.805928676133138
 30
0.0
 10
2.111137388229082
 20
3.823222883072707
 30
0.0
 10
2.136037160001365
 20
3.831936183777992
 30
0.0
1001
REVIT
1002
{
1070
     2
1000
-2001160
1002
}
  0
SPLINE
  5
9FD
330
81F
100
AcDbEntity
  8
D35160537
100
AcDbSpline
210
0.0
220
0.0
230
1.0
 70
     8
 71
     3
 72
     9
 73
     5
 74
     0
 42
0.000000001
 43
0.0000000001
 40
-1.0
 40
-1.0
 40
-1.0
 40
-1.0
 40
-0.5
 40
0.0
 40
0.0
 40
0.0
 40
0.0
 10
2.174874149869964
 20
3.831936183777989
 30
0.0
 10
2.23958508974276
 20
3.813924027948418
 30
0.0
 10
2.369112372453514
 20
3.778743628491339
 30
0.0
 10
2.498850461094576
 20
3.743768239439688
 30
0.0
 10
2.563772206897681
 20
3.72594356823693
 30
0.0
1001
REVIT
1002
{
1070
     2
1000
-2001160
1002
}
  0
LINE
  5
9FE
330
81F
100
AcDbEntity
  8
D35160537
100
AcDbLine
 10
2.174874149869964
 20
3.663002852133256
 30
0.0
 11
2.174874149869964
 21
4.338739953517992
 31
0.0
1001
REVIT
1002
{
1070
     2
1000
-2001160
1002
}
  0
SPLINE
  5
9FF
330
81F
100
AcDbEntity
  8
D35160537
100
AcDbSpline
210
0.0
220
0.0
230
1.0
 70
     8
 71
     3
 72
    40
 73
    36
 74
     0
 42
0.000000001
 43
0.0000000001
 40
0.0
 40
0.0
 40
0.0
 40
0.0
 40
0.0555555555555556
 40
0.0833333333333333
 40
0.1111111111111111
 40
0.1666666666666666
 40
0.1944444444444444
 40
0.2222222222222222
 40
0.25
 40
0.2777777777777778
 40
0.3055555555555556
 40
0.3194444444444444
 40
0.3333333333333333
 40
0.3611111111111111
 40
0.3888888888888888
 40
0.4166666666666666
 40
0.4305555555555556
 40
0.4444444444444445
 40
0.4583333333333333
 40
0.4722222222222223
 40
0.5
 40
0.5277777777777778
 40
0.5555555555555556
 40
0.5833333333333334
 40
0.6111111111111112
 40
0.6666666666666666
 40
0.75
 40
0.7708333333333333
 40
0.7916666666666666
 40
0.8333333333333332
 40
0.875
 40
0.8958333333333332
 40
0.9166666666666666
 40
0.9583333333333332
 40
1.0
 40
1.0
 40
1.0
 40
1.0
 10
2.199124770398086
 20
3.649683120881485
 30
0.0
 10
2.19938697193011
 20
3.652202792396947
 30
0.0
 10
2.201083806695663
 20
3.655497953861342
 30
0.0
 10
2.205991350245085
 20
3.658761653998213
 30
0.0
 10
2.212560872563756
 20
3.661219553150109
 30
0.0
 10
2.22223187920224
 20
3.662435115295968
 30
0.0
 10
2.234282960394466
 20
3.662267184520416
 30
0.0
 10
2.244011775661519
 20
3.661390072429615
 30
0.0
 10
2.254792335745335
 20
3.659500548688308
 30
0.0
 10
2.266793999273673
 20
3.656611465818267
 30
0.0
 10
2.277272285534394
 20
3.653548862237164
 30
0.0
 10
2.285753691894001
 20
3.650769458543841
 30
0.0
 10
2.294145416029266
 20
3.647844966967173
 30
0.0
 10
2.304875958281087
 20
3.643625264931797
 30
0.0
 10
2.318262255701213
 20
3.637622999424802
 30
0.0
 10
2.329469022828789
 20
3.632121307986031
 30
0.0
 10
2.338331144201035
 20
3.627534859028022
 30
0.0
 10
2.344858247766126
 20
3.624063655968466
 30
0.0
 10
2.351326732969951
 20
3.620495447627614
 30
0.0
 10
2.35998158327807
 20
3.615505287472139
 30
0.0
 10
2.370743186419119
 20
3.608956429711277
 30
0.0
 10
2.383446759471013
 20
3.600756035692437
 30
0.0
 10
2.395721474428611
 20
3.592487059396891
 30
0.0
 10
2.407628423956509
 20
3.584094126118719
 30
0.0
 10
2.423197063509903
 20
3.572541786271443
 30
0.0
 10
2.445107498900455
 20
3.555215276553798
 30
0.0
 10
2.464154116509092
 20
3.538699335364121
 30
0.0
 10
2.477169360810464
 20
3.526461796091657
 30
0.0
 10
2.485234372022688
 20
3.518584784028783
 30
0.0
 10
2.494746828026165
 20
3.508910561399016
 30
0.0
 10
2.502671114436054
 20
3.500085942080435
 30
0.0
 10
2.507598772256287
 20
3.4938730010031
 30
0.0
 10
2.511742317213418
 20
3.488140752508224
 30
0.0
 10
2.515513760345399
 20
3.48186898142648
 30
0.0
 10
2.517015786557408
 20
3.47787981586535
 30
0.0
 10
2.517389123786529
 20
3.476158455756538
 30
0.0
1001
REVIT
1002
{
1070
     2
1000
-2001160
1002
}
  0
LINE
  5
A00
330
81F
100
AcDbEntity
  8
D35160537
100
AcDbLine
 10
2.136037160001365
 20
3.66300285213326
 30
0.0
 11
2.174874149869964
 21
3.66300285213326
 31
0.0
1001
REVIT
1002
{
1070
     2
1000
-2001160
1002
}
  0
SPLINE
  5
A01
330
81F
100
AcDbEntity
  8
D35160537
100
AcDbSpline
210
0.0
220
0.0
230
1.0
 70
     8
 71
     3
 72
    10
 73
     6
 74
     0
 42
0.000000001
 43
0.0000000001
 40
-1.0
 40
-1.0
 40
-1.0
 40
-1.0
 40
-0.6666666666666666
 40
-0.3333333333333333
 40
0.0
 40
0.0
 40
0.0
 40
0.0
 10
0.4145661048845853
 20
3.569852194544886
 30
0.0
 10
0.5718126663149122
 20
3.615603511888064
 30
0.0
 10
0.9036119475243253
 20
3.696994212742898
 30
0.0
 10
1.436745455373937
 20
3.767482752819152
 30
0.0
 10
1.803382244489483
 20
3.782607355809162
 30
0.0
 10
1.986429749644557
 20
3.780021909913159
 30
0.0
1001
REVIT
1002
{
1070
     2
1000
-2001160
1002
}
  0
LINE
  5
A02
330
81F
100
AcDbEntity
  8
D35160537
100
AcDbLine
 10
2.186998116480936
 20
3.656341493217139
 30
0.0
 11
2.199124770398086
 21
3.649683120881485
 31
0.0
1001
REVIT
1002
{
1070
     2
1000
-2001160
1002
}
  0
LINE
  5
A03
330
81F
100
AcDbEntity
  8
D35160537
100
AcDbLine
 10
2.517389123786529
 20
3.476158455756538
 30
0.0
 11
2.540579883489954
 21
3.463584818436551
 31
0.0
1001
REVIT
1002
{
1070
     2
1000
-2001160
1002
}
  0
LINE
  5
A04
330
81F
100
AcDbEntity
  8
D35160537
100
AcDbLine
 10
2.540579883489954
 20
3.463584818436551
 30
0.0
 11
2.563772206897681
 21
3.451017621051139
 31
0.0
1001
REVIT
1002
{
1070
     2
1000
-2001160
1002
}
  0
LINE
  5
A05
330
81F
100
AcDbEntity
  8
D35160537
100
AcDbLine
 10
2.174874149869964
 20
3.66300285213326
 30
0.0
 11
2.186998116480936
 21
3.656341493217139
 31
0.0
1001
REVIT
1002
{
1070
     2
1000
-2001160
1002
}
  0
SPLINE
  5
A06
330
81F
100
AcDbEntity
  8
D35160537
100
AcDbSpline
210
0.0
220
0.0
230
1.0
 70
     8
 71
     3
 72
     9
 73
     5
 74
     0
 42
0.000000001
 43
0.0000000001
 40
-1.0
 40
-1.0
 40
-1.0
 40
-1.0
 40
-0.5
 40
0.0
 40
0.0
 40
0.0
 40
0.0
 10
1.986429749644585
 20
3.559174304403594
 30
0.0
 10
2.011399114657891
 20
3.576424153006335
 30
0.0
 10
2.06130304806399
 20
3.610987938587642
 30
0.0
 10
2.111137388229082
 20
3.645653515299445
 30
0.0
 10
2.136037160001365
 20
3.66300285213326
 30
0.0
1001
REVIT
1002
{
1070
     2
1000
-2001160
1002
}
  0
SPLINE
  5
A07
330
81F
100
AcDbEntity
  8
D35160537
100
AcDbSpline
210
0.0
220
0.0
230
1.0
 70
     8
 71
     3
 72
    10
 73
     6
 74
     0
 42
0.000000001
 43
0.0000000001
 40
-1.0
 40
-1.0
 40
-1.0
 40
-1.0
 40
-0.6666666666666666
 40
-0.3333333333333333
 40
0.0
 40
0.0
 40
0.0
 40
0.0
 10
0.4145661048846279
 20
3.138834873667013
 30
0.0
 10
0.5718126983668413
 20
3.232948170795587
 30
0.0
 10
0.9036120291333702
 20
3.391657302714824
 30
0.0
 10
1.436745481492266
 20
3.535295755602732
 30
0.0
 10
1.803382255138203
 20
3.562520170021027
 30
0.0
 10
1.986429749644557
 20
3.559174304403601
 30
0.0
1001
REVIT
1002
{
1070
     2
1000
-2001160
1002
}
  0
SPLINE
  5
A08
330
81F
100
AcDbEntity
  8
D35160537
100
AcDbSpline
210
0.0
220
0.0
230
1.0
 70
     8
 71
     3
 72
     9
 73
     5
 74
     0
 42
0.000000001
 43
0.0000000001
 40
-1.0
 40
-1.0
 40
-1.0
 40
-1.0
 40
-0.5
 40
0.0
 40
0.0
 40
0.0
 40
0.0
 10
1.986429749644585
 20
4.44256756141937
 30
0.0
 10
2.01140485543479
 20
4.425313855542695
 30
0.0
 10
2.061314529617803
 20
4.390746396746333
 30
0.0
 10
2.111143129005981
 20
4.356085152180069
 30
0.0
 10
2.136037160001365
 20
4.338739953517999
 30
0.0
1001
REVIT
1002
{
1070
     2
1000
-2001160
1002
}
  0
SPLINE
  5
A09
330
81F
100
AcDbEntity
  8
D35160537
100
AcDbSpline
210
0.0
220
0.0
230
1.0
 70
     8
 71
     3
 72
    10
 73
     6
 74
     0
 42
0.000000001
 43
0.0000000001
 40
-1.0
 40
-1.0
 40
-1.0
 40
-1.0
 40
-0.6666666666666666
 40
-0.3333333333333333
 40
0.0
 40
0.0
 40
0.0
 40
0.0
 10
0.414566449137439
 20
4.862904733676456
 30
0.0
 10
0.5718853188016482
 20
4.768748543957343
 30
0.0
 10
0.9037965868565294
 20
4.610019675079376
 30
0.0
 10
1.436735622808043
 20
4.466457247237569
 30
0.0
 10
1.803376088689347
 20
4.439221660209957
 30
0.0
 10
1.986429749644557
 20
4.442567561419357
 30
0.0
1001
REVIT
1002
{
1070
     2
1000
-2001160
1002
}
  0
LINE
  5
A0A
330
81F
100
AcDbEntity
  8
D35160537
100
AcDbLine
 10
2.136037160001365
 20
4.338739953517993
 30
0.0
 11
2.174874149869964
 21
4.338739953517993
 31
0.0
1001
REVIT
1002
{
1070
     2
1000
-2001160
1002
}
  0
SPLINE
  5
A0B
330
81F
100
AcDbEntity
  8
D35160537
100
AcDbSpline
210
0.0
220
0.0
230
1.0
 70
     8
 71
     3
 72
     9
 73
     5
 74
     0
 42
0.000000001
 43
0.0000000001
 40
-1.0
 40
-1.0
 40
-1.0
 40
-1.0
 40
-0.5
 40
0.0
 40
0.0
 40
0.0
 40
0.0
 10
2.174874149869964
 20
4.338739953517995
 30
0.0
 10
2.239559578537324
 20
4.374211123157211
 30
0.0
 10
2.369061350042642
 20
4.4450952374979
 30
0.0
 10
2.49882494988914
 20
4.51560140561938
 30
0.0
 10
2.563772206897681
 20
4.55072344184119
 30
0.0
1001
REVIT
1002
{
1070
     2
1000
-2001160
1002
}
  0
SPLINE
  5
A0C
330
81F
100
AcDbEntity
  8
D35160537
100
AcDbSpline
210
0.0
220
0.0
230
1.0
 70
     8
 71
     3
 72
     9
 73
     5
 74
     0
 42
0.000000001
 43
0.0000000001
 40
0.0
 40
0.0
 40
0.0
 40
0.0
 40
0.5
 40
1.0
 40
1.0
 40
1.0
 40
1.0
 10
2.13603716000135
 20
0.16981722331571
 30
0.0
 10
2.111143128927466
 20
0.1784510938182002
 30
0.0
 10
2.061314529460787
 20
0.195819684482541
 30
0.0
 10
2.011404855356275
 20
0.2131415415510176
 30
0.0
 10
1.986429749644571
 20
0.2217294932889331
 30
0.0
1001
REVIT
1002
{
1070
     2
1000
-2001160
1002
}
  0
SPLINE
  5
A0D
330
81F
100
AcDbEntity
  8
D35160537
100
AcDbSpline
210
0.0
220
0.0
230
1.0
 70
     8
 71
     3
 72
    10
 73
     6
 74
     0
 42
0.000000001
 43
0.0000000001
 40
0.0
 40
0.0
 40
0.0
 40
0.0
 40
0.3333333333333333
 40
0.6666666666666666
 40
1.0
 40
1.0
 40
1.0
 40
1.0
 10
1.986429749644543
 20
0.2217294932889304
 30
0.0
 10
1.803376054751126
 20
0.2209695004580832
 30
0.0
 10
1.436735515211154
 20
0.2330738691543015
 30
0.0
 10
0.9037964243760541
 20
0.3061836098088575
 30
0.0
 10
0.5718850365248898
 20
0.3835080258442058
 30
0.0
 10
0.4145661048845853
 20
0.4318894612588898
 30
0.0
1001
REVIT
1002
{
1070
     2
1000
-2001160
1002
}
  0
SPLINE
  5
A0E
330
81F
100
AcDbEntity
  8
D35160537
100
AcDbSpline
210
0.0
220
0.0
230
1.0
 70
     8
 71
     3
 72
     9
 73
     5
 74
     0
 42
0.000000001
 43
0.0000000001
 40
-1.0
 40
-1.0
 40
-1.0
 40
-1.0
 40
-0.5
 40
0.0
 40
0.0
 40
0.0
 40
0.0
 10
1.986429749644571
 20
-0.2199780900868724
 30
0.0
 10
2.011399114657876
 20
-0.2113144317530251
 30
0.0
 10
2.061303048063976
 20
-0.1940713238668916
 30
0.0
 10
2.111137388229067
 20
-0.1767771169273233
 30
0.0
 10
2.13603716000135
 20
-0.1680638162220394
 30
0.0
1001
REVIT
1002
{
1070
     2
1000
-2001160
1002
}
  0
SPLINE
  5
A0F
330
81F
100
AcDbEntity
  8
D35160537
100
AcDbSpline
210
0.0
220
0.0
230
1.0
 70
     8
 71
     3
 72
     9
 73
     5
 74
     0
 42
0.000000001
 43
0.0000000001
 40
0.0
 40
0.0
 40
0.0
 40
0.0
 40
0.5
 40
1.0
 40
1.0
 40
1.0
 40
1.0
 10
2.563772206897667
 20
0.275805507104204
 30
0.0
 10
2.498824950168909
 20
0.2585149750540125
 30
0.0
 10
2.369061350602194
 20
0.2229927799030644
 30
0.0
 10
2.239559578817093
 20
0.1872836571302887
 30
0.0
 10
2.17487414986995
 20
0.16981722331571
 30
0.0
1001
REVIT
1002
{
1070
     2
1000
-2001160
1002
}
  0
LINE
  5
A10
330
81F
100
AcDbEntity
  8
D35160537
100
AcDbLine
 10
2.17487414986995
 20
0.16981722331571
 30
0.0
 11
2.13603716000135
 21
0.16981722331571
 31
0.0
1001
REVIT
1002
{
1070
     2
1000
-2001160
1002
}
  0
LINE
  5
A11
330
81F
100
AcDbEntity
  8
D35160537
100
AcDbLine
 10
1.986429749644571
 20
0.4425675614193301
 30
0.0
 11
1.986429749644571
 21
-0.4408256955964341
 31
0.0
1001
REVIT
1002
{
1070
     2
1000
-2001160
1002
}
  0
LINE
  5
A12
330
81F
100
AcDbEntity
  8
D35160537
100
AcDbLine
 10
2.13603716000135
 20
-0.1680638162220394
 30
0.0
 11
2.17487414986995
 21
-0.1680638162220394
 31
0.0
1001
REVIT
1002
{
1070
     2
1000
-2001160
1002
}
  0
LINE
  5
A13
330
81F
100
AcDbEntity
  8
D35160537
100
AcDbLine
 10
2.13603716000135
 20
-0.3369971478667706
 30
0.0
 11
2.13603716000135
 21
0.33873995351796
 31
0.0
1001
REVIT
1002
{
1070
     2
1000
-2001160
1002
}
  0
SPLINE
  5
A14
330
81F
100
AcDbEntity
  8
D35160537
100
AcDbSpline
210
0.0
220
0.0
230
1.0
 70
     8
 71
     3
 72
    40
 73
    36
 74
     0
 42
0.000000001
 43
0.0000000001
 40
0.0
 40
0.0
 40
0.0
 40
0.0
 40
0.0555555555555556
 40
0.0833333333333333
 40
0.1111111111111111
 40
0.1666666666666666
 40
0.1944444444444444
 40
0.2222222222222222
 40
0.25
 40
0.2777777777777778
 40
0.3055555555555556
 40
0.3194444444444444
 40
0.3333333333333333
 40
0.3611111111111111
 40
0.3888888888888888
 40
0.4166666666666666
 40
0.4305555555555556
 40
0.4444444444444445
 40
0.4583333333333333
 40
0.4722222222222223
 40
0.5
 40
0.5277777777777778
 40
0.5555555555555556
 40
0.5833333333333334
 40
0.6111111111111112
 40
0.6666666666666666
 40
0.75
 40
0.7708333333333333
 40
0.7916666666666666
 40
0.8333333333333332
 40
0.875
 40
0.8958333333333332
 40
0.9166666666666666
 40
0.9583333333333332
 40
1.0
 40
1.0
 40
1.0
 40
1.0
 10
2.199124770398043
 20
-0.3503168791185285
 30
0.0
 10
2.199386971930081
 20
-0.347797207603068
 30
0.0
 10
2.201083806695621
 20
-0.3445020461386701
 30
0.0
 10
2.205991350245042
 20
-0.3412383460017967
 30
0.0
 10
2.212560872563727
 20
-0.3387804468499
 30
0.0
 10
2.222231879202212
 20
-0.3375648847040367
 30
0.0
 10
2.234282960394452
 20
-0.3377328154795913
 30
0.0
 10
2.244011775661491
 20
-0.338609927570392
 30
0.0
 10
2.254792335745307
 20
-0.3404994513116977
 30
0.0
 10
2.266793999273659
 20
-0.3433885341817415
 30
0.0
 10
2.27727228553438
 20
-0.3464511377628456
 30
0.0
 10
2.285753691893987
 20
-0.3492305414561692
 30
0.0
 10
2.294145416029266
 20
-0.352155033032834
 30
0.0
 10
2.304875958281087
 20
-0.3563747350682149
 30
0.0
 10
2.318262255701213
 20
-0.3623770005752096
 30
0.0
 10
2.329469022828789
 20
-0.3678786920139849
 30
0.0
 10
2.338331144201035
 20
-0.372465140971995
 30
0.0
 10
2.34485824776614
 20
-0.3759363440315502
 30
0.0
 10
2.351326732969965
 20
-0.3795045523724045
 30
0.0
 10
2.359981583278084
 20
-0.3844947125278839
 30
0.0
 10
2.370743186419133
 20
-0.3910435702887422
 30
0.0
 10
2.383446759471027
 20
-0.3992439643075904
 30
0.0
 10
2.39572147442864
 20
-0.40751294060314
 30
0.0
 10
2.407628423956552
 20
-0.4159058738813127
 30
0.0
 10
2.423197063509931
 20
-0.427458213728591
 30
0.0
 10
2.445107498900497
 20
-0.444784723446249
 30
0.0
 10
2.464154116509149
 20
-0.4613006646359264
 30
0.0
 10
2.47716936081052
 20
-0.4735382039083982
 30
0.0
 10
2.485234372022745
 20
-0.4814152159712731
 30
0.0
 10
2.494746828026237
 20
-0.4910894386010467
 30
0.0
 10
2.502671114436111
 20
-0.4999140579196295
 30
0.0
 10
2.507598772256358
 20
-0.5061269989969688
 30
0.0
 10
2.511742317213489
 20
-0.5118592474918425
 30
0.0
 10
2.51551376034547
 20
-0.5181310185735946
 30
0.0
 10
2.517015786557465
 20
-0.5221201841347201
 30
0.0
 10
2.5173891237866
 20
-0.5238415442435347
 30
0.0
1001
REVIT
1002
{
1070
     2
1000
-2001160
1002
}
  0
SPLINE
  5
A15
330
81F
100
AcDbEntity
  8
D35160537
100
AcDbSpline
210
0.0
220
0.0
230
1.0
 70
     8
 71
     3
 72
     9
 73
     5
 74
     0
 42
0.000000001
 43
0.0000000001
 40
-1.0
 40
-1.0
 40
-1.0
 40
-1.0
 40
-0.5
 40
0.0
 40
0.0
 40
0.0
 40
0.0
 10
2.17487414986995
 20
-0.1680638162220394
 30
0.0
 10
2.239585089742746
 20
-0.1860759720516105
 30
0.0
 10
2.3691123724535
 20
-0.2212563715086908
 30
0.0
 10
2.498850461094562
 20
-0.2562317605603415
 30
0.0
 10
2.563772206897667
 20
-0.2740564317631007
 30
0.0
1001
REVIT
1002
{
1070
     2
1000
-2001160
1002
}
  0
LINE
  5
A16
330
81F
100
AcDbEntity
  8
D35160537
100
AcDbLine
 10
2.17487414986995
 20
-0.3369971478667706
 30
0.0
 11
2.17487414986995
 21
0.33873995351796
 31
0.0
1001
REVIT
1002
{
1070
     2
1000
-2001160
1002
}
  0
SPLINE
  5
A17
330
81F
100
AcDbEntity
  8
D35160537
100
AcDbSpline
210
0.0
220
0.0
230
1.0
 70
     8
 71
     3
 72
    10
 73
     6
 74
     0
 42
0.000000001
 43
0.0000000001
 40
-1.0
 40
-1.0
 40
-1.0
 40
-1.0
 40
-0.6666666666666666
 40
-0.3333333333333333
 40
0.0
 40
0.0
 40
0.0
 40
0.0
 10
0.4145661048845711
 20
-0.4301478054551425
 30
0.0
 10
0.5718126663148979
 20
-0.3843964881119648
 30
0.0
 10
0.9036119475243253
 20
-0.3030057872571294
 30
0.0
 10
1.436745455373937
 20
-0.2325172471808763
 30
0.0
 10
1.803382244489469
 20
-0.2173926441908662
 30
0.0
 10
1.986429749644543
 20
-0.219978090086868
 30
0.0
1001
REVIT
1002
{
1070
     2
1000
-2001160
1002
}
  0
SPLINE
  5
A18
330
81F
100
AcDbEntity
  8
D35160537
100
AcDbSpline
210
0.0
220
0.0
230
1.0
 70
     8
 71
     3
 72
     9
 73
     5
 74
     0
 42
0.000000001
 43
0.0000000001
 40
-1.0
 40
-1.0
 40
-1.0
 40
-1.0
 40
-0.5
 40
0.0
 40
0.0
 40
0.0
 40
0.0
 10
1.986429749644571
 20
-0.4408256955964332
 30
0.0
 10
2.011399114657876
 20
-0.4235758469936926
 30
0.0
 10
2.061303048063976
 20
-0.3890120614123864
 30
0.0
 10
2.111137388229067
 20
-0.3543464847005842
 30
0.0
 10
2.13603716000135
 20
-0.3369971478667679
 30
0.0
1001
REVIT
1002
{
1070
     2
1000
-2001160
1002
}
  0
LINE
  5
A19
330
81F
100
AcDbEntity
  8
D35160537
100
AcDbLine
 10
2.5173891237866
 20
-0.5238415442435347
 30
0.0
 11
2.540579883489982
 21
-0.5364151815635001
 31
0.0
1001
REVIT
1002
{
1070
     2
1000
-2001160
1002
}
  0
LINE
  5
A1A
330
81F
100
AcDbEntity
  8
D35160537
100
AcDbLine
 10
2.13603716000135
 20
-0.3369971478667679
 30
0.0
 11
2.17487414986995
 21
-0.3369971478667679
 31
0.0
1001
REVIT
1002
{
1070
     2
1000
-2001160
1002
}
  0
LINE
  5
A1B
330
81F
100
AcDbEntity
  8
D35160537
100
AcDbLine
 10
2.540579883489982
 20
-0.5364151815635001
 30
0.0
 11
2.563772206897667
 21
-0.5489823789488879
 31
0.0
1001
REVIT
1002
{
1070
     2
1000
-2001160
1002
}
  0
LINE
  5
A1C
330
81F
100
AcDbEntity
  8
D35160537
100
AcDbLine
 10
2.17487414986995
 20
-0.3369971478667679
 30
0.0
 11
2.186998116480907
 21
-0.3436585067828828
 31
0.0
1001
REVIT
1002
{
1070
     2
1000
-2001160
1002
}
  0
LINE
  5
A1D
330
81F
100
AcDbEntity
  8
D35160537
100
AcDbLine
 10
2.186998116480907
 20
-0.3436585067828828
 30
0.0
 11
2.199124770398043
 21
-0.3503168791185285
 31
0.0
1001
REVIT
1002
{
1070
     2
1000
-2001160
1002
}
  0
SPLINE
  5
A1E
330
81F
100
AcDbEntity
  8
D35160537
100
AcDbSpline
210
0.0
220
0.0
230
1.0
 70
     8
 71
     3
 72
    10
 73
     6
 74
     0
 42
0.000000001
 43
0.0000000001
 40
-1.0
 40
-1.0
 40
-1.0
 40
-1.0
 40
-0.6666666666666666
 40
-0.3333333333333333
 40
0.0
 40
0.0
 40
0.0
 40
0.0
 10
0.4145661048846137
 20
-0.8611651263330157
 30
0.0
 10
0.5718126983668271
 20
-0.7670518292044406
 30
0.0
 10
0.903612029133356
 20
-0.6083426972852033
 30
0.0
 10
1.436745481492252
 20
-0.4647042443972947
 30
0.0
 10
1.803382255138188
 20
-0.4374798299790009
 30
0.0
 10
1.986429749644543
 20
-0.440825695596427
 30
0.0
1001
REVIT
1002
{
1070
     2
1000
-2001160
1002
}
  0
SPLINE
  5
A1F
330
81F
100
AcDbEntity
  8
D35160537
100
AcDbSpline
210
0.0
220
0.0
230
1.0
 70
     8
 71
     3
 72
     9
 73
     5
 74
     0
 42
0.000000001
 43
0.0000000001
 40
-1.0
 40
-1.0
 40
-1.0
 40
-1.0
 40
-0.5
 40
0.0
 40
0.0
 40
0.0
 40
0.0
 10
1.986429749644571
 20
0.4425675614193301
 30
0.0
 10
2.011404855434776
 20
0.4253138555426555
 30
0.0
 10
2.061314529617789
 20
0.3907463967462954
 30
0.0
 10
2.111143129005967
 20
0.3560851521800332
 30
0.0
 10
2.13603716000135
 20
0.33873995351796
 30
0.0
1001
REVIT
1002
{
1070
     2
1000
-2001160
1002
}
  0
SPLINE
  5
A20
330
81F
100
AcDbEntity
  8
D35160537
100
AcDbSpline
210
0.0
220
0.0
230
1.0
 70
     8
 71
     3
 72
     9
 73
     5
 74
     0
 42
0.000000001
 43
0.0000000001
 40
-1.0
 40
-1.0
 40
-1.0
 40
-1.0
 40
-0.5
 40
0.0
 40
0.0
 40
0.0
 40
0.0
 10
2.17487414986995
 20
0.3387399535179609
 30
0.0
 10
2.23955957853731
 20
0.3742111231571785
 30
0.0
 10
2.369061350042628
 20
0.4450952374978661
 30
0.0
 10
2.498824949889126
 20
0.5156014056193472
 30
0.0
 10
2.563772206897667
 20
0.5507234418411571
 30
0.0
1001
REVIT
1002
{
1070
     2
1000
-2001160
1002
}
  0
LINE
  5
A21
330
81F
100
AcDbEntity
  8
D35160537
100
AcDbLine
 10
2.13603716000135
 20
0.3387399535179609
 30
0.0
 11
2.17487414986995
 21
0.3387399535179609
 31
0.0
1001
REVIT
1002
{
1070
     2
1000
-2001160
1002
}
  0
SPLINE
  5
A22
330
81F
100
AcDbEntity
  8
D35160537
100
AcDbSpline
210
0.0
220
0.0
230
1.0
 70
     8
 71
     3
 72
    10
 73
     6
 74
     0
 42
0.000000001
 43
0.0000000001
 40
-1.0
 40
-1.0
 40
-1.0
 40
-1.0
 40
-0.6666666666666666
 40
-0.3333333333333333
 40
0.0
 40
0.0
 40
0.0
 40
0.0
 10
0.4145664491374248
 20
0.8629047336764248
 30
0.0
 10
0.571885318801634
 20
0.7687485439573126
 30
0.0
 10
0.9037965868565009
 20
0.6100196750793466
 30
0.0
 10
1.436735622808029
 20
0.4664572472375382
 30
0.0
 10
1.803376088689333
 20
0.439221660209924
 30
0.0
 10
1.986429749644543
 20
0.4425675614193248
 30
0.0
1001
REVIT
1002
{
1070
     2
1000
-2001160
1002
}
  0
SPLINE
  5
A23
330
81F
100
AcDbEntity
  8
D35160537
100
AcDbSpline
210
0.0
220
0.0
230
1.0
 70
     8
 71
     3
 72
     9
 73
     5
 74
     0
 42
0.000000001
 43
0.0000000001
 40
0.0
 40
0.0
 40
0.0
 40
0.0
 40
0.5
 40
1.0
 40
1.0
 40
1.0
 40
1.0
 10
2.136037160001336
 20
-3.830182776683574
 30
0.0
 10
2.111143128927452
 20
-3.821548906181085
 30
0.0
 10
2.061314529460773
 20
-3.804180315516745
 30
0.0
 10
2.011404855356261
 20
-3.786858458448266
 30
0.0
 10
1.986429749644557
 20
-3.778270506710351
 30
0.0
1001
REVIT
1002
{
1070
     2
1000
-2001160
1002
}
  0
LINE
  5
A24
330
81F
100
AcDbEntity
  8
D35160537
100
AcDbLine
 10
2.174874149869935
 20
-3.830182776683573
 30
0.0
 11
2.136037160001336
 21
-3.830182776683574
 31
0.0
1001
REVIT
1002
{
1070
     2
1000
-2001160
1002
}
  0
SPLINE
  5
A25
330
81F
100
AcDbEntity
  8
D35160537
100
AcDbSpline
210
0.0
220
0.0
230
1.0
 70
     8
 71
     3
 72
     9
 73
     5
 74
     0
 42
0.000000001
 43
0.0000000001
 40
0.0
 40
0.0
 40
0.0
 40
0.0
 40
0.5
 40
1.0
 40
1.0
 40
1.0
 40
1.0
 10
2.563772206897652
 20
-3.724194492895083
 30
0.0
 10
2.498824950168895
 20
-3.741485024945273
 30
0.0
 10
2.36906135060218
 20
-3.777007220096221
 30
0.0
 10
2.239559578817079
 20
-3.812716342868995
 30
0.0
 10
2.174874149869935
 20
-3.830182776683573
 30
0.0
1001
REVIT
1002
{
1070
     2
1000
-2001160
1002
}
  0
SPLINE
  5
A26
330
81F
100
AcDbEntity
  8
D35160537
100
AcDbSpline
210
0.0
220
0.0
230
1.0
 70
     8
 71
     3
 72
    10
 73
     6
 74
     0
 42
0.000000001
 43
0.0000000001
 40
0.0
 40
0.0
 40
0.0
 40
0.0
 40
0.3333333333333333
 40
0.6666666666666666
 40
1.0
 40
1.0
 40
1.0
 40
1.0
 10
1.986429749644528
 20
-3.778270506710354
 30
0.0
 10
1.803376054751112
 20
-3.779030499541207
 30
0.0
 10
1.43673551521114
 20
-3.766926130844996
 30
0.0
 10
0.9037964243760399
 20
-3.693816390190436
 30
0.0
 10
0.5718850365248756
 20
-3.616491974155092
 30
0.0
 10
0.4145661048845711
 20
-3.568110538740407
 30
0.0
1001
REVIT
1002
{
1070
     2
1000
-2001160
1002
}
  0
SPLINE
  5
A27
330
81F
100
AcDbEntity
  8
D35160537
100
AcDbSpline
210
0.0
220
0.0
230
1.0
 70
     8
 71
     3
 72
     9
 73
     5
 74
     0
 42
0.000000001
 43
0.0000000001
 40
-1.0
 40
-1.0
 40
-1.0
 40
-1.0
 40
-0.5
 40
0.0
 40
0.0
 40
0.0
 40
0.0
 10
1.986429749644557
 20
-4.21997809008616
 30
0.0
 10
2.011399114657862
 20
-4.211314431752311
 30
0.0
 10
2.061303048063962
 20
-4.194071323866181
 30
0.0
 10
2.111137388229053
 20
-4.176777116926611
 30
0.0
 10
2.136037160001336
 20
-4.168063816221325
 30
0.0
1001
REVIT
1002
{
1070
     2
1000
-2001160
1002
}
  0
LINE
  5
A28
330
81F
100
AcDbEntity
  8
D35160537
100
AcDbLine
 10
1.986429749644557
 20
-3.557432438579958
 30
0.0
 11
1.986429749644557
 21
-4.440825695595721
 31
0.0
1001
REVIT
1002
{
1070
     2
1000
-2001160
1002
}
  0
LINE
  5
A29
330
81F
100
AcDbEntity
  8
D35160537
100
AcDbLine
 10
2.136037160001336
 20
-4.168063816221325
 30
0.0
 11
2.174874149869935
 21
-4.168063816221325
 31
0.0
1001
REVIT
1002
{
1070
     2
1000
-2001160
1002
}
  0
LINE
  5
A2A
330
81F
100
AcDbEntity
  8
D35160537
100
AcDbLine
 10
2.136037160001336
 20
-4.336997147866055
 30
0.0
 11
2.136037160001336
 21
-3.661260046481329
 31
0.0
1001
REVIT
1002
{
1070
     2
1000
-2001160
1002
}
  0
SPLINE
  5
A2B
330
81F
100
AcDbEntity
  8
D35160537
100
AcDbSpline
210
0.0
220
0.0
230
1.0
 70
     8
 71
     3
 72
     9
 73
     5
 74
     0
 42
0.000000001
 43
0.0000000001
 40
-1.0
 40
-1.0
 40
-1.0
 40
-1.0
 40
-0.5
 40
0.0
 40
0.0
 40
0.0
 40
0.0
 10
2.174874149869935
 20
-4.168063816221325
 30
0.0
 10
2.239585089742732
 20
-4.186075972050895
 30
0.0
 10
2.369112372453486
 20
-4.221256371507974
 30
0.0
 10
2.498850461094548
 20
-4.256231760559627
 30
0.0
 10
2.563772206897652
 20
-4.274056431762387
 30
0.0
1001
REVIT
1002
{
1070
     2
1000
-2001160
1002
}
  0
LINE
  5
A2C
330
81F
100
AcDbEntity
  8
D35160537
100
AcDbLine
 10
2.174874149869935
 20
-4.336997147866055
 30
0.0
 11
2.174874149869935
 21
-3.661260046481334
 31
0.0
1001
REVIT
1002
{
1070
     2
1000
-2001160
1002
}
  0
SPLINE
  5
A2D
330
81F
100
AcDbEntity
  8
D35160537
100
AcDbSpline
210
0.0
220
0.0
230
1.0
 70
     8
 71
     3
 72
    40
 73
    36
 74
     0
 42
0.000000001
 43
0.0000000001
 40
0.0
 40
0.0
 40
0.0
 40
0.0
 40
0.0555555555555556
 40
0.0833333333333333
 40
0.1111111111111111
 40
0.1666666666666666
 40
0.1944444444444444
 40
0.2222222222222222
 40
0.25
 40
0.2777777777777778
 40
0.3055555555555556
 40
0.3194444444444444
 40
0.3333333333333333
 40
0.3611111111111111
 40
0.3888888888888888
 40
0.4166666666666666
 40
0.4305555555555556
 40
0.4444444444444445
 40
0.4583333333333333
 40
0.4722222222222223
 40
0.5
 40
0.5277777777777778
 40
0.5555555555555556
 40
0.5833333333333334
 40
0.6111111111111112
 40
0.6666666666666666
 40
0.75
 40
0.7708333333333333
 40
0.7916666666666666
 40
0.8333333333333332
 40
0.875
 40
0.8958333333333332
 40
0.9166666666666666
 40
0.9583333333333332
 40
1.0
 40
1.0
 40
1.0
 40
1.0
 10
2.199124770398057
 20
-4.350316879117828
 30
0.0
 10
2.199386971930096
 20
-4.347797207602367
 30
0.0
 10
2.201083806695635
 20
-4.34450204613797
 30
0.0
 10
2.205991350245056
 20
-4.341238346001096
 30
0.0
 10
2.212560872563727
 20
-4.338780446849197
 30
0.0
 10
2.222231879202212
 20
-4.337564884703335
 30
0.0
 10
2.234282960394466
 20
-4.337732815478892
 30
0.0
 10
2.244011775661505
 20
-4.338609927569692
 30
0.0
 10
2.254792335745321
 20
-4.340499451310996
 30
0.0
 10
2.266793999273673
 20
-4.343388534181043
 30
0.0
 10
2.277272285534394
 20
-4.346451137762146
 30
0.0
 10
2.285753691894001
 20
-4.349230541455469
 30
0.0
 10
2.29414541602928
 20
-4.352155033032135
 30
0.0
 10
2.304875958281101
 20
-4.356374735067516
 30
0.0
 10
2.318262255701228
 20
-4.362377000574511
 30
0.0
 10
2.329469022828803
 20
-4.367878692013285
 30
0.0
 10
2.338331144201049
 20
-4.372465140971295
 30
0.0
 10
2.344858247766154
 20
-4.375936344030849
 30
0.0
 10
2.35132673296998
 20
-4.379504552371702
 30
0.0
 10
2.359981583278099
 20
-4.384494712527184
 30
0.0
 10
2.370743186419147
 20
-4.391043570288042
 30
0.0
 10
2.383446759471041
 20
-4.39924396430689
 30
0.0
 10
2.395721474428654
 20
-4.407512940602439
 30
0.0
 10
2.407628423956566
 20
-4.415905873880614
 30
0.0
 10
2.423197063509945
 20
-4.42745821372789
 30
0.0
 10
2.445107498900512
 20
-4.444784723445549
 30
0.0
 10
2.464154116509163
 20
-4.461300664635226
 30
0.0
 10
2.477169360810535
 20
-4.473538203907699
 30
0.0
 10
2.485234372022759
 20
-4.481415215970576
 30
0.0
 10
2.494746828026251
 20
-4.491089438600349
 30
0.0
 10
2.502671114436125
 20
-4.499914057918928
 30
0.0
 10
2.507598772256372
 20
-4.50612699899627
 30
0.0
 10
2.511742317213503
 20
-4.511859247491143
 30
0.0
 10
2.515513760345484
 20
-4.518131018572896
 30
0.0
 10
2.517015786557479
 20
-4.522120184134019
 30
0.0
 10
2.517389123786614
 20
-4.523841544242836
 30
0.0
1001
REVIT
1002
{
1070
     2
1000
-2001160
1002
}
  0
SPLINE
  5
A2E
330
81F
100
AcDbEntity
  8
D35160537
100
AcDbSpline
210
0.0
220
0.0
230
1.0
 70
     8
 71
     3
 72
    10
 73
     6
 74
     0
 42
0.000000001
 43
0.0000000001
 40
-1.0
 40
-1.0
 40
-1.0
 40
-1.0
 40
-0.6666666666666666
 40
-0.3333333333333333
 40
0.0
 40
0.0
 40
0.0
 40
0.0
 10
0.4145661048845568
 20
-4.430147805454422
 30
0.0
 10
0.5718126663148837
 20
-4.384396488111248
 30
0.0
 10
0.9036119475242969
 20
-4.303005787256411
 30
0.0
 10
1.436745455373923
 20
-4.23251724718016
 30
0.0
 10
1.803382244489455
 20
-4.21739264419015
 30
0.0
 10
1.986429749644528
 20
-4.219978090086154
 30
0.0
1001
REVIT
1002
{
1070
     2
1000
-2001160
1002
}
  0
SPLINE
  5
A2F
330
81F
100
AcDbEntity
  8
D35160537
100
AcDbSpline
210
0.0
220
0.0
230
1.0
 70
     8
 71
     3
 72
     9
 73
     5
 74
     0
 42
0.000000001
 43
0.0000000001
 40
-1.0
 40
-1.0
 40
-1.0
 40
-1.0
 40
-0.5
 40
0.0
 40
0.0
 40
0.0
 40
0.0
 10
1.986429749644557
 20
-4.440825695595725
 30
0.0
 10
2.011399114657862
 20
-4.423575846992983
 30
0.0
 10
2.061303048063962
 20
-4.38901206141168
 30
0.0
 10
2.111137388229053
 20
-4.354346484699876
 30
0.0
 10
2.136037160001336
 20
-4.33699714786606
 30
0.0
1001
REVIT
1002
{
1070
     2
1000
-2001160
1002
}
  0
LINE
  5
A30
330
81F
100
AcDbEntity
  8
D35160537
100
AcDbLine
 10
2.136037160001336
 20
-4.336997147866052
 30
0.0
 11
2.174874149869935
 21
-4.336997147866052
 31
0.0
1001
REVIT
1002
{
1070
     2
1000
-2001160
1002
}
  0
LINE
  5
A31
330
81F
100
AcDbEntity
  8
D35160537
100
AcDbLine
 10
2.517389123786614
 20
-4.52384154424284
 30
0.0
 11
2.540579883489982
 21
-4.536415181562796
 31
0.0
1001
REVIT
1002
{
1070
     2
1000
-2001160
1002
}
  0
LINE
  5
A32
330
81F
100
AcDbEntity
  8
D35160537
100
AcDbLine
 10
2.540579883489982
 20
-4.536415181562796
 30
0.0
 11
2.563772206897652
 21
-4.548982378948178
 31
0.0
1001
REVIT
1002
{
1070
     2
1000
-2001160
1002
}
  0
LINE
  5
A33
330
81F
100
AcDbEntity
  8
D35160537
100
AcDbLine
 10
2.174874149869935
 20
-4.336997147866057
 30
0.0
 11
2.186998116480907
 21
-4.343658506782178
 31
0.0
1001
REVIT
1002
{
1070
     2
1000
-2001160
1002
}
  0
LINE
  5
A34
330
81F
100
AcDbEntity
  8
D35160537
100
AcDbLine
 10
2.186998116480907
 20
-4.343658506782178
 30
0.0
 11
2.199124770398057
 21
-4.350316879117832
 31
0.0
1001
REVIT
1002
{
1070
     2
1000
-2001160
1002
}
  0
SPLINE
  5
A35
330
81F
100
AcDbEntity
  8
D35160537
100
AcDbSpline
210
0.0
220
0.0
230
1.0
 70
     8
 71
     3
 72
    10
 73
     6
 74
     0
 42
0.000000001
 43
0.0000000001
 40
-1.0
 40
-1.0
 40
-1.0
 40
-1.0
 40
-0.6666666666666666
 40
-0.3333333333333333
 40
0.0
 40
0.0
 40
0.0
 40
0.0
 10
0.4145661048845995
 20
-4.8611651263323
 30
0.0
 10
0.5718126983668128
 20
-4.767051829203724
 30
0.0
 10
0.9036120291333418
 20
-4.608342697284488
 30
0.0
 10
1.436745481492238
 20
-4.464704244396576
 30
0.0
 10
1.803382255138174
 20
-4.437479829978284
 30
0.0
 10
1.986429749644528
 20
-4.440825695595711
 30
0.0
1001
REVIT
1002
{
1070
     2
1000
-2001160
1002
}
  0
SPLINE
  5
A36
330
81F
100
AcDbEntity
  8
D35160537
100
AcDbSpline
210
0.0
220
0.0
230
1.0
 70
     8
 71
     3
 72
     9
 73
     5
 74
     0
 42
0.000000001
 43
0.0000000001
 40
-1.0
 40
-1.0
 40
-1.0
 40
-1.0
 40
-0.5
 40
0.0
 40
0.0
 40
0.0
 40
0.0
 10
1.986429749644557
 20
-3.557432438579958
 30
0.0
 10
2.011404855434761
 20
-3.574686144456633
 30
0.0
 10
2.061314529617774
 20
-3.609253603252994
 30
0.0
 10
2.111143129005952
 20
-3.643914847819257
 30
0.0
 10
2.136037160001336
 20
-3.661260046481329
 30
0.0
1001
REVIT
1002
{
1070
     2
1000
-2001160
1002
}
  0
LINE
  5
A37
330
81F
100
AcDbEntity
  8
D35160537
100
AcDbLine
 10
2.136037160001336
 20
-3.661260046481327
 30
0.0
 11
2.174874149869935
 21
-3.661260046481327
 31
0.0
1001
REVIT
1002
{
1070
     2
1000
-2001160
1002
}
  0
SPLINE
  5
A38
330
81F
100
AcDbEntity
  8
D35160537
100
AcDbSpline
210
0.0
220
0.0
230
1.0
 70
     8
 71
     3
 72
     9
 73
     5
 74
     0
 42
0.000000001
 43
0.0000000001
 40
-1.0
 40
-1.0
 40
-1.0
 40
-1.0
 40
-0.5
 40
0.0
 40
0.0
 40
0.0
 40
0.0
 10
2.174874149869935
 20
-3.661260046481332
 30
0.0
 10
2.239559578537296
 20
-3.625788876842115
 30
0.0
 10
2.369061350042613
 20
-3.554904762501427
 30
0.0
 10
2.498824949889112
 20
-3.484398594379946
 30
0.0
 10
2.563772206897652
 20
-3.449276558158137
 30
0.0
1001
REVIT
1002
{
1070
     2
1000
-2001160
1002
}
  0
SPLINE
  5
A39
330
81F
100
AcDbEntity
  8
D35160537
100
AcDbSpline
210
0.0
220
0.0
230
1.0
 70
     8
 71
     3
 72
    10
 73
     6
 74
     0
 42
0.000000001
 43
0.0000000001
 40
-1.0
 40
-1.0
 40
-1.0
 40
-1.0
 40
-0.6666666666666666
 40
-0.3333333333333333
 40
0.0
 40
0.0
 40
0.0
 40
0.0
 10
0.4145664491374106
 20
-3.137095266322869
 30
0.0
 10
0.5718853188016056
 20
-3.231251456041981
 30
0.0
 10
0.9037965868565009
 20
-3.389980324919948
 30
0.0
 10
1.436735622808015
 20
-3.533542752761755
 30
0.0
 10
1.803376088689319
 20
-3.56077833978937
 30
0.0
 10
1.986429749644528
 20
-3.55743243857997
 30
0.0
1001
REVIT
1002
{
1070
     2
1000
-2001160
1002
}
  0
LINE
  5
A3A
330
81F
100
AcDbEntity
  8
D35160537
100
AcDbLine
 10
2.602771581244752
 20
2.255132427468666
 30
0.0
 11
2.101608286314117
 21
2.255132427468664
 31
0.0
1001
REVIT
1002
{
1070
     2
1000
-2001160
1002
}
  0
LINE
  5
A3B
330
81F
100
AcDbEntity
  8
D35160537
100
AcDbLine
 10
2.14539371504442
 20
2.179293840276613
 30
0.0
 11
2.558986152514449
 21
2.179293840276615
 31
0.0
1001
REVIT
1002
{
1070
     2
1000
-2001160
1002
}
  0
LINE
  5
A3C
330
81F
100
AcDbEntity
  8
D35160537
100
AcDbLine
 10
2.602771581244752
 20
-1.744867572530589
 30
0.0
 11
2.101608286314132
 21
-1.744867572530591
 31
0.0
1001
REVIT
1002
{
1070
     2
1000
-2001160
1002
}
  0
LINE
  5
A3D
330
81F
100
AcDbEntity
  8
D35160537
100
AcDbLine
 10
2.14539371504442
 20
-1.820706159722641
 30
0.0
 11
2.558986152514464
 21
-1.820706159722639
 31
0.0
1001
REVIT
1002
{
1070
     2
1000
-2001160
1002
}
  0
LINE
  5
A3E
330
81F
100
AcDbEntity
  8
D35160537
100
AcDbLine
 10
2.602771581244766
 20
-5.744867572529859
 30
0.0
 11
2.101608286314146
 21
-5.744867572529859
 31
0.0
1001
REVIT
1002
{
1070
     2
1000
-2001160
1002
}
  0
LINE
  5
A3F
330
81F
100
AcDbEntity
  8
D35160537
100
AcDbLine
 10
2.145393715044448
 20
-5.820706159721906
 30
0.0
 11
2.558986152514478
 21
-5.820706159721906
 31
0.0
1001
REVIT
1002
{
1070
     2
1000
-2001160
1002
}
  0
LINE
  5
A40
330
81F
100
AcDbEntity
  8
D35160537
100
AcDbLine
 10
0.0
 20
-5.875869515423397
 30
0.0
 11
0.0
 21
5.875869515423397
 31
0.0
  0
ENDBLK
  5
821
330
81F
100
AcDbEntity
  8
0
100
AcDbBlockEnd
  0
BLOCK
  5
A43
330
A42
100
AcDbEntity
  8
0
100
AcDbBlockBegin
  2
D35160537 Top View
 70
     0
 10
0.0
 20
0.0
 30
0.0
  3
D35160537 Top View
  1

  0
LINE
  5
A45
330
A42
100
AcDbEntity
  8
D35160537
100
AcDbLine
 10
1.04896303418764
 20
-0.2791228517265303
 30
0.0
 11
1.049871594954176
 21
-0.2769448841854611
 31
0.0
  0
LINE
  5
A46
330
A42
100
AcDbEntity
  8
D35160537
100
AcDbLine
 10
1.04796810470096
 20
-0.2812627443857529
 30
0.0
 11
1.04896303418764
 21
-0.2791228517265303
 31
0.0
  0
LINE
  5
A47
330
A42
100
AcDbEntity
  8
D35160537
100
AcDbLine
 10
1.049871594954176
 20
-0.2769448841854611
 30
0.0
 11
1.050692333497171
 21
-0.2747323260459957
 31
0.0
  0
LINE
  5
A48
330
A42
100
AcDbEntity
  8
D35160537
100
AcDbLine
 10
1.052065234483497
 20
-0.2702176461309698
 30
0.0
 11
1.052615200578124
 21
-0.2679227468801919
 31
0.0
  0
LINE
  5
A49
330
A42
100
AcDbEntity
  8
D35160537
100
AcDbLine
 10
0.3676781092262655
 20
-2.705665617282328
 30
0.0
 11
0.4274665529167057
 21
-2.689760603314386
 31
0.0
  0
LINE
  5
A4A
330
A42
100
AcDbEntity
  8
D35160537
100
AcDbLine
 10
0.4274665529167057
 20
-2.689760603314386
 30
0.0
 11
0.4865711413104675
 21
-2.671477411605934
 31
0.0
  0
LINE
  5
A4B
330
A42
100
AcDbEntity
  8
D35160537
100
AcDbLine
 10
0.3073014589948895
 20
-2.719167008880308
 30
0.0
 11
0.3676781092262655
 21
-2.705665617282328
 31
0.0
  0
LINE
  5
A4C
330
A42
100
AcDbEntity
  8
D35160537
100
AcDbLine
 10
-0.0000000000000101
 20
-2.749999999999943
 30
0.0
 11
0.0618554494073221
 21
-2.748762726037536
 31
0.0
  0
LINE
  5
A4D
330
A42
100
AcDbEntity
  8
D35160537
100
AcDbLine
 10
0.4865711413104675
 20
-2.671477411605934
 30
0.0
 11
0.5316524139450327
 21
-2.655761772284822
 31
0.0
  0
LINE
  5
A4E
330
A42
100
AcDbEntity
  8
D35160537
100
AcDbLine
 10
-0.5316524139450955
 20
-2.655761772284808
 30
0.0
 11
-0.4731402232944072
 21
-2.675860304905413
 31
0.0
  0
LINE
  5
A4F
330
A42
100
AcDbEntity
  8
D35160537
100
AcDbLine
 10
0.0618554494073221
 20
-2.748762726037561
 30
0.0
 11
0.123611943290762
 21
-2.745052883524738
 31
0.0
  0
LINE
  5
A50
330
A42
100
AcDbEntity
  8
D35160537
100
AcDbLine
 10
0.123611943290762
 20
-2.745052883524738
 30
0.0
 11
0.1557682345770394
 21
-2.741826492583044
 31
0.0
  0
LINE
  5
A51
330
A42
100
AcDbEntity
  8
D35160537
100
AcDbLine
 10
-1.050358918413052
 20
-0.2756641967408875
 30
0.0
 11
-1.049501181677931
 21
-0.2778626764359693
 31
0.0
  0
LINE
  5
A52
330
A42
100
AcDbEntity
  8
D35160537
100
AcDbLine
 10
-1.048556215301476
 20
-0.2800250972608396
 30
0.0
 11
-1.047525531028326
 21
-0.2821479998034775
 31
0.0
  0
LINE
  5
A53
330
A42
100
AcDbEntity
  8
D35160537
100
AcDbLine
 10
1.044481696032062
 20
-0.2874200766668622
 30
0.0
 11
1.045725641892109
 21
-0.2854146779599347
 31
0.0
  0
LINE
  5
A54
330
A42
100
AcDbEntity
  8
D35160537
100
AcDbLine
 10
-1.051128053311041
 20
-0.2734331752741284
 30
0.0
 11
-1.050358918413052
 21
-0.2756641967408875
 31
0.0
  0
LINE
  5
A55
330
A42
100
AcDbEntity
  8
D35160537
100
AcDbLine
 10
1.051423936810025
 20
-0.272488716929189
 30
0.0
 11
1.052065234483497
 21
-0.2702176461309875
 31
0.0
  0
LINE
  5
A56
330
A42
100
AcDbEntity
  8
D35160537
100
AcDbLine
 10
1.045725641892109
 20
-0.2854146779599347
 30
0.0
 11
1.046888398169067
 21
-0.2833611387913706
 31
0.0
  0
LINE
  5
A57
330
A42
100
AcDbEntity
  8
D35160537
100
AcDbLine
 10
1.046888398169067
 20
-0.2833611387913706
 30
0.0
 11
1.04796810470096
 21
-0.2812627443857671
 31
0.0
  0
LINE
  5
A58
330
A42
100
AcDbEntity
  8
D35160537
100
AcDbLine
 10
1.050692333497171
 20
-0.2747323260460135
 30
0.0
 11
1.051423936810025
 21
-0.272488716929189
 31
0.0
  0
LINE
  5
A59
330
A42
100
AcDbEntity
  8
D35160537
100
AcDbLine
 10
-0.4138711092176373
 20
-2.693602897297754
 30
0.0
 11
-0.3539398896539184
 21
-2.708961165098834
 31
0.0
  0
LINE
  5
A5A
330
A42
100
AcDbEntity
  8
D35160537
100
AcDbLine
 10
1.052615200578124
 20
-0.2679227468802097
 30
0.0
 11
1.052892262765632
 21
-0.266580777793969
 31
0.0
  0
LINE
  5
A5B
330
A42
100
AcDbEntity
  8
D35160537
100
AcDbLine
 10
-0.4731402232944072
 20
-2.675860304905441
 30
0.0
 11
-0.4138711092176373
 21
-2.693602897297754
 31
0.0
  0
LINE
  5
A5C
330
A42
100
AcDbEntity
  8
D35160537
100
AcDbLine
 10
-1.05289226276564
 20
-0.2665807777939477
 30
0.0
 11
-1.052395739501078
 21
-0.2688878300092625
 31
0.0
  0
LINE
  5
A5D
330
A42
100
AcDbEntity
  8
D35160537
100
AcDbLine
 10
-0.3539398896539184
 20
-2.708961165098834
 30
0.0
 11
-0.2934424417698936
 21
-2.721910538356457
 31
0.0
  0
LINE
  5
A5E
330
A42
100
AcDbEntity
  8
D35160537
100
AcDbLine
 10
-1.051807355920138
 20
-0.271173181194122
 30
0.0
 11
-1.051128053311041
 21
-0.2734331752741426
 31
0.0
  0
LINE
  5
A5F
330
A42
100
AcDbEntity
  8
D35160537
100
AcDbLine
 10
-0.2934424417698936
 20
-2.721910538356457
 30
0.0
 11
-0.2324755485767576
 21
-2.73243030083579
 31
0.0
  0
LINE
  5
A60
330
A42
100
AcDbEntity
  8
D35160537
100
AcDbLine
 10
-1.052395739501078
 20
-0.2688878300092625
 30
0.0
 11
-1.051807355920138
 21
-0.271173181194122
 31
0.0
  0
LINE
  5
A61
330
A42
100
AcDbEntity
  8
D35160537
100
AcDbLine
 10
-1.045213738784268
 20
-0.2862617339312265
 30
0.0
 11
-1.043936329187799
 21
-0.2882459844192731
 31
0.0
  0
LINE
  5
A62
330
A42
100
AcDbEntity
  8
D35160537
100
AcDbLine
 10
-1.047525531028326
 20
-0.2821479998034917
 30
0.0
 11
-1.046410777733426
 21
-0.2842279878726828
 31
0.0
  0
LINE
  5
A63
330
A42
100
AcDbEntity
  8
D35160537
100
AcDbLine
 10
-0.2324755485767576
 20
-2.73243030083579
 30
0.0
 11
-0.2062500000000037
 21
-2.735882068580764
 31
0.0
  0
LINE
  5
A64
330
A42
100
AcDbEntity
  8
D35160537
100
AcDbLine
 10
-1.049501181677931
 20
-0.277862676435987
 30
0.0
 11
-1.048556215301476
 21
-0.2800250972608573
 31
0.0
  0
LINE
  5
A65
330
A42
100
AcDbEntity
  8
D35160537
100
AcDbLine
 10
-1.046410777733426
 20
-0.2842279878726828
 30
0.0
 11
-1.045213738784268
 21
-0.2862617339312265
 31
0.0
  0
LINE
  5
A66
330
A42
100
AcDbEntity
  8
D35160537
100
AcDbLine
 10
0.2464331919832579
 20
-2.730243178761931
 30
0.0
 11
0.3073014589948895
 21
-2.719167008880333
 31
0.0
  0
LINE
  5
A67
330
A42
100
AcDbEntity
  8
D35160537
100
AcDbLine
 10
0.2062499999999941
 20
-2.735905870323307
 30
0.0
 11
0.2464331919832579
 21
-2.730243178761931
 31
0.0
  0
ARC
  5
A68
330
A42
100
AcDbEntity
  8
D35160537
100
AcDbCircle
 10
-1.839735364695958
 20
-0.086892578372062
 30
0.0
 40
0.0352646353040575
100
AcDbArc
 50
180.0
 51
269.9999999999999
1001
REVIT
1002
{
1070
     1
1000
53732
1002
}
1002
{
1070
     2
1000
-2001160
1002
}
  0
LINE
  5
A69
330
A42
100
AcDbEntity
  8
D35160537
100
AcDbLine
 10
-0.1095241573360036
 20
-2.746117589738492
 30
0.0
 11
-0.0477363552861151
 21
-2.749263219419411
 31
0.0
  0
LINE
  5
A6A
330
A42
100
AcDbEntity
  8
D35160537
100
AcDbLine
 10
-0.1566184162958665
 20
-2.741826492583054
 30
0.0
 11
-0.1095241573360036
 21
-2.746117589738492
 31
0.0
  0
LINE
  5
A6B
330
A42
100
AcDbEntity
  8
D35160537
100
AcDbLine
 10
-1.839735364695958
 20
-0.1221572136761218
 30
0.0
 11
1.838029077708413
 21
-0.1221572136761146
 31
0.0
1001
REVIT
1002
{
1070
     1
1000
53732
1002
}
1002
{
1070
     2
1000
-2001160
1002
}
  0
LINE
  5
A6C
330
A42
100
AcDbEntity
  8
D35160537
100
AcDbLine
 10
-1.435169860926669
 20
-0.1221572136761218
 30
0.0
 11
-1.435169860926669
 21
-0.1582893603347664
 31
0.0
1001
REVIT
1002
{
1070
     1
1000
53732
1002
}
1002
{
1070
     2
1000
-2001160
1002
}
  0
LINE
  5
A6D
330
A42
100
AcDbEntity
  8
D35160537
100
AcDbLine
 10
-1.435169860926669
 20
-0.1582893603347664
 30
0.0
 11
1.435169860926671
 21
-0.1582893603347593
 31
0.0
1001
REVIT
1002
{
1070
     1
1000
53732
1002
}
1002
{
1070
     2
1000
-2001160
1002
}
  0
LINE
  5
A6E
330
A42
100
AcDbEntity
  8
D35160537
100
AcDbLine
 10
-0.0477363552861151
 20
-2.749263219419411
 30
0.0
 11
-0.0000000000000314
 21
-2.749999999999971
 31
0.0
  0
ARC
  5
A6F
330
A42
100
AcDbEntity
  8
D35160537
100
AcDbCircle
 10
-1.001514323467485
 20
-0.2625534547340926
 30
0.0
 40
0.0498346049086309
100
AcDbArc
 50
191.9999999999987
 51
229.0000000000007
1001
REVIT
1002
{
1070
     1
1000
53732
1002
}
1002
{
1070
     2
1000
-2001160
1002
}
  0
LINE
  5
A70
330
A42
100
AcDbEntity
  8
D35160537
100
AcDbLine
 10
-1.034208765973967
 20
-0.3001641084852515
 30
0.0
 11
-1.001835519523273
 21
-0.3283057422849005
 31
0.0
1001
REVIT
1002
{
1070
     1
1000
53732
1002
}
1002
{
1070
     2
1000
-2001160
1002
}
  0
LINE
  5
A71
330
A42
100
AcDbEntity
  8
D35160537
100
AcDbLine
 10
-0.9829736930565848
 20
-0.3603267694405225
 30
0.0
 11
-0.9714447664073402
 21
-0.4145661048845249
 31
0.0
1001
REVIT
1002
{
1070
     1
1000
53732
1002
}
1002
{
1070
     2
1000
-2001160
1002
}
  0
LINE
  5
A72
330
A42
100
AcDbEntity
  8
D35160537
100
AcDbLine
 10
-1.074624280505797
 20
-0.1582893603347664
 30
0.0
 11
-1.05025992269238
 21
-0.2729146517018783
 31
0.0
1001
REVIT
1002
{
1070
     1
1000
53732
1002
}
1002
{
1070
     2
1000
-2001160
1002
}
  0
ARC
  5
A73
330
A42
100
AcDbEntity
  8
D35160537
100
AcDbCircle
 10
-1.04025498746573
 20
-0.3725022844281405
 30
0.0
 40
0.0585609926008848
100
AcDbArc
 50
12.00000000000043
 51
49.00000000000006
1001
REVIT
1002
{
1070
     1
1000
53732
1002
}
1002
{
1070
     2
1000
-2001160
1002
}
  0
LINE
  5
A74
330
A42
100
AcDbEntity
  8
D35160537
100
AcDbLine
 10
-0.9714447664073402
 20
-0.4145661048845249
 30
0.0
 11
0.9714447664073437
 21
-0.4145661048845178
 31
0.0
1001
REVIT
1002
{
1070
     1
1000
53732
1002
}
1002
{
1070
     2
1000
-2001160
1002
}
  0
LINE
  5
A75
330
A42
100
AcDbEntity
  8
D35160537
100
AcDbLine
 10
-0.5745478527554911
 20
-2.56377220689762
 30
0.0
 11
-0.5316524139450936
 21
-2.655761772284815
 31
0.0
1001
REVIT
1002
{
1070
     1
1000
53732
1002
}
1002
{
1070
     2
1000
-2001160
1002
}
  0
LINE
  5
A76
330
A42
100
AcDbEntity
  8
D35160537
100
AcDbLine
 10
-0.3160857996889144
 20
-2.134928190106752
 30
0.0
 11
-0.3160857996889144
 21
-2.175349542108964
 31
0.0
1001
REVIT
1002
{
1070
     1
1000
53732
1002
}
1002
{
1070
     2
1000
-2001160
1002
}
  0
LINE
  5
A77
330
A42
100
AcDbEntity
  8
D35160537
100
AcDbLine
 10
-0.3160857996889144
 20
-2.175349542108964
 30
0.0
 11
-0.5745478527554911
 21
-2.56377220689762
 31
0.0
1001
REVIT
1002
{
1070
     1
1000
53732
1002
}
1002
{
1070
     2
1000
-2001160
1002
}
  0
LINE
  5
A78
330
A42
100
AcDbEntity
  8
D35160537
100
AcDbLine
 10
-0.4162492625185328
 20
-1.986429749644482
 30
0.0
 11
-0.3160857996889144
 21
-2.134928190106752
 31
0.0
1001
REVIT
1002
{
1070
     1
1000
53732
1002
}
1002
{
1070
     2
1000
-2001160
1002
}
  0
ARC
  5
A79
330
A42
100
AcDbEntity
  8
D35160537
100
AcDbCircle
 10
-3.582263204571601
 20
-1.97955410901687
 30
0.0
 40
3.166021407967503
100
AcDbArc
 50
359.8755708037607
 51
29.62409390563436
1001
REVIT
1002
{
1070
     1
1000
53732
1002
}
1002
{
1070
     2
1000
-2001160
1002
}
  0
LINE
  5
A7A
330
A42
100
AcDbEntity
  8
D35160537
100
AcDbLine
 10
0.5316524139451167
 20
-2.655761772284787
 30
0.0
 11
0.5745478527555017
 21
-2.563772206897613
 31
0.0
1001
REVIT
1002
{
1070
     1
1000
53732
1002
}
1002
{
1070
     2
1000
-2001160
1002
}
  0
ARC
  5
A7B
330
A42
100
AcDbEntity
  8
D35160537
100
AcDbCircle
 10
-0.0000000000000275
 20
-1.246353884222099
 30
0.0
 40
1.506348194869639
100
AcDbArc
 50
249.3326790398716
 51
290.6673209601316
1001
REVIT
1002
{
1070
     1
1000
53732
1002
}
1002
{
1070
     2
1000
-2001160
1002
}
  0
LINE
  5
A7C
330
A42
100
AcDbEntity
  8
D35160537
100
AcDbLine
 10
0.5745478527555017
 20
-2.563772206897613
 30
0.0
 11
0.3160857996889232
 21
-2.175349542108964
 31
0.0
1001
REVIT
1002
{
1070
     1
1000
53732
1002
}
1002
{
1070
     2
1000
-2001160
1002
}
  0
LINE
  5
A7D
330
A42
100
AcDbEntity
  8
D35160537
100
AcDbLine
 10
0.9714447664073437
 20
-0.4145661048845178
 30
0.0
 11
0.9829736930565866
 21
-0.3603267694405225
 31
0.0
1001
REVIT
1002
{
1070
     1
1000
53732
1002
}
1002
{
1070
     2
1000
-2001160
1002
}
  0
ARC
  5
A7E
330
A42
100
AcDbEntity
  8
D35160537
100
AcDbCircle
 10
3.582263204571613
 20
-1.97955410901687
 30
0.0
 40
3.166021407967504
100
AcDbArc
 50
150.3759060943665
 51
180.1244291962396
1001
REVIT
1002
{
1070
     1
1000
53732
1002
}
1002
{
1070
     2
1000
-2001160
1002
}
  0
LINE
  5
A7F
330
A42
100
AcDbEntity
  8
D35160537
100
AcDbLine
 10
1.435169860926671
 20
-0.1582893603347593
 30
0.0
 11
1.435169860926671
 21
-0.1221572136761146
 31
0.0
1001
REVIT
1002
{
1070
     1
1000
53732
1002
}
1002
{
1070
     2
1000
-2001160
1002
}
  0
LINE
  5
A80
330
A42
100
AcDbEntity
  8
D35160537
100
AcDbLine
 10
0.3160857996889232
 20
-2.175349542108964
 30
0.0
 11
0.3160857996889215
 21
-2.134928190106744
 31
0.0
1001
REVIT
1002
{
1070
     1
1000
53732
1002
}
1002
{
1070
     2
1000
-2001160
1002
}
  0
ARC
  5
A81
330
A42
100
AcDbEntity
  8
D35160537
100
AcDbCircle
 10
1.04025498746573
 20
-0.3725022844281405
 30
0.0
 40
0.0585609926008825
100
AcDbArc
 50
131.0000000000005
 51
168.0000000000012
1001
REVIT
1002
{
1070
     1
1000
53732
1002
}
1002
{
1070
     2
1000
-2001160
1002
}
  0
LINE
  5
A82
330
A42
100
AcDbEntity
  8
D35160537
100
AcDbLine
 10
0.3160857996889215
 20
-2.134928190106744
 30
0.0
 11
0.4162492625185399
 21
-1.986429749644475
 31
0.0
1001
REVIT
1002
{
1070
     1
1000
53732
1002
}
1002
{
1070
     2
1000
-2001160
1002
}
  0
LINE
  5
A83
330
A42
100
AcDbEntity
  8
D35160537
100
AcDbLine
 10
1.875000000000016
 20
-0.0000000000000036
 30
0.0
 11
-1.875000000000016
 21
0.0000000000000036
 31
0.0
1001
REVIT
1002
{
1070
     1
1000
53732
1002
}
1002
{
1070
     2
1000
-2001160
1002
}
  0
LINE
  5
A84
330
A42
100
AcDbEntity
  8
D35160537
100
AcDbLine
 10
1.050259922692382
 20
-0.2729146517018783
 30
0.0
 11
1.0746242805058
 21
-0.1582893603347593
 31
0.0
1001
REVIT
1002
{
1070
     1
1000
53732
1002
}
1002
{
1070
     2
1000
-2001160
1002
}
  0
ARC
  5
A85
330
A42
100
AcDbEntity
  8
D35160537
100
AcDbCircle
 10
1.001514323467485
 20
-0.2625534547340926
 30
0.0
 40
0.0498346049086342
100
AcDbArc
 50
310.9999999999993
 51
347.9999999999991
1001
REVIT
1002
{
1070
     1
1000
53732
1002
}
1002
{
1070
     2
1000
-2001160
1002
}
  0
LINE
  5
A86
330
A42
100
AcDbEntity
  8
D35160537
100
AcDbLine
 10
1.001835519523274
 20
-0.3283057422848934
 30
0.0
 11
1.034208765973969
 21
-0.3001641084852515
 31
0.0
1001
REVIT
1002
{
1070
     1
1000
53732
1002
}
1002
{
1070
     2
1000
-2001160
1002
}
  0
ARC
  5
A87
330
A42
100
AcDbEntity
  8
D35160537
100
AcDbCircle
 10
1.838029077708413
 20
-0.0851862913845132
 30
0.0
 40
0.0369709222916042
100
AcDbArc
 50
269.9999999999999
 51
0.0000000000012213
1001
REVIT
1002
{
1070
     1
1000
53732
1002
}
1002
{
1070
     2
1000
-2001160
1002
}
  0
LINE
  5
A88
330
A42
100
AcDbEntity
  8
D35160537
100
AcDbLine
 10
-0.5745478527554911
 20
-2.56377220689762
 30
0.0
 11
0.5745478527554378
 21
-2.56377220689762
 31
0.0
1001
REVIT
1002
{
1070
     1
1000
53773
1002
}
1002
{
1070
     2
1000
-2001160
1002
}
  0
LINE
  5
A89
330
A42
100
AcDbEntity
  8
D35160537
100
AcDbLine
 10
1.875000000000018
 20
-0.0851862913845132
 30
0.0
 11
1.875000000000016
 21
-0.0000000000000036
 31
0.0
1001
REVIT
1002
{
1070
     1
1000
53732
1002
}
1002
{
1070
     2
1000
-2001160
1002
}
  0
LINE
  5
A8A
330
A42
100
AcDbEntity
  8
D35160537
100
AcDbLine
 10
-1.875000000000015
 20
0.0000000000000036
 30
0.0
 11
-1.875000000000016
 21
-0.086892578372062
 31
0.0
1001
REVIT
1002
{
1070
     1
1000
53732
1002
}
1002
{
1070
     2
1000
-2001160
1002
}
  0
LINE
  5
A8B
330
A42
100
AcDbEntity
  8
D35160537
100
AcDbLine
 10
-0.3160857996889144
 20
-2.134928190106752
 30
0.0
 11
0.3160857996889215
 21
-2.134928190106752
 31
0.0
1001
REVIT
1002
{
1070
     1
1000
53771
1002
}
1002
{
1070
     2
1000
-2001160
1002
}
  0
LINE
  5
A8C
330
A42
100
AcDbEntity
  8
D35160537
100
AcDbLine
 10
-0.3459680619899421
 20
-2.56377220689762
 30
0.0
 11
-0.1979164116213061
 21
-2.134928190106752
 31
0.0
1001
REVIT
1002
{
1070
     1
1000
53775
1002
}
1002
{
1070
     2
1000
-2001160
1002
}
  0
LINE
  5
A8D
330
A42
100
AcDbEntity
  8
D35160537
100
AcDbLine
 10
-0.4162492625185222
 20
-1.986429749644475
 30
0.0
 11
0.4162492625185293
 21
-1.986429749644475
 31
0.0
1001
REVIT
1002
{
1070
     1
1000
53770
1002
}
1002
{
1070
     2
1000
-2001160
1002
}
  0
LINE
  5
A8E
330
A42
100
AcDbEntity
  8
D35160537
100
AcDbLine
 10
-0.3160857996889144
 20
-2.175349542108964
 30
0.0
 11
0.3160857996889232
 21
-2.175349542108964
 31
0.0
1001
REVIT
1002
{
1070
     1
1000
53772
1002
}
1002
{
1070
     2
1000
-2001160
1002
}
  0
ARC
  5
A8F
330
A42
100
AcDbEntity
  8
D35160537
100
AcDbCircle
 10
4.702586131519962
 20
-2.164871547751705
 30
0.0
 40
4.504769238267232
100
AcDbArc
 50
157.1360063628473
 51
179.6191501582807
1001
REVIT
1002
{
1070
     1
1000
53778
1002
}
1002
{
1070
     2
1000
-2001160
1002
}
  0
LINE
  5
A90
330
A42
100
AcDbEntity
  8
D35160537
100
AcDbLine
 10
-0.5316524139450918
 20
-2.655761772284815
 30
0.0
 11
0.5316524139450261
 21
-2.655761772284822
 31
0.0
1001
REVIT
1002
{
1070
     1
1000
53774
1002
}
1002
{
1070
     2
1000
-2001160
1002
}
  0
ARC
  5
A91
330
A42
100
AcDbEntity
  8
D35160537
100
AcDbCircle
 10
-4.702586131519945
 20
-2.164871547751719
 30
0.0
 40
4.504769238267232
100
AcDbArc
 50
0.3808498417201351
 51
22.86399363715354
1001
REVIT
1002
{
1070
     1
1000
53776
1002
}
1002
{
1070
     2
1000
-2001160
1002
}
  0
LINE
  5
A92
330
A42
100
AcDbEntity
  8
D35160537
100
AcDbLine
 10
0.3459680619899599
 20
-2.56377220689762
 30
0.0
 11
0.1979164116213221
 21
-2.134928190106752
 31
0.0
1001
REVIT
1002
{
1070
     1
1000
53777
1002
}
1002
{
1070
     2
1000
-2001160
1002
}
  0
ENDBLK
  5
A44
330
A42
100
AcDbEntity
  8
0
100
AcDbBlockEnd
  0
ENDSEC
  0
SECTION
  2
ENTITIES
  0
INSERT
  5
81E
330
70
100
AcDbEntity
  8
D35160537
100
AcDbBlockReference
  2
D35160537 Front View
 10
0.000000000000273
 20
0.0008695154229894
 30
0.0
  0
INSERT
  5
A41
330
70
100
AcDbEntity
  8
D35160537
100
AcDbBlockReference
  2
D35160537 Side View
 10
-11.5408395431505
 20
-0.0000000000003322
 30
0.0
  0
INSERT
  5
A93
330
70
100
AcDbEntity
  8
D35160537
100
AcDbBlockReference
  2
D35160537 Top View
 10
0.0000000000002729
 20
14.60802612324033
 30
0.0
  0
ENDSEC
  0
SECTION
  2
OBJECTS
  0
DICTIONARY
  5
C
330
0
100
AcDbDictionary
281
     1
  3
ACAD_CIP_PREVIOUS_PRODUCT_INFO
350
79
  3
ACAD_COLOR
350
63
  3
ACAD_DETAILVIEWSTYLE
350
6A
  3
ACAD_GROUP
350
D
  3
ACAD_IMAGE_VARS
350
7A
  3
ACAD_LAYOUT
350
62
  3
ACAD_MATERIAL
350
10
  3
ACAD_MLEADERSTYLE
350
66
  3
ACAD_MLINESTYLE
350
5F
  3
ACAD_PLOTSETTINGS
350
61
  3
ACAD_PLOTSTYLENAME
350
E
  3
ACAD_SCALELIST
350
42
  3
ACAD_SECTIONVIEWSTYLE
350
68
  3
ACAD_TABLESTYLE
350
64
  3
ACAD_VISUALSTYLE
350
29
  3
ACDB_RECOMPOSE_DATA
350
AB0
  3
AcDbVariableDictionary
350
123
  3
REVIT_DICTIONARY
350
117
  0
DICTIONARY
  5
A99
330
2
100
AcDbDictionary
280
     1
281
     1
  3
ACAD_LAYERSTATES
360
A9A
  0
DICTIONARY
  5
11B
330
70
100
AcDbDictionary
280
     1
281
     1
  3
ACAD_SORTENTS
360
11C
  0
XRECORD
  5
79
102
{ACAD_REACTORS
330
C
102
}
330
C
100
AcDbXrecord
280
     1
300
ACD
300
2016
300
86445ACD_2016_0F
  0
DICTIONARY
  5
63
102
{ACAD_REACTORS
330
C
102
}
330
C
100
AcDbDictionary
281
     1
  0
DICTIONARY
  5
6A
102
{ACAD_REACTORS
330
C
102
}
330
C
100
AcDbDictionary
281
     1
  3
Imperial24
350
6B
  0
DICTIONARY
  5
D
102
{ACAD_REACTORS
330
C
102
}
330
C
100
AcDbDictionary
281
     1
  0
RASTERVARIABLES
  5
7A
102
{ACAD_REACTORS
330
C
102
}
330
C
100
AcDbRasterVariables
 90
        0
 70
     0
 71
     1
 72
     5
  0
DICTIONARY
  5
62
102
{ACAD_REACTORS
330
C
102
}
330
C
100
AcDbDictionary
281
     1
  3
Layout1
350
6F
  3
Layout2
350
77
  3
Model
350
73
  0
DICTIONARY
  5
10
102
{ACAD_REACTORS
330
C
102
}
330
C
100
AcDbDictionary
281
     1
  3
ByBlock
350
19
  3
ByLayer
350
11
  3
Global
350
21
  0
DICTIONARY
  5
66
102
{ACAD_REACTORS
330
C
102
}
330
C
100
AcDbDictionary
281
     1
  3
Standard
350
67
  0
DICTIONARY
  5
5F
102
{ACAD_REACTORS
330
C
102
}
330
C
100
AcDbDictionary
281
     1
  3
Standard
350
60
  0
DICTIONARY
  5
61
102
{ACAD_REACTORS
330
C
102
}
330
C
100
AcDbDictionary
281
     1
  0
ACDBDICTIONARYWDFLT
  5
E
102
{ACAD_REACTORS
330
C
102
}
330
C
100
AcDbDictionary
281
     1
  3
Normal
350
F
100
AcDbDictionaryWithDefault
340
F
  0
DICTIONARY
  5
42
102
{ACAD_REACTORS
330
C
102
}
330
C
100
AcDbDictionary
281
     1
  3
A0
350
43
  3
A1
350
44
  3
A2
350
45
  3
A3
350
46
  3
A4
350
47
  3
A5
350
48
  3
A6
350
49
  3
A7
350
4A
  3
A8
350
4B
  3
A9
350
4C
  3
B0
350
4D
  3
B1
350
4E
  3
B2
350
4F
  3
B3
350
50
  3
B4
350
51
  3
B5
350
52
  3
B6
350
53
  0
DICTIONARY
  5
68
102
{ACAD_REACTORS
330
C
102
}
330
C
100
AcDbDictionary
281
     1
  3
Imperial24
350
69
  0
DICTIONARY
  5
64
102
{ACAD_REACTORS
330
C
102
}
330
C
100
AcDbDictionary
281
     1
  3
Standard
350
65
  0
DICTIONARY
  5
29
102
{ACAD_REACTORS
330
C
102
}
330
C
100
AcDbDictionary
281
     1
  3
2dWireframe
350
2F
  3
Basic
350
2E
  3
Brighten
350
35
  3
ColorChange
350
39
  3
Conceptual
350
32
  3
Dim
350
34
  3
EdgeColorOff
350
41
  3
Facepattern
350
38
  3
Flat
350
2A
  3
FlatWithEdges
350
2B
  3
Gouraud
350
2C
  3
GouraudWithEdges
350
2D
  3
Hidden
350
31
  3
JitterOff
350
3F
  3
Linepattern
350
37
  3
OverhangOff
350
40
  3
Realistic
350
33
  3
Shaded
350
3E
  3
Shaded with edges
350
3D
  3
Shades of Gray
350
3A
  3
Sketchy
350
3B
  3
Thicken
350
36
  3
Wireframe
350
30
  3
X-Ray
350
3C
  0
XRECORD
  5
AB0
102
{ACAD_REACTORS
330
C
102
}
330
C
100
AcDbXrecord
280
     1
 90
        1
330
65
330
69
330
6B
  0
DICTIONARY
  5
123
102
{ACAD_REACTORS
330
C
102
}
330
C
100
AcDbDictionary
281
     1
  3
CANNOSCALE
350
128
  3
CMLEADERSTYLE
350
125
  3
CTABLESTYLE
350
124
  3
CVIEWDETAILSTYLE
350
126
  3
CVIEWSECTIONSTYLE
350
127
  0
DICTIONARY
  5
117
102
{ACAD_REACTORS
330
C
102
}
330
C
100
AcDbDictionary
281
     1
  3
DRAWING_TOOL
350
11A
  3
REVIT_CATEGORY_MAPPING
350
118
  3
REVIT_SUB_CATEGORY_MAPPING
350
119
  0
DICTIONARY
  5
A9A
102
{ACAD_REACTORS
330
A99
102
}
330
A99
100
AcDbDictionary
281
     1
  0
SORTENTSTABLE
  5
11C
102
{ACAD_REACTORS
330
11B
102
}
330
11B
100
AcDbSortentsTable
330
70
  0
ACDBDETAILVIEWSTYLE
  5
6B
102
{ACAD_XDICTIONARY
360
120
102
}
102
{ACAD_REACTORS
330
6A
102
}
330
6A
100
AcDbModelDocViewStyle
 70
     0
  3
Imperial24
290
     0
100
AcDbDetailViewStyle
 70
     0
 71
     0
 90
        3
 71
     1
340
55
 62
   256
 40
0.24
340
0
 62
   256
 40
0.24
300

 40
0.36
280
     3
 71
     2
340
5D
 90
       25
 62
   256
 71
     3
340
55
 62
   256
 40
0.24
 90
        1
 40
0.75
 90
        1
300
%<\AcVar ViewType \f "%tc1">% %<\AcVar ViewDetailId>%\PSCALE %<\AcVar ViewScale \f "%sn">%
 71
     4
340
5D
 90
       25
 62
   256
340
5D
 90
       25
 62
   256
280
     0
  0
LAYOUT
  5
6F
102
{ACAD_REACTORS
330
62
102
}
330
62
100
AcDbPlotSettings
  1

  2

  4

  6

 40
0.0
 41
0.0
 42
0.0
 43
0.0
 44
0.0
 45
0.0
 46
0.0
 47
0.0
 48
0.0
 49
0.0
140
0.0
141
0.0
142
1.0
143
1.0
 70
   688
 72
     0
 73
     0
 74
     5
  7

 75
    16
147
1.0
 76
     0
 77
     2
 78
   300
148
0.0
149
0.0
100
AcDbLayout
  1
Layout1
 70
     1
 71
     1
 10
0.0
 20
0.0
 11
12.0
 21
9.0
 12
0.0
 22
0.0
 32
0.0
 14
1.000000000000000E+20
 24
1.000000000000000E+20
 34
1.000000000000000E+20
 15
-1.000000000000000E+20
 25
-1.000000000000000E+20
 35
-1.000000000000000E+20
146
0.0
 13
0.0
 23
0.0
 33
0.0
 16
1.0
 26
0.0
 36
0.0
 17
0.0
 27
1.0
 37
0.0
 76
     0
330
6C
  0
LAYOUT
  5
77
102
{ACAD_REACTORS
330
62
102
}
330
62
100
AcDbPlotSettings
  1

  2

  4

  6

 40
0.0
 41
0.0
 42
0.0
 43
0.0
 44
0.0
 45
0.0
 46
0.0
 47
0.0
 48
0.0
 49
0.0
140
0.0
141
0.0
142
1.0
143
1.0
 70
   688
 72
     0
 73
     0
 74
     5
  7

 75
    16
147
1.0
 76
     0
 77
     2
 78
   300
148
0.0
149
0.0
100
AcDbLayout
  1
Layout2
 70
     1
 71
     2
 10
0.0
 20
0.0
 11
12.0
 21
9.0
 12
0.0
 22
0.0
 32
0.0
 14
0.0
 24
0.0
 34
0.0
 15
0.0
 25
0.0
 35
0.0
146
0.0
 13
0.0
 23
0.0
 33
0.0
 16
1.0
 26
0.0
 36
0.0
 17
0.0
 27
1.0
 37
0.0
 76
     0
330
74
  0
LAYOUT
  5
73
102
{ACAD_REACTORS
330
62
102
}
330
62
100
AcDbPlotSettings
  1

  2

  4

  6

 40
0.0
 41
0.0
 42
0.0
 43
0.0
 44
0.0
 45
0.0
 46
0.0
 47
0.0
 48
0.0
 49
0.0
140
0.0
141
0.0
142
1.0
143
1.0
 70
  1712
 72
     0
 73
     0
 74
     0
  7

 75
     0
147
1.0
 76
     0
 77
     2
 78
   300
148
0.0
149
0.0
100
AcDbLayout
  1
Model
 70
     1
 71
     0
 10
0.0
 20
0.0
 11
12.0
 21
9.0
 12
0.0
 22
0.0
 32
0.0
 14
0.0
 24
0.0
 34
0.0
 15
0.0
 25
0.0
 35
0.0
146
0.0
 13
0.0
 23
0.0
 33
0.0
 16
1.0
 26
0.0
 36
0.0
 17
0.0
 27
1.0
 37
0.0
 76
     0
330
70
331
57
  0
MATERIAL
  5
19
102
{ACAD_XDICTIONARY
360
1A
102
}
102
{ACAD_REACTORS
330
10
102
}
330
10
100
AcDbMaterial
  1
ByBlock
 72
     0
 43
0.0208333333333333
 43
0.0
 43
0.0
 43
0.0
 43
0.0
 43
0.0208333333333333
 43
0.0
 43
0.0
 43
0.0
 43
0.0
 43
1.0
 43
0.0
 43
0.0
 43
0.0
 43
0.0
 43
1.0
 77
     0
 47
0.0208333333333333
 47
0.0
 47
0.0
 47
0.0
 47
0.0
 47
0.0208333333333333
 47
0.0
 47
0.0
 47
0.0
 47
0.0
 47
1.0
 47
0.0
 47
0.0
 47
0.0
 47
0.0
 47
1.0
171
     0
 49
0.0208333333333333
 49
0.0
 49
0.0
 49
0.0
 49
0.0
 49
0.0208333333333333
 49
0.0
 49
0.0
 49
0.0
 49
0.0
 49
1.0
 49
0.0
 49
0.0
 49
0.0
 49
0.0
 49
1.0
175
     0
142
0.0208333333333333
142
0.0
142
0.0
142
0.0
142
0.0
142
0.0208333333333333
142
0.0
142
0.0
142
0.0
142
0.0
142
1.0
142
0.0
142
0.0
142
0.0
142
0.0
142
1.0
179
     0
144
0.0208333333333333
144
0.0
144
0.0
144
0.0
144
0.0
144
0.0208333333333333
144
0.0
144
0.0
144
0.0
144
0.0
144
1.0
144
0.0
144
0.0
144
0.0
144
0.0
144
1.0
147
0.0208333333333333
147
0.0
147
0.0
147
0.0
147
0.0
147
0.0208333333333333
147
0.0
147
0.0
147
0.0
147
0.0
147
1.0
147
0.0
147
0.0
147
0.0
147
0.0
147
1.0
  0
MATERIAL
  5
11
102
{ACAD_XDICTIONARY
360
12
102
}
102
{ACAD_REACTORS
330
10
102
}
330
10
100
AcDbMaterial
  1
ByLayer
 72
     0
 43
0.0208333333333333
 43
0.0
 43
0.0
 43
0.0
 43
0.0
 43
0.0208333333333333
 43
0.0
 43
0.0
 43
0.0
 43
0.0
 43
1.0
 43
0.0
 43
0.0
 43
0.0
 43
0.0
 43
1.0
 77
     0
 47
0.0208333333333333
 47
0.0
 47
0.0
 47
0.0
 47
0.0
 47
0.0208333333333333
 47
0.0
 47
0.0
 47
0.0
 47
0.0
 47
1.0
 47
0.0
 47
0.0
 47
0.0
 47
0.0
 47
1.0
171
     0
 49
0.0208333333333333
 49
0.0
 49
0.0
 49
0.0
 49
0.0
 49
0.0208333333333333
 49
0.0
 49
0.0
 49
0.0
 49
0.0
 49
1.0
 49
0.0
 49
0.0
 49
0.0
 49
0.0
 49
1.0
175
     0
142
0.0208333333333333
142
0.0
142
0.0
142
0.0
142
0.0
142
0.0208333333333333
142
0.0
142
0.0
142
0.0
142
0.0
142
1.0
142
0.0
142
0.0
142
0.0
142
0.0
142
1.0
179
     0
144
0.0208333333333333
144
0.0
144
0.0
144
0.0
144
0.0
144
0.0208333333333333
144
0.0
144
0.0
144
0.0
144
0.0
144
1.0
144
0.0
144
0.0
144
0.0
144
0.0
144
1.0
147
0.0208333333333333
147
0.0
147
0.0
147
0.0
147
0.0
147
0.0208333333333333
147
0.0
147
0.0
147
0.0
147
0.0
147
1.0
147
0.0
147
0.0
147
0.0
147
0.0
147
1.0
  0
MATERIAL
  5
21
102
{ACAD_XDICTIONARY
360
22
102
}
102
{ACAD_REACTORS
330
10
102
}
330
10
100
AcDbMaterial
  1
Global
 72
     0
 43
0.0208333333333333
 43
0.0
 43
0.0
 43
0.0
 43
0.0
 43
0.0208333333333333
 43
0.0
 43
0.0
 43
0.0
 43
0.0
 43
1.0
 43
0.0
 43
0.0
 43
0.0
 43
0.0
 43
1.0
 77
     0
 47
0.0208333333333333
 47
0.0
 47
0.0
 47
0.0
 47
0.0
 47
0.0208333333333333
 47
0.0
 47
0.0
 47
0.0
 47
0.0
 47
1.0
 47
0.0
 47
0.0
 47
0.0
 47
0.0
 47
1.0
171
     0
 49
0.0208333333333333
 49
0.0
 49
0.0
 49
0.0
 49
0.0
 49
0.0208333333333333
 49
0.0
 49
0.0
 49
0.0
 49
0.0
 49
1.0
 49
0.0
 49
0.0
 49
0.0
 49
0.0
 49
1.0
175
     0
142
0.0208333333333333
142
0.0
142
0.0
142
0.0
142
0.0
142
0.0208333333333333
142
0.0
142
0.0
142
0.0
142
0.0
142
1.0
142
0.0
142
0.0
142
0.0
142
0.0
142
1.0
179
     0
144
0.0208333333333333
144
0.0
144
0.0
144
0.0
144
0.0
144
0.0208333333333333
144
0.0
144
0.0
144
0.0
144
0.0
144
1.0
144
0.0
144
0.0
144
0.0
144
0.0
144
1.0
147
0.0208333333333333
147
0.0
147
0.0
147
0.0
147
0.0
147
0.0208333333333333
147
0.0
147
0.0
147
0.0
147
0.0
147
1.0
147
0.0
147
0.0
147
0.0
147
0.0
147
1.0
  0
MLEADERSTYLE
  5
67
102
{ACAD_REACTORS
330
66
102
}
330
66
100
AcDbMLeaderStyle
179
     2
170
     2
171
     1
172
     0
 90
        2
 40
0.0
 41
0.0
173
     1
 91
-1056964608
340
5B
 92
       -2
290
     1
 42
0.09
291
     1
 43
0.36
  3
Standard
 44
0.18
300

342
55
174
     1
178
     6
175
     1
176
     0
 93
-1056964608
 45
0.18
292
     0
297
     0
 46
0.18
 94
-1056964608
 47
1.0
 49
1.0
140
1.0
293
     1
141
0.0
294
     1
177
     0
142
1.0
295
     1
296
     0
143
0.125
271
     0
272
     9
273
     9
298
     1
  0
MLINESTYLE
  5
60
102
{ACAD_REACTORS
330
5F
102
}
330
5F
100
AcDbMlineStyle
  2
STANDARD
 70
     0
  3

 62
   256
 51
90.0
 52
90.0
 71
     2
 49
0.5
 62
   256
  6
BYLAYER
 49
-0.5
 62
   256
  6
BYLAYER
  0
ACDBPLACEHOLDER
  5
F
102
{ACAD_REACTORS
330
E
102
}
330
E
  0
SCALE
  5
43
102
{ACAD_REACTORS
330
42
102
}
330
42
100
AcDbScale
 70
     0
300
1:1
140
1.0
141
1.0
290
     1
  0
SCALE
  5
44
102
{ACAD_REACTORS
330
42
102
}
330
42
100
AcDbScale
 70
     0
300
1/128" = 1'-0"
140
0.0078125
141
12.0
290
     0
  0
SCALE
  5
45
102
{ACAD_REACTORS
330
42
102
}
330
42
100
AcDbScale
 70
     0
300
1/64" = 1'-0"
140
0.015625
141
12.0
290
     0
  0
SCALE
  5
46
102
{ACAD_REACTORS
330
42
102
}
330
42
100
AcDbScale
 70
     0
300
1/32" = 1'-0"
140
0.03125
141
12.0
290
     0
  0
SCALE
  5
47
102
{ACAD_REACTORS
330
42
102
}
330
42
100
AcDbScale
 70
     0
300
1/16" = 1'-0"
140
0.0625
141
12.0
290
     0
  0
SCALE
  5
48
102
{ACAD_REACTORS
330
42
102
}
330
42
100
AcDbScale
 70
     0
300
3/32" = 1'-0"
140
0.09375
141
12.0
290
     0
  0
SCALE
  5
49
102
{ACAD_REACTORS
330
42
102
}
330
42
100
AcDbScale
 70
     0
300
1/8" = 1'-0"
140
0.125
141
12.0
290
     0
  0
SCALE
  5
4A
102
{ACAD_REACTORS
330
42
102
}
330
42
100
AcDbScale
 70
     0
300
3/16" = 1'-0"
140
0.1875
141
12.0
290
     0
  0
SCALE
  5
4B
102
{ACAD_REACTORS
330
42
102
}
330
42
100
AcDbScale
 70
     0
300
1/4" = 1'-0"
140
0.25
141
12.0
290
     0
  0
SCALE
  5
4C
102
{ACAD_REACTORS
330
42
102
}
330
42
100
AcDbScale
 70
     0
300
3/8" = 1'-0"
140
0.375
141
12.0
290
     0
  0
SCALE
  5
4D
102
{ACAD_REACTORS
330
42
102
}
330
42
100
AcDbScale
 70
     0
300
1/2" = 1'-0"
140
0.5
141
12.0
290
     0
  0
SCALE
  5
4E
102
{ACAD_REACTORS
330
42
102
}
330
42
100
AcDbScale
 70
     0
300
3/4" = 1'-0"
140
0.75
141
12.0
290
     0
  0
SCALE
  5
4F
102
{ACAD_REACTORS
330
42
102
}
330
42
100
AcDbScale
 70
     0
300
1" = 1'-0"
140
1.0
141
12.0
290
     0
  0
SCALE
  5
50
102
{ACAD_REACTORS
330
42
102
}
330
42
100
AcDbScale
 70
     0
300
1-1/2" = 1'-0"
140
1.5
141
12.0
290
     0
  0
SCALE
  5
51
102
{ACAD_REACTORS
330
42
102
}
330
42
100
AcDbScale
 70
     0
300
3" = 1'-0"
140
3.0
141
12.0
290
     0
  0
SCALE
  5
52
102
{ACAD_REACTORS
330
42
102
}
330
42
100
AcDbScale
 70
     0
300
6" = 1'-0"
140
6.0
141
12.0
290
     0
  0
SCALE
  5
53
102
{ACAD_REACTORS
330
42
102
}
330
42
100
AcDbScale
 70
     0
300
1'-0" = 1'-0"
140
12.0
141
12.0
290
     0
  0
ACDBSECTIONVIEWSTYLE
  5
69
102
{ACAD_XDICTIONARY
360
11E
102
}
102
{ACAD_REACTORS
330
68
102
}
330
68
100
AcDbModelDocViewStyle
 70
     0
  3
Imperial24
290
     0
100
AcDbSectionViewStyle
 70
     0
 71
     0
 90
       78
 71
     1
340
55
 62
   256
 40
0.24
340
0
340
0
 62
   256
 40
0.24
300
I, O, Q, S, X, Z
 40
0.48
 90
        3
 40
0.18
 90
        1
 71
     2
340
5D
 90
       25
 62
   256
340
5D
 90
       50
 62
   256
 40
0.24
 40
0.0
 40
0.24
 71
     3
340
55
 62
   256
 40
0.24
 90
        1
 40
0.75
 90
        1
300
%<\AcVar ViewType \f "%tc1">% %<\AcVar ViewSectionStartId>%-%<\AcVar ViewSectionEndId>%\PSCALE %<\AcVar ViewScale \f "%sn">%
 71
     4
 62
   256
 62
   257
300
ANSI31
 40
1.0
 90
        0
290
     0
290
     0
 90
        6
 40
0.0
 40
1.570796326794896
 40
0.2617993877991494
 40
1.308996938995747
 40
-0.2617993877991494
 40
1.832595714594046
  0
TABLESTYLE
  5
65
102
{ACAD_XDICTIONARY
360
AAC
102
}
102
{ACAD_REACTORS
330
64
102
}
330
64
100
AcDbTableStyle
280
     0
  3
Standard
 70
     0
 71
     0
 40
0.06
 41
0.06
280
     0
281
     0
  7
Standard
140
0.18
170
     2
 62
     0
 63
     7
283
     0
 90
      512
 91
        0
  1

274
    -2
284
     1
 64
     0
275
    -2
285
     1
 65
     0
276
    -2
286
     1
 66
     0
277
    -2
287
     1
 67
     0
278
    -2
288
     1
 68
     0
279
    -2
289
     1
 69
     0
  7
Standard
140
0.25
170
     5
 62
     0
 63
     7
283
     0
 90
      512
 91
        0
  1

274
    -2
284
     1
 64
     0
275
    -2
285
     1
 65
     0
276
    -2
286
     1
 66
     0
277
    -2
287
     1
 67
     0
278
    -2
288
     1
 68
     0
279
    -2
289
     1
 69
     0
  7
Standard
140
0.18
170
     5
 62
     0
 63
     7
283
     0
 90
      512
 91
        0
  1

274
    -2
284
     1
 64
     0
275
    -2
285
     1
 65
     0
276
    -2
286
     1
 66
     0
277
    -2
287
     1
 67
     0
278
    -2
288
     1
 68
     0
279
    -2
289
     1
 69
     0
  0
VISUALSTYLE
  5
2F
102
{ACAD_REACTORS
330
29
102
}
330
29
100
AcDbVisualStyle
  2
2dWireframe
 70
     4
177
     3
291
     0
 70
    58
 90
        0
176
     1
 90
        2
176
     1
 90
        0
176
     1
 90
        0
176
     1
 40
0.6
176
     1
 40
30.0
176
     1
 62
     7
420
 16777215
176
     1
 90
        1
176
     1
 90
        4
176
     1
 62
     7
176
     1
 62
   257
176
     1
 90
        1
176
     1
 90
        1
176
     1
 40
1.0
176
     1
 90
        0
176
     1
 62
   257
176
     1
 40
1.0
176
     1
 90
        1
176
     1
 90
        6
176
     1
 90
        2
176
     1
 62
     7
176
     1
 90
        5
176
     1
 90
        0
176
     1
 90
        0
176
     1
290
     0
176
     1
 90
        1
176
     1
 40
0.0
176
     1
 90
        0
176
     1
290
     1
176
     1
290
     1
176
     1
290
     0
176
     1
290
     0
176
     1
290
     0
176
     1
290
     0
176
     1
290
     0
176
     1
290
     0
176
     1
290
     0
176
     1
 90
       50
176
     1
 40
0.0
176
     1
 40
1.0
176
     1
 90
        0
176
     1
 62
    18
420
        0
176
     1
 90
       50
176
     1
 90
        3
176
     1
 62
     5
420
      255
176
     1
290
     0
176
     1
 90
       50
176
     1
 90
       50
176
     1
 90
       50
176
     1
290
     0
176
     1
 90
       50
176
     1
 62
   256
176
     0
 40
1.0
176
     0
 90
        2
176
     1
  1
strokes_ogs.tif
176
     1
290
     0
176
     1
 40
1.0
176
     1
 40
1.0
176
     1
  0
VISUALSTYLE
  5
2E
102
{ACAD_REACTORS
330
29
102
}
330
29
100
AcDbVisualStyle
  2
Basic
 70
     7
177
     3
291
     1
 70
    58
 90
        1
176
     1
 90
        0
176
     1
 90
        1
176
     1
 90
        0
176
     1
 40
0.6
176
     1
 40
30.0
176
     1
 62
     7
420
 16777215
176
     1
 90
        0
176
     1
 90
        4
176
     1
 62
     7
176
     1
 62
   257
176
     1
 90
        1
176
     1
 90
        1
176
     1
 40
1.0
176
     1
 90
        8
176
     1
 62
     7
176
     1
 40
1.0
176
     1
 90
        1
176
     1
 90
        6
176
     1
 90
        2
176
     1
 62
     7
176
     1
 90
        5
176
     1
 90
        0
176
     1
 90
        0
176
     1
290
     0
176
     1
 90
        1
176
     1
 40
0.0
176
     1
 90
        0
176
     1
290
     0
176
     1
290
     1
176
     1
290
     1
176
     1
290
     0
176
     1
290
     0
176
     1
290
     0
176
     1
290
     0
176
     1
290
     0
176
     1
290
     0
176
     1
 90
       50
176
     1
 40
0.0
176
     1
 40
1.0
176
     1
 90
        0
176
     1
 62
    18
420
        0
176
     1
 90
       50
176
     1
 90
        3
176
     1
 62
     5
420
      255
176
     1
290
     0
176
     1
 90
       50
176
     1
 90
       50
176
     1
 90
       50
176
     1
290
     0
176
     1
 90
       50
176
     1
 62
   256
176
     0
 40
1.0
176
     0
 90
        2
176
     1
  1
strokes_ogs.tif
176
     1
290
     0
176
     1
 40
1.0
176
     1
 40
1.0
176
     1
  0
VISUALSTYLE
  5
35
102
{ACAD_REACTORS
330
29
102
}
330
29
100
AcDbVisualStyle
  2
Brighten
 70
    12
177
     3
291
     1
 70
    58
 90
        2
176
     1
 90
        2
176
     1
 90
        0
176
     1
 90
        0
176
     1
 40
0.6
176
     1
 40
30.0
176
     1
 62
     7
420
 16777215
176
     1
 90
        1
176
     1
 90
        4
176
     1
 62
     7
176
     1
 62
   257
176
     1
 90
        1
176
     1
 90
        1
176
     1
 40
1.0
176
     1
 90
        8
176
     1
 62
     7
176
     1
 40
1.0
176
     1
 90
        1
176
     1
 90
        6
176
     1
 90
        2
176
     1
 62
     7
176
     1
 90
        5
176
     1
 90
        0
176
     1
 90
        0
176
     1
290
     0
176
     1
 90
        1
176
     1
 40
50.0
176
     1
 90
        0
176
     1
290
     0
176
     1
290
     1
176
     1
290
     1
176
     1
290
     0
176
     1
290
     0
176
     1
290
     0
176
     1
290
     0
176
     1
290
     0
176
     1
290
     0
176
     1
 90
       50
176
     1
 40
0.0
176
     1
 40
1.0
176
     1
 90
        0
176
     1
 62
    18
420
        0
176
     1
 90
       50
176
     1
 90
        3
176
     1
 62
     5
420
      255
176
     1
290
     0
176
     1
 90
       50
176
     1
 90
       50
176
     1
 90
       50
176
     1
290
     0
176
     1
 90
       50
176
     1
 62
   256
176
     0
 40
1.0
176
     0
 90
        2
176
     1
  1
strokes_ogs.tif
176
     1
290
     0
176
     1
 40
1.0
176
     1
 40
1.0
176
     1
  0
VISUALSTYLE
  5
39
102
{ACAD_REACTORS
330
29
102
}
330
29
100
AcDbVisualStyle
  2
ColorChange
 70
    16
177
     3
291
     1
 70
    58
 90
        2
176
     1
 90
        2
176
     1
 90
        3
176
     1
 90
        0
176
     1
 40
0.6
176
     1
 40
30.0
176
     1
 62
     8
420
  8421504
176
     1
 90
        1
176
     1
 90
        4
176
     1
 62
     7
176
     1
 62
   257
176
     1
 90
        1
176
     1
 90
        1
176
     1
 40
1.0
176
     1
 90
        8
176
     1
 62
     8
420
  8421504
176
     1
 40
1.0
176
     1
 90
        1
176
     1
 90
        6
176
     1
 90
        2
176
     1
 62
     7
176
     1
 90
        5
176
     1
 90
        0
176
     1
 90
        0
176
     1
290
     0
176
     1
 90
        1
176
     1
 40
0.0
176
     1
 90
        0
176
     1
290
     0
176
     1
290
     1
176
     1
290
     1
176
     1
290
     0
176
     1
290
     0
176
     1
290
     0
176
     1
290
     0
176
     1
290
     0
176
     1
290
     0
176
     1
 90
       50
176
     1
 40
0.0
176
     1
 40
1.0
176
     1
 90
        0
176
     1
 62
    18
420
        0
176
     1
 90
       50
176
     1
 90
        3
176
     1
 62
     5
420
      255
176
     1
290
     0
176
     1
 90
       50
176
     1
 90
       50
176
     1
 90
       50
176
     1
290
     0
176
     1
 90
       50
176
     1
 62
   256
176
     0
 40
1.0
176
     0
 90
        2
176
     1
  1
strokes_ogs.tif
176
     1
290
     0
176
     1
 40
1.0
176
     1
 40
1.0
176
     1
  0
VISUALSTYLE
  5
32
102
{ACAD_REACTORS
330
29
102
}
330
29
100
AcDbVisualStyle
  2
Conceptual
 70
     9
177
     3
291
     0
 70
    58
 90
        3
176
     1
 90
        2
176
     1
 90
        0
176
     1
 90
        0
176
     1
 40
0.6
176
     1
 40
30.0
176
     1
 62
     7
420
 16777215
176
     1
 90
        2
176
     1
 90
        2
176
     1
 62
     7
176
     1
 62
   257
176
     1
 90
        1
176
     1
 90
        1
176
     1
 40
179.0
176
     1
 90
        8
176
     1
 62
     7
176
     1
 40
1.0
176
     1
 90
        1
176
     1
 90
        6
176
     1
 90
        2
176
     1
 62
     7
176
     1
 90
        3
176
     1
 90
        0
176
     1
 90
        0
176
     1
290
     0
176
     1
 90
        1
176
     1
 40
0.0
176
     1
 90
        0
176
     1
290
     0
176
     1
290
     1
176
     1
290
     1
176
     1
290
     0
176
     1
290
     0
176
     1
290
     0
176
     1
290
     0
176
     1
290
     0
176
     1
290
     0
176
     1
 90
       50
176
     1
 40
0.0
176
     1
 40
1.0
176
     1
 90
        0
176
     1
 62
    18
420
        0
176
     1
 90
       50
176
     1
 90
        3
176
     1
 62
     5
420
      255
176
     1
290
     0
176
     1
 90
       50
176
     1
 90
       50
176
     1
 90
       50
176
     1
290
     0
176
     1
 90
       50
176
     1
 62
   256
176
     0
 40
1.0
176
     0
 90
        2
176
     1
  1
strokes_ogs.tif
176
     1
290
     0
176
     1
 40
1.0
176
     1
 40
1.0
176
     1
  0
VISUALSTYLE
  5
34
102
{ACAD_REACTORS
330
29
102
}
330
29
100
AcDbVisualStyle
  2
Dim
 70
    11
177
     3
291
     1
 70
    58
 90
        2
176
     1
 90
        2
176
     1
 90
        0
176
     1
 90
        0
176
     1
 40
0.6
176
     1
 40
30.0
176
     1
 62
     7
420
 16777215
176
     1
 90
        1
176
     1
 90
        4
176
     1
 62
     7
176
     1
 62
   257
176
     1
 90
        1
176
     1
 90
        1
176
     1
 40
1.0
176
     1
 90
        8
176
     1
 62
     7
176
     1
 40
1.0
176
     1
 90
        1
176
     1
 90
        6
176
     1
 90
        2
176
     1
 62
     7
176
     1
 90
        5
176
     1
 90
        0
176
     1
 90
        0
176
     1
290
     0
176
     1
 90
        1
176
     1
 40
-50.0
176
     1
 90
        0
176
     1
290
     0
176
     1
290
     1
176
     1
290
     1
176
     1
290
     0
176
     1
290
     0
176
     1
290
     0
176
     1
290
     0
176
     1
290
     0
176
     1
290
     0
176
     1
 90
       50
176
     1
 40
0.0
176
     1
 40
1.0
176
     1
 90
        0
176
     1
 62
    18
420
        0
176
     1
 90
       50
176
     1
 90
        3
176
     1
 62
     5
420
      255
176
     1
290
     0
176
     1
 90
       50
176
     1
 90
       50
176
     1
 90
       50
176
     1
290
     0
176
     1
 90
       50
176
     1
 62
   256
176
     0
 40
1.0
176
     0
 90
        2
176
     1
  1
strokes_ogs.tif
176
     1
290
     0
176
     1
 40
1.0
176
     1
 40
1.0
176
     1
  0
VISUALSTYLE
  5
41
102
{ACAD_REACTORS
330
29
102
}
330
29
100
AcDbVisualStyle
  2
EdgeColorOff
 70
    22
177
     3
291
     1
 70
    58
 90
        2
176
     0
 90
        2
176
     0
 90
        0
176
     0
 90
        0
176
     0
 40
0.6
176
     0
 40
30.0
176
     0
 62
     7
420
 16777215
176
     0
 90
        1
176
     0
 90
        4
176
     0
 62
     7
176
     0
 62
   257
176
     0
 90
        1
176
     0
 90
        1
176
     0
 40
1.0
176
     0
 90
        8
176
     2
 62
     7
176
     0
 40
1.0
176
     0
 90
        1
176
     0
 90
        6
176
     0
 90
        2
176
     0
 62
     7
176
     0
 90
        5
176
     0
 90
        0
176
     0
 90
        0
176
     0
290
     0
176
     0
 90
        1
176
     0
 40
0.0
176
     0
 90
        0
176
     0
290
     0
176
     0
290
     1
176
     0
290
     1
176
     0
290
     0
176
     0
290
     0
176
     0
290
     0
176
     0
290
     0
176
     0
290
     0
176
     0
290
     0
176
     0
 90
       50
176
     0
 40
0.0
176
     0
 40
1.0
176
     0
 90
        0
176
     0
 62
    18
420
        0
176
     0
 90
       50
176
     0
 90
        3
176
     0
 62
     5
420
      255
176
     0
290
     0
176
     0
 90
       50
176
     0
 90
       50
176
     0
 90
       50
176
     0
290
     0
176
     0
 90
       50
176
     0
 62
   256
176
     0
 40
1.0
176
     0
 90
        2
176
     0
  1
strokes_ogs.tif
176
     0
290
     0
176
     0
 40
1.0
176
     0
 40
1.0
176
     0
  0
VISUALSTYLE
  5
38
102
{ACAD_REACTORS
330
29
102
}
330
29
100
AcDbVisualStyle
  2
Facepattern
 70
    15
177
     3
291
     1
 70
    58
 90
        2
176
     1
 90
        2
176
     1
 90
        0
176
     1
 90
        0
176
     1
 40
0.6
176
     1
 40
30.0
176
     1
 62
     7
420
 16777215
176
     1
 90
        1
176
     1
 90
        4
176
     1
 62
     7
176
     1
 62
   257
176
     1
 90
        1
176
     1
 90
        1
176
     1
 40
1.0
176
     1
 90
        8
176
     1
 62
     7
176
     1
 40
1.0
176
     1
 90
        1
176
     1
 90
        6
176
     1
 90
        2
176
     1
 62
     7
176
     1
 90
        5
176
     1
 90
        0
176
     1
 90
        0
176
     1
290
     0
176
     1
 90
        1
176
     1
 40
0.0
176
     1
 90
        0
176
     1
290
     0
176
     1
290
     1
176
     1
290
     1
176
     1
290
     0
176
     1
290
     0
176
     1
290
     0
176
     1
290
     0
176
     1
290
     0
176
     1
290
     0
176
     1
 90
       50
176
     1
 40
0.0
176
     1
 40
1.0
176
     1
 90
        0
176
     1
 62
    18
420
        0
176
     1
 90
       50
176
     1
 90
        3
176
     1
 62
     5
420
      255
176
     1
290
     0
176
     1
 90
       50
176
     1
 90
       50
176
     1
 90
       50
176
     1
290
     0
176
     1
 90
       50
176
     1
 62
   256
176
     0
 40
1.0
176
     0
 90
        2
176
     1
  1
strokes_ogs.tif
176
     1
290
     0
176
     1
 40
1.0
176
     1
 40
1.0
176
     1
  0
VISUALSTYLE
  5
2A
102
{ACAD_REACTORS
330
29
102
}
330
29
100
AcDbVisualStyle
  2
Flat
 70
     0
177
     3
291
     1
 70
    58
 90
        2
176
     1
 90
        1
176
     1
 90
        1
176
     1
 90
        2
176
     1
 40
0.6
176
     1
 40
30.0
176
     1
 62
     7
420
 16777215
176
     1
 90
        0
176
     1
 90
        0
176
     1
 62
     7
176
     1
 62
   257
176
     1
 90
        1
176
     1
 90
        1
176
     1
 40
1.0
176
     1
 90
        8
176
     1
 62
     7
176
     1
 40
1.0
176
     1
 90
        1
176
     1
 90
        6
176
     1
 90
        2
176
     1
 62
     7
176
     1
 90
        5
176
     1
 90
        0
176
     1
 90
        0
176
     1
290
     0
176
     1
 90
       13
176
     1
 40
0.0
176
     1
 90
        0
176
     1
290
     0
176
     1
290
     1
176
     1
290
     1
176
     1
290
     0
176
     1
290
     0
176
     1
290
     0
176
     1
290
     0
176
     1
290
     0
176
     1
290
     0
176
     1
 90
       50
176
     1
 40
0.0
176
     1
 40
1.0
176
     1
 90
        0
176
     1
 62
    18
420
        0
176
     1
 90
       50
176
     1
 90
        3
176
     1
 62
     5
420
      255
176
     1
290
     0
176
     1
 90
       50
176
     1
 90
       50
176
     1
 90
       50
176
     1
290
     0
176
     1
 90
       50
176
     1
 62
   256
176
     0
 40
1.0
176
     0
 90
        2
176
     1
  1
strokes_ogs.tif
176
     1
290
     0
176
     1
 40
1.0
176
     1
 40
1.0
176
     1
  0
VISUALSTYLE
  5
2B
102
{ACAD_REACTORS
330
29
102
}
330
29
100
AcDbVisualStyle
  2
FlatWithEdges
 70
     1
177
     3
291
     1
 70
    58
 90
        2
176
     1
 90
        1
176
     1
 90
        1
176
     1
 90
        2
176
     1
 40
0.6
176
     1
 40
30.0
176
     1
 62
     7
420
 16777215
176
     1
 90
        1
176
     1
 90
        0
176
     1
 62
     7
176
     1
 62
   257
176
     1
 90
        1
176
     1
 90
        1
176
     1
 40
1.0
176
     1
 90
        0
176
     1
 62
   257
176
     1
 40
1.0
176
     1
 90
        1
176
     1
 90
        6
176
     1
 90
        2
176
     1
 62
     7
176
     1
 90
        5
176
     1
 90
        0
176
     1
 90
        0
176
     1
290
     0
176
     1
 90
       13
176
     1
 40
0.0
176
     1
 90
        0
176
     1
290
     0
176
     1
290
     1
176
     1
290
     1
176
     1
290
     0
176
     1
290
     0
176
     1
290
     0
176
     1
290
     0
176
     1
290
     0
176
     1
290
     0
176
     1
 90
       50
176
     1
 40
0.0
176
     1
 40
1.0
176
     1
 90
        0
176
     1
 62
    18
420
        0
176
     1
 90
       50
176
     1
 90
        3
176
     1
 62
     5
420
      255
176
     1
290
     0
176
     1
 90
       50
176
     1
 90
       50
176
     1
 90
       50
176
     1
290
     0
176
     1
 90
       50
176
     1
 62
   256
176
     0
 40
1.0
176
     0
 90
        2
176
     1
  1
strokes_ogs.tif
176
     1
290
     0
176
     1
 40
1.0
176
     1
 40
1.0
176
     1
  0
VISUALSTYLE
  5
2C
102
{ACAD_REACTORS
330
29
102
}
330
29
100
AcDbVisualStyle
  2
Gouraud
 70
     2
177
     3
291
     1
 70
    58
 90
        2
176
     1
 90
        2
176
     1
 90
        1
176
     1
 90
        2
176
     1
 40
0.6
176
     1
 40
30.0
176
     1
 62
     7
420
 16777215
176
     1
 90
        0
176
     1
 90
        0
176
     1
 62
     7
176
     1
 62
   257
176
     1
 90
        1
176
     1
 90
        1
176
     1
 40
1.0
176
     1
 90
        0
176
     1
 62
     7
176
     1
 40
1.0
176
     1
 90
        1
176
     1
 90
        6
176
     1
 90
        2
176
     1
 62
     7
176
     1
 90
        5
176
     1
 90
        0
176
     1
 90
        0
176
     1
290
     0
176
     1
 90
       13
176
     1
 40
0.0
176
     1
 90
        0
176
     1
290
     0
176
     1
290
     1
176
     1
290
     1
176
     1
290
     0
176
     1
290
     0
176
     1
290
     0
176
     1
290
     0
176
     1
290
     0
176
     1
290
     0
176
     1
 90
       50
176
     1
 40
0.0
176
     1
 40
1.0
176
     1
 90
        0
176
     1
 62
    18
420
        0
176
     1
 90
       50
176
     1
 90
        3
176
     1
 62
     5
420
      255
176
     1
290
     0
176
     1
 90
       50
176
     1
 90
       50
176
     1
 90
       50
176
     1
290
     0
176
     1
 90
       50
176
     1
 62
   256
176
     0
 40
1.0
176
     0
 90
        2
176
     1
  1
strokes_ogs.tif
176
     1
290
     0
176
     1
 40
1.0
176
     1
 40
1.0
176
     1
  0
VISUALSTYLE
  5
2D
102
{ACAD_REACTORS
330
29
102
}
330
29
100
AcDbVisualStyle
  2
GouraudWithEdges
 70
     3
177
     3
291
     1
 70
    58
 90
        2
176
     1
 90
        2
176
     1
 90
        1
176
     1
 90
        2
176
     1
 40
0.6
176
     1
 40
30.0
176
     1
 62
     7
420
 16777215
176
     1
 90
        1
176
     1
 90
        0
176
     1
 62
     7
176
     1
 62
   257
176
     1
 90
        1
176
     1
 90
        1
176
     1
 40
1.0
176
     1
 90
        0
176
     1
 62
   257
176
     1
 40
1.0
176
     1
 90
        1
176
     1
 90
        6
176
     1
 90
        2
176
     1
 62
     7
176
     1
 90
        5
176
     1
 90
        0
176
     1
 90
        0
176
     1
290
     0
176
     1
 90
       13
176
     1
 40
0.0
176
     1
 90
        0
176
     1
290
     0
176
     1
290
     1
176
     1
290
     1
176
     1
290
     0
176
     1
290
     0
176
     1
290
     0
176
     1
290
     0
176
     1
290
     0
176
     1
290
     0
176
     1
 90
       50
176
     1
 40
0.0
176
     1
 40
1.0
176
     1
 90
        0
176
     1
 62
    18
420
        0
176
     1
 90
       50
176
     1
 90
        3
176
     1
 62
     5
420
      255
176
     1
290
     0
176
     1
 90
       50
176
     1
 90
       50
176
     1
 90
       50
176
     1
290
     0
176
     1
 90
       50
176
     1
 62
   256
176
     0
 40
1.0
176
     0
 90
        2
176
     1
  1
strokes_ogs.tif
176
     1
290
     0
176
     1
 40
1.0
176
     1
 40
1.0
176
     1
  0
VISUALSTYLE
  5
31
102
{ACAD_REACTORS
330
29
102
}
330
29
100
AcDbVisualStyle
  2
Hidden
 70
     6
177
     3
291
     0
 70
    58
 90
        1
176
     1
 90
        2
176
     1
 90
        2
176
     1
 90
        0
176
     1
 40
0.6
176
     1
 40
30.0
176
     1
 62
     7
420
 16777215
176
     1
 90
        2
176
     1
 90
        2
176
     1
 62
     7
176
     1
 62
   257
176
     1
 90
        2
176
     1
 90
        1
176
     1
 40
40.0
176
     1
 90
        0
176
     1
 62
   257
176
     1
 40
1.0
176
     1
 90
        1
176
     1
 90
        6
176
     1
 90
        2
176
     1
 62
     7
176
     1
 90
        3
176
     1
 90
        0
176
     1
 90
        0
176
     1
290
     0
176
     1
 90
        1
176
     1
 40
0.0
176
     1
 90
        0
176
     1
290
     0
176
     1
290
     1
176
     1
290
     1
176
     1
290
     0
176
     1
290
     0
176
     1
290
     0
176
     1
290
     0
176
     1
290
     0
176
     1
290
     0
176
     1
 90
       50
176
     1
 40
0.0
176
     1
 40
1.0
176
     1
 90
        0
176
     1
 62
    18
420
        0
176
     1
 90
       50
176
     1
 90
        3
176
     1
 62
     5
420
      255
176
     1
290
     0
176
     1
 90
       50
176
     1
 90
       50
176
     1
 90
       50
176
     1
290
     0
176
     1
 90
       50
176
     1
 62
   256
176
     0
 40
1.0
176
     0
 90
        2
176
     1
  1
strokes_ogs.tif
176
     1
290
     0
176
     1
 40
1.0
176
     1
 40
1.0
176
     1
  0
VISUALSTYLE
  5
3F
102
{ACAD_REACTORS
330
29
102
}
330
29
100
AcDbVisualStyle
  2
JitterOff
 70
    20
177
     3
291
     1
 70
    58
 90
        2
176
     0
 90
        2
176
     0
 90
        0
176
     0
 90
        0
176
     0
 40
0.6
176
     0
 40
30.0
176
     0
 62
     7
420
 16777215
176
     0
 90
        1
176
     0
 90
        4
176
     0
 62
     7
176
     0
 62
   257
176
     0
 90
        1
176
     0
 90
        1
176
     0
 40
1.0
176
     0
 90
       10
176
     2
 62
     7
176
     0
 40
1.0
176
     0
 90
        1
176
     0
 90
        6
176
     0
 90
        2
176
     0
 62
     7
176
     0
 90
        5
176
     0
 90
        0
176
     0
 90
        0
176
     0
290
     0
176
     0
 90
        1
176
     0
 40
0.0
176
     0
 90
        0
176
     0
290
     0
176
     0
290
     1
176
     0
290
     1
176
     0
290
     0
176
     0
290
     0
176
     0
290
     0
176
     0
290
     0
176
     0
290
     0
176
     0
290
     0
176
     0
 90
       50
176
     0
 40
0.0
176
     0
 40
1.0
176
     0
 90
        0
176
     0
 62
    18
420
        0
176
     0
 90
       50
176
     0
 90
        3
176
     0
 62
     5
420
      255
176
     0
290
     0
176
     0
 90
       50
176
     0
 90
       50
176
     0
 90
       50
176
     0
290
     0
176
     0
 90
       50
176
     0
 62
   256
176
     0
 40
1.0
176
     0
 90
        2
176
     0
  1
strokes_ogs.tif
176
     0
290
     0
176
     0
 40
1.0
176
     0
 40
1.0
176
     0
  0
VISUALSTYLE
  5
37
102
{ACAD_REACTORS
330
29
102
}
330
29
100
AcDbVisualStyle
  2
Linepattern
 70
    14
177
     3
291
     1
 70
    58
 90
        2
176
     1
 90
        2
176
     1
 90
        0
176
     1
 90
        0
176
     1
 40
0.6
176
     1
 40
30.0
176
     1
 62
     7
420
 16777215
176
     1
 90
        1
176
     1
 90
        4
176
     1
 62
     7
176
     1
 62
   257
176
     1
 90
        7
176
     1
 90
        7
176
     1
 40
1.0
176
     1
 90
        8
176
     1
 62
     7
176
     1
 40
1.0
176
     1
 90
        1
176
     1
 90
        6
176
     1
 90
        2
176
     1
 62
     7
176
     1
 90
        5
176
     1
 90
        0
176
     1
 90
        0
176
     1
290
     0
176
     1
 90
        1
176
     1
 40
0.0
176
     1
 90
        0
176
     1
290
     0
176
     1
290
     1
176
     1
290
     1
176
     1
290
     0
176
     1
290
     0
176
     1
290
     0
176
     1
290
     0
176
     1
290
     0
176
     1
290
     0
176
     1
 90
       50
176
     1
 40
0.0
176
     1
 40
1.0
176
     1
 90
        0
176
     1
 62
    18
420
        0
176
     1
 90
       50
176
     1
 90
        3
176
     1
 62
     5
420
      255
176
     1
290
     0
176
     1
 90
       50
176
     1
 90
       50
176
     1
 90
       50
176
     1
290
     0
176
     1
 90
       50
176
     1
 62
   256
176
     0
 40
1.0
176
     0
 90
        2
176
     1
  1
strokes_ogs.tif
176
     1
290
     0
176
     1
 40
1.0
176
     1
 40
1.0
176
     1
  0
VISUALSTYLE
  5
40
102
{ACAD_REACTORS
330
29
102
}
330
29
100
AcDbVisualStyle
  2
OverhangOff
 70
    21
177
     3
291
     1
 70
    58
 90
        2
176
     0
 90
        2
176
     0
 90
        0
176
     0
 90
        0
176
     0
 40
0.6
176
     0
 40
30.0
176
     0
 62
     7
420
 16777215
176
     0
 90
        1
176
     0
 90
        4
176
     0
 62
     7
176
     0
 62
   257
176
     0
 90
        1
176
     0
 90
        1
176
     0
 40
1.0
176
     0
 90
        9
176
     2
 62
     7
176
     0
 40
1.0
176
     0
 90
        1
176
     0
 90
        6
176
     0
 90
        2
176
     0
 62
     7
176
     0
 90
        5
176
     0
 90
        0
176
     0
 90
        0
176
     0
290
     0
176
     0
 90
        1
176
     0
 40
0.0
176
     0
 90
        0
176
     0
290
     0
176
     0
290
     1
176
     0
290
     1
176
     0
290
     0
176
     0
290
     0
176
     0
290
     0
176
     0
290
     0
176
     0
290
     0
176
     0
290
     0
176
     0
 90
       50
176
     0
 40
0.0
176
     0
 40
1.0
176
     0
 90
        0
176
     0
 62
    18
420
        0
176
     0
 90
       50
176
     0
 90
        3
176
     0
 62
     5
420
      255
176
     0
290
     0
176
     0
 90
       50
176
     0
 90
       50
176
     0
 90
       50
176
     0
290
     0
176
     0
 90
       50
176
     0
 62
   256
176
     0
 40
1.0
176
     0
 90
        2
176
     0
  1
strokes_ogs.tif
176
     0
290
     0
176
     0
 40
1.0
176
     0
 40
1.0
176
     0
  0
VISUALSTYLE
  5
33
102
{ACAD_REACTORS
330
29
102
}
330
29
100
AcDbVisualStyle
  2
Realistic
 70
     8
177
     3
291
     0
 70
    58
 90
        2
176
     1
 90
        3
176
     1
 90
        0
176
     1
 90
        2
176
     1
 40
0.6
176
     1
 40
30.0
176
     1
 62
     7
420
 16777215
176
     1
 90
        0
176
     1
 90
        0
176
     1
 62
     7
176
     1
 62
   257
176
     1
 90
        1
176
     1
 90
        1
176
     1
 40
1.0
176
     1
 90
        8
176
     1
 62
   257
176
     1
 40
1.0
176
     1
 90
        1
176
     1
 90
        6
176
     1
 90
        2
176
     1
 62
     7
176
     1
 90
        3
176
     1
 90
        0
176
     1
 90
        0
176
     1
290
     0
176
     1
 90
       13
176
     1
 40
0.0
176
     1
 90
        0
176
     1
290
     0
176
     1
290
     1
176
     1
290
     1
176
     1
290
     0
176
     1
290
     0
176
     1
290
     0
176
     1
290
     0
176
     1
290
     0
176
     1
290
     0
176
     1
 90
       50
176
     1
 40
0.0
176
     1
 40
1.0
176
     1
 90
        0
176
     1
 62
    18
420
        0
176
     1
 90
       50
176
     1
 90
        3
176
     1
 62
     5
420
      255
176
     1
290
     0
176
     1
 90
       50
176
     1
 90
       50
176
     1
 90
       50
176
     1
290
     0
176
     1
 90
       50
176
     1
 62
   256
176
     0
 40
1.0
176
     0
 90
        2
176
     1
  1
strokes_ogs.tif
176
     1
290
     0
176
     1
 40
1.0
176
     1
 40
1.0
176
     1
  0
VISUALSTYLE
  5
3E
102
{ACAD_REACTORS
330
29
102
}
330
29
100
AcDbVisualStyle
  2
Shaded
 70
    27
177
     3
291
     0
 70
    58
 90
        2
176
     1
 90
        2
176
     1
 90
        1
176
     1
 90
        2
176
     1
 40
0.6
176
     1
 40
30.0
176
     1
 62
     7
420
 16777215
176
     1
 90
        0
176
     1
 90
        4
176
     1
 62
     7
176
     1
 62
   257
176
     1
 90
        1
176
     1
 90
        1
176
     1
 40
1.0
176
     1
 90
        8
176
     1
 62
   257
176
     1
 40
1.0
176
     1
 90
        1
176
     1
 90
        6
176
     1
 90
        2
176
     1
 62
     8
420
  7895160
176
     1
 90
        3
176
     1
 90
        0
176
     1
 90
        0
176
     1
290
     0
176
     1
 90
        5
176
     1
 40
0.0
176
     1
 90
        0
176
     1
290
     0
176
     1
290
     1
176
     1
290
     1
176
     1
290
     0
176
     1
290
     0
176
     1
290
     0
176
     1
290
     0
176
     1
290
     0
176
     1
290
     0
176
     1
 90
       50
176
     1
 40
0.0
176
     1
 40
1.0
176
     1
 90
        0
176
     1
 62
    18
420
        0
176
     1
 90
       50
176
     1
 90
        3
176
     1
 62
     5
420
      255
176
     1
290
     0
176
     1
 90
       50
176
     1
 90
       50
176
     1
 90
       50
176
     1
290
     0
176
     1
 90
       50
176
     1
 62
   256
176
     0
 40
1.0
176
     0
 90
        2
176
     1
  1
strokes_ogs.tif
176
     1
290
     0
176
     1
 40
1.0
176
     1
 40
1.0
176
     1
  0
VISUALSTYLE
  5
3D
102
{ACAD_REACTORS
330
29
102
}
330
29
100
AcDbVisualStyle
  2
Shaded with edges
 70
    26
177
     3
291
     0
 70
    58
 90
        2
176
     1
 90
        2
176
     1
 90
        1
176
     1
 90
        2
176
     1
 40
0.6
176
     1
 40
30.0
176
     1
 62
     7
420
 16777215
176
     1
 90
        1
176
     1
 90
       10
176
     1
 62
     7
176
     1
 62
   257
176
     1
 90
        2
176
     1
 90
        1
176
     1
 40
1.0
176
     1
 90
        8
176
     1
 62
   257
176
     1
 40
1.0
176
     1
 90
        1
176
     1
 90
        6
176
     1
 90
        2
176
     1
 62
     7
176
     1
 90
        3
176
     1
 90
        0
176
     1
 90
        0
176
     1
290
     0
176
     1
 90
        5
176
     1
 40
0.0
176
     1
 90
        0
176
     1
290
     0
176
     1
290
     1
176
     1
290
     1
176
     1
290
     0
176
     1
290
     0
176
     1
290
     0
176
     1
290
     0
176
     1
290
     0
176
     1
290
     0
176
     1
 90
       50
176
     1
 40
0.0
176
     1
 40
1.0
176
     1
 90
        0
176
     1
 62
    18
420
        0
176
     1
 90
       50
176
     1
 90
        3
176
     1
 62
     5
420
      255
176
     1
290
     0
176
     1
 90
       50
176
     1
 90
       50
176
     1
 90
       50
176
     1
290
     0
176
     1
 90
       50
176
     1
 62
   256
176
     0
 40
1.0
176
     0
 90
        2
176
     1
  1
strokes_ogs.tif
176
     1
290
     0
176
     1
 40
1.0
176
     1
 40
1.0
176
     1
  0
VISUALSTYLE
  5
3A
102
{ACAD_REACTORS
330
29
102
}
330
29
100
AcDbVisualStyle
  2
Shades of Gray
 70
    23
177
     3
291
     0
 70
    58
 90
        2
176
     1
 90
        2
176
     1
 90
        3
176
     1
 90
        0
176
     1
 40
0.6
176
     1
 40
30.0
176
     1
 62
     7
420
 16777215
176
     1
 90
        2
176
     1
 90
        2
176
     1
 62
     7
176
     1
 62
     7
176
     1
 90
        1
176
     1
 90
        1
176
     1
 40
40.0
176
     1
 90
        8
176
     1
 62
     7
176
     1
 40
1.0
176
     1
 90
        1
176
     1
 90
        6
176
     1
 90
        2
176
     1
 62
     7
176
     1
 90
        3
176
     1
 90
        0
176
     1
 90
        0
176
     1
290
     0
176
     1
 90
        1
176
     1
 40
0.0
176
     1
 90
        0
176
     1
290
     0
176
     1
290
     1
176
     1
290
     1
176
     1
290
     0
176
     1
290
     0
176
     1
290
     0
176
     1
290
     0
176
     1
290
     0
176
     1
290
     0
176
     1
 90
       50
176
     1
 40
0.0
176
     1
 40
1.0
176
     1
 90
        0
176
     1
 62
    18
420
        0
176
     1
 90
       50
176
     1
 90
        3
176
     1
 62
     5
420
      255
176
     1
290
     0
176
     1
 90
       50
176
     1
 90
       50
176
     1
 90
       50
176
     1
290
     0
176
     1
 90
       50
176
     1
 62
   256
176
     0
 40
1.0
176
     0
 90
        2
176
     1
  1
strokes_ogs.tif
176
     1
290
     0
176
     1
 40
1.0
176
     1
 40
1.0
176
     1
  0
VISUALSTYLE
  5
3B
102
{ACAD_REACTORS
330
29
102
}
330
29
100
AcDbVisualStyle
  2
Sketchy
 70
    24
177
     3
291
     0
 70
    58
 90
        1
176
     1
 90
        2
176
     1
 90
        2
176
     1
 90
        0
176
     1
 40
0.6
176
     1
 40
30.0
176
     1
 62
     7
420
 16777215
176
     1
 90
        2
176
     1
 90
        2
176
     1
 62
     7
176
     1
 62
     7
176
     1
 90
        1
176
     1
 90
        1
176
     1
 40
40.0
176
     1
 90
       11
176
     1
 62
     7
176
     1
 40
1.0
176
     1
 90
        1
176
     1
 90
        6
176
     1
 90
        2
176
     1
 62
     7
176
     1
 90
        6
176
     1
 90
        0
176
     1
 90
        0
176
     1
290
     0
176
     1
 90
        1
176
     1
 40
0.0
176
     1
 90
        0
176
     1
290
     0
176
     1
290
     1
176
     1
290
     1
176
     1
290
     0
176
     1
290
     0
176
     1
290
     0
176
     1
290
     0
176
     1
290
     0
176
     1
290
     0
176
     1
 90
       50
176
     1
 40
0.0
176
     1
 40
1.0
176
     1
 90
        0
176
     1
 62
    18
420
        0
176
     1
 90
       50
176
     1
 90
        3
176
     1
 62
     5
420
      255
176
     1
290
     0
176
     1
 90
       50
176
     1
 90
       50
176
     1
 90
       50
176
     1
290
     0
176
     1
 90
       50
176
     1
 62
   256
176
     0
 40
1.0
176
     0
 90
        2
176
     1
  1
strokes_ogs.tif
176
     1
290
     0
176
     1
 40
1.0
176
     1
 40
1.0
176
     1
  0
VISUALSTYLE
  5
36
102
{ACAD_REACTORS
330
29
102
}
330
29
100
AcDbVisualStyle
  2
Thicken
 70
    13
177
     3
291
     1
 70
    58
 90
        2
176
     1
 90
        2
176
     1
 90
        0
176
     1
 90
        0
176
     1
 40
0.6
176
     1
 40
30.0
176
     1
 62
     7
420
 16777215
176
     1
 90
        1
176
     1
 90
        4
176
     1
 62
     7
176
     1
 62
   257
176
     1
 90
        1
176
     1
 90
        1
176
     1
 40
1.0
176
     1
 90
       12
176
     1
 62
     7
176
     1
 40
1.0
176
     1
 90
        1
176
     1
 90
        6
176
     1
 90
        2
176
     1
 62
     7
176
     1
 90
        5
176
     1
 90
        0
176
     1
 90
        0
176
     1
290
     0
176
     1
 90
        1
176
     1
 40
0.0
176
     1
 90
        0
176
     1
290
     0
176
     1
290
     1
176
     1
290
     1
176
     1
290
     0
176
     1
290
     0
176
     1
290
     0
176
     1
290
     0
176
     1
290
     0
176
     1
290
     0
176
     1
 90
       50
176
     1
 40
0.0
176
     1
 40
1.0
176
     1
 90
        0
176
     1
 62
    18
420
        0
176
     1
 90
       50
176
     1
 90
        3
176
     1
 62
     5
420
      255
176
     1
290
     0
176
     1
 90
       50
176
     1
 90
       50
176
     1
 90
       50
176
     1
290
     0
176
     1
 90
       50
176
     1
 62
   256
176
     0
 40
1.0
176
     0
 90
        2
176
     1
  1
strokes_ogs.tif
176
     1
290
     0
176
     1
 40
1.0
176
     1
 40
1.0
176
     1
  0
VISUALSTYLE
  5
30
102
{ACAD_REACTORS
330
29
102
}
330
29
100
AcDbVisualStyle
  2
Wireframe
 70
     5
177
     3
291
     0
 70
    58
 90
        0
176
     1
 90
        2
176
     1
 90
        0
176
     1
 90
        0
176
     1
 40
0.6
176
     1
 40
30.0
176
     1
 62
     7
420
 16777215
176
     1
 90
        1
176
     1
 90
        4
176
     1
 62
     7
176
     1
 62
   257
176
     1
 90
        1
176
     1
 90
        1
176
     1
 40
1.0
176
     1
 90
        0
176
     1
 62
   257
176
     1
 40
1.0
176
     1
 90
        1
176
     1
 90
        6
176
     1
 90
        2
176
     1
 62
     7
176
     1
 90
        3
176
     1
 90
        0
176
     1
 90
        0
176
     1
290
     0
176
     1
 90
        1
176
     1
 40
0.0
176
     1
 90
        0
176
     1
290
     0
176
     1
290
     1
176
     1
290
     1
176
     1
290
     0
176
     1
290
     0
176
     1
290
     0
176
     1
290
     0
176
     1
290
     0
176
     1
290
     0
176
     1
 90
       50
176
     1
 40
0.0
176
     1
 40
1.0
176
     1
 90
        0
176
     1
 62
    18
420
        0
176
     1
 90
       50
176
     1
 90
        3
176
     1
 62
     5
420
      255
176
     1
290
     0
176
     1
 90
       50
176
     1
 90
       50
176
     1
 90
       50
176
     1
290
     0
176
     1
 90
       50
176
     1
 62
   256
176
     0
 40
1.0
176
     0
 90
        2
176
     1
  1
strokes_ogs.tif
176
     1
290
     0
176
     1
 40
1.0
176
     1
 40
1.0
176
     1
  0
VISUALSTYLE
  5
3C
102
{ACAD_REACTORS
330
29
102
}
330
29
100
AcDbVisualStyle
  2
X-Ray
 70
    25
177
     3
291
     0
 70
    58
 90
        2
176
     1
 90
        2
176
     1
 90
        1
176
     1
 90
        1
176
     1
 40
0.5
176
     1
 40
30.0
176
     1
 62
     7
420
 16777215
176
     1
 90
        1
176
     1
 90
        0
176
     1
 62
     7
176
     1
 62
   257
176
     1
 90
        1
176
     1
 90
        1
176
     1
 40
1.0
176
     1
 90
        8
176
     1
 62
     7
176
     1
 40
1.0
176
     1
 90
        1
176
     1
 90
        6
176
     1
 90
        2
176
     1
 62
     7
176
     1
 90
        3
176
     1
 90
        0
176
     1
 90
        0
176
     1
290
     0
176
     1
 90
       13
176
     1
 40
0.0
176
     1
 90
        0
176
     1
290
     0
176
     1
290
     1
176
     1
290
     1
176
     1
290
     0
176
     1
290
     0
176
     1
290
     0
176
     1
290
     0
176
     1
290
     0
176
     1
290
     0
176
     1
 90
       50
176
     1
 40
0.0
176
     1
 40
1.0
176
     1
 90
        0
176
     1
 62
    18
420
        0
176
     1
 90
       50
176
     1
 90
        3
176
     1
 62
     5
420
      255
176
     1
290
     0
176
     1
 90
       50
176
     1
 90
       50
176
     1
 90
       50
176
     1
290
     0
176
     1
 90
       50
176
     1
 62
   256
176
     0
 40
1.0
176
     0
 90
        2
176
     1
  1
strokes_ogs.tif
176
     1
290
     0
176
     1
 40
1.0
176
     1
 40
1.0
176
     1
  0
DICTIONARYVAR
  5
128
102
{ACAD_REACTORS
330
123
102
}
330
123
100
DictionaryVariables
280
     0
  1
1:1
  0
DICTIONARYVAR
  5
125
102
{ACAD_REACTORS
330
123
102
}
330
123
100
DictionaryVariables
280
     0
  1
STANDARD
  0
DICTIONARYVAR
  5
124
102
{ACAD_REACTORS
330
123
102
}
330
123
100
DictionaryVariables
280
     0
  1
STANDARD
  0
DICTIONARYVAR
  5
126
102
{ACAD_REACTORS
330
123
102
}
330
123
100
DictionaryVariables
280
     0
  1
Imperial24
  0
DICTIONARYVAR
  5
127
102
{ACAD_REACTORS
330
123
102
}
330
123
100
DictionaryVariables
280
     0
  1
Imperial24
  0
XRECORD
  5
11A
102
{ACAD_REACTORS
330
117
102
}
330
117
100
AcDbXrecord
280
     1
  1
BUILDING_ID
  1
Valve_Trim-DXV-Fitzgerald-D35160537_Series
  1
FLOOR_ID
  1
1884
  0
XRECORD
  5
118
102
{ACAD_REACTORS
330
117
102
}
330
117
100
AcDbXrecord
280
     1
  1
-2000051
  1
Lines
  1
-2001160
  1
Plumbing Fixtures
  1
-2007000
  1
Connector Element
  0
XRECORD
  5
119
102
{ACAD_REACTORS
330
117
102
}
330
117
100
AcDbXrecord
280
     1
  1
-2000287
  1
<Beyond>
  0
DICTIONARY
  5
120
330
6B
100
AcDbDictionary
280
     1
281
     1
  3
ACAD_XREC_ROUNDTRIP
360
AAF
  0
DICTIONARY
  5
1A
330
19
100
AcDbDictionary
280
     1
281
     1
  3
BUMPTILE
360
1C
  3
DIFFUSETILE
360
1B
  3
OPACITYTILE
360
1F
  3
REFLECTIONTILE
360
1E
  3
REFRACTIONTILE
360
20
  3
SPECULARTILE
360
1D
  0
DICTIONARY
  5
12
330
11
100
AcDbDictionary
280
     1
281
     1
  3
BUMPTILE
360
14
  3
DIFFUSETILE
360
13
  3
OPACITYTILE
360
17
  3
REFLECTIONTILE
360
16
  3
REFRACTIONTILE
360
18
  3
SPECULARTILE
360
15
  0
DICTIONARY
  5
22
330
21
100
AcDbDictionary
280
     1
281
     1
  3
BUMPTILE
360
24
  3
DIFFUSETILE
360
23
  3
OPACITYTILE
360
27
  3
REFLECTIONTILE
360
26
  3
REFRACTIONTILE
360
28
  3
SPECULARTILE
360
25
  0
DICTIONARY
  5
11E
330
69
100
AcDbDictionary
280
     1
281
     1
  3
ACAD_XREC_ROUNDTRIP
360
AAE
  0
DICTIONARY
  5
AAC
330
65
100
AcDbDictionary
280
     1
281
     1
  3
ACAD_ROUNDTRIP_2008_TABLESTYLE_CELLSTYLEMAP
360
AAD
  0
XRECORD
  5
AAF
102
{ACAD_REACTORS
330
120
102
}
330
120
100
AcDbXrecord
280
     1
102
DISPLAYNAME
  1
Imperial24
102
FLAGS
 90
        0
  0
XRECORD
  5
1C
102
{ACAD_REACTORS
330
1A
102
}
330
1A
100
AcDbXrecord
280
     1
270
     1
271
     1
  0
XRECORD
  5
1B
102
{ACAD_REACTORS
330
1A
102
}
330
1A
100
AcDbXrecord
280
     1
270
     1
271
     1
  0
XRECORD
  5
1F
102
{ACAD_REACTORS
330
1A
102
}
330
1A
100
AcDbXrecord
280
     1
270
     1
271
     1
  0
XRECORD
  5
1E
102
{ACAD_REACTORS
330
1A
102
}
330
1A
100
AcDbXrecord
280
     1
270
     1
271
     1
  0
XRECORD
  5
20
102
{ACAD_REACTORS
330
1A
102
}
330
1A
100
AcDbXrecord
280
     1
270
     1
271
     1
  0
XRECORD
  5
1D
102
{ACAD_REACTORS
330
1A
102
}
330
1A
100
AcDbXrecord
280
     1
270
     1
271
     1
  0
XRECORD
  5
14
102
{ACAD_REACTORS
330
12
102
}
330
12
100
AcDbXrecord
280
     1
270
     1
271
     1
  0
XRECORD
  5
13
102
{ACAD_REACTORS
330
12
102
}
330
12
100
AcDbXrecord
280
     1
270
     1
271
     1
  0
XRECORD
  5
17
102
{ACAD_REACTORS
330
12
102
}
330
12
100
AcDbXrecord
280
     1
270
     1
271
     1
  0
XRECORD
  5
16
102
{ACAD_REACTORS
330
12
102
}
330
12
100
AcDbXrecord
280
     1
270
     1
271
     1
  0
XRECORD
  5
18
102
{ACAD_REACTORS
330
12
102
}
330
12
100
AcDbXrecord
280
     1
270
     1
271
     1
  0
XRECORD
  5
15
102
{ACAD_REACTORS
330
12
102
}
330
12
100
AcDbXrecord
280
     1
270
     1
271
     1
  0
XRECORD
  5
24
102
{ACAD_REACTORS
330
22
102
}
330
22
100
AcDbXrecord
280
     1
270
     1
271
     1
  0
XRECORD
  5
23
102
{ACAD_REACTORS
330
22
102
}
330
22
100
AcDbXrecord
280
     1
270
     1
271
     1
  0
XRECORD
  5
27
102
{ACAD_REACTORS
330
22
102
}
330
22
100
AcDbXrecord
280
     1
270
     1
271
     1
  0
XRECORD
  5
26
102
{ACAD_REACTORS
330
22
102
}
330
22
100
AcDbXrecord
280
     1
270
     1
271
     1
  0
XRECORD
  5
28
102
{ACAD_REACTORS
330
22
102
}
330
22
100
AcDbXrecord
280
     1
270
     1
271
     1
  0
XRECORD
  5
25
102
{ACAD_REACTORS
330
22
102
}
330
22
100
AcDbXrecord
280
     1
270
     1
271
     1
  0
XRECORD
  5
AAE
102
{ACAD_REACTORS
330
11E
102
}
330
11E
100
AcDbXrecord
280
     1
102
DISPLAYNAME
  1
Imperial24
102
FLAGS
 90
        0
  0
CELLSTYLEMAP
  5
AAD
102
{ACAD_REACTORS
330
AAC
102
}
330
AAC
100
AcDbCellStyleMap
 90
        3
300
CELLSTYLE
  1
TABLEFORMAT_BEGIN
 90
        5
170
     1
 91
        0
 92
    32768
 62
   257
 93
        1
300
CONTENTFORMAT
  1
CONTENTFORMAT_BEGIN
 90
        0
 91
        0
 92
      512
 93
        0
300

 40
0.0
140
1.0
 94
        5
 62
     0
340
55
144
0.25
309
CONTENTFORMAT_END
171
     0
 94
        0
309
TABLEFORMAT_END
  1
CELLSTYLE_BEGIN
 90
        1
 91
        1
300
_TITLE
309
CELLSTYLE_END
300
CELLSTYLE
  1
TABLEFORMAT_BEGIN
 90
        5
170
     1
 91
        0
 92
        0
 62
   257
 93
        1
300
CONTENTFORMAT
  1
CONTENTFORMAT_BEGIN
 90
        0
 91
        0
 92
      512
 93
        0
300

 40
0.0
140
1.0
 94
        5
 62
     0
340
55
144
0.18
309
CONTENTFORMAT_END
171
     0
 94
        0
309
TABLEFORMAT_END
  1
CELLSTYLE_BEGIN
 90
        2
 91
        1
300
_HEADER
309
CELLSTYLE_END
300
CELLSTYLE
  1
TABLEFORMAT_BEGIN
 90
        5
170
     1
 91
        0
 92
        0
 62
   257
 93
        1
300
CONTENTFORMAT
  1
CONTENTFORMAT_BEGIN
 90
        0
 91
        0
 92
      512
 93
        0
300

 40
0.0
140
1.0
 94
        2
 62
     0
340
55
144
0.18
309
CONTENTFORMAT_END
171
     0
 94
        0
309
TABLEFORMAT_END
  1
CELLSTYLE_BEGIN
 90
        3
 91
        2
300
_DATA
309
CELLSTYLE_END
  0
ENDSEC
  0
SECTION
  2
ACDSDATA
 70
     2
 71
     8
  0
ACDSSCHEMA
 90
        0
  1
AcDb_Thumbnail_Schema
  2
AcDbDs::ID
280
    10
 91
        8
  2
Thumbnail_Data
280
    15
 91
        0
101
ACDSRECORD
 95
        0
 90
        1
  2
AcDbDs::TreatedAsObjectData
280
     1
291
     1
101
ACDSRECORD
 95
        0
 90
        2
  2
AcDbDs::Legacy
280
     1
291
     1
101
ACDSRECORD
  1
AcDbDs::ID
 90
        3
  2
AcDs:Indexable
280
     1
291
     1
101
ACDSRECORD
  1
AcDbDs::ID
 90
        4
  2
AcDbDs::HandleAttribute
280
     7
282
     1
  0
ACDSSCHEMA
 90
        1
  1
AcDbDs::TreatedAsObjectDataSchema
  2
AcDbDs::TreatedAsObjectData
280
     1
 91
        0
  0
ACDSSCHEMA
 90
        2
  1
AcDbDs::LegacySchema
  2
AcDbDs::Legacy
280
     1
 91
        0
  0
ACDSSCHEMA
 90
        3
  1
AcDbDs::IndexedPropertySchema
  2
AcDs:Indexable
280
     1
 91
        0
  0
ACDSSCHEMA
 90
        4
  1
AcDbDs::HandleAttributeSchema
  2
AcDbDs::HandleAttribute
280
     7
 91
        1
284
     1
  0
ACDSRECORD
 90
        0
  2
AcDbDs::ID
280
    10
320
73
  2
Thumbnail_Data
280
    15
 94
     1454
310
89504E470D0A1A0A0000000D494844520000010000000084080300000048FA052E00000300504C5445212830000000C8C8C80000000000000000000000000000000000000000000000000000330000660000990000CC0000FF0033000033330033660033990033CC0033FF0066000066330066660066990066CC0066FF0099
310
000099330099660099990099CC0099FF00CC0000CC3300CC6600CC9900CCCC00CCFF00FF0000FF3300FF6600FF9900FFCC00FFFF3300003300333300663300993300CC3300FF3333003333333333663333993333CC3333FF3366003366333366663366993366CC3366FF3399003399333399663399993399CC3399FF33CC00
310
33CC3333CC6633CC9933CCCC33CCFF33FF0033FF3333FF6633FF9933FFCC33FFFF6600006600336600666600996600CC6600FF6633006633336633666633996633CC6633FF6666006666336666666666996666CC6666FF6699006699336699666699996699CC6699FF66CC0066CC3366CC6666CC9966CCCC66CCFF66FF0066
310
FF3366FF6666FF9966FFCC66FFFF9900009900339900669900999900CC9900FF9933009933339933669933999933CC9933FF9966009966339966669966999966CC9966FF9999009999339999669999999999CC9999FF99CC0099CC3399CC6699CC9999CCCC99CCFF99FF0099FF3399FF6699FF9999FFCC99FFFFCC0000CC00
310
33CC0066CC0099CC00CCCC00FFCC3300CC3333CC3366CC3399CC33CCCC33FFCC6600CC6633CC6666CC6699CC66CCCC66FFCC9900CC9933CC9966CC9999CC99CCCC99FFCCCC00CCCC33CCCC66CCCC99CCCCCCCCCCFFCCFF00CCFF33CCFF66CCFF99CCFFCCCCFFFFFF0000FF0033FF0066FF0099FF00CCFF00FFFF3300FF3333
310
FF3366FF3399FF33CCFF33FFFF6600FF6633FF6666FF6699FF66CCFF66FFFF9900FF9933FF9966FF9999FF99CCFF99FFFFCC00FFCC33FFCC66FFCC99FFCCCCFFCCFFFFFF00FFFF33FFFF66FFFF99FFFFCCFFFFFF0000000D0D0D1A1A1A2828283535354343435050505D5D5D6B6B6B787878868686939393A1A1A1AEAEAEBB
310
BBBBC9C9C9D6D6D6E4E4E4F1F1F1FFFFFF000000000000000000000000000000000000000000000000000000000000B21171F6000002694944415478DAED9D614FC3300C44F3FFFFEF7D47B026750608E254B0ABDF81049BD4A97E388DE36B686BE8AFA5EF549B41B52C981934151C0723E87718352F05CFBFD41B05D34F00
310
541D035547000000501EC023F4C2F1B79A45F0270295E33FBE1802D5FB02640042082184104208218410420821841042082184104208A157D235777619DF2577C5492BEC19524100D347D811D83F61FDF0FAEE0014AE028E0476476DDF2BF2F9850F006D2780D4334076D781C7B96FC63F7F7BA5C0C7C6DF9806CA00E81920
310
4F001AA5CC6A36F4F835B690DB11181990227002E8103D01C429611940D82E3406812F80B60CE048A1984E9600C2185804D09E32A0F9011855DCF292EE88355C032C01A413E00410B74D7966400F68B90C38FFF46346F50310024A01E8F387E6370DD7026900F150BB0CF83AA075004D950184F207000030062065014C2D31
310
6700E95940779805120D21FDEE4D000000000078D5B5407900BA0280731DB0E78BC425B04C01E4C781A6CEB8A25164052034B4922D31D9B7C4AE6A8ABA6640EDB6F85414E4000463C41B40D10C48FF6FF49B1823D11929698C9CE560DA19323746C2ED211823D9C590AF3132DDE78933842F0080DA00304694768731461A00
310
0000000000A0AA31E29C013843F91C88FD00B9F6039AE240C85582BD1528E70CC83C2FF1A927D86C8D91EBBAC2ADA83152D919BAC596998D21D082BFEEBA694A9335B278117CDA3627CF6D73A7A9B308E03CC879E3646CE62C9EFA34819E43A1990108F168F9F0E35278446F0860C7199A0AC1580ABA2E87D767309DDEA0E7
310
83377701C412C0F2C1A3DB0042DACB30FE0B008CB56093E37357F78C91781C4F1CFC77BD0190EEAB92F01F3D0C0000000049454E44AE426082
  0
ENDSEC
  0
EOF
