  0
SECTION
  2
HEADER
  9
$ACADVER
  1
AC1018
  9
$ACADMAINTVER
 70
     0
  9
$DWGCODEPAGE
  3
ANSI_1252
  9
$COMMENTS
  1
File was created by Deep Exporation
  9
$INSBASE
 10
0.0
 20
0.0
 30
0.0
  9
$EXTMIN
 10
1.000000000000000E+20
 20
1.000000000000000E+20
 30
1.000000000000000E+20
  9
$EXTMAX
 10
-1.000000000000000E+20
 20
-1.000000000000000E+20
 30
-1.000000000000000E+20
  9
$LIMMIN
 10
0.0
 20
0.0
  9
$LIMMAX
 10
12.0
 20
9.0
  9
$ORTHOMODE
 70
     0
  9
$REGENMODE
 70
     1
  9
$FILLMODE
 70
     1
  9
$QTEXTMODE
 70
     0
  9
$MIRRTEXT
 70
     1
  9
$LTSCALE
 40
1.0
  9
$ATTMODE
 70
     1
  9
$TEXTSIZE
 40
0.2
  9
$TRACEWID
 40
0.05
  9
$TEXTSTYLE
  7
Standard
  9
$CLAYER
  8
0
  9
$CELTYPE
  6
ByLayer
  9
$CECOLOR
 62
   256
  9
$CELTSCALE
 40
1.0
  9
$DISPSILH
 70
     0
  9
$DIMSCALE
 40
1.0
  9
$DIMASZ
 40
0.18
  9
$DIMEXO
 40
0.0625
  9
$DIMDLI
 40
0.38
  9
$DIMRND
 40
0.0
  9
$DIMDLE
 40
0.0
  9
$DIMEXE
 40
0.18
  9
$DIMTP
 40
0.0
  9
$DIMTM
 40
0.0
  9
$DIMTXT
 40
0.18
  9
$DIMCEN
 40
0.09
  9
$DIMTSZ
 40
0.0
  9
$DIMTOL
 70
     0
  9
$DIMLIM
 70
     0
  9
$DIMTIH
 70
     1
  9
$DIMTOH
 70
     1
  9
$DIMSE1
 70
     0
  9
$DIMSE2
 70
     0
  9
$DIMTAD
 70
     0
  9
$DIMZIN
 70
     0
  9
$DIMBLK
  1

  9
$DIMASO
 70
     1
  9
$DIMSHO
 70
     1
  9
$DIMPOST
  1

  9
$DIMAPOST
  1

  9
$DIMALT
 70
     0
  9
$DIMALTD
 70
     2
  9
$DIMALTF
 40
25.4
  9
$DIMLFAC
 40
1.0
  9
$DIMTOFL
 70
     0
  9
$DIMTVP
 40
0.0
  9
$DIMTIX
 70
     0
  9
$DIMSOXD
 70
     0
  9
$DIMSAH
 70
     0
  9
$DIMBLK1
  1

  9
$DIMBLK2
  1

  9
$DIMSTYLE
  2
Standard
  9
$DIMCLRD
 70
     0
  9
$DIMCLRE
 70
     0
  9
$DIMCLRT
 70
     0
  9
$DIMTFAC
 40
1.0
  9
$DIMGAP
 40
0.09
  9
$DIMJUST
 70
     0
  9
$DIMSD1
 70
     0
  9
$DIMSD2
 70
     0
  9
$DIMTOLJ
 70
     1
  9
$DIMTZIN
 70
     0
  9
$DIMALTZ
 70
     0
  9
$DIMALTTZ
 70
     0
  9
$DIMUPT
 70
     0
  9
$DIMDEC
 70
     4
  9
$DIMTDEC
 70
     4
  9
$DIMALTU
 70
     2
  9
$DIMALTTD
 70
     2
  9
$DIMTXSTY
  7
Standard
  9
$DIMAUNIT
 70
     0
  9
$DIMADEC
 70
     0
  9
$DIMALTRND
 40
0.0
  9
$DIMAZIN
 70
     0
  9
$DIMDSEP
 70
    46
  9
$DIMATFIT
 70
     3
  9
$DIMFRAC
 70
     0
  9
$DIMLDRBLK
  1

  9
$DIMLUNIT
 70
     2
  9
$DIMLWD
 70
    -2
  9
$DIMLWE
 70
    -2
  9
$DIMTMOVE
 70
     0
  9
$LUNITS
 70
     2
  9
$LUPREC
 70
     4
  9
$SKETCHINC
 40
0.1
  9
$FILLETRAD
 40
0.5
  9
$AUNITS
 70
     0
  9
$AUPREC
 70
     0
  9
$MENU
  1
.
  9
$ELEVATION
 40
0.0
  9
$PELEVATION
 40
0.0
  9
$THICKNESS
 40
0.0
  9
$LIMCHECK
 70
     0
  9
$CHAMFERA
 40
0.5
  9
$CHAMFERB
 40
0.5
  9
$CHAMFERC
 40
1.0
  9
$CHAMFERD
 40
0.0
  9
$SKPOLY
 70
     0
  9
$TDCREATE
 40
2455559.637505058
  9
$TDUCREATE
 40
2455559.408338391
  9
$TDUPDATE
 40
2455559.637505058
  9
$TDUUPDATE
 40
2455559.408338391
  9
$TDINDWG
 40
0.0000000116
  9
$TDUSRTIMER
 40
0.0000000116
  9
$USRTIMER
 70
     1
  9
$ANGBASE
 50
0.0
  9
$ANGDIR
 70
     0
  9
$PDMODE
 70
     0
  9
$PDSIZE
 40
0.0
  9
$PLINEWID
 40
0.0
  9
$SPLFRAME
 70
     0
  9
$SPLINETYPE
 70
     6
  9
$SPLINESEGS
 70
     8
  9
$HANDSEED
  5
264
  9
$SURFTAB1
 70
     6
  9
$SURFTAB2
 70
     6
  9
$SURFTYPE
 70
     6
  9
$SURFU
 70
     6
  9
$SURFV
 70
     6
  9
$UCSBASE
  2

  9
$UCSNAME
  2

  9
$UCSORG
 10
0.0
 20
0.0
 30
0.0
  9
$UCSXDIR
 10
1.0
 20
0.0
 30
0.0
  9
$UCSYDIR
 10
0.0
 20
1.0
 30
0.0
  9
$UCSORTHOREF
  2

  9
$UCSORTHOVIEW
 70
     0
  9
$UCSORGTOP
 10
0.0
 20
0.0
 30
0.0
  9
$UCSORGBOTTOM
 10
0.0
 20
0.0
 30
0.0
  9
$UCSORGLEFT
 10
0.0
 20
0.0
 30
0.0
  9
$UCSORGRIGHT
 10
0.0
 20
0.0
 30
0.0
  9
$UCSORGFRONT
 10
0.0
 20
0.0
 30
0.0
  9
$UCSORGBACK
 10
0.0
 20
0.0
 30
0.0
  9
$PUCSBASE
  2

  9
$PUCSNAME
  2

  9
$PUCSORG
 10
0.0
 20
0.0
 30
0.0
  9
$PUCSXDIR
 10
1.0
 20
0.0
 30
0.0
  9
$PUCSYDIR
 10
0.0
 20
1.0
 30
0.0
  9
$PUCSORTHOREF
  2

  9
$PUCSORTHOVIEW
 70
     0
  9
$PUCSORGTOP
 10
0.0
 20
0.0
 30
0.0
  9
$PUCSORGBOTTOM
 10
0.0
 20
0.0
 30
0.0
  9
$PUCSORGLEFT
 10
0.0
 20
0.0
 30
0.0
  9
$PUCSORGRIGHT
 10
0.0
 20
0.0
 30
0.0
  9
$PUCSORGFRONT
 10
0.0
 20
0.0
 30
0.0
  9
$PUCSORGBACK
 10
0.0
 20
0.0
 30
0.0
  9
$USERI1
 70
     0
  9
$USERI2
 70
     0
  9
$USERI3
 70
     0
  9
$USERI4
 70
     0
  9
$USERI5
 70
     0
  9
$USERR1
 40
0.0
  9
$USERR2
 40
0.0
  9
$USERR3
 40
0.0
  9
$USERR4
 40
0.0
  9
$USERR5
 40
0.0
  9
$WORLDVIEW
 70
     1
  9
$SHADEDGE
 70
     3
  9
$SHADEDIF
 70
    70
  9
$TILEMODE
 70
     1
  9
$MAXACTVP
 70
    64
  9
$PINSBASE
 10
0.0
 20
0.0
 30
0.0
  9
$PLIMCHECK
 70
     0
  9
$PEXTMIN
 10
1.000000000000000E+20
 20
1.000000000000000E+20
 30
1.000000000000000E+20
  9
$PEXTMAX
 10
-1.000000000000000E+20
 20
-1.000000000000000E+20
 30
-1.000000000000000E+20
  9
$PLIMMIN
 10
0.0
 20
0.0
  9
$PLIMMAX
 10
12.0
 20
9.0
  9
$UNITMODE
 70
     0
  9
$VISRETAIN
 70
     1
  9
$PLINEGEN
 70
     0
  9
$PSLTSCALE
 70
     1
  9
$TREEDEPTH
 70
  3020
  9
$CMLSTYLE
  2
Standard
  9
$CMLJUST
 70
     0
  9
$CMLSCALE
 40
1.0
  9
$PROXYGRAPHICS
 70
     1
  9
$MEASUREMENT
 70
     0
  9
$CELWEIGHT
370
    -1
  9
$ENDCAPS
280
     0
  9
$JOINSTYLE
280
     0
  9
$LWDISPLAY
290
     0
  9
$INSUNITS
 70
     1
  9
$HYPERLINKBASE
  1

  9
$STYLESHEET
  1

  9
$XEDIT
290
     1
  9
$CEPSNTYPE
380
     0
  9
$PSTYLEMODE
290
     1
  9
$FINGERPRINTGUID
  2
{094FA52E-0FEC-4B73-8D6A-2E58DDF07D6E}
  9
$VERSIONGUID
  2
{FAEB1C32-E019-11D5-929B-00C0DF256EC4}
  9
$EXTNAMES
290
     1
  9
$PSVPSCALE
 40
0.0
  9
$OLESTARTUP
290
     0
  9
$SORTENTS
280
   127
  9
$INDEXCTL
280
     0
  9
$HIDETEXT
280
     1
  9
$XCLIPFRAME
290
     0
  9
$HALOGAP
280
     0
  9
$OBSCOLOR
 70
   257
  9
$OBSLTYPE
280
     0
  9
$INTERSECTIONDISPLAY
280
     0
  9
$INTERSECTIONCOLOR
 70
   257
  9
$DIMASSOC
280
     2
  9
$PROJECTNAME
  1

  0
ENDSEC
  0
SECTION
  2
CLASSES
  0
CLASS
  1
ACDBDICTIONARYWDFLT
  2
AcDbDictionaryWithDefault
  3
ObjectDBX Classes
 90
        0
 91
        4
280
     0
281
     0
  0
CLASS
  1
VISUALSTYLE
  2
AcDbVisualStyle
  3
ObjectDBX Classes
 90
     4095
 91
        4
280
     0
281
     0
  0
ENDSEC
  0
SECTION
  2
TABLES
  0
TABLE
  2
VPORT
  5
8
330
0
100
AcDbSymbolTable
 70
     1
  0
VPORT
  5
29
330
8
100
AcDbSymbolTableRecord
100
AcDbViewportTableRecord
  2
*Active
 70
     0
 10
0.0
 20
0.0
 11
1.0
 21
1.0
 12
0.0
 22
0.0
 13
0.0
 23
0.0
 14
0.5
 24
0.5
 15
0.5
 25
0.5
 16
145.7256164550781
 26
83.26461791992188
 36
145.7256164550781
 17
34.82000732421875
 27
0.0
 37
0.488006591796875
 40
107.0741761156564
 41
1.972972972850329
 42
50.0
 43
0.0
 44
0.0
 50
0.0
 51
0.0
 71
     0
 72
   100
 73
     1
 74
     3
 75
     0
 76
     0
 77
     0
 78
     0
281
     0
 65
     1
110
0.0
120
0.0
130
0.0
111
1.0
121
0.0
131
0.0
112
0.0
122
1.0
132
0.0
 79
     0
146
0.0
  0
ENDTAB
  0
TABLE
  2
LTYPE
  5
5
330
0
100
AcDbSymbolTable
 70
     1
  0
LTYPE
  5
14
330
5
100
AcDbSymbolTableRecord
100
AcDbLinetypeTableRecord
  2
ByBlock
 70
     0
  3

 72
    65
 73
     0
 40
0.0
  0
LTYPE
  5
15
330
5
100
AcDbSymbolTableRecord
100
AcDbLinetypeTableRecord
  2
ByLayer
 70
     0
  3

 72
    65
 73
     0
 40
0.0
  0
LTYPE
  5
16
330
5
100
AcDbSymbolTableRecord
100
AcDbLinetypeTableRecord
  2
Continuous
 70
     0
  3
Solid line
 72
    65
 73
     0
 40
0.0
  0
ENDTAB
  0
TABLE
  2
LAYER
  5
2
330
0
100
AcDbSymbolTable
 70
     2
  0
LAYER
  5
10
330
2
100
AcDbSymbolTableRecord
100
AcDbLayerTableRecord
  2
0
 70
     0
 62
     7
  6
Continuous
370
    -3
390
F
  0
LAYER
  5
57
330
2
100
AcDbSymbolTableRecord
100
AcDbLayerTableRecord
  2
Layer 1
 70
     0
 62
     7
  6
Continuous
370
    -3
390
F
  0
ENDTAB
  0
TABLE
  2
STYLE
  5
3
330
0
100
AcDbSymbolTable
 70
     1
  0
STYLE
  5
11
330
3
100
AcDbSymbolTableRecord
100
AcDbTextStyleTableRecord
  2
Standard
 70
     0
 40
0.0
 41
1.0
 50
0.0
 71
     0
 42
0.2
  3
txt
  4

  0
ENDTAB
  0
TABLE
  2
VIEW
  5
6
330
0
100
AcDbSymbolTable
 70
     0
  0
ENDTAB
  0
TABLE
  2
UCS
  5
7
330
0
100
AcDbSymbolTable
 70
     0
  0
ENDTAB
  0
TABLE
  2
APPID
  5
9
330
0
100
AcDbSymbolTable
 70
     1
  0
APPID
  5
12
330
9
100
AcDbSymbolTableRecord
100
AcDbRegAppTableRecord
  2
ACAD
 70
     0
  0
ENDTAB
  0
TABLE
  2
DIMSTYLE
  5
A
330
0
100
AcDbSymbolTable
 70
     1
100
AcDbDimStyleTable
  0
DIMSTYLE
105
27
330
A
100
AcDbSymbolTableRecord
100
AcDbDimStyleTableRecord
  2
Standard
 70
     0
340
11
  0
ENDTAB
  0
TABLE
  2
BLOCK_RECORD
  5
1
330
0
100
AcDbSymbolTable
 70
    10
  0
BLOCK_RECORD
  5
1F
330
1
100
AcDbSymbolTableRecord
100
AcDbBlockTableRecord
  2
*Model_Space
340
22
  0
BLOCK_RECORD
  5
1B
330
1
100
AcDbSymbolTableRecord
100
AcDbBlockTableRecord
  2
*Paper_Space
340
1E
  0
BLOCK_RECORD
  5
3B
330
1
100
AcDbSymbolTableRecord
100
AcDbBlockTableRecord
  2
e3_node
340
0
102
{BLKREFS
331
56
102
}
  0
BLOCK_RECORD
  5
5A
330
1
100
AcDbSymbolTableRecord
100
AcDbBlockTableRecord
  2
e3_node(1)
340
0
102
{BLKREFS
331
91
102
}
  0
BLOCK_RECORD
  5
94
330
1
100
AcDbSymbolTableRecord
100
AcDbBlockTableRecord
  2
e3_node(2)
340
0
102
{BLKREFS
331
C7
102
}
  0
BLOCK_RECORD
  5
CA
330
1
100
AcDbSymbolTableRecord
100
AcDbBlockTableRecord
  2
e3_node(3)
340
0
102
{BLKREFS
331
F9
102
}
  0
BLOCK_RECORD
  5
FC
330
1
100
AcDbSymbolTableRecord
100
AcDbBlockTableRecord
  2
e3_node(4)
340
0
102
{BLKREFS
331
113
102
}
  0
BLOCK_RECORD
  5
116
330
1
100
AcDbSymbolTableRecord
100
AcDbBlockTableRecord
  2
e3_node(5)
340
0
102
{BLKREFS
331
127
102
}
  0
BLOCK_RECORD
  5
12A
330
1
100
AcDbSymbolTableRecord
100
AcDbBlockTableRecord
  2
e3_node(6)
340
0
102
{BLKREFS
331
14D
102
}
  0
BLOCK_RECORD
  5
150
330
1
100
AcDbSymbolTableRecord
100
AcDbBlockTableRecord
  2
e3_node(7)
340
0
102
{BLKREFS
331
1B6
102
}
  0
BLOCK_RECORD
  5
1B9
330
1
100
AcDbSymbolTableRecord
100
AcDbBlockTableRecord
  2
e3_node(8)
340
0
102
{BLKREFS
331
23F
102
}
  0
ENDTAB
  0
ENDSEC
  0
SECTION
  2
BLOCKS
  0
BLOCK
  5
20
330
1F
100
AcDbEntity
  8
0
100
AcDbBlockBegin
  2
*Model_Space
 70
     0
 10
0.0
 20
0.0
 30
0.0
  3
*Model_Space
  1

  0
ENDBLK
  5
21
330
1F
100
AcDbEntity
  8
0
100
AcDbBlockEnd
  0
BLOCK
  5
1C
330
1B
100
AcDbEntity
 67
     1
  8
0
100
AcDbBlockBegin
  2
*Paper_Space
 70
     0
 10
0.0
 20
0.0
 30
0.0
  3
*Paper_Space
  1

  0
ENDBLK
  5
1D
330
1B
100
AcDbEntity
 67
     1
  8
0
100
AcDbBlockEnd
  0
BLOCK
  5
58
330
3B
100
AcDbEntity
  8
0
100
AcDbBlockBegin
  2
e3_node
 70
     0
 10
0.0
 20
0.0
 30
0.0
  3
e3_node
  1

  0
POLYLINE
  5
3C
330
3B
100
AcDbEntity
  8
0
 62
     9
420
 12632256
100
AcDbPolyFaceMesh
 66
     1
 10
0.0
 20
0.0
 30
0.0
 70
    64
 71
    13
 72
    11
  0
VERTEX
  5
3D
330
3C
100
AcDbEntity
  8
0
100
AcDbVertex
100
AcDbPolyFaceMeshVertex
 10
0.0
 20
27.65200042724609
 30
19.08699989318848
 70
   192
  0
VERTEX
  5
3E
330
3C
100
AcDbEntity
  8
0
100
AcDbVertex
100
AcDbPolyFaceMeshVertex
 10
0.0
 20
-15.61499977111816
 30
29.75099945068359
 70
   192
  0
VERTEX
  5
3F
330
3C
100
AcDbEntity
  8
0
100
AcDbVertex
100
AcDbPolyFaceMeshVertex
 10
0.0
 20
0.0
 30
33.59999847412109
 70
   192
  0
VERTEX
  5
40
330
3C
100
AcDbEntity
  8
0
100
AcDbVertex
100
AcDbPolyFaceMeshVertex
 10
0.0
 20
-22.2810001373291
 30
-25.14999961853027
 70
   192
  0
VERTEX
  5
41
330
3C
100
AcDbEntity
  8
0
100
AcDbVertex
100
AcDbPolyFaceMeshVertex
 10
0.0
 20
22.2810001373291
 30
-25.14999961853027
 70
   192
  0
VERTEX
  5
42
330
3C
100
AcDbEntity
  8
0
100
AcDbVertex
100
AcDbPolyFaceMeshVertex
 10
0.0
 20
8.041000366210938
 30
-32.62400054931641
 70
   192
  0
VERTEX
  5
43
330
3C
100
AcDbEntity
  8
0
100
AcDbVertex
100
AcDbPolyFaceMeshVertex
 10
0.0
 20
-27.65200042724609
 30
19.08699989318848
 70
   192
  0
VERTEX
  5
44
330
3C
100
AcDbEntity
  8
0
100
AcDbVertex
100
AcDbPolyFaceMeshVertex
 10
0.0
 20
31.41699981689453
 30
-11.91499996185303
 70
   192
  0
VERTEX
  5
45
330
3C
100
AcDbEntity
  8
0
100
AcDbVertex
100
AcDbPolyFaceMeshVertex
 10
0.0
 20
33.35499954223633
 30
4.050000190734863
 70
   192
  0
VERTEX
  5
46
330
3C
100
AcDbEntity
  8
0
100
AcDbVertex
100
AcDbPolyFaceMeshVertex
 10
0.0
 20
-33.35499954223633
 30
4.050000190734863
 70
   192
  0
VERTEX
  5
47
330
3C
100
AcDbEntity
  8
0
100
AcDbVertex
100
AcDbPolyFaceMeshVertex
 10
0.0
 20
-31.41699981689453
 30
-11.91499996185303
 70
   192
  0
VERTEX
  5
48
330
3C
100
AcDbEntity
  8
0
100
AcDbVertex
100
AcDbPolyFaceMeshVertex
 10
0.0
 20
15.61499977111816
 30
29.75099945068359
 70
   192
  0
VERTEX
  5
49
330
3C
100
AcDbEntity
  8
0
100
AcDbVertex
100
AcDbPolyFaceMeshVertex
 10
0.0
 20
-8.041000366210938
 30
-32.62400054931641
 70
   192
  0
VERTEX
  5
4A
330
3C
100
AcDbEntity
  8
0
 62
     9
420
 12632256
100
AcDbFaceRecord
 10
0.0
 20
0.0
 30
0.0
 70
   128
 71
     3
 72
     2
 73
     1
  0
VERTEX
  5
4B
330
3C
100
AcDbEntity
  8
0
 62
     9
420
 12632256
100
AcDbFaceRecord
 10
0.0
 20
0.0
 30
0.0
 70
   128
 71
     6
 72
     5
 73
     4
  0
VERTEX
  5
4C
330
3C
100
AcDbEntity
  8
0
 62
     9
420
 12632256
100
AcDbFaceRecord
 10
0.0
 20
0.0
 30
0.0
 70
   128
 71
     2
 72
     7
 73
     1
  0
VERTEX
  5
4D
330
3C
100
AcDbEntity
  8
0
 62
     9
420
 12632256
100
AcDbFaceRecord
 10
0.0
 20
0.0
 30
0.0
 70
   128
 71
     5
 72
     8
 73
     4
  0
VERTEX
  5
4E
330
3C
100
AcDbEntity
  8
0
 62
     9
420
 12632256
100
AcDbFaceRecord
 10
0.0
 20
0.0
 30
0.0
 70
   128
 71
     9
 72
     1
 73
     4
  0
VERTEX
  5
4F
330
3C
100
AcDbEntity
  8
0
 62
     9
420
 12632256
100
AcDbFaceRecord
 10
0.0
 20
0.0
 30
0.0
 70
   128
 71
     7
 72
    10
 73
     1
  0
VERTEX
  5
50
330
3C
100
AcDbEntity
  8
0
 62
     9
420
 12632256
100
AcDbFaceRecord
 10
0.0
 20
0.0
 30
0.0
 70
   128
 71
    11
 72
     4
 73
     1
  0
VERTEX
  5
51
330
3C
100
AcDbEntity
  8
0
 62
     9
420
 12632256
100
AcDbFaceRecord
 10
0.0
 20
0.0
 30
0.0
 70
   128
 71
     4
 72
     8
 73
     9
  0
VERTEX
  5
52
330
3C
100
AcDbEntity
  8
0
 62
     9
420
 12632256
100
AcDbFaceRecord
 10
0.0
 20
0.0
 30
0.0
 70
   128
 71
     1
 72
    10
 73
    11
  0
VERTEX
  5
53
330
3C
100
AcDbEntity
  8
0
 62
     9
420
 12632256
100
AcDbFaceRecord
 10
0.0
 20
0.0
 30
0.0
 70
   128
 71
     1
 72
    12
 73
     3
  0
VERTEX
  5
54
330
3C
100
AcDbEntity
  8
0
 62
     9
420
 12632256
100
AcDbFaceRecord
 10
0.0
 20
0.0
 30
0.0
 70
   128
 71
     4
 72
    13
 73
     6
  0
SEQEND
  5
55
330
3C
100
AcDbEntity
  8
0
 62
     9
420
 12632256
  0
ENDBLK
  5
59
330
3B
100
AcDbEntity
  8
0
100
AcDbBlockEnd
  0
BLOCK
  5
92
330
5A
100
AcDbEntity
  8
0
100
AcDbBlockBegin
  2
e3_node(1)
 70
     0
 10
0.0
 20
0.0
 30
0.0
  3
e3_node(1)
  1

  0
POLYLINE
  5
5B
330
5A
100
AcDbEntity
  8
0
 62
     9
420
 12632256
100
AcDbPolyFaceMesh
 66
     1
 10
0.0
 20
0.0
 30
0.0
 70
    64
 71
    26
 72
    26
  0
VERTEX
  5
5C
330
5B
100
AcDbEntity
  8
0
100
AcDbVertex
100
AcDbPolyFaceMeshVertex
 10
6.199999809265137
 20
15.61499977111816
 30
29.75099945068359
 70
   192
  0
VERTEX
  5
5D
330
5B
100
AcDbEntity
  8
0
100
AcDbVertex
100
AcDbPolyFaceMeshVertex
 10
0.0
 20
15.61499977111816
 30
29.75099945068359
 70
   192
  0
VERTEX
  5
5E
330
5B
100
AcDbEntity
  8
0
100
AcDbVertex
100
AcDbPolyFaceMeshVertex
 10
0.0
 20
0.0
 30
33.59999847412109
 70
   192
  0
VERTEX
  5
5F
330
5B
100
AcDbEntity
  8
0
100
AcDbVertex
100
AcDbPolyFaceMeshVertex
 10
6.199999809265137
 20
27.65200042724609
 30
19.08699989318848
 70
   192
  0
VERTEX
  5
60
330
5B
100
AcDbEntity
  8
0
100
AcDbVertex
100
AcDbPolyFaceMeshVertex
 10
0.0
 20
27.65200042724609
 30
19.08699989318848
 70
   192
  0
VERTEX
  5
61
330
5B
100
AcDbEntity
  8
0
100
AcDbVertex
100
AcDbPolyFaceMeshVertex
 10
6.199999809265137
 20
33.35499954223633
 30
4.050000190734863
 70
   192
  0
VERTEX
  5
62
330
5B
100
AcDbEntity
  8
0
100
AcDbVertex
100
AcDbPolyFaceMeshVertex
 10
0.0
 20
33.35499954223633
 30
4.050000190734863
 70
   192
  0
VERTEX
  5
63
330
5B
100
AcDbEntity
  8
0
100
AcDbVertex
100
AcDbPolyFaceMeshVertex
 10
6.199999809265137
 20
31.41699981689453
 30
-11.91499996185303
 70
   192
  0
VERTEX
  5
64
330
5B
100
AcDbEntity
  8
0
100
AcDbVertex
100
AcDbPolyFaceMeshVertex
 10
0.0
 20
31.41699981689453
 30
-11.91499996185303
 70
   192
  0
VERTEX
  5
65
330
5B
100
AcDbEntity
  8
0
100
AcDbVertex
100
AcDbPolyFaceMeshVertex
 10
6.199999809265137
 20
22.2810001373291
 30
-25.14999961853027
 70
   192
  0
VERTEX
  5
66
330
5B
100
AcDbEntity
  8
0
100
AcDbVertex
100
AcDbPolyFaceMeshVertex
 10
0.0
 20
22.2810001373291
 30
-25.14999961853027
 70
   192
  0
VERTEX
  5
67
330
5B
100
AcDbEntity
  8
0
100
AcDbVertex
100
AcDbPolyFaceMeshVertex
 10
6.199999809265137
 20
8.041000366210938
 30
-32.62400054931641
 70
   192
  0
VERTEX
  5
68
330
5B
100
AcDbEntity
  8
0
100
AcDbVertex
100
AcDbPolyFaceMeshVertex
 10
0.0
 20
8.041000366210938
 30
-32.62400054931641
 70
   192
  0
VERTEX
  5
69
330
5B
100
AcDbEntity
  8
0
100
AcDbVertex
100
AcDbPolyFaceMeshVertex
 10
6.199999809265137
 20
-8.041000366210938
 30
-32.62400054931641
 70
   192
  0
VERTEX
  5
6A
330
5B
100
AcDbEntity
  8
0
100
AcDbVertex
100
AcDbPolyFaceMeshVertex
 10
0.0
 20
-8.041000366210938
 30
-32.62400054931641
 70
   192
  0
VERTEX
  5
6B
330
5B
100
AcDbEntity
  8
0
100
AcDbVertex
100
AcDbPolyFaceMeshVertex
 10
6.199999809265137
 20
-22.2810001373291
 30
-25.14999961853027
 70
   192
  0
VERTEX
  5
6C
330
5B
100
AcDbEntity
  8
0
100
AcDbVertex
100
AcDbPolyFaceMeshVertex
 10
0.0
 20
-22.2810001373291
 30
-25.14999961853027
 70
   192
  0
VERTEX
  5
6D
330
5B
100
AcDbEntity
  8
0
100
AcDbVertex
100
AcDbPolyFaceMeshVertex
 10
6.199999809265137
 20
-31.41699981689453
 30
-11.91499996185303
 70
   192
  0
VERTEX
  5
6E
330
5B
100
AcDbEntity
  8
0
100
AcDbVertex
100
AcDbPolyFaceMeshVertex
 10
0.0
 20
-31.41699981689453
 30
-11.91499996185303
 70
   192
  0
VERTEX
  5
6F
330
5B
100
AcDbEntity
  8
0
100
AcDbVertex
100
AcDbPolyFaceMeshVertex
 10
6.199999809265137
 20
-33.35499954223633
 30
4.050000190734863
 70
   192
  0
VERTEX
  5
70
330
5B
100
AcDbEntity
  8
0
100
AcDbVertex
100
AcDbPolyFaceMeshVertex
 10
0.0
 20
-33.35499954223633
 30
4.050000190734863
 70
   192
  0
VERTEX
  5
71
330
5B
100
AcDbEntity
  8
0
100
AcDbVertex
100
AcDbPolyFaceMeshVertex
 10
6.199999809265137
 20
-27.65200042724609
 30
19.08699989318848
 70
   192
  0
VERTEX
  5
72
330
5B
100
AcDbEntity
  8
0
100
AcDbVertex
100
AcDbPolyFaceMeshVertex
 10
0.0
 20
-27.65200042724609
 30
19.08699989318848
 70
   192
  0
VERTEX
  5
73
330
5B
100
AcDbEntity
  8
0
100
AcDbVertex
100
AcDbPolyFaceMeshVertex
 10
6.199999809265137
 20
-15.61499977111816
 30
29.75099945068359
 70
   192
  0
VERTEX
  5
74
330
5B
100
AcDbEntity
  8
0
100
AcDbVertex
100
AcDbPolyFaceMeshVertex
 10
0.0
 20
-15.61499977111816
 30
29.75099945068359
 70
   192
  0
VERTEX
  5
75
330
5B
100
AcDbEntity
  8
0
100
AcDbVertex
100
AcDbPolyFaceMeshVertex
 10
6.199999809265137
 20
0.0
 30
33.59999847412109
 70
   192
  0
VERTEX
  5
76
330
5B
100
AcDbEntity
  8
0
 62
     9
420
 12632256
100
AcDbFaceRecord
 10
0.0
 20
0.0
 30
0.0
 70
   128
 71
     3
 72
     2
 73
     1
  0
VERTEX
  5
77
330
5B
100
AcDbEntity
  8
0
 62
     9
420
 12632256
100
AcDbFaceRecord
 10
0.0
 20
0.0
 30
0.0
 70
   128
 71
     2
 72
     5
 73
     4
  0
VERTEX
  5
78
330
5B
100
AcDbEntity
  8
0
 62
     9
420
 12632256
100
AcDbFaceRecord
 10
0.0
 20
0.0
 30
0.0
 70
   128
 71
     5
 72
     7
 73
     6
  0
VERTEX
  5
79
330
5B
100
AcDbEntity
  8
0
 62
     9
420
 12632256
100
AcDbFaceRecord
 10
0.0
 20
0.0
 30
0.0
 70
   128
 71
     7
 72
     9
 73
     8
  0
VERTEX
  5
7A
330
5B
100
AcDbEntity
  8
0
 62
     9
420
 12632256
100
AcDbFaceRecord
 10
0.0
 20
0.0
 30
0.0
 70
   128
 71
     9
 72
    11
 73
    10
  0
VERTEX
  5
7B
330
5B
100
AcDbEntity
  8
0
 62
     9
420
 12632256
100
AcDbFaceRecord
 10
0.0
 20
0.0
 30
0.0
 70
   128
 71
    11
 72
    13
 73
    12
  0
VERTEX
  5
7C
330
5B
100
AcDbEntity
  8
0
 62
     9
420
 12632256
100
AcDbFaceRecord
 10
0.0
 20
0.0
 30
0.0
 70
   128
 71
    13
 72
    15
 73
    14
  0
VERTEX
  5
7D
330
5B
100
AcDbEntity
  8
0
 62
     9
420
 12632256
100
AcDbFaceRecord
 10
0.0
 20
0.0
 30
0.0
 70
   128
 71
    15
 72
    17
 73
    16
  0
VERTEX
  5
7E
330
5B
100
AcDbEntity
  8
0
 62
     9
420
 12632256
100
AcDbFaceRecord
 10
0.0
 20
0.0
 30
0.0
 70
   128
 71
    17
 72
    19
 73
    18
  0
VERTEX
  5
7F
330
5B
100
AcDbEntity
  8
0
 62
     9
420
 12632256
100
AcDbFaceRecord
 10
0.0
 20
0.0
 30
0.0
 70
   128
 71
    19
 72
    21
 73
    20
  0
VERTEX
  5
80
330
5B
100
AcDbEntity
  8
0
 62
     9
420
 12632256
100
AcDbFaceRecord
 10
0.0
 20
0.0
 30
0.0
 70
   128
 71
    21
 72
    23
 73
    22
  0
VERTEX
  5
81
330
5B
100
AcDbEntity
  8
0
 62
     9
420
 12632256
100
AcDbFaceRecord
 10
0.0
 20
0.0
 30
0.0
 70
   128
 71
    23
 72
    25
 73
    24
  0
VERTEX
  5
82
330
5B
100
AcDbEntity
  8
0
 62
     9
420
 12632256
100
AcDbFaceRecord
 10
0.0
 20
0.0
 30
0.0
 70
   128
 71
    25
 72
     3
 73
    26
  0
VERTEX
  5
83
330
5B
100
AcDbEntity
  8
0
 62
     9
420
 12632256
100
AcDbFaceRecord
 10
0.0
 20
0.0
 30
0.0
 70
   128
 71
    26
 72
    24
 73
    25
  0
VERTEX
  5
84
330
5B
100
AcDbEntity
  8
0
 62
     9
420
 12632256
100
AcDbFaceRecord
 10
0.0
 20
0.0
 30
0.0
 70
   128
 71
    24
 72
    22
 73
    23
  0
VERTEX
  5
85
330
5B
100
AcDbEntity
  8
0
 62
     9
420
 12632256
100
AcDbFaceRecord
 10
0.0
 20
0.0
 30
0.0
 70
   128
 71
    22
 72
    20
 73
    21
  0
VERTEX
  5
86
330
5B
100
AcDbEntity
  8
0
 62
     9
420
 12632256
100
AcDbFaceRecord
 10
0.0
 20
0.0
 30
0.0
 70
   128
 71
    20
 72
    18
 73
    19
  0
VERTEX
  5
87
330
5B
100
AcDbEntity
  8
0
 62
     9
420
 12632256
100
AcDbFaceRecord
 10
0.0
 20
0.0
 30
0.0
 70
   128
 71
    18
 72
    16
 73
    17
  0
VERTEX
  5
88
330
5B
100
AcDbEntity
  8
0
 62
     9
420
 12632256
100
AcDbFaceRecord
 10
0.0
 20
0.0
 30
0.0
 70
   128
 71
    16
 72
    14
 73
    15
  0
VERTEX
  5
89
330
5B
100
AcDbEntity
  8
0
 62
     9
420
 12632256
100
AcDbFaceRecord
 10
0.0
 20
0.0
 30
0.0
 70
   128
 71
    14
 72
    12
 73
    13
  0
VERTEX
  5
8A
330
5B
100
AcDbEntity
  8
0
 62
     9
420
 12632256
100
AcDbFaceRecord
 10
0.0
 20
0.0
 30
0.0
 70
   128
 71
    12
 72
    10
 73
    11
  0
VERTEX
  5
8B
330
5B
100
AcDbEntity
  8
0
 62
     9
420
 12632256
100
AcDbFaceRecord
 10
0.0
 20
0.0
 30
0.0
 70
   128
 71
    10
 72
     8
 73
     9
  0
VERTEX
  5
8C
330
5B
100
AcDbEntity
  8
0
 62
     9
420
 12632256
100
AcDbFaceRecord
 10
0.0
 20
0.0
 30
0.0
 70
   128
 71
     8
 72
     6
 73
     7
  0
VERTEX
  5
8D
330
5B
100
AcDbEntity
  8
0
 62
     9
420
 12632256
100
AcDbFaceRecord
 10
0.0
 20
0.0
 30
0.0
 70
   128
 71
     6
 72
     4
 73
     5
  0
VERTEX
  5
8E
330
5B
100
AcDbEntity
  8
0
 62
     9
420
 12632256
100
AcDbFaceRecord
 10
0.0
 20
0.0
 30
0.0
 70
   128
 71
     4
 72
     1
 73
     2
  0
VERTEX
  5
8F
330
5B
100
AcDbEntity
  8
0
 62
     9
420
 12632256
100
AcDbFaceRecord
 10
0.0
 20
0.0
 30
0.0
 70
   128
 71
     1
 72
    26
 73
     3
  0
SEQEND
  5
90
330
5B
100
AcDbEntity
  8
0
 62
     9
420
 12632256
  0
ENDBLK
  5
93
330
5A
100
AcDbEntity
  8
0
100
AcDbBlockEnd
  0
BLOCK
  5
C8
330
94
100
AcDbEntity
  8
0
100
AcDbBlockBegin
  2
e3_node(2)
 70
     0
 10
0.0
 20
0.0
 30
0.0
  3
e3_node(2)
  1

  0
POLYLINE
  5
95
330
94
100
AcDbEntity
  8
0
 62
     9
420
 12632256
100
AcDbPolyFaceMesh
 66
     1
 10
0.0
 20
0.0
 30
0.0
 70
    64
 71
    24
 72
    24
  0
VERTEX
  5
96
330
95
100
AcDbEntity
  8
0
100
AcDbVertex
100
AcDbPolyFaceMeshVertex
 10
6.199999809265137
 20
33.35499954223633
 30
4.050000190734863
 70
   192
  0
VERTEX
  5
97
330
95
100
AcDbEntity
  8
0
100
AcDbVertex
100
AcDbPolyFaceMeshVertex
 10
6.199999809265137
 20
27.65200042724609
 30
19.08699989318848
 70
   192
  0
VERTEX
  5
98
330
95
100
AcDbEntity
  8
0
100
AcDbVertex
100
AcDbPolyFaceMeshVertex
 10
6.199999809265137
 20
20.42700004577637
 30
9.329000473022461
 70
   192
  0
VERTEX
  5
99
330
95
100
AcDbEntity
  8
0
100
AcDbVertex
100
AcDbPolyFaceMeshVertex
 10
6.199999809265137
 20
-33.35499954223633
 30
4.050000190734863
 70
   192
  0
VERTEX
  5
9A
330
95
100
AcDbEntity
  8
0
100
AcDbVertex
100
AcDbPolyFaceMeshVertex
 10
6.199999809265137
 20
-22.22800064086914
 30
-3.196000099182129
 70
   192
  0
VERTEX
  5
9B
330
95
100
AcDbEntity
  8
0
100
AcDbVertex
100
AcDbPolyFaceMeshVertex
 10
6.199999809265137
 20
-20.42700004577637
 30
9.329000473022461
 70
   192
  0
VERTEX
  5
9C
330
95
100
AcDbEntity
  8
0
100
AcDbVertex
100
AcDbPolyFaceMeshVertex
 10
6.199999809265137
 20
31.41699981689453
 30
-11.91499996185303
 70
   192
  0
VERTEX
  5
9D
330
95
100
AcDbEntity
  8
0
100
AcDbVertex
100
AcDbPolyFaceMeshVertex
 10
6.199999809265137
 20
22.22800064086914
 30
-3.196000099182129
 70
   192
  0
VERTEX
  5
9E
330
95
100
AcDbEntity
  8
0
100
AcDbVertex
100
AcDbPolyFaceMeshVertex
 10
6.199999809265137
 20
16.97100067138672
 30
-14.70600032806396
 70
   192
  0
VERTEX
  5
9F
330
95
100
AcDbEntity
  8
0
100
AcDbVertex
100
AcDbPolyFaceMeshVertex
 10
6.199999809265137
 20
-27.65200042724609
 30
19.08699989318848
 70
   192
  0
VERTEX
  5
A0
330
95
100
AcDbEntity
  8
0
100
AcDbVertex
100
AcDbPolyFaceMeshVertex
 10
6.199999809265137
 20
-12.14099979400635
 30
18.89100074768066
 70
   192
  0
VERTEX
  5
A1
330
95
100
AcDbEntity
  8
0
100
AcDbVertex
100
AcDbPolyFaceMeshVertex
 10
6.199999809265137
 20
15.61499977111816
 30
29.75099945068359
 70
   192
  0
VERTEX
  5
A2
330
95
100
AcDbEntity
  8
0
100
AcDbVertex
100
AcDbPolyFaceMeshVertex
 10
6.199999809265137
 20
12.14099979400635
 30
18.89100074768066
 70
   192
  0
VERTEX
  5
A3
330
95
100
AcDbEntity
  8
0
100
AcDbVertex
100
AcDbPolyFaceMeshVertex
 10
6.199999809265137
 20
-31.41699981689453
 30
-11.91499996185303
 70
   192
  0
VERTEX
  5
A4
330
95
100
AcDbEntity
  8
0
100
AcDbVertex
100
AcDbPolyFaceMeshVertex
 10
6.199999809265137
 20
-22.2810001373291
 30
-25.14999961853027
 70
   192
  0
VERTEX
  5
A5
330
95
100
AcDbEntity
  8
0
100
AcDbVertex
100
AcDbPolyFaceMeshVertex
 10
6.199999809265137
 20
-16.97100067138672
 30
-14.70600032806396
 70
   192
  0
VERTEX
  5
A6
330
95
100
AcDbEntity
  8
0
100
AcDbVertex
100
AcDbPolyFaceMeshVertex
 10
6.199999809265137
 20
22.2810001373291
 30
-25.14999961853027
 70
   192
  0
VERTEX
  5
A7
330
95
100
AcDbEntity
  8
0
100
AcDbVertex
100
AcDbPolyFaceMeshVertex
 10
6.199999809265137
 20
6.327000141143799
 30
-21.54700088500977
 70
   192
  0
VERTEX
  5
A8
330
95
100
AcDbEntity
  8
0
100
AcDbVertex
100
AcDbPolyFaceMeshVertex
 10
6.199999809265137
 20
-15.61499977111816
 30
29.75099945068359
 70
   192
  0
VERTEX
  5
A9
330
95
100
AcDbEntity
  8
0
100
AcDbVertex
100
AcDbPolyFaceMeshVertex
 10
6.199999809265137
 20
0.0
 30
22.45599937438965
 70
   192
  0
VERTEX
  5
AA
330
95
100
AcDbEntity
  8
0
100
AcDbVertex
100
AcDbPolyFaceMeshVertex
 10
6.199999809265137
 20
-8.041000366210938
 30
-32.62400054931641
 70
   192
  0
VERTEX
  5
AB
330
95
100
AcDbEntity
  8
0
100
AcDbVertex
100
AcDbPolyFaceMeshVertex
 10
6.199999809265137
 20
-6.327000141143799
 30
-21.54700088500977
 70
   192
  0
VERTEX
  5
AC
330
95
100
AcDbEntity
  8
0
100
AcDbVertex
100
AcDbPolyFaceMeshVertex
 10
6.199999809265137
 20
8.041000366210938
 30
-32.62400054931641
 70
   192
  0
VERTEX
  5
AD
330
95
100
AcDbEntity
  8
0
100
AcDbVertex
100
AcDbPolyFaceMeshVertex
 10
6.199999809265137
 20
0.0
 30
33.59999847412109
 70
   192
  0
VERTEX
  5
AE
330
95
100
AcDbEntity
  8
0
 62
     9
420
 12632256
100
AcDbFaceRecord
 10
0.0
 20
0.0
 30
0.0
 70
   128
 71
     3
 72
     2
 73
     1
  0
VERTEX
  5
AF
330
95
100
AcDbEntity
  8
0
 62
     9
420
 12632256
100
AcDbFaceRecord
 10
0.0
 20
0.0
 30
0.0
 70
   128
 71
     6
 72
     5
 73
     4
  0
VERTEX
  5
B0
330
95
100
AcDbEntity
  8
0
 62
     9
420
 12632256
100
AcDbFaceRecord
 10
0.0
 20
0.0
 30
0.0
 70
   128
 71
     9
 72
     8
 73
     7
  0
VERTEX
  5
B1
330
95
100
AcDbEntity
  8
0
 62
     9
420
 12632256
100
AcDbFaceRecord
 10
0.0
 20
0.0
 30
0.0
 70
   128
 71
     1
 72
     7
 73
     8
  0
VERTEX
  5
B2
330
95
100
AcDbEntity
  8
0
 62
     9
420
 12632256
100
AcDbFaceRecord
 10
0.0
 20
0.0
 30
0.0
 70
   128
 71
    11
 72
     6
 73
    10
  0
VERTEX
  5
B3
330
95
100
AcDbEntity
  8
0
 62
     9
420
 12632256
100
AcDbFaceRecord
 10
0.0
 20
0.0
 30
0.0
 70
   128
 71
     4
 72
    10
 73
     6
  0
VERTEX
  5
B4
330
95
100
AcDbEntity
  8
0
 62
     9
420
 12632256
100
AcDbFaceRecord
 10
0.0
 20
0.0
 30
0.0
 70
   128
 71
     1
 72
     8
 73
     3
  0
VERTEX
  5
B5
330
95
100
AcDbEntity
  8
0
 62
     9
420
 12632256
100
AcDbFaceRecord
 10
0.0
 20
0.0
 30
0.0
 70
   128
 71
    13
 72
    12
 73
     2
  0
VERTEX
  5
B6
330
95
100
AcDbEntity
  8
0
 62
     9
420
 12632256
100
AcDbFaceRecord
 10
0.0
 20
0.0
 30
0.0
 70
   128
 71
     5
 72
    14
 73
     4
  0
VERTEX
  5
B7
330
95
100
AcDbEntity
  8
0
 62
     9
420
 12632256
100
AcDbFaceRecord
 10
0.0
 20
0.0
 30
0.0
 70
   128
 71
    16
 72
    15
 73
    14
  0
VERTEX
  5
B8
330
95
100
AcDbEntity
  8
0
 62
     9
420
 12632256
100
AcDbFaceRecord
 10
0.0
 20
0.0
 30
0.0
 70
   128
 71
    18
 72
     9
 73
    17
  0
VERTEX
  5
B9
330
95
100
AcDbEntity
  8
0
 62
     9
420
 12632256
100
AcDbFaceRecord
 10
0.0
 20
0.0
 30
0.0
 70
   128
 71
     2
 72
     3
 73
    13
  0
VERTEX
  5
BA
330
95
100
AcDbEntity
  8
0
 62
     9
420
 12632256
100
AcDbFaceRecord
 10
0.0
 20
0.0
 30
0.0
 70
   128
 71
    20
 72
    11
 73
    19
  0
VERTEX
  5
BB
330
95
100
AcDbEntity
  8
0
 62
     9
420
 12632256
100
AcDbFaceRecord
 10
0.0
 20
0.0
 30
0.0
 70
   128
 71
    14
 72
     5
 73
    16
  0
VERTEX
  5
BC
330
95
100
AcDbEntity
  8
0
 62
     9
420
 12632256
100
AcDbFaceRecord
 10
0.0
 20
0.0
 30
0.0
 70
   128
 71
    22
 72
    21
 73
    15
  0
VERTEX
  5
BD
330
95
100
AcDbEntity
  8
0
 62
     9
420
 12632256
100
AcDbFaceRecord
 10
0.0
 20
0.0
 30
0.0
 70
   128
 71
    18
 72
    23
 73
    21
  0
VERTEX
  5
BE
330
95
100
AcDbEntity
  8
0
 62
     9
420
 12632256
100
AcDbFaceRecord
 10
0.0
 20
0.0
 30
0.0
 70
   128
 71
     7
 72
    17
 73
     9
  0
VERTEX
  5
BF
330
95
100
AcDbEntity
  8
0
 62
     9
420
 12632256
100
AcDbFaceRecord
 10
0.0
 20
0.0
 30
0.0
 70
   128
 71
    20
 72
    24
 73
    12
  0
VERTEX
  5
C0
330
95
100
AcDbEntity
  8
0
 62
     9
420
 12632256
100
AcDbFaceRecord
 10
0.0
 20
0.0
 30
0.0
 70
   128
 71
    10
 72
    19
 73
    11
  0
VERTEX
  5
C1
330
95
100
AcDbEntity
  8
0
 62
     9
420
 12632256
100
AcDbFaceRecord
 10
0.0
 20
0.0
 30
0.0
 70
   128
 71
    21
 72
    22
 73
    18
  0
VERTEX
  5
C2
330
95
100
AcDbEntity
  8
0
 62
     9
420
 12632256
100
AcDbFaceRecord
 10
0.0
 20
0.0
 30
0.0
 70
   128
 71
    12
 72
    13
 73
    20
  0
VERTEX
  5
C3
330
95
100
AcDbEntity
  8
0
 62
     9
420
 12632256
100
AcDbFaceRecord
 10
0.0
 20
0.0
 30
0.0
 70
   128
 71
    15
 72
    16
 73
    22
  0
VERTEX
  5
C4
330
95
100
AcDbEntity
  8
0
 62
     9
420
 12632256
100
AcDbFaceRecord
 10
0.0
 20
0.0
 30
0.0
 70
   128
 71
    19
 72
    24
 73
    20
  0
VERTEX
  5
C5
330
95
100
AcDbEntity
  8
0
 62
     9
420
 12632256
100
AcDbFaceRecord
 10
0.0
 20
0.0
 30
0.0
 70
   128
 71
    17
 72
    23
 73
    18
  0
SEQEND
  5
C6
330
95
100
AcDbEntity
  8
0
 62
     9
420
 12632256
  0
ENDBLK
  5
C9
330
94
100
AcDbEntity
  8
0
100
AcDbBlockEnd
  0
BLOCK
  5
FA
330
CA
100
AcDbEntity
  8
0
100
AcDbBlockBegin
  2
e3_node(3)
 70
     0
 10
0.0
 20
0.0
 30
0.0
  3
e3_node(3)
  1

  0
POLYLINE
  5
CB
330
CA
100
AcDbEntity
  8
0
 62
     9
420
 12632256
100
AcDbPolyFaceMesh
 66
     1
 10
0.0
 20
0.0
 30
0.0
 70
    64
 71
    22
 72
    22
  0
VERTEX
  5
CC
330
CB
100
AcDbEntity
  8
0
100
AcDbVertex
100
AcDbPolyFaceMeshVertex
 10
6.199999809265137
 20
12.14099979400635
 30
18.89100074768066
 70
   192
  0
VERTEX
  5
CD
330
CB
100
AcDbEntity
  8
0
100
AcDbVertex
100
AcDbPolyFaceMeshVertex
 10
6.199999809265137
 20
0.0
 30
22.45599937438965
 70
   192
  0
VERTEX
  5
CE
330
CB
100
AcDbEntity
  8
0
100
AcDbVertex
100
AcDbPolyFaceMeshVertex
 10
58.5
 20
0.0
 30
22.0
 70
   192
  0
VERTEX
  5
CF
330
CB
100
AcDbEntity
  8
0
100
AcDbVertex
100
AcDbPolyFaceMeshVertex
 10
6.199999809265137
 20
20.42700004577637
 30
9.329000473022461
 70
   192
  0
VERTEX
  5
D0
330
CB
100
AcDbEntity
  8
0
100
AcDbVertex
100
AcDbPolyFaceMeshVertex
 10
58.5
 20
11.89400005340576
 30
18.50699996948242
 70
   192
  0
VERTEX
  5
D1
330
CB
100
AcDbEntity
  8
0
100
AcDbVertex
100
AcDbPolyFaceMeshVertex
 10
6.199999809265137
 20
22.22800064086914
 30
-3.196000099182129
 70
   192
  0
VERTEX
  5
D2
330
CB
100
AcDbEntity
  8
0
100
AcDbVertex
100
AcDbPolyFaceMeshVertex
 10
58.5
 20
20.01199913024902
 30
9.138999938964844
 70
   192
  0
VERTEX
  5
D3
330
CB
100
AcDbEntity
  8
0
100
AcDbVertex
100
AcDbPolyFaceMeshVertex
 10
6.199999809265137
 20
16.97100067138672
 30
-14.70600032806396
 70
   192
  0
VERTEX
  5
D4
330
CB
100
AcDbEntity
  8
0
100
AcDbVertex
100
AcDbPolyFaceMeshVertex
 10
58.5
 20
21.77599906921387
 30
-3.13100004196167
 70
   192
  0
VERTEX
  5
D5
330
CB
100
AcDbEntity
  8
0
100
AcDbVertex
100
AcDbPolyFaceMeshVertex
 10
6.199999809265137
 20
6.327000141143799
 30
-21.54700088500977
 70
   192
  0
VERTEX
  5
D6
330
CB
100
AcDbEntity
  8
0
100
AcDbVertex
100
AcDbPolyFaceMeshVertex
 10
58.5
 20
16.62599945068359
 30
-14.4069995880127
 70
   192
  0
VERTEX
  5
D7
330
CB
100
AcDbEntity
  8
0
100
AcDbVertex
100
AcDbPolyFaceMeshVertex
 10
6.199999809265137
 20
-6.327000141143799
 30
-21.54700088500977
 70
   192
  0
VERTEX
  5
D8
330
CB
100
AcDbEntity
  8
0
100
AcDbVertex
100
AcDbPolyFaceMeshVertex
 10
58.5
 20
6.197999954223633
 30
-21.10899925231934
 70
   192
  0
VERTEX
  5
D9
330
CB
100
AcDbEntity
  8
0
100
AcDbVertex
100
AcDbPolyFaceMeshVertex
 10
6.199999809265137
 20
-16.97100067138672
 30
-14.70600032806396
 70
   192
  0
VERTEX
  5
DA
330
CB
100
AcDbEntity
  8
0
100
AcDbVertex
100
AcDbPolyFaceMeshVertex
 10
58.5
 20
-6.197999954223633
 30
-21.10899925231934
 70
   192
  0
VERTEX
  5
DB
330
CB
100
AcDbEntity
  8
0
100
AcDbVertex
100
AcDbPolyFaceMeshVertex
 10
6.199999809265137
 20
-22.22800064086914
 30
-3.196000099182129
 70
   192
  0
VERTEX
  5
DC
330
CB
100
AcDbEntity
  8
0
100
AcDbVertex
100
AcDbPolyFaceMeshVertex
 10
58.5
 20
-16.62599945068359
 30
-14.4069995880127
 70
   192
  0
VERTEX
  5
DD
330
CB
100
AcDbEntity
  8
0
100
AcDbVertex
100
AcDbPolyFaceMeshVertex
 10
6.199999809265137
 20
-20.42700004577637
 30
9.329000473022461
 70
   192
  0
VERTEX
  5
DE
330
CB
100
AcDbEntity
  8
0
100
AcDbVertex
100
AcDbPolyFaceMeshVertex
 10
58.5
 20
-21.77599906921387
 30
-3.13100004196167
 70
   192
  0
VERTEX
  5
DF
330
CB
100
AcDbEntity
  8
0
100
AcDbVertex
100
AcDbPolyFaceMeshVertex
 10
6.199999809265137
 20
-12.14099979400635
 30
18.89100074768066
 70
   192
  0
VERTEX
  5
E0
330
CB
100
AcDbEntity
  8
0
100
AcDbVertex
100
AcDbPolyFaceMeshVertex
 10
58.5
 20
-20.01199913024902
 30
9.138999938964844
 70
   192
  0
VERTEX
  5
E1
330
CB
100
AcDbEntity
  8
0
100
AcDbVertex
100
AcDbPolyFaceMeshVertex
 10
58.5
 20
-11.89400005340576
 30
18.50699996948242
 70
   192
  0
VERTEX
  5
E2
330
CB
100
AcDbEntity
  8
0
 62
     9
420
 12632256
100
AcDbFaceRecord
 10
0.0
 20
0.0
 30
0.0
 70
   128
 71
     3
 72
     2
 73
     1
  0
VERTEX
  5
E3
330
CB
100
AcDbEntity
  8
0
 62
     9
420
 12632256
100
AcDbFaceRecord
 10
0.0
 20
0.0
 30
0.0
 70
   128
 71
     5
 72
     1
 73
     4
  0
VERTEX
  5
E4
330
CB
100
AcDbEntity
  8
0
 62
     9
420
 12632256
100
AcDbFaceRecord
 10
0.0
 20
0.0
 30
0.0
 70
   128
 71
     7
 72
     4
 73
     6
  0
VERTEX
  5
E5
330
CB
100
AcDbEntity
  8
0
 62
     9
420
 12632256
100
AcDbFaceRecord
 10
0.0
 20
0.0
 30
0.0
 70
   128
 71
     9
 72
     6
 73
     8
  0
VERTEX
  5
E6
330
CB
100
AcDbEntity
  8
0
 62
     9
420
 12632256
100
AcDbFaceRecord
 10
0.0
 20
0.0
 30
0.0
 70
   128
 71
    11
 72
     8
 73
    10
  0
VERTEX
  5
E7
330
CB
100
AcDbEntity
  8
0
 62
     9
420
 12632256
100
AcDbFaceRecord
 10
0.0
 20
0.0
 30
0.0
 70
   128
 71
    13
 72
    10
 73
    12
  0
VERTEX
  5
E8
330
CB
100
AcDbEntity
  8
0
 62
     9
420
 12632256
100
AcDbFaceRecord
 10
0.0
 20
0.0
 30
0.0
 70
   128
 71
    15
 72
    12
 73
    14
  0
VERTEX
  5
E9
330
CB
100
AcDbEntity
  8
0
 62
     9
420
 12632256
100
AcDbFaceRecord
 10
0.0
 20
0.0
 30
0.0
 70
   128
 71
    17
 72
    14
 73
    16
  0
VERTEX
  5
EA
330
CB
100
AcDbEntity
  8
0
 62
     9
420
 12632256
100
AcDbFaceRecord
 10
0.0
 20
0.0
 30
0.0
 70
   128
 71
    19
 72
    16
 73
    18
  0
VERTEX
  5
EB
330
CB
100
AcDbEntity
  8
0
 62
     9
420
 12632256
100
AcDbFaceRecord
 10
0.0
 20
0.0
 30
0.0
 70
   128
 71
    21
 72
    18
 73
    20
  0
VERTEX
  5
EC
330
CB
100
AcDbEntity
  8
0
 62
     9
420
 12632256
100
AcDbFaceRecord
 10
0.0
 20
0.0
 30
0.0
 70
   128
 71
    22
 72
    20
 73
     2
  0
VERTEX
  5
ED
330
CB
100
AcDbEntity
  8
0
 62
     9
420
 12632256
100
AcDbFaceRecord
 10
0.0
 20
0.0
 30
0.0
 70
   128
 71
     2
 72
     3
 73
    22
  0
VERTEX
  5
EE
330
CB
100
AcDbEntity
  8
0
 62
     9
420
 12632256
100
AcDbFaceRecord
 10
0.0
 20
0.0
 30
0.0
 70
   128
 71
    20
 72
    22
 73
    21
  0
VERTEX
  5
EF
330
CB
100
AcDbEntity
  8
0
 62
     9
420
 12632256
100
AcDbFaceRecord
 10
0.0
 20
0.0
 30
0.0
 70
   128
 71
    18
 72
    21
 73
    19
  0
VERTEX
  5
F0
330
CB
100
AcDbEntity
  8
0
 62
     9
420
 12632256
100
AcDbFaceRecord
 10
0.0
 20
0.0
 30
0.0
 70
   128
 71
    16
 72
    19
 73
    17
  0
VERTEX
  5
F1
330
CB
100
AcDbEntity
  8
0
 62
     9
420
 12632256
100
AcDbFaceRecord
 10
0.0
 20
0.0
 30
0.0
 70
   128
 71
    14
 72
    17
 73
    15
  0
VERTEX
  5
F2
330
CB
100
AcDbEntity
  8
0
 62
     9
420
 12632256
100
AcDbFaceRecord
 10
0.0
 20
0.0
 30
0.0
 70
   128
 71
    12
 72
    15
 73
    13
  0
VERTEX
  5
F3
330
CB
100
AcDbEntity
  8
0
 62
     9
420
 12632256
100
AcDbFaceRecord
 10
0.0
 20
0.0
 30
0.0
 70
   128
 71
    10
 72
    13
 73
    11
  0
VERTEX
  5
F4
330
CB
100
AcDbEntity
  8
0
 62
     9
420
 12632256
100
AcDbFaceRecord
 10
0.0
 20
0.0
 30
0.0
 70
   128
 71
     8
 72
    11
 73
     9
  0
VERTEX
  5
F5
330
CB
100
AcDbEntity
  8
0
 62
     9
420
 12632256
100
AcDbFaceRecord
 10
0.0
 20
0.0
 30
0.0
 70
   128
 71
     6
 72
     9
 73
     7
  0
VERTEX
  5
F6
330
CB
100
AcDbEntity
  8
0
 62
     9
420
 12632256
100
AcDbFaceRecord
 10
0.0
 20
0.0
 30
0.0
 70
   128
 71
     4
 72
     7
 73
     5
  0
VERTEX
  5
F7
330
CB
100
AcDbEntity
  8
0
 62
     9
420
 12632256
100
AcDbFaceRecord
 10
0.0
 20
0.0
 30
0.0
 70
   128
 71
     1
 72
     5
 73
     3
  0
SEQEND
  5
F8
330
CB
100
AcDbEntity
  8
0
 62
     9
420
 12632256
  0
ENDBLK
  5
FB
330
CA
100
AcDbEntity
  8
0
100
AcDbBlockEnd
  0
BLOCK
  5
114
330
FC
100
AcDbEntity
  8
0
100
AcDbBlockBegin
  2
e3_node(4)
 70
     0
 10
0.0
 20
0.0
 30
0.0
  3
e3_node(4)
  1

  0
POLYLINE
  5
FD
330
FC
100
AcDbEntity
  8
0
 62
     9
420
 12632256
100
AcDbPolyFaceMesh
 66
     1
 10
0.0
 20
0.0
 30
0.0
 70
    64
 71
    11
 72
     9
  0
VERTEX
  5
FE
330
FD
100
AcDbEntity
  8
0
100
AcDbVertex
100
AcDbPolyFaceMeshVertex
 10
58.5
 20
-20.01199913024902
 30
9.138999938964844
 70
   192
  0
VERTEX
  5
FF
330
FD
100
AcDbEntity
  8
0
100
AcDbVertex
100
AcDbPolyFaceMeshVertex
 10
58.5
 20
11.89400005340576
 30
18.50699996948242
 70
   192
  0
VERTEX
  5
100
330
FD
100
AcDbEntity
  8
0
100
AcDbVertex
100
AcDbPolyFaceMeshVertex
 10
58.5
 20
0.0
 30
22.0
 70
   192
  0
VERTEX
  5
101
330
FD
100
AcDbEntity
  8
0
100
AcDbVertex
100
AcDbPolyFaceMeshVertex
 10
58.5
 20
-16.62599945068359
 30
-14.4069995880127
 70
   192
  0
VERTEX
  5
102
330
FD
100
AcDbEntity
  8
0
100
AcDbVertex
100
AcDbPolyFaceMeshVertex
 10
58.5
 20
16.62599945068359
 30
-14.4069995880127
 70
   192
  0
VERTEX
  5
103
330
FD
100
AcDbEntity
  8
0
100
AcDbVertex
100
AcDbPolyFaceMeshVertex
 10
58.5
 20
21.77599906921387
 30
-3.13100004196167
 70
   192
  0
VERTEX
  5
104
330
FD
100
AcDbEntity
  8
0
100
AcDbVertex
100
AcDbPolyFaceMeshVertex
 10
58.5
 20
-6.197999954223633
 30
-21.10899925231934
 70
   192
  0
VERTEX
  5
105
330
FD
100
AcDbEntity
  8
0
100
AcDbVertex
100
AcDbPolyFaceMeshVertex
 10
58.5
 20
20.01199913024902
 30
9.138999938964844
 70
   192
  0
VERTEX
  5
106
330
FD
100
AcDbEntity
  8
0
100
AcDbVertex
100
AcDbPolyFaceMeshVertex
 10
58.5
 20
6.197999954223633
 30
-21.10899925231934
 70
   192
  0
VERTEX
  5
107
330
FD
100
AcDbEntity
  8
0
100
AcDbVertex
100
AcDbPolyFaceMeshVertex
 10
58.5
 20
-11.89400005340576
 30
18.50699996948242
 70
   192
  0
VERTEX
  5
108
330
FD
100
AcDbEntity
  8
0
100
AcDbVertex
100
AcDbPolyFaceMeshVertex
 10
58.5
 20
-21.77599906921387
 30
-3.13100004196167
 70
   192
  0
VERTEX
  5
109
330
FD
100
AcDbEntity
  8
0
 62
     9
420
 12632256
100
AcDbFaceRecord
 10
0.0
 20
0.0
 30
0.0
 70
   128
 71
     3
 72
     2
 73
     1
  0
VERTEX
  5
10A
330
FD
100
AcDbEntity
  8
0
 62
     9
420
 12632256
100
AcDbFaceRecord
 10
0.0
 20
0.0
 30
0.0
 70
   128
 71
     6
 72
     5
 73
     4
  0
VERTEX
  5
10B
330
FD
100
AcDbEntity
  8
0
 62
     9
420
 12632256
100
AcDbFaceRecord
 10
0.0
 20
0.0
 30
0.0
 70
   128
 71
     7
 72
     4
 73
     5
  0
VERTEX
  5
10C
330
FD
100
AcDbEntity
  8
0
 62
     9
420
 12632256
100
AcDbFaceRecord
 10
0.0
 20
0.0
 30
0.0
 70
   128
 71
     2
 72
     8
 73
     1
  0
VERTEX
  5
10D
330
FD
100
AcDbEntity
  8
0
 62
     9
420
 12632256
100
AcDbFaceRecord
 10
0.0
 20
0.0
 30
0.0
 70
   128
 71
     5
 72
     9
 73
     7
  0
VERTEX
  5
10E
330
FD
100
AcDbEntity
  8
0
 62
     9
420
 12632256
100
AcDbFaceRecord
 10
0.0
 20
0.0
 30
0.0
 70
   128
 71
     1
 72
    10
 73
     3
  0
VERTEX
  5
10F
330
FD
100
AcDbEntity
  8
0
 62
     9
420
 12632256
100
AcDbFaceRecord
 10
0.0
 20
0.0
 30
0.0
 70
   128
 71
     4
 72
    11
 73
     8
  0
VERTEX
  5
110
330
FD
100
AcDbEntity
  8
0
 62
     9
420
 12632256
100
AcDbFaceRecord
 10
0.0
 20
0.0
 30
0.0
 70
   128
 71
     4
 72
     8
 73
     6
  0
VERTEX
  5
111
330
FD
100
AcDbEntity
  8
0
 62
     9
420
 12632256
100
AcDbFaceRecord
 10
0.0
 20
0.0
 30
0.0
 70
   128
 71
     8
 72
    11
 73
     1
  0
SEQEND
  5
112
330
FD
100
AcDbEntity
  8
0
 62
     9
420
 12632256
  0
ENDBLK
  5
115
330
FC
100
AcDbEntity
  8
0
100
AcDbBlockEnd
  0
BLOCK
  5
128
330
116
100
AcDbEntity
  8
0
100
AcDbBlockBegin
  2
e3_node(5)
 70
     0
 10
0.0
 20
0.0
 30
0.0
  3
e3_node(5)
  1

  0
POLYLINE
  5
117
330
116
100
AcDbEntity
  8
0
 62
     9
420
 12632256
100
AcDbPolyFaceMesh
 66
     1
 10
0.0
 20
0.0
 30
0.0
 70
    64
 71
     8
 72
     6
  0
VERTEX
  5
118
330
117
100
AcDbEntity
  8
0
100
AcDbVertex
100
AcDbPolyFaceMeshVertex
 10
23.58300018310547
 20
0.0
 30
-31.95299911499023
 70
   192
  0
VERTEX
  5
119
330
117
100
AcDbEntity
  8
0
100
AcDbVertex
100
AcDbPolyFaceMeshVertex
 10
43.07300186157227
 20
-8.072999954223633
 30
-31.95299911499023
 70
   192
  0
VERTEX
  5
11A
330
117
100
AcDbEntity
  8
0
100
AcDbVertex
100
AcDbPolyFaceMeshVertex
 10
35.0
 20
-11.41699981689453
 30
-31.95299911499023
 70
   192
  0
VERTEX
  5
11B
330
117
100
AcDbEntity
  8
0
100
AcDbVertex
100
AcDbPolyFaceMeshVertex
 10
35.0
 20
11.41699981689453
 30
-31.95299911499023
 70
   192
  0
VERTEX
  5
11C
330
117
100
AcDbEntity
  8
0
100
AcDbVertex
100
AcDbPolyFaceMeshVertex
 10
43.07300186157227
 20
8.072999954223633
 30
-31.95299911499023
 70
   192
  0
VERTEX
  5
11D
330
117
100
AcDbEntity
  8
0
100
AcDbVertex
100
AcDbPolyFaceMeshVertex
 10
46.41699981689453
 20
0.0
 30
-31.95299911499023
 70
   192
  0
VERTEX
  5
11E
330
117
100
AcDbEntity
  8
0
100
AcDbVertex
100
AcDbPolyFaceMeshVertex
 10
26.92700004577637
 20
8.072999954223633
 30
-31.95299911499023
 70
   192
  0
VERTEX
  5
11F
330
117
100
AcDbEntity
  8
0
100
AcDbVertex
100
AcDbPolyFaceMeshVertex
 10
26.92700004577637
 20
-8.072999954223633
 30
-31.95299911499023
 70
   192
  0
VERTEX
  5
120
330
117
100
AcDbEntity
  8
0
 62
     9
420
 12632256
100
AcDbFaceRecord
 10
0.0
 20
0.0
 30
0.0
 70
   128
 71
     3
 72
     2
 73
     1
  0
VERTEX
  5
121
330
117
100
AcDbEntity
  8
0
 62
     9
420
 12632256
100
AcDbFaceRecord
 10
0.0
 20
0.0
 30
0.0
 70
   128
 71
     5
 72
     4
 73
     1
  0
VERTEX
  5
122
330
117
100
AcDbEntity
  8
0
 62
     9
420
 12632256
100
AcDbFaceRecord
 10
0.0
 20
0.0
 30
0.0
 70
   128
 71
     2
 72
     6
 73
     1
  0
VERTEX
  5
123
330
117
100
AcDbEntity
  8
0
 62
     9
420
 12632256
100
AcDbFaceRecord
 10
0.0
 20
0.0
 30
0.0
 70
   128
 71
     4
 72
     7
 73
     1
  0
VERTEX
  5
124
330
117
100
AcDbEntity
  8
0
 62
     9
420
 12632256
100
AcDbFaceRecord
 10
0.0
 20
0.0
 30
0.0
 70
   128
 71
     1
 72
     6
 73
     5
  0
VERTEX
  5
125
330
117
100
AcDbEntity
  8
0
 62
     9
420
 12632256
100
AcDbFaceRecord
 10
0.0
 20
0.0
 30
0.0
 70
   128
 71
     1
 72
     8
 73
     3
  0
SEQEND
  5
126
330
117
100
AcDbEntity
  8
0
 62
     9
420
 12632256
  0
ENDBLK
  5
129
330
116
100
AcDbEntity
  8
0
100
AcDbBlockEnd
  0
BLOCK
  5
14E
330
12A
100
AcDbEntity
  8
0
100
AcDbBlockBegin
  2
e3_node(6)
 70
     0
 10
0.0
 20
0.0
 30
0.0
  3
e3_node(6)
  1

  0
POLYLINE
  5
12B
330
12A
100
AcDbEntity
  8
0
 62
     9
420
 12632256
100
AcDbPolyFaceMesh
 66
     1
 10
0.0
 20
0.0
 30
0.0
 70
    64
 71
    16
 72
    16
  0
VERTEX
  5
12C
330
12B
100
AcDbEntity
  8
0
100
AcDbVertex
100
AcDbPolyFaceMeshVertex
 10
26.92700004577637
 20
8.072999954223633
 30
-31.95299911499023
 70
   192
  0
VERTEX
  5
12D
330
12B
100
AcDbEntity
  8
0
100
AcDbVertex
100
AcDbPolyFaceMeshVertex
 10
26.92700004577637
 20
8.072999954223633
 30
-19.92900085449219
 70
   192
  0
VERTEX
  5
12E
330
12B
100
AcDbEntity
  8
0
100
AcDbVertex
100
AcDbPolyFaceMeshVertex
 10
35.0
 20
11.41699981689453
 30
-19.92900085449219
 70
   192
  0
VERTEX
  5
12F
330
12B
100
AcDbEntity
  8
0
100
AcDbVertex
100
AcDbPolyFaceMeshVertex
 10
23.58300018310547
 20
0.0
 30
-31.95299911499023
 70
   192
  0
VERTEX
  5
130
330
12B
100
AcDbEntity
  8
0
100
AcDbVertex
100
AcDbPolyFaceMeshVertex
 10
23.58300018310547
 20
0.0
 30
-19.92900085449219
 70
   192
  0
VERTEX
  5
131
330
12B
100
AcDbEntity
  8
0
100
AcDbVertex
100
AcDbPolyFaceMeshVertex
 10
26.92700004577637
 20
-8.072999954223633
 30
-31.95299911499023
 70
   192
  0
VERTEX
  5
132
330
12B
100
AcDbEntity
  8
0
100
AcDbVertex
100
AcDbPolyFaceMeshVertex
 10
26.92700004577637
 20
-8.072999954223633
 30
-19.92900085449219
 70
   192
  0
VERTEX
  5
133
330
12B
100
AcDbEntity
  8
0
100
AcDbVertex
100
AcDbPolyFaceMeshVertex
 10
35.0
 20
-11.41699981689453
 30
-31.95299911499023
 70
   192
  0
VERTEX
  5
134
330
12B
100
AcDbEntity
  8
0
100
AcDbVertex
100
AcDbPolyFaceMeshVertex
 10
35.0
 20
-11.41699981689453
 30
-19.92900085449219
 70
   192
  0
VERTEX
  5
135
330
12B
100
AcDbEntity
  8
0
100
AcDbVertex
100
AcDbPolyFaceMeshVertex
 10
43.07300186157227
 20
-8.072999954223633
 30
-31.95299911499023
 70
   192
  0
VERTEX
  5
136
330
12B
100
AcDbEntity
  8
0
100
AcDbVertex
100
AcDbPolyFaceMeshVertex
 10
43.07300186157227
 20
-8.072999954223633
 30
-19.92900085449219
 70
   192
  0
VERTEX
  5
137
330
12B
100
AcDbEntity
  8
0
100
AcDbVertex
100
AcDbPolyFaceMeshVertex
 10
46.41699981689453
 20
0.0
 30
-31.95299911499023
 70
   192
  0
VERTEX
  5
138
330
12B
100
AcDbEntity
  8
0
100
AcDbVertex
100
AcDbPolyFaceMeshVertex
 10
46.41699981689453
 20
0.0
 30
-19.92900085449219
 70
   192
  0
VERTEX
  5
139
330
12B
100
AcDbEntity
  8
0
100
AcDbVertex
100
AcDbPolyFaceMeshVertex
 10
43.07300186157227
 20
8.072999954223633
 30
-19.92900085449219
 70
   192
  0
VERTEX
  5
13A
330
12B
100
AcDbEntity
  8
0
100
AcDbVertex
100
AcDbPolyFaceMeshVertex
 10
43.07300186157227
 20
8.072999954223633
 30
-31.95299911499023
 70
   192
  0
VERTEX
  5
13B
330
12B
100
AcDbEntity
  8
0
100
AcDbVertex
100
AcDbPolyFaceMeshVertex
 10
35.0
 20
11.41699981689453
 30
-31.95299911499023
 70
   192
  0
VERTEX
  5
13C
330
12B
100
AcDbEntity
  8
0
 62
     9
420
 12632256
100
AcDbFaceRecord
 10
0.0
 20
0.0
 30
0.0
 70
   128
 71
     3
 72
     2
 73
     1
  0
VERTEX
  5
13D
330
12B
100
AcDbEntity
  8
0
 62
     9
420
 12632256
100
AcDbFaceRecord
 10
0.0
 20
0.0
 30
0.0
 70
   128
 71
     2
 72
     5
 73
     4
  0
VERTEX
  5
13E
330
12B
100
AcDbEntity
  8
0
 62
     9
420
 12632256
100
AcDbFaceRecord
 10
0.0
 20
0.0
 30
0.0
 70
   128
 71
     7
 72
     6
 73
     4
  0
VERTEX
  5
13F
330
12B
100
AcDbEntity
  8
0
 62
     9
420
 12632256
100
AcDbFaceRecord
 10
0.0
 20
0.0
 30
0.0
 70
   128
 71
     7
 72
     9
 73
     8
  0
VERTEX
  5
140
330
12B
100
AcDbEntity
  8
0
 62
     9
420
 12632256
100
AcDbFaceRecord
 10
0.0
 20
0.0
 30
0.0
 70
   128
 71
     9
 72
    11
 73
    10
  0
VERTEX
  5
141
330
12B
100
AcDbEntity
  8
0
 62
     9
420
 12632256
100
AcDbFaceRecord
 10
0.0
 20
0.0
 30
0.0
 70
   128
 71
    11
 72
    13
 73
    12
  0
VERTEX
  5
142
330
12B
100
AcDbEntity
  8
0
 62
     9
420
 12632256
100
AcDbFaceRecord
 10
0.0
 20
0.0
 30
0.0
 70
   128
 71
    12
 72
    13
 73
    14
  0
VERTEX
  5
143
330
12B
100
AcDbEntity
  8
0
 62
     9
420
 12632256
100
AcDbFaceRecord
 10
0.0
 20
0.0
 30
0.0
 70
   128
 71
    15
 72
    14
 73
     3
  0
VERTEX
  5
144
330
12B
100
AcDbEntity
  8
0
 62
     9
420
 12632256
100
AcDbFaceRecord
 10
0.0
 20
0.0
 30
0.0
 70
   128
 71
     3
 72
    16
 73
    15
  0
VERTEX
  5
145
330
12B
100
AcDbEntity
  8
0
 62
     9
420
 12632256
100
AcDbFaceRecord
 10
0.0
 20
0.0
 30
0.0
 70
   128
 71
    14
 72
    15
 73
    12
  0
VERTEX
  5
146
330
12B
100
AcDbEntity
  8
0
 62
     9
420
 12632256
100
AcDbFaceRecord
 10
0.0
 20
0.0
 30
0.0
 70
   128
 71
    12
 72
    10
 73
    11
  0
VERTEX
  5
147
330
12B
100
AcDbEntity
  8
0
 62
     9
420
 12632256
100
AcDbFaceRecord
 10
0.0
 20
0.0
 30
0.0
 70
   128
 71
    10
 72
     8
 73
     9
  0
VERTEX
  5
148
330
12B
100
AcDbEntity
  8
0
 62
     9
420
 12632256
100
AcDbFaceRecord
 10
0.0
 20
0.0
 30
0.0
 70
   128
 71
     8
 72
     6
 73
     7
  0
VERTEX
  5
149
330
12B
100
AcDbEntity
  8
0
 62
     9
420
 12632256
100
AcDbFaceRecord
 10
0.0
 20
0.0
 30
0.0
 70
   128
 71
     4
 72
     5
 73
     7
  0
VERTEX
  5
14A
330
12B
100
AcDbEntity
  8
0
 62
     9
420
 12632256
100
AcDbFaceRecord
 10
0.0
 20
0.0
 30
0.0
 70
   128
 71
     4
 72
     1
 73
     2
  0
VERTEX
  5
14B
330
12B
100
AcDbEntity
  8
0
 62
     9
420
 12632256
100
AcDbFaceRecord
 10
0.0
 20
0.0
 30
0.0
 70
   128
 71
     1
 72
    16
 73
     3
  0
SEQEND
  5
14C
330
12B
100
AcDbEntity
  8
0
 62
     9
420
 12632256
  0
ENDBLK
  5
14F
330
12A
100
AcDbEntity
  8
0
100
AcDbBlockEnd
  0
BLOCK
  5
1B7
330
150
100
AcDbEntity
  8
0
100
AcDbBlockBegin
  2
e3_node(7)
 70
     0
 10
0.0
 20
0.0
 30
0.0
  3
e3_node(7)
  1

  0
POLYLINE
  5
151
330
150
100
AcDbEntity
  8
0
 62
     9
420
 12632256
100
AcDbPolyFaceMesh
 66
     1
 10
0.0
 20
0.0
 30
0.0
 70
    64
 71
    43
 72
    56
  0
VERTEX
  5
152
330
151
100
AcDbEntity
  8
0
100
AcDbVertex
100
AcDbPolyFaceMeshVertex
 10
65.83300018310547
 20
-17.13999938964844
 30
5.568999767303467
 70
   192
  0
VERTEX
  5
153
330
151
100
AcDbEntity
  8
0
100
AcDbVertex
100
AcDbPolyFaceMeshVertex
 10
65.83300018310547
 20
-17.72800064086914
 30
-0.0309999994933605
 70
   192
  0
VERTEX
  5
154
330
151
100
AcDbEntity
  8
0
100
AcDbVertex
100
AcDbPolyFaceMeshVertex
 10
68.6780014038086
 20
-9.210000038146973
 30
0.0
 70
   192
  0
VERTEX
  5
155
330
151
100
AcDbEntity
  8
0
100
AcDbVertex
100
AcDbPolyFaceMeshVertex
 10
68.6780014038086
 20
-8.29800033569336
 30
3.996000051498413
 70
   192
  0
VERTEX
  5
156
330
151
100
AcDbEntity
  8
0
100
AcDbVertex
100
AcDbPolyFaceMeshVertex
 10
65.83300018310547
 20
-15.9399995803833
 30
7.64799976348877
 70
   192
  0
VERTEX
  5
157
330
151
100
AcDbEntity
  8
0
100
AcDbVertex
100
AcDbPolyFaceMeshVertex
 10
65.83300018310547
 20
-13.39299964904785
 30
12.05900001525879
 70
   192
  0
VERTEX
  5
158
330
151
100
AcDbEntity
  8
0
100
AcDbVertex
100
AcDbPolyFaceMeshVertex
 10
68.6780014038086
 20
-5.742000102996826
 30
7.199999809265137
 70
   192
  0
VERTEX
  5
159
330
151
100
AcDbEntity
  8
0
100
AcDbVertex
100
AcDbPolyFaceMeshVertex
 10
65.83300018310547
 20
-11.01500034332275
 30
13.78600025177002
 70
   192
  0
VERTEX
  5
15A
330
151
100
AcDbEntity
  8
0
100
AcDbVertex
100
AcDbPolyFaceMeshVertex
 10
65.83300018310547
 20
-7.329999923706055
 30
16.4640007019043
 70
   192
  0
VERTEX
  5
15B
330
151
100
AcDbEntity
  8
0
100
AcDbVertex
100
AcDbPolyFaceMeshVertex
 10
68.6780014038086
 20
-2.049000024795532
 30
8.979000091552734
 70
   192
  0
VERTEX
  5
15C
330
151
100
AcDbEntity
  8
0
100
AcDbVertex
100
AcDbPolyFaceMeshVertex
 10
65.83300018310547
 20
-3.928999900817871
 30
17.1870002746582
 70
   192
  0
VERTEX
  5
15D
330
151
100
AcDbEntity
  8
0
100
AcDbVertex
100
AcDbPolyFaceMeshVertex
 10
65.83300018310547
 20
0.0
 30
18.02199935913086
 70
   192
  0
VERTEX
  5
15E
330
151
100
AcDbEntity
  8
0
100
AcDbVertex
100
AcDbPolyFaceMeshVertex
 10
68.6780014038086
 20
2.049000024795532
 30
8.979000091552734
 70
   192
  0
VERTEX
  5
15F
330
151
100
AcDbEntity
  8
0
100
AcDbVertex
100
AcDbPolyFaceMeshVertex
 10
65.83300018310547
 20
3.928999900817871
 30
17.1870002746582
 70
   192
  0
VERTEX
  5
160
330
151
100
AcDbEntity
  8
0
100
AcDbVertex
100
AcDbPolyFaceMeshVertex
 10
65.83300018310547
 20
7.329999923706055
 30
16.4640007019043
 70
   192
  0
VERTEX
  5
161
330
151
100
AcDbEntity
  8
0
100
AcDbVertex
100
AcDbPolyFaceMeshVertex
 10
68.6780014038086
 20
5.742000102996826
 30
7.199999809265137
 70
   192
  0
VERTEX
  5
162
330
151
100
AcDbEntity
  8
0
100
AcDbVertex
100
AcDbPolyFaceMeshVertex
 10
65.83300018310547
 20
11.01500034332275
 30
13.78600025177002
 70
   192
  0
VERTEX
  5
163
330
151
100
AcDbEntity
  8
0
100
AcDbVertex
100
AcDbPolyFaceMeshVertex
 10
65.83300018310547
 20
13.39299964904785
 30
12.05900001525879
 70
   192
  0
VERTEX
  5
164
330
151
100
AcDbEntity
  8
0
100
AcDbVertex
100
AcDbPolyFaceMeshVertex
 10
68.6780014038086
 20
8.29800033569336
 30
3.996000051498413
 70
   192
  0
VERTEX
  5
165
330
151
100
AcDbEntity
  8
0
100
AcDbVertex
100
AcDbPolyFaceMeshVertex
 10
65.83300018310547
 20
15.9399995803833
 30
7.64799976348877
 70
   192
  0
VERTEX
  5
166
330
151
100
AcDbEntity
  8
0
100
AcDbVertex
100
AcDbPolyFaceMeshVertex
 10
65.83300018310547
 20
17.13999938964844
 30
5.568999767303467
 70
   192
  0
VERTEX
  5
167
330
151
100
AcDbEntity
  8
0
100
AcDbVertex
100
AcDbPolyFaceMeshVertex
 10
68.6780014038086
 20
9.210000038146973
 30
0.0
 70
   192
  0
VERTEX
  5
168
330
151
100
AcDbEntity
  8
0
100
AcDbVertex
100
AcDbPolyFaceMeshVertex
 10
65.83300018310547
 20
17.72800064086914
 30
-0.0309999994933605
 70
   192
  0
VERTEX
  5
169
330
151
100
AcDbEntity
  8
0
100
AcDbVertex
100
AcDbPolyFaceMeshVertex
 10
65.83300018310547
 20
17.92300033569336
 30
-1.883999943733215
 70
   192
  0
VERTEX
  5
16A
330
151
100
AcDbEntity
  8
0
100
AcDbVertex
100
AcDbPolyFaceMeshVertex
 10
68.6780014038086
 20
8.29800033569336
 30
-3.996000051498413
 70
   192
  0
VERTEX
  5
16B
330
151
100
AcDbEntity
  8
0
100
AcDbVertex
100
AcDbPolyFaceMeshVertex
 10
65.83300018310547
 20
16.01799964904785
 30
-7.748000144958496
 70
   192
  0
VERTEX
  5
16C
330
151
100
AcDbEntity
  8
0
100
AcDbVertex
100
AcDbPolyFaceMeshVertex
 10
65.83300018310547
 20
15.60700035095215
 30
-9.01099967956543
 70
   192
  0
VERTEX
  5
16D
330
151
100
AcDbEntity
  8
0
100
AcDbVertex
100
AcDbPolyFaceMeshVertex
 10
68.6780014038086
 20
5.742000102996826
 30
-7.199999809265137
 70
   192
  0
VERTEX
  5
16E
330
151
100
AcDbEntity
  8
0
100
AcDbVertex
100
AcDbPolyFaceMeshVertex
 10
65.83300018310547
 20
11.125
 30
-13.98900032043457
 70
   192
  0
VERTEX
  5
16F
330
151
100
AcDbEntity
  8
0
100
AcDbVertex
100
AcDbPolyFaceMeshVertex
 10
65.83300018310547
 20
10.5930004119873
 30
-14.57999992370605
 70
   192
  0
VERTEX
  5
170
330
151
100
AcDbEntity
  8
0
100
AcDbVertex
100
AcDbPolyFaceMeshVertex
 10
68.6780014038086
 20
2.049000024795532
 30
-8.979000091552734
 70
   192
  0
VERTEX
  5
171
330
151
100
AcDbEntity
  8
0
100
AcDbVertex
100
AcDbPolyFaceMeshVertex
 10
65.83300018310547
 20
3.746999979019165
 30
-17.62800025939941
 70
   192
  0
VERTEX
  5
172
330
151
100
AcDbEntity
  8
0
100
AcDbVertex
100
AcDbPolyFaceMeshVertex
 10
65.83300018310547
 20
-3.746999979019165
 30
-17.62800025939941
 70
   192
  0
VERTEX
  5
173
330
151
100
AcDbEntity
  8
0
100
AcDbVertex
100
AcDbPolyFaceMeshVertex
 10
68.6780014038086
 20
-2.049000024795532
 30
-8.979000091552734
 70
   192
  0
VERTEX
  5
174
330
151
100
AcDbEntity
  8
0
100
AcDbVertex
100
AcDbPolyFaceMeshVertex
 10
65.83300018310547
 20
-3.98799991607666
 30
-17.52000045776367
 70
   192
  0
VERTEX
  5
175
330
151
100
AcDbEntity
  8
0
100
AcDbVertex
100
AcDbPolyFaceMeshVertex
 10
65.83300018310547
 20
-10.5930004119873
 30
-14.57999992370605
 70
   192
  0
VERTEX
  5
176
330
151
100
AcDbEntity
  8
0
100
AcDbVertex
100
AcDbPolyFaceMeshVertex
 10
68.6780014038086
 20
-5.742000102996826
 30
-7.199999809265137
 70
   192
  0
VERTEX
  5
177
330
151
100
AcDbEntity
  8
0
100
AcDbVertex
100
AcDbPolyFaceMeshVertex
 10
65.83300018310547
 20
-11.125
 30
-13.98900032043457
 70
   192
  0
VERTEX
  5
178
330
151
100
AcDbEntity
  8
0
100
AcDbVertex
100
AcDbPolyFaceMeshVertex
 10
65.83300018310547
 20
-15.60700035095215
 30
-9.01099967956543
 70
   192
  0
VERTEX
  5
179
330
151
100
AcDbEntity
  8
0
100
AcDbVertex
100
AcDbPolyFaceMeshVertex
 10
68.6780014038086
 20
-8.29800033569336
 30
-3.996000051498413
 70
   192
  0
VERTEX
  5
17A
330
151
100
AcDbEntity
  8
0
100
AcDbVertex
100
AcDbPolyFaceMeshVertex
 10
65.83300018310547
 20
-16.01799964904785
 30
-7.748000144958496
 70
   192
  0
VERTEX
  5
17B
330
151
100
AcDbEntity
  8
0
100
AcDbVertex
100
AcDbPolyFaceMeshVertex
 10
65.83300018310547
 20
-17.92300033569336
 30
-1.883999943733215
 70
   192
  0
VERTEX
  5
17C
330
151
100
AcDbEntity
  8
0
100
AcDbVertex
100
AcDbPolyFaceMeshVertex
 10
69.63999938964844
 20
0.0
 30
0.0
 70
   192
  0
VERTEX
  5
17D
330
151
100
AcDbEntity
  8
0
 62
     9
420
 12632256
100
AcDbFaceRecord
 10
0.0
 20
0.0
 30
0.0
 70
   128
 71
     3
 72
     2
 73
     1
  0
VERTEX
  5
17E
330
151
100
AcDbEntity
  8
0
 62
     9
420
 12632256
100
AcDbFaceRecord
 10
0.0
 20
0.0
 30
0.0
 70
   128
 71
     1
 72
     5
 73
     4
  0
VERTEX
  5
17F
330
151
100
AcDbEntity
  8
0
 62
     9
420
 12632256
100
AcDbFaceRecord
 10
0.0
 20
0.0
 30
0.0
 70
   128
 71
     4
 72
     5
 73
     6
  0
VERTEX
  5
180
330
151
100
AcDbEntity
  8
0
 62
     9
420
 12632256
100
AcDbFaceRecord
 10
0.0
 20
0.0
 30
0.0
 70
   128
 71
     6
 72
     8
 73
     7
  0
VERTEX
  5
181
330
151
100
AcDbEntity
  8
0
 62
     9
420
 12632256
100
AcDbFaceRecord
 10
0.0
 20
0.0
 30
0.0
 70
   128
 71
     7
 72
     8
 73
     9
  0
VERTEX
  5
182
330
151
100
AcDbEntity
  8
0
 62
     9
420
 12632256
100
AcDbFaceRecord
 10
0.0
 20
0.0
 30
0.0
 70
   128
 71
     9
 72
    11
 73
    10
  0
VERTEX
  5
183
330
151
100
AcDbEntity
  8
0
 62
     9
420
 12632256
100
AcDbFaceRecord
 10
0.0
 20
0.0
 30
0.0
 70
   128
 71
    13
 72
    10
 73
    12
  0
VERTEX
  5
184
330
151
100
AcDbEntity
  8
0
 62
     9
420
 12632256
100
AcDbFaceRecord
 10
0.0
 20
0.0
 30
0.0
 70
   128
 71
    12
 72
    14
 73
    13
  0
VERTEX
  5
185
330
151
100
AcDbEntity
  8
0
 62
     9
420
 12632256
100
AcDbFaceRecord
 10
0.0
 20
0.0
 30
0.0
 70
   128
 71
    16
 72
    13
 73
    15
  0
VERTEX
  5
186
330
151
100
AcDbEntity
  8
0
 62
     9
420
 12632256
100
AcDbFaceRecord
 10
0.0
 20
0.0
 30
0.0
 70
   128
 71
    15
 72
    17
 73
    16
  0
VERTEX
  5
187
330
151
100
AcDbEntity
  8
0
 62
     9
420
 12632256
100
AcDbFaceRecord
 10
0.0
 20
0.0
 30
0.0
 70
   128
 71
    19
 72
    16
 73
    18
  0
VERTEX
  5
188
330
151
100
AcDbEntity
  8
0
 62
     9
420
 12632256
100
AcDbFaceRecord
 10
0.0
 20
0.0
 30
0.0
 70
   128
 71
    18
 72
    20
 73
    19
  0
VERTEX
  5
189
330
151
100
AcDbEntity
  8
0
 62
     9
420
 12632256
100
AcDbFaceRecord
 10
0.0
 20
0.0
 30
0.0
 70
   128
 71
    22
 72
    19
 73
    21
  0
VERTEX
  5
18A
330
151
100
AcDbEntity
  8
0
 62
     9
420
 12632256
100
AcDbFaceRecord
 10
0.0
 20
0.0
 30
0.0
 70
   128
 71
    21
 72
    23
 73
    22
  0
VERTEX
  5
18B
330
151
100
AcDbEntity
  8
0
 62
     9
420
 12632256
100
AcDbFaceRecord
 10
0.0
 20
0.0
 30
0.0
 70
   128
 71
    25
 72
    22
 73
    24
  0
VERTEX
  5
18C
330
151
100
AcDbEntity
  8
0
 62
     9
420
 12632256
100
AcDbFaceRecord
 10
0.0
 20
0.0
 30
0.0
 70
   128
 71
    24
 72
    26
 73
    25
  0
VERTEX
  5
18D
330
151
100
AcDbEntity
  8
0
 62
     9
420
 12632256
100
AcDbFaceRecord
 10
0.0
 20
0.0
 30
0.0
 70
   128
 71
    28
 72
    25
 73
    27
  0
VERTEX
  5
18E
330
151
100
AcDbEntity
  8
0
 62
     9
420
 12632256
100
AcDbFaceRecord
 10
0.0
 20
0.0
 30
0.0
 70
   128
 71
    27
 72
    29
 73
    28
  0
VERTEX
  5
18F
330
151
100
AcDbEntity
  8
0
 62
     9
420
 12632256
100
AcDbFaceRecord
 10
0.0
 20
0.0
 30
0.0
 70
   128
 71
    31
 72
    28
 73
    30
  0
VERTEX
  5
190
330
151
100
AcDbEntity
  8
0
 62
     9
420
 12632256
100
AcDbFaceRecord
 10
0.0
 20
0.0
 30
0.0
 70
   128
 71
    30
 72
    32
 73
    31
  0
VERTEX
  5
191
330
151
100
AcDbEntity
  8
0
 62
     9
420
 12632256
100
AcDbFaceRecord
 10
0.0
 20
0.0
 30
0.0
 70
   128
 71
    31
 72
    32
 73
    33
  0
VERTEX
  5
192
330
151
100
AcDbEntity
  8
0
 62
     9
420
 12632256
100
AcDbFaceRecord
 10
0.0
 20
0.0
 30
0.0
 70
   128
 71
    33
 72
    35
 73
    34
  0
VERTEX
  5
193
330
151
100
AcDbEntity
  8
0
 62
     9
420
 12632256
100
AcDbFaceRecord
 10
0.0
 20
0.0
 30
0.0
 70
   128
 71
    34
 72
    35
 73
    36
  0
VERTEX
  5
194
330
151
100
AcDbEntity
  8
0
 62
     9
420
 12632256
100
AcDbFaceRecord
 10
0.0
 20
0.0
 30
0.0
 70
   128
 71
    36
 72
    38
 73
    37
  0
VERTEX
  5
195
330
151
100
AcDbEntity
  8
0
 62
     9
420
 12632256
100
AcDbFaceRecord
 10
0.0
 20
0.0
 30
0.0
 70
   128
 71
    37
 72
    38
 73
    39
  0
VERTEX
  5
196
330
151
100
AcDbEntity
  8
0
 62
     9
420
 12632256
100
AcDbFaceRecord
 10
0.0
 20
0.0
 30
0.0
 70
   128
 71
    39
 72
    41
 73
    40
  0
VERTEX
  5
197
330
151
100
AcDbEntity
  8
0
 62
     9
420
 12632256
100
AcDbFaceRecord
 10
0.0
 20
0.0
 30
0.0
 70
   128
 71
    40
 72
    41
 73
    42
  0
VERTEX
  5
198
330
151
100
AcDbEntity
  8
0
 62
     9
420
 12632256
100
AcDbFaceRecord
 10
0.0
 20
0.0
 30
0.0
 70
   128
 71
    42
 72
     2
 73
     3
  0
VERTEX
  5
199
330
151
100
AcDbEntity
  8
0
 62
     9
420
 12632256
100
AcDbFaceRecord
 10
0.0
 20
0.0
 30
0.0
 70
   128
 71
    42
 72
     3
 73
    40
  0
VERTEX
  5
19A
330
151
100
AcDbEntity
  8
0
 62
     9
420
 12632256
100
AcDbFaceRecord
 10
0.0
 20
0.0
 30
0.0
 70
   128
 71
    39
 72
    40
 73
    37
  0
VERTEX
  5
19B
330
151
100
AcDbEntity
  8
0
 62
     9
420
 12632256
100
AcDbFaceRecord
 10
0.0
 20
0.0
 30
0.0
 70
   128
 71
    36
 72
    37
 73
    34
  0
VERTEX
  5
19C
330
151
100
AcDbEntity
  8
0
 62
     9
420
 12632256
100
AcDbFaceRecord
 10
0.0
 20
0.0
 30
0.0
 70
   128
 71
    33
 72
    34
 73
    31
  0
VERTEX
  5
19D
330
151
100
AcDbEntity
  8
0
 62
     9
420
 12632256
100
AcDbFaceRecord
 10
0.0
 20
0.0
 30
0.0
 70
   128
 71
    28
 72
    29
 73
    30
  0
VERTEX
  5
19E
330
151
100
AcDbEntity
  8
0
 62
     9
420
 12632256
100
AcDbFaceRecord
 10
0.0
 20
0.0
 30
0.0
 70
   128
 71
    25
 72
    26
 73
    27
  0
VERTEX
  5
19F
330
151
100
AcDbEntity
  8
0
 62
     9
420
 12632256
100
AcDbFaceRecord
 10
0.0
 20
0.0
 30
0.0
 70
   128
 71
    22
 72
    23
 73
    24
  0
VERTEX
  5
1A0
330
151
100
AcDbEntity
  8
0
 62
     9
420
 12632256
100
AcDbFaceRecord
 10
0.0
 20
0.0
 30
0.0
 70
   128
 71
    19
 72
    20
 73
    21
  0
VERTEX
  5
1A1
330
151
100
AcDbEntity
  8
0
 62
     9
420
 12632256
100
AcDbFaceRecord
 10
0.0
 20
0.0
 30
0.0
 70
   128
 71
    16
 72
    17
 73
    18
  0
VERTEX
  5
1A2
330
151
100
AcDbEntity
  8
0
 62
     9
420
 12632256
100
AcDbFaceRecord
 10
0.0
 20
0.0
 30
0.0
 70
   128
 71
    13
 72
    14
 73
    15
  0
VERTEX
  5
1A3
330
151
100
AcDbEntity
  8
0
 62
     9
420
 12632256
100
AcDbFaceRecord
 10
0.0
 20
0.0
 30
0.0
 70
   128
 71
    10
 72
    11
 73
    12
  0
VERTEX
  5
1A4
330
151
100
AcDbEntity
  8
0
 62
     9
420
 12632256
100
AcDbFaceRecord
 10
0.0
 20
0.0
 30
0.0
 70
   128
 71
     9
 72
    10
 73
     7
  0
VERTEX
  5
1A5
330
151
100
AcDbEntity
  8
0
 62
     9
420
 12632256
100
AcDbFaceRecord
 10
0.0
 20
0.0
 30
0.0
 70
   128
 71
     6
 72
     7
 73
     4
  0
VERTEX
  5
1A6
330
151
100
AcDbEntity
  8
0
 62
     9
420
 12632256
100
AcDbFaceRecord
 10
0.0
 20
0.0
 30
0.0
 70
   128
 71
     1
 72
     4
 73
     3
  0
VERTEX
  5
1A7
330
151
100
AcDbEntity
  8
0
 62
     9
420
 12632256
100
AcDbFaceRecord
 10
0.0
 20
0.0
 30
0.0
 70
   128
 71
    43
 72
    40
 73
     3
  0
VERTEX
  5
1A8
330
151
100
AcDbEntity
  8
0
 62
     9
420
 12632256
100
AcDbFaceRecord
 10
0.0
 20
0.0
 30
0.0
 70
   128
 71
    43
 72
    37
 73
    40
  0
VERTEX
  5
1A9
330
151
100
AcDbEntity
  8
0
 62
     9
420
 12632256
100
AcDbFaceRecord
 10
0.0
 20
0.0
 30
0.0
 70
   128
 71
    43
 72
    34
 73
    37
  0
VERTEX
  5
1AA
330
151
100
AcDbEntity
  8
0
 62
     9
420
 12632256
100
AcDbFaceRecord
 10
0.0
 20
0.0
 30
0.0
 70
   128
 71
    43
 72
    31
 73
    34
  0
VERTEX
  5
1AB
330
151
100
AcDbEntity
  8
0
 62
     9
420
 12632256
100
AcDbFaceRecord
 10
0.0
 20
0.0
 30
0.0
 70
   128
 71
    43
 72
    28
 73
    31
  0
VERTEX
  5
1AC
330
151
100
AcDbEntity
  8
0
 62
     9
420
 12632256
100
AcDbFaceRecord
 10
0.0
 20
0.0
 30
0.0
 70
   128
 71
    43
 72
    25
 73
    28
  0
VERTEX
  5
1AD
330
151
100
AcDbEntity
  8
0
 62
     9
420
 12632256
100
AcDbFaceRecord
 10
0.0
 20
0.0
 30
0.0
 70
   128
 71
    43
 72
    22
 73
    25
  0
VERTEX
  5
1AE
330
151
100
AcDbEntity
  8
0
 62
     9
420
 12632256
100
AcDbFaceRecord
 10
0.0
 20
0.0
 30
0.0
 70
   128
 71
    43
 72
    19
 73
    22
  0
VERTEX
  5
1AF
330
151
100
AcDbEntity
  8
0
 62
     9
420
 12632256
100
AcDbFaceRecord
 10
0.0
 20
0.0
 30
0.0
 70
   128
 71
    43
 72
    16
 73
    19
  0
VERTEX
  5
1B0
330
151
100
AcDbEntity
  8
0
 62
     9
420
 12632256
100
AcDbFaceRecord
 10
0.0
 20
0.0
 30
0.0
 70
   128
 71
    43
 72
    13
 73
    16
  0
VERTEX
  5
1B1
330
151
100
AcDbEntity
  8
0
 62
     9
420
 12632256
100
AcDbFaceRecord
 10
0.0
 20
0.0
 30
0.0
 70
   128
 71
    43
 72
    10
 73
    13
  0
VERTEX
  5
1B2
330
151
100
AcDbEntity
  8
0
 62
     9
420
 12632256
100
AcDbFaceRecord
 10
0.0
 20
0.0
 30
0.0
 70
   128
 71
    43
 72
     7
 73
    10
  0
VERTEX
  5
1B3
330
151
100
AcDbEntity
  8
0
 62
     9
420
 12632256
100
AcDbFaceRecord
 10
0.0
 20
0.0
 30
0.0
 70
   128
 71
    43
 72
     4
 73
     7
  0
VERTEX
  5
1B4
330
151
100
AcDbEntity
  8
0
 62
     9
420
 12632256
100
AcDbFaceRecord
 10
0.0
 20
0.0
 30
0.0
 70
   128
 71
    43
 72
     3
 73
     4
  0
SEQEND
  5
1B5
330
151
100
AcDbEntity
  8
0
 62
     9
420
 12632256
  0
ENDBLK
  5
1B8
330
150
100
AcDbEntity
  8
0
100
AcDbBlockEnd
  0
BLOCK
  5
240
330
1B9
100
AcDbEntity
  8
0
100
AcDbBlockBegin
  2
e3_node(8)
 70
     0
 10
0.0
 20
0.0
 30
0.0
  3
e3_node(8)
  1

  0
POLYLINE
  5
1BA
330
1B9
100
AcDbEntity
  8
0
 62
     9
420
 12632256
100
AcDbPolyFaceMesh
 66
     1
 10
0.0
 20
0.0
 30
0.0
 70
    64
 71
    58
 72
    73
  0
VERTEX
  5
1BB
330
1BA
100
AcDbEntity
  8
0
100
AcDbVertex
100
AcDbPolyFaceMeshVertex
 10
62.8390007019043
 20
0.0
 30
21.22900009155273
 70
   192
  0
VERTEX
  5
1BC
330
1BA
100
AcDbEntity
  8
0
100
AcDbVertex
100
AcDbPolyFaceMeshVertex
 10
65.83300018310547
 20
0.0
 30
18.02199935913086
 70
   192
  0
VERTEX
  5
1BD
330
1BA
100
AcDbEntity
  8
0
100
AcDbVertex
100
AcDbPolyFaceMeshVertex
 10
65.83300018310547
 20
3.928999900817871
 30
17.1870002746582
 70
   192
  0
VERTEX
  5
1BE
330
1BA
100
AcDbEntity
  8
0
100
AcDbVertex
100
AcDbPolyFaceMeshVertex
 10
62.8390007019043
 20
8.635000228881836
 30
19.39399909973145
 70
   192
  0
VERTEX
  5
1BF
330
1BA
100
AcDbEntity
  8
0
100
AcDbVertex
100
AcDbPolyFaceMeshVertex
 10
65.83300018310547
 20
7.329999923706055
 30
16.4640007019043
 70
   192
  0
VERTEX
  5
1C0
330
1BA
100
AcDbEntity
  8
0
100
AcDbVertex
100
AcDbPolyFaceMeshVertex
 10
65.83300018310547
 20
11.01500034332275
 30
13.78600025177002
 70
   192
  0
VERTEX
  5
1C1
330
1BA
100
AcDbEntity
  8
0
100
AcDbVertex
100
AcDbPolyFaceMeshVertex
 10
62.8390007019043
 20
15.77600002288818
 30
14.20499992370605
 70
   192
  0
VERTEX
  5
1C2
330
1BA
100
AcDbEntity
  8
0
100
AcDbVertex
100
AcDbPolyFaceMeshVertex
 10
65.83300018310547
 20
13.39299964904785
 30
12.05900001525879
 70
   192
  0
VERTEX
  5
1C3
330
1BA
100
AcDbEntity
  8
0
100
AcDbVertex
100
AcDbPolyFaceMeshVertex
 10
65.83300018310547
 20
15.9399995803833
 30
7.64799976348877
 70
   192
  0
VERTEX
  5
1C4
330
1BA
100
AcDbEntity
  8
0
100
AcDbVertex
100
AcDbPolyFaceMeshVertex
 10
62.8390007019043
 20
20.19000053405762
 30
6.559999942779541
 70
   192
  0
VERTEX
  5
1C5
330
1BA
100
AcDbEntity
  8
0
100
AcDbVertex
100
AcDbPolyFaceMeshVertex
 10
65.83300018310547
 20
17.13999938964844
 30
5.568999767303467
 70
   192
  0
VERTEX
  5
1C6
330
1BA
100
AcDbEntity
  8
0
100
AcDbVertex
100
AcDbPolyFaceMeshVertex
 10
65.83300018310547
 20
17.72800064086914
 30
-0.0309999994933605
 70
   192
  0
VERTEX
  5
1C7
330
1BA
100
AcDbEntity
  8
0
100
AcDbVertex
100
AcDbPolyFaceMeshVertex
 10
62.8390007019043
 20
21.11300086975098
 30
-2.219000101089478
 70
   192
  0
VERTEX
  5
1C8
330
1BA
100
AcDbEntity
  8
0
100
AcDbVertex
100
AcDbPolyFaceMeshVertex
 10
65.83300018310547
 20
17.92300033569336
 30
-1.883999943733215
 70
   192
  0
VERTEX
  5
1C9
330
1BA
100
AcDbEntity
  8
0
100
AcDbVertex
100
AcDbPolyFaceMeshVertex
 10
65.83300018310547
 20
16.01799964904785
 30
-7.748000144958496
 70
   192
  0
VERTEX
  5
1CA
330
1BA
100
AcDbEntity
  8
0
100
AcDbVertex
100
AcDbPolyFaceMeshVertex
 10
62.8390007019043
 20
18.38500022888184
 30
-10.61499977111816
 70
   192
  0
VERTEX
  5
1CB
330
1BA
100
AcDbEntity
  8
0
100
AcDbVertex
100
AcDbPolyFaceMeshVertex
 10
65.83300018310547
 20
15.60700035095215
 30
-9.01099967956543
 70
   192
  0
VERTEX
  5
1CC
330
1BA
100
AcDbEntity
  8
0
100
AcDbVertex
100
AcDbPolyFaceMeshVertex
 10
65.83300018310547
 20
11.125
 30
-13.98900032043457
 70
   192
  0
VERTEX
  5
1CD
330
1BA
100
AcDbEntity
  8
0
100
AcDbVertex
100
AcDbPolyFaceMeshVertex
 10
62.8390007019043
 20
12.47799968719482
 30
-17.17499923706055
 70
   192
  0
VERTEX
  5
1CE
330
1BA
100
AcDbEntity
  8
0
100
AcDbVertex
100
AcDbPolyFaceMeshVertex
 10
62.8390007019043
 20
4.414000034332275
 30
-20.76499938964844
 70
   192
  0
VERTEX
  5
1CF
330
1BA
100
AcDbEntity
  8
0
100
AcDbVertex
100
AcDbPolyFaceMeshVertex
 10
65.83300018310547
 20
10.5930004119873
 30
-14.57999992370605
 70
   192
  0
VERTEX
  5
1D0
330
1BA
100
AcDbEntity
  8
0
100
AcDbVertex
100
AcDbPolyFaceMeshVertex
 10
65.83300018310547
 20
3.746999979019165
 30
-17.62800025939941
 70
   192
  0
VERTEX
  5
1D1
330
1BA
100
AcDbEntity
  8
0
100
AcDbVertex
100
AcDbPolyFaceMeshVertex
 10
65.83300018310547
 20
-3.746999979019165
 30
-17.62800025939941
 70
   192
  0
VERTEX
  5
1D2
330
1BA
100
AcDbEntity
  8
0
100
AcDbVertex
100
AcDbPolyFaceMeshVertex
 10
62.8390007019043
 20
-12.47799968719482
 30
-17.17499923706055
 70
   192
  0
VERTEX
  5
1D3
330
1BA
100
AcDbEntity
  8
0
100
AcDbVertex
100
AcDbPolyFaceMeshVertex
 10
62.8390007019043
 20
-4.414000034332275
 30
-20.76499938964844
 70
   192
  0
VERTEX
  5
1D4
330
1BA
100
AcDbEntity
  8
0
100
AcDbVertex
100
AcDbPolyFaceMeshVertex
 10
65.83300018310547
 20
-3.98799991607666
 30
-17.52000045776367
 70
   192
  0
VERTEX
  5
1D5
330
1BA
100
AcDbEntity
  8
0
100
AcDbVertex
100
AcDbPolyFaceMeshVertex
 10
62.8390007019043
 20
-18.38500022888184
 30
-10.61499977111816
 70
   192
  0
VERTEX
  5
1D6
330
1BA
100
AcDbEntity
  8
0
100
AcDbVertex
100
AcDbPolyFaceMeshVertex
 10
65.83300018310547
 20
-11.125
 30
-13.98900032043457
 70
   192
  0
VERTEX
  5
1D7
330
1BA
100
AcDbEntity
  8
0
100
AcDbVertex
100
AcDbPolyFaceMeshVertex
 10
65.83300018310547
 20
-10.5930004119873
 30
-14.57999992370605
 70
   192
  0
VERTEX
  5
1D8
330
1BA
100
AcDbEntity
  8
0
100
AcDbVertex
100
AcDbPolyFaceMeshVertex
 10
62.8390007019043
 20
-21.11300086975098
 30
-2.219000101089478
 70
   192
  0
VERTEX
  5
1D9
330
1BA
100
AcDbEntity
  8
0
100
AcDbVertex
100
AcDbPolyFaceMeshVertex
 10
65.83300018310547
 20
-16.01799964904785
 30
-7.748000144958496
 70
   192
  0
VERTEX
  5
1DA
330
1BA
100
AcDbEntity
  8
0
100
AcDbVertex
100
AcDbPolyFaceMeshVertex
 10
65.83300018310547
 20
-15.60700035095215
 30
-9.01099967956543
 70
   192
  0
VERTEX
  5
1DB
330
1BA
100
AcDbEntity
  8
0
100
AcDbVertex
100
AcDbPolyFaceMeshVertex
 10
62.8390007019043
 20
-20.19000053405762
 30
6.559999942779541
 70
   192
  0
VERTEX
  5
1DC
330
1BA
100
AcDbEntity
  8
0
100
AcDbVertex
100
AcDbPolyFaceMeshVertex
 10
65.83300018310547
 20
-17.72800064086914
 30
-0.0309999994933605
 70
   192
  0
VERTEX
  5
1DD
330
1BA
100
AcDbEntity
  8
0
100
AcDbVertex
100
AcDbPolyFaceMeshVertex
 10
65.83300018310547
 20
-17.92300033569336
 30
-1.883999943733215
 70
   192
  0
VERTEX
  5
1DE
330
1BA
100
AcDbEntity
  8
0
100
AcDbVertex
100
AcDbPolyFaceMeshVertex
 10
62.8390007019043
 20
-15.77600002288818
 30
14.20499992370605
 70
   192
  0
VERTEX
  5
1DF
330
1BA
100
AcDbEntity
  8
0
100
AcDbVertex
100
AcDbPolyFaceMeshVertex
 10
65.83300018310547
 20
-15.9399995803833
 30
7.64799976348877
 70
   192
  0
VERTEX
  5
1E0
330
1BA
100
AcDbEntity
  8
0
100
AcDbVertex
100
AcDbPolyFaceMeshVertex
 10
65.83300018310547
 20
-17.13999938964844
 30
5.568999767303467
 70
   192
  0
VERTEX
  5
1E1
330
1BA
100
AcDbEntity
  8
0
100
AcDbVertex
100
AcDbPolyFaceMeshVertex
 10
62.8390007019043
 20
-8.635000228881836
 30
19.39399909973145
 70
   192
  0
VERTEX
  5
1E2
330
1BA
100
AcDbEntity
  8
0
100
AcDbVertex
100
AcDbPolyFaceMeshVertex
 10
65.83300018310547
 20
-11.01500034332275
 30
13.78600025177002
 70
   192
  0
VERTEX
  5
1E3
330
1BA
100
AcDbEntity
  8
0
100
AcDbVertex
100
AcDbPolyFaceMeshVertex
 10
65.83300018310547
 20
-13.39299964904785
 30
12.05900001525879
 70
   192
  0
VERTEX
  5
1E4
330
1BA
100
AcDbEntity
  8
0
100
AcDbVertex
100
AcDbPolyFaceMeshVertex
 10
65.83300018310547
 20
-3.928999900817871
 30
17.1870002746582
 70
   192
  0
VERTEX
  5
1E5
330
1BA
100
AcDbEntity
  8
0
100
AcDbVertex
100
AcDbPolyFaceMeshVertex
 10
65.83300018310547
 20
-7.329999923706055
 30
16.4640007019043
 70
   192
  0
VERTEX
  5
1E6
330
1BA
100
AcDbEntity
  8
0
100
AcDbVertex
100
AcDbPolyFaceMeshVertex
 10
58.5
 20
8.902000427246094
 30
19.9950008392334
 70
   192
  0
VERTEX
  5
1E7
330
1BA
100
AcDbEntity
  8
0
100
AcDbVertex
100
AcDbPolyFaceMeshVertex
 10
58.5
 20
0.0
 30
21.88699913024902
 70
   192
  0
VERTEX
  5
1E8
330
1BA
100
AcDbEntity
  8
0
100
AcDbVertex
100
AcDbPolyFaceMeshVertex
 10
58.5
 20
16.26499938964844
 30
14.64500045776367
 70
   192
  0
VERTEX
  5
1E9
330
1BA
100
AcDbEntity
  8
0
100
AcDbVertex
100
AcDbPolyFaceMeshVertex
 10
58.5
 20
20.81599998474121
 30
6.763000011444092
 70
   192
  0
VERTEX
  5
1EA
330
1BA
100
AcDbEntity
  8
0
100
AcDbVertex
100
AcDbPolyFaceMeshVertex
 10
58.5
 20
21.76700019836426
 30
-2.288000106811523
 70
   192
  0
VERTEX
  5
1EB
330
1BA
100
AcDbEntity
  8
0
100
AcDbVertex
100
AcDbPolyFaceMeshVertex
 10
58.5
 20
18.95499992370605
 30
-10.94299983978271
 70
   192
  0
VERTEX
  5
1EC
330
1BA
100
AcDbEntity
  8
0
100
AcDbVertex
100
AcDbPolyFaceMeshVertex
 10
58.5
 20
12.86499977111816
 30
-17.70700073242188
 70
   192
  0
VERTEX
  5
1ED
330
1BA
100
AcDbEntity
  8
0
100
AcDbVertex
100
AcDbPolyFaceMeshVertex
 10
58.5
 20
4.551000118255615
 30
-21.40900039672852
 70
   192
  0
VERTEX
  5
1EE
330
1BA
100
AcDbEntity
  8
0
100
AcDbVertex
100
AcDbPolyFaceMeshVertex
 10
58.5
 20
-4.551000118255615
 30
-21.40900039672852
 70
   192
  0
VERTEX
  5
1EF
330
1BA
100
AcDbEntity
  8
0
100
AcDbVertex
100
AcDbPolyFaceMeshVertex
 10
58.5
 20
-12.86499977111816
 30
-17.70700073242188
 70
   192
  0
VERTEX
  5
1F0
330
1BA
100
AcDbEntity
  8
0
100
AcDbVertex
100
AcDbPolyFaceMeshVertex
 10
58.5
 20
-18.95499992370605
 30
-10.94299983978271
 70
   192
  0
VERTEX
  5
1F1
330
1BA
100
AcDbEntity
  8
0
100
AcDbVertex
100
AcDbPolyFaceMeshVertex
 10
58.5
 20
-20.81599998474121
 30
6.763000011444092
 70
   192
  0
VERTEX
  5
1F2
330
1BA
100
AcDbEntity
  8
0
100
AcDbVertex
100
AcDbPolyFaceMeshVertex
 10
58.5
 20
-21.76700019836426
 30
-2.288000106811523
 70
   192
  0
VERTEX
  5
1F3
330
1BA
100
AcDbEntity
  8
0
100
AcDbVertex
100
AcDbPolyFaceMeshVertex
 10
58.5
 20
-16.26499938964844
 30
14.64500045776367
 70
   192
  0
VERTEX
  5
1F4
330
1BA
100
AcDbEntity
  8
0
100
AcDbVertex
100
AcDbPolyFaceMeshVertex
 10
58.5
 20
-8.902000427246094
 30
19.9950008392334
 70
   192
  0
VERTEX
  5
1F5
330
1BA
100
AcDbEntity
  8
0
 62
     9
420
 12632256
100
AcDbFaceRecord
 10
0.0
 20
0.0
 30
0.0
 70
   128
 71
     3
 72
     2
 73
     1
  0
VERTEX
  5
1F6
330
1BA
100
AcDbEntity
  8
0
 62
     9
420
 12632256
100
AcDbFaceRecord
 10
0.0
 20
0.0
 30
0.0
 70
   128
 71
     1
 72
     4
 73
     3
  0
VERTEX
  5
1F7
330
1BA
100
AcDbEntity
  8
0
 62
     9
420
 12632256
100
AcDbFaceRecord
 10
0.0
 20
0.0
 30
0.0
 70
   128
 71
     6
 72
     5
 73
     4
  0
VERTEX
  5
1F8
330
1BA
100
AcDbEntity
  8
0
 62
     9
420
 12632256
100
AcDbFaceRecord
 10
0.0
 20
0.0
 30
0.0
 70
   128
 71
     4
 72
     7
 73
     6
  0
VERTEX
  5
1F9
330
1BA
100
AcDbEntity
  8
0
 62
     9
420
 12632256
100
AcDbFaceRecord
 10
0.0
 20
0.0
 30
0.0
 70
   128
 71
     9
 72
     8
 73
     7
  0
VERTEX
  5
1FA
330
1BA
100
AcDbEntity
  8
0
 62
     9
420
 12632256
100
AcDbFaceRecord
 10
0.0
 20
0.0
 30
0.0
 70
   128
 71
     7
 72
    10
 73
     9
  0
VERTEX
  5
1FB
330
1BA
100
AcDbEntity
  8
0
 62
     9
420
 12632256
100
AcDbFaceRecord
 10
0.0
 20
0.0
 30
0.0
 70
   128
 71
    12
 72
    11
 73
    10
  0
VERTEX
  5
1FC
330
1BA
100
AcDbEntity
  8
0
 62
     9
420
 12632256
100
AcDbFaceRecord
 10
0.0
 20
0.0
 30
0.0
 70
   128
 71
    10
 72
    13
 73
    12
  0
VERTEX
  5
1FD
330
1BA
100
AcDbEntity
  8
0
 62
     9
420
 12632256
100
AcDbFaceRecord
 10
0.0
 20
0.0
 30
0.0
 70
   128
 71
    15
 72
    14
 73
    13
  0
VERTEX
  5
1FE
330
1BA
100
AcDbEntity
  8
0
 62
     9
420
 12632256
100
AcDbFaceRecord
 10
0.0
 20
0.0
 30
0.0
 70
   128
 71
    13
 72
    16
 73
    15
  0
VERTEX
  5
1FF
330
1BA
100
AcDbEntity
  8
0
 62
     9
420
 12632256
100
AcDbFaceRecord
 10
0.0
 20
0.0
 30
0.0
 70
   128
 71
    18
 72
    17
 73
    16
  0
VERTEX
  5
200
330
1BA
100
AcDbEntity
  8
0
 62
     9
420
 12632256
100
AcDbFaceRecord
 10
0.0
 20
0.0
 30
0.0
 70
   128
 71
    16
 72
    19
 73
    18
  0
VERTEX
  5
201
330
1BA
100
AcDbEntity
  8
0
 62
     9
420
 12632256
100
AcDbFaceRecord
 10
0.0
 20
0.0
 30
0.0
 70
   128
 71
    21
 72
    19
 73
    20
  0
VERTEX
  5
202
330
1BA
100
AcDbEntity
  8
0
 62
     9
420
 12632256
100
AcDbFaceRecord
 10
0.0
 20
0.0
 30
0.0
 70
   128
 71
    23
 72
    22
 73
    20
  0
VERTEX
  5
203
330
1BA
100
AcDbEntity
  8
0
 62
     9
420
 12632256
100
AcDbFaceRecord
 10
0.0
 20
0.0
 30
0.0
 70
   128
 71
    26
 72
    25
 73
    24
  0
VERTEX
  5
204
330
1BA
100
AcDbEntity
  8
0
 62
     9
420
 12632256
100
AcDbFaceRecord
 10
0.0
 20
0.0
 30
0.0
 70
   128
 71
    26
 72
    23
 73
    25
  0
VERTEX
  5
205
330
1BA
100
AcDbEntity
  8
0
 62
     9
420
 12632256
100
AcDbFaceRecord
 10
0.0
 20
0.0
 30
0.0
 70
   128
 71
    28
 72
    24
 73
    27
  0
VERTEX
  5
206
330
1BA
100
AcDbEntity
  8
0
 62
     9
420
 12632256
100
AcDbFaceRecord
 10
0.0
 20
0.0
 30
0.0
 70
   128
 71
    28
 72
    29
 73
    24
  0
VERTEX
  5
207
330
1BA
100
AcDbEntity
  8
0
 62
     9
420
 12632256
100
AcDbFaceRecord
 10
0.0
 20
0.0
 30
0.0
 70
   128
 71
    31
 72
    27
 73
    30
  0
VERTEX
  5
208
330
1BA
100
AcDbEntity
  8
0
 62
     9
420
 12632256
100
AcDbFaceRecord
 10
0.0
 20
0.0
 30
0.0
 70
   128
 71
    31
 72
    32
 73
    27
  0
VERTEX
  5
209
330
1BA
100
AcDbEntity
  8
0
 62
     9
420
 12632256
100
AcDbFaceRecord
 10
0.0
 20
0.0
 30
0.0
 70
   128
 71
    34
 72
    30
 73
    33
  0
VERTEX
  5
20A
330
1BA
100
AcDbEntity
  8
0
 62
     9
420
 12632256
100
AcDbFaceRecord
 10
0.0
 20
0.0
 30
0.0
 70
   128
 71
    34
 72
    35
 73
    30
  0
VERTEX
  5
20B
330
1BA
100
AcDbEntity
  8
0
 62
     9
420
 12632256
100
AcDbFaceRecord
 10
0.0
 20
0.0
 30
0.0
 70
   128
 71
    37
 72
    33
 73
    36
  0
VERTEX
  5
20C
330
1BA
100
AcDbEntity
  8
0
 62
     9
420
 12632256
100
AcDbFaceRecord
 10
0.0
 20
0.0
 30
0.0
 70
   128
 71
    37
 72
    38
 73
    33
  0
VERTEX
  5
20D
330
1BA
100
AcDbEntity
  8
0
 62
     9
420
 12632256
100
AcDbFaceRecord
 10
0.0
 20
0.0
 30
0.0
 70
   128
 71
    40
 72
    36
 73
    39
  0
VERTEX
  5
20E
330
1BA
100
AcDbEntity
  8
0
 62
     9
420
 12632256
100
AcDbFaceRecord
 10
0.0
 20
0.0
 30
0.0
 70
   128
 71
    40
 72
    41
 73
    36
  0
VERTEX
  5
20F
330
1BA
100
AcDbEntity
  8
0
 62
     9
420
 12632256
100
AcDbFaceRecord
 10
0.0
 20
0.0
 30
0.0
 70
   128
 71
    42
 72
    39
 73
     1
  0
VERTEX
  5
210
330
1BA
100
AcDbEntity
  8
0
 62
     9
420
 12632256
100
AcDbFaceRecord
 10
0.0
 20
0.0
 30
0.0
 70
   128
 71
    42
 72
    43
 73
    39
  0
VERTEX
  5
211
330
1BA
100
AcDbEntity
  8
0
 62
     9
420
 12632256
100
AcDbFaceRecord
 10
0.0
 20
0.0
 30
0.0
 70
   128
 71
     1
 72
    45
 73
    44
  0
VERTEX
  5
212
330
1BA
100
AcDbEntity
  8
0
 62
     9
420
 12632256
100
AcDbFaceRecord
 10
0.0
 20
0.0
 30
0.0
 70
   128
 71
     4
 72
    44
 73
    46
  0
VERTEX
  5
213
330
1BA
100
AcDbEntity
  8
0
 62
     9
420
 12632256
100
AcDbFaceRecord
 10
0.0
 20
0.0
 30
0.0
 70
   128
 71
     7
 72
    46
 73
    47
  0
VERTEX
  5
214
330
1BA
100
AcDbEntity
  8
0
 62
     9
420
 12632256
100
AcDbFaceRecord
 10
0.0
 20
0.0
 30
0.0
 70
   128
 71
    10
 72
    47
 73
    48
  0
VERTEX
  5
215
330
1BA
100
AcDbEntity
  8
0
 62
     9
420
 12632256
100
AcDbFaceRecord
 10
0.0
 20
0.0
 30
0.0
 70
   128
 71
    13
 72
    48
 73
    49
  0
VERTEX
  5
216
330
1BA
100
AcDbEntity
  8
0
 62
     9
420
 12632256
100
AcDbFaceRecord
 10
0.0
 20
0.0
 30
0.0
 70
   128
 71
    16
 72
    49
 73
    50
  0
VERTEX
  5
217
330
1BA
100
AcDbEntity
  8
0
 62
     9
420
 12632256
100
AcDbFaceRecord
 10
0.0
 20
0.0
 30
0.0
 70
   128
 71
    19
 72
    50
 73
    51
  0
VERTEX
  5
218
330
1BA
100
AcDbEntity
  8
0
 62
     9
420
 12632256
100
AcDbFaceRecord
 10
0.0
 20
0.0
 30
0.0
 70
   128
 71
    20
 72
    51
 73
    52
  0
VERTEX
  5
219
330
1BA
100
AcDbEntity
  8
0
 62
     9
420
 12632256
100
AcDbFaceRecord
 10
0.0
 20
0.0
 30
0.0
 70
   128
 71
    25
 72
    52
 73
    53
  0
VERTEX
  5
21A
330
1BA
100
AcDbEntity
  8
0
 62
     9
420
 12632256
100
AcDbFaceRecord
 10
0.0
 20
0.0
 30
0.0
 70
   128
 71
    27
 72
    24
 73
    53
  0
VERTEX
  5
21B
330
1BA
100
AcDbEntity
  8
0
 62
     9
420
 12632256
100
AcDbFaceRecord
 10
0.0
 20
0.0
 30
0.0
 70
   128
 71
    30
 72
    27
 73
    54
  0
VERTEX
  5
21C
330
1BA
100
AcDbEntity
  8
0
 62
     9
420
 12632256
100
AcDbFaceRecord
 10
0.0
 20
0.0
 30
0.0
 70
   128
 71
    30
 72
    56
 73
    55
  0
VERTEX
  5
21D
330
1BA
100
AcDbEntity
  8
0
 62
     9
420
 12632256
100
AcDbFaceRecord
 10
0.0
 20
0.0
 30
0.0
 70
   128
 71
    33
 72
    55
 73
    57
  0
VERTEX
  5
21E
330
1BA
100
AcDbEntity
  8
0
 62
     9
420
 12632256
100
AcDbFaceRecord
 10
0.0
 20
0.0
 30
0.0
 70
   128
 71
    36
 72
    57
 73
    58
  0
VERTEX
  5
21F
330
1BA
100
AcDbEntity
  8
0
 62
     9
420
 12632256
100
AcDbFaceRecord
 10
0.0
 20
0.0
 30
0.0
 70
   128
 71
     1
 72
    39
 73
    58
  0
VERTEX
  5
220
330
1BA
100
AcDbEntity
  8
0
 62
     9
420
 12632256
100
AcDbFaceRecord
 10
0.0
 20
0.0
 30
0.0
 70
   128
 71
    58
 72
    45
 73
     1
  0
VERTEX
  5
221
330
1BA
100
AcDbEntity
  8
0
 62
     9
420
 12632256
100
AcDbFaceRecord
 10
0.0
 20
0.0
 30
0.0
 70
   128
 71
    58
 72
    39
 73
    36
  0
VERTEX
  5
222
330
1BA
100
AcDbEntity
  8
0
 62
     9
420
 12632256
100
AcDbFaceRecord
 10
0.0
 20
0.0
 30
0.0
 70
   128
 71
    57
 72
    36
 73
    33
  0
VERTEX
  5
223
330
1BA
100
AcDbEntity
  8
0
 62
     9
420
 12632256
100
AcDbFaceRecord
 10
0.0
 20
0.0
 30
0.0
 70
   128
 71
    55
 72
    33
 73
    30
  0
VERTEX
  5
224
330
1BA
100
AcDbEntity
  8
0
 62
     9
420
 12632256
100
AcDbFaceRecord
 10
0.0
 20
0.0
 30
0.0
 70
   128
 71
    54
 72
    56
 73
    30
  0
VERTEX
  5
225
330
1BA
100
AcDbEntity
  8
0
 62
     9
420
 12632256
100
AcDbFaceRecord
 10
0.0
 20
0.0
 30
0.0
 70
   128
 71
    53
 72
    54
 73
    27
  0
VERTEX
  5
226
330
1BA
100
AcDbEntity
  8
0
 62
     9
420
 12632256
100
AcDbFaceRecord
 10
0.0
 20
0.0
 30
0.0
 70
   128
 71
    53
 72
    24
 73
    25
  0
VERTEX
  5
227
330
1BA
100
AcDbEntity
  8
0
 62
     9
420
 12632256
100
AcDbFaceRecord
 10
0.0
 20
0.0
 30
0.0
 70
   128
 71
    52
 72
    25
 73
    20
  0
VERTEX
  5
228
330
1BA
100
AcDbEntity
  8
0
 62
     9
420
 12632256
100
AcDbFaceRecord
 10
0.0
 20
0.0
 30
0.0
 70
   128
 71
    51
 72
    20
 73
    19
  0
VERTEX
  5
229
330
1BA
100
AcDbEntity
  8
0
 62
     9
420
 12632256
100
AcDbFaceRecord
 10
0.0
 20
0.0
 30
0.0
 70
   128
 71
    50
 72
    19
 73
    16
  0
VERTEX
  5
22A
330
1BA
100
AcDbEntity
  8
0
 62
     9
420
 12632256
100
AcDbFaceRecord
 10
0.0
 20
0.0
 30
0.0
 70
   128
 71
    49
 72
    16
 73
    13
  0
VERTEX
  5
22B
330
1BA
100
AcDbEntity
  8
0
 62
     9
420
 12632256
100
AcDbFaceRecord
 10
0.0
 20
0.0
 30
0.0
 70
   128
 71
    48
 72
    13
 73
    10
  0
VERTEX
  5
22C
330
1BA
100
AcDbEntity
  8
0
 62
     9
420
 12632256
100
AcDbFaceRecord
 10
0.0
 20
0.0
 30
0.0
 70
   128
 71
    47
 72
    10
 73
     7
  0
VERTEX
  5
22D
330
1BA
100
AcDbEntity
  8
0
 62
     9
420
 12632256
100
AcDbFaceRecord
 10
0.0
 20
0.0
 30
0.0
 70
   128
 71
    46
 72
     7
 73
     4
  0
VERTEX
  5
22E
330
1BA
100
AcDbEntity
  8
0
 62
     9
420
 12632256
100
AcDbFaceRecord
 10
0.0
 20
0.0
 30
0.0
 70
   128
 71
    44
 72
     4
 73
     1
  0
VERTEX
  5
22F
330
1BA
100
AcDbEntity
  8
0
 62
     9
420
 12632256
100
AcDbFaceRecord
 10
0.0
 20
0.0
 30
0.0
 70
   128
 71
     1
 72
     2
 73
    42
  0
VERTEX
  5
230
330
1BA
100
AcDbEntity
  8
0
 62
     9
420
 12632256
100
AcDbFaceRecord
 10
0.0
 20
0.0
 30
0.0
 70
   128
 71
    39
 72
    43
 73
    40
  0
VERTEX
  5
231
330
1BA
100
AcDbEntity
  8
0
 62
     9
420
 12632256
100
AcDbFaceRecord
 10
0.0
 20
0.0
 30
0.0
 70
   128
 71
    36
 72
    41
 73
    37
  0
VERTEX
  5
232
330
1BA
100
AcDbEntity
  8
0
 62
     9
420
 12632256
100
AcDbFaceRecord
 10
0.0
 20
0.0
 30
0.0
 70
   128
 71
    33
 72
    38
 73
    34
  0
VERTEX
  5
233
330
1BA
100
AcDbEntity
  8
0
 62
     9
420
 12632256
100
AcDbFaceRecord
 10
0.0
 20
0.0
 30
0.0
 70
   128
 71
    30
 72
    35
 73
    31
  0
VERTEX
  5
234
330
1BA
100
AcDbEntity
  8
0
 62
     9
420
 12632256
100
AcDbFaceRecord
 10
0.0
 20
0.0
 30
0.0
 70
   128
 71
    27
 72
    32
 73
    28
  0
VERTEX
  5
235
330
1BA
100
AcDbEntity
  8
0
 62
     9
420
 12632256
100
AcDbFaceRecord
 10
0.0
 20
0.0
 30
0.0
 70
   128
 71
    24
 72
    29
 73
    26
  0
VERTEX
  5
236
330
1BA
100
AcDbEntity
  8
0
 62
     9
420
 12632256
100
AcDbFaceRecord
 10
0.0
 20
0.0
 30
0.0
 70
   128
 71
    20
 72
    25
 73
    23
  0
VERTEX
  5
237
330
1BA
100
AcDbEntity
  8
0
 62
     9
420
 12632256
100
AcDbFaceRecord
 10
0.0
 20
0.0
 30
0.0
 70
   128
 71
    20
 72
    22
 73
    21
  0
VERTEX
  5
238
330
1BA
100
AcDbEntity
  8
0
 62
     9
420
 12632256
100
AcDbFaceRecord
 10
0.0
 20
0.0
 30
0.0
 70
   128
 71
    19
 72
    21
 73
    18
  0
VERTEX
  5
239
330
1BA
100
AcDbEntity
  8
0
 62
     9
420
 12632256
100
AcDbFaceRecord
 10
0.0
 20
0.0
 30
0.0
 70
   128
 71
    16
 72
    17
 73
    15
  0
VERTEX
  5
23A
330
1BA
100
AcDbEntity
  8
0
 62
     9
420
 12632256
100
AcDbFaceRecord
 10
0.0
 20
0.0
 30
0.0
 70
   128
 71
    13
 72
    14
 73
    12
  0
VERTEX
  5
23B
330
1BA
100
AcDbEntity
  8
0
 62
     9
420
 12632256
100
AcDbFaceRecord
 10
0.0
 20
0.0
 30
0.0
 70
   128
 71
    10
 72
    11
 73
     9
  0
VERTEX
  5
23C
330
1BA
100
AcDbEntity
  8
0
 62
     9
420
 12632256
100
AcDbFaceRecord
 10
0.0
 20
0.0
 30
0.0
 70
   128
 71
     7
 72
     8
 73
     6
  0
VERTEX
  5
23D
330
1BA
100
AcDbEntity
  8
0
 62
     9
420
 12632256
100
AcDbFaceRecord
 10
0.0
 20
0.0
 30
0.0
 70
   128
 71
     4
 72
     5
 73
     3
  0
SEQEND
  5
23E
330
1BA
100
AcDbEntity
  8
0
 62
     9
420
 12632256
  0
ENDBLK
  5
241
330
1B9
100
AcDbEntity
  8
0
100
AcDbBlockEnd
  0
ENDSEC
  0
SECTION
  2
ENTITIES
  0
INSERT
  5
56
330
1F
100
AcDbEntity
  8
Layer 1
100
AcDbBlockReference
  2
e3_node
 10
0.0
 20
0.0
 30
0.0
  0
INSERT
  5
91
330
1F
100
AcDbEntity
  8
Layer 1
100
AcDbBlockReference
  2
e3_node(1)
 10
0.0
 20
0.0
 30
0.0
  0
INSERT
  5
C7
330
1F
100
AcDbEntity
  8
Layer 1
100
AcDbBlockReference
  2
e3_node(2)
 10
0.0
 20
0.0
 30
0.0
  0
INSERT
  5
F9
330
1F
100
AcDbEntity
  8
Layer 1
100
AcDbBlockReference
  2
e3_node(3)
 10
0.0
 20
0.0
 30
0.0
  0
INSERT
  5
113
330
1F
100
AcDbEntity
  8
Layer 1
100
AcDbBlockReference
  2
e3_node(4)
 10
0.0
 20
0.0
 30
0.0
  0
INSERT
  5
127
330
1F
100
AcDbEntity
  8
Layer 1
100
AcDbBlockReference
  2
e3_node(5)
 10
0.0
 20
0.0
 30
0.0
  0
INSERT
  5
14D
330
1F
100
AcDbEntity
  8
Layer 1
100
AcDbBlockReference
  2
e3_node(6)
 10
0.0
 20
0.0
 30
0.0
  0
INSERT
  5
1B6
330
1F
100
AcDbEntity
  8
Layer 1
100
AcDbBlockReference
  2
e3_node(7)
 10
0.0
 20
0.0
 30
0.0
  0
INSERT
  5
23F
330
1F
100
AcDbEntity
  8
Layer 1
100
AcDbBlockReference
  2
e3_node(8)
 10
0.0
 20
0.0
 30
0.0
  0
ENDSEC
  0
SECTION
  2
OBJECTS
  0
DICTIONARY
  5
C
330
0
100
AcDbDictionary
281
     1
  3
ACAD_GROUP
350
D
  3
ACAD_LAYOUT
350
1A
  3
ACAD_MLEADERSTYLE
350
263
  3
ACAD_MLINESTYLE
350
17
  3
ACAD_PLOTSETTINGS
350
19
  3
ACAD_PLOTSTYLENAME
350
E
  3
ACAD_TABLESTYLE
350
262
  3
ACAD_VISUALSTYLE
350
2A
  0
DICTIONARY
  5
D
102
{ACAD_REACTORS
330
C
102
}
330
C
100
AcDbDictionary
281
     1
  0
DICTIONARY
  5
1A
102
{ACAD_REACTORS
330
C
102
}
330
C
100
AcDbDictionary
281
     1
  3
Layout1
350
1E
  3
Model
350
22
  0
DICTIONARY
  5
263
102
{ACAD_REACTORS
330
C
102
}
330
C
100
AcDbDictionary
281
     1
  0
DICTIONARY
  5
17
102
{ACAD_REACTORS
330
C
102
}
330
C
100
AcDbDictionary
281
     1
  3
Standard
350
18
  0
DICTIONARY
  5
19
102
{ACAD_REACTORS
330
C
102
}
330
C
100
AcDbDictionary
281
     1
  0
ACDBDICTIONARYWDFLT
  5
E
102
{ACAD_REACTORS
330
C
102
}
330
C
100
AcDbDictionary
281
     1
  3
Normal
350
F
100
AcDbDictionaryWithDefault
340
F
  0
DICTIONARY
  5
262
102
{ACAD_REACTORS
330
C
102
}
330
C
100
AcDbDictionary
281
     1
  0
DICTIONARY
  5
2A
102
{ACAD_REACTORS
330
C
102
}
330
C
100
AcDbDictionary
281
     1
  3
2dWireframe
350
2F
  3
3D Hidden
350
31
  3
3dWireframe
350
30
  3
Basic
350
32
  3
Brighten
350
36
  3
ColorChange
350
3A
  3
Conceptual
350
34
  3
Dim
350
35
  3
Facepattern
350
39
  3
Flat
350
2B
  3
FlatWithEdges
350
2C
  3
Gouraud
350
2D
  3
GouraudWithEdges
350
2E
  3
Linepattern
350
38
  3
Realistic
350
33
  3
Thicken
350
37
  0
LAYOUT
  5
1E
102
{ACAD_REACTORS
330
1A
102
}
330
1A
100
AcDbPlotSettings
  1

  2
none_device
  4

  6

 40
0.0
 41
0.0
 42
0.0
 43
0.0
 44
0.0
 45
0.0
 46
0.0
 47
0.0
 48
0.0
 49
0.0
140
0.0
141
0.0
142
1.0
143
1.0
 70
   688
 72
     0
 73
     0
 74
     5
  7

 75
    16
 76
     0
 77
     2
 78
   300
147
1.0
148
0.0
149
0.0
100
AcDbLayout
  1
Layout1
 70
     1
 71
     1
 10
0.0
 20
0.0
 11
12.0
 21
9.0
 12
0.0
 22
0.0
 32
0.0
 14
1.000000000000000E+20
 24
1.000000000000000E+20
 34
1.000000000000000E+20
 15
-1.000000000000000E+20
 25
-1.000000000000000E+20
 35
-1.000000000000000E+20
146
0.0
 13
0.0
 23
0.0
 33
0.0
 16
1.0
 26
0.0
 36
0.0
 17
0.0
 27
1.0
 37
0.0
 76
     0
330
1B
  0
LAYOUT
  5
22
102
{ACAD_REACTORS
330
1A
102
}
330
1A
100
AcDbPlotSettings
  1

  2
none_device
  4

  6

 40
0.0
 41
0.0
 42
0.0
 43
0.0
 44
0.0
 45
0.0
 46
0.0
 47
0.0
 48
0.0
 49
0.0
140
0.0
141
0.0
142
1.0
143
1.0
 70
  1712
 72
     0
 73
     0
 74
     0
  7

 75
     0
 76
     0
 77
     2
 78
   300
147
1.0
148
0.0
149
0.0
100
AcDbLayout
  1
Model
 70
     1
 71
     0
 10
0.0
 20
0.0
 11
12.0
 21
9.0
 12
0.0
 22
0.0
 32
0.0
 14
1.000000000000000E+20
 24
1.000000000000000E+20
 34
1.000000000000000E+20
 15
-1.000000000000000E+20
 25
-1.000000000000000E+20
 35
-1.000000000000000E+20
146
0.0
 13
0.0
 23
0.0
 33
0.0
 16
1.0
 26
0.0
 36
0.0
 17
0.0
 27
1.0
 37
0.0
 76
     0
330
1F
331
29
  0
MLINESTYLE
  5
18
102
{ACAD_REACTORS
330
17
102
}
330
17
100
AcDbMlineStyle
  2
Standard
 70
     0
  3

 62
   256
 51
90.0
 52
90.0
 71
     2
 49
0.5
 62
   256
  6
BYLAYER
 49
-0.5
 62
   256
  6
BYLAYER
  0
ACDBPLACEHOLDER
  5
F
102
{ACAD_REACTORS
330
E
102
}
330
E
  0
VISUALSTYLE
  5
2F
102
{ACAD_REACTORS
330
2A
102
}
102
{ACAD_XDICTIONARY
360
24A
102
}
330
2A
100
AcDbVisualStyle
  2
2dWireframe
 70
     4
 71
     0
 72
     2
 73
     0
 90
        0
 40
-0.6
 41
-30.0
 62
     5
 63
     7
421
 16777215
 74
     1
 91
        4
 64
     7
 65
   257
 75
     1
175
     1
 42
1.0
 92
        0
 66
   257
 43
1.0
 76
     1
 77
     6
 78
     2
 67
     7
 79
     5
170
     0
171
     0
290
     0
174
     0
 93
        1
 44
0.0
173
     0
291
     0
 45
0.0
1001
ACAD
1000
AcDbSavedByObjectVersion
1070
     0
  0
VISUALSTYLE
  5
31
102
{ACAD_REACTORS
330
2A
102
}
102
{ACAD_XDICTIONARY
360
24E
102
}
330
2A
100
AcDbVisualStyle
  2
3D Hidden
 70
     6
 71
     1
 72
     2
 73
     2
 90
        0
 40
-0.6
 41
-30.0
 62
     5
 63
     7
421
 16777215
 74
     2
 91
        2
 64
     7
 65
   257
 75
     2
175
     1
 42
40.0
 92
        0
 66
   257
 43
1.0
 76
     1
 77
     6
 78
     2
 67
     7
 79
     3
170
     0
171
     0
290
     0
174
     0
 93
        1
 44
0.0
173
     0
291
     0
 45
0.0
1001
ACAD
1000
AcDbSavedByObjectVersion
1070
     0
  0
VISUALSTYLE
  5
30
102
{ACAD_REACTORS
330
2A
102
}
102
{ACAD_XDICTIONARY
360
24C
102
}
330
2A
100
AcDbVisualStyle
  2
3dWireframe
 70
     5
 71
     0
 72
     2
 73
     0
 90
        0
 40
-0.6
 41
-30.0
 62
     5
 63
     7
421
 16777215
 74
     1
 91
        4
 64
     7
 65
   257
 75
     1
175
     1
 42
1.0
 92
        0
 66
   257
 43
1.0
 76
     1
 77
     6
 78
     2
 67
     7
 79
     5
170
     0
171
     0
290
     0
174
     0
 93
        1
 44
0.0
173
     0
291
     0
 45
0.0
1001
ACAD
1000
AcDbSavedByObjectVersion
1070
     0
  0
VISUALSTYLE
  5
32
102
{ACAD_REACTORS
330
2A
102
}
102
{ACAD_XDICTIONARY
360
250
102
}
330
2A
100
AcDbVisualStyle
  2
Basic
 70
     7
 71
     1
 72
     0
 73
     1
 90
        0
 40
-0.6
 41
-30.0
 62
     5
 63
     7
421
 16777215
 74
     0
 91
        4
 64
     7
 65
   257
 75
     1
175
     1
 42
1.0
 92
        8
 66
     7
 43
1.0
 76
     1
 77
     6
 78
     2
 67
     7
 79
     5
170
     0
171
     0
290
     0
174
     0
 93
        1
 44
0.0
173
     0
291
     1
 45
0.0
1001
ACAD
1000
AcDbSavedByObjectVersion
1070
     0
  0
VISUALSTYLE
  5
36
102
{ACAD_REACTORS
330
2A
102
}
102
{ACAD_XDICTIONARY
360
258
102
}
330
2A
100
AcDbVisualStyle
  2
Brighten
 70
    12
 71
     2
 72
     2
 73
     0
 90
        0
 40
-0.6
 41
-30.0
 62
     5
 63
     7
421
 16777215
 74
     1
 91
        4
 64
     7
 65
   257
 75
     1
175
     1
 42
1.0
 92
        8
 66
     7
 43
1.0
 76
     1
 77
     6
 78
     2
 67
     7
 79
     5
170
     0
171
     0
290
     0
174
     0
 93
        1
 44
50.0
173
     0
291
     1
 45
0.0
1001
ACAD
1000
AcDbSavedByObjectVersion
1070
     0
  0
VISUALSTYLE
  5
3A
102
{ACAD_REACTORS
330
2A
102
}
102
{ACAD_XDICTIONARY
360
260
102
}
330
2A
100
AcDbVisualStyle
  2
ColorChange
 70
    16
 71
     2
 72
     2
 73
     3
 90
        0
 40
-0.6
 41
-30.0
 62
     5
 63
     8
421
  8421504
 74
     1
 91
        4
 64
     7
 65
   257
 75
     1
175
     1
 42
1.0
 92
        8
 66
     8
424
  8421504
 43
1.0
 76
     1
 77
     6
 78
     2
 67
     7
 79
     5
170
     0
171
     0
290
     0
174
     0
 93
        1
 44
0.0
173
     0
291
     1
 45
0.0
1001
ACAD
1000
AcDbSavedByObjectVersion
1070
     0
  0
VISUALSTYLE
  5
34
102
{ACAD_REACTORS
330
2A
102
}
102
{ACAD_XDICTIONARY
360
254
102
}
330
2A
100
AcDbVisualStyle
  2
Conceptual
 70
     9
 71
     3
 72
     2
 73
     0
 90
        0
 40
-0.6
 41
-30.0
 62
     5
 63
     7
421
 16777215
 74
     2
 91
        2
 64
     7
 65
   257
 75
     1
175
     1
 42
40.0
 92
        8
 66
     7
 43
1.0
 76
     1
 77
     6
 78
     2
 67
     7
 79
     3
170
     0
171
     0
290
     0
174
     0
 93
        1
 44
0.0
173
     0
291
     0
 45
0.0
1001
ACAD
1000
AcDbSavedByObjectVersion
1070
     0
  0
VISUALSTYLE
  5
35
102
{ACAD_REACTORS
330
2A
102
}
102
{ACAD_XDICTIONARY
360
256
102
}
330
2A
100
AcDbVisualStyle
  2
Dim
 70
    11
 71
     2
 72
     2
 73
     0
 90
        0
 40
-0.6
 41
-30.0
 62
     5
 63
     7
421
 16777215
 74
     1
 91
        4
 64
     7
 65
   257
 75
     1
175
     1
 42
1.0
 92
        8
 66
     7
 43
1.0
 76
     1
 77
     6
 78
     2
 67
     7
 79
     5
170
     0
171
     0
290
     0
174
     0
 93
        1
 44
-50.0
173
     0
291
     1
 45
0.0
1001
ACAD
1000
AcDbSavedByObjectVersion
1070
     0
  0
VISUALSTYLE
  5
39
102
{ACAD_REACTORS
330
2A
102
}
102
{ACAD_XDICTIONARY
360
25E
102
}
330
2A
100
AcDbVisualStyle
  2
Facepattern
 70
    15
 71
     2
 72
     2
 73
     0
 90
        0
 40
-0.6
 41
-30.0
 62
     5
 63
     7
421
 16777215
 74
     1
 91
        4
 64
     7
 65
   257
 75
     1
175
     1
 42
1.0
 92
        8
 66
     7
 43
1.0
 76
     1
 77
     6
 78
     2
 67
     7
 79
     5
170
     0
171
     0
290
     0
174
     0
 93
        1
 44
0.0
173
     0
291
     1
 45
0.0
1001
ACAD
1000
AcDbSavedByObjectVersion
1070
     0
  0
VISUALSTYLE
  5
2B
102
{ACAD_REACTORS
330
2A
102
}
102
{ACAD_XDICTIONARY
360
242
102
}
330
2A
100
AcDbVisualStyle
  2
Flat
 70
     0
 71
     2
 72
     1
 73
     1
 90
        2
 40
-0.6
 41
30.0
 62
     5
 63
     7
421
 16777215
 74
     0
 91
        4
 64
     7
 65
   257
 75
     1
175
     1
 42
1.0
 92
        8
 66
     7
 43
1.0
 76
     1
 77
     6
 78
     2
 67
     7
 79
     5
170
     0
171
     0
290
     0
174
     0
 93
       13
 44
0.0
173
     0
291
     1
 45
0.0
1001
ACAD
1000
AcDbSavedByObjectVersion
1070
     0
  0
VISUALSTYLE
  5
2C
102
{ACAD_REACTORS
330
2A
102
}
102
{ACAD_XDICTIONARY
360
244
102
}
330
2A
100
AcDbVisualStyle
  2
FlatWithEdges
 70
     1
 71
     2
 72
     1
 73
     1
 90
        2
 40
-0.6
 41
30.0
 62
     5
 63
     7
421
 16777215
 74
     1
 91
        4
 64
     7
 65
   257
 75
     1
175
     1
 42
1.0
 92
        0
 66
   257
 43
1.0
 76
     1
 77
     6
 78
     2
 67
     7
 79
     5
170
     0
171
     0
290
     0
174
     0
 93
       13
 44
0.0
173
     0
291
     1
 45
0.0
1001
ACAD
1000
AcDbSavedByObjectVersion
1070
     0
  0
VISUALSTYLE
  5
2D
102
{ACAD_REACTORS
330
2A
102
}
102
{ACAD_XDICTIONARY
360
246
102
}
330
2A
100
AcDbVisualStyle
  2
Gouraud
 70
     2
 71
     2
 72
     2
 73
     1
 90
        2
 40
-0.6
 41
30.0
 62
     5
 63
     7
421
 16777215
 74
     0
 91
        4
 64
     7
 65
   257
 75
     1
175
     1
 42
1.0
 92
        0
 66
     7
 43
1.0
 76
     1
 77
     6
 78
     2
 67
     7
 79
     5
170
     0
171
     0
290
     0
174
     0
 93
       13
 44
0.0
173
     0
291
     1
 45
0.0
1001
ACAD
1000
AcDbSavedByObjectVersion
1070
     0
  0
VISUALSTYLE
  5
2E
102
{ACAD_REACTORS
330
2A
102
}
102
{ACAD_XDICTIONARY
360
248
102
}
330
2A
100
AcDbVisualStyle
  2
GouraudWithEdges
 70
     3
 71
     2
 72
     2
 73
     1
 90
        2
 40
-0.6
 41
30.0
 62
     5
 63
     7
421
 16777215
 74
     1
 91
        4
 64
     7
 65
   257
 75
     1
175
     1
 42
1.0
 92
        0
 66
   257
 43
1.0
 76
     1
 77
     6
 78
     2
 67
     7
 79
     5
170
     0
171
     0
290
     0
174
     0
 93
       13
 44
0.0
173
     0
291
     1
 45
0.0
1001
ACAD
1000
AcDbSavedByObjectVersion
1070
     0
  0
VISUALSTYLE
  5
38
102
{ACAD_REACTORS
330
2A
102
}
102
{ACAD_XDICTIONARY
360
25C
102
}
330
2A
100
AcDbVisualStyle
  2
Linepattern
 70
    14
 71
     2
 72
     2
 73
     0
 90
        0
 40
-0.6
 41
-30.0
 62
     5
 63
     7
421
 16777215
 74
     1
 91
        4
 64
     7
 65
   257
 75
     7
175
     7
 42
1.0
 92
        8
 66
     7
 43
1.0
 76
     1
 77
     6
 78
     2
 67
     7
 79
     5
170
     0
171
     0
290
     0
174
     0
 93
        1
 44
0.0
173
     0
291
     1
 45
0.0
1001
ACAD
1000
AcDbSavedByObjectVersion
1070
     0
  0
VISUALSTYLE
  5
33
102
{ACAD_REACTORS
330
2A
102
}
102
{ACAD_XDICTIONARY
360
252
102
}
330
2A
100
AcDbVisualStyle
  2
Realistic
 70
     8
 71
     2
 72
     2
 73
     0
 90
        0
 40
-0.6
 41
-30.0
 62
     5
 63
     7
421
 16777215
 74
     1
 91
        0
 64
     7
 65
   257
 75
     1
175
     1
 42
1.0
 92
        8
 66
     8
424
  7895160
 43
1.0
 76
     1
 77
     6
 78
     2
 67
     7
 79
     5
170
     0
171
     0
290
     0
174
     0
 93
       13
 44
0.0
173
     0
291
     0
 45
0.0
1001
ACAD
1000
AcDbSavedByObjectVersion
1070
     0
  0
VISUALSTYLE
  5
37
102
{ACAD_REACTORS
330
2A
102
}
102
{ACAD_XDICTIONARY
360
25A
102
}
330
2A
100
AcDbVisualStyle
  2
Thicken
 70
    13
 71
     2
 72
     2
 73
     0
 90
        0
 40
-0.6
 41
-30.0
 62
     5
 63
     7
421
 16777215
 74
     1
 91
        4
 64
     7
 65
   257
 75
     1
175
     1
 42
1.0
 92
       12
 66
     7
 43
1.0
 76
     1
 77
     6
 78
     2
 67
     7
 79
     5
170
     0
171
     0
290
     0
174
     0
 93
        1
 44
0.0
173
     0
291
     1
 45
0.0
1001
ACAD
1000
AcDbSavedByObjectVersion
1070
     0
  0
DICTIONARY
  5
24A
330
2F
100
AcDbDictionary
280
     1
281
     1
  3
ACAD_XREC_ROUNDTRIP
360
24B
  0
DICTIONARY
  5
24E
330
31
100
AcDbDictionary
280
     1
281
     1
  3
ACAD_XREC_ROUNDTRIP
360
24F
  0
DICTIONARY
  5
24C
330
30
100
AcDbDictionary
280
     1
281
     1
  3
ACAD_XREC_ROUNDTRIP
360
24D
  0
DICTIONARY
  5
250
330
32
100
AcDbDictionary
280
     1
281
     1
  3
ACAD_XREC_ROUNDTRIP
360
251
  0
DICTIONARY
  5
258
330
36
100
AcDbDictionary
280
     1
281
     1
  3
ACAD_XREC_ROUNDTRIP
360
259
  0
DICTIONARY
  5
260
330
3A
100
AcDbDictionary
280
     1
281
     1
  3
ACAD_XREC_ROUNDTRIP
360
261
  0
DICTIONARY
  5
254
330
34
100
AcDbDictionary
280
     1
281
     1
  3
ACAD_XREC_ROUNDTRIP
360
255
  0
DICTIONARY
  5
256
330
35
100
AcDbDictionary
280
     1
281
     1
  3
ACAD_XREC_ROUNDTRIP
360
257
  0
DICTIONARY
  5
25E
330
39
100
AcDbDictionary
280
     1
281
     1
  3
ACAD_XREC_ROUNDTRIP
360
25F
  0
DICTIONARY
  5
242
330
2B
100
AcDbDictionary
280
     1
281
     1
  3
ACAD_XREC_ROUNDTRIP
360
243
  0
DICTIONARY
  5
244
330
2C
100
AcDbDictionary
280
     1
281
     1
  3
ACAD_XREC_ROUNDTRIP
360
245
  0
DICTIONARY
  5
246
330
2D
100
AcDbDictionary
280
     1
281
     1
  3
ACAD_XREC_ROUNDTRIP
360
247
  0
DICTIONARY
  5
248
330
2E
100
AcDbDictionary
280
     1
281
     1
  3
ACAD_XREC_ROUNDTRIP
360
249
  0
DICTIONARY
  5
25C
330
38
100
AcDbDictionary
280
     1
281
     1
  3
ACAD_XREC_ROUNDTRIP
360
25D
  0
DICTIONARY
  5
252
330
33
100
AcDbDictionary
280
     1
281
     1
  3
ACAD_XREC_ROUNDTRIP
360
253
  0
DICTIONARY
  5
25A
330
37
100
AcDbDictionary
280
     1
281
     1
  3
ACAD_XREC_ROUNDTRIP
360
25B
  0
XRECORD
  5
24B
102
{ACAD_REACTORS
330
24A
102
}
330
24A
100
AcDbXrecord
280
     1
102
RTVSPropertyOp0
 70
     1
102
RTVSPropertyOp1
 70
     1
102
RTVSPropertyOp2
 70
     1
102
RTVSPropertyOp3
 70
     1
102
RTVSPropertyOp4
 70
     1
102
RTVSPropertyOp5
 70
     1
102
RTVSPropertyOp6
 70
     1
102
RTVSPropertyOp7
 70
     1
102
RTVSPropertyOp8
 70
     1
102
RTVSPropertyOp9
 70
     1
102
RTVSPropertyOp10
 70
     1
102
RTVSPropertyOp11
 70
     1
102
RTVSPropertyOp12
 70
     1
102
RTVSPropertyOp13
 70
     1
102
RTVSPropertyOp14
 70
     1
102
RTVSPropertyOp15
 70
     1
102
RTVSPropertyOp16
 70
     1
102
RTVSPropertyOp17
 70
     1
102
RTVSPropertyOp18
 70
     1
102
RTVSPropertyOp19
 70
     1
102
RTVSPropertyOp20
 70
     1
102
RTVSPropertyOp21
 70
     1
102
RTVSPropertyOp22
 70
     1
102
RTVSPropertyOp23
 70
     1
102
RTVSPropertyOp24
 70
     1
102
RTVSPropertyOp25
 70
     1
102
RTVSPropertyOp26
 70
     1
102
RTVSPropertyOp27
 70
     1
  0
XRECORD
  5
24F
102
{ACAD_REACTORS
330
24E
102
}
330
24E
100
AcDbXrecord
280
     1
102
RTVSPropertyOp0
 70
     1
102
RTVSPropertyOp1
 70
     1
102
RTVSPropertyOp2
 70
     1
102
RTVSPropertyOp3
 70
     1
102
RTVSPropertyOp4
 70
     1
102
RTVSPropertyOp5
 70
     1
102
RTVSPropertyOp6
 70
     1
102
RTVSPropertyOp7
 70
     1
102
RTVSPropertyOp8
 70
     1
102
RTVSPropertyOp9
 70
     1
102
RTVSPropertyOp10
 70
     1
102
RTVSPropertyOp11
 70
     1
102
RTVSPropertyOp12
 70
     1
102
RTVSPropertyOp13
 70
     1
102
RTVSPropertyOp14
 70
     1
102
RTVSPropertyOp15
 70
     1
102
RTVSPropertyOp16
 70
     1
102
RTVSPropertyOp17
 70
     1
102
RTVSPropertyOp18
 70
     1
102
RTVSPropertyOp19
 70
     1
102
RTVSPropertyOp20
 70
     1
102
RTVSPropertyOp21
 70
     1
102
RTVSPropertyOp22
 70
     1
102
RTVSPropertyOp23
 70
     1
102
RTVSPropertyOp24
 70
     1
102
RTVSPropertyOp25
 70
     1
102
RTVSPropertyOp26
 70
     1
102
RTVSPropertyOp27
 70
     1
  0
XRECORD
  5
24D
102
{ACAD_REACTORS
330
24C
102
}
330
24C
100
AcDbXrecord
280
     1
102
RTVSPropertyOp0
 70
     1
102
RTVSPropertyOp1
 70
     1
102
RTVSPropertyOp2
 70
     1
102
RTVSPropertyOp3
 70
     1
102
RTVSPropertyOp4
 70
     1
102
RTVSPropertyOp5
 70
     1
102
RTVSPropertyOp6
 70
     1
102
RTVSPropertyOp7
 70
     1
102
RTVSPropertyOp8
 70
     1
102
RTVSPropertyOp9
 70
     1
102
RTVSPropertyOp10
 70
     1
102
RTVSPropertyOp11
 70
     1
102
RTVSPropertyOp12
 70
     1
102
RTVSPropertyOp13
 70
     1
102
RTVSPropertyOp14
 70
     1
102
RTVSPropertyOp15
 70
     1
102
RTVSPropertyOp16
 70
     1
102
RTVSPropertyOp17
 70
     1
102
RTVSPropertyOp18
 70
     1
102
RTVSPropertyOp19
 70
     1
102
RTVSPropertyOp20
 70
     1
102
RTVSPropertyOp21
 70
     1
102
RTVSPropertyOp22
 70
     1
102
RTVSPropertyOp23
 70
     1
102
RTVSPropertyOp24
 70
     1
102
RTVSPropertyOp25
 70
     1
102
RTVSPropertyOp26
 70
     1
102
RTVSPropertyOp27
 70
     1
  0
XRECORD
  5
251
102
{ACAD_REACTORS
330
250
102
}
330
250
100
AcDbXrecord
280
     1
102
RTVSPropertyOp0
 70
     1
102
RTVSPropertyOp1
 70
     1
102
RTVSPropertyOp2
 70
     1
102
RTVSPropertyOp3
 70
     1
102
RTVSPropertyOp4
 70
     1
102
RTVSPropertyOp5
 70
     1
102
RTVSPropertyOp6
 70
     1
102
RTVSPropertyOp7
 70
     1
102
RTVSPropertyOp8
 70
     1
102
RTVSPropertyOp9
 70
     1
102
RTVSPropertyOp10
 70
     1
102
RTVSPropertyOp11
 70
     1
102
RTVSPropertyOp12
 70
     1
102
RTVSPropertyOp13
 70
     1
102
RTVSPropertyOp14
 70
     1
102
RTVSPropertyOp15
 70
     1
102
RTVSPropertyOp16
 70
     1
102
RTVSPropertyOp17
 70
     1
102
RTVSPropertyOp18
 70
     1
102
RTVSPropertyOp19
 70
     1
102
RTVSPropertyOp20
 70
     1
102
RTVSPropertyOp21
 70
     1
102
RTVSPropertyOp22
 70
     1
102
RTVSPropertyOp23
 70
     1
102
RTVSPropertyOp24
 70
     1
102
RTVSPropertyOp25
 70
     1
102
RTVSPropertyOp26
 70
     1
102
RTVSPropertyOp27
 70
     1
  0
XRECORD
  5
259
102
{ACAD_REACTORS
330
258
102
}
330
258
100
AcDbXrecord
280
     1
102
RTVSPropertyOp0
 70
     1
102
RTVSPropertyOp1
 70
     1
102
RTVSPropertyOp2
 70
     1
102
RTVSPropertyOp3
 70
     1
102
RTVSPropertyOp4
 70
     1
102
RTVSPropertyOp5
 70
     1
102
RTVSPropertyOp6
 70
     1
102
RTVSPropertyOp7
 70
     1
102
RTVSPropertyOp8
 70
     1
102
RTVSPropertyOp9
 70
     1
102
RTVSPropertyOp10
 70
     1
102
RTVSPropertyOp11
 70
     1
102
RTVSPropertyOp12
 70
     1
102
RTVSPropertyOp13
 70
     1
102
RTVSPropertyOp14
 70
     1
102
RTVSPropertyOp15
 70
     1
102
RTVSPropertyOp16
 70
     1
102
RTVSPropertyOp17
 70
     1
102
RTVSPropertyOp18
 70
     1
102
RTVSPropertyOp19
 70
     1
102
RTVSPropertyOp20
 70
     1
102
RTVSPropertyOp21
 70
     1
102
RTVSPropertyOp22
 70
     1
102
RTVSPropertyOp23
 70
     1
102
RTVSPropertyOp24
 70
     1
102
RTVSPropertyOp25
 70
     1
102
RTVSPropertyOp26
 70
     1
102
RTVSPropertyOp27
 70
     1
  0
XRECORD
  5
261
102
{ACAD_REACTORS
330
260
102
}
330
260
100
AcDbXrecord
280
     1
102
RTVSPropertyOp0
 70
     1
102
RTVSPropertyOp1
 70
     1
102
RTVSPropertyOp2
 70
     1
102
RTVSPropertyOp3
 70
     1
102
RTVSPropertyOp4
 70
     1
102
RTVSPropertyOp5
 70
     1
102
RTVSPropertyOp6
 70
     1
102
RTVSPropertyOp7
 70
     1
102
RTVSPropertyOp8
 70
     1
102
RTVSPropertyOp9
 70
     1
102
RTVSPropertyOp10
 70
     1
102
RTVSPropertyOp11
 70
     1
102
RTVSPropertyOp12
 70
     1
102
RTVSPropertyOp13
 70
     1
102
RTVSPropertyOp14
 70
     1
102
RTVSPropertyOp15
 70
     1
102
RTVSPropertyOp16
 70
     1
102
RTVSPropertyOp17
 70
     1
102
RTVSPropertyOp18
 70
     1
102
RTVSPropertyOp19
 70
     1
102
RTVSPropertyOp20
 70
     1
102
RTVSPropertyOp21
 70
     1
102
RTVSPropertyOp22
 70
     1
102
RTVSPropertyOp23
 70
     1
102
RTVSPropertyOp24
 70
     1
102
RTVSPropertyOp25
 70
     1
102
RTVSPropertyOp26
 70
     1
102
RTVSPropertyOp27
 70
     1
  0
XRECORD
  5
255
102
{ACAD_REACTORS
330
254
102
}
330
254
100
AcDbXrecord
280
     1
102
RTVSPropertyOp0
 70
     1
102
RTVSPropertyOp1
 70
     1
102
RTVSPropertyOp2
 70
     1
102
RTVSPropertyOp3
 70
     1
102
RTVSPropertyOp4
 70
     1
102
RTVSPropertyOp5
 70
     1
102
RTVSPropertyOp6
 70
     1
102
RTVSPropertyOp7
 70
     1
102
RTVSPropertyOp8
 70
     1
102
RTVSPropertyOp9
 70
     1
102
RTVSPropertyOp10
 70
     1
102
RTVSPropertyOp11
 70
     1
102
RTVSPropertyOp12
 70
     1
102
RTVSPropertyOp13
 70
     1
102
RTVSPropertyOp14
 70
     1
102
RTVSPropertyOp15
 70
     1
102
RTVSPropertyOp16
 70
     1
102
RTVSPropertyOp17
 70
     1
102
RTVSPropertyOp18
 70
     1
102
RTVSPropertyOp19
 70
     1
102
RTVSPropertyOp20
 70
     1
102
RTVSPropertyOp21
 70
     1
102
RTVSPropertyOp22
 70
     1
102
RTVSPropertyOp23
 70
     1
102
RTVSPropertyOp24
 70
     1
102
RTVSPropertyOp25
 70
     1
102
RTVSPropertyOp26
 70
     1
102
RTVSPropertyOp27
 70
     1
  0
XRECORD
  5
257
102
{ACAD_REACTORS
330
256
102
}
330
256
100
AcDbXrecord
280
     1
102
RTVSPropertyOp0
 70
     1
102
RTVSPropertyOp1
 70
     1
102
RTVSPropertyOp2
 70
     1
102
RTVSPropertyOp3
 70
     1
102
RTVSPropertyOp4
 70
     1
102
RTVSPropertyOp5
 70
     1
102
RTVSPropertyOp6
 70
     1
102
RTVSPropertyOp7
 70
     1
102
RTVSPropertyOp8
 70
     1
102
RTVSPropertyOp9
 70
     1
102
RTVSPropertyOp10
 70
     1
102
RTVSPropertyOp11
 70
     1
102
RTVSPropertyOp12
 70
     1
102
RTVSPropertyOp13
 70
     1
102
RTVSPropertyOp14
 70
     1
102
RTVSPropertyOp15
 70
     1
102
RTVSPropertyOp16
 70
     1
102
RTVSPropertyOp17
 70
     1
102
RTVSPropertyOp18
 70
     1
102
RTVSPropertyOp19
 70
     1
102
RTVSPropertyOp20
 70
     1
102
RTVSPropertyOp21
 70
     1
102
RTVSPropertyOp22
 70
     1
102
RTVSPropertyOp23
 70
     1
102
RTVSPropertyOp24
 70
     1
102
RTVSPropertyOp25
 70
     1
102
RTVSPropertyOp26
 70
     1
102
RTVSPropertyOp27
 70
     1
  0
XRECORD
  5
25F
102
{ACAD_REACTORS
330
25E
102
}
330
25E
100
AcDbXrecord
280
     1
102
RTVSPropertyOp0
 70
     1
102
RTVSPropertyOp1
 70
     1
102
RTVSPropertyOp2
 70
     1
102
RTVSPropertyOp3
 70
     1
102
RTVSPropertyOp4
 70
     1
102
RTVSPropertyOp5
 70
     1
102
RTVSPropertyOp6
 70
     1
102
RTVSPropertyOp7
 70
     1
102
RTVSPropertyOp8
 70
     1
102
RTVSPropertyOp9
 70
     1
102
RTVSPropertyOp10
 70
     1
102
RTVSPropertyOp11
 70
     1
102
RTVSPropertyOp12
 70
     1
102
RTVSPropertyOp13
 70
     1
102
RTVSPropertyOp14
 70
     1
102
RTVSPropertyOp15
 70
     1
102
RTVSPropertyOp16
 70
     1
102
RTVSPropertyOp17
 70
     1
102
RTVSPropertyOp18
 70
     1
102
RTVSPropertyOp19
 70
     1
102
RTVSPropertyOp20
 70
     1
102
RTVSPropertyOp21
 70
     1
102
RTVSPropertyOp22
 70
     1
102
RTVSPropertyOp23
 70
     1
102
RTVSPropertyOp24
 70
     1
102
RTVSPropertyOp25
 70
     1
102
RTVSPropertyOp26
 70
     1
102
RTVSPropertyOp27
 70
     1
  0
XRECORD
  5
243
102
{ACAD_REACTORS
330
242
102
}
330
242
100
AcDbXrecord
280
     1
102
RTVSPropertyOp0
 70
     1
102
RTVSPropertyOp1
 70
     1
102
RTVSPropertyOp2
 70
     1
102
RTVSPropertyOp3
 70
     1
102
RTVSPropertyOp4
 70
     1
102
RTVSPropertyOp5
 70
     1
102
RTVSPropertyOp6
 70
     1
102
RTVSPropertyOp7
 70
     1
102
RTVSPropertyOp8
 70
     1
102
RTVSPropertyOp9
 70
     1
102
RTVSPropertyOp10
 70
     1
102
RTVSPropertyOp11
 70
     1
102
RTVSPropertyOp12
 70
     1
102
RTVSPropertyOp13
 70
     1
102
RTVSPropertyOp14
 70
     1
102
RTVSPropertyOp15
 70
     1
102
RTVSPropertyOp16
 70
     1
102
RTVSPropertyOp17
 70
     1
102
RTVSPropertyOp18
 70
     1
102
RTVSPropertyOp19
 70
     1
102
RTVSPropertyOp20
 70
     1
102
RTVSPropertyOp21
 70
     1
102
RTVSPropertyOp22
 70
     1
102
RTVSPropertyOp23
 70
     1
102
RTVSPropertyOp24
 70
     1
102
RTVSPropertyOp25
 70
     1
102
RTVSPropertyOp26
 70
     1
102
RTVSPropertyOp27
 70
     1
  0
XRECORD
  5
245
102
{ACAD_REACTORS
330
244
102
}
330
244
100
AcDbXrecord
280
     1
102
RTVSPropertyOp0
 70
     1
102
RTVSPropertyOp1
 70
     1
102
RTVSPropertyOp2
 70
     1
102
RTVSPropertyOp3
 70
     1
102
RTVSPropertyOp4
 70
     1
102
RTVSPropertyOp5
 70
     1
102
RTVSPropertyOp6
 70
     1
102
RTVSPropertyOp7
 70
     1
102
RTVSPropertyOp8
 70
     1
102
RTVSPropertyOp9
 70
     1
102
RTVSPropertyOp10
 70
     1
102
RTVSPropertyOp11
 70
     1
102
RTVSPropertyOp12
 70
     1
102
RTVSPropertyOp13
 70
     1
102
RTVSPropertyOp14
 70
     1
102
RTVSPropertyOp15
 70
     1
102
RTVSPropertyOp16
 70
     1
102
RTVSPropertyOp17
 70
     1
102
RTVSPropertyOp18
 70
     1
102
RTVSPropertyOp19
 70
     1
102
RTVSPropertyOp20
 70
     1
102
RTVSPropertyOp21
 70
     1
102
RTVSPropertyOp22
 70
     1
102
RTVSPropertyOp23
 70
     1
102
RTVSPropertyOp24
 70
     1
102
RTVSPropertyOp25
 70
     1
102
RTVSPropertyOp26
 70
     1
102
RTVSPropertyOp27
 70
     1
  0
XRECORD
  5
247
102
{ACAD_REACTORS
330
246
102
}
330
246
100
AcDbXrecord
280
     1
102
RTVSPropertyOp0
 70
     1
102
RTVSPropertyOp1
 70
     1
102
RTVSPropertyOp2
 70
     1
102
RTVSPropertyOp3
 70
     1
102
RTVSPropertyOp4
 70
     1
102
RTVSPropertyOp5
 70
     1
102
RTVSPropertyOp6
 70
     1
102
RTVSPropertyOp7
 70
     1
102
RTVSPropertyOp8
 70
     1
102
RTVSPropertyOp9
 70
     1
102
RTVSPropertyOp10
 70
     1
102
RTVSPropertyOp11
 70
     1
102
RTVSPropertyOp12
 70
     1
102
RTVSPropertyOp13
 70
     1
102
RTVSPropertyOp14
 70
     1
102
RTVSPropertyOp15
 70
     1
102
RTVSPropertyOp16
 70
     1
102
RTVSPropertyOp17
 70
     1
102
RTVSPropertyOp18
 70
     1
102
RTVSPropertyOp19
 70
     1
102
RTVSPropertyOp20
 70
     1
102
RTVSPropertyOp21
 70
     1
102
RTVSPropertyOp22
 70
     1
102
RTVSPropertyOp23
 70
     1
102
RTVSPropertyOp24
 70
     1
102
RTVSPropertyOp25
 70
     1
102
RTVSPropertyOp26
 70
     1
102
RTVSPropertyOp27
 70
     1
  0
XRECORD
  5
249
102
{ACAD_REACTORS
330
248
102
}
330
248
100
AcDbXrecord
280
     1
102
RTVSPropertyOp0
 70
     1
102
RTVSPropertyOp1
 70
     1
102
RTVSPropertyOp2
 70
     1
102
RTVSPropertyOp3
 70
     1
102
RTVSPropertyOp4
 70
     1
102
RTVSPropertyOp5
 70
     1
102
RTVSPropertyOp6
 70
     1
102
RTVSPropertyOp7
 70
     1
102
RTVSPropertyOp8
 70
     1
102
RTVSPropertyOp9
 70
     1
102
RTVSPropertyOp10
 70
     1
102
RTVSPropertyOp11
 70
     1
102
RTVSPropertyOp12
 70
     1
102
RTVSPropertyOp13
 70
     1
102
RTVSPropertyOp14
 70
     1
102
RTVSPropertyOp15
 70
     1
102
RTVSPropertyOp16
 70
     1
102
RTVSPropertyOp17
 70
     1
102
RTVSPropertyOp18
 70
     1
102
RTVSPropertyOp19
 70
     1
102
RTVSPropertyOp20
 70
     1
102
RTVSPropertyOp21
 70
     1
102
RTVSPropertyOp22
 70
     1
102
RTVSPropertyOp23
 70
     1
102
RTVSPropertyOp24
 70
     1
102
RTVSPropertyOp25
 70
     1
102
RTVSPropertyOp26
 70
     1
102
RTVSPropertyOp27
 70
     1
  0
XRECORD
  5
25D
102
{ACAD_REACTORS
330
25C
102
}
330
25C
100
AcDbXrecord
280
     1
102
RTVSPropertyOp0
 70
     1
102
RTVSPropertyOp1
 70
     1
102
RTVSPropertyOp2
 70
     1
102
RTVSPropertyOp3
 70
     1
102
RTVSPropertyOp4
 70
     1
102
RTVSPropertyOp5
 70
     1
102
RTVSPropertyOp6
 70
     1
102
RTVSPropertyOp7
 70
     1
102
RTVSPropertyOp8
 70
     1
102
RTVSPropertyOp9
 70
     1
102
RTVSPropertyOp10
 70
     1
102
RTVSPropertyOp11
 70
     1
102
RTVSPropertyOp12
 70
     1
102
RTVSPropertyOp13
 70
     1
102
RTVSPropertyOp14
 70
     1
102
RTVSPropertyOp15
 70
     1
102
RTVSPropertyOp16
 70
     1
102
RTVSPropertyOp17
 70
     1
102
RTVSPropertyOp18
 70
     1
102
RTVSPropertyOp19
 70
     1
102
RTVSPropertyOp20
 70
     1
102
RTVSPropertyOp21
 70
     1
102
RTVSPropertyOp22
 70
     1
102
RTVSPropertyOp23
 70
     1
102
RTVSPropertyOp24
 70
     1
102
RTVSPropertyOp25
 70
     1
102
RTVSPropertyOp26
 70
     1
102
RTVSPropertyOp27
 70
     1
  0
XRECORD
  5
253
102
{ACAD_REACTORS
330
252
102
}
330
252
100
AcDbXrecord
280
     1
102
RTVSPropertyOp0
 70
     1
102
RTVSPropertyOp1
 70
     1
102
RTVSPropertyOp2
 70
     1
102
RTVSPropertyOp3
 70
     1
102
RTVSPropertyOp4
 70
     1
102
RTVSPropertyOp5
 70
     1
102
RTVSPropertyOp6
 70
     1
102
RTVSPropertyOp7
 70
     1
102
RTVSPropertyOp8
 70
     1
102
RTVSPropertyOp9
 70
     1
102
RTVSPropertyOp10
 70
     1
102
RTVSPropertyOp11
 70
     1
102
RTVSPropertyOp12
 70
     1
102
RTVSPropertyOp13
 70
     1
102
RTVSPropertyOp14
 70
     1
102
RTVSPropertyOp15
 70
     1
102
RTVSPropertyOp16
 70
     1
102
RTVSPropertyOp17
 70
     1
102
RTVSPropertyOp18
 70
     1
102
RTVSPropertyOp19
 70
     1
102
RTVSPropertyOp20
 70
     1
102
RTVSPropertyOp21
 70
     1
102
RTVSPropertyOp22
 70
     1
102
RTVSPropertyOp23
 70
     1
102
RTVSPropertyOp24
 70
     1
102
RTVSPropertyOp25
 70
     1
102
RTVSPropertyOp26
 70
     1
102
RTVSPropertyOp27
 70
     1
  0
XRECORD
  5
25B
102
{ACAD_REACTORS
330
25A
102
}
330
25A
100
AcDbXrecord
280
     1
102
RTVSPropertyOp0
 70
     1
102
RTVSPropertyOp1
 70
     1
102
RTVSPropertyOp2
 70
     1
102
RTVSPropertyOp3
 70
     1
102
RTVSPropertyOp4
 70
     1
102
RTVSPropertyOp5
 70
     1
102
RTVSPropertyOp6
 70
     1
102
RTVSPropertyOp7
 70
     1
102
RTVSPropertyOp8
 70
     1
102
RTVSPropertyOp9
 70
     1
102
RTVSPropertyOp10
 70
     1
102
RTVSPropertyOp11
 70
     1
102
RTVSPropertyOp12
 70
     1
102
RTVSPropertyOp13
 70
     1
102
RTVSPropertyOp14
 70
     1
102
RTVSPropertyOp15
 70
     1
102
RTVSPropertyOp16
 70
     1
102
RTVSPropertyOp17
 70
     1
102
RTVSPropertyOp18
 70
     1
102
RTVSPropertyOp19
 70
     1
102
RTVSPropertyOp20
 70
     1
102
RTVSPropertyOp21
 70
     1
102
RTVSPropertyOp22
 70
     1
102
RTVSPropertyOp23
 70
     1
102
RTVSPropertyOp24
 70
     1
102
RTVSPropertyOp25
 70
     1
102
RTVSPropertyOp26
 70
     1
102
RTVSPropertyOp27
 70
     1
  0
ENDSEC
  0
EOF
