  0
SECTION
  2
HEADER
  9
$ACADVER
  1
AC1021
  9
$ACADMAINTVER
 70
    25
  9
$DWGCODEPAGE
  3
ANSI_1252
  9
$INSBASE
 10
0.0
 20
0.0
 30
0.0
  9
$EXTMIN
 10
0.0
 20
0.0
 30
0.0
  9
$EXTMAX
 10
3000.0
 20
4500.0
 30
0.0
  9
$LIMMIN
 10
0.0
 20
0.0
  9
$LIMMAX
 10
3000.0
 20
4500.0
  9
$ORTHOMODE
 70
     0
  9
$REGENMODE
 70
     1
  9
$FILLMODE
 70
     1
  9
$QTEXTMODE
 70
     0
  9
$MIRRTEXT
 70
     1
  9
$LTSCALE
 40
1.0
  9
$ATTMODE
 70
     1
  9
$TEXTSIZE
 40
10.0
  9
$TRACEWID
 40
1.0
  9
$TEXTSTYLE
  7
Standard
  9
$CLAYER
  8
0
  9
$CELTYPE
  6
ByLayer
  9
$CECOLOR
 62
   256
  9
$CELTSCALE
 40
1.0
  9
$DISPSILH
 70
     0
  9
$DIMSCALE
 40
1.0
  9
$DIMASZ
 40
2.5
  9
$DIMEXO
 40
0.625
  9
$DIMDLI
 40
3.75
  9
$DIMRND
 40
0.0
  9
$DIMDLE
 40
0.0
  9
$DIMEXE
 40
1.25
  9
$DIMTP
 40
0.0
  9
$DIMTM
 40
0.0
  9
$DIMTXT
 40
2.5
  9
$DIMCEN
 40
2.5
  9
$DIMTSZ
 40
0.0
  9
$DIMTOL
 70
     0
  9
$DIMLIM
 70
     0
  9
$DIMTIH
 70
     0
  9
$DIMTOH
 70
     0
  9
$DIMSE1
 70
     0
  9
$DIMSE2
 70
     0
  9
$DIMTAD
 70
     1
  9
$DIMZIN
 70
     8
  9
$DIMBLK
  1

  9
$DIMASO
 70
     1
  9
$DIMSHO
 70
     1
  9
$DIMPOST
  1

  9
$DIMAPOST
  1

  9
$DIMALT
 70
     0
  9
$DIMALTD
 70
     3
  9
$DIMALTF
 40
0.0393700787
  9
$DIMLFAC
 40
1.0
  9
$DIMTOFL
 70
     1
  9
$DIMTVP
 40
0.0
  9
$DIMTIX
 70
     0
  9
$DIMSOXD
 70
     0
  9
$DIMSAH
 70
     0
  9
$DIMBLK1
  1

  9
$DIMBLK2
  1

  9
$DIMSTYLE
  2
ISO-25
  9
$DIMCLRD
 70
     0
  9
$DIMCLRE
 70
     0
  9
$DIMCLRT
 70
     0
  9
$DIMTFAC
 40
1.0
  9
$DIMGAP
 40
0.625
  9
$DIMJUST
 70
     0
  9
$DIMSD1
 70
     0
  9
$DIMSD2
 70
     0
  9
$DIMTOLJ
 70
     0
  9
$DIMTZIN
 70
     8
  9
$DIMALTZ
 70
     0
  9
$DIMALTTZ
 70
     0
  9
$DIMUPT
 70
     0
  9
$DIMDEC
 70
     2
  9
$DIMTDEC
 70
     2
  9
$DIMALTU
 70
     2
  9
$DIMALTTD
 70
     3
  9
$DIMTXSTY
  7
Standard
  9
$DIMAUNIT
 70
     0
  9
$DIMADEC
 70
     0
  9
$DIMALTRND
 40
0.0
  9
$DIMAZIN
 70
     0
  9
$DIMDSEP
 70
    44
  9
$DIMATFIT
 70
     3
  9
$DIMFRAC
 70
     0
  9
$DIMLDRBLK
  1

  9
$DIMLUNIT
 70
     2
  9
$DIMLWD
 70
    -2
  9
$DIMLWE
 70
    -2
  9
$DIMTMOVE
 70
     0
  9
$DIMFXL
 40
1.0
  9
$DIMFXLON
 70
     0
  9
$DIMJOGANG
 40
0.7853981634
  9
$DIMTFILL
 70
     0
  9
$DIMTFILLCLR
 70
     0
  9
$DIMARCSYM
 70
     0
  9
$DIMLTYPE
  6

  9
$DIMLTEX1
  6

  9
$DIMLTEX2
  6

  9
$LUNITS
 70
     2
  9
$LUPREC
 70
     4
  9
$SKETCHINC
 40
1.0
  9
$FILLETRAD
 40
10.0
  9
$AUNITS
 70
     0
  9
$AUPREC
 70
     0
  9
$MENU
  1
.
  9
$ELEVATION
 40
0.0
  9
$PELEVATION
 40
0.0
  9
$THICKNESS
 40
0.0
  9
$LIMCHECK
 70
     0
  9
$CHAMFERA
 40
0.0
  9
$CHAMFERB
 40
0.0
  9
$CHAMFERC
 40
0.0
  9
$CHAMFERD
 40
0.0
  9
$SKPOLY
 70
     0
  9
$TDCREATE
 40
2459000.680941019
  9
$TDUCREATE
 40
2459000.597607685
  9
$TDUPDATE
 40
2459000.680943553
  9
$TDUUPDATE
 40
2459000.59761022
  9
$TDINDWG
 40
0.0000000116
  9
$TDUSRTIMER
 40
0.0000000116
  9
$USRTIMER
 70
     1
  9
$ANGBASE
 50
0.0
  9
$ANGDIR
 70
     0
  9
$PDMODE
 70
     0
  9
$PDSIZE
 40
0.0
  9
$PLINEWID
 40
0.0
  9
$SPLFRAME
 70
     0
  9
$SPLINETYPE
 70
     6
  9
$SPLINESEGS
 70
     8
  9
$HANDSEED
  5
1A5
  9
$SURFTAB1
 70
     6
  9
$SURFTAB2
 70
     6
  9
$SURFTYPE
 70
     6
  9
$SURFU
 70
     6
  9
$SURFV
 70
     6
  9
$UCSBASE
  2

  9
$UCSNAME
  2

  9
$UCSORG
 10
0.0
 20
0.0
 30
0.0
  9
$UCSXDIR
 10
1.0
 20
0.0
 30
0.0
  9
$UCSYDIR
 10
0.0
 20
1.0
 30
0.0
  9
$UCSORTHOREF
  2

  9
$UCSORTHOVIEW
 70
     0
  9
$UCSORGTOP
 10
0.0
 20
0.0
 30
0.0
  9
$UCSORGBOTTOM
 10
0.0
 20
0.0
 30
0.0
  9
$UCSORGLEFT
 10
0.0
 20
0.0
 30
0.0
  9
$UCSORGRIGHT
 10
0.0
 20
0.0
 30
0.0
  9
$UCSORGFRONT
 10
0.0
 20
0.0
 30
0.0
  9
$UCSORGBACK
 10
0.0
 20
0.0
 30
0.0
  9
$PUCSBASE
  2

  9
$PUCSNAME
  2

  9
$PUCSORG
 10
0.0
 20
0.0
 30
0.0
  9
$PUCSXDIR
 10
1.0
 20
0.0
 30
0.0
  9
$PUCSYDIR
 10
0.0
 20
1.0
 30
0.0
  9
$PUCSORTHOREF
  2

  9
$PUCSORTHOVIEW
 70
     0
  9
$PUCSORGTOP
 10
0.0
 20
0.0
 30
0.0
  9
$PUCSORGBOTTOM
 10
0.0
 20
0.0
 30
0.0
  9
$PUCSORGLEFT
 10
0.0
 20
0.0
 30
0.0
  9
$PUCSORGRIGHT
 10
0.0
 20
0.0
 30
0.0
  9
$PUCSORGFRONT
 10
0.0
 20
0.0
 30
0.0
  9
$PUCSORGBACK
 10
0.0
 20
0.0
 30
0.0
  9
$USERI1
 70
     0
  9
$USERI2
 70
     0
  9
$USERI3
 70
     0
  9
$USERI4
 70
     0
  9
$USERI5
 70
     0
  9
$USERR1
 40
0.0
  9
$USERR2
 40
0.0
  9
$USERR3
 40
0.0
  9
$USERR4
 40
0.0
  9
$USERR5
 40
0.0
  9
$WORLDVIEW
 70
     1
  9
$SHADEDGE
 70
     3
  9
$SHADEDIF
 70
    70
  9
$TILEMODE
 70
     1
  9
$MAXACTVP
 70
    64
  9
$PINSBASE
 10
0.0
 20
0.0
 30
0.0
  9
$PLIMCHECK
 70
     0
  9
$PEXTMIN
 10
0.0
 20
0.0
 30
0.0
  9
$PEXTMAX
 10
3000.0
 20
4500.0
 30
0.0
  9
$PLIMMIN
 10
0.0
 20
0.0
  9
$PLIMMAX
 10
3000.0
 20
4500.0
  9
$UNITMODE
 70
     0
  9
$VISRETAIN
 70
     1
  9
$PLINEGEN
 70
     0
  9
$PSLTSCALE
 70
     1
  9
$TREEDEPTH
 70
  3020
  9
$CMLSTYLE
  2
Standard
  9
$CMLJUST
 70
     0
  9
$CMLSCALE
 40
20.0
  9
$PROXYGRAPHICS
 70
     1
  9
$MEASUREMENT
 70
     1
  9
$CELWEIGHT
370
    -1
  9
$ENDCAPS
280
     0
  9
$JOINSTYLE
280
     0
  9
$LWDISPLAY
290
     0
  9
$INSUNITS
 70
     4
  9
$HYPERLINKBASE
  1

  9
$STYLESHEET
  1

  9
$XEDIT
290
     1
  9
$CEPSNTYPE
380
     0
  9
$PSTYLEMODE
290
     1
  9
$FINGERPRINTGUID
  2
{EF105756-C31A-42E6-B0FD-88D42263A4FB}
  9
$VERSIONGUID
  2
{FAEB1C32-E019-11D5-929B-00C0DF256EC4}
  9
$EXTNAMES
290
     1
  9
$PSVPSCALE
 40
0.0
  9
$OLESTARTUP
290
     0
  9
$SORTENTS
280
   127
  9
$INDEXCTL
280
     0
  9
$HIDETEXT
280
     1
  9
$XCLIPFRAME
290
     0
  9
$HALOGAP
280
     0
  9
$OBSCOLOR
 70
   257
  9
$OBSLTYPE
280
     0
  9
$INTERSECTIONDISPLAY
280
     0
  9
$INTERSECTIONCOLOR
 70
   257
  9
$DIMASSOC
280
     2
  9
$PROJECTNAME
  1

  9
$CAMERADISPLAY
290
     0
  9
$LENSLENGTH
 40
50.0
  9
$CAMERAHEIGHT
 40
0.0
  9
$STEPSPERSEC
 40
2.0
  9
$STEPSIZE
 40
6.0
  9
$3DDWFPREC
 40
2.0
  9
$PSOLWIDTH
 40
5.0
  9
$PSOLHEIGHT
 40
80.0
  9
$LOFTANG1
 40
1.5707963268
  9
$LOFTANG2
 40
1.5707963268
  9
$LOFTMAG1
 40
0.0
  9
$LOFTMAG2
 40
0.0
  9
$LOFTPARAM
 70
     7
  9
$LOFTNORMALS
280
     1
  9
$LATITUDE
 40
37.795
  9
$LONGITUDE
 40
-122.394
  9
$NORTHDIRECTION
 40
0.0
  9
$TIMEZONE
 70
 -8000
  9
$LIGHTGLYPHDISPLAY
280
     1
  9
$TILEMODELIGHTSYNCH
280
     1
  9
$CMATERIAL
347
44
  9
$SOLIDHIST
280
     0
  9
$SHOWHIST
280
     1
  9
$DWFFRAME
280
     2
  9
$DGNFRAME
280
     2
  9
$REALWORLDSCALE
290
     1
  9
$INTERFERECOLOR
 62
   256
  9
$CSHADOW
280
     0
  9
$SHADOWPLANELOCATION
 40
0.0
  0
ENDSEC
  0
SECTION
  2
CLASSES
  0
CLASS
  1
ACDBDICTIONARYWDFLT
  2
AcDbDictionaryWithDefault
  3
ObjectDBX Classes
 90
        0
 91
        4
280
     0
281
     0
  0
CLASS
  1
VISUALSTYLE
  2
AcDbVisualStyle
  3
ObjectDBX Classes
 90
     4095
 91
        4
280
     0
281
     0
  0
CLASS
  1
MATERIAL
  2
AcDbMaterial
  3
ObjectDBX Classes
 90
     1153
 91
        4
280
     0
281
     0
  0
CLASS
  1
SCALE
  2
AcDbScale
  3
ObjectDBX Classes
 90
     1153
 91
        4
280
     0
281
     0
  0
CLASS
  1
TABLESTYLE
  2
AcDbTableStyle
  3
ObjectDBX Classes
 90
     4095
 91
        4
280
     0
281
     0
  0
CLASS
  1
MLEADERSTYLE
  2
AcDbMLeaderStyle
  3
ACDB_MLEADERSTYLE_CLASS
 90
     4095
 91
        4
280
     0
281
     0
  0
CLASS
  1
SUN
  2
AcDbSun
  3
SCENEOE
 90
     1153
 91
        4
280
     0
281
     0
  0
CLASS
  1
DICTIONARYVAR
  2
AcDbDictionaryVar
  3
ObjectDBX Classes
 90
        0
 91
        4
280
     0
281
     0
  0
CLASS
  1
CELLSTYLEMAP
  2
AcDbCellStyleMap
  3
ObjectDBX Classes
 90
     1152
 91
        4
280
     0
281
     0
  0
ENDSEC
  0
SECTION
  2
TABLES
  0
TABLE
  2
VPORT
  5
8
330
0
100
AcDbSymbolTable
 70
     1
  0
VPORT
  5
29
330
8
100
AcDbSymbolTableRecord
100
AcDbViewportTableRecord
  2
*Active
 70
     0
 10
0.0
 20
0.0
 11
1.0
 21
1.0
 12
344.1869158879
 22
148.5
 13
0.0
 23
0.0
 14
10.0
 24
10.0
 15
10.0
 25
10.0
 16
0.0
 26
0.0
 36
1.0
 17
0.0
 27
0.0
 37
0.0
 40
297.0
 41
1.9729729729
 42
50.0
 43
0.0
 44
0.0
 50
0.0
 51
0.0
 71
     0
 72
   100
 73
     1
 74
     3
 75
     0
 76
     0
 77
     0
 78
     0
281
     0
 65
     1
110
0.0
120
0.0
130
0.0
111
1.0
121
0.0
131
0.0
112
0.0
122
1.0
132
0.0
 79
     0
146
0.0
348
2F
 60
     3
 61
     5
292
     1
282
     1
141
0.0
142
0.0
 63
   250
361
6D
  0
ENDTAB
  0
TABLE
  2
LTYPE
  5
5
330
0
100
AcDbSymbolTable
 70
     1
  0
LTYPE
  5
14
330
5
100
AcDbSymbolTableRecord
100
AcDbLinetypeTableRecord
  2
ByBlock
 70
     0
  3

 72
    65
 73
     0
 40
0.0
  0
LTYPE
  5
15
330
5
100
AcDbSymbolTableRecord
100
AcDbLinetypeTableRecord
  2
ByLayer
 70
     0
  3

 72
    65
 73
     0
 40
0.0
  0
LTYPE
  5
16
330
5
100
AcDbSymbolTableRecord
100
AcDbLinetypeTableRecord
  2
Continuous
 70
     0
  3
Solid line
 72
    65
 73
     0
 40
0.0
  0
ENDTAB
  0
TABLE
  2
LAYER
  5
2
330
0
100
AcDbSymbolTable
 70
     5
  0
LAYER
  5
10
330
2
100
AcDbSymbolTableRecord
100
AcDbLayerTableRecord
  2
0
 70
     0
 62
     7
  6
Continuous
370
    -3
390
F
347
46
  0
LAYER
  5
6E
330
2
100
AcDbSymbolTableRecord
100
AcDbLayerTableRecord
  2
Default
 70
     0
 62
     7
  6
Continuous
370
    -3
390
F
347
46
  0
LAYER
  5
7A
330
2
100
AcDbSymbolTableRecord
100
AcDbLayerTableRecord
  2
DV1_Default
 70
     0
 62
     7
  6
Continuous
370
    -3
390
F
347
46
  0
LAYER
  5
F0
330
2
100
AcDbSymbolTableRecord
100
AcDbLayerTableRecord
  2
DV2_Default
 70
     0
 62
     7
  6
Continuous
370
    -3
390
F
347
46
  0
LAYER
  5
131
330
2
100
AcDbSymbolTableRecord
100
AcDbLayerTableRecord
  2
DV3_Default
 70
     0
 62
     7
  6
Continuous
370
    -3
390
F
347
46
  0
ENDTAB
  0
TABLE
  2
STYLE
  5
3
330
0
100
AcDbSymbolTable
 70
     1
  0
STYLE
  5
11
330
3
100
AcDbSymbolTableRecord
100
AcDbTextStyleTableRecord
  2
Standard
 70
     0
 40
0.0
 41
1.0
 50
0.0
 71
     0
 42
10.0
  3
txt
  4

  0
ENDTAB
  0
TABLE
  2
VIEW
  5
6
330
0
100
AcDbSymbolTable
 70
     0
  0
ENDTAB
  0
TABLE
  2
UCS
  5
7
330
0
100
AcDbSymbolTable
 70
     0
  0
ENDTAB
  0
TABLE
  2
APPID
  5
9
330
0
100
AcDbSymbolTable
 70
     2
  0
APPID
  5
12
330
9
100
AcDbSymbolTableRecord
100
AcDbRegAppTableRecord
  2
ACAD
 70
     0
  0
APPID
  5
19B
330
9
100
AcDbSymbolTableRecord
100
AcDbRegAppTableRecord
  2
ACAD_MLEADERVER
 70
     0
  0
ENDTAB
  0
TABLE
  2
DIMSTYLE
  5
A
330
0
100
AcDbSymbolTable
 70
     1
100
AcDbDimStyleTable
  0
DIMSTYLE
105
27
330
A
100
AcDbSymbolTableRecord
100
AcDbDimStyleTableRecord
  2
ISO-25
 70
     0
 41
2.5
 42
0.625
 43
3.75
 44
1.25
 73
     0
 74
     0
 77
     1
 78
     8
140
2.5
141
2.5
143
0.0393700787
147
0.625
171
     3
172
     1
178
     0
271
     2
272
     2
274
     3
278
    44
283
     0
284
     8
340
11
  0
ENDTAB
  0
TABLE
  2
BLOCK_RECORD
  5
1
330
0
100
AcDbSymbolTable
 70
     4
  0
BLOCK_RECORD
  5
1F
330
1
100
AcDbSymbolTableRecord
100
AcDbBlockTableRecord
  2
*Model_Space
340
22
 70
     0
280
     1
281
     0
  0
BLOCK_RECORD
  5
1B
330
1
100
AcDbSymbolTableRecord
100
AcDbBlockTableRecord
  2
*Paper_Space
340
1E
 70
     0
280
     1
281
     0
  0
BLOCK_RECORD
  5
78
330
1
100
AcDbSymbolTableRecord
100
AcDbBlockTableRecord
  2
SE
340
0
102
{BLKREFS
331
79
102
}
 70
     0
280
     1
281
     0
  0
BLOCK_RECORD
  5
EE
330
1
100
AcDbSymbolTableRecord
100
AcDbBlockTableRecord
  2
SE1
340
0
102
{BLKREFS
331
EF
102
}
 70
     0
280
     1
281
     0
  0
BLOCK_RECORD
  5
12F
330
1
100
AcDbSymbolTableRecord
100
AcDbBlockTableRecord
  2
SE2
340
0
102
{BLKREFS
331
130
102
}
 70
     0
280
     1
281
     0
  0
ENDTAB
  0
ENDSEC
  0
SECTION
  2
BLOCKS
  0
BLOCK
  5
20
330
1F
100
AcDbEntity
  8
0
100
AcDbBlockBegin
  2
*Model_Space
 70
     0
 10
0.0
 20
0.0
 30
0.0
  3
*Model_Space
  1

  0
ENDBLK
  5
21
330
1F
100
AcDbEntity
  8
0
100
AcDbBlockEnd
  0
BLOCK
  5
1C
330
1B
100
AcDbEntity
 67
     1
  8
0
100
AcDbBlockBegin
  2
*Paper_Space
 70
     0
 10
0.0
 20
0.0
 30
0.0
  3
*Paper_Space
  1

  0
ENDBLK
  5
1D
330
1B
100
AcDbEntity
 67
     1
  8
0
100
AcDbBlockEnd
  0
BLOCK
  5
EC
330
78
100
AcDbEntity
  8
0
100
AcDbBlockBegin
  2
SE
 70
     0
 10
0.0
 20
0.0
 30
0.0
  3
SE
  1

  0
LINE
  5
7B
330
78
100
AcDbEntity
  8
DV1_Default
 62
     7
100
AcDbLine
 10
211.3519762003
 20
322.4784968953
 30
0.0
 11
211.3519762003
 21
318.0778266519
 31
0.0
  0
LINE
  5
7C
330
78
100
AcDbEntity
  8
DV1_Default
 62
     7
100
AcDbLine
 10
202.3519762003
 20
317.9297314082
 30
0.0
 11
15.3519762003
 21
317.9297314082
 31
0.0
  0
ARC
  5
7D
330
78
100
AcDbEntity
  8
DV1_Default
 62
     7
100
AcDbCircle
 10
205.3575845261
 20
240.8336544455
 30
0.0
 40
77.15464188532233
100
AcDbArc
 50
85.7674414249
 51
92.2325585751
  0
LINE
  5
7E
330
78
100
AcDbEntity
  8
DV1_Default
 62
     7
100
AcDbLine
 10
194.5478492902
 20
316.1597878245
 30
0.0
 11
202.3519762003
 21
316.1597878245
 31
0.0
  0
LINE
  5
7F
330
78
100
AcDbEntity
  8
DV1_Default
 62
     7
100
AcDbLine
 10
211.3519762003
 20
318.0778266519
 30
0.0
 11
211.3519762003
 21
316.6116011979
 31
0.0
  0
LINE
  5
80
330
78
100
AcDbEntity
  8
DV1_Default
 62
     7
100
AcDbLine
 10
202.3519762003
 20
316.159742133
 30
0.0
 11
202.3519762003
 21
316.1597878245
 31
0.0
  0
ELLIPSE
  5
81
330
78
100
AcDbEntity
  8
DV1_Default
 62
     7
100
AcDbEllipse
 10
211.0519762003
 20
318.0778266519
 30
0.0
 11
-0.2999999999999947
 21
9.985068327722502E-12
 31
0.0
210
0.0
220
0.0
230
1.0
 40
0.9998476952
 41
1.570796326828175
 42
3.141592653589793
  0
LINE
  5
82
330
78
100
AcDbEntity
  8
DV1_Default
 62
     7
100
AcDbLine
 10
33.9409198979
 20
317.7275673384
 30
0.0
 11
183.7630325027
 21
317.7275673384
 31
0.0
  0
ARC
  5
83
330
78
100
AcDbEntity
  8
DV1_Default
 62
     7
100
AcDbCircle
 10
185.5768001492
 20
269.8170828777
 30
0.0
 40
47.94480445612665
100
AcDbArc
 50
85.8313551976
 51
92.1680354284
  0
LINE
  5
84
330
78
100
AcDbEntity
  8
DV1_Default
 62
     7
100
AcDbLine
 10
189.062023264
 20
317.6350449231
 30
0.0
 11
189.0614097028
 21
317.5647377715
 31
0.0
  0
ELLIPSE
  5
85
330
78
100
AcDbEntity
  8
DV1_Default
 62
     7
100
AcDbEllipse
 10
183.8517086325
 20
317.5647516235
 30
0.0
 11
5.209701130764757
 21
0.0
 31
0.0
210
0.0
220
0.0
230
1.0
 40
0.0174550651
 41
6.095520658944679
 42
6.28303297913442
  0
LINE
  5
86
330
78
100
AcDbEntity
  8
DV1_Default
 62
     7
100
AcDbLine
 10
188.7620346871
 20
317.3377085752
 30
0.0
 11
188.6623527173
 21
305.915286215
 31
0.0
  0
ARC
  5
87
330
78
100
AcDbEntity
  8
DV1_Default
 62
     7
100
AcDbCircle
 10
185.5379353757
 20
278.2338020272
 30
0.0
 40
39.23659419070216
100
AcDbArc
 50
85.2866500804
 51
92.5927112283
  0
LINE
  5
88
330
78
100
AcDbEntity
  8
DV1_Default
 62
     7
100
AcDbLine
 10
183.7630325027
 20
317.4302309905
 30
0.0
 11
183.7630325027
 21
317.7275673384
 31
0.0
  0
ELLIPSE
  5
89
330
78
100
AcDbEntity
  8
DV1_Default
 62
     7
100
AcDbEllipse
 10
189.062023264
 20
317.3350906146
 30
0.0
 11
0.2999885769193883
 21
-0.002617960637225913
 31
0.0
210
0.0
220
0.0
230
1.0
 40
0.9998476836
 41
1.57952164386969
 42
3.141592653589793
  0
ELLIPSE
  5
8A
330
78
100
AcDbEntity
  8
DV1_Default
 62
     7
100
AcDbEllipse
 10
189.0614097028
 20
317.2647834629
 30
0.0
 11
0.2999885769186389
 21
-0.002617960707954059
 31
0.0
210
0.0
220
0.0
230
1.0
 40
0.9998476836
 41
1.579521644105527
 42
3.141592653589793
  0
LINE
  5
8B
330
78
100
AcDbEntity
  8
DV1_Default
 62
     7
100
AcDbLine
 10
202.3459938242
 20
270.8586955641
 30
0.0
 11
202.317984103
 21
270.8586955641
 31
0.0
  0
LINE
  5
8C
330
78
100
AcDbEntity
  8
DV1_Default
 62
     7
100
AcDbLine
 10
202.317984103
 20
270.8586955641
 30
0.0
 11
201.9823653321
 21
270.8586955641
 31
0.0
  0
LINE
  5
8D
330
78
100
AcDbEntity
  8
DV1_Default
 62
     7
100
AcDbLine
 10
201.9823653321
 20
270.8586955641
 30
0.0
 11
199.3517086325
 21
270.8586955641
 31
0.0
  0
SPLINE
  5
8E
330
78
100
AcDbEntity
  8
DV1_Default
 62
     7
100
AcDbSpline
210
0.0
220
0.0
230
1.0
 70
     8
 71
     5
 72
    14
 73
     8
 74
     0
 42
0.000000001
 43
0.0000000001
 40
0.0
 40
0.0
 40
0.0
 40
0.0
 40
0.0
 40
0.0
 40
0.5
 40
0.5
 40
1.0
 40
1.0
 40
1.0
 40
1.0
 40
1.0
 40
1.0
 10
194.5478492902394
 20
301.9617420871992
 30
0.0
 10
194.5478492902393
 20
300.6789406612435
 30
0.0
 10
194.5478492902393
 20
299.3961392352878
 30
0.0
 10
194.7714229327175
 20
296.6091932912049
 30
0.0
 10
195.6731116501622
 20
293.7156791862802
 30
0.0
 10
197.7120848150586
 20
290.8792144554524
 30
0.0
 10
198.4729400366434
 20
290.0267837696534
 30
0.0
 10
199.0545639977534
 20
289.3142873691288
 30
0.0
  0
LINE
  5
8F
330
78
100
AcDbEntity
  8
DV1_Default
 62
     7
100
AcDbLine
 10
203.3297598339
 20
271.678107744
 30
0.0
 11
203.3395886432
 21
271.7245597399
 31
0.0
  0
ARC
  5
90
330
78
100
AcDbEntity
  8
DV1_Default
 62
     7
100
AcDbCircle
 10
182.4834200262
 20
276.0966364639
 30
0.0
 40
21.3095010909961
100
AcDbArc
 50
348.1609501535
 51
348.6609534938
  0
ARC
  5
91
330
78
100
AcDbEntity
  8
DV1_Default
 62
     7
100
AcDbCircle
 10
182.7866144406
 20
276.0344599152
 30
0.0
 40
21.0
100
AcDbArc
 50
348.664638259
 51
39.2253964425
  0
SPLINE
  5
92
330
78
100
AcDbEntity
  8
DV1_Default
 62
     7
100
AcDbSpline
210
0.0
220
0.0
230
1.0
 70
     8
 71
     3
 72
    10
 73
     6
 74
     0
 42
0.000000001
 43
0.0000000001
 40
0.0
 40
0.0
 40
0.0
 40
0.0
 40
0.5
 40
0.5
 40
1.0
 40
1.0
 40
1.0
 40
1.0
 10
202.9748041050423
 20
271.0812676840031
 30
0.0
 10
202.8866657702503
 20
271.0099600371497
 30
0.0
 10
202.7863050294945
 20
270.9537996202406
 30
0.0
 10
202.5725503053719
 20
270.8781589952165
 30
0.0
 10
202.4592037325864
 20
270.8586955641155
 30
0.0
 10
202.3458320141365
 20
270.8586955641155
 30
0.0
  0
SPLINE
  5
93
330
78
100
AcDbEntity
  8
DV1_Default
 62
     7
100
AcDbSpline
210
0.0
220
0.0
230
1.0
 70
     8
 71
     3
 72
    10
 73
     6
 74
     0
 42
0.000000001
 43
0.0000000001
 40
0.0
 40
0.0
 40
0.0
 40
0.0
 40
0.4960740019068632
 40
0.4960740019068632
 40
0.9999999999999999
 40
0.9999999999999999
 40
0.9999999999999999
 40
0.9999999999999999
 10
203.3226725573628
 20
271.6447275910911
 30
0.0
 10
203.298787513549
 20
271.5357089425612
 30
0.0
 10
203.2564982953774
 20
271.4307438788874
 30
0.0
 10
203.1388192706759
 20
271.2389985757268
 30
0.0
 10
203.0629424398344
 20
271.1525753308566
 30
0.0
 10
202.9748041050423
 20
271.0812676840031
 30
0.0
  0
ARC
  5
94
330
78
100
AcDbEntity
  8
DV1_Default
 62
     7
100
AcDbCircle
 10
197.8517086325
 20
284.9391180777
 30
0.0
 40
1.000000000000001
100
AcDbArc
 50
0.0
 51
30.5864344571
  0
LINE
  5
95
330
78
100
AcDbEntity
  8
DV1_Default
 62
     7
100
AcDbLine
 10
198.8517086325
 20
271.3586955641
 30
0.0
 11
198.8517086325
 21
284.9391180777
 31
0.0
  0
ARC
  5
96
330
78
100
AcDbEntity
  8
DV1_Default
 62
     7
100
AcDbCircle
 10
182.7866144406
 20
276.0344599152
 30
0.0
 40
18.50000000000002
100
AcDbArc
 50
30.5864344571
 51
81.8731884102
  0
ARC
  5
97
330
78
100
AcDbEntity
  8
DV1_Default
 62
     7
100
AcDbCircle
 10
185.4725399136
 20
294.843654591
 30
0.0
 40
0.5000000000000028
100
AcDbArc
 50
180.5
 51
261.8731884102
  0
LINE
  5
98
330
78
100
AcDbEntity
  8
DV1_Default
 62
     7
100
AcDbLine
 10
184.9725589521
 20
294.8392913232
 30
0.0
 11
184.890398987
 21
304.2538908157
 31
0.0
  0
LINE
  5
99
330
78
100
AcDbEntity
  8
DV1_Default
 62
     7
100
AcDbLine
 10
182.8073859811
 20
304.2426807257
 30
0.0
 11
182.7253226206
 21
294.8391510197
 31
0.0
  0
ARC
  5
9A
330
78
100
AcDbEntity
  8
DV1_Default
 62
     7
100
AcDbCircle
 10
182.2253416591
 20
294.8435142875
 30
0.0
 40
0.4999999999999877
100
AcDbArc
 50
278.1449077626
 51
359.5
  0
LINE
  5
9B
330
78
100
AcDbEntity
  8
DV1_Default
 62
     7
100
AcDbLine
 10
168.8517086325
 20
284.9391420962
 30
0.0
 11
168.8517086325
 21
271.3586955641
 31
0.0
  0
ARC
  5
9C
330
78
100
AcDbEntity
  8
DV1_Default
 62
     7
100
AcDbCircle
 10
169.8517086325
 20
284.9391420962
 30
0.0
 40
1.000000000000013
100
AcDbArc
 50
149.4161704544
 51
180.0
  0
ARC
  5
9D
330
78
100
AcDbEntity
  8
DV1_Default
 62
     7
100
AcDbCircle
 10
184.9172076526
 20
276.0351688666
 30
0.0
 40
18.5
100
AcDbArc
 50
98.1449077626
 51
149.4161704544
  0
ARC
  5
9E
330
78
100
AcDbEntity
  8
DV1_Default
 62
     7
100
AcDbCircle
 10
199.3517086325
 20
271.3586955641
 30
0.0
 40
0.499999999999997
100
AcDbArc
 50
180.0
 51
270.0
  0
LINE
  5
9F
330
78
100
AcDbEntity
  8
DV1_Default
 62
     7
100
AcDbLine
 10
168.3517086325
 20
270.8586955641
 30
0.0
 11
165.1561794124
 21
270.8586955641
 31
0.0
  0
ARC
  5
A0
330
78
100
AcDbEntity
  8
DV1_Default
 62
     7
100
AcDbCircle
 10
168.3517086325
 20
271.3586955641
 30
0.0
 40
0.5000000000000073
100
AcDbArc
 50
270.0
 51
0.0
  0
LINE
  5
A1
330
78
100
AcDbEntity
  8
DV1_Default
 62
     7
100
AcDbLine
 10
164.1561794124
 20
271.8586955641
 30
0.0
 11
164.1561794124
 21
304.2426807257
 31
0.0
  0
ARC
  5
A2
330
78
100
AcDbEntity
  8
DV1_Default
 62
     7
100
AcDbCircle
 10
165.1561794124
 20
271.8586955641
 30
0.0
 40
1.000000000000004
100
AcDbArc
 50
201.7466246059
 51
270.0
  0
LINE
  5
A3
330
78
100
AcDbEntity
  8
DV1_Default
 62
     7
100
AcDbLine
 10
188.7578161895
 20
316.8543166289
 30
0.0
 11
193.5478492902
 21
316.8543166289
 31
0.0
  0
ELLIPSE
  5
A4
330
78
100
AcDbEntity
  8
DV1_Default
 62
     7
100
AcDbEllipse
 10
193.5478492902
 20
316.8316250445
 30
0.0
 11
-1.299999999999996
 21
3.469446951953614E-15
 31
0.0
210
0.0
220
0.0
230
1.0
 40
0.0174550649
 41
3.141592653589793
 42
4.71238898038469
  0
LINE
  5
A5
330
78
100
AcDbEntity
  8
DV1_Default
 62
     7
100
AcDbLine
 10
194.8478492902
 20
316.8316250445
 30
0.0
 11
194.8478492902
 21
316.6047092004
 31
0.0
  0
ELLIPSE
  5
A6
330
78
100
AcDbEntity
  8
DV1_Default
 62
     7
100
AcDbEllipse
 10
193.5478492902
 20
316.6047092004
 30
0.0
 11
1.299999999999996
 21
3.469446951953614E-15
 31
0.0
210
0.0
220
0.0
230
1.0
 40
0.0174550649
 41
5.984641818858567
 42
6.283185307179586
  0
LINE
  5
A7
330
78
100
AcDbEntity
  8
DV1_Default
 62
     7
100
AcDbLine
 10
194.5478492902
 20
316.531670736
 30
0.0
 11
194.5478492902
 21
301.9617420872
 31
0.0
  0
ELLIPSE
  5
A8
330
78
100
AcDbEntity
  8
DV1_Default
 62
     7
100
AcDbEllipse
 10
194.8478492902
 20
316.531670736
 30
0.0
 11
0.3000000000001612
 21
-3.347669363940042E-11
 31
0.0
210
0.0
220
0.0
230
1.0
 40
0.9998476952
 41
1.570796326906469
 42
3.141592653589793
  0
ELLIPSE
  5
A9
330
78
100
AcDbEntity
  8
DV1_Default
 62
     7
100
AcDbEllipse
 10
194.8478492902
 20
316.3047548919
 30
0.0
 11
0.3000000000001474
 21
1.115080250357892E-11
 31
0.0
210
0.0
220
0.0
230
1.0
 40
0.9998476952
 41
1.570796326757733
 42
3.141592653589793
  0
ELLIPSE
  5
AA
330
78
100
AcDbEntity
  8
DV1_Default
 62
     7
100
AcDbEllipse
 10
24.1561031103
 20
316.6047092004
 30
0.0
 11
1.299999999999996
 21
-3.469446951953614E-15
 31
0.0
210
0.0
220
0.0
230
1.0
 40
0.0174550649
 41
3.141592653589793
 42
3.441448310765189
  0
LINE
  5
AB
330
78
100
AcDbEntity
  8
DV1_Default
 62
     7
100
AcDbLine
 10
22.8561031103
 20
316.6047092004
 30
0.0
 11
22.8561031103
 21
316.8316250445
 31
0.0
  0
ELLIPSE
  5
AC
330
78
100
AcDbEntity
  8
DV1_Default
 62
     7
100
AcDbEllipse
 10
24.1561031103
 20
316.8316250445
 30
0.0
 11
-1.299999999999996
 21
3.469446951953614E-15
 31
0.0
210
0.0
220
0.0
230
1.0
 40
0.0174550649
 41
4.71238898038469
 42
6.283185307179586
  0
LINE
  5
AD
330
78
100
AcDbEntity
  8
DV1_Default
 62
     7
100
AcDbLine
 10
24.1561031103
 20
316.8543166289
 30
0.0
 11
28.9461362111
 21
316.8543166289
 31
0.0
  0
ELLIPSE
  5
AE
330
78
100
AcDbEntity
  8
DV1_Default
 62
     7
100
AcDbEllipse
 10
33.8522437681
 20
317.5647516235
 30
0.0
 11
-5.209701130764744
 21
0.0
 31
0.0
210
0.0
220
0.0
230
1.0
 40
0.0174550651
 41
0.0001523280415219
 42
0.1877451470130954
  0
LINE
  5
AF
330
78
100
AcDbEntity
  8
DV1_Default
 62
     7
100
AcDbLine
 10
28.6425426978
 20
317.5647377715
 30
0.0
 11
28.6419291366
 21
317.6350449231
 31
0.0
  0
ARC
  5
B0
330
78
100
AcDbEntity
  8
DV1_Default
 62
     7
100
AcDbCircle
 10
32.011638211
 20
276.4328616671
 30
0.0
 40
41.33974896285191
100
AcDbArc
 50
87.3250959185
 51
94.6755134556
  0
ARC
  5
B1
330
78
100
AcDbEntity
  8
DV1_Default
 62
     7
100
AcDbCircle
 10
12.2878374074
 20
244.1868626563
 30
0.0
 40
73.80650132817452
100
AcDbArc
 50
87.6206338356
 51
94.3793661644
  0
ARC
  5
B2
330
78
100
AcDbEntity
  8
DV1_Default
 62
     7
100
AcDbCircle
 10
12.3463671977
 20
393.2558260159
 30
0.0
 40
77.15460316978806
100
AcDbArc
 50
265.7674398011
 51
272.2325601989
  0
LINE
  5
B3
330
78
100
AcDbEntity
  8
DV1_Default
 62
     7
100
AcDbLine
 10
15.3519762003
 20
316.1597878245
 30
0.0
 11
23.1561031103
 21
316.1597878245
 31
0.0
  0
LINE
  5
B4
330
78
100
AcDbEntity
  8
DV1_Default
 62
     7
100
AcDbLine
 10
18.3522437681
 20
270.8586955641
 30
0.0
 11
15.7215870685
 21
270.8586955641
 31
0.0
  0
LINE
  5
B5
330
78
100
AcDbEntity
  8
DV1_Default
 62
     7
100
AcDbLine
 10
15.7215870685
 20
270.8586955641
 30
0.0
 11
15.3860559073
 21
270.8586955641
 31
0.0
  0
LINE
  5
B6
330
78
100
AcDbEntity
  8
DV1_Default
 62
     7
100
AcDbLine
 10
15.3860559073
 20
270.8586955641
 30
0.0
 11
15.3581203865
 21
270.8586955641
 31
0.0
  0
LINE
  5
B7
330
78
100
AcDbEntity
  8
DV1_Default
 62
     7
100
AcDbLine
 10
6.3519762003
 20
318.0778266519
 30
0.0
 11
6.3519762003
 21
322.4784968953
 31
0.0
  0
LINE
  5
B8
330
78
100
AcDbEntity
  8
DV1_Default
 62
     7
100
AcDbLine
 10
6.3519762003
 20
316.6116011979
 30
0.0
 11
6.3519762003
 21
318.0778266519
 31
0.0
  0
LINE
  5
B9
330
78
100
AcDbEntity
  8
DV1_Default
 62
     7
100
AcDbLine
 10
28.9487538727
 20
316.5543623204
 30
0.0
 11
24.1561031103
 21
316.5543623204
 31
0.0
  0
LINE
  5
BA
330
78
100
AcDbEntity
  8
DV1_Default
 62
     7
100
AcDbLine
 10
53.5477729881
 20
304.2426807257
 30
0.0
 11
53.5477729881
 21
271.8586955641
 31
0.0
  0
LINE
  5
BB
330
78
100
AcDbEntity
  8
DV1_Default
 62
     7
100
AcDbLine
 10
23.1561031103
 20
301.9617420872
 30
0.0
 11
23.1561031103
 21
316.531670736
 31
0.0
  0
ARC
  5
BC
330
78
100
AcDbEntity
  8
DV1_Default
 62
     7
100
AcDbCircle
 10
34.9173379599
 20
276.0344599152
 30
0.0
 40
18.5
100
AcDbArc
 50
98.1268115898
 51
149.4135655429
  0
ARC
  5
BD
330
78
100
AcDbEntity
  8
DV1_Default
 62
     7
100
AcDbCircle
 10
32.7867447479
 20
276.0351688666
 30
0.0
 40
18.49999999999996
100
AcDbArc
 50
30.5838295456
 51
81.8550922374
  0
ARC
  5
BE
330
78
100
AcDbEntity
  8
DV1_Default
 62
     7
100
AcDbCircle
 10
34.9173379599
 20
276.0344599152
 30
0.0
 40
20.99999999999999
100
AcDbArc
 50
140.7746035575
 51
191.335361741
  0
LINE
  5
BF
330
78
100
AcDbEntity
  8
DV1_Default
 62
     7
100
AcDbLine
 10
18.8522437681
 20
284.9391180777
 30
0.0
 11
18.8522437681
 21
271.3586955641
 31
0.0
  0
ARC
  5
C0
330
78
100
AcDbEntity
  8
DV1_Default
 62
     7
100
AcDbCircle
 10
19.8522437681
 20
284.9391180777
 30
0.0
 40
0.99999999999998
100
AcDbArc
 50
149.4135655429
 51
180.0
  0
LINE
  5
C1
330
78
100
AcDbEntity
  8
DV1_Default
 62
     7
100
AcDbLine
 10
48.8522437681
 20
271.3586955641
 30
0.0
 11
48.8522437681
 21
284.9391420962
 31
0.0
  0
ARC
  5
C2
330
78
100
AcDbEntity
  8
DV1_Default
 62
     7
100
AcDbCircle
 10
47.8522437681
 20
284.9391420962
 30
0.0
 40
1.000000000000001
100
AcDbArc
 50
0.0
 51
30.5838295456
  0
LINE
  5
C3
330
78
100
AcDbEntity
  8
DV1_Default
 62
     7
100
AcDbLine
 10
52.5477729881
 20
270.8586955641
 30
0.0
 11
49.3522437681
 21
270.8586955641
 31
0.0
  0
LINE
  5
C4
330
78
100
AcDbEntity
  8
DV1_Default
 62
     7
100
AcDbLine
 10
32.8135534701
 20
304.2538973001
 30
0.0
 11
32.7313934485
 21
294.8392913232
 31
0.0
  0
LINE
  5
C5
330
78
100
AcDbEntity
  8
DV1_Default
 62
     7
100
AcDbLine
 10
34.97862978
 20
294.8391510197
 30
0.0
 11
34.8965664194
 21
304.2426807257
 31
0.0
  0
SPLINE
  5
C6
330
78
100
AcDbEntity
  8
DV1_Default
 62
     7
100
AcDbSpline
210
0.0
220
0.0
230
1.0
 70
     8
 71
     5
 72
    14
 73
     8
 74
     0
 42
0.000000001
 43
0.0000000001
 40
0.0
 40
0.0
 40
0.0
 40
0.0
 40
0.0
 40
0.0
 40
0.5
 40
0.5
 40
1.0
 40
1.0
 40
1.0
 40
1.0
 40
1.0
 40
1.0
 10
18.64938840282601
 20
289.3142873691288
 30
0.0
 10
19.231012363936
 20
290.0267837696534
 30
0.0
 10
19.99186758552082
 20
290.8792144554524
 30
0.0
 10
22.03084075041722
 20
293.7156791862802
 30
0.0
 10
22.93252946786192
 20
296.6091932912049
 30
0.0
 10
23.15610311034011
 20
299.3961392352878
 30
0.0
 10
23.15610311034011
 20
300.6789406612435
 30
0.0
 10
23.15610311034007
 20
301.9617420871992
 30
0.0
  0
LINE
  5
C7
330
78
100
AcDbEntity
  8
DV1_Default
 62
     7
100
AcDbLine
 10
29.0415996833
 20
305.915286215
 30
0.0
 11
28.9419177135
 21
317.3377085752
 31
0.0
  0
LINE
  5
C8
330
78
100
AcDbEntity
  8
DV1_Default
 62
     7
100
AcDbLine
 10
15.3519762003
 20
316.1597878245
 30
0.0
 11
15.3519762003
 21
316.159742133
 31
0.0
  0
ELLIPSE
  5
C9
330
78
100
AcDbEntity
  8
DV1_Default
 62
     7
100
AcDbEllipse
 10
6.6519762003
 20
316.6116011979
 30
0.0
 11
-0.2999999999999531
 21
-1.101896351940468E-11
 31
0.0
210
0.0
220
0.0
230
1.0
 40
0.9998476952
 41
0.0
 42
1.570796326758128
  0
ELLIPSE
  5
CA
330
78
100
AcDbEntity
  8
DV1_Default
 62
     7
100
AcDbEllipse
 10
6.6519762003
 20
318.0778266519
 30
0.0
 11
-0.3000000000001751
 21
-1.182040576530596E-11
 31
0.0
210
0.0
220
0.0
230
1.0
 40
0.9998476952
 41
0.0
 42
1.570796326755457
  0
ELLIPSE
  5
CB
330
78
100
AcDbEntity
  8
DV1_Default
 62
     7
100
AcDbEllipse
 10
28.6419291366
 20
317.3350906146
 30
0.0
 11
0.2999885769199018
 21
0.002617960613085502
 31
0.0
210
0.0
220
0.0
230
1.0
 40
0.9998476836
 41
0.0
 42
0.0277424054672214
  0
ELLIPSE
  5
CC
330
78
100
AcDbEntity
  8
DV1_Default
 62
     7
100
AcDbEllipse
 10
28.6419291366
 20
317.3350906146
 30
0.0
 11
0.2999885769199018
 21
0.002617960613085502
 31
0.0
210
0.0
220
0.0
230
1.0
 40
0.9998476836
 41
0.0277424054672215
 42
1.562071009799179
  0
ELLIPSE
  5
CD
330
78
100
AcDbEntity
  8
DV1_Default
 62
     7
100
AcDbEllipse
 10
28.6425426978
 20
317.2647834629
 30
0.0
 11
0.2999885769193605
 21
0.00261796062708472
 31
0.0
210
0.0
220
0.0
230
1.0
 40
0.9998476836
 41
0.0000000000749281
 42
1.562071009753941
  0
ARC
  5
CE
330
78
100
AcDbEntity
  8
DV1_Default
 62
     7
100
AcDbCircle
 10
35.2197853526
 20
276.0964843711
 30
0.0
 40
21.30873874677021
100
AcDbArc
 50
191.3390404595
 51
191.8394803049
  0
ELLIPSE
  5
CF
330
78
100
AcDbEntity
  8
DV1_Default
 62
     7
100
AcDbEllipse
 10
24.1561031103
 20
316.531670736
 30
0.0
 11
1.000000000000001
 21
0.0
 31
0.0
210
0.0
220
0.0
230
1.0
 40
0.0226915844
 41
1.570796326794897
 42
3.141592653589793
  0
SPLINE
  5
D0
330
78
100
AcDbEntity
  8
DV1_Default
 62
     7
100
AcDbSpline
210
0.0
220
0.0
230
1.0
 70
     8
 71
     3
 72
     8
 73
     4
 74
     0
 42
0.000000001
 43
0.0000000001
 40
0.0
 40
0.0
 40
0.0
 40
0.0
 40
1.0
 40
1.0
 40
1.0
 40
1.0
 10
14.36423312597865
 20
271.7231053342289
 30
0.0
 10
14.36305836560878
 20
271.7094769747106
 30
0.0
 10
14.36333725045572
 20
271.697437327257
 30
0.0
 10
14.36466414960239
 20
271.6871835377985
 30
0.0
  0
SPLINE
  5
D1
330
78
100
AcDbEntity
  8
DV1_Default
 62
     7
100
AcDbSpline
210
0.0
220
0.0
230
1.0
 70
     8
 71
     3
 72
    10
 73
     6
 74
     0
 42
0.000000001
 43
0.0000000001
 40
0.0
 40
0.0
 40
0.0
 40
0.0
 40
0.5
 40
0.5
 40
1.0
 40
1.0
 40
1.0
 40
1.0
 10
15.35812038651092
 20
270.8586955641155
 30
0.0
 10
15.24474866799311
 20
270.8586955641155
 30
0.0
 10
15.13140209520748
 20
270.8781589952165
 30
0.0
 10
14.91764737108493
 20
270.9537996202406
 30
0.0
 10
14.81728663032907
 20
271.0099600371497
 30
0.0
 10
14.72914829553711
 20
271.0812676840031
 30
0.0
  0
ARC
  5
D2
330
78
100
AcDbEntity
  8
DV1_Default
 62
     7
100
AcDbCircle
 10
35.4786107415
 20
294.8435142875
 30
0.0
 40
0.4999999999999862
100
AcDbArc
 50
180.5
 51
261.8550922374
  0
ARC
  5
D3
330
78
100
AcDbEntity
  8
DV1_Default
 62
     7
100
AcDbCircle
 10
32.2314124869
 20
294.843654591
 30
0.0
 40
0.5000000000000155
100
AcDbArc
 50
278.1268115898
 51
359.5
  0
ARC
  5
D4
330
78
100
AcDbEntity
  8
DV1_Default
 62
     7
100
AcDbCircle
 10
49.3522437681
 20
271.3586955641
 30
0.0
 40
0.499999999999997
100
AcDbArc
 50
180.0
 51
270.0
  0
ARC
  5
D5
330
78
100
AcDbEntity
  8
DV1_Default
 62
     7
100
AcDbCircle
 10
18.3522437681
 20
271.3586955641
 30
0.0
 40
0.5000000000000004
100
AcDbArc
 50
270.0
 51
0.0
  0
ARC
  5
D6
330
78
100
AcDbEntity
  8
DV1_Default
 62
     7
100
AcDbCircle
 10
52.5477729881
 20
271.8586955641
 30
0.0
 40
1.000000000000001
100
AcDbArc
 50
270.0
 51
0.0
  0
LINE
  5
D7
330
78
100
AcDbEntity
  8
DV1_Default
 62
     7
100
AcDbLine
 10
24.1561031103
 20
316.5543623204
 30
0.0
 11
24.1561031103
 21
316.8543166289
 31
0.0
  0
ELLIPSE
  5
D8
330
78
100
AcDbEntity
  8
DV1_Default
 62
     7
100
AcDbEllipse
 10
22.8561031103
 20
316.531670736
 30
0.0
 11
0.2999999999998837
 21
-1.095304402731756E-11
 31
0.0
210
0.0
220
0.0
230
1.0
 40
0.9998476952
 41
0.0
 42
1.570796326831401
  0
ELLIPSE
  5
D9
330
78
100
AcDbEntity
  8
DV1_Default
 62
     7
100
AcDbEllipse
 10
22.8561031103
 20
316.3047548919
 30
0.0
 11
0.2999999999999531
 21
4.371503159461553E-13
 31
0.0
210
0.0
220
0.0
230
1.0
 40
0.9998476952
 41
0.0
 42
1.57079632679344
  0
LINE
  5
DA
330
78
100
AcDbEntity
  8
DV1_Default
 62
     7
100
AcDbLine
 10
34.0534106918
 20
304.2426807257
 30
0.0
 11
183.6505417087
 21
304.2426807257
 31
0.0
  0
SPLINE
  5
DB
330
78
100
AcDbEntity
  8
DV1_Default
 62
     7
100
AcDbSpline
210
0.0
220
0.0
230
1.0
 70
     8
 71
     3
 72
    18
 73
    14
 74
     0
 42
0.000000001
 43
0.0000000001
 40
0.0
 40
0.0
 40
0.0
 40
0.0
 40
0.158884587123824
 40
0.2659405266997505
 40
0.3513705213138837
 40
0.4244334901511015
 40
0.4913050816516178
 40
0.5577098806682905
 40
0.631282297142979
 40
0.7123172029297828
 40
0.8074263585708237
 40
0.9143307367380376
 40
1.0
 40
1.0
 40
1.0
 40
1.0
 10
183.6505417305881
 20
304.2426635044536
 30
0.0
 10
184.1392645756835
 20
304.2425592957987
 30
0.0
 10
184.8084590406218
 20
304.2432623777528
 30
0.0
 10
185.8300878843381
 20
304.2926458620784
 30
0.0
 10
186.526724136128
 20
304.3729803237046
 30
0.0
 10
187.1045777348097
 20
304.4819330310836
 30
0.0
 10
187.5558735312714
 20
304.6186411168227
 30
0.0
 10
187.9302510982347
 20
304.7881508211251
 30
0.0
 10
188.2249089811145
 20
304.9885961553315
 30
0.0
 10
188.45544768286
 20
305.2276752208221
 30
0.0
 10
188.6077891434994
 20
305.4940521249887
 30
0.0
 10
188.6614926813776
 20
305.754122249823
 30
0.0
 10
188.6618972725349
 20
305.8685581221508
 30
0.0
 10
188.6624886616471
 20
305.9136421143191
 30
0.0
  0
SPLINE
  5
DC
330
78
100
AcDbEntity
  8
DV1_Default
 62
     7
100
AcDbSpline
210
0.0
220
0.0
230
1.0
 70
     8
 71
     3
 72
    21
 73
    17
 74
     0
 42
0.000000001
 43
0.0000000001
 40
0.0
 40
0.0
 40
0.0
 40
0.0
 40
0.0428661431522263
 40
0.0757292028240384
 40
0.1337412797197985
 40
0.2417437381807583
 40
0.3221119573938348
 40
0.3914782196759761
 40
0.4540315188634307
 40
0.5126632305305889
 40
0.5717073204427123
 40
0.6349881774223238
 40
0.7051123233441059
 40
0.7841988276980023
 40
0.8761998359219706
 40
1.0
 40
1.0
 40
1.0
 40
1.0
 10
211.3524572486478
 20
322.4792377959876
 30
0.0
 10
211.3526493402225
 20
322.5083750112252
 30
0.0
 10
211.3528729604085
 20
322.6042261536924
 30
0.0
 10
211.1850984450301
 20
322.7827317516915
 30
0.0
 10
211.0475869216792
 20
322.8077342261574
 30
0.0
 10
210.8924335509485
 20
322.8382769089833
 30
0.0
 10
210.5592801609984
 20
322.8560646476739
 30
0.0
 10
210.1564079945709
 20
322.8748466402623
 30
0.0
 10
209.6611242542589
 20
322.8876807852686
 30
0.0
 10
209.0768225003714
 20
322.8997040422727
 30
0.0
 10
208.3771142476292
 20
322.9089659900958
 30
0.0
 10
207.5604854374806
 20
322.9169884808344
 30
0.0
 10
206.5730456396368
 20
322.923154857537
 30
0.0
 10
205.4530709383996
 20
322.9276921612395
 30
0.0
 10
203.9644427738147
 20
322.9302799800003
 30
0.0
 10
203.0146047855318
 20
322.9303729829003
 30
0.0
 10
202.3519761928709
 20
322.9303630907978
 30
0.0
  0
LINE
  5
DD
330
78
100
AcDbEntity
  8
DV1_Default
 62
     7
100
AcDbLine
 10
202.3519762003
 20
322.9303559602
 30
0.0
 11
15.3519762003
 21
322.9303559602
 31
0.0
  0
LINE
  5
DE
330
78
100
AcDbEntity
  8
DV1_Default
 62
     7
100
AcDbLine
 10
194.5478492902
 20
316.159742133
 30
0.0
 11
202.3519762003
 21
316.159742133
 31
0.0
  0
SPLINE
  5
DF
330
78
100
AcDbEntity
  8
DV1_Default
 62
     7
100
AcDbSpline
210
0.0
220
0.0
230
1.0
 70
     8
 71
     3
 72
    21
 73
    17
 74
     0
 42
0.000000001
 43
0.0000000001
 40
0.0
 40
0.0
 40
0.0
 40
0.0
 40
0.1328565071712792
 40
0.2251551048992647
 40
0.3042058310227367
 40
0.3740180186596789
 40
0.4370324651565199
 40
0.4956832054897092
 40
0.5537323362350242
 40
0.6153164377575399
 40
0.6833975022027906
 40
0.7613038279383159
 40
0.8663175124656186
 40
0.9263785109194099
 40
0.9582501915326178
 40
1.0
 40
1.0
 40
1.0
 40
1.0
 10
202.351976204595
 20
316.1597351066112
 30
0.0
 10
203.0609575573083
 20
316.1597312221898
 30
0.0
 10
204.0457589661118
 20
316.1598266849397
 30
0.0
 10
205.5785121487991
 20
316.1627647575656
 30
0.0
 10
206.6893804122783
 20
316.1675472374961
 30
0.0
 10
207.6664852639374
 20
316.1739651774712
 30
0.0
 10
208.4672849257227
 20
316.1821770663259
 30
0.0
 10
209.1489948567529
 20
316.1916414487568
 30
0.0
 10
209.7124376793922
 20
316.2036175071623
 30
0.0
 10
210.1876037776192
 20
316.2164919474208
 30
0.0
 10
210.572537769344
 20
316.2345957449978
 30
0.0
 10
210.891905136021
 20
316.2524669118566
 30
0.0
 10
211.0472375830044
 20
316.2814523387588
 30
0.0
 10
211.1800504870636
 20
316.3066141756196
 30
0.0
 10
211.3469233286811
 20
316.4724657720093
 30
0.0
 10
211.352393557817
 20
316.5780792942388
 30
0.0
 10
211.3523902865501
 20
316.6108333002653
 30
0.0
  0
SPLINE
  5
E0
330
78
100
AcDbEntity
  8
DV1_Default
 62
     7
100
AcDbSpline
210
0.0
220
0.0
230
1.0
 70
     8
 71
     3
 72
    11
 73
     7
 74
     0
 42
0.000000001
 43
0.0000000001
 40
0.0
 40
0.0
 40
0.0
 40
0.0
 40
0.2943784165438987
 40
0.5538222808423108
 40
0.9507674240081587
 40
1.0
 40
1.0
 40
1.0
 40
1.0
 10
188.7614211258863
 20
317.2674014235927
 30
0.0
 10
188.7630685161458
 20
317.340700227141
 30
0.0
 10
188.8126982029345
 20
317.46520523253
 30
0.0
 10
188.9708163454815
 20
317.5565658802147
 30
0.0
 10
188.9829586483545
 20
317.5529344755823
 30
0.0
 10
188.9832695553355
 20
317.5512570401479
 30
0.0
 10
188.9832166402824
 20
317.5510788089607
 30
0.0
  0
LINE
  5
E1
330
78
100
AcDbEntity
  8
DV1_Default
 62
     7
100
AcDbLine
 10
203.3226694947
 20
271.644713152
 30
0.0
 11
203.330278273
 21
271.6803756081
 31
0.0
  0
ARC
  5
E2
330
78
100
AcDbEntity
  8
DV1_Default
 62
     7
100
AcDbCircle
 10
165.1765595444
 20
271.8630245377
 30
0.0
 40
1.020389314719638
100
AcDbArc
 50
180.7146497045
 51
203.7410144673
  0
SPLINE
  5
E3
330
78
100
AcDbEntity
  8
DV1_Default
 62
     7
100
AcDbSpline
210
0.0
220
0.0
230
1.0
 70
     8
 71
     3
 72
    47
 73
    43
 74
     0
 42
0.000000001
 43
0.0000000001
 40
0.0
 40
0.0
 40
0.0
 40
0.0
 40
0.0292776425685445
 40
0.0599942983851592
 40
0.0905282020321979
 40
0.1208824000614323
 40
0.151057691093789
 40
0.1810536570127753
 40
0.2108685804804052
 40
0.2404993024975685
 40
0.2699409932418098
 40
0.2991868004034865
 40
0.3282273195551627
 40
0.3570498011382196
 40
0.3856369643988337
 40
0.4139652268700273
 40
0.4420020830555985
 40
0.4697023075808394
 40
0.4970027146138621
 40
0.5238156249191981
 40
0.5500224465237618
 40
0.575471351559338
 40
0.5999862612681619
 40
0.623394262299603
 40
0.6455691359624343
 40
0.6664727519133798
 40
0.6861719672832876
 40
0.7048259153122177
 40
0.7226577677195564
 40
0.7399274298548553
 40
0.7569128758155594
 40
0.7739002849757742
 40
0.7911200279908741
 40
0.8088273202630301
 40
0.8273142855503164
 40
0.8468744491477811
 40
0.8678053252088239
 40
0.8904078816037999
 40
0.9149833210689847
 40
0.9418260529596422
 40
0.9712120077926238
 40
1.0
 40
1.0
 40
1.0
 40
1.0
 10
194.5478492902394
 20
316.3047548918913
 30
0.0
 10
194.5479236176726
 20
316.3104690033027
 30
0.0
 10
194.5480900241882
 20
316.3203441299024
 30
0.0
 10
194.5494095049264
 20
316.3366863106538
 30
0.0
 10
194.5515652087872
 20
316.3527149314857
 30
0.0
 10
194.5545865669998
 20
316.3686166792099
 30
0.0
 10
194.5584293342602
 20
316.3842089539818
 30
0.0
 10
194.5630722524309
 20
316.3994867806533
 30
0.0
 10
194.5684850512701
 20
316.4143998862467
 30
0.0
 10
194.5746368790203
 20
316.4289120180148
 30
0.0
 10
194.5814939393913
 20
316.4429852306879
 30
0.0
 10
194.5890199146116
 20
316.4565840615464
 30
0.0
 10
194.597175523217
 20
316.4696743738235
 30
0.0
 10
194.6059181139828
 20
316.4822235457569
 30
0.0
 10
194.6152009550693
 20
316.4942002098062
 30
0.0
 10
194.6249721605834
 20
316.5055739940558
 30
0.0
 10
194.6351730658277
 20
316.5163151317323
 30
0.0
 10
194.6457358555139
 20
316.5263940017947
 30
0.0
 10
194.6565802966785
 20
316.5357807238613
 30
0.0
 10
194.6676097200455
 20
316.5444451577886
 30
0.0
 10
194.67870716583
 20
316.5523580033906
 30
0.0
 10
194.6897339856922
 20
316.5594940055167
 30
0.0
 10
194.7005345066758
 20
316.5658379705469
 30
0.0
 10
194.7109496198743
 20
316.5713927031123
 30
0.0
 10
194.7208376302762
 20
316.5761855774343
 30
0.0
 10
194.7300946680872
 20
316.5802696801196
 30
0.0
 10
194.7386653807609
 20
316.5837180422599
 30
0.0
 10
194.7465401265004
 20
316.5866135075566
 30
0.0
 10
194.7537425746895
 20
316.5890386460533
 30
0.0
 10
194.760314801822
 20
316.5910687717674
 30
0.0
 10
194.766304846869
 20
316.5927686233231
 30
0.0
 10
194.771751784554
 20
316.5941900665077
 30
0.0
 10
194.7766862819779
 20
316.5953750572621
 30
0.0
 10
194.7811332751108
 20
316.5963582248951
 30
0.0
 10
194.785113423403
 20
316.5971683903229
 30
0.0
 10
194.7886373728845
 20
316.5978285583759
 30
0.0
 10
194.7917020941906
 20
316.5983565549677
 30
0.0
 10
194.7942909691206
 20
316.5987662545739
 30
0.0
 10
194.7963740016177
 20
316.5990685779731
 30
0.0
 10
194.7979083453833
 20
316.5992723193581
 30
0.0
 10
194.7988037427808
 20
316.599380534723
 30
0.0
 10
194.7989870297653
 20
316.5994004181558
 30
0.0
 10
194.7989869824195
 20
316.5994003980235
 30
0.0
  0
SPLINE
  5
E4
330
78
100
AcDbEntity
  8
DV1_Default
 62
     7
100
AcDbSpline
210
0.0
220
0.0
230
1.0
 70
     8
 71
     3
 72
    18
 73
    14
 74
     0
 42
0.000000001
 43
0.0000000001
 40
0.0
 40
0.0
 40
0.0
 40
0.0
 40
0.0882942511361
 40
0.1957520710759384
 40
0.2923870974984457
 40
0.3770364627558021
 40
0.451228599848887
 40
0.5180006808076822
 40
0.5845592463582107
 40
0.6568826004232177
 40
0.740946470027253
 40
0.8442102835418852
 40
1.0
 40
1.0
 40
1.0
 40
1.0
 10
29.04149745324912
 20
305.9138269420338
 30
0.0
 10
29.04207850035592
 20
305.8677170531685
 30
0.0
 10
29.04249876375728
 20
305.7493587404136
 30
0.0
 10
29.09949266133656
 20
305.4845047079383
 30
0.0
 10
29.25940269409076
 20
305.2119837759287
 30
0.0
 10
29.50275573805228
 20
304.9680498602817
 30
0.0
 10
29.81569169272534
 20
304.7648473686169
 30
0.0
 10
30.20377252917218
 20
304.5985956805727
 30
0.0
 10
30.66374227548263
 20
304.4671509410338
 30
0.0
 10
31.24100714561137
 20
304.3641616003404
 30
0.0
 10
31.92488361428843
 20
304.2893532595839
 30
0.0
 10
32.92234628721553
 20
304.2432165824874
 30
0.0
 10
33.57419868865785
 20
304.2425780497367
 30
0.0
 10
34.05341064507012
 20
304.2426617342265
 30
0.0
  0
SPLINE
  5
E5
330
78
100
AcDbEntity
  8
DV1_Default
 62
     7
100
AcDbSpline
210
0.0
220
0.0
230
1.0
 70
     8
 71
     3
 72
    21
 73
    17
 74
     0
 42
0.000000001
 43
0.0000000001
 40
0.0
 40
0.0
 40
0.0
 40
0.0
 40
0.132856503775036
 40
0.2251550991534259
 40
0.3042058232638906
 40
0.3740180091231521
 40
0.4370324540151405
 40
0.4956831928545012
 40
0.5537323221205797
 40
0.615316422073672
 40
0.6833974847831373
 40
0.7613038085330605
 40
0.8663174903846639
 40
0.9263784873123113
 40
0.9582501671491579
 40
1.0
 40
1.0
 40
1.0
 40
1.0
 10
15.35197619598444
 20
322.9303629865964
 30
0.0
 10
14.6429948433314
 20
322.9303668710178
 30
0.0
 10
13.65819343456387
 20
322.930271408255
 30
0.0
 10
12.12544025192044
 20
322.9273333356627
 30
0.0
 10
11.01457198841532
 20
322.9225508556734
 30
0.0
 10
10.03746713674081
 20
322.9161329158107
 30
0.0
 10
9.236667474935512
 20
322.9079210267441
 30
0.0
 10
8.554957543896125
 20
322.8984566447133
 30
0.0
 10
7.991514721237395
 20
322.8864805855463
 30
0.0
 10
7.516348623016464
 20
322.8736061467511
 30
0.0
 10
7.131414631252622
 20
322.8555023463641
 30
0.0
 10
6.812047264623838
 20
322.8376311852746
 30
0.0
 10
6.656714817503406
 20
322.8086457469846
 30
0.0
 10
6.523901913633639
 20
322.7834839270248
 30
0.0
 10
6.357029039626524
 20
322.6176322719865
 30
0.0
 10
6.351558841338631
 20
322.5120187570301
 30
0.0
 10
6.351562113728032
 20
322.4792647367719
 30
0.0
  0
LINE
  5
E6
330
78
100
AcDbEntity
  8
DV1_Default
 62
     7
100
AcDbLine
 10
15.3519762003
 20
316.159742133
 30
0.0
 11
23.1561031103
 21
316.159742133
 31
0.0
  0
SPLINE
  5
E7
330
78
100
AcDbEntity
  8
DV1_Default
 62
     7
100
AcDbSpline
210
0.0
220
0.0
230
1.0
 70
     8
 71
     3
 72
    21
 73
    17
 74
     0
 42
0.000000001
 43
0.0000000001
 40
0.0
 40
0.0
 40
0.0
 40
0.0
 40
0.0428661437490889
 40
0.0757292030135182
 40
0.1337412796683949
 40
0.2417437380180985
 40
0.322111957273973
 40
0.3914782195790102
 40
0.4540315187705568
 40
0.5126632304239751
 40
0.5717073203007733
 40
0.6349881772283476
 40
0.7051123230845691
 40
0.7841988273624956
 40
0.8761998354672008
 40
1.0
 40
1.0
 40
1.0
 40
1.0
 10
6.351495151939391
 20
316.6108602978883
 30
0.0
 10
6.351303060344287
 20
316.5817230823022
 30
0.0
 10
6.351079439838453
 20
316.4858719401965
 30
0.0
 10
6.518853955120085
 20
316.3073663418009
 30
0.0
 10
6.656365478452927
 20
316.282363867106
 30
0.0
 10
6.811518848522158
 20
316.2518211843491
 30
0.0
 10
7.144672237767463
 20
316.2340334456187
 30
0.0
 10
7.547544403758405
 20
316.2152514530256
 30
0.0
 10
8.04282814365849
 20
316.2024173079992
 30
0.0
 10
8.627129897028782
 20
316.1903940509881
 30
0.0
 10
9.326838149197728
 20
316.1811321031544
 30
0.0
 10
10.1434669586133
 20
316.173109612409
 30
0.0
 10
11.13090675575731
 20
316.1669432356969
 30
0.0
 10
12.25088145590883
 20
316.1624059319863
 30
0.0
 10
13.7395096224807
 20
316.1598181132074
 30
0.0
 10
14.68934761236741
 20
316.1597251103082
 30
0.0
 10
15.35197620770855
 20
316.1597350024099
 30
0.0
  0
LINE
  5
E8
330
78
100
AcDbEntity
  8
DV1_Default
 62
     7
100
AcDbLine
 10
28.9416292725
 20
317.3460246294
 30
0.0
 11
28.9417832541
 21
317.3388855173
 31
0.0
  0
SPLINE
  5
E9
330
78
100
AcDbEntity
  8
DV1_Default
 62
     7
100
AcDbSpline
210
0.0
220
0.0
230
1.0
 70
     8
 71
     3
 72
    10
 73
     6
 74
     0
 42
0.000000001
 43
0.0000000001
 40
0.0
 40
0.0
 40
0.0
 40
0.0
 40
0.4264297746945207
 40
0.6934095909953041
 40
1.0
 40
1.0
 40
1.0
 40
1.0
 10
28.72015609903239
 20
317.551862828243
 30
0.0
 10
28.71842032230503
 20
317.5540074285773
 30
0.0
 10
28.72516290461328
 20
317.5582331360031
 30
0.0
 10
28.88414393518832
 20
317.4736055689997
 30
0.0
 10
28.94097240044283
 20
317.34369649532
 30
0.0
 10
28.94253127469314
 20
317.2674014235923
 30
0.0
  0
ARC
  5
EA
330
78
100
AcDbEntity
  8
DV1_Default
 62
     7
100
AcDbCircle
 10
15.7548691145
 20
272.1181719938
 30
0.0
 40
1.458623629751503
100
AcDbArc
 50
197.1359921733
 51
225.3106529342
  0
SPLINE
  5
EB
330
78
100
AcDbEntity
  8
DV1_Default
 62
     7
100
AcDbSpline
210
0.0
220
0.0
230
1.0
 70
     8
 71
     3
 72
    47
 73
    43
 74
     0
 42
0.000000001
 43
0.0000000001
 40
0.0
 40
0.0
 40
0.0
 40
0.0
 40
0.0121777631557989
 40
0.0438138290629337
 40
0.0726892930034645
 40
0.0990415006633132
 40
0.1231541063499543
 40
0.1453359368541446
 40
0.1659058030251553
 40
0.1851832833033815
 40
0.2034843795372719
 40
0.2211206338043909
 40
0.2384003414088925
 40
0.2556078172012842
 40
0.2729505765687468
 40
0.2907352880503374
 40
0.309254015706882
 40
0.3287783342328061
 40
0.3495383793154073
 40
0.3716901871431114
 40
0.3952788381303171
 40
0.4202184533564846
 40
0.4463124156211706
 40
0.4733114014791347
 40
0.5009752118462032
 40
0.5291081253984673
 40
0.5575658671542673
 40
0.5862477603912051
 40
0.6150853597228966
 40
0.644032529010766
 40
0.6730581056519093
 40
0.702140859488001
 40
0.7312661430915418
 40
0.7604236957002769
 40
0.7928385163557101
 40
0.8251059091758278
 40
0.8571372313607873
 40
0.888942288713881
 40
0.9205319245929746
 40
0.9519154628840693
 40
0.9831007118303139
 40
1.0
 40
1.0
 40
1.0
 40
1.0
 10
22.9049653469
 20
316.599400417793
 30
0.0
 10
22.90496539822548
 20
316.599400406755
 30
0.0
 10
22.90502420084704
 20
316.599393963136
 30
0.0
 10
22.90549157990406
 20
316.599340599084
 30
0.0
 10
22.90677592556971
 20
316.5991776468157
 30
0.0
 10
22.90866980995247
 20
316.5989137556331
 30
0.0
 10
22.91111908214366
 20
316.5985402488763
 30
0.0
 10
22.91408160063991
 20
316.5980468335006
 30
0.0
 10
22.9175287223598
 20
316.5974207573483
 30
0.0
 10
22.92144599949158
 20
316.5966458226512
 30
0.0
 10
22.92583339521179
 20
316.5957012142262
 30
0.0
 10
22.93070517427519
 20
316.5945600984479
 30
0.0
 10
22.9360870960104
 20
316.5931885632972
 30
0.0
 10
22.9420052293598
 20
316.5915468236574
 30
0.0
 10
22.94849119950905
 20
316.5895867852962
 30
0.0
 10
22.95558311437237
 20
316.587249844181
 30
0.0
 10
22.96333292434229
 20
316.5844610478385
 30
0.0
 10
22.97178440908605
 20
316.581133403215
 30
0.0
 10
22.9809592942526
 20
316.577171941176
 30
0.0
 10
22.99083938393759
 20
316.5724828612359
 30
0.0
 10
23.00135103018658
 20
316.5669872044909
 30
0.0
 10
23.01236143221107
 20
316.5606349292046
 30
0.0
 10
23.02369308495858
 20
316.5534126248995
 30
0.0
 10
23.03515181758456
 20
316.5453405710577
 30
0.0
 10
23.04655496283187
 20
316.5364615082958
 30
0.0
 10
23.05774823098158
 20
316.5268280372543
 30
0.0
 10
23.06860947055482
 20
316.5164939739919
 30
0.0
 10
23.07904449195017
 20
316.5055104938438
 30
0.0
 10
23.08898053872353
 20
316.4939253462431
 30
0.0
 10
23.09836037778762
 20
316.4817833932223
 30
0.0
 10
23.10713786421534
 20
316.4691274704913
 30
0.0
 10
23.11527487237069
 20
316.4559992170718
 30
0.0
 10
23.12273930992982
 20
316.4424395714474
 30
0.0
 10
23.12975365281995
 20
316.4279741139349
 30
0.0
 10
23.13618595557468
 20
316.4126250001804
 30
0.0
 10
23.1418979331063
 20
316.3964470447542
 30
0.0
 10
23.14664849104345
 20
316.3800664428775
 30
0.0
 10
23.15043611890982
 20
316.3635675698306
 30
0.0
 10
23.15327277449219
 20
316.3469543054591
 30
0.0
 10
23.15515370745609
 20
316.3304585283103
 30
0.0
 10
23.15599673749382
 20
316.3160229705294
 30
0.0
 10
23.15607834923886
 20
316.3080532627368
 30
0.0
 10
23.15610311034001
 20
316.3047548918913
 30
0.0
  0
ENDBLK
  5
ED
330
78
100
AcDbEntity
  8
0
100
AcDbBlockEnd
  0
BLOCK
  5
12D
330
EE
100
AcDbEntity
  8
0
100
AcDbBlockBegin
  2
SE1
 70
     0
 10
0.0
 20
0.0
 30
0.0
  3
SE1
  1

  0
LINE
  5
F1
330
EE
100
AcDbEntity
  8
DV2_Default
 62
     7
100
AcDbLine
 10
330.8275789004
 20
309.1544599152
 30
0.0
 11
348.3972087209
 21
309.1544599152
 31
0.0
  0
LINE
  5
F2
330
EE
100
AcDbEntity
  8
DV2_Default
 62
     7
100
AcDbLine
 10
376.0539524009
 20
322.6303559602
 30
0.0
 11
376.0539524009
 21
318.2296857168
 31
0.0
  0
LINE
  5
F3
330
EE
100
AcDbEntity
  8
DV2_Default
 62
     7
100
AcDbLine
 10
274.348716679
 20
321.160366685
 30
0.0
 11
283.048716679
 21
321.3122257499
 31
0.0
  0
LINE
  5
F4
330
EE
100
AcDbEntity
  8
DV2_Default
 62
     7
100
AcDbLine
 10
283.048716679
 20
321.3122257499
 30
0.0
 11
367.048716679
 21
322.7784512038
 31
0.0
  0
LINE
  5
F5
330
EE
100
AcDbEntity
  8
DV2_Default
 62
     7
100
AcDbLine
 10
367.048716679
 20
322.7784512038
 30
0.0
 11
375.748716679
 21
322.9303102687
 31
0.0
  0
LINE
  5
F6
330
EE
100
AcDbEntity
  8
DV2_Default
 62
     7
100
AcDbLine
 10
375.7591881228
 20
317.9297314082
 30
0.0
 11
367.0591881228
 21
317.7778723433
 31
0.0
  0
LINE
  5
F7
330
EE
100
AcDbEntity
  8
DV2_Default
 62
     7
100
AcDbLine
 10
367.0591881228
 20
317.7778723433
 30
0.0
 11
283.0591881228
 21
316.3116468894
 31
0.0
  0
LINE
  5
F8
330
EE
100
AcDbEntity
  8
DV2_Default
 62
     7
100
AcDbLine
 10
283.0591881228
 20
316.3116468894
 30
0.0
 11
274.3591881228
 21
316.1597878245
 31
0.0
  0
LINE
  5
F9
330
EE
100
AcDbEntity
  8
DV2_Default
 62
     7
100
AcDbLine
 10
363.8824634653
 20
317.4302309905
 30
0.0
 11
363.7699726714
 21
304.5400627651
 31
0.0
  0
ARC
  5
FA
330
EE
100
AcDbEntity
  8
DV2_Default
 62
     7
100
AcDbCircle
 10
355.353952401
 20
285.5544599152
 30
0.0
 40
20.349999999999
100
AcDbArc
 50
66.856947358
 51
80.4437905839
  0
ARC
  5
FB
330
EE
100
AcDbEntity
  8
DV2_Default
 62
     7
100
AcDbCircle
 10
355.353952401
 20
285.5544599152
 30
0.0
 40
20.35
100
AcDbArc
 50
80.4437905839
 51
91.3874426026
  0
ARC
  5
FC
330
EE
100
AcDbEntity
  8
DV2_Default
 62
     7
100
AcDbCircle
 10
363.4699840945
 20
304.5426807257
 30
0.0
 40
0.300000000000186
100
AcDbArc
 50
246.856947358
 51
359.5
  0
LINE
  5
FD
330
EE
100
AcDbEntity
  8
DV2_Default
 62
     7
100
AcDbLine
 10
330.8275789004
 20
309.1544599152
 30
0.0
 11
325.6803259016
 21
309.1544599152
 31
0.0
  0
LINE
  5
FE
330
EE
100
AcDbEntity
  8
DV2_Default
 62
     7
100
AcDbLine
 10
325.6803259016
 20
309.1544599152
 30
0.0
 11
322.2106960808
 21
309.1544599152
 31
0.0
  0
ARC
  5
FF
330
EE
100
AcDbEntity
  8
DV2_Default
 62
     7
100
AcDbCircle
 10
375.7539524009
 20
322.6303559602
 30
0.0
 40
0.2999999999999979
100
AcDbArc
 50
0.0
 51
91.0
  0
ARC
  5
100
330
EE
100
AcDbEntity
  8
DV2_Default
 62
     7
100
AcDbCircle
 10
375.7539524009
 20
318.2296857168
 30
0.0
 40
0.3000000000000086
100
AcDbArc
 50
271.0
 51
0.0
  0
ARC
  5
101
330
EE
100
AcDbEntity
  8
DV2_Default
 62
     7
100
AcDbCircle
 10
364.1824520422
 20
317.4276130299
 30
0.0
 40
0.299999999999998
100
AcDbArc
 50
91.0
 51
179.5
  0
LINE
  5
102
330
EE
100
AcDbEntity
  8
DV2_Default
 62
     7
100
AcDbLine
 10
313.353952401
 20
270.8586955641
 30
0.0
 11
313.0534862455
 21
270.8586955641
 31
0.0
  0
LINE
  5
103
330
EE
100
AcDbEntity
  8
DV2_Default
 62
     7
100
AcDbLine
 10
313.0534862455
 20
270.8586955641
 30
0.0
 11
312.603952401
 21
270.8586955641
 31
0.0
  0
LINE
  5
104
330
EE
100
AcDbEntity
  8
DV2_Default
 62
     7
100
AcDbLine
 10
312.603952401
 20
270.8586955641
 30
0.0
 11
300.103952401
 21
270.8586955641
 31
0.0
  0
LINE
  5
105
330
EE
100
AcDbEntity
  8
DV2_Default
 62
     7
100
AcDbLine
 10
300.103952401
 20
270.8586955641
 30
0.0
 11
299.6544185565
 21
270.8586955641
 31
0.0
  0
LINE
  5
106
330
EE
100
AcDbEntity
  8
DV2_Default
 62
     7
100
AcDbLine
 10
299.6544185565
 20
270.8586955641
 30
0.0
 11
299.353952401
 21
270.8586955641
 31
0.0
  0
LINE
  5
107
330
EE
100
AcDbEntity
  8
DV2_Default
 62
     7
100
AcDbLine
 10
274.0539524009
 20
316.459742133
 30
0.0
 11
274.0539524009
 21
320.8604123764
 31
0.0
  0
LINE
  5
108
330
EE
100
AcDbEntity
  8
DV2_Default
 62
     7
100
AcDbLine
 10
313.853952401
 20
316.5543623204
 30
0.0
 11
313.853952401
 21
301.9617420872
 31
0.0
  0
LINE
  5
109
330
EE
100
AcDbEntity
  8
DV2_Default
 62
     7
100
AcDbLine
 10
313.853952401
 20
301.9617420872
 30
0.0
 11
313.853952401
 21
288.6819146332
 31
0.0
  0
LINE
  5
10A
330
EE
100
AcDbEntity
  8
DV2_Default
 62
     7
100
AcDbLine
 10
313.853952401
 20
288.6819146332
 30
0.0
 11
313.853952401
 21
272.1034334857
 31
0.0
  0
LINE
  5
10B
330
EE
100
AcDbEntity
  8
DV2_Default
 62
     7
100
AcDbLine
 10
313.853952401
 20
272.1034334857
 30
0.0
 11
313.853952401
 21
271.6738379088
 31
0.0
  0
LINE
  5
10C
330
EE
100
AcDbEntity
  8
DV2_Default
 62
     7
100
AcDbLine
 10
313.853952401
 20
271.6738379088
 30
0.0
 11
313.853952401
 21
271.3586955641
 31
0.0
  0
LINE
  5
10D
330
EE
100
AcDbEntity
  8
DV2_Default
 62
     7
100
AcDbLine
 10
298.853952401
 20
271.3586955641
 30
0.0
 11
298.853952401
 21
271.6738379088
 31
0.0
  0
LINE
  5
10E
330
EE
100
AcDbEntity
  8
DV2_Default
 62
     7
100
AcDbLine
 10
298.853952401
 20
271.6738379088
 30
0.0
 11
298.853952401
 21
272.1034334857
 31
0.0
  0
LINE
  5
10F
330
EE
100
AcDbEntity
  8
DV2_Default
 62
     7
100
AcDbLine
 10
298.853952401
 20
272.1034334857
 30
0.0
 11
298.853952401
 21
288.6819146332
 31
0.0
  0
LINE
  5
110
330
EE
100
AcDbEntity
  8
DV2_Default
 62
     7
100
AcDbLine
 10
298.853952401
 20
288.6819146332
 30
0.0
 11
298.853952401
 21
301.9617420872
 31
0.0
  0
LINE
  5
111
330
EE
100
AcDbEntity
  8
DV2_Default
 62
     7
100
AcDbLine
 10
298.853952401
 20
301.9617420872
 30
0.0
 11
298.853952401
 21
316.2820633075
 31
0.0
  0
LINE
  5
112
330
EE
100
AcDbEntity
  8
DV2_Default
 62
     7
100
AcDbLine
 10
321.7107151193
 20
309.6500966474
 30
0.0
 11
321.651104202
 21
316.4808311938
 31
0.0
  0
ARC
  5
113
330
EE
100
AcDbEntity
  8
DV2_Default
 62
     7
100
AcDbCircle
 10
322.2106960808
 20
309.6544599152
 30
0.0
 40
0.5000000000000004
100
AcDbArc
 50
180.5
 51
270.0
  0
ARC
  5
114
330
EE
100
AcDbEntity
  8
DV2_Default
 62
     7
100
AcDbCircle
 10
321.1511232405
 20
316.4764679261
 30
0.0
 40
0.4999999999999482
100
AcDbArc
 50
0.5000000001
 51
91.0
  0
ARC
  5
115
330
EE
100
AcDbEntity
  8
DV2_Default
 62
     7
100
AcDbCircle
 10
274.3539524009
 20
320.8604123764
 30
0.0
 40
0.3000000000000049
100
AcDbArc
 50
91.0
 51
180.0
  0
ARC
  5
116
330
EE
100
AcDbEntity
  8
DV2_Default
 62
     7
100
AcDbCircle
 10
274.3539524009
 20
316.459742133
 30
0.0
 40
0.2999999999999947
100
AcDbArc
 50
180.0
 51
271.0
  0
SPLINE
  5
117
330
EE
100
AcDbEntity
  8
DV2_Default
 62
     7
100
AcDbSpline
210
0.0
220
0.0
230
1.0
 70
     8
 71
     3
 72
    18
 73
    14
 74
     0
 42
0.000000001
 43
0.0000000001
 40
0.0
 40
0.0
 40
0.0
 40
0.0
 40
0.125
 40
0.125
 40
0.25
 40
0.25
 40
0.375
 40
0.375
 40
0.5
 40
0.5
 40
0.75
 40
0.75
 40
1.0
 40
1.0
 40
1.0
 40
1.0
 10
299.0003990103957
 20
271.0051421735222
 30
0.0
 10
299.0119690180471
 20
270.9935721658708
 30
0.0
 10
299.0241086417093
 20
270.9825720603213
 30
0.0
 10
299.0494053300668
 20
270.9618116047082
 30
0.0
 10
299.062562394762
 20
270.9520512546445
 30
0.0
 10
299.0897721741963
 20
270.933870261284
 30
0.0
 10
299.1038245525277
 20
270.9254498427676
 30
0.0
 10
299.1326853360824
 20
270.9100234325654
 30
0.0
 10
299.1474937413057
 20
270.9030174408795
 30
0.0
 10
299.1928445718078
 20
270.8842325118206
 30
0.0
 10
299.2243111167344
 20
270.8746872397725
 30
0.0
 10
299.2885033632274
 20
270.8619186080551
 30
0.0
 10
299.321227477514
 20
270.8586955641155
 30
0.0
 10
299.3539524009889
 20
270.8586955641155
 30
0.0
  0
SPLINE
  5
118
330
EE
100
AcDbEntity
  8
DV2_Default
 62
     7
100
AcDbSpline
210
0.0
220
0.0
230
1.0
 70
     8
 71
     3
 72
     8
 73
     4
 74
     0
 42
0.000000001
 43
0.0000000001
 40
0.0
 40
0.0
 40
0.0
 40
0.0
 40
1.0
 40
1.0
 40
1.0
 40
1.0
 10
313.8539524009889
 20
271.3586955641155
 30
0.0
 10
313.8539524009889
 20
271.2277958702159
 30
0.0
 10
313.8000658527939
 20
271.0977022347338
 30
0.0
 10
313.7075057915822
 20
271.0051421735222
 30
0.0
  0
SPLINE
  5
119
330
EE
100
AcDbEntity
  8
DV2_Default
 62
     7
100
AcDbSpline
210
0.0
220
0.0
230
1.0
 70
     8
 71
     3
 72
     8
 73
     4
 74
     0
 42
0.000000001
 43
0.0000000001
 40
0.0
 40
0.0
 40
0.0
 40
0.0
 40
1.0
 40
1.0
 40
1.0
 40
1.0
 10
313.7075057915822
 20
271.0051421735222
 30
0.0
 10
313.6149457303706
 20
270.9125821123106
 30
0.0
 10
313.4848520948885
 20
270.8586955641155
 30
0.0
 10
313.3539524009889
 20
270.8586955641155
 30
0.0
  0
SPLINE
  5
11A
330
EE
100
AcDbEntity
  8
DV2_Default
 62
     7
100
AcDbSpline
210
0.0
220
0.0
230
1.0
 70
     8
 71
     3
 72
    20
 73
    16
 74
     0
 42
0.000000001
 43
0.0000000001
 40
0.0
 40
0.0
 40
0.0
 40
0.0
 40
0.25
 40
0.25
 40
0.5
 40
0.5
 40
0.5625
 40
0.5625
 40
0.625
 40
0.625
 40
0.75
 40
0.75
 40
0.875
 40
0.875
 40
1.0
 40
1.0
 40
1.0
 40
1.0
 10
298.8539524009889
 20
271.3586955641155
 30
0.0
 10
298.8539524009889
 20
271.3259706406405
 30
0.0
 10
298.8571754449285
 20
271.2932465263539
 30
0.0
 10
298.869944076646
 20
271.2290542798609
 30
0.0
 10
298.879489348694
 20
271.1975877349344
 30
0.0
 10
298.8951434562431
 20
271.1597953761826
 30
0.0
 10
298.8984603649195
 20
271.1523140390015
 30
0.0
 10
298.9054570727927
 20
271.1375230025704
 30
0.0
 10
298.9091368719894
 20
271.1302133033203
 30
0.0
 10
298.9207066796411
 20
271.1085677156543
 30
0.0
 10
298.9291270981574
 20
271.0945153373228
 30
0.0
 10
298.9473080915179
 20
271.0673055578885
 30
0.0
 10
298.9570684415817
 20
271.0541484931934
 30
0.0
 10
298.9778288971948
 20
271.0288518048359
 30
0.0
 10
298.9888290027442
 20
271.0167121811737
 30
0.0
 10
299.0003990103957
 20
271.0051421735222
 30
0.0
  0
ARC
  5
11B
330
EE
100
AcDbEntity
  8
DV2_Default
 62
     7
100
AcDbCircle
 10
313.353952401
 20
271.3586955641
 30
0.0
 40
0.5000000000000004
100
AcDbArc
 50
314.4706735516
 51
316.6358723181
  0
ARC
  5
11C
330
EE
100
AcDbEntity
  8
DV2_Default
 62
     7
100
AcDbCircle
 10
313.353952401
 20
271.3586955641
 30
0.0
 40
0.5000000000000004
100
AcDbArc
 50
303.6899501576
 51
304.5889135301
  0
ARC
  5
11D
330
EE
100
AcDbEntity
  8
DV2_Default
 62
     7
100
AcDbCircle
 10
313.353952401
 20
271.3586955641
 30
0.0
 40
0.5000000000000004
100
AcDbArc
 50
290.8475129017
 51
292.9119958245
  0
ARC
  5
11E
330
EE
100
AcDbEntity
  8
DV2_Default
 62
     7
100
AcDbCircle
 10
299.353952401
 20
271.3586955641
 30
0.0
 40
0.5000000000000004
100
AcDbArc
 50
246.9542259823
 51
248.7946814962
  0
ARC
  5
11F
330
EE
100
AcDbEntity
  8
DV2_Default
 62
     7
100
AcDbCircle
 10
299.353952401
 20
271.3586955641
 30
0.0
 40
0.5000000000000004
100
AcDbArc
 50
223.9695615535
 51
225.9695419919
  0
ARC
  5
120
330
EE
100
AcDbEntity
  8
DV2_Default
 62
     7
100
AcDbCircle
 10
299.353952401
 20
271.3586955641
 30
0.0
 40
0.5000000000000004
100
AcDbArc
 50
213.4345977481
 51
214.9923663844
  0
ARC
  5
121
330
EE
100
AcDbEntity
  8
DV2_Default
 62
     7
100
AcDbCircle
 10
299.353952401
 20
271.3586955641
 30
0.0
 40
0.5000000000000004
100
AcDbArc
 50
201.1977401283
 51
202.9721982021
  0
ARC
  5
122
330
EE
100
AcDbEntity
  8
DV2_Default
 62
     7
100
AcDbCircle
 10
314.153952401
 20
316.5543623204
 30
0.0
 40
0.3000000000000017
100
AcDbArc
 50
91.0
 51
180.0
  0
ARC
  5
123
330
EE
100
AcDbEntity
  8
DV2_Default
 62
     7
100
AcDbCircle
 10
298.553952401
 20
316.2820633075
 30
0.0
 40
0.2999999999999945
100
AcDbArc
 50
0.0
 51
91.0
  0
ARC
  5
124
330
EE
100
AcDbEntity
  8
DV2_Default
 62
     7
100
AcDbCircle
 10
350.3461755006
 20
305.5880484733
 30
0.0
 40
0.3000000000152013
100
AcDbArc
 50
180.4818932151
 51
284.0215651195
  0
LINE
  5
125
330
EE
100
AcDbEntity
  8
DV2_Default
 62
     7
100
AcDbLine
 10
348.8971896827
 20
309.6500966474
 30
0.0
 11
348.9611129828
 21
316.9749813192
 31
0.0
  0
ARC
  5
126
330
EE
100
AcDbEntity
  8
DV2_Default
 62
     7
100
AcDbCircle
 10
348.3972087212
 20
309.6544599152
 30
0.0
 40
0.5000000000000004
100
AcDbArc
 50
270.0
 51
359.5
  0
ARC
  5
127
330
EE
100
AcDbEntity
  8
DV2_Default
 62
     7
100
AcDbCircle
 10
349.461093964
 20
316.9706203032
 30
0.0
 40
0.4999999999999988
100
AcDbArc
 50
91.0
 51
179.4997469455
  0
LINE
  5
128
330
EE
100
AcDbEntity
  8
DV2_Default
 62
     7
100
AcDbLine
 10
349.9450333308
 20
317.1764841293
 30
0.0
 11
350.0461863985
 21
305.58549064
 31
0.0
  0
ARC
  5
129
330
EE
100
AcDbEntity
  8
DV2_Default
 62
     7
100
AcDbCircle
 10
350.3461755006
 20
305.5880484733
 30
0.0
 40
0.3000000000140126
100
AcDbArc
 50
180.4888579175
 51
284.0212908513
  0
ARC
  5
12A
330
EE
100
AcDbEntity
  8
DV2_Default
 62
     7
100
AcDbCircle
 10
349.6450447934
 20
317.1738616424
 30
0.0
 40
0.2999999999999996
100
AcDbArc
 50
0.501226089
 51
91.0
  0
ARC
  5
12B
330
EE
100
AcDbEntity
  8
DV2_Default
 62
     7
100
AcDbCircle
 10
354.853952401
 20
313.8044599152
 30
0.0
 40
8.499999999999998
100
AcDbArc
 50
252.8762034212
 51
289.1587225009
  0
ARC
  5
12C
330
EE
100
AcDbEntity
  8
DV2_Default
 62
     7
100
AcDbCircle
 10
355.363994967
 20
285.4802914964
 30
0.0
 40
20.42439149914935
100
AcDbArc
 50
91.4105685595
 51
104.0116435807
  0
ENDBLK
  5
12E
330
EE
100
AcDbEntity
  8
0
100
AcDbBlockEnd
  0
BLOCK
  5
15D
330
12F
100
AcDbEntity
  8
0
100
AcDbBlockBegin
  2
SE2
 70
     0
 10
0.0
 20
0.0
 30
0.0
  3
SE2
  1

  0
ARC
  5
132
330
12F
100
AcDbEntity
  8
DV3_Default
 62
     7
100
AcDbCircle
 10
108.8582358466
 20
147.5509662942
 30
0.0
 40
10.99747728401056
100
AcDbArc
 50
359.9949657175
 51
17.3006481757
  0
ARC
  5
133
330
12F
100
AcDbEntity
  8
DV3_Default
 62
     7
100
AcDbCircle
 10
120.4037307562
 20
207.85
 30
0.0
 40
0.4999999999999999
100
AcDbArc
 50
90.0
 51
179.9999810947
  0
LINE
  5
134
330
12F
100
AcDbEntity
  8
DV3_Default
 62
     7
100
AcDbLine
 10
120.4037307562
 20
208.35
 30
0.0
 11
202.3519762003
 21
208.35
 31
0.0
  0
SPLINE
  5
135
330
12F
100
AcDbEntity
  8
DV3_Default
 62
     7
100
AcDbSpline
210
0.0
220
0.0
230
1.0
 70
     8
 71
     3
 72
    30
 73
    26
 74
     0
 42
0.000000001
 43
0.0000000001
 40
0.0
 40
0.0
 40
0.0
 40
0.0
 40
0.1249999999999962
 40
0.1249999999999962
 40
0.2499999999999923
 40
0.2499999999999923
 40
0.3124999999999921
 40
0.3124999999999921
 40
0.3749999999999918
 40
0.3749999999999918
 40
0.4374999999999916
 40
0.4374999999999916
 40
0.4999999999999913
 40
0.4999999999999913
 40
0.6249999999999908
 40
0.6249999999999908
 40
0.6562499999999913
 40
0.6562499999999913
 40
0.6874999999999918
 40
0.6874999999999918
 40
0.7499999999999946
 40
0.7499999999999946
 40
0.8749999999999972
 40
0.8749999999999972
 40
1.0
 40
1.0
 40
1.0
 40
1.0
 10
202.3519762002897
 20
208.35
 30
0.0
 10
202.9787098004045
 20
208.35
 30
0.0
 10
203.6059125763506
 20
208.3478833662912
 30
0.0
 10
204.8565769141965
 20
208.26617310349
 30
0.0
 10
205.4757701949354
 20
208.1885110706371
 30
0.0
 10
206.3898104424237
 20
207.9835829805348
 30
0.0
 10
206.6935581643972
 20
207.9000241368054
 30
0.0
 10
207.2867800509262
 20
207.6987417559897
 30
0.0
 10
207.5755351833797
 20
207.5814712658848
 30
0.0
 10
208.1343449468776
 20
207.3073446060187
 30
0.0
 10
208.4046618725856
 20
207.1503396925261
 30
0.0
 10
208.9212608239829
 20
206.7883190473876
 30
0.0
 10
209.1627572828023
 20
206.58635720889
 30
0.0
 10
209.8296240835107
 20
205.9158168360503
 30
0.0
 10
210.1782277688609
 20
205.4028535799205
 30
0.0
 10
210.5218164894598
 20
204.6983315482013
 30
0.0
 10
210.5857971744715
 20
204.5543411870675
 30
0.0
 10
210.7034317592686
 20
204.2648719625852
 30
0.0
 10
210.7573708869839
 20
204.1188302969458
 30
0.0
 10
210.9061415208984
 20
203.6772095719473
 30
0.0
 10
210.9879892547167
 20
203.378151657966
 30
0.0
 10
211.1909084199736
 20
202.4695573444584
 30
0.0
 10
211.2689779513106
 20
201.8458264602244
 30
0.0
 10
211.3498830070561
 20
200.5996272224588
 30
0.0
 10
211.3519762002897
 20
199.9748580318867
 30
0.0
 10
211.3519762002897
 20
199.35
 30
0.0
  0
LINE
  5
136
330
12F
100
AcDbEntity
  8
DV3_Default
 62
     7
100
AcDbLine
 10
211.3519762003
 20
199.35
 30
0.0
 11
211.3519762003
 21
115.35
 31
0.0
  0
SPLINE
  5
137
330
12F
100
AcDbEntity
  8
DV3_Default
 62
     7
100
AcDbSpline
210
0.0
220
0.0
230
1.0
 70
     8
 71
     3
 72
    30
 73
    26
 74
     0
 42
0.000000001
 43
0.0000000001
 40
0.0
 40
0.0
 40
0.0
 40
0.0
 40
0.1249999999999977
 40
0.1249999999999977
 40
0.2499999999999953
 40
0.2499999999999953
 40
0.3124999999999941
 40
0.3124999999999941
 40
0.3749999999999929
 40
0.3749999999999929
 40
0.4374999999999917
 40
0.4374999999999917
 40
0.4999999999999905
 40
0.4999999999999905
 40
0.6249999999999861
 40
0.6249999999999861
 40
0.6562499999999861
 40
0.6562499999999861
 40
0.6874999999999861
 40
0.6874999999999861
 40
0.7499999999999889
 40
0.7499999999999889
 40
0.8749999999999944
 40
0.8749999999999944
 40
1.0
 40
1.0
 40
1.0
 40
1.0
 10
211.3519762002897
 20
115.35
 30
0.0
 10
211.3519762002897
 20
114.7233633960155
 30
0.0
 10
211.3498598814069
 20
114.0962396847557
 30
0.0
 10
211.2681860510816
 20
112.8457905790873
 30
0.0
 10
211.1905584794156
 20
112.2266873661675
 30
0.0
 10
210.9857071052973
 20
111.3127437801053
 30
0.0
 10
210.9021769301074
 20
111.0090200752285
 30
0.0
 10
210.700971600202
 20
110.4158622838109
 30
0.0
 10
210.5837434547612
 20
110.1271271068716
 30
0.0
 10
210.3097047485998
 20
109.568331413867
 30
0.0
 10
210.1527404206402
 20
109.2980011567598
 30
0.0
 10
209.7908170963511
 20
108.7813792263216
 30
0.0
 10
209.5889004403128
 20
108.5398556641637
 30
0.0
 10
208.918470591295
 20
107.8728806104019
 30
0.0
 10
208.4055381117673
 20
107.5241738182177
 30
0.0
 10
207.7009825216514
 20
107.1804688666266
 30
0.0
 10
207.5569872165727
 20
107.1164678142785
 30
0.0
 10
207.2675033591462
 20
106.998794192518
 30
0.0
 10
207.1214520877761
 20
106.9448364698637
 30
0.0
 10
206.6797962542395
 20
106.79601307565
 30
0.0
 10
206.3807065700175
 20
106.7141342100044
 30
0.0
 10
205.4719953787816
 20
106.5111349333471
 30
0.0
 10
204.8481608718619
 20
106.4330321861739
 30
0.0
 10
203.6017900178148
 20
106.3520946303268
 30
0.0
 10
202.976928845006
 20
106.35
 30
0.0
 10
202.3519762002897
 20
106.35
 30
0.0
  0
LINE
  5
138
330
12F
100
AcDbEntity
  8
DV3_Default
 62
     7
100
AcDbLine
 10
202.3519762003
 20
106.35
 30
0.0
 11
15.3519762003
 21
106.35
 31
0.0
  0
LINE
  5
139
330
12F
100
AcDbEntity
  8
DV3_Default
 62
     7
100
AcDbLine
 10
120.2037304673
 20
206.9799091518
 30
0.0
 11
202.3227324714
 21
206.9798225416
 31
0.0
  0
SPLINE
  5
13A
330
12F
100
AcDbEntity
  8
DV3_Default
 62
     7
100
AcDbSpline
210
0.0
220
0.0
230
1.0
 70
     8
 71
     3
 72
    36
 73
    32
 74
     0
 42
0.000000001
 43
0.0000000001
 40
0.0
 40
0.0
 40
0.0
 40
0.0
 40
0.124999999999997
 40
0.124999999999997
 40
0.1874999999999956
 40
0.1874999999999956
 40
0.2499999999999942
 40
0.2499999999999942
 40
0.3124999999999927
 40
0.3124999999999927
 40
0.3749999999999913
 40
0.3749999999999913
 40
0.43749999999999
 40
0.43749999999999
 40
0.4999999999999886
 40
0.4999999999999886
 40
0.5624999999999871
 40
0.5624999999999871
 40
0.6249999999999858
 40
0.6249999999999858
 40
0.6562499999999866
 40
0.6562499999999866
 40
0.6874999999999873
 40
0.6874999999999873
 40
0.7499999999999899
 40
0.7499999999999899
 40
0.8124999999999923
 40
0.8124999999999923
 40
0.8749999999999949
 40
0.8749999999999949
 40
1.0
 40
1.0
 40
1.0
 40
1.0
 10
202.3227324714421
 20
206.9798225416228
 30
0.0
 10
202.8552744105491
 20
206.9791210664364
 30
0.0
 10
203.3878458877494
 20
206.9789071274966
 30
0.0
 10
204.1844525179152
 20
206.939341035268
 30
0.0
 10
204.4496114174324
 20
206.9195845104715
 30
0.0
 10
204.9788159814739
 20
206.8606591304844
 30
0.0
 10
205.2437492868958
 20
206.8212877432866
 30
0.0
 10
205.7673849686379
 20
206.7185834288357
 30
0.0
 10
206.0257410421104
 20
206.6555845969395
 30
0.0
 10
206.534117869989
 20
206.5015438157826
 30
0.0
 10
206.7841600765805
 20
206.410574039663
 30
0.0
 10
207.2733979040893
 20
206.1921425340093
 30
0.0
 10
207.5087925703465
 20
206.0661802112411
 30
0.0
 10
207.9513536655272
 20
205.775222977462
 30
0.0
 10
208.1598433450718
 20
205.6094962697537
 30
0.0
 10
208.5395655661739
 20
205.2279130056671
 30
0.0
 10
208.7030941296659
 20
205.0200616434255
 30
0.0
 10
208.990665962306
 20
204.5787780867214
 30
0.0
 10
209.1145952148511
 20
204.3452720257816
 30
0.0
 10
209.2765831602442
 20
203.9795253032876
 30
0.0
 10
209.3264890375163
 20
203.8550773565958
 30
0.0
 10
209.4177191313669
 20
203.6053255606547
 30
0.0
 10
209.4592730192929
 20
203.4795201942219
 30
0.0
 10
209.5732919837166
 20
203.0996683239028
 30
0.0
 10
209.6352033823412
 20
202.8432064231446
 30
0.0
 10
209.7361432204477
 20
202.3250454494691
 30
0.0
 10
209.774989236735
 20
202.0633046257596
 30
0.0
 10
209.8337460228556
 20
201.535489310438
 30
0.0
 10
209.8536191979129
 20
201.2695866405204
 30
0.0
 10
209.8933152566293
 20
200.4730725403163
 30
0.0
 10
209.8936535336666
 20
199.941267312085
 30
0.0
 10
209.894314649366
 20
199.4094727395723
 30
0.0
  0
SPLINE
  5
13B
330
12F
100
AcDbEntity
  8
DV3_Default
 62
     7
100
AcDbSpline
210
0.0
220
0.0
230
1.0
 70
     8
 71
     3
 72
    17
 73
    13
 74
     0
 42
0.000000001
 43
0.0000000001
 40
0.0
 40
0.0
 40
0.0
 40
0.0
 40
0.1745271708672931
 40
0.1745271708672931
 40
0.1745271708672931
 40
0.4969999999999855
 40
0.4969999999999855
 40
0.4969999999999855
 40
0.7591048630622199
 40
0.7591048630622199
 40
0.7591048630622199
 40
1.0
 40
1.0
 40
1.0
 40
1.0
 10
209.894314649366
 20
199.4094727395723
 30
0.0
 10
209.8943141922035
 20
194.5268543753023
 30
0.0
 10
209.8943370022609
 20
189.6442360111618
 30
0.0
 10
209.8943548623464
 20
184.7616176470057
 30
0.0
 10
209.8943878623216
 20
175.7400323566563
 30
0.0
 10
209.8944039491986
 20
166.7184470662289
 30
0.0
 10
209.8944030091228
 20
157.6968617758191
 30
0.0
 10
209.8944022450323
 20
150.3641466955804
 30
0.0
 10
209.8943902367754
 20
143.0314316153343
 30
0.0
 10
209.8943670405556
 20
135.6987165351322
 30
0.0
 10
209.8943457213917
 20
128.9593703714101
 30
0.0
 10
209.894313364101
 20
122.220024207721
 30
0.0
 10
209.894309035557
 20
115.4806780438813
 30
0.0
  0
SPLINE
  5
13C
330
12F
100
AcDbEntity
  8
DV3_Default
 62
     7
100
AcDbSpline
210
0.0
220
0.0
230
1.0
 70
     8
 71
     3
 72
    34
 73
    30
 74
     0
 42
0.000000001
 43
0.0000000001
 40
0.0
 40
0.0
 40
0.0
 40
0.0
 40
0.1249999999999978
 40
0.1249999999999978
 40
0.1874999999999967
 40
0.1874999999999967
 40
0.2499999999999956
 40
0.2499999999999956
 40
0.3124999999999944
 40
0.3124999999999944
 40
0.3437499999999934
 40
0.3437499999999934
 40
0.3749999999999925
 40
0.3749999999999925
 40
0.4374999999999925
 40
0.4374999999999925
 40
0.4999999999999927
 40
0.4999999999999927
 40
0.5624999999999928
 40
0.5624999999999928
 40
0.6249999999999929
 40
0.6249999999999929
 40
0.6874999999999931
 40
0.6874999999999931
 40
0.7499999999999932
 40
0.7499999999999932
 40
0.8749999999999966
 40
0.8749999999999966
 40
1.0
 40
1.0
 40
1.0
 40
1.0
 10
209.894309035557
 20
115.4806780438813
 30
0.0
 10
209.8936545304572
 20
114.9495634324126
 30
0.0
 10
209.8933185703873
 20
114.418438549493
 30
0.0
 10
209.8537741893992
 20
113.6228938552634
 30
0.0
 10
209.833973790866
 20
113.3573186315704
 30
0.0
 10
209.7754725910829
 20
112.8304022799838
 30
0.0
 10
209.7367942761409
 20
112.5690605874583
 30
0.0
 10
209.6362593784086
 20
112.0515806282441
 30
0.0
 10
209.5745849876776
 20
111.7954014601872
 30
0.0
 10
209.4609752420107
 20
111.4158691581826
 30
0.0
 10
209.4195667218106
 20
111.2901527931167
 30
0.0
 10
209.3286454167817
 20
111.0405394370741
 30
0.0
 10
209.278903864039
 20
110.9161508107839
 30
0.0
 10
209.1176243102306
 20
110.550898427877
 30
0.0
 10
208.99420651779
 20
110.3175463469028
 30
0.0
 10
208.7076596267388
 20
109.8761943000486
 30
0.0
 10
208.5446446864684
 20
109.668116071217
 30
0.0
 10
208.1657945324709
 20
109.2857021669999
 30
0.0
 10
207.9569871724828
 20
109.1187809575478
 30
0.0
 10
207.5085905007121
 20
108.8235079146116
 30
0.0
 10
207.2727648739861
 20
108.697742729531
 30
0.0
 10
206.7886290945429
 20
108.4813725368323
 30
0.0
 10
206.5393817903282
 20
108.3902939204742
 30
0.0
 10
206.0294389020717
 20
108.2354146461459
 30
0.0
 10
205.7686636937097
 20
108.1717873440407
 30
0.0
 10
204.985120177997
 20
108.0179237341502
 30
0.0
 10
204.4560844479837
 20
107.9643579090675
 30
0.0
 10
203.3906711552276
 20
107.9111453017753
 30
0.0
 10
202.856486159986
 20
107.9109397145131
 30
0.0
 10
202.3228177737904
 20
107.9102366753173
 30
0.0
  0
SPLINE
  5
13D
330
12F
100
AcDbEntity
  8
DV3_Default
 62
     7
100
AcDbSpline
210
0.0
220
0.0
230
1.0
 70
     8
 71
     3
 72
    20
 73
    16
 74
     0
 42
0.000000001
 43
0.0000000001
 40
0.0
 40
0.0
 40
0.0
 40
0.0
 40
0.3793081341181516
 40
0.3793081341181516
 40
0.3793081341181516
 40
0.4970000000000437
 40
0.4970000000000437
 40
0.4970000000000437
 40
0.7323837317641956
 40
0.7323837317641956
 40
0.7323837317641956
 40
0.9677674635280243
 40
0.9677674635280243
 40
0.9677674635280243
 40
1.0
 40
1.0
 40
1.0
 40
1.0
 10
202.3228177737904
 20
107.9102366753173
 30
0.0
 10
178.6866698701284
 20
107.9102060480176
 30
0.0
 10
155.0505219664709
 20
107.9101693536156
 30
0.0
 10
131.4143740628101
 20
107.9101550912681
 30
0.0
 10
124.080541490222
 20
107.9101506659418
 30
0.0
 10
116.7467089176322
 20
107.9101483972342
 30
0.0
 10
109.4128763450427
 20
107.910148287186
 30
0.0
 10
94.74521119984281
 20
107.9101480670898
 30
0.0
 10
80.07754605464021
 20
107.9101564855086
 30
0.0
 10
65.40988090945015
 20
107.9101735121906
 30
0.0
 10
50.7422157642802
 20
107.9101905388725
 30
0.0
 10
36.07455061911777
 20
107.9102161737457
 30
0.0
 10
21.40688547397771
 20
107.9102503250084
 30
0.0
 10
19.39835222400829
 20
107.9102550015501
 30
0.0
 10
17.38981897403925
 20
107.9102598376936
 30
0.0
 10
15.3812857240003
 20
107.9102365716403
 30
0.0
  0
LINE
  5
13E
330
12F
100
AcDbEntity
  8
DV3_Default
 62
     7
100
AcDbLine
 10
119.9037304673
 20
206.9746735289
 30
0.0
 11
119.9037307562
 21
207.850000165
 31
0.0
  0
ELLIPSE
  5
13F
330
12F
100
AcDbEntity
  8
DV3_Default
 62
     7
100
AcDbEllipse
 10
120.2037304673
 20
206.9746734299
 30
0.0
 11
-0.2999999999999947
 21
9.898768610350217E-8
 31
0.0
210
0.0
220
0.0
230
1.0
 40
0.0174524064
 41
4.712388986146109
 42
6.283185307177306
  0
LINE
  5
140
330
12F
100
AcDbEntity
  8
DV3_Default
 62
     7
100
AcDbLine
 10
119.9037214465
 20
179.6355186104
 30
0.0
 11
119.9037281382
 21
199.915868594
 31
0.0
  0
LINE
  5
141
330
12F
100
AcDbEntity
  8
DV3_Default
 62
     7
100
AcDbLine
 10
119.9037281382
 20
199.915868594
 30
0.0
 11
119.9037304673
 21
206.9746735289
 31
0.0
  0
LINE
  5
142
330
12F
100
AcDbEntity
  8
DV3_Default
 62
     7
100
AcDbLine
 10
119.9086089708
 20
147.5499999999
 30
0.0
 11
119.9037214465
 21
179.6355186104
 31
0.0
  0
ARC
  5
143
330
12F
100
AcDbEntity
  8
DV3_Default
 62
     7
100
AcDbCircle
 10
108.8517086325
 20
147.5483157239
 30
0.0
 40
11.05690046660628
100
AcDbArc
 50
270.0013865105
 51
0.0087277542
  0
ARC
  5
144
330
12F
100
AcDbEntity
  8
DV3_Default
 62
     7
100
AcDbCircle
 10
108.8522437681
 20
160.7499999999
 30
0.0
 40
10.98919162565384
100
AcDbArc
 50
342.7038258415
 51
357.1732218691
  0
LINE
  5
145
330
12F
100
AcDbEntity
  8
DV3_Default
 62
     7
100
AcDbLine
 10
119.3440235401
 20
150.8170569813
 30
0.0
 11
119.3581665684
 21
150.8214607835
 31
0.0
  0
ARC
  5
146
330
12F
100
AcDbEntity
  8
DV3_Default
 62
     7
100
AcDbCircle
 10
130.0479347117
 20
154.1499999999
 30
0.0
 40
11.21080837434616
100
AcDbArc
 50
163.0891118558
 51
196.9108881442
  0
ARC
  5
147
330
12F
100
AcDbEntity
  8
DV3_Default
 62
     7
100
AcDbCircle
 10
108.8522437681
 20
147.5499999999
 30
0.0
 40
10.98919162565383
100
AcDbArc
 50
162.7046553711
 51
17.2961741585
  0
SPLINE
  5
148
330
12F
100
AcDbEntity
  8
DV3_Default
 62
     7
100
AcDbSpline
210
0.0
220
0.0
230
1.0
 70
     8
 71
     3
 72
    32
 73
    28
 74
     0
 42
0.000000001
 43
0.0000000001
 40
0.0
 40
0.0
 40
0.0
 40
0.0
 40
0.125
 40
0.125
 40
0.2500000000000001
 40
0.2500000000000001
 40
0.3125
 40
0.3125
 40
0.3749999999999999
 40
0.3749999999999999
 40
0.4062499999999999
 40
0.4062499999999999
 40
0.4374999999999999
 40
0.4374999999999999
 40
0.4999999999999998
 40
0.4999999999999998
 40
0.5624999999999998
 40
0.5624999999999998
 40
0.6249999999999997
 40
0.6249999999999997
 40
0.6874999999999996
 40
0.6874999999999996
 40
0.7499999999999994
 40
0.7499999999999994
 40
0.8749999999999998
 40
0.8749999999999998
 40
1.0
 40
1.0
 40
1.0
 40
1.0
 10
15.3812857240003
 20
107.9102365716403
 30
0.0
 10
14.84768160623257
 20
107.9109394526379
 30
0.0
 10
14.31333571244457
 20
107.9111579530185
 30
0.0
 10
13.24874128781511
 20
107.9642989316585
 30
0.0
 10
12.71983579354213
 20
108.017768208341
 30
0.0
 10
11.93577050647326
 20
108.1716720004485
 30
0.0
 10
11.6748570553107
 20
108.2353342694704
 30
0.0
 10
11.16540615126141
 20
108.3900162383132
 30
0.0
 10
10.91623054956836
 20
108.4810117603031
 30
0.0
 10
10.55295202604331
 20
108.6433014460469
 30
0.0
 10
10.43361782187167
 20
108.701724858885
 30
0.0
 10
10.19901542600336
 20
108.82857547147
 30
0.0
 10
10.08327752822108
 20
108.8973224511682
 30
0.0
 10
9.747344638576848
 20
109.1185190848682
 30
0.0
 10
9.53785490078264
 20
109.2860269638083
 30
0.0
 10
9.159855840714007
 20
109.6675438212844
 30
0.0
 10
8.996907955404643
 20
109.8753595047463
 30
0.0
 10
8.710238994508082
 20
110.3166745355031
 30
0.0
 10
8.5866271069035
 20
110.5502453733796
 30
0.0
 10
8.371156325106293
 20
111.0381772488529
 30
0.0
 10
8.281045228142242
 20
111.2887928141932
 30
0.0
 10
8.129601437684972
 20
111.7945235450885
 30
0.0
 10
8.067889307629223
 20
112.050693316717
 30
0.0
 10
7.916946508060796
 20
112.8272676855653
 30
0.0
 10
7.863342793136871
 20
113.3579573325839
 30
0.0
 10
7.810636474187824
 20
114.4184798968549
 30
0.0
 10
7.810297839564176
 20
114.9495871559111
 30
0.0
 10
7.809643361712706
 20
115.4806830852771
 30
0.0
  0
SPLINE
  5
149
330
12F
100
AcDbEntity
  8
DV3_Default
 62
     7
100
AcDbSpline
210
0.0
220
0.0
230
1.0
 70
     8
 71
     3
 72
    17
 73
    13
 74
     0
 42
0.000000001
 43
0.0000000001
 40
0.0
 40
0.0
 40
0.0
 40
0.0
 40
0.2348946870627855
 40
0.2348946870627855
 40
0.2348946870627855
 40
0.4969999940297303
 40
0.4969999940297303
 40
0.4969999940297303
 40
0.8194700899882637
 40
0.8194700899882637
 40
0.8194700899882637
 40
1.0
 40
1.0
 40
1.0
 40
1.0
 10
7.809643361712706
 20
115.4806830852771
 30
0.0
 10
7.809639988806988
 20
122.0521479443752
 30
0.0
 10
7.809608217591399
 20
128.62361280332
 30
0.0
 10
7.809586970806636
 20
135.1950776622971
 30
0.0
 10
7.809563262756406
 20
142.5277927424976
 30
0.0
 10
7.809550740153298
 20
149.8605078227428
 30
0.0
 10
7.809549461604795
 20
157.1932229029815
 30
0.0
 10
7.809547888597113
 20
166.2147164504506
 30
0.0
 10
7.809563342034184
 20
175.2362099979386
 30
0.0
 10
7.80959571254021
 20
184.2577035453499
 30
0.0
 10
7.809613834668785
 20
189.3082475762514
 30
0.0
 10
7.809637254515042
 20
194.3587916071366
 30
0.0
 10
7.809637661995647
 20
199.4093356381496
 30
0.0
  0
SPLINE
  5
14A
330
12F
100
AcDbEntity
  8
DV3_Default
 62
     7
100
AcDbSpline
210
0.0
220
0.0
230
1.0
 70
     8
 71
     3
 72
    30
 73
    26
 74
     0
 42
0.000000001
 43
0.0000000001
 40
0.0
 40
0.0
 40
0.0
 40
0.0
 40
0.1249999999999995
 40
0.1249999999999995
 40
0.249999999999999
 40
0.249999999999999
 40
0.3124999999999991
 40
0.3124999999999991
 40
0.3749999999999992
 40
0.3749999999999992
 40
0.4374999999999992
 40
0.4374999999999992
 40
0.4999999999999993
 40
0.4999999999999993
 40
0.5624999999999994
 40
0.5624999999999994
 40
0.6249999999999994
 40
0.6249999999999994
 40
0.6874999999999996
 40
0.6874999999999996
 40
0.7499999999999997
 40
0.7499999999999997
 40
0.8749999999999998
 40
0.8749999999999998
 40
1.0
 40
1.0
 40
1.0
 40
1.0
 10
7.809637661995647
 20
199.4093356381496
 30
0.0
 10
7.810301155116495
 20
199.9430329004164
 30
0.0
 10
7.810636858758574
 20
200.4767409489427
 30
0.0
 10
7.86412205286649
 20
201.5425516516869
 30
0.0
 10
7.918367306774254
 20
202.0751694938711
 30
0.0
 10
8.071858385618954
 20
202.8571337518914
 30
0.0
 10
8.134694654568882
 20
203.115447337114
 30
0.0
 10
8.289472040943297
 20
203.6262369508887
 30
0.0
 10
8.381570631706262
 20
203.8785068729794
 30
0.0
 10
8.598490377228096
 20
204.3633055171822
 30
0.0
 10
8.723589806342344
 20
204.5972334400391
 30
0.0
 10
9.017566971148208
 20
205.0428012207715
 30
0.0
 10
9.187776975282544
 20
205.2548966446136
 30
0.0
 10
9.569416166905043
 20
205.6309712725181
 30
0.0
 10
9.777228978525537
 20
205.7933630822745
 30
0.0
 10
10.21854190448546
 20
206.0793804178152
 30
0.0
 10
10.45211178107368
 20
206.2029006611112
 30
0.0
 10
10.94013674596966
 20
206.4184219937776
 30
0.0
 10
11.19038317409557
 20
206.5085052808642
 30
0.0
 10
11.69581106271954
 20
206.660124535002
 30
0.0
 10
11.95186326240386
 20
206.7219581107466
 30
0.0
 10
12.72823109087737
 20
206.8730814309173
 30
0.0
 10
13.2589685500505
 20
206.9265337341245
 30
0.0
 10
14.31922024748775
 20
206.9789279142295
 30
0.0
 10
14.85020467594317
 20
206.9791231794541
 30
0.0
 10
15.38117156823567
 20
206.9798225084573
 30
0.0
  0
LINE
  5
14B
330
12F
100
AcDbEntity
  8
DV3_Default
 62
     7
100
AcDbLine
 10
15.3811715682
 20
206.9798225085
 30
0.0
 11
97.5002219332
 21
206.9799091518
 31
0.0
  0
LINE
  5
14C
330
12F
100
AcDbEntity
  8
DV3_Default
 62
     7
100
AcDbLine
 10
15.3519762003
 20
208.35
 30
0.0
 11
97.3002216444
 21
208.35
 31
0.0
  0
SPLINE
  5
14D
330
12F
100
AcDbEntity
  8
DV3_Default
 62
     7
100
AcDbSpline
210
0.0
220
0.0
230
1.0
 70
     8
 71
     3
 72
    30
 73
    26
 74
     0
 42
0.000000001
 43
0.0000000001
 40
0.0
 40
0.0
 40
0.0
 40
0.0
 40
0.1250000000000001
 40
0.1250000000000001
 40
0.2500000000000002
 40
0.2500000000000002
 40
0.3125000000000003
 40
0.3125000000000003
 40
0.3750000000000003
 40
0.3750000000000003
 40
0.4375000000000004
 40
0.4375000000000004
 40
0.5000000000000004
 40
0.5000000000000004
 40
0.6250000000000006
 40
0.6250000000000006
 40
0.6562500000000006
 40
0.6562500000000006
 40
0.6875000000000007
 40
0.6875000000000007
 40
0.7500000000000016
 40
0.7500000000000016
 40
0.8750000000000008
 40
0.8750000000000008
 40
1.0
 40
1.0
 40
1.0
 40
1.0
 10
6.351976200289711
 20
199.35
 30
0.0
 10
6.351976200289683
 20
199.9766365881279
 30
0.0
 10
6.354092723362736
 20
200.6037634300591
 30
0.0
 10
6.435766142841526
 20
201.8542062683428
 30
0.0
 10
6.513393125501407
 20
202.4733083592321
 30
0.0
 10
6.718244880719981
 20
203.3872547327031
 30
0.0
 10
6.801775844715058
 20
203.6909809059227
 30
0.0
 10
7.002979781586954
 20
204.2841348348973
 30
0.0
 10
7.120207342525442
 20
204.5728692331261
 30
0.0
 10
7.394246040505773
 20
205.1316656908607
 30
0.0
 10
7.551213571303409
 20
205.4020012360991
 30
0.0
 10
7.913135130894824
 20
205.9186204049656
 30
0.0
 10
8.115054736785462
 20
206.1601471638969
 30
0.0
 10
8.78547789623603
 20
206.8271153650148
 30
0.0
 10
9.29840962415121
 20
207.1758239495584
 30
0.0
 10
10.00297150722067
 20
207.5195319168701
 30
0.0
 10
10.14696549906903
 20
207.5835322997785
 30
0.0
 10
10.43644760418919
 20
207.7012052372643
 30
0.0
 10
10.58249823387628
 20
207.7551627757973
 30
0.0
 10
11.02415280547496
 20
207.9039859062067
 30
0.0
 10
11.32324253167349
 20
207.985864970695
 30
0.0
 10
12.23195621297814
 20
208.1888650506747
 30
0.0
 10
12.85579418457276
 20
208.2669680507183
 30
0.0
 10
14.10216301338939
 20
208.3479053462002
 30
0.0
 10
14.72702385168254
 20
208.35
 30
0.0
 10
15.35197620028971
 20
208.35
 30
0.0
  0
LINE
  5
14E
330
12F
100
AcDbEntity
  8
DV3_Default
 62
     7
100
AcDbLine
 10
6.3519762003
 20
115.35
 30
0.0
 11
6.3519762003
 21
199.35
 31
0.0
  0
SPLINE
  5
14F
330
12F
100
AcDbEntity
  8
DV3_Default
 62
     7
100
AcDbSpline
210
0.0
220
0.0
230
1.0
 70
     8
 71
     3
 72
    30
 73
    26
 74
     0
 42
0.000000001
 43
0.0000000001
 40
0.0
 40
0.0
 40
0.0
 40
0.0
 40
0.1250000000000007
 40
0.1250000000000007
 40
0.2500000000000013
 40
0.2500000000000013
 40
0.3125000000000002
 40
0.3125000000000002
 40
0.3749999999999991
 40
0.3749999999999991
 40
0.437499999999998
 40
0.437499999999998
 40
0.4999999999999969
 40
0.4999999999999969
 40
0.6249999999999971
 40
0.6249999999999971
 40
0.6562499999999974
 40
0.6562499999999974
 40
0.6874999999999979
 40
0.6874999999999979
 40
0.7499999999999986
 40
0.7499999999999986
 40
0.8749999999999993
 40
0.8749999999999993
 40
1.0
 40
1.0
 40
1.0
 40
1.0
 10
15.35197620028972
 20
106.35
 30
0.0
 10
14.7252426140342
 20
106.35
 30
0.0
 10
14.09803667036945
 20
106.3521168394342
 30
0.0
 10
12.84737862365036
 20
106.4338266918685
 30
0.0
 10
12.22818647436252
 20
106.5114881348637
 30
0.0
 10
11.31414344960938
 20
106.7164166038069
 30
0.0
 10
11.01039323722351
 20
106.7999762430379
 30
0.0
 10
10.41717522366492
 20
107.0012572279547
 30
0.0
 10
10.1284208738253
 20
107.1185271319889
 30
0.0
 10
9.569610351445434
 20
107.3926537808344
 30
0.0
 10
9.299288130153613
 20
107.5496619025885
 30
0.0
 10
8.782691944729928
 20
107.91168077987
 30
0.0
 10
8.541192290699593
 20
108.1136455677133
 30
0.0
 10
7.874332343739451
 20
108.7841792471931
 30
0.0
 10
7.525726867357515
 20
109.2971417499512
 30
0.0
 10
7.182135134085208
 20
110.0016700665911
 30
0.0
 10
7.118155113399554
 20
110.1456591250029
 30
0.0
 10
7.000521213342783
 20
110.4351265950645
 30
0.0
 10
6.946582270018487
 20
110.5811676178123
 30
0.0
 10
6.797811900738305
 20
111.0227870767327
 30
0.0
 10
6.715963968654176
 20
111.3218450292403
 30
0.0
 10
6.5130440013135
 20
112.2304418201226
 30
0.0
 10
6.434974213104031
 20
112.8541761884165
 30
0.0
 10
6.354069416979774
 20
114.100373405301
 30
0.0
 10
6.351976200289725
 20
114.7251422628151
 30
0.0
 10
6.351976200289738
 20
115.35
 30
0.0
  0
LINE
  5
150
330
12F
100
AcDbEntity
  8
DV3_Default
 62
     7
100
AcDbLine
 10
97.8002216444
 20
207.850000165
 30
0.0
 11
97.8002219332
 21
206.9746735289
 31
0.0
  0
LINE
  5
151
330
12F
100
AcDbEntity
  8
DV3_Default
 62
     7
100
AcDbLine
 10
97.8002219332
 20
206.9746735289
 30
0.0
 11
97.8002242624
 21
199.915868594
 31
0.0
  0
LINE
  5
152
330
12F
100
AcDbEntity
  8
DV3_Default
 62
     7
100
AcDbLine
 10
97.8002242624
 20
199.915868594
 30
0.0
 11
97.8002309541
 21
179.6355188351
 31
0.0
  0
ARC
  5
153
330
12F
100
AcDbEntity
  8
DV3_Default
 62
     7
100
AcDbCircle
 10
87.6560176889
 20
154.1499999999
 30
0.0
 40
11.21080837434618
100
AcDbArc
 50
342.7046553711
 51
17.2953446289
  0
ARC
  5
154
330
12F
100
AcDbEntity
  8
DV3_Default
 62
     7
100
AcDbCircle
 10
108.8522437681
 20
160.7499999999
 30
0.0
 40
10.98919162565382
100
AcDbArc
 50
182.8267781309
 51
197.2953446289
  0
ARC
  5
155
330
12F
100
AcDbEntity
  8
DV3_Default
 62
     7
100
AcDbCircle
 10
108.8522437681
 20
147.5483157239
 30
0.0
 40
11.05690046660628
100
AcDbArc
 50
179.9912722458
 51
269.9986134895
  0
LINE
  5
156
330
12F
100
AcDbEntity
  8
DV3_Default
 62
     7
100
AcDbLine
 10
97.8002309541
 20
179.6355188351
 30
0.0
 11
97.7953434298
 21
147.5499999999
 31
0.0
  0
ARC
  5
157
330
12F
100
AcDbEntity
  8
DV3_Default
 62
     7
100
AcDbCircle
 10
97.3002216444
 20
207.85
 30
0.0
 40
0.5000000000000004
100
AcDbArc
 50
0.0000189053
 51
90.0
  0
ELLIPSE
  5
158
330
12F
100
AcDbEntity
  8
DV3_Default
 62
     7
100
AcDbEllipse
 10
97.5002219332
 20
206.9746734299
 30
0.0
 11
-0.3000000000000311
 21
-9.898769304239607E-8
 31
0.0
210
0.0
220
0.0
230
1.0
 40
0.0174524064
 41
3.141592653590747
 42
4.712388974623364
  0
LINE
  5
159
330
12F
100
AcDbEntity
  8
DV3_Default
 62
     7
100
AcDbLine
 10
119.3219004865
 20
150.8889550438
 30
0.0
 11
119.3440235379
 21
150.8170569883
 31
0.0
  0
ARC
  5
15A
330
12F
100
AcDbEntity
  8
DV3_Default
 62
     7
100
AcDbCircle
 10
108.8522437681
 20
160.7499999999
 30
0.0
 40
10.9891802025731
100
AcDbArc
 50
182.8267781309
 51
197.2953446289
  0
ARC
  5
15B
330
12F
100
AcDbEntity
  8
DV3_Default
 62
     7
100
AcDbCircle
 10
87.6560176889
 20
154.1499999999
 30
0.0
 40
11.21081979742692
100
AcDbArc
 50
342.7046553711
 51
17.2953446289
  0
LINE
  5
15C
330
12F
100
AcDbEntity
  8
DV3_Default
 62
     7
100
AcDbLine
 10
119.3219004865
 20
157.411044956
 30
0.0
 11
119.344511337
 21
157.4827911225
 31
0.0
  0
ENDBLK
  5
15E
330
12F
100
AcDbEntity
  8
0
100
AcDbBlockEnd
  0
ENDSEC
  0
SECTION
  2
ENTITIES
  0
LINE
  5
6F
330
1F
100
AcDbEntity
  8
Default
 62
     7
100
AcDbLine
 10
17.8519762003
 20
114.9340501286
 30
0.0
 11
199.8519762003
 21
114.9340501286
 31
0.0
  0
SPLINE
  5
70
330
1F
100
AcDbEntity
  8
Default
 62
     7
100
AcDbSpline
210
0.0
220
0.0
230
1.0
 70
     8
 71
     3
 72
    45
 73
    41
 74
     0
 42
0.000000001
 43
0.0000000001
 40
0.0
 40
0.0
 40
0.0
 40
0.0
 40
0.125000000000605
 40
0.125000000000605
 40
0.126953125000604
 40
0.126953125000604
 40
0.128906250000603
 40
0.1328125000006
 40
0.140625000000595
 40
0.156250000000585
 40
0.187500000000565
 40
0.2500000000005159
 40
0.2500000000005159
 40
0.2539062500005089
 40
0.2539062500005089
 40
0.2578125000005019
 40
0.2656250000004959
 40
0.2812500000004849
 40
0.312500000000469
 40
0.375000000000432
 40
0.500000000000351
 40
0.500000000000351
 40
0.750000000000187
 40
0.750000000000187
 40
0.753906250000185
 40
0.753906250000185
 40
0.757812500000183
 40
0.76562500000018
 40
0.781250000000175
 40
0.8125000000001605
 40
0.8750000000001343
 40
0.8750000000001343
 40
0.8769531250001326
 40
0.8769531250001326
 40
0.8789062500001308
 40
0.882812500000127
 40
0.890625000000119
 40
0.9062500000001027
 40
0.9375000000000698
 40
1.0
 40
1.0
 40
1.0
 40
1.0
 10
199.8519762002897
 20
114.9340501286265
 30
0.0
 10
200.1232468054296
 20
114.9340501286265
 30
0.0
 10
200.3317443480933
 20
114.9388038141719
 30
0.0
 10
200.4797457732838
 20
114.948459737936
 30
0.0
 10
200.4844954731306
 20
114.9487732472353
 30
0.0
 10
200.4915082297891
 20
114.9492452898354
 30
0.0
 10
200.5020134765853
 20
114.9499633343632
 30
0.0
 10
200.5264285017695
 20
114.9517086359881
 30
0.0
 10
200.5748696827768
 20
114.9554786968107
 30
0.0
 10
200.6701965673482
 20
114.9641366487479
 30
0.0
 10
200.8546284267166
 20
114.9859238737894
 30
0.0
 10
201.0020467465627
 20
115.0122637601117
 30
0.0
 10
201.1014312723509
 20
115.034540820535
 30
0.0
 10
201.1100208384184
 20
115.0364917689433
 30
0.0
 10
201.1243858199381
 20
115.0398140644324
 30
0.0
 10
201.1458625590938
 20
115.0448584394277
 30
0.0
 10
201.1954798185911
 20
115.0570551700819
 30
0.0
 10
201.2927338101217
 20
115.0831547207179
 30
0.0
 10
201.4793196833263
 20
115.1421781793
 30
0.0
 10
201.8208029903098
 20
115.2875225257048
 30
0.0
 10
202.0591799287086
 20
115.4588989870355
 30
0.0
 10
202.4635030868185
 20
115.8640460336755
 30
0.0
 10
202.6503003760839
 20
116.230615144204
 30
0.0
 10
202.7549418720622
 20
116.6998582120484
 30
0.0
 10
202.755935389793
 20
116.7043911339108
 30
0.0
 10
202.7584986553904
 20
116.7161963577238
 30
0.0
 10
202.762303432484
 20
116.7339573712731
 30
0.0
 10
202.7709003965867
 20
116.7757719810305
 30
0.0
 10
202.7869709283274
 20
116.8608901797814
 30
0.0
 10
202.8146184059505
 20
117.0370824942271
 30
0.0
 10
202.8306129538705
 20
117.1983146213704
 30
0.0
 10
202.8380785309625
 20
117.313841357809
 30
0.0
 10
202.8381453998422
 20
117.3149090600837
 30
0.0
 10
202.8384350501133
 20
117.3195230143521
 30
0.0
 10
202.8388660773026
 20
117.3264893875533
 30
0.0
 10
202.8398476698882
 20
117.343062350946
 30
0.0
 10
202.8417143049689
 20
117.3774806480913
 30
0.0
 10
202.8450613747689
 20
117.4514067238214
 30
0.0
 10
202.8502107129226
 20
117.6196168010398
 30
0.0
 10
202.8519762002897
 20
117.7986961685268
 30
0.0
 10
202.8519762002897
 20
117.9335932140958
 30
0.0
  0
LINE
  5
71
330
1F
100
AcDbEntity
  8
Default
 62
     7
100
AcDbLine
 10
202.8519762003
 20
117.9335932141
 30
0.0
 11
202.8519762003
 21
196.9215611315
 31
0.0
  0
SPLINE
  5
72
330
1F
100
AcDbEntity
  8
Default
 62
     7
100
AcDbSpline
210
0.0
220
0.0
230
1.0
 70
     8
 71
     3
 72
    45
 73
    41
 74
     0
 42
0.000000001
 43
0.0000000001
 40
0.0
 40
0.0
 40
0.0
 40
0.0
 40
0.12499999999981
 40
0.12499999999981
 40
0.12695312499981
 40
0.12695312499981
 40
0.12890624999981
 40
0.13281249999981
 40
0.140624999999813
 40
0.15624999999982
 40
0.187499999999832
 40
0.24999999999986
 40
0.24999999999986
 40
0.25390624999986
 40
0.25390624999986
 40
0.257812499999861
 40
0.265624999999861
 40
0.281249999999861
 40
0.312499999999861
 40
0.374999999999853
 40
0.499999999999839
 40
0.499999999999839
 40
0.7499999999998155
 40
0.7499999999998155
 40
0.753906249999817
 40
0.753906249999817
 40
0.7578124999998185
 40
0.765624999999821
 40
0.781249999999819
 40
0.8124999999998145
 40
0.8749999999998046
 40
0.8749999999998046
 40
0.8769531249998016
 40
0.8769531249998016
 40
0.8789062499997988
 40
0.882812499999805
 40
0.8906249999998174
 40
0.9062499999998422
 40
0.937499999999892
 40
1.0
 40
1.0
 40
1.0
 40
1.0
 10
202.8519762002897
 20
196.9215611314506
 30
0.0
 10
202.8519762002897
 20
197.1927904207964
 30
0.0
 10
202.8472217906246
 20
197.4012562082745
 30
0.0
 10
202.8375643959925
 20
197.5492350920977
 30
0.0
 10
202.8372508389369
 20
197.5539840685441
 30
0.0
 10
202.8367787244313
 20
197.5609957571269
 30
0.0
 10
202.8360605705247
 20
197.5714994039249
 30
0.0
 10
202.834315003041
 20
197.5959107105864
 30
0.0
 10
202.8305443679313
 20
197.6443445137744
 30
0.0
 10
202.8218850971436
 20
197.7396568796103
 30
0.0
 10
202.8000945532955
 20
197.9240606491221
 30
0.0
 10
202.773750654672
 20
198.0714565164291
 30
0.0
 10
202.7514702008309
 20
198.1708259054514
 30
0.0
 10
202.7495189552378
 20
198.179414163288
 30
0.0
 10
202.7461961536697
 20
198.1937769569517
 30
0.0
 10
202.7411510102742
 20
198.2152504250964
 30
0.0
 10
202.728952421715
 20
198.2648601276457
 30
0.0
 10
202.7028488953838
 20
198.3620993069239
 30
0.0
 10
202.643816445871
 20
198.5486567621989
 30
0.0
 10
202.4984499594442
 20
198.8900880596227
 30
0.0
 10
202.3270473926759
 20
199.1284286920556
 30
0.0
 10
201.921838630793
 20
199.532690269776
 30
0.0
 10
201.5552136814972
 20
199.7194591089213
 30
0.0
 10
201.0858991347766
 20
199.8240846674905
 30
0.0
 10
201.0813655224194
 20
199.8250780339045
 30
0.0
 10
201.0695585003366
 20
199.8276409091048
 30
0.0
 10
201.051794781282
 20
199.8314451067136
 30
0.0
 10
201.0099738019767
 20
199.840040761459
 30
0.0
 10
200.9248426373217
 20
199.8561088455832
 30
0.0
 10
200.7486234838329
 20
199.8837521123642
 30
0.0
 10
200.5873667965363
 20
199.8997442242325
 30
0.0
 10
200.4718224621652
 20
199.9072086642747
 30
0.0
 10
200.4707545972461
 20
199.9072755229703
 30
0.0
 10
200.4661399401406
 20
199.9075651291263
 30
0.0
 10
200.4591725057617
 20
199.907996090668
 30
0.0
 10
200.4425970178337
 20
199.9089775337522
 30
0.0
 10
200.4081734778019
 20
199.9108438845354
 30
0.0
 10
200.3342361410348
 20
199.9141904445604
 30
0.0
 10
200.1660004406862
 20
199.9193389984451
 30
0.0
 10
199.9868937944205
 20
199.9211042169198
 30
0.0
 10
199.8519762002897
 20
199.9211042169198
 30
0.0
  0
LINE
  5
73
330
1F
100
AcDbEntity
  8
Default
 62
     7
100
AcDbLine
 10
199.8519762003
 20
199.9211042169
 30
0.0
 11
120.2037281382
 21
199.9211042169
 31
0.0
  0
LINE
  5
74
330
1F
100
AcDbEntity
  8
Default
 62
     7
100
AcDbLine
 10
97.5002242624
 20
199.9211042169
 30
0.0
 11
17.8519762003
 21
199.9211042169
 31
0.0
  0
SPLINE
  5
75
330
1F
100
AcDbEntity
  8
Default
 62
     7
100
AcDbSpline
210
0.0
220
0.0
230
1.0
 70
     8
 71
     3
 72
    45
 73
    41
 74
     0
 42
0.000000001
 43
0.0000000001
 40
0.0
 40
0.0
 40
0.0
 40
0.0
 40
0.062500000000108
 40
0.0937500000001578
 40
0.1093750000001826
 40
0.117187500000195
 40
0.1210937500002012
 40
0.1230468750001984
 40
0.1230468750001984
 40
0.1250000000001954
 40
0.1250000000001954
 40
0.1875000000001855
 40
0.218750000000181
 40
0.234375000000179
 40
0.2421875000001815
 40
0.246093750000183
 40
0.246093750000183
 40
0.2500000000001845
 40
0.2500000000001845
 40
0.500000000000161
 40
0.500000000000161
 40
0.625000000000147
 40
0.687500000000139
 40
0.718750000000139
 40
0.734375000000139
 40
0.742187500000139
 40
0.74609375000014
 40
0.74609375000014
 40
0.75000000000014
 40
0.75000000000014
 40
0.812500000000168
 40
0.84375000000018
 40
0.859375000000187
 40
0.86718750000019
 40
0.87109375000019
 40
0.87304687500019
 40
0.87304687500019
 40
0.87500000000019
 40
0.87500000000019
 40
1.0
 40
1.0
 40
1.0
 40
1.0
 10
17.85197620028967
 20
199.9211042169198
 30
0.0
 10
17.71705860615891
 20
199.9211042169198
 30
0.0
 10
17.53795195989305
 20
199.9193389984451
 30
0.0
 10
17.36971625954453
 20
199.9141904445604
 30
0.0
 10
17.29577892277734
 20
199.9108438845354
 30
0.0
 10
17.26135538274553
 20
199.9089775337522
 30
0.0
 10
17.24477989481754
 20
199.907996090668
 30
0.0
 10
17.23781246043876
 20
199.9075651291263
 30
0.0
 10
17.23319780333321
 20
199.9072755229703
 30
0.0
 10
17.23212993841405
 20
199.9072086642747
 30
0.0
 10
17.11658560404295
 20
199.8997442242325
 30
0.0
 10
16.95532891674634
 20
199.8837521123642
 30
0.0
 10
16.77910976325758
 20
199.8561088455832
 30
0.0
 10
16.69397859860256
 20
199.840040761459
 30
0.0
 10
16.65215761929739
 20
199.8314451067136
 30
0.0
 10
16.6343939002428
 20
199.8276409091048
 30
0.0
 10
16.62258687815987
 20
199.8250780339045
 30
0.0
 10
16.61805326580279
 20
199.8240846674905
 30
0.0
 10
16.14873871908218
 20
199.7194591089213
 30
0.0
 10
15.78211376978622
 20
199.532690269776
 30
0.0
 10
15.37690500790334
 20
199.1284286920556
 30
0.0
 10
15.20550244113505
 20
198.8900880596227
 30
0.0
 10
15.06013595470823
 20
198.5486567621989
 30
0.0
 10
15.00110350519557
 20
198.3620993069239
 30
0.0
 10
14.97499997886431
 20
198.2648601276457
 30
0.0
 10
14.96280139030504
 20
198.2152504250964
 30
0.0
 10
14.95775624690954
 20
198.1937769569517
 30
0.0
 10
14.95443344534142
 20
198.179414163288
 30
0.0
 10
14.95248219974843
 20
198.1708259054514
 30
0.0
 10
14.93020174590731
 20
198.0714565164291
 30
0.0
 10
14.90385784728387
 20
197.9240606491221
 30
0.0
 10
14.88206730343567
 20
197.7396568796103
 30
0.0
 10
14.87340803264803
 20
197.6443445137744
 30
0.0
 10
14.86963739753822
 20
197.5959107105864
 30
0.0
 10
14.86789183005455
 20
197.5714994039249
 30
0.0
 10
14.86717367614798
 20
197.5609957571269
 30
0.0
 10
14.86670156164238
 20
197.5539840685441
 30
0.0
 10
14.86638800458673
 20
197.5492350920977
 30
0.0
 10
14.85673060995463
 20
197.4012562082745
 30
0.0
 10
14.85197620028966
 20
197.1927904207964
 30
0.0
 10
14.85197620028966
 20
196.9215611314506
 30
0.0
  0
LINE
  5
76
330
1F
100
AcDbEntity
  8
Default
 62
     7
100
AcDbLine
 10
14.8519762003
 20
196.9215611315
 30
0.0
 11
14.8519762003
 21
117.9335932141
 31
0.0
  0
SPLINE
  5
77
330
1F
100
AcDbEntity
  8
Default
 62
     7
100
AcDbSpline
210
0.0
220
0.0
230
1.0
 70
     8
 71
     3
 72
    45
 73
    41
 74
     0
 42
0.000000001
 43
0.0000000001
 40
0.0
 40
0.0
 40
0.0
 40
0.0
 40
0.0624999999999302
 40
0.0937499999998973
 40
0.109374999999881
 40
0.117187499999873
 40
0.1210937499998692
 40
0.1230468749998674
 40
0.1230468749998674
 40
0.1249999999998656
 40
0.1249999999998656
 40
0.1874999999998395
 40
0.218749999999825
 40
0.23437499999982
 40
0.242187499999817
 40
0.246093749999815
 40
0.246093749999815
 40
0.249999999999813
 40
0.249999999999813
 40
0.4999999999996489
 40
0.4999999999996489
 40
0.624999999999568
 40
0.687499999999531
 40
0.718749999999515
 40
0.7343749999995041
 40
0.7421874999994981
 40
0.7460937499994911
 40
0.7460937499994911
 40
0.7499999999994841
 40
0.7499999999994841
 40
0.812499999999435
 40
0.843749999999415
 40
0.859374999999405
 40
0.8671874999994
 40
0.871093749999397
 40
0.873046874999396
 40
0.873046874999396
 40
0.874999999999395
 40
0.874999999999395
 40
1.0
 40
1.0
 40
1.0
 40
1.0
 10
14.85197620028966
 20
117.9335932140958
 30
0.0
 10
14.85197620028966
 20
117.7986961685267
 30
0.0
 10
14.85374168765663
 20
117.6196168010398
 30
0.0
 10
14.85889102581039
 20
117.4514067238213
 30
0.0
 10
14.86223809561049
 20
117.3774806480912
 30
0.0
 10
14.86410473069111
 20
117.3430623509459
 30
0.0
 10
14.86508632327677
 20
117.3264893875533
 30
0.0
 10
14.86551735046593
 20
117.3195230143521
 30
0.0
 10
14.86580700073703
 20
117.3149090600837
 30
0.0
 10
14.86587386961691
 20
117.313841357809
 30
0.0
 10
14.87333944670888
 20
117.1983146213704
 30
0.0
 10
14.88933399462877
 20
117.0370824942271
 30
0.0
 10
14.91698147225184
 20
116.8608901797814
 30
0.0
 10
14.93305200399253
 20
116.7757719810305
 30
0.0
 10
14.94164896809524
 20
116.7339573712731
 30
0.0
 10
14.94545374518896
 20
116.7161963577238
 30
0.0
 10
14.94801701078641
 20
116.7043911339108
 30
0.0
 10
14.94901052851716
 20
116.6998582120484
 30
0.0
 10
15.05365202449538
 20
116.230615144204
 30
0.0
 10
15.24044931376078
 20
115.8640460336755
 30
0.0
 10
15.64477247187079
 20
115.4588989870355
 30
0.0
 10
15.88314941026958
 20
115.2875225257048
 30
0.0
 10
16.22463271725305
 20
115.1421781793
 30
0.0
 10
16.41121859045769
 20
115.0831547207179
 30
0.0
 10
16.50847258198818
 20
115.0570551700819
 30
0.0
 10
16.55808984148543
 20
115.0448584394277
 30
0.0
 10
16.5795665806413
 20
115.0398140644324
 30
0.0
 10
16.59393156216083
 20
115.0364917689433
 30
0.0
 10
16.60252112822846
 20
115.034540820535
 30
0.0
 10
16.70190565401652
 20
115.0122637601117
 30
0.0
 10
16.84932397386263
 20
114.9859238737894
 30
0.0
 10
17.03375583323119
 20
114.9641366487479
 30
0.0
 10
17.12908271780245
 20
114.9554786968107
 30
0.0
 10
17.17752389880989
 20
114.9517086359881
 30
0.0
 10
17.20193892399402
 20
114.9499633343632
 30
0.0
 10
17.21244417079015
 20
114.9492452898354
 30
0.0
 10
17.21945692744864
 20
114.9487732472352
 30
0.0
 10
17.22420662729551
 20
114.948459737936
 30
0.0
 10
17.37220805248607
 20
114.9388038141719
 30
0.0
 10
17.58070559514979
 20
114.9340501286265
 30
0.0
 10
17.85197620028967
 20
114.9340501286265
 30
0.0
  0
INSERT
  5
79
330
1F
100
AcDbEntity
  8
Default
100
AcDbBlockReference
  2
SE
 10
0.0
 20
0.0
 30
0.0
  0
INSERT
  5
EF
330
1F
100
AcDbEntity
  8
Default
100
AcDbBlockReference
  2
SE1
 10
0.0
 20
0.0
 30
0.0
  0
INSERT
  5
130
330
1F
100
AcDbEntity
  8
Default
100
AcDbBlockReference
  2
SE2
 10
0.0
 20
0.0
 30
0.0
  0
MTEXT
  5
15F
330
1F
100
AcDbEntity
  8
Default
100
AcDbMText
 10
5.9362635081
 20
63.4225120485
 30
0.0
 40
10.0
 41
113.8626497168
 46
65.4545454545
 71
     1
 72
     1
  1
{\fArial Narrow|b0||i0||c0|p34;\C7;\H10.;\W1.;Grohe AG\P}{\fArial Narrow|b0||i0||c0|p34;\C7;\H10.;\W1.;\P}{\fArial Narrow|b0||i0||c0|p34;\C7;\H10.;\W1.;ecn:\P}{\fArial Narrow|b0||i0||c0|p34;\C7;\H10.;\W1.;unit: mm}
 73
     1
 44
1.0
1001
ACAD
1000
ACAD_MTEXT_DEFINED_HEIGHT_BEGIN
1070
    46
1040
65.4545454545
1000
ACAD_MTEXT_DEFINED_HEIGHT_END
  0
LINE
  5
160
330
1F
100
AcDbEntity
  8
Default
 62
     7
100
AcDbLine
 10
0.0
 20
0.0
 30
0.0
 11
100.0
 21
0.0
 31
0.0
  0
LINE
  5
161
330
1F
100
AcDbEntity
  8
Default
 62
     7
100
AcDbLine
 10
0.0
 20
0.0
 30
0.0
 11
0.0
 21
100.0
 31
0.0
  0
MTEXT
  5
162
330
1F
100
AcDbEntity
  8
Default
100
AcDbMText
 10
24.3923665681
 20
-8.2375342018
 30
0.0
 40
10.0
 41
35.00001
 46
16.3636363636
 71
     1
 72
     1
  1
{\fArial Narrow|b0||i0||c0|p34;\C7;\H10.;\W0.438976;100 mm}
 73
     1
 44
1.0
1001
ACAD
1000
ACAD_MTEXT_DEFINED_HEIGHT_BEGIN
1070
    46
1040
16.3636363636
1000
ACAD_MTEXT_DEFINED_HEIGHT_END
  0
MTEXT
  5
163
330
1F
100
AcDbEntity
  8
Default
100
AcDbMText
 10
-17.6150308803
 20
24.6231930421
 30
0.0
 40
10.0
 41
35.00001
 46
16.3636363636
 71
     1
 72
     1
  1
{\fArial Narrow|b0||i0||c0|p34;\C7;\H10.;\W0.438976;100 mm}
 11
6.123233995736766E-17
 21
1.0
 31
0.0
 73
     1
 44
1.0
1001
ACAD
1000
ACAD_MTEXT_DEFINED_HEIGHT_BEGIN
1070
    46
1040
16.3636363636
1000
ACAD_MTEXT_DEFINED_HEIGHT_END
  0
MTEXT
  5
164
330
1F
100
AcDbEntity
  8
Default
100
AcDbMText
 10
28.4878128572
 20
24.8634936442
 30
0.0
 40
10.0
 41
86.691737001
 46
16.3636363636
 71
     4
 72
     1
  1
{\fArial Narrow|b0||i0||c0|p34;\C7;\H10.;\W1.;247947}
 73
     1
 44
1.0
1001
ACAD
1000
ACAD_MTEXT_DEFINED_HEIGHT_BEGIN
1070
    46
1040
16.3636363636
1000
ACAD_MTEXT_DEFINED_HEIGHT_END
  0
MTEXT
  5
165
330
1F
100
AcDbEntity
  8
Default
100
AcDbMText
 10
5.9012241913
 20
41.4970052916
 30
0.0
 40
10.0
 41
109.9146987306
 46
16.3636363636
 71
     4
 72
     1
  1
{\fArial Narrow|b0||i0||c0|p34;\C7;\H10.;\W1.;26362LN1}
 73
     1
 44
1.0
1001
ACAD
1000
ACAD_MTEXT_DEFINED_HEIGHT_BEGIN
1070
    46
1040
16.3636363636
1000
ACAD_MTEXT_DEFINED_HEIGHT_END
  0
ENDSEC
  0
SECTION
  2
OBJECTS
  0
DICTIONARY
  5
C
330
0
100
AcDbDictionary
281
     1
  3
ACAD_DETAILVIEWSTYLE
350
1A1
  3
ACAD_GROUP
350
D
  3
ACAD_LAYOUT
350
1A
  3
ACAD_MATERIAL
350
43
  3
ACAD_MLEADERSTYLE
350
6B
  3
ACAD_MLINESTYLE
350
17
  3
ACAD_PLOTSETTINGS
350
19
  3
ACAD_PLOTSTYLENAME
350
E
  3
ACAD_SCALELIST
350
47
  3
ACAD_SECTIONVIEWSTYLE
350
1A2
  3
ACAD_TABLESTYLE
350
69
  3
ACAD_VISUALSTYLE
350
2A
  3
ACDB_RECOMPOSE_DATA
350
19E
  3
AcDbVariableDictionary
350
166
  0
SUN
  5
6D
330
29
100
AcDbSun
 90
        1
290
     0
 63
     7
421
 16777215
 40
1.0
291
     1
 91
  2455826
 92
 54000000
292
     0
 70
     2
 71
   256
280
     1
  0
DICTIONARY
  5
1A1
102
{ACAD_REACTORS
330
C
102
}
330
C
100
AcDbDictionary
281
     1
  0
DICTIONARY
  5
D
102
{ACAD_REACTORS
330
C
102
}
330
C
100
AcDbDictionary
281
     1
  0
DICTIONARY
  5
1A
102
{ACAD_REACTORS
330
C
102
}
330
C
100
AcDbDictionary
281
     1
  3
Layout1
350
1E
  3
Model
350
22
  0
DICTIONARY
  5
43
102
{ACAD_REACTORS
330
C
102
}
330
C
100
AcDbDictionary
281
     1
  3
ByBlock
350
45
  3
ByLayer
350
44
  3
Global
350
46
  0
DICTIONARY
  5
6B
102
{ACAD_REACTORS
330
C
102
}
330
C
100
AcDbDictionary
281
     1
  3
Standard
350
6C
  0
DICTIONARY
  5
17
102
{ACAD_REACTORS
330
C
102
}
330
C
100
AcDbDictionary
281
     1
  3
Standard
350
18
  0
DICTIONARY
  5
19
102
{ACAD_REACTORS
330
C
102
}
330
C
100
AcDbDictionary
281
     1
  0
ACDBDICTIONARYWDFLT
  5
E
102
{ACAD_REACTORS
330
C
102
}
330
C
100
AcDbDictionary
281
     1
  3
Normal
350
F
100
AcDbDictionaryWithDefault
340
F
  0
DICTIONARY
  5
47
102
{ACAD_REACTORS
330
C
102
}
330
C
100
AcDbDictionary
281
     1
  3
A0
350
48
  3
A1
350
49
  3
A2
350
4A
  3
A3
350
4B
  3
A4
350
4C
  3
A5
350
4D
  3
A6
350
4E
  3
A7
350
4F
  3
A8
350
50
  3
A9
350
51
  3
B0
350
52
  3
B1
350
53
  3
B2
350
54
  3
B3
350
55
  3
B4
350
56
  3
B5
350
57
  3
B6
350
58
  3
B7
350
59
  3
B8
350
5A
  3
B9
350
5B
  3
C0
350
5C
  3
C1
350
5D
  3
C2
350
5E
  3
C3
350
5F
  3
C4
350
60
  3
C5
350
61
  3
C6
350
62
  3
C7
350
63
  3
C8
350
64
  3
C9
350
65
  3
D0
350
66
  3
D1
350
67
  3
D2
350
68
  0
DICTIONARY
  5
1A2
102
{ACAD_REACTORS
330
C
102
}
330
C
100
AcDbDictionary
281
     1
  0
DICTIONARY
  5
69
102
{ACAD_REACTORS
330
C
102
}
330
C
100
AcDbDictionary
281
     1
  3
Standard
350
6A
  0
DICTIONARY
  5
2A
102
{ACAD_REACTORS
330
C
102
}
330
C
100
AcDbDictionary
281
     1
  3
2dWireframe
350
2F
  3
Basic
350
32
  3
Brighten
350
36
  3
ColorChange
350
3A
  3
Conceptual
350
34
  3
Dim
350
35
  3
EdgeColorOff
350
3D
  3
Facepattern
350
39
  3
Flat
350
2B
  3
FlatWithEdges
350
2C
  3
Gouraud
350
2D
  3
GouraudWithEdges
350
2E
  3
Hidden
350
31
  3
JitterOff
350
3B
  3
Linepattern
350
38
  3
OverhangOff
350
3C
  3
Realistic
350
33
  3
Shaded
350
42
  3
Shaded with edges
350
41
  3
Shades of Gray
350
3E
  3
Sketchy
350
3F
  3
Thicken
350
37
  3
Wireframe
350
30
  3
X-Ray
350
40
  0
XRECORD
  5
19E
102
{ACAD_REACTORS
330
C
102
}
330
C
100
AcDbXrecord
280
     1
 90
        1
330
6A
  0
DICTIONARY
  5
166
102
{ACAD_REACTORS
330
C
102
}
330
C
100
AcDbDictionary
281
     1
  3
CANNOSCALE
350
167
  3
CENTEREXE
350
1A3
  3
CENTERLTYPEFILE
350
1A4
  3
CMLEADERSTYLE
350
1A0
  3
CTABLESTYLE
350
19F
  3
XCLIPFRAME
350
168
  0
LAYOUT
  5
1E
102
{ACAD_REACTORS
330
1A
102
}
330
1A
100
AcDbPlotSettings
  1

  2
none_device
  4

  6

 40
0.0
 41
0.0
 42
0.0
 43
0.0
 44
0.0
 45
0.0
 46
0.0
 47
0.0
 48
0.0
 49
0.0
140
0.0
141
0.0
142
1.0
143
1.0
 70
   688
 72
     1
 73
     0
 74
     5
  7

 75
    16
 76
     0
 77
     2
 78
   300
147
1.0
148
0.0
149
0.0
100
AcDbLayout
  1
Layout1
 70
     1
 71
     1
 10
0.0
 20
0.0
 11
3000.0
 21
4500.0
 12
0.0
 22
0.0
 32
0.0
 14
0.0
 24
0.0
 34
0.0
 15
3000.0
 25
4500.0
 35
0.0
146
0.0
 13
0.0
 23
0.0
 33
0.0
 16
1.0
 26
0.0
 36
0.0
 17
0.0
 27
1.0
 37
0.0
 76
     0
330
1B
  0
LAYOUT
  5
22
102
{ACAD_REACTORS
330
1A
102
}
330
1A
100
AcDbPlotSettings
  1

  2
none_device
  4
Letter_(8.50_x_11.00_Inches)
  6

 40
6.35
 41
6.35
 42
6.35000508
 43
6.35000508
 44
215.9
 45
279.4
 46
0.0
 47
0.0
 48
0.0
 49
0.0
140
0.0
141
0.0
142
1.0
143
1.0
 70
  1712
 72
     1
 73
     0
 74
     0
  7

 75
     0
 76
     0
 77
     2
 78
   300
147
1.0
148
0.0
149
0.0
100
AcDbLayout
  1
Model
 70
     1
 71
     0
 10
0.0
 20
0.0
 11
3000.0
 21
4500.0
 12
0.0
 22
0.0
 32
0.0
 14
0.0
 24
0.0
 34
0.0
 15
3000.0
 25
4500.0
 35
0.0
146
0.0
 13
0.0
 23
0.0
 33
0.0
 16
1.0
 26
0.0
 36
0.0
 17
0.0
 27
1.0
 37
0.0
 76
     0
330
1F
331
29
  0
MATERIAL
  5
45
102
{ACAD_REACTORS
330
43
102
}
330
43
100
AcDbMaterial
  1
ByBlock
 72
     1
 94
      127
  0
MATERIAL
  5
44
102
{ACAD_REACTORS
330
43
102
}
330
43
100
AcDbMaterial
  1
ByLayer
 72
     1
 94
      127
  0
MATERIAL
  5
46
102
{ACAD_REACTORS
330
43
102
}
330
43
100
AcDbMaterial
  1
Global
 72
     1
 94
      127
  0
MLEADERSTYLE
  5
6C
102
{ACAD_REACTORS
330
6B
102
}
102
{ACAD_XDICTIONARY
360
19C
102
}
330
6B
100
AcDbMLeaderStyle
170
     2
171
     1
172
     0
 90
        2
 40
0.0
 41
0.0
173
     1
 91
-1056964608
340
14
 92
       -2
290
     1
 42
2.0
291
     1
 43
8.0
  3
Standard
341
0
 44
4.0
300

342
11
174
     1
178
     6
175
     1
176
     0
 93
-1056964608
 45
4.0
292
     0
297
     0
 46
4.0
343
0
 94
-1056964608
 47
1.0
 49
1.0
140
1.0
293
     1
141
0.0
294
     1
177
     0
142
1.0
295
     0
296
     0
143
3.75
1001
ACAD_MLEADERVER
1070
     2
  0
MLINESTYLE
  5
18
102
{ACAD_REACTORS
330
17
102
}
330
17
100
AcDbMlineStyle
  2
Standard
 70
     0
  3

 62
   256
 51
90.0
 52
90.0
 71
     2
 49
0.5
 62
   256
  6
BYLAYER
 49
-0.5
 62
   256
  6
BYLAYER
  0
ACDBPLACEHOLDER
  5
F
102
{ACAD_REACTORS
330
E
102
}
330
E
  0
SCALE
  5
48
102
{ACAD_REACTORS
330
47
102
}
330
47
100
AcDbScale
 70
     0
300
1:1
140
1.0
141
1.0
290
     1
  0
SCALE
  5
49
102
{ACAD_REACTORS
330
47
102
}
330
47
100
AcDbScale
 70
     0
300
1:2
140
1.0
141
2.0
290
     0
  0
SCALE
  5
4A
102
{ACAD_REACTORS
330
47
102
}
330
47
100
AcDbScale
 70
     0
300
1:4
140
1.0
141
4.0
290
     0
  0
SCALE
  5
4B
102
{ACAD_REACTORS
330
47
102
}
330
47
100
AcDbScale
 70
     0
300
1:5
140
1.0
141
5.0
290
     0
  0
SCALE
  5
4C
102
{ACAD_REACTORS
330
47
102
}
330
47
100
AcDbScale
 70
     0
300
1:8
140
1.0
141
8.0
290
     0
  0
SCALE
  5
4D
102
{ACAD_REACTORS
330
47
102
}
330
47
100
AcDbScale
 70
     0
300
1:10
140
1.0
141
10.0
290
     0
  0
SCALE
  5
4E
102
{ACAD_REACTORS
330
47
102
}
330
47
100
AcDbScale
 70
     0
300
1:16
140
1.0
141
16.0
290
     0
  0
SCALE
  5
4F
102
{ACAD_REACTORS
330
47
102
}
330
47
100
AcDbScale
 70
     0
300
1:20
140
1.0
141
20.0
290
     0
  0
SCALE
  5
50
102
{ACAD_REACTORS
330
47
102
}
330
47
100
AcDbScale
 70
     0
300
1:30
140
1.0
141
30.0
290
     0
  0
SCALE
  5
51
102
{ACAD_REACTORS
330
47
102
}
330
47
100
AcDbScale
 70
     0
300
1:40
140
1.0
141
40.0
290
     0
  0
SCALE
  5
52
102
{ACAD_REACTORS
330
47
102
}
330
47
100
AcDbScale
 70
     0
300
1:50
140
1.0
141
50.0
290
     0
  0
SCALE
  5
53
102
{ACAD_REACTORS
330
47
102
}
330
47
100
AcDbScale
 70
     0
300
1:100
140
1.0
141
100.0
290
     0
  0
SCALE
  5
54
102
{ACAD_REACTORS
330
47
102
}
330
47
100
AcDbScale
 70
     0
300
2:1
140
2.0
141
1.0
290
     0
  0
SCALE
  5
55
102
{ACAD_REACTORS
330
47
102
}
330
47
100
AcDbScale
 70
     0
300
4:1
140
4.0
141
1.0
290
     0
  0
SCALE
  5
56
102
{ACAD_REACTORS
330
47
102
}
330
47
100
AcDbScale
 70
     0
300
8:1
140
8.0
141
1.0
290
     0
  0
SCALE
  5
57
102
{ACAD_REACTORS
330
47
102
}
330
47
100
AcDbScale
 70
     0
300
10:1
140
10.0
141
1.0
290
     0
  0
SCALE
  5
58
102
{ACAD_REACTORS
330
47
102
}
330
47
100
AcDbScale
 70
     0
300
100:1
140
100.0
141
1.0
290
     0
  0
SCALE
  5
59
102
{ACAD_REACTORS
330
47
102
}
330
47
100
AcDbScale
 70
     0
300
1/128" = 1'-0"
140
0.0078125
141
12.0
290
     0
  0
SCALE
  5
5A
102
{ACAD_REACTORS
330
47
102
}
330
47
100
AcDbScale
 70
     0
300
1/64" = 1'-0"
140
0.015625
141
12.0
290
     0
  0
SCALE
  5
5B
102
{ACAD_REACTORS
330
47
102
}
330
47
100
AcDbScale
 70
     0
300
1/32" = 1'-0"
140
0.03125
141
12.0
290
     0
  0
SCALE
  5
5C
102
{ACAD_REACTORS
330
47
102
}
330
47
100
AcDbScale
 70
     0
300
1/16" = 1'-0"
140
0.0625
141
12.0
290
     0
  0
SCALE
  5
5D
102
{ACAD_REACTORS
330
47
102
}
330
47
100
AcDbScale
 70
     0
300
3/32" = 1'-0"
140
0.09375
141
12.0
290
     0
  0
SCALE
  5
5E
102
{ACAD_REACTORS
330
47
102
}
330
47
100
AcDbScale
 70
     0
300
1/8" = 1'-0"
140
0.125
141
12.0
290
     0
  0
SCALE
  5
5F
102
{ACAD_REACTORS
330
47
102
}
330
47
100
AcDbScale
 70
     0
300
3/16" = 1'-0"
140
0.1875
141
12.0
290
     0
  0
SCALE
  5
60
102
{ACAD_REACTORS
330
47
102
}
330
47
100
AcDbScale
 70
     0
300
1/4" = 1'-0"
140
0.25
141
12.0
290
     0
  0
SCALE
  5
61
102
{ACAD_REACTORS
330
47
102
}
330
47
100
AcDbScale
 70
     0
300
3/8" = 1'-0"
140
0.375
141
12.0
290
     0
  0
SCALE
  5
62
102
{ACAD_REACTORS
330
47
102
}
330
47
100
AcDbScale
 70
     0
300
1/2" = 1'-0"
140
0.5
141
12.0
290
     0
  0
SCALE
  5
63
102
{ACAD_REACTORS
330
47
102
}
330
47
100
AcDbScale
 70
     0
300
3/4" = 1'-0"
140
0.75
141
12.0
290
     0
  0
SCALE
  5
64
102
{ACAD_REACTORS
330
47
102
}
330
47
100
AcDbScale
 70
     0
300
1" = 1'-0"
140
1.0
141
12.0
290
     0
  0
SCALE
  5
65
102
{ACAD_REACTORS
330
47
102
}
330
47
100
AcDbScale
 70
     0
300
1-1/2" = 1'-0"
140
1.5
141
12.0
290
     0
  0
SCALE
  5
66
102
{ACAD_REACTORS
330
47
102
}
330
47
100
AcDbScale
 70
     0
300
3" = 1'-0"
140
3.0
141
12.0
290
     0
  0
SCALE
  5
67
102
{ACAD_REACTORS
330
47
102
}
330
47
100
AcDbScale
 70
     0
300
6" = 1'-0"
140
6.0
141
12.0
290
     0
  0
SCALE
  5
68
102
{ACAD_REACTORS
330
47
102
}
330
47
100
AcDbScale
 70
     0
300
1'-0" = 1'-0"
140
12.0
141
12.0
290
     0
  0
TABLESTYLE
  5
6A
102
{ACAD_REACTORS
330
69
102
}
102
{ACAD_XDICTIONARY
360
199
102
}
330
69
100
AcDbTableStyle
  3
Standard
 70
     0
 71
     0
 40
0.06
 41
0.06
280
     0
281
     0
  7
Standard
140
4.5
170
     2
 62
     0
 63
   257
283
     0
 90
        4
 91
        0
  1

274
    -2
284
     1
 64
     0
275
    -2
285
     1
 65
     0
276
    -2
286
     1
 66
     0
277
    -2
287
     1
 67
     0
278
    -2
288
     1
 68
     0
279
    -2
289
     1
 69
     0
  7
Standard
140
6.0
170
     5
 62
     0
 63
   257
283
     0
 90
        4
 91
        0
  1

274
    -2
284
     1
 64
     0
275
    -2
285
     1
 65
     0
276
    -2
286
     1
 66
     0
277
    -2
287
     1
 67
     0
278
    -2
288
     1
 68
     0
279
    -2
289
     1
 69
     0
  7
Standard
140
4.5
170
     5
 62
     0
 63
   257
283
     0
 90
        4
 91
        0
  1

274
    -2
284
     1
 64
     0
275
    -2
285
     1
 65
     0
276
    -2
286
     1
 66
     0
277
    -2
287
     1
 67
     0
278
    -2
288
     1
 68
     0
279
    -2
289
     1
 69
     0
  0
VISUALSTYLE
  5
2F
102
{ACAD_REACTORS
330
2A
102
}
102
{ACAD_XDICTIONARY
360
171
102
}
330
2A
100
AcDbVisualStyle
  2
2dWireframe
 70
     4
 71
     0
 72
     2
 73
     0
 90
        0
 40
0.6
 41
30.0
 62
     5
 63
     7
421
 16777215
 74
     1
 91
        4
 64
     7
 65
   257
 75
     1
175
     1
 42
1.0
 92
        0
 66
   257
 43
1.0
 76
     1
 77
     6
 78
     2
 67
     7
 79
     5
170
     0
171
     0
290
     0
174
     0
 93
        1
 44
0.0
173
     0
291
     0
 45
0.0
  0
VISUALSTYLE
  5
32
102
{ACAD_REACTORS
330
2A
102
}
102
{ACAD_XDICTIONARY
360
177
102
}
330
2A
100
AcDbVisualStyle
  2
Basic
 70
     7
 71
     1
 72
     0
 73
     1
 90
        0
 40
0.6
 41
30.0
 62
     5
 63
     7
421
 16777215
 74
     0
 91
        4
 64
     7
 65
   257
 75
     1
175
     1
 42
1.0
 92
        8
 66
     7
 43
1.0
 76
     1
 77
     6
 78
     2
 67
     7
 79
     5
170
     0
171
     0
290
     0
174
     0
 93
        1
 44
0.0
173
     0
291
     1
 45
0.0
  0
VISUALSTYLE
  5
36
102
{ACAD_REACTORS
330
2A
102
}
102
{ACAD_XDICTIONARY
360
17F
102
}
330
2A
100
AcDbVisualStyle
  2
Brighten
 70
    12
 71
     2
 72
     2
 73
     0
 90
        0
 40
0.6
 41
30.0
 62
     5
 63
     7
421
 16777215
 74
     1
 91
        4
 64
     7
 65
   257
 75
     1
175
     1
 42
1.0
 92
        8
 66
     7
 43
1.0
 76
     1
 77
     6
 78
     2
 67
     7
 79
     5
170
     0
171
     0
290
     0
174
     0
 93
        1
 44
50.0
173
     0
291
     1
 45
0.0
  0
VISUALSTYLE
  5
3A
102
{ACAD_REACTORS
330
2A
102
}
102
{ACAD_XDICTIONARY
360
187
102
}
330
2A
100
AcDbVisualStyle
  2
ColorChange
 70
    16
 71
     2
 72
     2
 73
     3
 90
        0
 40
0.6
 41
30.0
 62
     5
 63
     8
421
  8421504
 74
     1
 91
        4
 64
     7
 65
   257
 75
     1
175
     1
 42
1.0
 92
        8
 66
     8
424
  8421504
 43
1.0
 76
     1
 77
     6
 78
     2
 67
     7
 79
     5
170
     0
171
     0
290
     0
174
     0
 93
        1
 44
0.0
173
     0
291
     1
 45
0.0
  0
VISUALSTYLE
  5
34
102
{ACAD_REACTORS
330
2A
102
}
102
{ACAD_XDICTIONARY
360
17B
102
}
330
2A
100
AcDbVisualStyle
  2
Conceptual
 70
     9
 71
     3
 72
     2
 73
     0
 90
        0
 40
0.6
 41
30.0
 62
     5
 63
     7
421
 16777215
 74
     2
 91
        2
 64
     7
 65
   257
 75
     1
175
     1
 42
179.0
 92
        8
 66
     7
 43
1.0
 76
     1
 77
     6
 78
     2
 67
     7
 79
     3
170
     0
171
     0
290
     0
174
     0
 93
        1
 44
0.0
173
     0
291
     0
 45
0.0
  0
VISUALSTYLE
  5
35
102
{ACAD_REACTORS
330
2A
102
}
102
{ACAD_XDICTIONARY
360
17D
102
}
330
2A
100
AcDbVisualStyle
  2
Dim
 70
    11
 71
     2
 72
     2
 73
     0
 90
        0
 40
0.6
 41
30.0
 62
     5
 63
     7
421
 16777215
 74
     1
 91
        4
 64
     7
 65
   257
 75
     1
175
     1
 42
1.0
 92
        8
 66
     7
 43
1.0
 76
     1
 77
     6
 78
     2
 67
     7
 79
     5
170
     0
171
     0
290
     0
174
     0
 93
        1
 44
-50.0
173
     0
291
     1
 45
0.0
  0
VISUALSTYLE
  5
3D
102
{ACAD_REACTORS
330
2A
102
}
102
{ACAD_XDICTIONARY
360
18D
102
}
330
2A
100
AcDbVisualStyle
  2
EdgeColorOff
 70
    22
 71
     2
 72
     2
 73
     0
 90
        0
 40
0.6
 41
30.0
 62
     5
 63
     7
421
 16777215
 74
     1
 91
        4
 64
     7
 65
   257
 75
     1
175
     1
 42
1.0
 92
        8
 66
     7
 43
1.0
 76
     1
 77
     6
 78
     2
 67
     7
 79
     5
170
     0
171
     0
290
     0
174
     0
 93
        1
 44
0.0
173
     0
291
     1
 45
0.0
  0
VISUALSTYLE
  5
39
102
{ACAD_REACTORS
330
2A
102
}
102
{ACAD_XDICTIONARY
360
185
102
}
330
2A
100
AcDbVisualStyle
  2
Facepattern
 70
    15
 71
     2
 72
     2
 73
     0
 90
        0
 40
0.6
 41
30.0
 62
     5
 63
     7
421
 16777215
 74
     1
 91
        4
 64
     7
 65
   257
 75
     1
175
     1
 42
1.0
 92
        8
 66
     7
 43
1.0
 76
     1
 77
     6
 78
     2
 67
     7
 79
     5
170
     0
171
     0
290
     0
174
     0
 93
        1
 44
0.0
173
     0
291
     1
 45
0.0
  0
VISUALSTYLE
  5
2B
102
{ACAD_REACTORS
330
2A
102
}
102
{ACAD_XDICTIONARY
360
169
102
}
330
2A
100
AcDbVisualStyle
  2
Flat
 70
     0
 71
     2
 72
     1
 73
     1
 90
        2
 40
0.6
 41
30.0
 62
     5
 63
     7
421
 16777215
 74
     0
 91
        0
 64
     7
 65
   257
 75
     1
175
     1
 42
1.0
 92
        8
 66
     7
 43
1.0
 76
     1
 77
     6
 78
     2
 67
     7
 79
     5
170
     0
171
     0
290
     0
174
     0
 93
       13
 44
0.0
173
     0
291
     1
 45
0.0
  0
VISUALSTYLE
  5
2C
102
{ACAD_REACTORS
330
2A
102
}
102
{ACAD_XDICTIONARY
360
16B
102
}
330
2A
100
AcDbVisualStyle
  2
FlatWithEdges
 70
     1
 71
     2
 72
     1
 73
     1
 90
        2
 40
0.6
 41
30.0
 62
     5
 63
     7
421
 16777215
 74
     1
 91
        0
 64
     7
 65
   257
 75
     1
175
     1
 42
1.0
 92
        0
 66
   257
 43
1.0
 76
     1
 77
     6
 78
     2
 67
     7
 79
     5
170
     0
171
     0
290
     0
174
     0
 93
       13
 44
0.0
173
     0
291
     1
 45
0.0
  0
VISUALSTYLE
  5
2D
102
{ACAD_REACTORS
330
2A
102
}
102
{ACAD_XDICTIONARY
360
16D
102
}
330
2A
100
AcDbVisualStyle
  2
Gouraud
 70
     2
 71
     2
 72
     2
 73
     1
 90
        2
 40
0.6
 41
30.0
 62
     5
 63
     7
421
 16777215
 74
     0
 91
        0
 64
     7
 65
   257
 75
     1
175
     1
 42
1.0
 92
        0
 66
     7
 43
1.0
 76
     1
 77
     6
 78
     2
 67
     7
 79
     5
170
     0
171
     0
290
     0
174
     0
 93
       13
 44
0.0
173
     0
291
     1
 45
0.0
  0
VISUALSTYLE
  5
2E
102
{ACAD_REACTORS
330
2A
102
}
102
{ACAD_XDICTIONARY
360
16F
102
}
330
2A
100
AcDbVisualStyle
  2
GouraudWithEdges
 70
     3
 71
     2
 72
     2
 73
     1
 90
        2
 40
0.6
 41
30.0
 62
     5
 63
     7
421
 16777215
 74
     1
 91
        0
 64
     7
 65
   257
 75
     1
175
     1
 42
1.0
 92
        0
 66
   257
 43
1.0
 76
     1
 77
     6
 78
     2
 67
     7
 79
     5
170
     0
171
     0
290
     0
174
     0
 93
       13
 44
0.0
173
     0
291
     1
 45
0.0
  0
VISUALSTYLE
  5
31
102
{ACAD_REACTORS
330
2A
102
}
102
{ACAD_XDICTIONARY
360
175
102
}
330
2A
100
AcDbVisualStyle
  2
Hidden
 70
     6
 71
     1
 72
     2
 73
     2
 90
        0
 40
0.6
 41
30.0
 62
     5
 63
     7
421
 16777215
 74
     2
 91
        2
 64
     7
 65
   257
 75
     2
175
     1
 42
40.0
 92
        0
 66
   257
 43
1.0
 76
     1
 77
     6
 78
     2
 67
     7
 79
     3
170
     0
171
     0
290
     0
174
     0
 93
        1
 44
0.0
173
     0
291
     0
 45
0.0
  0
VISUALSTYLE
  5
3B
102
{ACAD_REACTORS
330
2A
102
}
102
{ACAD_XDICTIONARY
360
189
102
}
330
2A
100
AcDbVisualStyle
  2
JitterOff
 70
    20
 71
     2
 72
     2
 73
     0
 90
        0
 40
0.6
 41
30.0
 62
     5
 63
     7
421
 16777215
 74
     1
 91
        4
 64
     7
 65
   257
 75
     1
175
     1
 42
1.0
 92
       10
 66
     7
 43
1.0
 76
     1
 77
     6
 78
     2
 67
     7
 79
     5
170
     0
171
     0
290
     0
174
     0
 93
        1
 44
0.0
173
     0
291
     1
 45
0.0
  0
VISUALSTYLE
  5
38
102
{ACAD_REACTORS
330
2A
102
}
102
{ACAD_XDICTIONARY
360
183
102
}
330
2A
100
AcDbVisualStyle
  2
Linepattern
 70
    14
 71
     2
 72
     2
 73
     0
 90
        0
 40
0.6
 41
30.0
 62
     5
 63
     7
421
 16777215
 74
     1
 91
        4
 64
     7
 65
   257
 75
     7
175
     7
 42
1.0
 92
        8
 66
     7
 43
1.0
 76
     1
 77
     6
 78
     2
 67
     7
 79
     5
170
     0
171
     0
290
     0
174
     0
 93
        1
 44
0.0
173
     0
291
     1
 45
0.0
  0
VISUALSTYLE
  5
3C
102
{ACAD_REACTORS
330
2A
102
}
102
{ACAD_XDICTIONARY
360
18B
102
}
330
2A
100
AcDbVisualStyle
  2
OverhangOff
 70
    21
 71
     2
 72
     2
 73
     0
 90
        0
 40
0.6
 41
30.0
 62
     5
 63
     7
421
 16777215
 74
     1
 91
        4
 64
     7
 65
   257
 75
     1
175
     1
 42
1.0
 92
        9
 66
     7
 43
1.0
 76
     1
 77
     6
 78
     2
 67
     7
 79
     5
170
     0
171
     0
290
     0
174
     0
 93
        1
 44
0.0
173
     0
291
     1
 45
0.0
  0
VISUALSTYLE
  5
33
102
{ACAD_REACTORS
330
2A
102
}
102
{ACAD_XDICTIONARY
360
179
102
}
330
2A
100
AcDbVisualStyle
  2
Realistic
 70
     8
 71
     2
 72
     3
 73
     0
 90
        2
 40
0.6
 41
30.0
 62
     5
 63
     7
421
 16777215
 74
     0
 91
        0
 64
     7
 65
   257
 75
     1
175
     1
 42
1.0
 92
        8
 66
   257
 43
1.0
 76
     1
 77
     6
 78
     2
 67
     7
 79
     3
170
     0
171
     0
290
     0
174
     0
 93
       13
 44
0.0
173
     0
291
     0
 45
0.0
  0
VISUALSTYLE
  5
42
102
{ACAD_REACTORS
330
2A
102
}
102
{ACAD_XDICTIONARY
360
197
102
}
330
2A
100
AcDbVisualStyle
  2
Shaded
 70
    27
 71
     2
 72
     2
 73
     1
 90
        2
 40
0.6
 41
30.0
 62
     5
 63
     7
421
 16777215
 74
     0
 91
        4
 64
     7
 65
   257
 75
     1
175
     1
 42
1.0
 92
        8
 66
   257
 43
1.0
 76
     1
 77
     6
 78
     2
 67
     8
425
  7895160
 79
     3
170
     0
171
     0
290
     0
174
     0
 93
        5
 44
0.0
173
     0
291
     0
 45
0.0
  0
VISUALSTYLE
  5
41
102
{ACAD_REACTORS
330
2A
102
}
102
{ACAD_XDICTIONARY
360
195
102
}
330
2A
100
AcDbVisualStyle
  2
Shaded with edges
 70
    26
 71
     2
 72
     2
 73
     1
 90
        2
 40
0.6
 41
30.0
 62
     5
 63
     7
421
 16777215
 74
     1
 91
       10
 64
     7
 65
   257
 75
     2
175
     1
 42
1.0
 92
        8
 66
   257
 43
1.0
 76
     1
 77
     6
 78
     2
 67
     7
 79
     3
170
     0
171
     0
290
     0
174
     0
 93
        5
 44
0.0
173
     0
291
     0
 45
0.0
  0
VISUALSTYLE
  5
3E
102
{ACAD_REACTORS
330
2A
102
}
102
{ACAD_XDICTIONARY
360
18F
102
}
330
2A
100
AcDbVisualStyle
  2
Shades of Gray
 70
    23
 71
     2
 72
     2
 73
     3
 90
        0
 40
0.6
 41
30.0
 62
     5
 63
     7
421
 16777215
 74
     2
 91
        2
 64
     7
 65
     7
 75
     1
175
     1
 42
40.0
 92
        8
 66
     7
 43
1.0
 76
     1
 77
     6
 78
     2
 67
     7
 79
     3
170
     0
171
     0
290
     0
174
     0
 93
        1
 44
0.0
173
     0
291
     0
 45
0.0
  0
VISUALSTYLE
  5
3F
102
{ACAD_REACTORS
330
2A
102
}
102
{ACAD_XDICTIONARY
360
191
102
}
330
2A
100
AcDbVisualStyle
  2
Sketchy
 70
    24
 71
     1
 72
     2
 73
     2
 90
        0
 40
0.6
 41
30.0
 62
     5
 63
     7
421
 16777215
 74
     2
 91
        2
 64
     7
 65
     7
 75
     1
175
     1
 42
40.0
 92
       11
 66
     7
 43
1.0
 76
     1
 77
     6
 78
     2
 67
     7
 79
     6
170
     0
171
     0
290
     0
174
     0
 93
        1
 44
0.0
173
     0
291
     0
 45
0.0
  0
VISUALSTYLE
  5
37
102
{ACAD_REACTORS
330
2A
102
}
102
{ACAD_XDICTIONARY
360
181
102
}
330
2A
100
AcDbVisualStyle
  2
Thicken
 70
    13
 71
     2
 72
     2
 73
     0
 90
        0
 40
0.6
 41
30.0
 62
     5
 63
     7
421
 16777215
 74
     1
 91
        4
 64
     7
 65
   257
 75
     1
175
     1
 42
1.0
 92
       12
 66
     7
 43
1.0
 76
     1
 77
     6
 78
     2
 67
     7
 79
     5
170
     0
171
     0
290
     0
174
     0
 93
        1
 44
0.0
173
     0
291
     1
 45
0.0
  0
VISUALSTYLE
  5
30
102
{ACAD_REACTORS
330
2A
102
}
102
{ACAD_XDICTIONARY
360
173
102
}
330
2A
100
AcDbVisualStyle
  2
Wireframe
 70
     5
 71
     0
 72
     2
 73
     0
 90
        0
 40
0.6
 41
30.0
 62
     5
 63
     7
421
 16777215
 74
     1
 91
        4
 64
     7
 65
   257
 75
     1
175
     1
 42
1.0
 92
        0
 66
   257
 43
1.0
 76
     1
 77
     6
 78
     2
 67
     7
 79
     3
170
     0
171
     0
290
     0
174
     0
 93
        1
 44
0.0
173
     0
291
     0
 45
0.0
  0
VISUALSTYLE
  5
40
102
{ACAD_REACTORS
330
2A
102
}
102
{ACAD_XDICTIONARY
360
193
102
}
330
2A
100
AcDbVisualStyle
  2
X-Ray
 70
    25
 71
     2
 72
     2
 73
     1
 90
        1
 40
0.5
 41
30.0
 62
     5
 63
     7
421
 16777215
 74
     1
 91
        0
 64
     7
 65
   257
 75
     1
175
     1
 42
1.0
 92
        8
 66
     7
 43
1.0
 76
     1
 77
     6
 78
     2
 67
     7
 79
     3
170
     0
171
     0
290
     0
174
     0
 93
       13
 44
0.0
173
     0
291
     0
 45
0.0
  0
DICTIONARYVAR
  5
167
102
{ACAD_REACTORS
330
166
102
}
330
166
100
DictionaryVariables
280
     0
  1
1:1
  0
DICTIONARYVAR
  5
1A3
102
{ACAD_REACTORS
330
166
102
}
330
166
100
DictionaryVariables
280
     0
  1
3.500000
  0
DICTIONARYVAR
  5
1A4
102
{ACAD_REACTORS
330
166
102
}
330
166
100
DictionaryVariables
280
     0
  1
acadiso.lin
  0
DICTIONARYVAR
  5
1A0
102
{ACAD_REACTORS
330
166
102
}
330
166
100
DictionaryVariables
280
     0
  1
Standard
  0
DICTIONARYVAR
  5
19F
102
{ACAD_REACTORS
330
166
102
}
330
166
100
DictionaryVariables
280
     0
  1
Standard
  0
DICTIONARYVAR
  5
168
102
{ACAD_REACTORS
330
166
102
}
330
166
100
DictionaryVariables
280
     0
  1
2
  0
DICTIONARY
  5
19C
330
6C
100
AcDbDictionary
280
     1
281
     1
  3
ACAD_XREC_ROUNDTRIP
360
19D
  0
DICTIONARY
  5
199
330
6A
100
AcDbDictionary
280
     1
281
     1
  3
ACAD_ROUNDTRIP_2008_TABLESTYLE_CELLSTYLEMAP
360
19A
  0
DICTIONARY
  5
171
330
2F
100
AcDbDictionary
280
     1
281
     1
  3
ACAD_XREC_ROUNDTRIP
360
172
  0
DICTIONARY
  5
177
330
32
100
AcDbDictionary
280
     1
281
     1
  3
ACAD_XREC_ROUNDTRIP
360
178
  0
DICTIONARY
  5
17F
330
36
100
AcDbDictionary
280
     1
281
     1
  3
ACAD_XREC_ROUNDTRIP
360
180
  0
DICTIONARY
  5
187
330
3A
100
AcDbDictionary
280
     1
281
     1
  3
ACAD_XREC_ROUNDTRIP
360
188
  0
DICTIONARY
  5
17B
330
34
100
AcDbDictionary
280
     1
281
     1
  3
ACAD_XREC_ROUNDTRIP
360
17C
  0
DICTIONARY
  5
17D
330
35
100
AcDbDictionary
280
     1
281
     1
  3
ACAD_XREC_ROUNDTRIP
360
17E
  0
DICTIONARY
  5
18D
330
3D
100
AcDbDictionary
280
     1
281
     1
  3
ACAD_XREC_ROUNDTRIP
360
18E
  0
DICTIONARY
  5
185
330
39
100
AcDbDictionary
280
     1
281
     1
  3
ACAD_XREC_ROUNDTRIP
360
186
  0
DICTIONARY
  5
169
330
2B
100
AcDbDictionary
280
     1
281
     1
  3
ACAD_XREC_ROUNDTRIP
360
16A
  0
DICTIONARY
  5
16B
330
2C
100
AcDbDictionary
280
     1
281
     1
  3
ACAD_XREC_ROUNDTRIP
360
16C
  0
DICTIONARY
  5
16D
330
2D
100
AcDbDictionary
280
     1
281
     1
  3
ACAD_XREC_ROUNDTRIP
360
16E
  0
DICTIONARY
  5
16F
330
2E
100
AcDbDictionary
280
     1
281
     1
  3
ACAD_XREC_ROUNDTRIP
360
170
  0
DICTIONARY
  5
175
330
31
100
AcDbDictionary
280
     1
281
     1
  3
ACAD_XREC_ROUNDTRIP
360
176
  0
DICTIONARY
  5
189
330
3B
100
AcDbDictionary
280
     1
281
     1
  3
ACAD_XREC_ROUNDTRIP
360
18A
  0
DICTIONARY
  5
183
330
38
100
AcDbDictionary
280
     1
281
     1
  3
ACAD_XREC_ROUNDTRIP
360
184
  0
DICTIONARY
  5
18B
330
3C
100
AcDbDictionary
280
     1
281
     1
  3
ACAD_XREC_ROUNDTRIP
360
18C
  0
DICTIONARY
  5
179
330
33
100
AcDbDictionary
280
     1
281
     1
  3
ACAD_XREC_ROUNDTRIP
360
17A
  0
DICTIONARY
  5
197
330
42
100
AcDbDictionary
280
     1
281
     1
  3
ACAD_XREC_ROUNDTRIP
360
198
  0
DICTIONARY
  5
195
330
41
100
AcDbDictionary
280
     1
281
     1
  3
ACAD_XREC_ROUNDTRIP
360
196
  0
DICTIONARY
  5
18F
330
3E
100
AcDbDictionary
280
     1
281
     1
  3
ACAD_XREC_ROUNDTRIP
360
190
  0
DICTIONARY
  5
191
330
3F
100
AcDbDictionary
280
     1
281
     1
  3
ACAD_XREC_ROUNDTRIP
360
192
  0
DICTIONARY
  5
181
330
37
100
AcDbDictionary
280
     1
281
     1
  3
ACAD_XREC_ROUNDTRIP
360
182
  0
DICTIONARY
  5
173
330
30
100
AcDbDictionary
280
     1
281
     1
  3
ACAD_XREC_ROUNDTRIP
360
174
  0
DICTIONARY
  5
193
330
40
100
AcDbDictionary
280
     1
281
     1
  3
ACAD_XREC_ROUNDTRIP
360
194
  0
XRECORD
  5
19D
102
{ACAD_REACTORS
330
19C
102
}
330
19C
100
AcDbXrecord
280
     1
102
ACAD_ROUNDTRIP_2010_MLEADER_STYLE
  0
CELLSTYLEMAP
  5
19A
102
{ACAD_REACTORS
330
199
102
}
330
199
100
AcDbCellStyleMap
 90
        3
300
CELLSTYLE
  1
TABLEFORMAT_BEGIN
 90
        5
170
     1
 91
        0
 92
    32768
 62
   257
 93
        1
300
CONTENTFORMAT
  1
CONTENTFORMAT_BEGIN
 90
        0
 91
        0
 92
        4
 93
        0
300

 40
0.0
140
1.0
 94
        5
 62
     0
340
11
144
6.0
309
CONTENTFORMAT_END
171
     1
301
MARGIN
  1
CELLMARGIN_BEGIN
 40
1.5
 40
1.5
 40
1.5
 40
1.5
 40
1.5
 40
1.5
309
CELLMARGIN_END
 94
        6
 95
        1
302
GRIDFORMAT
  1
GRIDFORMAT_BEGIN
 90
        0
 91
        1
 62
     0
 92
       -2
340
14
 93
        0
 40
0.045
309
GRIDFORMAT_END
 95
        2
302
GRIDFORMAT
  1
GRIDFORMAT_BEGIN
 90
        0
 91
        1
 62
     0
 92
       -2
340
14
 93
        0
 40
0.045
309
GRIDFORMAT_END
 95
        4
302
GRIDFORMAT
  1
GRIDFORMAT_BEGIN
 90
        0
 91
        1
 62
     0
 92
       -2
340
14
 93
        0
 40
0.045
309
GRIDFORMAT_END
 95
        8
302
GRIDFORMAT
  1
GRIDFORMAT_BEGIN
 90
        0
 91
        1
 62
     0
 92
       -2
340
14
 93
        0
 40
0.045
309
GRIDFORMAT_END
 95
       16
302
GRIDFORMAT
  1
GRIDFORMAT_BEGIN
 90
        0
 91
        1
 62
     0
 92
       -2
340
14
 93
        0
 40
0.045
309
GRIDFORMAT_END
 95
       32
302
GRIDFORMAT
  1
GRIDFORMAT_BEGIN
 90
        0
 91
        1
 62
     0
 92
       -2
340
14
 93
        0
 40
0.045
309
GRIDFORMAT_END
309
TABLEFORMAT_END
  1
CELLSTYLE_BEGIN
 90
        1
 91
        1
300
_TITLE
309
CELLSTYLE_END
300
CELLSTYLE
  1
TABLEFORMAT_BEGIN
 90
        5
170
     1
 91
        0
 92
        0
 62
   257
 93
        1
300
CONTENTFORMAT
  1
CONTENTFORMAT_BEGIN
 90
        0
 91
        0
 92
        4
 93
        0
300

 40
0.0
140
1.0
 94
        5
 62
     0
340
11
144
4.5
309
CONTENTFORMAT_END
171
     1
301
MARGIN
  1
CELLMARGIN_BEGIN
 40
1.5
 40
1.5
 40
1.5
 40
1.5
 40
1.5
 40
1.5
309
CELLMARGIN_END
 94
        6
 95
        1
302
GRIDFORMAT
  1
GRIDFORMAT_BEGIN
 90
        0
 91
        1
 62
     0
 92
       -2
340
14
 93
        0
 40
0.045
309
GRIDFORMAT_END
 95
        2
302
GRIDFORMAT
  1
GRIDFORMAT_BEGIN
 90
        0
 91
        1
 62
     0
 92
       -2
340
14
 93
        0
 40
0.045
309
GRIDFORMAT_END
 95
        4
302
GRIDFORMAT
  1
GRIDFORMAT_BEGIN
 90
        0
 91
        1
 62
     0
 92
       -2
340
14
 93
        0
 40
0.045
309
GRIDFORMAT_END
 95
        8
302
GRIDFORMAT
  1
GRIDFORMAT_BEGIN
 90
        0
 91
        1
 62
     0
 92
       -2
340
14
 93
        0
 40
0.045
309
GRIDFORMAT_END
 95
       16
302
GRIDFORMAT
  1
GRIDFORMAT_BEGIN
 90
        0
 91
        1
 62
     0
 92
       -2
340
14
 93
        0
 40
0.045
309
GRIDFORMAT_END
 95
       32
302
GRIDFORMAT
  1
GRIDFORMAT_BEGIN
 90
        0
 91
        1
 62
     0
 92
       -2
340
14
 93
        0
 40
0.045
309
GRIDFORMAT_END
309
TABLEFORMAT_END
  1
CELLSTYLE_BEGIN
 90
        2
 91
        1
300
_HEADER
309
CELLSTYLE_END
300
CELLSTYLE
  1
TABLEFORMAT_BEGIN
 90
        5
170
     1
 91
        0
 92
        0
 62
   257
 93
        1
300
CONTENTFORMAT
  1
CONTENTFORMAT_BEGIN
 90
        0
 91
        0
 92
        4
 93
        0
300

 40
0.0
140
1.0
 94
        2
 62
     0
340
11
144
4.5
309
CONTENTFORMAT_END
171
     1
301
MARGIN
  1
CELLMARGIN_BEGIN
 40
1.5
 40
1.5
 40
1.5
 40
1.5
 40
1.5
 40
1.5
309
CELLMARGIN_END
 94
        6
 95
        1
302
GRIDFORMAT
  1
GRIDFORMAT_BEGIN
 90
        0
 91
        1
 62
     0
 92
       -2
340
14
 93
        0
 40
0.045
309
GRIDFORMAT_END
 95
        2
302
GRIDFORMAT
  1
GRIDFORMAT_BEGIN
 90
        0
 91
        1
 62
     0
 92
       -2
340
14
 93
        0
 40
0.045
309
GRIDFORMAT_END
 95
        4
302
GRIDFORMAT
  1
GRIDFORMAT_BEGIN
 90
        0
 91
        1
 62
     0
 92
       -2
340
14
 93
        0
 40
0.045
309
GRIDFORMAT_END
 95
        8
302
GRIDFORMAT
  1
GRIDFORMAT_BEGIN
 90
        0
 91
        1
 62
     0
 92
       -2
340
14
 93
        0
 40
0.045
309
GRIDFORMAT_END
 95
       16
302
GRIDFORMAT
  1
GRIDFORMAT_BEGIN
 90
        0
 91
        1
 62
     0
 92
       -2
340
14
 93
        0
 40
0.045
309
GRIDFORMAT_END
 95
       32
302
GRIDFORMAT
  1
GRIDFORMAT_BEGIN
 90
        0
 91
        1
 62
     0
 92
       -2
340
14
 93
        0
 40
0.045
309
GRIDFORMAT_END
309
TABLEFORMAT_END
  1
CELLSTYLE_BEGIN
 90
        3
 91
        2
300
_DATA
309
CELLSTYLE_END
  0
XRECORD
  5
172
102
{ACAD_REACTORS
330
171
102
}
330
171
100
AcDbXrecord
280
     1
102
RTVSPropertyOp0
 70
     1
102
RTVSPropertyOp1
 70
     1
102
RTVSPropertyOp2
 70
     1
102
RTVSPropertyOp3
 70
     1
102
RTVSPropertyOp4
 70
     1
102
RTVSPropertyOp5
 70
     1
102
RTVSPropertyOp6
 70
     1
102
RTVSPropertyOp7
 70
     1
102
RTVSPropertyOp8
 70
     1
102
RTVSPropertyOp9
 70
     1
102
RTVSPropertyOp10
 70
     1
102
RTVSPropertyOp11
 70
     1
102
RTVSPropertyOp12
 70
     1
102
RTVSPropertyOp13
 70
     1
102
RTVSPropertyOp14
 70
     1
102
RTVSPropertyOp15
 70
     1
102
RTVSPropertyOp16
 70
     1
102
RTVSPropertyOp17
 70
     1
102
RTVSPropertyOp18
 70
     1
102
RTVSPropertyOp19
 70
     1
102
RTVSPropertyOp20
 70
     1
102
RTVSPropertyOp21
 70
     1
102
RTVSPropertyOp22
 70
     1
102
RTVSPropertyOp23
 70
     1
102
RTVSPropertyOp24
 70
     1
102
RTVSPropertyOp25
 70
     1
102
RTVSPropertyOp26
 70
     1
102
RTVSPropertyOp27
 70
     1
102
RTVSPropertyOp28
 70
     1
102
RTVSPropertyOp29
 70
     1
102
RTVSPropertyOp30
 70
     1
102
RTVSPropertyOp31
 70
     1
102
RTVSPropertyOp32
 70
     1
102
RTVSPropertyOp33
 70
     1
102
RTVSPropertyOp34
 70
     1
102
RTVSPropertyOp35
 70
     1
102
RTVSPropertyOp36
 70
     1
102
RTVSPropertyOp37
 70
     1
102
RTVSPropertyOp38
 70
     1
102
RTVSPropertyOp39
 70
     1
102
RTVSPropertyOp40
 70
     1
102
RTVSPropertyOp41
 70
     1
102
RTVSPropertyOp42
 70
     1
102
RTVSPropertyOp43
 70
     1
102
RTVSPropertyOp44
 70
     1
102
RTVSPropertyOp45
 70
     1
102
RTVSPropertyOp46
 70
     1
102
RTVSPropertyOp47
 70
     1
102
RTVSPropertyOp48
 70
     1
102
RTVSPropertyOp49
 70
     1
102
RTVSPropertyOp50
 70
     1
102
RTVSPropertyOp51
 70
     0
102
RTVSPropertyOp52
 70
     0
102
RTVSPropertyOp53
 70
     1
102
RTVSPropertyOp54
 70
     1
102
RTVSPropertyOp55
 70
     1
102
RTVSPropertyOp56
 70
     1
102
RTVSPropertyOp57
 70
     1
102
RTVSPost2010Prop28
280
     1
102
RTVSPost2010PropOp28
 70
     1
102
RTVSPost2010Prop29
280
     1
102
RTVSPost2010PropOp29
 70
     1
102
RTVSPost2010Prop30
280
     0
102
RTVSPost2010PropOp30
 70
     1
102
RTVSPost2010Prop31
280
     0
102
RTVSPost2010PropOp31
 70
     1
102
RTVSPost2010Prop32
280
     0
102
RTVSPost2010PropOp32
 70
     1
102
RTVSPost2010Prop33
280
     0
102
RTVSPost2010PropOp33
 70
     1
102
RTVSPost2010Prop34
280
     0
102
RTVSPost2010PropOp34
 70
     1
102
RTVSPost2010Prop35
280
     0
102
RTVSPost2010PropOp35
 70
     1
102
RTVSPost2010Prop36
280
     0
102
RTVSPost2010PropOp36
 70
     1
102
RTVSPost2010Prop37
 90
       50
102
RTVSPost2010PropOp37
 70
     1
102
RTVSPost2010Prop38
140
0.0
102
RTVSPost2010PropOp38
 70
     1
102
RTVSPost2010Prop39
140
1.0
102
RTVSPost2010PropOp39
 70
     1
102
RTVSPost2010Prop40
 90
        0
102
RTVSPost2010PropOp40
 70
     1
102
RTVSPost2010Prop41ColorIndex
 90
       18
102
RTVSPost2010Prop41ColorRGB
 90
        0
102
RTVSPost2010PropOp41
 70
     1
102
RTVSPost2010Prop42
 90
       50
102
RTVSPost2010PropOp42
 70
     1
102
RTVSPost2010Prop43
 90
        3
102
RTVSPost2010PropOp43
 70
     1
102
RTVSPost2010Prop44ColorIndex
 90
        5
102
RTVSPost2010Prop44ColorRGB
 90
      255
102
RTVSPost2010PropOp44
 70
     1
102
RTVSPost2010Prop45
280
     0
102
RTVSPost2010PropOp45
 70
     1
102
RTVSPost2010Prop46
 90
       50
102
RTVSPost2010PropOp46
 70
     1
102
RTVSPost2010Prop47
 90
       50
102
RTVSPost2010PropOp47
 70
     1
102
RTVSPost2010Prop48
 90
       50
102
RTVSPost2010PropOp48
 70
     1
102
RTVSPost2010Prop49
280
     0
102
RTVSPost2010PropOp49
 70
     1
102
RTVSPost2010Prop50
 90
       50
102
RTVSPost2010PropOp50
 70
     1
102
RTVSPost2010Prop51ColorIndex
 90
      256
102
RTVSPost2010Prop51ColorRGB
 90
-16777216
102
RTVSPost2010PropOp51
 70
     0
102
RTVSPost2010Prop52
140
1.0
102
RTVSPost2010PropOp52
 70
     0
102
RTVSPost2010Prop53
 90
        2
102
RTVSPost2010PropOp53
 70
     1
102
RTVSPost2010Prop54
  1
strokes_ogs.tif
102
RTVSPost2010PropOp54
 70
     1
102
RTVSPost2010Prop55
280
     0
102
RTVSPost2010PropOp55
 70
     1
102
RTVSPost2010Prop56
140
1.0
102
RTVSPost2010PropOp56
 70
     1
102
RTVSPost2010Prop57
140
1.0
102
RTVSPost2010PropOp57
 70
     1
  0
XRECORD
  5
178
102
{ACAD_REACTORS
330
177
102
}
330
177
100
AcDbXrecord
280
     1
102
RTVSPropertyOp0
 70
     1
102
RTVSPropertyOp1
 70
     1
102
RTVSPropertyOp2
 70
     1
102
RTVSPropertyOp3
 70
     1
102
RTVSPropertyOp4
 70
     1
102
RTVSPropertyOp5
 70
     1
102
RTVSPropertyOp6
 70
     1
102
RTVSPropertyOp7
 70
     1
102
RTVSPropertyOp8
 70
     1
102
RTVSPropertyOp9
 70
     1
102
RTVSPropertyOp10
 70
     1
102
RTVSPropertyOp11
 70
     1
102
RTVSPropertyOp12
 70
     1
102
RTVSPropertyOp13
 70
     1
102
RTVSPropertyOp14
 70
     1
102
RTVSPropertyOp15
 70
     1
102
RTVSPropertyOp16
 70
     1
102
RTVSPropertyOp17
 70
     1
102
RTVSPropertyOp18
 70
     1
102
RTVSPropertyOp19
 70
     1
102
RTVSPropertyOp20
 70
     1
102
RTVSPropertyOp21
 70
     1
102
RTVSPropertyOp22
 70
     1
102
RTVSPropertyOp23
 70
     1
102
RTVSPropertyOp24
 70
     1
102
RTVSPropertyOp25
 70
     1
102
RTVSPropertyOp26
 70
     1
102
RTVSPropertyOp27
 70
     1
102
RTVSPropertyOp28
 70
     1
102
RTVSPropertyOp29
 70
     1
102
RTVSPropertyOp30
 70
     1
102
RTVSPropertyOp31
 70
     1
102
RTVSPropertyOp32
 70
     1
102
RTVSPropertyOp33
 70
     1
102
RTVSPropertyOp34
 70
     1
102
RTVSPropertyOp35
 70
     1
102
RTVSPropertyOp36
 70
     1
102
RTVSPropertyOp37
 70
     1
102
RTVSPropertyOp38
 70
     1
102
RTVSPropertyOp39
 70
     1
102
RTVSPropertyOp40
 70
     1
102
RTVSPropertyOp41
 70
     1
102
RTVSPropertyOp42
 70
     1
102
RTVSPropertyOp43
 70
     1
102
RTVSPropertyOp44
 70
     1
102
RTVSPropertyOp45
 70
     1
102
RTVSPropertyOp46
 70
     1
102
RTVSPropertyOp47
 70
     1
102
RTVSPropertyOp48
 70
     1
102
RTVSPropertyOp49
 70
     1
102
RTVSPropertyOp50
 70
     1
102
RTVSPropertyOp51
 70
     0
102
RTVSPropertyOp52
 70
     0
102
RTVSPropertyOp53
 70
     1
102
RTVSPropertyOp54
 70
     1
102
RTVSPropertyOp55
 70
     1
102
RTVSPropertyOp56
 70
     1
102
RTVSPropertyOp57
 70
     1
102
RTVSPost2010Prop28
280
     0
102
RTVSPost2010PropOp28
 70
     1
102
RTVSPost2010Prop29
280
     1
102
RTVSPost2010PropOp29
 70
     1
102
RTVSPost2010Prop30
280
     1
102
RTVSPost2010PropOp30
 70
     1
102
RTVSPost2010Prop31
280
     0
102
RTVSPost2010PropOp31
 70
     1
102
RTVSPost2010Prop32
280
     0
102
RTVSPost2010PropOp32
 70
     1
102
RTVSPost2010Prop33
280
     0
102
RTVSPost2010PropOp33
 70
     1
102
RTVSPost2010Prop34
280
     0
102
RTVSPost2010PropOp34
 70
     1
102
RTVSPost2010Prop35
280
     0
102
RTVSPost2010PropOp35
 70
     1
102
RTVSPost2010Prop36
280
     0
102
RTVSPost2010PropOp36
 70
     1
102
RTVSPost2010Prop37
 90
       50
102
RTVSPost2010PropOp37
 70
     1
102
RTVSPost2010Prop38
140
0.0
102
RTVSPost2010PropOp38
 70
     1
102
RTVSPost2010Prop39
140
1.0
102
RTVSPost2010PropOp39
 70
     1
102
RTVSPost2010Prop40
 90
        0
102
RTVSPost2010PropOp40
 70
     1
102
RTVSPost2010Prop41ColorIndex
 90
       18
102
RTVSPost2010Prop41ColorRGB
 90
        0
102
RTVSPost2010PropOp41
 70
     1
102
RTVSPost2010Prop42
 90
       50
102
RTVSPost2010PropOp42
 70
     1
102
RTVSPost2010Prop43
 90
        3
102
RTVSPost2010PropOp43
 70
     1
102
RTVSPost2010Prop44ColorIndex
 90
        5
102
RTVSPost2010Prop44ColorRGB
 90
      255
102
RTVSPost2010PropOp44
 70
     1
102
RTVSPost2010Prop45
280
     0
102
RTVSPost2010PropOp45
 70
     1
102
RTVSPost2010Prop46
 90
       50
102
RTVSPost2010PropOp46
 70
     1
102
RTVSPost2010Prop47
 90
       50
102
RTVSPost2010PropOp47
 70
     1
102
RTVSPost2010Prop48
 90
       50
102
RTVSPost2010PropOp48
 70
     1
102
RTVSPost2010Prop49
280
     0
102
RTVSPost2010PropOp49
 70
     1
102
RTVSPost2010Prop50
 90
       50
102
RTVSPost2010PropOp50
 70
     1
102
RTVSPost2010Prop51ColorIndex
 90
      256
102
RTVSPost2010Prop51ColorRGB
 90
-16777216
102
RTVSPost2010PropOp51
 70
     0
102
RTVSPost2010Prop52
140
1.0
102
RTVSPost2010PropOp52
 70
     0
102
RTVSPost2010Prop53
 90
        2
102
RTVSPost2010PropOp53
 70
     1
102
RTVSPost2010Prop54
  1
strokes_ogs.tif
102
RTVSPost2010PropOp54
 70
     1
102
RTVSPost2010Prop55
280
     0
102
RTVSPost2010PropOp55
 70
     1
102
RTVSPost2010Prop56
140
1.0
102
RTVSPost2010PropOp56
 70
     1
102
RTVSPost2010Prop57
140
1.0
102
RTVSPost2010PropOp57
 70
     1
  0
XRECORD
  5
180
102
{ACAD_REACTORS
330
17F
102
}
330
17F
100
AcDbXrecord
280
     1
102
RTVSPropertyOp0
 70
     1
102
RTVSPropertyOp1
 70
     1
102
RTVSPropertyOp2
 70
     1
102
RTVSPropertyOp3
 70
     1
102
RTVSPropertyOp4
 70
     1
102
RTVSPropertyOp5
 70
     1
102
RTVSPropertyOp6
 70
     1
102
RTVSPropertyOp7
 70
     1
102
RTVSPropertyOp8
 70
     1
102
RTVSPropertyOp9
 70
     1
102
RTVSPropertyOp10
 70
     1
102
RTVSPropertyOp11
 70
     1
102
RTVSPropertyOp12
 70
     1
102
RTVSPropertyOp13
 70
     1
102
RTVSPropertyOp14
 70
     1
102
RTVSPropertyOp15
 70
     1
102
RTVSPropertyOp16
 70
     1
102
RTVSPropertyOp17
 70
     1
102
RTVSPropertyOp18
 70
     1
102
RTVSPropertyOp19
 70
     1
102
RTVSPropertyOp20
 70
     1
102
RTVSPropertyOp21
 70
     1
102
RTVSPropertyOp22
 70
     1
102
RTVSPropertyOp23
 70
     1
102
RTVSPropertyOp24
 70
     1
102
RTVSPropertyOp25
 70
     1
102
RTVSPropertyOp26
 70
     1
102
RTVSPropertyOp27
 70
     1
102
RTVSPropertyOp28
 70
     1
102
RTVSPropertyOp29
 70
     1
102
RTVSPropertyOp30
 70
     1
102
RTVSPropertyOp31
 70
     1
102
RTVSPropertyOp32
 70
     1
102
RTVSPropertyOp33
 70
     1
102
RTVSPropertyOp34
 70
     1
102
RTVSPropertyOp35
 70
     1
102
RTVSPropertyOp36
 70
     1
102
RTVSPropertyOp37
 70
     1
102
RTVSPropertyOp38
 70
     1
102
RTVSPropertyOp39
 70
     1
102
RTVSPropertyOp40
 70
     1
102
RTVSPropertyOp41
 70
     1
102
RTVSPropertyOp42
 70
     1
102
RTVSPropertyOp43
 70
     1
102
RTVSPropertyOp44
 70
     1
102
RTVSPropertyOp45
 70
     1
102
RTVSPropertyOp46
 70
     1
102
RTVSPropertyOp47
 70
     1
102
RTVSPropertyOp48
 70
     1
102
RTVSPropertyOp49
 70
     1
102
RTVSPropertyOp50
 70
     1
102
RTVSPropertyOp51
 70
     0
102
RTVSPropertyOp52
 70
     0
102
RTVSPropertyOp53
 70
     1
102
RTVSPropertyOp54
 70
     1
102
RTVSPropertyOp55
 70
     1
102
RTVSPropertyOp56
 70
     1
102
RTVSPropertyOp57
 70
     1
102
RTVSPost2010Prop28
280
     0
102
RTVSPost2010PropOp28
 70
     1
102
RTVSPost2010Prop29
280
     1
102
RTVSPost2010PropOp29
 70
     1
102
RTVSPost2010Prop30
280
     1
102
RTVSPost2010PropOp30
 70
     1
102
RTVSPost2010Prop31
280
     0
102
RTVSPost2010PropOp31
 70
     1
102
RTVSPost2010Prop32
280
     0
102
RTVSPost2010PropOp32
 70
     1
102
RTVSPost2010Prop33
280
     0
102
RTVSPost2010PropOp33
 70
     1
102
RTVSPost2010Prop34
280
     0
102
RTVSPost2010PropOp34
 70
     1
102
RTVSPost2010Prop35
280
     0
102
RTVSPost2010PropOp35
 70
     1
102
RTVSPost2010Prop36
280
     0
102
RTVSPost2010PropOp36
 70
     1
102
RTVSPost2010Prop37
 90
       50
102
RTVSPost2010PropOp37
 70
     1
102
RTVSPost2010Prop38
140
0.0
102
RTVSPost2010PropOp38
 70
     1
102
RTVSPost2010Prop39
140
1.0
102
RTVSPost2010PropOp39
 70
     1
102
RTVSPost2010Prop40
 90
        0
102
RTVSPost2010PropOp40
 70
     1
102
RTVSPost2010Prop41ColorIndex
 90
       18
102
RTVSPost2010Prop41ColorRGB
 90
        0
102
RTVSPost2010PropOp41
 70
     1
102
RTVSPost2010Prop42
 90
       50
102
RTVSPost2010PropOp42
 70
     1
102
RTVSPost2010Prop43
 90
        3
102
RTVSPost2010PropOp43
 70
     1
102
RTVSPost2010Prop44ColorIndex
 90
        5
102
RTVSPost2010Prop44ColorRGB
 90
      255
102
RTVSPost2010PropOp44
 70
     1
102
RTVSPost2010Prop45
280
     0
102
RTVSPost2010PropOp45
 70
     1
102
RTVSPost2010Prop46
 90
       50
102
RTVSPost2010PropOp46
 70
     1
102
RTVSPost2010Prop47
 90
       50
102
RTVSPost2010PropOp47
 70
     1
102
RTVSPost2010Prop48
 90
       50
102
RTVSPost2010PropOp48
 70
     1
102
RTVSPost2010Prop49
280
     0
102
RTVSPost2010PropOp49
 70
     1
102
RTVSPost2010Prop50
 90
       50
102
RTVSPost2010PropOp50
 70
     1
102
RTVSPost2010Prop51ColorIndex
 90
      256
102
RTVSPost2010Prop51ColorRGB
 90
-16777216
102
RTVSPost2010PropOp51
 70
     0
102
RTVSPost2010Prop52
140
1.0
102
RTVSPost2010PropOp52
 70
     0
102
RTVSPost2010Prop53
 90
        2
102
RTVSPost2010PropOp53
 70
     1
102
RTVSPost2010Prop54
  1
strokes_ogs.tif
102
RTVSPost2010PropOp54
 70
     1
102
RTVSPost2010Prop55
280
     0
102
RTVSPost2010PropOp55
 70
     1
102
RTVSPost2010Prop56
140
1.0
102
RTVSPost2010PropOp56
 70
     1
102
RTVSPost2010Prop57
140
1.0
102
RTVSPost2010PropOp57
 70
     1
  0
XRECORD
  5
188
102
{ACAD_REACTORS
330
187
102
}
330
187
100
AcDbXrecord
280
     1
102
RTVSPropertyOp0
 70
     1
102
RTVSPropertyOp1
 70
     1
102
RTVSPropertyOp2
 70
     1
102
RTVSPropertyOp3
 70
     1
102
RTVSPropertyOp4
 70
     1
102
RTVSPropertyOp5
 70
     1
102
RTVSPropertyOp6
 70
     1
102
RTVSPropertyOp7
 70
     1
102
RTVSPropertyOp8
 70
     1
102
RTVSPropertyOp9
 70
     1
102
RTVSPropertyOp10
 70
     1
102
RTVSPropertyOp11
 70
     1
102
RTVSPropertyOp12
 70
     1
102
RTVSPropertyOp13
 70
     1
102
RTVSPropertyOp14
 70
     1
102
RTVSPropertyOp15
 70
     1
102
RTVSPropertyOp16
 70
     1
102
RTVSPropertyOp17
 70
     1
102
RTVSPropertyOp18
 70
     1
102
RTVSPropertyOp19
 70
     1
102
RTVSPropertyOp20
 70
     1
102
RTVSPropertyOp21
 70
     1
102
RTVSPropertyOp22
 70
     1
102
RTVSPropertyOp23
 70
     1
102
RTVSPropertyOp24
 70
     1
102
RTVSPropertyOp25
 70
     1
102
RTVSPropertyOp26
 70
     1
102
RTVSPropertyOp27
 70
     1
102
RTVSPropertyOp28
 70
     1
102
RTVSPropertyOp29
 70
     1
102
RTVSPropertyOp30
 70
     1
102
RTVSPropertyOp31
 70
     1
102
RTVSPropertyOp32
 70
     1
102
RTVSPropertyOp33
 70
     1
102
RTVSPropertyOp34
 70
     1
102
RTVSPropertyOp35
 70
     1
102
RTVSPropertyOp36
 70
     1
102
RTVSPropertyOp37
 70
     1
102
RTVSPropertyOp38
 70
     1
102
RTVSPropertyOp39
 70
     1
102
RTVSPropertyOp40
 70
     1
102
RTVSPropertyOp41
 70
     1
102
RTVSPropertyOp42
 70
     1
102
RTVSPropertyOp43
 70
     1
102
RTVSPropertyOp44
 70
     1
102
RTVSPropertyOp45
 70
     1
102
RTVSPropertyOp46
 70
     1
102
RTVSPropertyOp47
 70
     1
102
RTVSPropertyOp48
 70
     1
102
RTVSPropertyOp49
 70
     1
102
RTVSPropertyOp50
 70
     1
102
RTVSPropertyOp51
 70
     0
102
RTVSPropertyOp52
 70
     0
102
RTVSPropertyOp53
 70
     1
102
RTVSPropertyOp54
 70
     1
102
RTVSPropertyOp55
 70
     1
102
RTVSPropertyOp56
 70
     1
102
RTVSPropertyOp57
 70
     1
102
RTVSPost2010Prop28
280
     0
102
RTVSPost2010PropOp28
 70
     1
102
RTVSPost2010Prop29
280
     1
102
RTVSPost2010PropOp29
 70
     1
102
RTVSPost2010Prop30
280
     1
102
RTVSPost2010PropOp30
 70
     1
102
RTVSPost2010Prop31
280
     0
102
RTVSPost2010PropOp31
 70
     1
102
RTVSPost2010Prop32
280
     0
102
RTVSPost2010PropOp32
 70
     1
102
RTVSPost2010Prop33
280
     0
102
RTVSPost2010PropOp33
 70
     1
102
RTVSPost2010Prop34
280
     0
102
RTVSPost2010PropOp34
 70
     1
102
RTVSPost2010Prop35
280
     0
102
RTVSPost2010PropOp35
 70
     1
102
RTVSPost2010Prop36
280
     0
102
RTVSPost2010PropOp36
 70
     1
102
RTVSPost2010Prop37
 90
       50
102
RTVSPost2010PropOp37
 70
     1
102
RTVSPost2010Prop38
140
0.0
102
RTVSPost2010PropOp38
 70
     1
102
RTVSPost2010Prop39
140
1.0
102
RTVSPost2010PropOp39
 70
     1
102
RTVSPost2010Prop40
 90
        0
102
RTVSPost2010PropOp40
 70
     1
102
RTVSPost2010Prop41ColorIndex
 90
       18
102
RTVSPost2010Prop41ColorRGB
 90
        0
102
RTVSPost2010PropOp41
 70
     1
102
RTVSPost2010Prop42
 90
       50
102
RTVSPost2010PropOp42
 70
     1
102
RTVSPost2010Prop43
 90
        3
102
RTVSPost2010PropOp43
 70
     1
102
RTVSPost2010Prop44ColorIndex
 90
        5
102
RTVSPost2010Prop44ColorRGB
 90
      255
102
RTVSPost2010PropOp44
 70
     1
102
RTVSPost2010Prop45
280
     0
102
RTVSPost2010PropOp45
 70
     1
102
RTVSPost2010Prop46
 90
       50
102
RTVSPost2010PropOp46
 70
     1
102
RTVSPost2010Prop47
 90
       50
102
RTVSPost2010PropOp47
 70
     1
102
RTVSPost2010Prop48
 90
       50
102
RTVSPost2010PropOp48
 70
     1
102
RTVSPost2010Prop49
280
     0
102
RTVSPost2010PropOp49
 70
     1
102
RTVSPost2010Prop50
 90
       50
102
RTVSPost2010PropOp50
 70
     1
102
RTVSPost2010Prop51ColorIndex
 90
      256
102
RTVSPost2010Prop51ColorRGB
 90
-16777216
102
RTVSPost2010PropOp51
 70
     0
102
RTVSPost2010Prop52
140
1.0
102
RTVSPost2010PropOp52
 70
     0
102
RTVSPost2010Prop53
 90
        2
102
RTVSPost2010PropOp53
 70
     1
102
RTVSPost2010Prop54
  1
strokes_ogs.tif
102
RTVSPost2010PropOp54
 70
     1
102
RTVSPost2010Prop55
280
     0
102
RTVSPost2010PropOp55
 70
     1
102
RTVSPost2010Prop56
140
1.0
102
RTVSPost2010PropOp56
 70
     1
102
RTVSPost2010Prop57
140
1.0
102
RTVSPost2010PropOp57
 70
     1
  0
XRECORD
  5
17C
102
{ACAD_REACTORS
330
17B
102
}
330
17B
100
AcDbXrecord
280
     1
102
RTVSPropertyOp0
 70
     1
102
RTVSPropertyOp1
 70
     1
102
RTVSPropertyOp2
 70
     1
102
RTVSPropertyOp3
 70
     1
102
RTVSPropertyOp4
 70
     1
102
RTVSPropertyOp5
 70
     1
102
RTVSPropertyOp6
 70
     1
102
RTVSPropertyOp7
 70
     1
102
RTVSPropertyOp8
 70
     1
102
RTVSPropertyOp9
 70
     1
102
RTVSPropertyOp10
 70
     1
102
RTVSPropertyOp11
 70
     1
102
RTVSPropertyOp12
 70
     1
102
RTVSPropertyOp13
 70
     1
102
RTVSPropertyOp14
 70
     1
102
RTVSPropertyOp15
 70
     1
102
RTVSPropertyOp16
 70
     1
102
RTVSPropertyOp17
 70
     1
102
RTVSPropertyOp18
 70
     1
102
RTVSPropertyOp19
 70
     1
102
RTVSPropertyOp20
 70
     1
102
RTVSPropertyOp21
 70
     1
102
RTVSPropertyOp22
 70
     1
102
RTVSPropertyOp23
 70
     1
102
RTVSPropertyOp24
 70
     1
102
RTVSPropertyOp25
 70
     1
102
RTVSPropertyOp26
 70
     1
102
RTVSPropertyOp27
 70
     1
102
RTVSPropertyOp28
 70
     1
102
RTVSPropertyOp29
 70
     1
102
RTVSPropertyOp30
 70
     1
102
RTVSPropertyOp31
 70
     1
102
RTVSPropertyOp32
 70
     1
102
RTVSPropertyOp33
 70
     1
102
RTVSPropertyOp34
 70
     1
102
RTVSPropertyOp35
 70
     1
102
RTVSPropertyOp36
 70
     1
102
RTVSPropertyOp37
 70
     1
102
RTVSPropertyOp38
 70
     1
102
RTVSPropertyOp39
 70
     1
102
RTVSPropertyOp40
 70
     1
102
RTVSPropertyOp41
 70
     1
102
RTVSPropertyOp42
 70
     1
102
RTVSPropertyOp43
 70
     1
102
RTVSPropertyOp44
 70
     1
102
RTVSPropertyOp45
 70
     1
102
RTVSPropertyOp46
 70
     1
102
RTVSPropertyOp47
 70
     1
102
RTVSPropertyOp48
 70
     1
102
RTVSPropertyOp49
 70
     1
102
RTVSPropertyOp50
 70
     1
102
RTVSPropertyOp51
 70
     0
102
RTVSPropertyOp52
 70
     0
102
RTVSPropertyOp53
 70
     1
102
RTVSPropertyOp54
 70
     1
102
RTVSPropertyOp55
 70
     1
102
RTVSPropertyOp56
 70
     1
102
RTVSPropertyOp57
 70
     1
102
RTVSPost2010Prop28
280
     0
102
RTVSPost2010PropOp28
 70
     1
102
RTVSPost2010Prop29
280
     1
102
RTVSPost2010PropOp29
 70
     1
102
RTVSPost2010Prop30
280
     1
102
RTVSPost2010PropOp30
 70
     1
102
RTVSPost2010Prop31
280
     0
102
RTVSPost2010PropOp31
 70
     1
102
RTVSPost2010Prop32
280
     0
102
RTVSPost2010PropOp32
 70
     1
102
RTVSPost2010Prop33
280
     0
102
RTVSPost2010PropOp33
 70
     1
102
RTVSPost2010Prop34
280
     0
102
RTVSPost2010PropOp34
 70
     1
102
RTVSPost2010Prop35
280
     0
102
RTVSPost2010PropOp35
 70
     1
102
RTVSPost2010Prop36
280
     0
102
RTVSPost2010PropOp36
 70
     1
102
RTVSPost2010Prop37
 90
       50
102
RTVSPost2010PropOp37
 70
     1
102
RTVSPost2010Prop38
140
0.0
102
RTVSPost2010PropOp38
 70
     1
102
RTVSPost2010Prop39
140
1.0
102
RTVSPost2010PropOp39
 70
     1
102
RTVSPost2010Prop40
 90
        0
102
RTVSPost2010PropOp40
 70
     1
102
RTVSPost2010Prop41ColorIndex
 90
       18
102
RTVSPost2010Prop41ColorRGB
 90
        0
102
RTVSPost2010PropOp41
 70
     1
102
RTVSPost2010Prop42
 90
       50
102
RTVSPost2010PropOp42
 70
     1
102
RTVSPost2010Prop43
 90
        3
102
RTVSPost2010PropOp43
 70
     1
102
RTVSPost2010Prop44ColorIndex
 90
        5
102
RTVSPost2010Prop44ColorRGB
 90
      255
102
RTVSPost2010PropOp44
 70
     1
102
RTVSPost2010Prop45
280
     0
102
RTVSPost2010PropOp45
 70
     1
102
RTVSPost2010Prop46
 90
       50
102
RTVSPost2010PropOp46
 70
     1
102
RTVSPost2010Prop47
 90
       50
102
RTVSPost2010PropOp47
 70
     1
102
RTVSPost2010Prop48
 90
       50
102
RTVSPost2010PropOp48
 70
     1
102
RTVSPost2010Prop49
280
     0
102
RTVSPost2010PropOp49
 70
     1
102
RTVSPost2010Prop50
 90
       50
102
RTVSPost2010PropOp50
 70
     1
102
RTVSPost2010Prop51ColorIndex
 90
      256
102
RTVSPost2010Prop51ColorRGB
 90
-16777216
102
RTVSPost2010PropOp51
 70
     0
102
RTVSPost2010Prop52
140
1.0
102
RTVSPost2010PropOp52
 70
     0
102
RTVSPost2010Prop53
 90
        2
102
RTVSPost2010PropOp53
 70
     1
102
RTVSPost2010Prop54
  1
strokes_ogs.tif
102
RTVSPost2010PropOp54
 70
     1
102
RTVSPost2010Prop55
280
     0
102
RTVSPost2010PropOp55
 70
     1
102
RTVSPost2010Prop56
140
1.0
102
RTVSPost2010PropOp56
 70
     1
102
RTVSPost2010Prop57
140
1.0
102
RTVSPost2010PropOp57
 70
     1
  0
XRECORD
  5
17E
102
{ACAD_REACTORS
330
17D
102
}
330
17D
100
AcDbXrecord
280
     1
102
RTVSPropertyOp0
 70
     1
102
RTVSPropertyOp1
 70
     1
102
RTVSPropertyOp2
 70
     1
102
RTVSPropertyOp3
 70
     1
102
RTVSPropertyOp4
 70
     1
102
RTVSPropertyOp5
 70
     1
102
RTVSPropertyOp6
 70
     1
102
RTVSPropertyOp7
 70
     1
102
RTVSPropertyOp8
 70
     1
102
RTVSPropertyOp9
 70
     1
102
RTVSPropertyOp10
 70
     1
102
RTVSPropertyOp11
 70
     1
102
RTVSPropertyOp12
 70
     1
102
RTVSPropertyOp13
 70
     1
102
RTVSPropertyOp14
 70
     1
102
RTVSPropertyOp15
 70
     1
102
RTVSPropertyOp16
 70
     1
102
RTVSPropertyOp17
 70
     1
102
RTVSPropertyOp18
 70
     1
102
RTVSPropertyOp19
 70
     1
102
RTVSPropertyOp20
 70
     1
102
RTVSPropertyOp21
 70
     1
102
RTVSPropertyOp22
 70
     1
102
RTVSPropertyOp23
 70
     1
102
RTVSPropertyOp24
 70
     1
102
RTVSPropertyOp25
 70
     1
102
RTVSPropertyOp26
 70
     1
102
RTVSPropertyOp27
 70
     1
102
RTVSPropertyOp28
 70
     1
102
RTVSPropertyOp29
 70
     1
102
RTVSPropertyOp30
 70
     1
102
RTVSPropertyOp31
 70
     1
102
RTVSPropertyOp32
 70
     1
102
RTVSPropertyOp33
 70
     1
102
RTVSPropertyOp34
 70
     1
102
RTVSPropertyOp35
 70
     1
102
RTVSPropertyOp36
 70
     1
102
RTVSPropertyOp37
 70
     1
102
RTVSPropertyOp38
 70
     1
102
RTVSPropertyOp39
 70
     1
102
RTVSPropertyOp40
 70
     1
102
RTVSPropertyOp41
 70
     1
102
RTVSPropertyOp42
 70
     1
102
RTVSPropertyOp43
 70
     1
102
RTVSPropertyOp44
 70
     1
102
RTVSPropertyOp45
 70
     1
102
RTVSPropertyOp46
 70
     1
102
RTVSPropertyOp47
 70
     1
102
RTVSPropertyOp48
 70
     1
102
RTVSPropertyOp49
 70
     1
102
RTVSPropertyOp50
 70
     1
102
RTVSPropertyOp51
 70
     0
102
RTVSPropertyOp52
 70
     0
102
RTVSPropertyOp53
 70
     1
102
RTVSPropertyOp54
 70
     1
102
RTVSPropertyOp55
 70
     1
102
RTVSPropertyOp56
 70
     1
102
RTVSPropertyOp57
 70
     1
102
RTVSPost2010Prop28
280
     0
102
RTVSPost2010PropOp28
 70
     1
102
RTVSPost2010Prop29
280
     1
102
RTVSPost2010PropOp29
 70
     1
102
RTVSPost2010Prop30
280
     1
102
RTVSPost2010PropOp30
 70
     1
102
RTVSPost2010Prop31
280
     0
102
RTVSPost2010PropOp31
 70
     1
102
RTVSPost2010Prop32
280
     0
102
RTVSPost2010PropOp32
 70
     1
102
RTVSPost2010Prop33
280
     0
102
RTVSPost2010PropOp33
 70
     1
102
RTVSPost2010Prop34
280
     0
102
RTVSPost2010PropOp34
 70
     1
102
RTVSPost2010Prop35
280
     0
102
RTVSPost2010PropOp35
 70
     1
102
RTVSPost2010Prop36
280
     0
102
RTVSPost2010PropOp36
 70
     1
102
RTVSPost2010Prop37
 90
       50
102
RTVSPost2010PropOp37
 70
     1
102
RTVSPost2010Prop38
140
0.0
102
RTVSPost2010PropOp38
 70
     1
102
RTVSPost2010Prop39
140
1.0
102
RTVSPost2010PropOp39
 70
     1
102
RTVSPost2010Prop40
 90
        0
102
RTVSPost2010PropOp40
 70
     1
102
RTVSPost2010Prop41ColorIndex
 90
       18
102
RTVSPost2010Prop41ColorRGB
 90
        0
102
RTVSPost2010PropOp41
 70
     1
102
RTVSPost2010Prop42
 90
       50
102
RTVSPost2010PropOp42
 70
     1
102
RTVSPost2010Prop43
 90
        3
102
RTVSPost2010PropOp43
 70
     1
102
RTVSPost2010Prop44ColorIndex
 90
        5
102
RTVSPost2010Prop44ColorRGB
 90
      255
102
RTVSPost2010PropOp44
 70
     1
102
RTVSPost2010Prop45
280
     0
102
RTVSPost2010PropOp45
 70
     1
102
RTVSPost2010Prop46
 90
       50
102
RTVSPost2010PropOp46
 70
     1
102
RTVSPost2010Prop47
 90
       50
102
RTVSPost2010PropOp47
 70
     1
102
RTVSPost2010Prop48
 90
       50
102
RTVSPost2010PropOp48
 70
     1
102
RTVSPost2010Prop49
280
     0
102
RTVSPost2010PropOp49
 70
     1
102
RTVSPost2010Prop50
 90
       50
102
RTVSPost2010PropOp50
 70
     1
102
RTVSPost2010Prop51ColorIndex
 90
      256
102
RTVSPost2010Prop51ColorRGB
 90
-16777216
102
RTVSPost2010PropOp51
 70
     0
102
RTVSPost2010Prop52
140
1.0
102
RTVSPost2010PropOp52
 70
     0
102
RTVSPost2010Prop53
 90
        2
102
RTVSPost2010PropOp53
 70
     1
102
RTVSPost2010Prop54
  1
strokes_ogs.tif
102
RTVSPost2010PropOp54
 70
     1
102
RTVSPost2010Prop55
280
     0
102
RTVSPost2010PropOp55
 70
     1
102
RTVSPost2010Prop56
140
1.0
102
RTVSPost2010PropOp56
 70
     1
102
RTVSPost2010Prop57
140
1.0
102
RTVSPost2010PropOp57
 70
     1
  0
XRECORD
  5
18E
102
{ACAD_REACTORS
330
18D
102
}
330
18D
100
AcDbXrecord
280
     1
102
RTVSPropertyOp0
 70
     0
102
RTVSPropertyOp1
 70
     0
102
RTVSPropertyOp2
 70
     0
102
RTVSPropertyOp3
 70
     0
102
RTVSPropertyOp4
 70
     0
102
RTVSPropertyOp5
 70
     0
102
RTVSPropertyOp6
 70
     0
102
RTVSPropertyOp7
 70
     0
102
RTVSPropertyOp8
 70
     0
102
RTVSPropertyOp9
 70
     0
102
RTVSPropertyOp10
 70
     0
102
RTVSPropertyOp11
 70
     0
102
RTVSPropertyOp12
 70
     0
102
RTVSPropertyOp13
 70
     0
102
RTVSPropertyOp14
 70
     2
102
RTVSPropertyOp15
 70
     0
102
RTVSPropertyOp16
 70
     0
102
RTVSPropertyOp17
 70
     0
102
RTVSPropertyOp18
 70
     0
102
RTVSPropertyOp19
 70
     0
102
RTVSPropertyOp20
 70
     0
102
RTVSPropertyOp21
 70
     0
102
RTVSPropertyOp22
 70
     0
102
RTVSPropertyOp23
 70
     0
102
RTVSPropertyOp24
 70
     0
102
RTVSPropertyOp25
 70
     0
102
RTVSPropertyOp26
 70
     0
102
RTVSPropertyOp27
 70
     0
102
RTVSPropertyOp28
 70
     0
102
RTVSPropertyOp29
 70
     0
102
RTVSPropertyOp30
 70
     0
102
RTVSPropertyOp31
 70
     0
102
RTVSPropertyOp32
 70
     0
102
RTVSPropertyOp33
 70
     0
102
RTVSPropertyOp34
 70
     0
102
RTVSPropertyOp35
 70
     0
102
RTVSPropertyOp36
 70
     0
102
RTVSPropertyOp37
 70
     0
102
RTVSPropertyOp38
 70
     0
102
RTVSPropertyOp39
 70
     0
102
RTVSPropertyOp40
 70
     0
102
RTVSPropertyOp41
 70
     0
102
RTVSPropertyOp42
 70
     0
102
RTVSPropertyOp43
 70
     0
102
RTVSPropertyOp44
 70
     0
102
RTVSPropertyOp45
 70
     0
102
RTVSPropertyOp46
 70
     0
102
RTVSPropertyOp47
 70
     0
102
RTVSPropertyOp48
 70
     0
102
RTVSPropertyOp49
 70
     0
102
RTVSPropertyOp50
 70
     0
102
RTVSPropertyOp51
 70
     0
102
RTVSPropertyOp52
 70
     0
102
RTVSPropertyOp53
 70
     0
102
RTVSPropertyOp54
 70
     0
102
RTVSPropertyOp55
 70
     0
102
RTVSPropertyOp56
 70
     0
102
RTVSPropertyOp57
 70
     0
102
RTVSPost2010Prop28
280
     0
102
RTVSPost2010PropOp28
 70
     0
102
RTVSPost2010Prop29
280
     1
102
RTVSPost2010PropOp29
 70
     0
102
RTVSPost2010Prop30
280
     1
102
RTVSPost2010PropOp30
 70
     0
102
RTVSPost2010Prop31
280
     0
102
RTVSPost2010PropOp31
 70
     0
102
RTVSPost2010Prop32
280
     0
102
RTVSPost2010PropOp32
 70
     0
102
RTVSPost2010Prop33
280
     0
102
RTVSPost2010PropOp33
 70
     0
102
RTVSPost2010Prop34
280
     0
102
RTVSPost2010PropOp34
 70
     0
102
RTVSPost2010Prop35
280
     0
102
RTVSPost2010PropOp35
 70
     0
102
RTVSPost2010Prop36
280
     0
102
RTVSPost2010PropOp36
 70
     0
102
RTVSPost2010Prop37
 90
       50
102
RTVSPost2010PropOp37
 70
     0
102
RTVSPost2010Prop38
140
0.0
102
RTVSPost2010PropOp38
 70
     0
102
RTVSPost2010Prop39
140
1.0
102
RTVSPost2010PropOp39
 70
     0
102
RTVSPost2010Prop40
 90
        0
102
RTVSPost2010PropOp40
 70
     0
102
RTVSPost2010Prop41ColorIndex
 90
       18
102
RTVSPost2010Prop41ColorRGB
 90
        0
102
RTVSPost2010PropOp41
 70
     0
102
RTVSPost2010Prop42
 90
       50
102
RTVSPost2010PropOp42
 70
     0
102
RTVSPost2010Prop43
 90
        3
102
RTVSPost2010PropOp43
 70
     0
102
RTVSPost2010Prop44ColorIndex
 90
        5
102
RTVSPost2010Prop44ColorRGB
 90
      255
102
RTVSPost2010PropOp44
 70
     0
102
RTVSPost2010Prop45
280
     0
102
RTVSPost2010PropOp45
 70
     0
102
RTVSPost2010Prop46
 90
       50
102
RTVSPost2010PropOp46
 70
     0
102
RTVSPost2010Prop47
 90
       50
102
RTVSPost2010PropOp47
 70
     0
102
RTVSPost2010Prop48
 90
       50
102
RTVSPost2010PropOp48
 70
     0
102
RTVSPost2010Prop49
280
     0
102
RTVSPost2010PropOp49
 70
     0
102
RTVSPost2010Prop50
 90
       50
102
RTVSPost2010PropOp50
 70
     0
102
RTVSPost2010Prop51ColorIndex
 90
      256
102
RTVSPost2010Prop51ColorRGB
 90
-16777216
102
RTVSPost2010PropOp51
 70
     0
102
RTVSPost2010Prop52
140
1.0
102
RTVSPost2010PropOp52
 70
     0
102
RTVSPost2010Prop53
 90
        2
102
RTVSPost2010PropOp53
 70
     0
102
RTVSPost2010Prop54
  1
strokes_ogs.tif
102
RTVSPost2010PropOp54
 70
     0
102
RTVSPost2010Prop55
280
     0
102
RTVSPost2010PropOp55
 70
     0
102
RTVSPost2010Prop56
140
1.0
102
RTVSPost2010PropOp56
 70
     0
102
RTVSPost2010Prop57
140
1.0
102
RTVSPost2010PropOp57
 70
     0
  0
XRECORD
  5
186
102
{ACAD_REACTORS
330
185
102
}
330
185
100
AcDbXrecord
280
     1
102
RTVSPropertyOp0
 70
     1
102
RTVSPropertyOp1
 70
     1
102
RTVSPropertyOp2
 70
     1
102
RTVSPropertyOp3
 70
     1
102
RTVSPropertyOp4
 70
     1
102
RTVSPropertyOp5
 70
     1
102
RTVSPropertyOp6
 70
     1
102
RTVSPropertyOp7
 70
     1
102
RTVSPropertyOp8
 70
     1
102
RTVSPropertyOp9
 70
     1
102
RTVSPropertyOp10
 70
     1
102
RTVSPropertyOp11
 70
     1
102
RTVSPropertyOp12
 70
     1
102
RTVSPropertyOp13
 70
     1
102
RTVSPropertyOp14
 70
     1
102
RTVSPropertyOp15
 70
     1
102
RTVSPropertyOp16
 70
     1
102
RTVSPropertyOp17
 70
     1
102
RTVSPropertyOp18
 70
     1
102
RTVSPropertyOp19
 70
     1
102
RTVSPropertyOp20
 70
     1
102
RTVSPropertyOp21
 70
     1
102
RTVSPropertyOp22
 70
     1
102
RTVSPropertyOp23
 70
     1
102
RTVSPropertyOp24
 70
     1
102
RTVSPropertyOp25
 70
     1
102
RTVSPropertyOp26
 70
     1
102
RTVSPropertyOp27
 70
     1
102
RTVSPropertyOp28
 70
     1
102
RTVSPropertyOp29
 70
     1
102
RTVSPropertyOp30
 70
     1
102
RTVSPropertyOp31
 70
     1
102
RTVSPropertyOp32
 70
     1
102
RTVSPropertyOp33
 70
     1
102
RTVSPropertyOp34
 70
     1
102
RTVSPropertyOp35
 70
     1
102
RTVSPropertyOp36
 70
     1
102
RTVSPropertyOp37
 70
     1
102
RTVSPropertyOp38
 70
     1
102
RTVSPropertyOp39
 70
     1
102
RTVSPropertyOp40
 70
     1
102
RTVSPropertyOp41
 70
     1
102
RTVSPropertyOp42
 70
     1
102
RTVSPropertyOp43
 70
     1
102
RTVSPropertyOp44
 70
     1
102
RTVSPropertyOp45
 70
     1
102
RTVSPropertyOp46
 70
     1
102
RTVSPropertyOp47
 70
     1
102
RTVSPropertyOp48
 70
     1
102
RTVSPropertyOp49
 70
     1
102
RTVSPropertyOp50
 70
     1
102
RTVSPropertyOp51
 70
     0
102
RTVSPropertyOp52
 70
     0
102
RTVSPropertyOp53
 70
     1
102
RTVSPropertyOp54
 70
     1
102
RTVSPropertyOp55
 70
     1
102
RTVSPropertyOp56
 70
     1
102
RTVSPropertyOp57
 70
     1
102
RTVSPost2010Prop28
280
     0
102
RTVSPost2010PropOp28
 70
     1
102
RTVSPost2010Prop29
280
     1
102
RTVSPost2010PropOp29
 70
     1
102
RTVSPost2010Prop30
280
     1
102
RTVSPost2010PropOp30
 70
     1
102
RTVSPost2010Prop31
280
     0
102
RTVSPost2010PropOp31
 70
     1
102
RTVSPost2010Prop32
280
     0
102
RTVSPost2010PropOp32
 70
     1
102
RTVSPost2010Prop33
280
     0
102
RTVSPost2010PropOp33
 70
     1
102
RTVSPost2010Prop34
280
     0
102
RTVSPost2010PropOp34
 70
     1
102
RTVSPost2010Prop35
280
     0
102
RTVSPost2010PropOp35
 70
     1
102
RTVSPost2010Prop36
280
     0
102
RTVSPost2010PropOp36
 70
     1
102
RTVSPost2010Prop37
 90
       50
102
RTVSPost2010PropOp37
 70
     1
102
RTVSPost2010Prop38
140
0.0
102
RTVSPost2010PropOp38
 70
     1
102
RTVSPost2010Prop39
140
1.0
102
RTVSPost2010PropOp39
 70
     1
102
RTVSPost2010Prop40
 90
        0
102
RTVSPost2010PropOp40
 70
     1
102
RTVSPost2010Prop41ColorIndex
 90
       18
102
RTVSPost2010Prop41ColorRGB
 90
        0
102
RTVSPost2010PropOp41
 70
     1
102
RTVSPost2010Prop42
 90
       50
102
RTVSPost2010PropOp42
 70
     1
102
RTVSPost2010Prop43
 90
        3
102
RTVSPost2010PropOp43
 70
     1
102
RTVSPost2010Prop44ColorIndex
 90
        5
102
RTVSPost2010Prop44ColorRGB
 90
      255
102
RTVSPost2010PropOp44
 70
     1
102
RTVSPost2010Prop45
280
     0
102
RTVSPost2010PropOp45
 70
     1
102
RTVSPost2010Prop46
 90
       50
102
RTVSPost2010PropOp46
 70
     1
102
RTVSPost2010Prop47
 90
       50
102
RTVSPost2010PropOp47
 70
     1
102
RTVSPost2010Prop48
 90
       50
102
RTVSPost2010PropOp48
 70
     1
102
RTVSPost2010Prop49
280
     0
102
RTVSPost2010PropOp49
 70
     1
102
RTVSPost2010Prop50
 90
       50
102
RTVSPost2010PropOp50
 70
     1
102
RTVSPost2010Prop51ColorIndex
 90
      256
102
RTVSPost2010Prop51ColorRGB
 90
-16777216
102
RTVSPost2010PropOp51
 70
     0
102
RTVSPost2010Prop52
140
1.0
102
RTVSPost2010PropOp52
 70
     0
102
RTVSPost2010Prop53
 90
        2
102
RTVSPost2010PropOp53
 70
     1
102
RTVSPost2010Prop54
  1
strokes_ogs.tif
102
RTVSPost2010PropOp54
 70
     1
102
RTVSPost2010Prop55
280
     0
102
RTVSPost2010PropOp55
 70
     1
102
RTVSPost2010Prop56
140
1.0
102
RTVSPost2010PropOp56
 70
     1
102
RTVSPost2010Prop57
140
1.0
102
RTVSPost2010PropOp57
 70
     1
  0
XRECORD
  5
16A
102
{ACAD_REACTORS
330
169
102
}
330
169
100
AcDbXrecord
280
     1
102
RTVSPropertyOp0
 70
     1
102
RTVSPropertyOp1
 70
     1
102
RTVSPropertyOp2
 70
     1
102
RTVSPropertyOp3
 70
     1
102
RTVSPropertyOp4
 70
     1
102
RTVSPropertyOp5
 70
     1
102
RTVSPropertyOp6
 70
     1
102
RTVSPropertyOp7
 70
     1
102
RTVSPropertyOp8
 70
     1
102
RTVSPropertyOp9
 70
     1
102
RTVSPropertyOp10
 70
     1
102
RTVSPropertyOp11
 70
     1
102
RTVSPropertyOp12
 70
     1
102
RTVSPropertyOp13
 70
     1
102
RTVSPropertyOp14
 70
     1
102
RTVSPropertyOp15
 70
     1
102
RTVSPropertyOp16
 70
     1
102
RTVSPropertyOp17
 70
     1
102
RTVSPropertyOp18
 70
     1
102
RTVSPropertyOp19
 70
     1
102
RTVSPropertyOp20
 70
     1
102
RTVSPropertyOp21
 70
     1
102
RTVSPropertyOp22
 70
     1
102
RTVSPropertyOp23
 70
     1
102
RTVSPropertyOp24
 70
     1
102
RTVSPropertyOp25
 70
     1
102
RTVSPropertyOp26
 70
     1
102
RTVSPropertyOp27
 70
     1
102
RTVSPropertyOp28
 70
     1
102
RTVSPropertyOp29
 70
     1
102
RTVSPropertyOp30
 70
     1
102
RTVSPropertyOp31
 70
     1
102
RTVSPropertyOp32
 70
     1
102
RTVSPropertyOp33
 70
     1
102
RTVSPropertyOp34
 70
     1
102
RTVSPropertyOp35
 70
     1
102
RTVSPropertyOp36
 70
     1
102
RTVSPropertyOp37
 70
     1
102
RTVSPropertyOp38
 70
     1
102
RTVSPropertyOp39
 70
     1
102
RTVSPropertyOp40
 70
     1
102
RTVSPropertyOp41
 70
     1
102
RTVSPropertyOp42
 70
     1
102
RTVSPropertyOp43
 70
     1
102
RTVSPropertyOp44
 70
     1
102
RTVSPropertyOp45
 70
     1
102
RTVSPropertyOp46
 70
     1
102
RTVSPropertyOp47
 70
     1
102
RTVSPropertyOp48
 70
     1
102
RTVSPropertyOp49
 70
     1
102
RTVSPropertyOp50
 70
     1
102
RTVSPropertyOp51
 70
     0
102
RTVSPropertyOp52
 70
     0
102
RTVSPropertyOp53
 70
     1
102
RTVSPropertyOp54
 70
     1
102
RTVSPropertyOp55
 70
     1
102
RTVSPropertyOp56
 70
     1
102
RTVSPropertyOp57
 70
     1
102
RTVSPost2010Prop28
280
     0
102
RTVSPost2010PropOp28
 70
     1
102
RTVSPost2010Prop29
280
     1
102
RTVSPost2010PropOp29
 70
     1
102
RTVSPost2010Prop30
280
     1
102
RTVSPost2010PropOp30
 70
     1
102
RTVSPost2010Prop31
280
     0
102
RTVSPost2010PropOp31
 70
     1
102
RTVSPost2010Prop32
280
     0
102
RTVSPost2010PropOp32
 70
     1
102
RTVSPost2010Prop33
280
     0
102
RTVSPost2010PropOp33
 70
     1
102
RTVSPost2010Prop34
280
     0
102
RTVSPost2010PropOp34
 70
     1
102
RTVSPost2010Prop35
280
     0
102
RTVSPost2010PropOp35
 70
     1
102
RTVSPost2010Prop36
280
     0
102
RTVSPost2010PropOp36
 70
     1
102
RTVSPost2010Prop37
 90
       50
102
RTVSPost2010PropOp37
 70
     1
102
RTVSPost2010Prop38
140
0.0
102
RTVSPost2010PropOp38
 70
     1
102
RTVSPost2010Prop39
140
1.0
102
RTVSPost2010PropOp39
 70
     1
102
RTVSPost2010Prop40
 90
        0
102
RTVSPost2010PropOp40
 70
     1
102
RTVSPost2010Prop41ColorIndex
 90
       18
102
RTVSPost2010Prop41ColorRGB
 90
        0
102
RTVSPost2010PropOp41
 70
     1
102
RTVSPost2010Prop42
 90
       50
102
RTVSPost2010PropOp42
 70
     1
102
RTVSPost2010Prop43
 90
        3
102
RTVSPost2010PropOp43
 70
     1
102
RTVSPost2010Prop44ColorIndex
 90
        5
102
RTVSPost2010Prop44ColorRGB
 90
      255
102
RTVSPost2010PropOp44
 70
     1
102
RTVSPost2010Prop45
280
     0
102
RTVSPost2010PropOp45
 70
     1
102
RTVSPost2010Prop46
 90
       50
102
RTVSPost2010PropOp46
 70
     1
102
RTVSPost2010Prop47
 90
       50
102
RTVSPost2010PropOp47
 70
     1
102
RTVSPost2010Prop48
 90
       50
102
RTVSPost2010PropOp48
 70
     1
102
RTVSPost2010Prop49
280
     0
102
RTVSPost2010PropOp49
 70
     1
102
RTVSPost2010Prop50
 90
       50
102
RTVSPost2010PropOp50
 70
     1
102
RTVSPost2010Prop51ColorIndex
 90
      256
102
RTVSPost2010Prop51ColorRGB
 90
-16777216
102
RTVSPost2010PropOp51
 70
     0
102
RTVSPost2010Prop52
140
1.0
102
RTVSPost2010PropOp52
 70
     0
102
RTVSPost2010Prop53
 90
        2
102
RTVSPost2010PropOp53
 70
     1
102
RTVSPost2010Prop54
  1
strokes_ogs.tif
102
RTVSPost2010PropOp54
 70
     1
102
RTVSPost2010Prop55
280
     0
102
RTVSPost2010PropOp55
 70
     1
102
RTVSPost2010Prop56
140
1.0
102
RTVSPost2010PropOp56
 70
     1
102
RTVSPost2010Prop57
140
1.0
102
RTVSPost2010PropOp57
 70
     1
  0
XRECORD
  5
16C
102
{ACAD_REACTORS
330
16B
102
}
330
16B
100
AcDbXrecord
280
     1
102
RTVSPropertyOp0
 70
     1
102
RTVSPropertyOp1
 70
     1
102
RTVSPropertyOp2
 70
     1
102
RTVSPropertyOp3
 70
     1
102
RTVSPropertyOp4
 70
     1
102
RTVSPropertyOp5
 70
     1
102
RTVSPropertyOp6
 70
     1
102
RTVSPropertyOp7
 70
     1
102
RTVSPropertyOp8
 70
     1
102
RTVSPropertyOp9
 70
     1
102
RTVSPropertyOp10
 70
     1
102
RTVSPropertyOp11
 70
     1
102
RTVSPropertyOp12
 70
     1
102
RTVSPropertyOp13
 70
     1
102
RTVSPropertyOp14
 70
     1
102
RTVSPropertyOp15
 70
     1
102
RTVSPropertyOp16
 70
     1
102
RTVSPropertyOp17
 70
     1
102
RTVSPropertyOp18
 70
     1
102
RTVSPropertyOp19
 70
     1
102
RTVSPropertyOp20
 70
     1
102
RTVSPropertyOp21
 70
     1
102
RTVSPropertyOp22
 70
     1
102
RTVSPropertyOp23
 70
     1
102
RTVSPropertyOp24
 70
     1
102
RTVSPropertyOp25
 70
     1
102
RTVSPropertyOp26
 70
     1
102
RTVSPropertyOp27
 70
     1
102
RTVSPropertyOp28
 70
     1
102
RTVSPropertyOp29
 70
     1
102
RTVSPropertyOp30
 70
     1
102
RTVSPropertyOp31
 70
     1
102
RTVSPropertyOp32
 70
     1
102
RTVSPropertyOp33
 70
     1
102
RTVSPropertyOp34
 70
     1
102
RTVSPropertyOp35
 70
     1
102
RTVSPropertyOp36
 70
     1
102
RTVSPropertyOp37
 70
     1
102
RTVSPropertyOp38
 70
     1
102
RTVSPropertyOp39
 70
     1
102
RTVSPropertyOp40
 70
     1
102
RTVSPropertyOp41
 70
     1
102
RTVSPropertyOp42
 70
     1
102
RTVSPropertyOp43
 70
     1
102
RTVSPropertyOp44
 70
     1
102
RTVSPropertyOp45
 70
     1
102
RTVSPropertyOp46
 70
     1
102
RTVSPropertyOp47
 70
     1
102
RTVSPropertyOp48
 70
     1
102
RTVSPropertyOp49
 70
     1
102
RTVSPropertyOp50
 70
     1
102
RTVSPropertyOp51
 70
     0
102
RTVSPropertyOp52
 70
     0
102
RTVSPropertyOp53
 70
     1
102
RTVSPropertyOp54
 70
     1
102
RTVSPropertyOp55
 70
     1
102
RTVSPropertyOp56
 70
     1
102
RTVSPropertyOp57
 70
     1
102
RTVSPost2010Prop28
280
     0
102
RTVSPost2010PropOp28
 70
     1
102
RTVSPost2010Prop29
280
     1
102
RTVSPost2010PropOp29
 70
     1
102
RTVSPost2010Prop30
280
     1
102
RTVSPost2010PropOp30
 70
     1
102
RTVSPost2010Prop31
280
     0
102
RTVSPost2010PropOp31
 70
     1
102
RTVSPost2010Prop32
280
     0
102
RTVSPost2010PropOp32
 70
     1
102
RTVSPost2010Prop33
280
     0
102
RTVSPost2010PropOp33
 70
     1
102
RTVSPost2010Prop34
280
     0
102
RTVSPost2010PropOp34
 70
     1
102
RTVSPost2010Prop35
280
     0
102
RTVSPost2010PropOp35
 70
     1
102
RTVSPost2010Prop36
280
     0
102
RTVSPost2010PropOp36
 70
     1
102
RTVSPost2010Prop37
 90
       50
102
RTVSPost2010PropOp37
 70
     1
102
RTVSPost2010Prop38
140
0.0
102
RTVSPost2010PropOp38
 70
     1
102
RTVSPost2010Prop39
140
1.0
102
RTVSPost2010PropOp39
 70
     1
102
RTVSPost2010Prop40
 90
        0
102
RTVSPost2010PropOp40
 70
     1
102
RTVSPost2010Prop41ColorIndex
 90
       18
102
RTVSPost2010Prop41ColorRGB
 90
        0
102
RTVSPost2010PropOp41
 70
     1
102
RTVSPost2010Prop42
 90
       50
102
RTVSPost2010PropOp42
 70
     1
102
RTVSPost2010Prop43
 90
        3
102
RTVSPost2010PropOp43
 70
     1
102
RTVSPost2010Prop44ColorIndex
 90
        5
102
RTVSPost2010Prop44ColorRGB
 90
      255
102
RTVSPost2010PropOp44
 70
     1
102
RTVSPost2010Prop45
280
     0
102
RTVSPost2010PropOp45
 70
     1
102
RTVSPost2010Prop46
 90
       50
102
RTVSPost2010PropOp46
 70
     1
102
RTVSPost2010Prop47
 90
       50
102
RTVSPost2010PropOp47
 70
     1
102
RTVSPost2010Prop48
 90
       50
102
RTVSPost2010PropOp48
 70
     1
102
RTVSPost2010Prop49
280
     0
102
RTVSPost2010PropOp49
 70
     1
102
RTVSPost2010Prop50
 90
       50
102
RTVSPost2010PropOp50
 70
     1
102
RTVSPost2010Prop51ColorIndex
 90
      256
102
RTVSPost2010Prop51ColorRGB
 90
-16777216
102
RTVSPost2010PropOp51
 70
     0
102
RTVSPost2010Prop52
140
1.0
102
RTVSPost2010PropOp52
 70
     0
102
RTVSPost2010Prop53
 90
        2
102
RTVSPost2010PropOp53
 70
     1
102
RTVSPost2010Prop54
  1
strokes_ogs.tif
102
RTVSPost2010PropOp54
 70
     1
102
RTVSPost2010Prop55
280
     0
102
RTVSPost2010PropOp55
 70
     1
102
RTVSPost2010Prop56
140
1.0
102
RTVSPost2010PropOp56
 70
     1
102
RTVSPost2010Prop57
140
1.0
102
RTVSPost2010PropOp57
 70
     1
  0
XRECORD
  5
16E
102
{ACAD_REACTORS
330
16D
102
}
330
16D
100
AcDbXrecord
280
     1
102
RTVSPropertyOp0
 70
     1
102
RTVSPropertyOp1
 70
     1
102
RTVSPropertyOp2
 70
     1
102
RTVSPropertyOp3
 70
     1
102
RTVSPropertyOp4
 70
     1
102
RTVSPropertyOp5
 70
     1
102
RTVSPropertyOp6
 70
     1
102
RTVSPropertyOp7
 70
     1
102
RTVSPropertyOp8
 70
     1
102
RTVSPropertyOp9
 70
     1
102
RTVSPropertyOp10
 70
     1
102
RTVSPropertyOp11
 70
     1
102
RTVSPropertyOp12
 70
     1
102
RTVSPropertyOp13
 70
     1
102
RTVSPropertyOp14
 70
     1
102
RTVSPropertyOp15
 70
     1
102
RTVSPropertyOp16
 70
     1
102
RTVSPropertyOp17
 70
     1
102
RTVSPropertyOp18
 70
     1
102
RTVSPropertyOp19
 70
     1
102
RTVSPropertyOp20
 70
     1
102
RTVSPropertyOp21
 70
     1
102
RTVSPropertyOp22
 70
     1
102
RTVSPropertyOp23
 70
     1
102
RTVSPropertyOp24
 70
     1
102
RTVSPropertyOp25
 70
     1
102
RTVSPropertyOp26
 70
     1
102
RTVSPropertyOp27
 70
     1
102
RTVSPropertyOp28
 70
     1
102
RTVSPropertyOp29
 70
     1
102
RTVSPropertyOp30
 70
     1
102
RTVSPropertyOp31
 70
     1
102
RTVSPropertyOp32
 70
     1
102
RTVSPropertyOp33
 70
     1
102
RTVSPropertyOp34
 70
     1
102
RTVSPropertyOp35
 70
     1
102
RTVSPropertyOp36
 70
     1
102
RTVSPropertyOp37
 70
     1
102
RTVSPropertyOp38
 70
     1
102
RTVSPropertyOp39
 70
     1
102
RTVSPropertyOp40
 70
     1
102
RTVSPropertyOp41
 70
     1
102
RTVSPropertyOp42
 70
     1
102
RTVSPropertyOp43
 70
     1
102
RTVSPropertyOp44
 70
     1
102
RTVSPropertyOp45
 70
     1
102
RTVSPropertyOp46
 70
     1
102
RTVSPropertyOp47
 70
     1
102
RTVSPropertyOp48
 70
     1
102
RTVSPropertyOp49
 70
     1
102
RTVSPropertyOp50
 70
     1
102
RTVSPropertyOp51
 70
     0
102
RTVSPropertyOp52
 70
     0
102
RTVSPropertyOp53
 70
     1
102
RTVSPropertyOp54
 70
     1
102
RTVSPropertyOp55
 70
     1
102
RTVSPropertyOp56
 70
     1
102
RTVSPropertyOp57
 70
     1
102
RTVSPost2010Prop28
280
     0
102
RTVSPost2010PropOp28
 70
     1
102
RTVSPost2010Prop29
280
     1
102
RTVSPost2010PropOp29
 70
     1
102
RTVSPost2010Prop30
280
     1
102
RTVSPost2010PropOp30
 70
     1
102
RTVSPost2010Prop31
280
     0
102
RTVSPost2010PropOp31
 70
     1
102
RTVSPost2010Prop32
280
     0
102
RTVSPost2010PropOp32
 70
     1
102
RTVSPost2010Prop33
280
     0
102
RTVSPost2010PropOp33
 70
     1
102
RTVSPost2010Prop34
280
     0
102
RTVSPost2010PropOp34
 70
     1
102
RTVSPost2010Prop35
280
     0
102
RTVSPost2010PropOp35
 70
     1
102
RTVSPost2010Prop36
280
     0
102
RTVSPost2010PropOp36
 70
     1
102
RTVSPost2010Prop37
 90
       50
102
RTVSPost2010PropOp37
 70
     1
102
RTVSPost2010Prop38
140
0.0
102
RTVSPost2010PropOp38
 70
     1
102
RTVSPost2010Prop39
140
1.0
102
RTVSPost2010PropOp39
 70
     1
102
RTVSPost2010Prop40
 90
        0
102
RTVSPost2010PropOp40
 70
     1
102
RTVSPost2010Prop41ColorIndex
 90
       18
102
RTVSPost2010Prop41ColorRGB
 90
        0
102
RTVSPost2010PropOp41
 70
     1
102
RTVSPost2010Prop42
 90
       50
102
RTVSPost2010PropOp42
 70
     1
102
RTVSPost2010Prop43
 90
        3
102
RTVSPost2010PropOp43
 70
     1
102
RTVSPost2010Prop44ColorIndex
 90
        5
102
RTVSPost2010Prop44ColorRGB
 90
      255
102
RTVSPost2010PropOp44
 70
     1
102
RTVSPost2010Prop45
280
     0
102
RTVSPost2010PropOp45
 70
     1
102
RTVSPost2010Prop46
 90
       50
102
RTVSPost2010PropOp46
 70
     1
102
RTVSPost2010Prop47
 90
       50
102
RTVSPost2010PropOp47
 70
     1
102
RTVSPost2010Prop48
 90
       50
102
RTVSPost2010PropOp48
 70
     1
102
RTVSPost2010Prop49
280
     0
102
RTVSPost2010PropOp49
 70
     1
102
RTVSPost2010Prop50
 90
       50
102
RTVSPost2010PropOp50
 70
     1
102
RTVSPost2010Prop51ColorIndex
 90
      256
102
RTVSPost2010Prop51ColorRGB
 90
-16777216
102
RTVSPost2010PropOp51
 70
     0
102
RTVSPost2010Prop52
140
1.0
102
RTVSPost2010PropOp52
 70
     0
102
RTVSPost2010Prop53
 90
        2
102
RTVSPost2010PropOp53
 70
     1
102
RTVSPost2010Prop54
  1
strokes_ogs.tif
102
RTVSPost2010PropOp54
 70
     1
102
RTVSPost2010Prop55
280
     0
102
RTVSPost2010PropOp55
 70
     1
102
RTVSPost2010Prop56
140
1.0
102
RTVSPost2010PropOp56
 70
     1
102
RTVSPost2010Prop57
140
1.0
102
RTVSPost2010PropOp57
 70
     1
  0
XRECORD
  5
170
102
{ACAD_REACTORS
330
16F
102
}
330
16F
100
AcDbXrecord
280
     1
102
RTVSPropertyOp0
 70
     1
102
RTVSPropertyOp1
 70
     1
102
RTVSPropertyOp2
 70
     1
102
RTVSPropertyOp3
 70
     1
102
RTVSPropertyOp4
 70
     1
102
RTVSPropertyOp5
 70
     1
102
RTVSPropertyOp6
 70
     1
102
RTVSPropertyOp7
 70
     1
102
RTVSPropertyOp8
 70
     1
102
RTVSPropertyOp9
 70
     1
102
RTVSPropertyOp10
 70
     1
102
RTVSPropertyOp11
 70
     1
102
RTVSPropertyOp12
 70
     1
102
RTVSPropertyOp13
 70
     1
102
RTVSPropertyOp14
 70
     1
102
RTVSPropertyOp15
 70
     1
102
RTVSPropertyOp16
 70
     1
102
RTVSPropertyOp17
 70
     1
102
RTVSPropertyOp18
 70
     1
102
RTVSPropertyOp19
 70
     1
102
RTVSPropertyOp20
 70
     1
102
RTVSPropertyOp21
 70
     1
102
RTVSPropertyOp22
 70
     1
102
RTVSPropertyOp23
 70
     1
102
RTVSPropertyOp24
 70
     1
102
RTVSPropertyOp25
 70
     1
102
RTVSPropertyOp26
 70
     1
102
RTVSPropertyOp27
 70
     1
102
RTVSPropertyOp28
 70
     1
102
RTVSPropertyOp29
 70
     1
102
RTVSPropertyOp30
 70
     1
102
RTVSPropertyOp31
 70
     1
102
RTVSPropertyOp32
 70
     1
102
RTVSPropertyOp33
 70
     1
102
RTVSPropertyOp34
 70
     1
102
RTVSPropertyOp35
 70
     1
102
RTVSPropertyOp36
 70
     1
102
RTVSPropertyOp37
 70
     1
102
RTVSPropertyOp38
 70
     1
102
RTVSPropertyOp39
 70
     1
102
RTVSPropertyOp40
 70
     1
102
RTVSPropertyOp41
 70
     1
102
RTVSPropertyOp42
 70
     1
102
RTVSPropertyOp43
 70
     1
102
RTVSPropertyOp44
 70
     1
102
RTVSPropertyOp45
 70
     1
102
RTVSPropertyOp46
 70
     1
102
RTVSPropertyOp47
 70
     1
102
RTVSPropertyOp48
 70
     1
102
RTVSPropertyOp49
 70
     1
102
RTVSPropertyOp50
 70
     1
102
RTVSPropertyOp51
 70
     0
102
RTVSPropertyOp52
 70
     0
102
RTVSPropertyOp53
 70
     1
102
RTVSPropertyOp54
 70
     1
102
RTVSPropertyOp55
 70
     1
102
RTVSPropertyOp56
 70
     1
102
RTVSPropertyOp57
 70
     1
102
RTVSPost2010Prop28
280
     0
102
RTVSPost2010PropOp28
 70
     1
102
RTVSPost2010Prop29
280
     1
102
RTVSPost2010PropOp29
 70
     1
102
RTVSPost2010Prop30
280
     1
102
RTVSPost2010PropOp30
 70
     1
102
RTVSPost2010Prop31
280
     0
102
RTVSPost2010PropOp31
 70
     1
102
RTVSPost2010Prop32
280
     0
102
RTVSPost2010PropOp32
 70
     1
102
RTVSPost2010Prop33
280
     0
102
RTVSPost2010PropOp33
 70
     1
102
RTVSPost2010Prop34
280
     0
102
RTVSPost2010PropOp34
 70
     1
102
RTVSPost2010Prop35
280
     0
102
RTVSPost2010PropOp35
 70
     1
102
RTVSPost2010Prop36
280
     0
102
RTVSPost2010PropOp36
 70
     1
102
RTVSPost2010Prop37
 90
       50
102
RTVSPost2010PropOp37
 70
     1
102
RTVSPost2010Prop38
140
0.0
102
RTVSPost2010PropOp38
 70
     1
102
RTVSPost2010Prop39
140
1.0
102
RTVSPost2010PropOp39
 70
     1
102
RTVSPost2010Prop40
 90
        0
102
RTVSPost2010PropOp40
 70
     1
102
RTVSPost2010Prop41ColorIndex
 90
       18
102
RTVSPost2010Prop41ColorRGB
 90
        0
102
RTVSPost2010PropOp41
 70
     1
102
RTVSPost2010Prop42
 90
       50
102
RTVSPost2010PropOp42
 70
     1
102
RTVSPost2010Prop43
 90
        3
102
RTVSPost2010PropOp43
 70
     1
102
RTVSPost2010Prop44ColorIndex
 90
        5
102
RTVSPost2010Prop44ColorRGB
 90
      255
102
RTVSPost2010PropOp44
 70
     1
102
RTVSPost2010Prop45
280
     0
102
RTVSPost2010PropOp45
 70
     1
102
RTVSPost2010Prop46
 90
       50
102
RTVSPost2010PropOp46
 70
     1
102
RTVSPost2010Prop47
 90
       50
102
RTVSPost2010PropOp47
 70
     1
102
RTVSPost2010Prop48
 90
       50
102
RTVSPost2010PropOp48
 70
     1
102
RTVSPost2010Prop49
280
     0
102
RTVSPost2010PropOp49
 70
     1
102
RTVSPost2010Prop50
 90
       50
102
RTVSPost2010PropOp50
 70
     1
102
RTVSPost2010Prop51ColorIndex
 90
      256
102
RTVSPost2010Prop51ColorRGB
 90
-16777216
102
RTVSPost2010PropOp51
 70
     0
102
RTVSPost2010Prop52
140
1.0
102
RTVSPost2010PropOp52
 70
     0
102
RTVSPost2010Prop53
 90
        2
102
RTVSPost2010PropOp53
 70
     1
102
RTVSPost2010Prop54
  1
strokes_ogs.tif
102
RTVSPost2010PropOp54
 70
     1
102
RTVSPost2010Prop55
280
     0
102
RTVSPost2010PropOp55
 70
     1
102
RTVSPost2010Prop56
140
1.0
102
RTVSPost2010PropOp56
 70
     1
102
RTVSPost2010Prop57
140
1.0
102
RTVSPost2010PropOp57
 70
     1
  0
XRECORD
  5
176
102
{ACAD_REACTORS
330
175
102
}
330
175
100
AcDbXrecord
280
     1
102
RTVSPropertyOp0
 70
     1
102
RTVSPropertyOp1
 70
     1
102
RTVSPropertyOp2
 70
     1
102
RTVSPropertyOp3
 70
     1
102
RTVSPropertyOp4
 70
     1
102
RTVSPropertyOp5
 70
     1
102
RTVSPropertyOp6
 70
     1
102
RTVSPropertyOp7
 70
     1
102
RTVSPropertyOp8
 70
     1
102
RTVSPropertyOp9
 70
     1
102
RTVSPropertyOp10
 70
     1
102
RTVSPropertyOp11
 70
     1
102
RTVSPropertyOp12
 70
     1
102
RTVSPropertyOp13
 70
     1
102
RTVSPropertyOp14
 70
     1
102
RTVSPropertyOp15
 70
     1
102
RTVSPropertyOp16
 70
     1
102
RTVSPropertyOp17
 70
     1
102
RTVSPropertyOp18
 70
     1
102
RTVSPropertyOp19
 70
     1
102
RTVSPropertyOp20
 70
     1
102
RTVSPropertyOp21
 70
     1
102
RTVSPropertyOp22
 70
     1
102
RTVSPropertyOp23
 70
     1
102
RTVSPropertyOp24
 70
     1
102
RTVSPropertyOp25
 70
     1
102
RTVSPropertyOp26
 70
     1
102
RTVSPropertyOp27
 70
     1
102
RTVSPropertyOp28
 70
     1
102
RTVSPropertyOp29
 70
     1
102
RTVSPropertyOp30
 70
     1
102
RTVSPropertyOp31
 70
     1
102
RTVSPropertyOp32
 70
     1
102
RTVSPropertyOp33
 70
     1
102
RTVSPropertyOp34
 70
     1
102
RTVSPropertyOp35
 70
     1
102
RTVSPropertyOp36
 70
     1
102
RTVSPropertyOp37
 70
     1
102
RTVSPropertyOp38
 70
     1
102
RTVSPropertyOp39
 70
     1
102
RTVSPropertyOp40
 70
     1
102
RTVSPropertyOp41
 70
     1
102
RTVSPropertyOp42
 70
     1
102
RTVSPropertyOp43
 70
     1
102
RTVSPropertyOp44
 70
     1
102
RTVSPropertyOp45
 70
     1
102
RTVSPropertyOp46
 70
     1
102
RTVSPropertyOp47
 70
     1
102
RTVSPropertyOp48
 70
     1
102
RTVSPropertyOp49
 70
     1
102
RTVSPropertyOp50
 70
     1
102
RTVSPropertyOp51
 70
     0
102
RTVSPropertyOp52
 70
     0
102
RTVSPropertyOp53
 70
     1
102
RTVSPropertyOp54
 70
     1
102
RTVSPropertyOp55
 70
     1
102
RTVSPropertyOp56
 70
     1
102
RTVSPropertyOp57
 70
     1
102
RTVSPost2010Prop28
280
     0
102
RTVSPost2010PropOp28
 70
     1
102
RTVSPost2010Prop29
280
     1
102
RTVSPost2010PropOp29
 70
     1
102
RTVSPost2010Prop30
280
     1
102
RTVSPost2010PropOp30
 70
     1
102
RTVSPost2010Prop31
280
     0
102
RTVSPost2010PropOp31
 70
     1
102
RTVSPost2010Prop32
280
     0
102
RTVSPost2010PropOp32
 70
     1
102
RTVSPost2010Prop33
280
     0
102
RTVSPost2010PropOp33
 70
     1
102
RTVSPost2010Prop34
280
     0
102
RTVSPost2010PropOp34
 70
     1
102
RTVSPost2010Prop35
280
     0
102
RTVSPost2010PropOp35
 70
     1
102
RTVSPost2010Prop36
280
     0
102
RTVSPost2010PropOp36
 70
     1
102
RTVSPost2010Prop37
 90
       50
102
RTVSPost2010PropOp37
 70
     1
102
RTVSPost2010Prop38
140
0.0
102
RTVSPost2010PropOp38
 70
     1
102
RTVSPost2010Prop39
140
1.0
102
RTVSPost2010PropOp39
 70
     1
102
RTVSPost2010Prop40
 90
        0
102
RTVSPost2010PropOp40
 70
     1
102
RTVSPost2010Prop41ColorIndex
 90
       18
102
RTVSPost2010Prop41ColorRGB
 90
        0
102
RTVSPost2010PropOp41
 70
     1
102
RTVSPost2010Prop42
 90
       50
102
RTVSPost2010PropOp42
 70
     1
102
RTVSPost2010Prop43
 90
        3
102
RTVSPost2010PropOp43
 70
     1
102
RTVSPost2010Prop44ColorIndex
 90
        5
102
RTVSPost2010Prop44ColorRGB
 90
      255
102
RTVSPost2010PropOp44
 70
     1
102
RTVSPost2010Prop45
280
     0
102
RTVSPost2010PropOp45
 70
     1
102
RTVSPost2010Prop46
 90
       50
102
RTVSPost2010PropOp46
 70
     1
102
RTVSPost2010Prop47
 90
       50
102
RTVSPost2010PropOp47
 70
     1
102
RTVSPost2010Prop48
 90
       50
102
RTVSPost2010PropOp48
 70
     1
102
RTVSPost2010Prop49
280
     0
102
RTVSPost2010PropOp49
 70
     1
102
RTVSPost2010Prop50
 90
       50
102
RTVSPost2010PropOp50
 70
     1
102
RTVSPost2010Prop51ColorIndex
 90
      256
102
RTVSPost2010Prop51ColorRGB
 90
-16777216
102
RTVSPost2010PropOp51
 70
     0
102
RTVSPost2010Prop52
140
1.0
102
RTVSPost2010PropOp52
 70
     0
102
RTVSPost2010Prop53
 90
        2
102
RTVSPost2010PropOp53
 70
     1
102
RTVSPost2010Prop54
  1
strokes_ogs.tif
102
RTVSPost2010PropOp54
 70
     1
102
RTVSPost2010Prop55
280
     0
102
RTVSPost2010PropOp55
 70
     1
102
RTVSPost2010Prop56
140
1.0
102
RTVSPost2010PropOp56
 70
     1
102
RTVSPost2010Prop57
140
1.0
102
RTVSPost2010PropOp57
 70
     1
  0
XRECORD
  5
18A
102
{ACAD_REACTORS
330
189
102
}
330
189
100
AcDbXrecord
280
     1
102
RTVSPropertyOp0
 70
     0
102
RTVSPropertyOp1
 70
     0
102
RTVSPropertyOp2
 70
     0
102
RTVSPropertyOp3
 70
     0
102
RTVSPropertyOp4
 70
     0
102
RTVSPropertyOp5
 70
     0
102
RTVSPropertyOp6
 70
     0
102
RTVSPropertyOp7
 70
     0
102
RTVSPropertyOp8
 70
     0
102
RTVSPropertyOp9
 70
     0
102
RTVSPropertyOp10
 70
     0
102
RTVSPropertyOp11
 70
     0
102
RTVSPropertyOp12
 70
     0
102
RTVSPropertyOp13
 70
     0
102
RTVSPropertyOp14
 70
     2
102
RTVSPropertyOp15
 70
     0
102
RTVSPropertyOp16
 70
     0
102
RTVSPropertyOp17
 70
     0
102
RTVSPropertyOp18
 70
     0
102
RTVSPropertyOp19
 70
     0
102
RTVSPropertyOp20
 70
     0
102
RTVSPropertyOp21
 70
     0
102
RTVSPropertyOp22
 70
     0
102
RTVSPropertyOp23
 70
     0
102
RTVSPropertyOp24
 70
     0
102
RTVSPropertyOp25
 70
     0
102
RTVSPropertyOp26
 70
     0
102
RTVSPropertyOp27
 70
     0
102
RTVSPropertyOp28
 70
     0
102
RTVSPropertyOp29
 70
     0
102
RTVSPropertyOp30
 70
     0
102
RTVSPropertyOp31
 70
     0
102
RTVSPropertyOp32
 70
     0
102
RTVSPropertyOp33
 70
     0
102
RTVSPropertyOp34
 70
     0
102
RTVSPropertyOp35
 70
     0
102
RTVSPropertyOp36
 70
     0
102
RTVSPropertyOp37
 70
     0
102
RTVSPropertyOp38
 70
     0
102
RTVSPropertyOp39
 70
     0
102
RTVSPropertyOp40
 70
     0
102
RTVSPropertyOp41
 70
     0
102
RTVSPropertyOp42
 70
     0
102
RTVSPropertyOp43
 70
     0
102
RTVSPropertyOp44
 70
     0
102
RTVSPropertyOp45
 70
     0
102
RTVSPropertyOp46
 70
     0
102
RTVSPropertyOp47
 70
     0
102
RTVSPropertyOp48
 70
     0
102
RTVSPropertyOp49
 70
     0
102
RTVSPropertyOp50
 70
     0
102
RTVSPropertyOp51
 70
     0
102
RTVSPropertyOp52
 70
     0
102
RTVSPropertyOp53
 70
     0
102
RTVSPropertyOp54
 70
     0
102
RTVSPropertyOp55
 70
     0
102
RTVSPropertyOp56
 70
     0
102
RTVSPropertyOp57
 70
     0
102
RTVSPost2010Prop28
280
     0
102
RTVSPost2010PropOp28
 70
     0
102
RTVSPost2010Prop29
280
     1
102
RTVSPost2010PropOp29
 70
     0
102
RTVSPost2010Prop30
280
     1
102
RTVSPost2010PropOp30
 70
     0
102
RTVSPost2010Prop31
280
     0
102
RTVSPost2010PropOp31
 70
     0
102
RTVSPost2010Prop32
280
     0
102
RTVSPost2010PropOp32
 70
     0
102
RTVSPost2010Prop33
280
     0
102
RTVSPost2010PropOp33
 70
     0
102
RTVSPost2010Prop34
280
     0
102
RTVSPost2010PropOp34
 70
     0
102
RTVSPost2010Prop35
280
     0
102
RTVSPost2010PropOp35
 70
     0
102
RTVSPost2010Prop36
280
     0
102
RTVSPost2010PropOp36
 70
     0
102
RTVSPost2010Prop37
 90
       50
102
RTVSPost2010PropOp37
 70
     0
102
RTVSPost2010Prop38
140
0.0
102
RTVSPost2010PropOp38
 70
     0
102
RTVSPost2010Prop39
140
1.0
102
RTVSPost2010PropOp39
 70
     0
102
RTVSPost2010Prop40
 90
        0
102
RTVSPost2010PropOp40
 70
     0
102
RTVSPost2010Prop41ColorIndex
 90
       18
102
RTVSPost2010Prop41ColorRGB
 90
        0
102
RTVSPost2010PropOp41
 70
     0
102
RTVSPost2010Prop42
 90
       50
102
RTVSPost2010PropOp42
 70
     0
102
RTVSPost2010Prop43
 90
        3
102
RTVSPost2010PropOp43
 70
     0
102
RTVSPost2010Prop44ColorIndex
 90
        5
102
RTVSPost2010Prop44ColorRGB
 90
      255
102
RTVSPost2010PropOp44
 70
     0
102
RTVSPost2010Prop45
280
     0
102
RTVSPost2010PropOp45
 70
     0
102
RTVSPost2010Prop46
 90
       50
102
RTVSPost2010PropOp46
 70
     0
102
RTVSPost2010Prop47
 90
       50
102
RTVSPost2010PropOp47
 70
     0
102
RTVSPost2010Prop48
 90
       50
102
RTVSPost2010PropOp48
 70
     0
102
RTVSPost2010Prop49
280
     0
102
RTVSPost2010PropOp49
 70
     0
102
RTVSPost2010Prop50
 90
       50
102
RTVSPost2010PropOp50
 70
     0
102
RTVSPost2010Prop51ColorIndex
 90
      256
102
RTVSPost2010Prop51ColorRGB
 90
-16777216
102
RTVSPost2010PropOp51
 70
     0
102
RTVSPost2010Prop52
140
1.0
102
RTVSPost2010PropOp52
 70
     0
102
RTVSPost2010Prop53
 90
        2
102
RTVSPost2010PropOp53
 70
     0
102
RTVSPost2010Prop54
  1
strokes_ogs.tif
102
RTVSPost2010PropOp54
 70
     0
102
RTVSPost2010Prop55
280
     0
102
RTVSPost2010PropOp55
 70
     0
102
RTVSPost2010Prop56
140
1.0
102
RTVSPost2010PropOp56
 70
     0
102
RTVSPost2010Prop57
140
1.0
102
RTVSPost2010PropOp57
 70
     0
  0
XRECORD
  5
184
102
{ACAD_REACTORS
330
183
102
}
330
183
100
AcDbXrecord
280
     1
102
RTVSPropertyOp0
 70
     1
102
RTVSPropertyOp1
 70
     1
102
RTVSPropertyOp2
 70
     1
102
RTVSPropertyOp3
 70
     1
102
RTVSPropertyOp4
 70
     1
102
RTVSPropertyOp5
 70
     1
102
RTVSPropertyOp6
 70
     1
102
RTVSPropertyOp7
 70
     1
102
RTVSPropertyOp8
 70
     1
102
RTVSPropertyOp9
 70
     1
102
RTVSPropertyOp10
 70
     1
102
RTVSPropertyOp11
 70
     1
102
RTVSPropertyOp12
 70
     1
102
RTVSPropertyOp13
 70
     1
102
RTVSPropertyOp14
 70
     1
102
RTVSPropertyOp15
 70
     1
102
RTVSPropertyOp16
 70
     1
102
RTVSPropertyOp17
 70
     1
102
RTVSPropertyOp18
 70
     1
102
RTVSPropertyOp19
 70
     1
102
RTVSPropertyOp20
 70
     1
102
RTVSPropertyOp21
 70
     1
102
RTVSPropertyOp22
 70
     1
102
RTVSPropertyOp23
 70
     1
102
RTVSPropertyOp24
 70
     1
102
RTVSPropertyOp25
 70
     1
102
RTVSPropertyOp26
 70
     1
102
RTVSPropertyOp27
 70
     1
102
RTVSPropertyOp28
 70
     1
102
RTVSPropertyOp29
 70
     1
102
RTVSPropertyOp30
 70
     1
102
RTVSPropertyOp31
 70
     1
102
RTVSPropertyOp32
 70
     1
102
RTVSPropertyOp33
 70
     1
102
RTVSPropertyOp34
 70
     1
102
RTVSPropertyOp35
 70
     1
102
RTVSPropertyOp36
 70
     1
102
RTVSPropertyOp37
 70
     1
102
RTVSPropertyOp38
 70
     1
102
RTVSPropertyOp39
 70
     1
102
RTVSPropertyOp40
 70
     1
102
RTVSPropertyOp41
 70
     1
102
RTVSPropertyOp42
 70
     1
102
RTVSPropertyOp43
 70
     1
102
RTVSPropertyOp44
 70
     1
102
RTVSPropertyOp45
 70
     1
102
RTVSPropertyOp46
 70
     1
102
RTVSPropertyOp47
 70
     1
102
RTVSPropertyOp48
 70
     1
102
RTVSPropertyOp49
 70
     1
102
RTVSPropertyOp50
 70
     1
102
RTVSPropertyOp51
 70
     0
102
RTVSPropertyOp52
 70
     0
102
RTVSPropertyOp53
 70
     1
102
RTVSPropertyOp54
 70
     1
102
RTVSPropertyOp55
 70
     1
102
RTVSPropertyOp56
 70
     1
102
RTVSPropertyOp57
 70
     1
102
RTVSPost2010Prop28
280
     0
102
RTVSPost2010PropOp28
 70
     1
102
RTVSPost2010Prop29
280
     1
102
RTVSPost2010PropOp29
 70
     1
102
RTVSPost2010Prop30
280
     1
102
RTVSPost2010PropOp30
 70
     1
102
RTVSPost2010Prop31
280
     0
102
RTVSPost2010PropOp31
 70
     1
102
RTVSPost2010Prop32
280
     0
102
RTVSPost2010PropOp32
 70
     1
102
RTVSPost2010Prop33
280
     0
102
RTVSPost2010PropOp33
 70
     1
102
RTVSPost2010Prop34
280
     0
102
RTVSPost2010PropOp34
 70
     1
102
RTVSPost2010Prop35
280
     0
102
RTVSPost2010PropOp35
 70
     1
102
RTVSPost2010Prop36
280
     0
102
RTVSPost2010PropOp36
 70
     1
102
RTVSPost2010Prop37
 90
       50
102
RTVSPost2010PropOp37
 70
     1
102
RTVSPost2010Prop38
140
0.0
102
RTVSPost2010PropOp38
 70
     1
102
RTVSPost2010Prop39
140
1.0
102
RTVSPost2010PropOp39
 70
     1
102
RTVSPost2010Prop40
 90
        0
102
RTVSPost2010PropOp40
 70
     1
102
RTVSPost2010Prop41ColorIndex
 90
       18
102
RTVSPost2010Prop41ColorRGB
 90
        0
102
RTVSPost2010PropOp41
 70
     1
102
RTVSPost2010Prop42
 90
       50
102
RTVSPost2010PropOp42
 70
     1
102
RTVSPost2010Prop43
 90
        3
102
RTVSPost2010PropOp43
 70
     1
102
RTVSPost2010Prop44ColorIndex
 90
        5
102
RTVSPost2010Prop44ColorRGB
 90
      255
102
RTVSPost2010PropOp44
 70
     1
102
RTVSPost2010Prop45
280
     0
102
RTVSPost2010PropOp45
 70
     1
102
RTVSPost2010Prop46
 90
       50
102
RTVSPost2010PropOp46
 70
     1
102
RTVSPost2010Prop47
 90
       50
102
RTVSPost2010PropOp47
 70
     1
102
RTVSPost2010Prop48
 90
       50
102
RTVSPost2010PropOp48
 70
     1
102
RTVSPost2010Prop49
280
     0
102
RTVSPost2010PropOp49
 70
     1
102
RTVSPost2010Prop50
 90
       50
102
RTVSPost2010PropOp50
 70
     1
102
RTVSPost2010Prop51ColorIndex
 90
      256
102
RTVSPost2010Prop51ColorRGB
 90
-16777216
102
RTVSPost2010PropOp51
 70
     0
102
RTVSPost2010Prop52
140
1.0
102
RTVSPost2010PropOp52
 70
     0
102
RTVSPost2010Prop53
 90
        2
102
RTVSPost2010PropOp53
 70
     1
102
RTVSPost2010Prop54
  1
strokes_ogs.tif
102
RTVSPost2010PropOp54
 70
     1
102
RTVSPost2010Prop55
280
     0
102
RTVSPost2010PropOp55
 70
     1
102
RTVSPost2010Prop56
140
1.0
102
RTVSPost2010PropOp56
 70
     1
102
RTVSPost2010Prop57
140
1.0
102
RTVSPost2010PropOp57
 70
     1
  0
XRECORD
  5
18C
102
{ACAD_REACTORS
330
18B
102
}
330
18B
100
AcDbXrecord
280
     1
102
RTVSPropertyOp0
 70
     0
102
RTVSPropertyOp1
 70
     0
102
RTVSPropertyOp2
 70
     0
102
RTVSPropertyOp3
 70
     0
102
RTVSPropertyOp4
 70
     0
102
RTVSPropertyOp5
 70
     0
102
RTVSPropertyOp6
 70
     0
102
RTVSPropertyOp7
 70
     0
102
RTVSPropertyOp8
 70
     0
102
RTVSPropertyOp9
 70
     0
102
RTVSPropertyOp10
 70
     0
102
RTVSPropertyOp11
 70
     0
102
RTVSPropertyOp12
 70
     0
102
RTVSPropertyOp13
 70
     0
102
RTVSPropertyOp14
 70
     2
102
RTVSPropertyOp15
 70
     0
102
RTVSPropertyOp16
 70
     0
102
RTVSPropertyOp17
 70
     0
102
RTVSPropertyOp18
 70
     0
102
RTVSPropertyOp19
 70
     0
102
RTVSPropertyOp20
 70
     0
102
RTVSPropertyOp21
 70
     0
102
RTVSPropertyOp22
 70
     0
102
RTVSPropertyOp23
 70
     0
102
RTVSPropertyOp24
 70
     0
102
RTVSPropertyOp25
 70
     0
102
RTVSPropertyOp26
 70
     0
102
RTVSPropertyOp27
 70
     0
102
RTVSPropertyOp28
 70
     0
102
RTVSPropertyOp29
 70
     0
102
RTVSPropertyOp30
 70
     0
102
RTVSPropertyOp31
 70
     0
102
RTVSPropertyOp32
 70
     0
102
RTVSPropertyOp33
 70
     0
102
RTVSPropertyOp34
 70
     0
102
RTVSPropertyOp35
 70
     0
102
RTVSPropertyOp36
 70
     0
102
RTVSPropertyOp37
 70
     0
102
RTVSPropertyOp38
 70
     0
102
RTVSPropertyOp39
 70
     0
102
RTVSPropertyOp40
 70
     0
102
RTVSPropertyOp41
 70
     0
102
RTVSPropertyOp42
 70
     0
102
RTVSPropertyOp43
 70
     0
102
RTVSPropertyOp44
 70
     0
102
RTVSPropertyOp45
 70
     0
102
RTVSPropertyOp46
 70
     0
102
RTVSPropertyOp47
 70
     0
102
RTVSPropertyOp48
 70
     0
102
RTVSPropertyOp49
 70
     0
102
RTVSPropertyOp50
 70
     0
102
RTVSPropertyOp51
 70
     0
102
RTVSPropertyOp52
 70
     0
102
RTVSPropertyOp53
 70
     0
102
RTVSPropertyOp54
 70
     0
102
RTVSPropertyOp55
 70
     0
102
RTVSPropertyOp56
 70
     0
102
RTVSPropertyOp57
 70
     0
102
RTVSPost2010Prop28
280
     0
102
RTVSPost2010PropOp28
 70
     0
102
RTVSPost2010Prop29
280
     1
102
RTVSPost2010PropOp29
 70
     0
102
RTVSPost2010Prop30
280
     1
102
RTVSPost2010PropOp30
 70
     0
102
RTVSPost2010Prop31
280
     0
102
RTVSPost2010PropOp31
 70
     0
102
RTVSPost2010Prop32
280
     0
102
RTVSPost2010PropOp32
 70
     0
102
RTVSPost2010Prop33
280
     0
102
RTVSPost2010PropOp33
 70
     0
102
RTVSPost2010Prop34
280
     0
102
RTVSPost2010PropOp34
 70
     0
102
RTVSPost2010Prop35
280
     0
102
RTVSPost2010PropOp35
 70
     0
102
RTVSPost2010Prop36
280
     0
102
RTVSPost2010PropOp36
 70
     0
102
RTVSPost2010Prop37
 90
       50
102
RTVSPost2010PropOp37
 70
     0
102
RTVSPost2010Prop38
140
0.0
102
RTVSPost2010PropOp38
 70
     0
102
RTVSPost2010Prop39
140
1.0
102
RTVSPost2010PropOp39
 70
     0
102
RTVSPost2010Prop40
 90
        0
102
RTVSPost2010PropOp40
 70
     0
102
RTVSPost2010Prop41ColorIndex
 90
       18
102
RTVSPost2010Prop41ColorRGB
 90
        0
102
RTVSPost2010PropOp41
 70
     0
102
RTVSPost2010Prop42
 90
       50
102
RTVSPost2010PropOp42
 70
     0
102
RTVSPost2010Prop43
 90
        3
102
RTVSPost2010PropOp43
 70
     0
102
RTVSPost2010Prop44ColorIndex
 90
        5
102
RTVSPost2010Prop44ColorRGB
 90
      255
102
RTVSPost2010PropOp44
 70
     0
102
RTVSPost2010Prop45
280
     0
102
RTVSPost2010PropOp45
 70
     0
102
RTVSPost2010Prop46
 90
       50
102
RTVSPost2010PropOp46
 70
     0
102
RTVSPost2010Prop47
 90
       50
102
RTVSPost2010PropOp47
 70
     0
102
RTVSPost2010Prop48
 90
       50
102
RTVSPost2010PropOp48
 70
     0
102
RTVSPost2010Prop49
280
     0
102
RTVSPost2010PropOp49
 70
     0
102
RTVSPost2010Prop50
 90
       50
102
RTVSPost2010PropOp50
 70
     0
102
RTVSPost2010Prop51ColorIndex
 90
      256
102
RTVSPost2010Prop51ColorRGB
 90
-16777216
102
RTVSPost2010PropOp51
 70
     0
102
RTVSPost2010Prop52
140
1.0
102
RTVSPost2010PropOp52
 70
     0
102
RTVSPost2010Prop53
 90
        2
102
RTVSPost2010PropOp53
 70
     0
102
RTVSPost2010Prop54
  1
strokes_ogs.tif
102
RTVSPost2010PropOp54
 70
     0
102
RTVSPost2010Prop55
280
     0
102
RTVSPost2010PropOp55
 70
     0
102
RTVSPost2010Prop56
140
1.0
102
RTVSPost2010PropOp56
 70
     0
102
RTVSPost2010Prop57
140
1.0
102
RTVSPost2010PropOp57
 70
     0
  0
XRECORD
  5
17A
102
{ACAD_REACTORS
330
179
102
}
330
179
100
AcDbXrecord
280
     1
102
RTVSPropertyOp0
 70
     1
102
RTVSPropertyOp1
 70
     1
102
RTVSPropertyOp2
 70
     1
102
RTVSPropertyOp3
 70
     1
102
RTVSPropertyOp4
 70
     1
102
RTVSPropertyOp5
 70
     1
102
RTVSPropertyOp6
 70
     1
102
RTVSPropertyOp7
 70
     1
102
RTVSPropertyOp8
 70
     1
102
RTVSPropertyOp9
 70
     1
102
RTVSPropertyOp10
 70
     1
102
RTVSPropertyOp11
 70
     1
102
RTVSPropertyOp12
 70
     1
102
RTVSPropertyOp13
 70
     1
102
RTVSPropertyOp14
 70
     1
102
RTVSPropertyOp15
 70
     1
102
RTVSPropertyOp16
 70
     1
102
RTVSPropertyOp17
 70
     1
102
RTVSPropertyOp18
 70
     1
102
RTVSPropertyOp19
 70
     1
102
RTVSPropertyOp20
 70
     1
102
RTVSPropertyOp21
 70
     1
102
RTVSPropertyOp22
 70
     1
102
RTVSPropertyOp23
 70
     1
102
RTVSPropertyOp24
 70
     1
102
RTVSPropertyOp25
 70
     1
102
RTVSPropertyOp26
 70
     1
102
RTVSPropertyOp27
 70
     1
102
RTVSPropertyOp28
 70
     1
102
RTVSPropertyOp29
 70
     1
102
RTVSPropertyOp30
 70
     1
102
RTVSPropertyOp31
 70
     1
102
RTVSPropertyOp32
 70
     1
102
RTVSPropertyOp33
 70
     1
102
RTVSPropertyOp34
 70
     1
102
RTVSPropertyOp35
 70
     1
102
RTVSPropertyOp36
 70
     1
102
RTVSPropertyOp37
 70
     1
102
RTVSPropertyOp38
 70
     1
102
RTVSPropertyOp39
 70
     1
102
RTVSPropertyOp40
 70
     1
102
RTVSPropertyOp41
 70
     1
102
RTVSPropertyOp42
 70
     1
102
RTVSPropertyOp43
 70
     1
102
RTVSPropertyOp44
 70
     1
102
RTVSPropertyOp45
 70
     1
102
RTVSPropertyOp46
 70
     1
102
RTVSPropertyOp47
 70
     1
102
RTVSPropertyOp48
 70
     1
102
RTVSPropertyOp49
 70
     1
102
RTVSPropertyOp50
 70
     1
102
RTVSPropertyOp51
 70
     0
102
RTVSPropertyOp52
 70
     0
102
RTVSPropertyOp53
 70
     1
102
RTVSPropertyOp54
 70
     1
102
RTVSPropertyOp55
 70
     1
102
RTVSPropertyOp56
 70
     1
102
RTVSPropertyOp57
 70
     1
102
RTVSPost2010Prop28
280
     0
102
RTVSPost2010PropOp28
 70
     1
102
RTVSPost2010Prop29
280
     1
102
RTVSPost2010PropOp29
 70
     1
102
RTVSPost2010Prop30
280
     1
102
RTVSPost2010PropOp30
 70
     1
102
RTVSPost2010Prop31
280
     0
102
RTVSPost2010PropOp31
 70
     1
102
RTVSPost2010Prop32
280
     0
102
RTVSPost2010PropOp32
 70
     1
102
RTVSPost2010Prop33
280
     0
102
RTVSPost2010PropOp33
 70
     1
102
RTVSPost2010Prop34
280
     0
102
RTVSPost2010PropOp34
 70
     1
102
RTVSPost2010Prop35
280
     0
102
RTVSPost2010PropOp35
 70
     1
102
RTVSPost2010Prop36
280
     0
102
RTVSPost2010PropOp36
 70
     1
102
RTVSPost2010Prop37
 90
       50
102
RTVSPost2010PropOp37
 70
     1
102
RTVSPost2010Prop38
140
0.0
102
RTVSPost2010PropOp38
 70
     1
102
RTVSPost2010Prop39
140
1.0
102
RTVSPost2010PropOp39
 70
     1
102
RTVSPost2010Prop40
 90
        0
102
RTVSPost2010PropOp40
 70
     1
102
RTVSPost2010Prop41ColorIndex
 90
       18
102
RTVSPost2010Prop41ColorRGB
 90
        0
102
RTVSPost2010PropOp41
 70
     1
102
RTVSPost2010Prop42
 90
       50
102
RTVSPost2010PropOp42
 70
     1
102
RTVSPost2010Prop43
 90
        3
102
RTVSPost2010PropOp43
 70
     1
102
RTVSPost2010Prop44ColorIndex
 90
        5
102
RTVSPost2010Prop44ColorRGB
 90
      255
102
RTVSPost2010PropOp44
 70
     1
102
RTVSPost2010Prop45
280
     0
102
RTVSPost2010PropOp45
 70
     1
102
RTVSPost2010Prop46
 90
       50
102
RTVSPost2010PropOp46
 70
     1
102
RTVSPost2010Prop47
 90
       50
102
RTVSPost2010PropOp47
 70
     1
102
RTVSPost2010Prop48
 90
       50
102
RTVSPost2010PropOp48
 70
     1
102
RTVSPost2010Prop49
280
     0
102
RTVSPost2010PropOp49
 70
     1
102
RTVSPost2010Prop50
 90
       50
102
RTVSPost2010PropOp50
 70
     1
102
RTVSPost2010Prop51ColorIndex
 90
      256
102
RTVSPost2010Prop51ColorRGB
 90
-16777216
102
RTVSPost2010PropOp51
 70
     0
102
RTVSPost2010Prop52
140
1.0
102
RTVSPost2010PropOp52
 70
     0
102
RTVSPost2010Prop53
 90
        2
102
RTVSPost2010PropOp53
 70
     1
102
RTVSPost2010Prop54
  1
strokes_ogs.tif
102
RTVSPost2010PropOp54
 70
     1
102
RTVSPost2010Prop55
280
     0
102
RTVSPost2010PropOp55
 70
     1
102
RTVSPost2010Prop56
140
1.0
102
RTVSPost2010PropOp56
 70
     1
102
RTVSPost2010Prop57
140
1.0
102
RTVSPost2010PropOp57
 70
     1
  0
XRECORD
  5
198
102
{ACAD_REACTORS
330
197
102
}
330
197
100
AcDbXrecord
280
     1
102
RTVSPropertyOp0
 70
     1
102
RTVSPropertyOp1
 70
     1
102
RTVSPropertyOp2
 70
     1
102
RTVSPropertyOp3
 70
     1
102
RTVSPropertyOp4
 70
     1
102
RTVSPropertyOp5
 70
     1
102
RTVSPropertyOp6
 70
     1
102
RTVSPropertyOp7
 70
     1
102
RTVSPropertyOp8
 70
     1
102
RTVSPropertyOp9
 70
     1
102
RTVSPropertyOp10
 70
     1
102
RTVSPropertyOp11
 70
     1
102
RTVSPropertyOp12
 70
     1
102
RTVSPropertyOp13
 70
     1
102
RTVSPropertyOp14
 70
     1
102
RTVSPropertyOp15
 70
     1
102
RTVSPropertyOp16
 70
     1
102
RTVSPropertyOp17
 70
     1
102
RTVSPropertyOp18
 70
     1
102
RTVSPropertyOp19
 70
     1
102
RTVSPropertyOp20
 70
     1
102
RTVSPropertyOp21
 70
     1
102
RTVSPropertyOp22
 70
     1
102
RTVSPropertyOp23
 70
     1
102
RTVSPropertyOp24
 70
     1
102
RTVSPropertyOp25
 70
     1
102
RTVSPropertyOp26
 70
     1
102
RTVSPropertyOp27
 70
     1
102
RTVSPropertyOp28
 70
     1
102
RTVSPropertyOp29
 70
     1
102
RTVSPropertyOp30
 70
     1
102
RTVSPropertyOp31
 70
     1
102
RTVSPropertyOp32
 70
     1
102
RTVSPropertyOp33
 70
     1
102
RTVSPropertyOp34
 70
     1
102
RTVSPropertyOp35
 70
     1
102
RTVSPropertyOp36
 70
     1
102
RTVSPropertyOp37
 70
     1
102
RTVSPropertyOp38
 70
     1
102
RTVSPropertyOp39
 70
     1
102
RTVSPropertyOp40
 70
     1
102
RTVSPropertyOp41
 70
     1
102
RTVSPropertyOp42
 70
     1
102
RTVSPropertyOp43
 70
     1
102
RTVSPropertyOp44
 70
     1
102
RTVSPropertyOp45
 70
     1
102
RTVSPropertyOp46
 70
     1
102
RTVSPropertyOp47
 70
     1
102
RTVSPropertyOp48
 70
     1
102
RTVSPropertyOp49
 70
     1
102
RTVSPropertyOp50
 70
     1
102
RTVSPropertyOp51
 70
     0
102
RTVSPropertyOp52
 70
     0
102
RTVSPropertyOp53
 70
     1
102
RTVSPropertyOp54
 70
     1
102
RTVSPropertyOp55
 70
     1
102
RTVSPropertyOp56
 70
     1
102
RTVSPropertyOp57
 70
     1
102
RTVSPost2010Prop28
280
     0
102
RTVSPost2010PropOp28
 70
     1
102
RTVSPost2010Prop29
280
     1
102
RTVSPost2010PropOp29
 70
     1
102
RTVSPost2010Prop30
280
     1
102
RTVSPost2010PropOp30
 70
     1
102
RTVSPost2010Prop31
280
     0
102
RTVSPost2010PropOp31
 70
     1
102
RTVSPost2010Prop32
280
     0
102
RTVSPost2010PropOp32
 70
     1
102
RTVSPost2010Prop33
280
     0
102
RTVSPost2010PropOp33
 70
     1
102
RTVSPost2010Prop34
280
     0
102
RTVSPost2010PropOp34
 70
     1
102
RTVSPost2010Prop35
280
     0
102
RTVSPost2010PropOp35
 70
     1
102
RTVSPost2010Prop36
280
     0
102
RTVSPost2010PropOp36
 70
     1
102
RTVSPost2010Prop37
 90
       50
102
RTVSPost2010PropOp37
 70
     1
102
RTVSPost2010Prop38
140
0.0
102
RTVSPost2010PropOp38
 70
     1
102
RTVSPost2010Prop39
140
1.0
102
RTVSPost2010PropOp39
 70
     1
102
RTVSPost2010Prop40
 90
        0
102
RTVSPost2010PropOp40
 70
     1
102
RTVSPost2010Prop41ColorIndex
 90
       18
102
RTVSPost2010Prop41ColorRGB
 90
        0
102
RTVSPost2010PropOp41
 70
     1
102
RTVSPost2010Prop42
 90
       50
102
RTVSPost2010PropOp42
 70
     1
102
RTVSPost2010Prop43
 90
        3
102
RTVSPost2010PropOp43
 70
     1
102
RTVSPost2010Prop44ColorIndex
 90
        5
102
RTVSPost2010Prop44ColorRGB
 90
      255
102
RTVSPost2010PropOp44
 70
     1
102
RTVSPost2010Prop45
280
     0
102
RTVSPost2010PropOp45
 70
     1
102
RTVSPost2010Prop46
 90
       50
102
RTVSPost2010PropOp46
 70
     1
102
RTVSPost2010Prop47
 90
       50
102
RTVSPost2010PropOp47
 70
     1
102
RTVSPost2010Prop48
 90
       50
102
RTVSPost2010PropOp48
 70
     1
102
RTVSPost2010Prop49
280
     0
102
RTVSPost2010PropOp49
 70
     1
102
RTVSPost2010Prop50
 90
       50
102
RTVSPost2010PropOp50
 70
     1
102
RTVSPost2010Prop51ColorIndex
 90
      256
102
RTVSPost2010Prop51ColorRGB
 90
-16777216
102
RTVSPost2010PropOp51
 70
     0
102
RTVSPost2010Prop52
140
1.0
102
RTVSPost2010PropOp52
 70
     0
102
RTVSPost2010Prop53
 90
        2
102
RTVSPost2010PropOp53
 70
     1
102
RTVSPost2010Prop54
  1
strokes_ogs.tif
102
RTVSPost2010PropOp54
 70
     1
102
RTVSPost2010Prop55
280
     0
102
RTVSPost2010PropOp55
 70
     1
102
RTVSPost2010Prop56
140
1.0
102
RTVSPost2010PropOp56
 70
     1
102
RTVSPost2010Prop57
140
1.0
102
RTVSPost2010PropOp57
 70
     1
  0
XRECORD
  5
196
102
{ACAD_REACTORS
330
195
102
}
330
195
100
AcDbXrecord
280
     1
102
RTVSPropertyOp0
 70
     1
102
RTVSPropertyOp1
 70
     1
102
RTVSPropertyOp2
 70
     1
102
RTVSPropertyOp3
 70
     1
102
RTVSPropertyOp4
 70
     1
102
RTVSPropertyOp5
 70
     1
102
RTVSPropertyOp6
 70
     1
102
RTVSPropertyOp7
 70
     1
102
RTVSPropertyOp8
 70
     1
102
RTVSPropertyOp9
 70
     1
102
RTVSPropertyOp10
 70
     1
102
RTVSPropertyOp11
 70
     1
102
RTVSPropertyOp12
 70
     1
102
RTVSPropertyOp13
 70
     1
102
RTVSPropertyOp14
 70
     1
102
RTVSPropertyOp15
 70
     1
102
RTVSPropertyOp16
 70
     1
102
RTVSPropertyOp17
 70
     1
102
RTVSPropertyOp18
 70
     1
102
RTVSPropertyOp19
 70
     1
102
RTVSPropertyOp20
 70
     1
102
RTVSPropertyOp21
 70
     1
102
RTVSPropertyOp22
 70
     1
102
RTVSPropertyOp23
 70
     1
102
RTVSPropertyOp24
 70
     1
102
RTVSPropertyOp25
 70
     1
102
RTVSPropertyOp26
 70
     1
102
RTVSPropertyOp27
 70
     1
102
RTVSPropertyOp28
 70
     1
102
RTVSPropertyOp29
 70
     1
102
RTVSPropertyOp30
 70
     1
102
RTVSPropertyOp31
 70
     1
102
RTVSPropertyOp32
 70
     1
102
RTVSPropertyOp33
 70
     1
102
RTVSPropertyOp34
 70
     1
102
RTVSPropertyOp35
 70
     1
102
RTVSPropertyOp36
 70
     1
102
RTVSPropertyOp37
 70
     1
102
RTVSPropertyOp38
 70
     1
102
RTVSPropertyOp39
 70
     1
102
RTVSPropertyOp40
 70
     1
102
RTVSPropertyOp41
 70
     1
102
RTVSPropertyOp42
 70
     1
102
RTVSPropertyOp43
 70
     1
102
RTVSPropertyOp44
 70
     1
102
RTVSPropertyOp45
 70
     1
102
RTVSPropertyOp46
 70
     1
102
RTVSPropertyOp47
 70
     1
102
RTVSPropertyOp48
 70
     1
102
RTVSPropertyOp49
 70
     1
102
RTVSPropertyOp50
 70
     1
102
RTVSPropertyOp51
 70
     0
102
RTVSPropertyOp52
 70
     0
102
RTVSPropertyOp53
 70
     1
102
RTVSPropertyOp54
 70
     1
102
RTVSPropertyOp55
 70
     1
102
RTVSPropertyOp56
 70
     1
102
RTVSPropertyOp57
 70
     1
102
RTVSPost2010Prop28
280
     0
102
RTVSPost2010PropOp28
 70
     1
102
RTVSPost2010Prop29
280
     1
102
RTVSPost2010PropOp29
 70
     1
102
RTVSPost2010Prop30
280
     1
102
RTVSPost2010PropOp30
 70
     1
102
RTVSPost2010Prop31
280
     0
102
RTVSPost2010PropOp31
 70
     1
102
RTVSPost2010Prop32
280
     0
102
RTVSPost2010PropOp32
 70
     1
102
RTVSPost2010Prop33
280
     0
102
RTVSPost2010PropOp33
 70
     1
102
RTVSPost2010Prop34
280
     0
102
RTVSPost2010PropOp34
 70
     1
102
RTVSPost2010Prop35
280
     0
102
RTVSPost2010PropOp35
 70
     1
102
RTVSPost2010Prop36
280
     0
102
RTVSPost2010PropOp36
 70
     1
102
RTVSPost2010Prop37
 90
       50
102
RTVSPost2010PropOp37
 70
     1
102
RTVSPost2010Prop38
140
0.0
102
RTVSPost2010PropOp38
 70
     1
102
RTVSPost2010Prop39
140
1.0
102
RTVSPost2010PropOp39
 70
     1
102
RTVSPost2010Prop40
 90
        0
102
RTVSPost2010PropOp40
 70
     1
102
RTVSPost2010Prop41ColorIndex
 90
       18
102
RTVSPost2010Prop41ColorRGB
 90
        0
102
RTVSPost2010PropOp41
 70
     1
102
RTVSPost2010Prop42
 90
       50
102
RTVSPost2010PropOp42
 70
     1
102
RTVSPost2010Prop43
 90
        3
102
RTVSPost2010PropOp43
 70
     1
102
RTVSPost2010Prop44ColorIndex
 90
        5
102
RTVSPost2010Prop44ColorRGB
 90
      255
102
RTVSPost2010PropOp44
 70
     1
102
RTVSPost2010Prop45
280
     0
102
RTVSPost2010PropOp45
 70
     1
102
RTVSPost2010Prop46
 90
       50
102
RTVSPost2010PropOp46
 70
     1
102
RTVSPost2010Prop47
 90
       50
102
RTVSPost2010PropOp47
 70
     1
102
RTVSPost2010Prop48
 90
       50
102
RTVSPost2010PropOp48
 70
     1
102
RTVSPost2010Prop49
280
     0
102
RTVSPost2010PropOp49
 70
     1
102
RTVSPost2010Prop50
 90
       50
102
RTVSPost2010PropOp50
 70
     1
102
RTVSPost2010Prop51ColorIndex
 90
      256
102
RTVSPost2010Prop51ColorRGB
 90
-16777216
102
RTVSPost2010PropOp51
 70
     0
102
RTVSPost2010Prop52
140
1.0
102
RTVSPost2010PropOp52
 70
     0
102
RTVSPost2010Prop53
 90
        2
102
RTVSPost2010PropOp53
 70
     1
102
RTVSPost2010Prop54
  1
strokes_ogs.tif
102
RTVSPost2010PropOp54
 70
     1
102
RTVSPost2010Prop55
280
     0
102
RTVSPost2010PropOp55
 70
     1
102
RTVSPost2010Prop56
140
1.0
102
RTVSPost2010PropOp56
 70
     1
102
RTVSPost2010Prop57
140
1.0
102
RTVSPost2010PropOp57
 70
     1
  0
XRECORD
  5
190
102
{ACAD_REACTORS
330
18F
102
}
330
18F
100
AcDbXrecord
280
     1
102
RTVSPropertyOp0
 70
     1
102
RTVSPropertyOp1
 70
     1
102
RTVSPropertyOp2
 70
     1
102
RTVSPropertyOp3
 70
     1
102
RTVSPropertyOp4
 70
     1
102
RTVSPropertyOp5
 70
     1
102
RTVSPropertyOp6
 70
     1
102
RTVSPropertyOp7
 70
     1
102
RTVSPropertyOp8
 70
     1
102
RTVSPropertyOp9
 70
     1
102
RTVSPropertyOp10
 70
     1
102
RTVSPropertyOp11
 70
     1
102
RTVSPropertyOp12
 70
     1
102
RTVSPropertyOp13
 70
     1
102
RTVSPropertyOp14
 70
     1
102
RTVSPropertyOp15
 70
     1
102
RTVSPropertyOp16
 70
     1
102
RTVSPropertyOp17
 70
     1
102
RTVSPropertyOp18
 70
     1
102
RTVSPropertyOp19
 70
     1
102
RTVSPropertyOp20
 70
     1
102
RTVSPropertyOp21
 70
     1
102
RTVSPropertyOp22
 70
     1
102
RTVSPropertyOp23
 70
     1
102
RTVSPropertyOp24
 70
     1
102
RTVSPropertyOp25
 70
     1
102
RTVSPropertyOp26
 70
     1
102
RTVSPropertyOp27
 70
     1
102
RTVSPropertyOp28
 70
     1
102
RTVSPropertyOp29
 70
     1
102
RTVSPropertyOp30
 70
     1
102
RTVSPropertyOp31
 70
     1
102
RTVSPropertyOp32
 70
     1
102
RTVSPropertyOp33
 70
     1
102
RTVSPropertyOp34
 70
     1
102
RTVSPropertyOp35
 70
     1
102
RTVSPropertyOp36
 70
     1
102
RTVSPropertyOp37
 70
     1
102
RTVSPropertyOp38
 70
     1
102
RTVSPropertyOp39
 70
     1
102
RTVSPropertyOp40
 70
     1
102
RTVSPropertyOp41
 70
     1
102
RTVSPropertyOp42
 70
     1
102
RTVSPropertyOp43
 70
     1
102
RTVSPropertyOp44
 70
     1
102
RTVSPropertyOp45
 70
     1
102
RTVSPropertyOp46
 70
     1
102
RTVSPropertyOp47
 70
     1
102
RTVSPropertyOp48
 70
     1
102
RTVSPropertyOp49
 70
     1
102
RTVSPropertyOp50
 70
     1
102
RTVSPropertyOp51
 70
     0
102
RTVSPropertyOp52
 70
     0
102
RTVSPropertyOp53
 70
     1
102
RTVSPropertyOp54
 70
     1
102
RTVSPropertyOp55
 70
     1
102
RTVSPropertyOp56
 70
     1
102
RTVSPropertyOp57
 70
     1
102
RTVSPost2010Prop28
280
     0
102
RTVSPost2010PropOp28
 70
     1
102
RTVSPost2010Prop29
280
     1
102
RTVSPost2010PropOp29
 70
     1
102
RTVSPost2010Prop30
280
     1
102
RTVSPost2010PropOp30
 70
     1
102
RTVSPost2010Prop31
280
     0
102
RTVSPost2010PropOp31
 70
     1
102
RTVSPost2010Prop32
280
     0
102
RTVSPost2010PropOp32
 70
     1
102
RTVSPost2010Prop33
280
     0
102
RTVSPost2010PropOp33
 70
     1
102
RTVSPost2010Prop34
280
     0
102
RTVSPost2010PropOp34
 70
     1
102
RTVSPost2010Prop35
280
     0
102
RTVSPost2010PropOp35
 70
     1
102
RTVSPost2010Prop36
280
     0
102
RTVSPost2010PropOp36
 70
     1
102
RTVSPost2010Prop37
 90
       50
102
RTVSPost2010PropOp37
 70
     1
102
RTVSPost2010Prop38
140
0.0
102
RTVSPost2010PropOp38
 70
     1
102
RTVSPost2010Prop39
140
1.0
102
RTVSPost2010PropOp39
 70
     1
102
RTVSPost2010Prop40
 90
        0
102
RTVSPost2010PropOp40
 70
     1
102
RTVSPost2010Prop41ColorIndex
 90
       18
102
RTVSPost2010Prop41ColorRGB
 90
        0
102
RTVSPost2010PropOp41
 70
     1
102
RTVSPost2010Prop42
 90
       50
102
RTVSPost2010PropOp42
 70
     1
102
RTVSPost2010Prop43
 90
        3
102
RTVSPost2010PropOp43
 70
     1
102
RTVSPost2010Prop44ColorIndex
 90
        5
102
RTVSPost2010Prop44ColorRGB
 90
      255
102
RTVSPost2010PropOp44
 70
     1
102
RTVSPost2010Prop45
280
     0
102
RTVSPost2010PropOp45
 70
     1
102
RTVSPost2010Prop46
 90
       50
102
RTVSPost2010PropOp46
 70
     1
102
RTVSPost2010Prop47
 90
       50
102
RTVSPost2010PropOp47
 70
     1
102
RTVSPost2010Prop48
 90
       50
102
RTVSPost2010PropOp48
 70
     1
102
RTVSPost2010Prop49
280
     0
102
RTVSPost2010PropOp49
 70
     1
102
RTVSPost2010Prop50
 90
       50
102
RTVSPost2010PropOp50
 70
     1
102
RTVSPost2010Prop51ColorIndex
 90
      256
102
RTVSPost2010Prop51ColorRGB
 90
-16777216
102
RTVSPost2010PropOp51
 70
     0
102
RTVSPost2010Prop52
140
1.0
102
RTVSPost2010PropOp52
 70
     0
102
RTVSPost2010Prop53
 90
        2
102
RTVSPost2010PropOp53
 70
     1
102
RTVSPost2010Prop54
  1
strokes_ogs.tif
102
RTVSPost2010PropOp54
 70
     1
102
RTVSPost2010Prop55
280
     0
102
RTVSPost2010PropOp55
 70
     1
102
RTVSPost2010Prop56
140
1.0
102
RTVSPost2010PropOp56
 70
     1
102
RTVSPost2010Prop57
140
1.0
102
RTVSPost2010PropOp57
 70
     1
  0
XRECORD
  5
192
102
{ACAD_REACTORS
330
191
102
}
330
191
100
AcDbXrecord
280
     1
102
RTVSPropertyOp0
 70
     1
102
RTVSPropertyOp1
 70
     1
102
RTVSPropertyOp2
 70
     1
102
RTVSPropertyOp3
 70
     1
102
RTVSPropertyOp4
 70
     1
102
RTVSPropertyOp5
 70
     1
102
RTVSPropertyOp6
 70
     1
102
RTVSPropertyOp7
 70
     1
102
RTVSPropertyOp8
 70
     1
102
RTVSPropertyOp9
 70
     1
102
RTVSPropertyOp10
 70
     1
102
RTVSPropertyOp11
 70
     1
102
RTVSPropertyOp12
 70
     1
102
RTVSPropertyOp13
 70
     1
102
RTVSPropertyOp14
 70
     1
102
RTVSPropertyOp15
 70
     1
102
RTVSPropertyOp16
 70
     1
102
RTVSPropertyOp17
 70
     1
102
RTVSPropertyOp18
 70
     1
102
RTVSPropertyOp19
 70
     1
102
RTVSPropertyOp20
 70
     1
102
RTVSPropertyOp21
 70
     1
102
RTVSPropertyOp22
 70
     1
102
RTVSPropertyOp23
 70
     1
102
RTVSPropertyOp24
 70
     1
102
RTVSPropertyOp25
 70
     1
102
RTVSPropertyOp26
 70
     1
102
RTVSPropertyOp27
 70
     1
102
RTVSPropertyOp28
 70
     1
102
RTVSPropertyOp29
 70
     1
102
RTVSPropertyOp30
 70
     1
102
RTVSPropertyOp31
 70
     1
102
RTVSPropertyOp32
 70
     1
102
RTVSPropertyOp33
 70
     1
102
RTVSPropertyOp34
 70
     1
102
RTVSPropertyOp35
 70
     1
102
RTVSPropertyOp36
 70
     1
102
RTVSPropertyOp37
 70
     1
102
RTVSPropertyOp38
 70
     1
102
RTVSPropertyOp39
 70
     1
102
RTVSPropertyOp40
 70
     1
102
RTVSPropertyOp41
 70
     1
102
RTVSPropertyOp42
 70
     1
102
RTVSPropertyOp43
 70
     1
102
RTVSPropertyOp44
 70
     1
102
RTVSPropertyOp45
 70
     1
102
RTVSPropertyOp46
 70
     1
102
RTVSPropertyOp47
 70
     1
102
RTVSPropertyOp48
 70
     1
102
RTVSPropertyOp49
 70
     1
102
RTVSPropertyOp50
 70
     1
102
RTVSPropertyOp51
 70
     0
102
RTVSPropertyOp52
 70
     0
102
RTVSPropertyOp53
 70
     1
102
RTVSPropertyOp54
 70
     1
102
RTVSPropertyOp55
 70
     1
102
RTVSPropertyOp56
 70
     1
102
RTVSPropertyOp57
 70
     1
102
RTVSPost2010Prop28
280
     0
102
RTVSPost2010PropOp28
 70
     1
102
RTVSPost2010Prop29
280
     1
102
RTVSPost2010PropOp29
 70
     1
102
RTVSPost2010Prop30
280
     1
102
RTVSPost2010PropOp30
 70
     1
102
RTVSPost2010Prop31
280
     0
102
RTVSPost2010PropOp31
 70
     1
102
RTVSPost2010Prop32
280
     0
102
RTVSPost2010PropOp32
 70
     1
102
RTVSPost2010Prop33
280
     0
102
RTVSPost2010PropOp33
 70
     1
102
RTVSPost2010Prop34
280
     0
102
RTVSPost2010PropOp34
 70
     1
102
RTVSPost2010Prop35
280
     0
102
RTVSPost2010PropOp35
 70
     1
102
RTVSPost2010Prop36
280
     0
102
RTVSPost2010PropOp36
 70
     1
102
RTVSPost2010Prop37
 90
       50
102
RTVSPost2010PropOp37
 70
     1
102
RTVSPost2010Prop38
140
0.0
102
RTVSPost2010PropOp38
 70
     1
102
RTVSPost2010Prop39
140
1.0
102
RTVSPost2010PropOp39
 70
     1
102
RTVSPost2010Prop40
 90
        0
102
RTVSPost2010PropOp40
 70
     1
102
RTVSPost2010Prop41ColorIndex
 90
       18
102
RTVSPost2010Prop41ColorRGB
 90
        0
102
RTVSPost2010PropOp41
 70
     1
102
RTVSPost2010Prop42
 90
       50
102
RTVSPost2010PropOp42
 70
     1
102
RTVSPost2010Prop43
 90
        3
102
RTVSPost2010PropOp43
 70
     1
102
RTVSPost2010Prop44ColorIndex
 90
        5
102
RTVSPost2010Prop44ColorRGB
 90
      255
102
RTVSPost2010PropOp44
 70
     1
102
RTVSPost2010Prop45
280
     0
102
RTVSPost2010PropOp45
 70
     1
102
RTVSPost2010Prop46
 90
       50
102
RTVSPost2010PropOp46
 70
     1
102
RTVSPost2010Prop47
 90
       50
102
RTVSPost2010PropOp47
 70
     1
102
RTVSPost2010Prop48
 90
       50
102
RTVSPost2010PropOp48
 70
     1
102
RTVSPost2010Prop49
280
     0
102
RTVSPost2010PropOp49
 70
     1
102
RTVSPost2010Prop50
 90
       50
102
RTVSPost2010PropOp50
 70
     1
102
RTVSPost2010Prop51ColorIndex
 90
      256
102
RTVSPost2010Prop51ColorRGB
 90
-16777216
102
RTVSPost2010PropOp51
 70
     0
102
RTVSPost2010Prop52
140
1.0
102
RTVSPost2010PropOp52
 70
     0
102
RTVSPost2010Prop53
 90
        2
102
RTVSPost2010PropOp53
 70
     1
102
RTVSPost2010Prop54
  1
strokes_ogs.tif
102
RTVSPost2010PropOp54
 70
     1
102
RTVSPost2010Prop55
280
     0
102
RTVSPost2010PropOp55
 70
     1
102
RTVSPost2010Prop56
140
1.0
102
RTVSPost2010PropOp56
 70
     1
102
RTVSPost2010Prop57
140
1.0
102
RTVSPost2010PropOp57
 70
     1
  0
XRECORD
  5
182
102
{ACAD_REACTORS
330
181
102
}
330
181
100
AcDbXrecord
280
     1
102
RTVSPropertyOp0
 70
     1
102
RTVSPropertyOp1
 70
     1
102
RTVSPropertyOp2
 70
     1
102
RTVSPropertyOp3
 70
     1
102
RTVSPropertyOp4
 70
     1
102
RTVSPropertyOp5
 70
     1
102
RTVSPropertyOp6
 70
     1
102
RTVSPropertyOp7
 70
     1
102
RTVSPropertyOp8
 70
     1
102
RTVSPropertyOp9
 70
     1
102
RTVSPropertyOp10
 70
     1
102
RTVSPropertyOp11
 70
     1
102
RTVSPropertyOp12
 70
     1
102
RTVSPropertyOp13
 70
     1
102
RTVSPropertyOp14
 70
     1
102
RTVSPropertyOp15
 70
     1
102
RTVSPropertyOp16
 70
     1
102
RTVSPropertyOp17
 70
     1
102
RTVSPropertyOp18
 70
     1
102
RTVSPropertyOp19
 70
     1
102
RTVSPropertyOp20
 70
     1
102
RTVSPropertyOp21
 70
     1
102
RTVSPropertyOp22
 70
     1
102
RTVSPropertyOp23
 70
     1
102
RTVSPropertyOp24
 70
     1
102
RTVSPropertyOp25
 70
     1
102
RTVSPropertyOp26
 70
     1
102
RTVSPropertyOp27
 70
     1
102
RTVSPropertyOp28
 70
     1
102
RTVSPropertyOp29
 70
     1
102
RTVSPropertyOp30
 70
     1
102
RTVSPropertyOp31
 70
     1
102
RTVSPropertyOp32
 70
     1
102
RTVSPropertyOp33
 70
     1
102
RTVSPropertyOp34
 70
     1
102
RTVSPropertyOp35
 70
     1
102
RTVSPropertyOp36
 70
     1
102
RTVSPropertyOp37
 70
     1
102
RTVSPropertyOp38
 70
     1
102
RTVSPropertyOp39
 70
     1
102
RTVSPropertyOp40
 70
     1
102
RTVSPropertyOp41
 70
     1
102
RTVSPropertyOp42
 70
     1
102
RTVSPropertyOp43
 70
     1
102
RTVSPropertyOp44
 70
     1
102
RTVSPropertyOp45
 70
     1
102
RTVSPropertyOp46
 70
     1
102
RTVSPropertyOp47
 70
     1
102
RTVSPropertyOp48
 70
     1
102
RTVSPropertyOp49
 70
     1
102
RTVSPropertyOp50
 70
     1
102
RTVSPropertyOp51
 70
     0
102
RTVSPropertyOp52
 70
     0
102
RTVSPropertyOp53
 70
     1
102
RTVSPropertyOp54
 70
     1
102
RTVSPropertyOp55
 70
     1
102
RTVSPropertyOp56
 70
     1
102
RTVSPropertyOp57
 70
     1
102
RTVSPost2010Prop28
280
     0
102
RTVSPost2010PropOp28
 70
     1
102
RTVSPost2010Prop29
280
     1
102
RTVSPost2010PropOp29
 70
     1
102
RTVSPost2010Prop30
280
     1
102
RTVSPost2010PropOp30
 70
     1
102
RTVSPost2010Prop31
280
     0
102
RTVSPost2010PropOp31
 70
     1
102
RTVSPost2010Prop32
280
     0
102
RTVSPost2010PropOp32
 70
     1
102
RTVSPost2010Prop33
280
     0
102
RTVSPost2010PropOp33
 70
     1
102
RTVSPost2010Prop34
280
     0
102
RTVSPost2010PropOp34
 70
     1
102
RTVSPost2010Prop35
280
     0
102
RTVSPost2010PropOp35
 70
     1
102
RTVSPost2010Prop36
280
     0
102
RTVSPost2010PropOp36
 70
     1
102
RTVSPost2010Prop37
 90
       50
102
RTVSPost2010PropOp37
 70
     1
102
RTVSPost2010Prop38
140
0.0
102
RTVSPost2010PropOp38
 70
     1
102
RTVSPost2010Prop39
140
1.0
102
RTVSPost2010PropOp39
 70
     1
102
RTVSPost2010Prop40
 90
        0
102
RTVSPost2010PropOp40
 70
     1
102
RTVSPost2010Prop41ColorIndex
 90
       18
102
RTVSPost2010Prop41ColorRGB
 90
        0
102
RTVSPost2010PropOp41
 70
     1
102
RTVSPost2010Prop42
 90
       50
102
RTVSPost2010PropOp42
 70
     1
102
RTVSPost2010Prop43
 90
        3
102
RTVSPost2010PropOp43
 70
     1
102
RTVSPost2010Prop44ColorIndex
 90
        5
102
RTVSPost2010Prop44ColorRGB
 90
      255
102
RTVSPost2010PropOp44
 70
     1
102
RTVSPost2010Prop45
280
     0
102
RTVSPost2010PropOp45
 70
     1
102
RTVSPost2010Prop46
 90
       50
102
RTVSPost2010PropOp46
 70
     1
102
RTVSPost2010Prop47
 90
       50
102
RTVSPost2010PropOp47
 70
     1
102
RTVSPost2010Prop48
 90
       50
102
RTVSPost2010PropOp48
 70
     1
102
RTVSPost2010Prop49
280
     0
102
RTVSPost2010PropOp49
 70
     1
102
RTVSPost2010Prop50
 90
       50
102
RTVSPost2010PropOp50
 70
     1
102
RTVSPost2010Prop51ColorIndex
 90
      256
102
RTVSPost2010Prop51ColorRGB
 90
-16777216
102
RTVSPost2010PropOp51
 70
     0
102
RTVSPost2010Prop52
140
1.0
102
RTVSPost2010PropOp52
 70
     0
102
RTVSPost2010Prop53
 90
        2
102
RTVSPost2010PropOp53
 70
     1
102
RTVSPost2010Prop54
  1
strokes_ogs.tif
102
RTVSPost2010PropOp54
 70
     1
102
RTVSPost2010Prop55
280
     0
102
RTVSPost2010PropOp55
 70
     1
102
RTVSPost2010Prop56
140
1.0
102
RTVSPost2010PropOp56
 70
     1
102
RTVSPost2010Prop57
140
1.0
102
RTVSPost2010PropOp57
 70
     1
  0
XRECORD
  5
174
102
{ACAD_REACTORS
330
173
102
}
330
173
100
AcDbXrecord
280
     1
102
RTVSPropertyOp0
 70
     1
102
RTVSPropertyOp1
 70
     1
102
RTVSPropertyOp2
 70
     1
102
RTVSPropertyOp3
 70
     1
102
RTVSPropertyOp4
 70
     1
102
RTVSPropertyOp5
 70
     1
102
RTVSPropertyOp6
 70
     1
102
RTVSPropertyOp7
 70
     1
102
RTVSPropertyOp8
 70
     1
102
RTVSPropertyOp9
 70
     1
102
RTVSPropertyOp10
 70
     1
102
RTVSPropertyOp11
 70
     1
102
RTVSPropertyOp12
 70
     1
102
RTVSPropertyOp13
 70
     1
102
RTVSPropertyOp14
 70
     1
102
RTVSPropertyOp15
 70
     1
102
RTVSPropertyOp16
 70
     1
102
RTVSPropertyOp17
 70
     1
102
RTVSPropertyOp18
 70
     1
102
RTVSPropertyOp19
 70
     1
102
RTVSPropertyOp20
 70
     1
102
RTVSPropertyOp21
 70
     1
102
RTVSPropertyOp22
 70
     1
102
RTVSPropertyOp23
 70
     1
102
RTVSPropertyOp24
 70
     1
102
RTVSPropertyOp25
 70
     1
102
RTVSPropertyOp26
 70
     1
102
RTVSPropertyOp27
 70
     1
102
RTVSPropertyOp28
 70
     1
102
RTVSPropertyOp29
 70
     1
102
RTVSPropertyOp30
 70
     1
102
RTVSPropertyOp31
 70
     1
102
RTVSPropertyOp32
 70
     1
102
RTVSPropertyOp33
 70
     1
102
RTVSPropertyOp34
 70
     1
102
RTVSPropertyOp35
 70
     1
102
RTVSPropertyOp36
 70
     1
102
RTVSPropertyOp37
 70
     1
102
RTVSPropertyOp38
 70
     1
102
RTVSPropertyOp39
 70
     1
102
RTVSPropertyOp40
 70
     1
102
RTVSPropertyOp41
 70
     1
102
RTVSPropertyOp42
 70
     1
102
RTVSPropertyOp43
 70
     1
102
RTVSPropertyOp44
 70
     1
102
RTVSPropertyOp45
 70
     1
102
RTVSPropertyOp46
 70
     1
102
RTVSPropertyOp47
 70
     1
102
RTVSPropertyOp48
 70
     1
102
RTVSPropertyOp49
 70
     1
102
RTVSPropertyOp50
 70
     1
102
RTVSPropertyOp51
 70
     0
102
RTVSPropertyOp52
 70
     0
102
RTVSPropertyOp53
 70
     1
102
RTVSPropertyOp54
 70
     1
102
RTVSPropertyOp55
 70
     1
102
RTVSPropertyOp56
 70
     1
102
RTVSPropertyOp57
 70
     1
102
RTVSPost2010Prop28
280
     0
102
RTVSPost2010PropOp28
 70
     1
102
RTVSPost2010Prop29
280
     1
102
RTVSPost2010PropOp29
 70
     1
102
RTVSPost2010Prop30
280
     1
102
RTVSPost2010PropOp30
 70
     1
102
RTVSPost2010Prop31
280
     0
102
RTVSPost2010PropOp31
 70
     1
102
RTVSPost2010Prop32
280
     0
102
RTVSPost2010PropOp32
 70
     1
102
RTVSPost2010Prop33
280
     0
102
RTVSPost2010PropOp33
 70
     1
102
RTVSPost2010Prop34
280
     0
102
RTVSPost2010PropOp34
 70
     1
102
RTVSPost2010Prop35
280
     0
102
RTVSPost2010PropOp35
 70
     1
102
RTVSPost2010Prop36
280
     0
102
RTVSPost2010PropOp36
 70
     1
102
RTVSPost2010Prop37
 90
       50
102
RTVSPost2010PropOp37
 70
     1
102
RTVSPost2010Prop38
140
0.0
102
RTVSPost2010PropOp38
 70
     1
102
RTVSPost2010Prop39
140
1.0
102
RTVSPost2010PropOp39
 70
     1
102
RTVSPost2010Prop40
 90
        0
102
RTVSPost2010PropOp40
 70
     1
102
RTVSPost2010Prop41ColorIndex
 90
       18
102
RTVSPost2010Prop41ColorRGB
 90
        0
102
RTVSPost2010PropOp41
 70
     1
102
RTVSPost2010Prop42
 90
       50
102
RTVSPost2010PropOp42
 70
     1
102
RTVSPost2010Prop43
 90
        3
102
RTVSPost2010PropOp43
 70
     1
102
RTVSPost2010Prop44ColorIndex
 90
        5
102
RTVSPost2010Prop44ColorRGB
 90
      255
102
RTVSPost2010PropOp44
 70
     1
102
RTVSPost2010Prop45
280
     0
102
RTVSPost2010PropOp45
 70
     1
102
RTVSPost2010Prop46
 90
       50
102
RTVSPost2010PropOp46
 70
     1
102
RTVSPost2010Prop47
 90
       50
102
RTVSPost2010PropOp47
 70
     1
102
RTVSPost2010Prop48
 90
       50
102
RTVSPost2010PropOp48
 70
     1
102
RTVSPost2010Prop49
280
     0
102
RTVSPost2010PropOp49
 70
     1
102
RTVSPost2010Prop50
 90
       50
102
RTVSPost2010PropOp50
 70
     1
102
RTVSPost2010Prop51ColorIndex
 90
      256
102
RTVSPost2010Prop51ColorRGB
 90
-16777216
102
RTVSPost2010PropOp51
 70
     0
102
RTVSPost2010Prop52
140
1.0
102
RTVSPost2010PropOp52
 70
     0
102
RTVSPost2010Prop53
 90
        2
102
RTVSPost2010PropOp53
 70
     1
102
RTVSPost2010Prop54
  1
strokes_ogs.tif
102
RTVSPost2010PropOp54
 70
     1
102
RTVSPost2010Prop55
280
     0
102
RTVSPost2010PropOp55
 70
     1
102
RTVSPost2010Prop56
140
1.0
102
RTVSPost2010PropOp56
 70
     1
102
RTVSPost2010Prop57
140
1.0
102
RTVSPost2010PropOp57
 70
     1
  0
XRECORD
  5
194
102
{ACAD_REACTORS
330
193
102
}
330
193
100
AcDbXrecord
280
     1
102
RTVSPropertyOp0
 70
     1
102
RTVSPropertyOp1
 70
     1
102
RTVSPropertyOp2
 70
     1
102
RTVSPropertyOp3
 70
     1
102
RTVSPropertyOp4
 70
     1
102
RTVSPropertyOp5
 70
     1
102
RTVSPropertyOp6
 70
     1
102
RTVSPropertyOp7
 70
     1
102
RTVSPropertyOp8
 70
     1
102
RTVSPropertyOp9
 70
     1
102
RTVSPropertyOp10
 70
     1
102
RTVSPropertyOp11
 70
     1
102
RTVSPropertyOp12
 70
     1
102
RTVSPropertyOp13
 70
     1
102
RTVSPropertyOp14
 70
     1
102
RTVSPropertyOp15
 70
     1
102
RTVSPropertyOp16
 70
     1
102
RTVSPropertyOp17
 70
     1
102
RTVSPropertyOp18
 70
     1
102
RTVSPropertyOp19
 70
     1
102
RTVSPropertyOp20
 70
     1
102
RTVSPropertyOp21
 70
     1
102
RTVSPropertyOp22
 70
     1
102
RTVSPropertyOp23
 70
     1
102
RTVSPropertyOp24
 70
     1
102
RTVSPropertyOp25
 70
     1
102
RTVSPropertyOp26
 70
     1
102
RTVSPropertyOp27
 70
     1
102
RTVSPropertyOp28
 70
     1
102
RTVSPropertyOp29
 70
     1
102
RTVSPropertyOp30
 70
     1
102
RTVSPropertyOp31
 70
     1
102
RTVSPropertyOp32
 70
     1
102
RTVSPropertyOp33
 70
     1
102
RTVSPropertyOp34
 70
     1
102
RTVSPropertyOp35
 70
     1
102
RTVSPropertyOp36
 70
     1
102
RTVSPropertyOp37
 70
     1
102
RTVSPropertyOp38
 70
     1
102
RTVSPropertyOp39
 70
     1
102
RTVSPropertyOp40
 70
     1
102
RTVSPropertyOp41
 70
     1
102
RTVSPropertyOp42
 70
     1
102
RTVSPropertyOp43
 70
     1
102
RTVSPropertyOp44
 70
     1
102
RTVSPropertyOp45
 70
     1
102
RTVSPropertyOp46
 70
     1
102
RTVSPropertyOp47
 70
     1
102
RTVSPropertyOp48
 70
     1
102
RTVSPropertyOp49
 70
     1
102
RTVSPropertyOp50
 70
     1
102
RTVSPropertyOp51
 70
     0
102
RTVSPropertyOp52
 70
     0
102
RTVSPropertyOp53
 70
     1
102
RTVSPropertyOp54
 70
     1
102
RTVSPropertyOp55
 70
     1
102
RTVSPropertyOp56
 70
     1
102
RTVSPropertyOp57
 70
     1
102
RTVSPost2010Prop28
280
     0
102
RTVSPost2010PropOp28
 70
     1
102
RTVSPost2010Prop29
280
     1
102
RTVSPost2010PropOp29
 70
     1
102
RTVSPost2010Prop30
280
     1
102
RTVSPost2010PropOp30
 70
     1
102
RTVSPost2010Prop31
280
     0
102
RTVSPost2010PropOp31
 70
     1
102
RTVSPost2010Prop32
280
     0
102
RTVSPost2010PropOp32
 70
     1
102
RTVSPost2010Prop33
280
     0
102
RTVSPost2010PropOp33
 70
     1
102
RTVSPost2010Prop34
280
     0
102
RTVSPost2010PropOp34
 70
     1
102
RTVSPost2010Prop35
280
     0
102
RTVSPost2010PropOp35
 70
     1
102
RTVSPost2010Prop36
280
     0
102
RTVSPost2010PropOp36
 70
     1
102
RTVSPost2010Prop37
 90
       50
102
RTVSPost2010PropOp37
 70
     1
102
RTVSPost2010Prop38
140
0.0
102
RTVSPost2010PropOp38
 70
     1
102
RTVSPost2010Prop39
140
1.0
102
RTVSPost2010PropOp39
 70
     1
102
RTVSPost2010Prop40
 90
        0
102
RTVSPost2010PropOp40
 70
     1
102
RTVSPost2010Prop41ColorIndex
 90
       18
102
RTVSPost2010Prop41ColorRGB
 90
        0
102
RTVSPost2010PropOp41
 70
     1
102
RTVSPost2010Prop42
 90
       50
102
RTVSPost2010PropOp42
 70
     1
102
RTVSPost2010Prop43
 90
        3
102
RTVSPost2010PropOp43
 70
     1
102
RTVSPost2010Prop44ColorIndex
 90
        5
102
RTVSPost2010Prop44ColorRGB
 90
      255
102
RTVSPost2010PropOp44
 70
     1
102
RTVSPost2010Prop45
280
     0
102
RTVSPost2010PropOp45
 70
     1
102
RTVSPost2010Prop46
 90
       50
102
RTVSPost2010PropOp46
 70
     1
102
RTVSPost2010Prop47
 90
       50
102
RTVSPost2010PropOp47
 70
     1
102
RTVSPost2010Prop48
 90
       50
102
RTVSPost2010PropOp48
 70
     1
102
RTVSPost2010Prop49
280
     0
102
RTVSPost2010PropOp49
 70
     1
102
RTVSPost2010Prop50
 90
       50
102
RTVSPost2010PropOp50
 70
     1
102
RTVSPost2010Prop51ColorIndex
 90
      256
102
RTVSPost2010Prop51ColorRGB
 90
-16777216
102
RTVSPost2010PropOp51
 70
     0
102
RTVSPost2010Prop52
140
1.0
102
RTVSPost2010PropOp52
 70
     0
102
RTVSPost2010Prop53
 90
        2
102
RTVSPost2010PropOp53
 70
     1
102
RTVSPost2010Prop54
  1
strokes_ogs.tif
102
RTVSPost2010PropOp54
 70
     1
102
RTVSPost2010Prop55
280
     0
102
RTVSPost2010PropOp55
 70
     1
102
RTVSPost2010Prop56
140
1.0
102
RTVSPost2010PropOp56
 70
     1
102
RTVSPost2010Prop57
140
1.0
102
RTVSPost2010PropOp57
 70
     1
  0
ENDSEC
  0
EOF
