  0
SECTION
  2
HEADER
  9
$ACADVER
  1
AC1027
  9
$ACADMAINTVER
 70
   105
  9
$DWGCODEPAGE
  3
ANSI_1252
  9
$LASTSAVEDBY
  1
mariapalcon
  9
$REQUIREDVERSIONS
160
                 0
  9
$INSBASE
 10
0.0
 20
0.0
 30
0.0
  9
$EXTMIN
 10
-8.937482261236223
 20
-2.437500000000998
 30
0.0
  9
$EXTMAX
 10
3.352799522372869
 20
5.015553024755902
 30
0.0
  9
$LIMMIN
 10
0.0
 20
0.0
  9
$LIMMAX
 10
12.0
 20
9.0
  9
$ORTHOMODE
 70
     0
  9
$REGENMODE
 70
     1
  9
$FILLMODE
 70
     1
  9
$QTEXTMODE
 70
     0
  9
$MIRRTEXT
 70
     0
  9
$LTSCALE
 40
1.0
  9
$ATTMODE
 70
     1
  9
$TEXTSIZE
 40
0.2
  9
$TRACEWID
 40
0.05
  9
$TEXTSTYLE
  7
Standard
  9
$CLAYER
  8
Pressure_Balance_Rough_Valve-GROHE-35114000
  9
$CELTYPE
  6
ByLayer
  9
$CECOLOR
 62
   256
  9
$CELTSCALE
 40
1.0
  9
$DISPSILH
 70
     0
  9
$DIMSCALE
 40
1.0
  9
$DIMASZ
 40
0.18
  9
$DIMEXO
 40
0.0625
  9
$DIMDLI
 40
0.38
  9
$DIMRND
 40
0.0
  9
$DIMDLE
 40
0.0
  9
$DIMEXE
 40
0.18
  9
$DIMTP
 40
0.0
  9
$DIMTM
 40
0.0
  9
$DIMTXT
 40
0.18
  9
$DIMCEN
 40
0.09
  9
$DIMTSZ
 40
0.0
  9
$DIMTOL
 70
     0
  9
$DIMLIM
 70
     0
  9
$DIMTIH
 70
     1
  9
$DIMTOH
 70
     1
  9
$DIMSE1
 70
     0
  9
$DIMSE2
 70
     0
  9
$DIMTAD
 70
     0
  9
$DIMZIN
 70
     0
  9
$DIMBLK
  1

  9
$DIMASO
 70
     1
  9
$DIMSHO
 70
     1
  9
$DIMPOST
  1

  9
$DIMAPOST
  1

  9
$DIMALT
 70
     0
  9
$DIMALTD
 70
     2
  9
$DIMALTF
 40
25.4
  9
$DIMLFAC
 40
1.0
  9
$DIMTOFL
 70
     0
  9
$DIMTVP
 40
0.0
  9
$DIMTIX
 70
     0
  9
$DIMSOXD
 70
     0
  9
$DIMSAH
 70
     0
  9
$DIMBLK1
  1

  9
$DIMBLK2
  1

  9
$DIMSTYLE
  2
Standard
  9
$DIMCLRD
 70
     0
  9
$DIMCLRE
 70
     0
  9
$DIMCLRT
 70
     0
  9
$DIMTFAC
 40
1.0
  9
$DIMGAP
 40
0.09
  9
$DIMJUST
 70
     0
  9
$DIMSD1
 70
     0
  9
$DIMSD2
 70
     0
  9
$DIMTOLJ
 70
     1
  9
$DIMTZIN
 70
     0
  9
$DIMALTZ
 70
     0
  9
$DIMALTTZ
 70
     0
  9
$DIMUPT
 70
     0
  9
$DIMDEC
 70
     4
  9
$DIMTDEC
 70
     4
  9
$DIMALTU
 70
     4
  9
$DIMALTTD
 70
     2
  9
$DIMTXSTY
  7
Standard
  9
$DIMAUNIT
 70
     0
  9
$DIMADEC
 70
     0
  9
$DIMALTRND
 40
0.0
  9
$DIMAZIN
 70
     0
  9
$DIMDSEP
 70
    46
  9
$DIMATFIT
 70
     3
  9
$DIMFRAC
 70
     0
  9
$DIMLDRBLK
  1

  9
$DIMLUNIT
 70
     4
  9
$DIMLWD
 70
    -2
  9
$DIMLWE
 70
    -2
  9
$DIMTMOVE
 70
     0
  9
$DIMFXL
 40
1.0
  9
$DIMFXLON
 70
     0
  9
$DIMJOGANG
 40
0.7853981633974483
  9
$DIMTFILL
 70
     0
  9
$DIMTFILLCLR
 70
     0
  9
$DIMARCSYM
 70
     0
  9
$DIMLTYPE
  6

  9
$DIMLTEX1
  6

  9
$DIMLTEX2
  6

  9
$DIMTXTDIRECTION
 70
     0
  9
$LUNITS
 70
     4
  9
$LUPREC
 70
     4
  9
$SKETCHINC
 40
0.1
  9
$FILLETRAD
 40
0.0
  9
$AUNITS
 70
     0
  9
$AUPREC
 70
     0
  9
$MENU
  1
.
  9
$ELEVATION
 40
0.0
  9
$PELEVATION
 40
0.0
  9
$THICKNESS
 40
0.0
  9
$LIMCHECK
 70
     0
  9
$CHAMFERA
 40
0.0
  9
$CHAMFERB
 40
0.0
  9
$CHAMFERC
 40
0.0
  9
$CHAMFERD
 40
0.0
  9
$SKPOLY
 70
     0
  9
$TDCREATE
 40
2458932.547952385
  9
$TDUCREATE
 40
2458932.714619051
  9
$TDUPDATE
 40
2458932.587669051
  9
$TDUUPDATE
 40
2458932.754335718
  9
$TDINDWG
 40
0.0309031250
  9
$TDUSRTIMER
 40
0.0309031250
  9
$USRTIMER
 70
     1
  9
$ANGBASE
 50
0.0
  9
$ANGDIR
 70
     0
  9
$PDMODE
 70
     0
  9
$PDSIZE
 40
0.0
  9
$PLINEWID
 40
0.0
  9
$SPLFRAME
 70
     0
  9
$SPLINETYPE
 70
     6
  9
$SPLINESEGS
 70
     8
  9
$HANDSEED
  5
3C0
  9
$SURFTAB1
 70
     6
  9
$SURFTAB2
 70
     6
  9
$SURFTYPE
 70
     6
  9
$SURFU
 70
     6
  9
$SURFV
 70
     6
  9
$UCSBASE
  2

  9
$UCSNAME
  2

  9
$UCSORG
 10
0.0
 20
0.0
 30
0.0
  9
$UCSXDIR
 10
1.0
 20
0.0
 30
0.0
  9
$UCSYDIR
 10
0.0
 20
1.0
 30
0.0
  9
$UCSORTHOREF
  2

  9
$UCSORTHOVIEW
 70
     0
  9
$UCSORGTOP
 10
0.0
 20
0.0
 30
0.0
  9
$UCSORGBOTTOM
 10
0.0
 20
0.0
 30
0.0
  9
$UCSORGLEFT
 10
0.0
 20
0.0
 30
0.0
  9
$UCSORGRIGHT
 10
0.0
 20
0.0
 30
0.0
  9
$UCSORGFRONT
 10
0.0
 20
0.0
 30
0.0
  9
$UCSORGBACK
 10
0.0
 20
0.0
 30
0.0
  9
$PUCSBASE
  2

  9
$PUCSNAME
  2

  9
$PUCSORG
 10
0.0
 20
0.0
 30
0.0
  9
$PUCSXDIR
 10
1.0
 20
0.0
 30
0.0
  9
$PUCSYDIR
 10
0.0
 20
1.0
 30
0.0
  9
$PUCSORTHOREF
  2

  9
$PUCSORTHOVIEW
 70
     0
  9
$PUCSORGTOP
 10
0.0
 20
0.0
 30
0.0
  9
$PUCSORGBOTTOM
 10
0.0
 20
0.0
 30
0.0
  9
$PUCSORGLEFT
 10
0.0
 20
0.0
 30
0.0
  9
$PUCSORGRIGHT
 10
0.0
 20
0.0
 30
0.0
  9
$PUCSORGFRONT
 10
0.0
 20
0.0
 30
0.0
  9
$PUCSORGBACK
 10
0.0
 20
0.0
 30
0.0
  9
$USERI1
 70
     0
  9
$USERI2
 70
     0
  9
$USERI3
 70
     0
  9
$USERI4
 70
     0
  9
$USERI5
 70
     0
  9
$USERR1
 40
0.0
  9
$USERR2
 40
0.0
  9
$USERR3
 40
0.0
  9
$USERR4
 40
0.0
  9
$USERR5
 40
0.0
  9
$WORLDVIEW
 70
     1
  9
$SHADEDGE
 70
     3
  9
$SHADEDIF
 70
    70
  9
$TILEMODE
 70
     1
  9
$MAXACTVP
 70
    64
  9
$PINSBASE
 10
0.0
 20
0.0
 30
0.0
  9
$PLIMCHECK
 70
     0
  9
$PEXTMIN
 10
1.000000000000000E+20
 20
1.000000000000000E+20
 30
1.000000000000000E+20
  9
$PEXTMAX
 10
-1.000000000000000E+20
 20
-1.000000000000000E+20
 30
-1.000000000000000E+20
  9
$PLIMMIN
 10
0.0
 20
0.0
  9
$PLIMMAX
 10
12.0
 20
9.0
  9
$UNITMODE
 70
     0
  9
$VISRETAIN
 70
     1
  9
$PLINEGEN
 70
     0
  9
$PSLTSCALE
 70
     1
  9
$TREEDEPTH
 70
  3020
  9
$CMLSTYLE
  2
Standard
  9
$CMLJUST
 70
     0
  9
$CMLSCALE
 40
1.0
  9
$PROXYGRAPHICS
 70
     1
  9
$MEASUREMENT
 70
     0
  9
$CELWEIGHT
370
    -1
  9
$ENDCAPS
280
     0
  9
$JOINSTYLE
280
     0
  9
$LWDISPLAY
290
     0
  9
$INSUNITS
 70
     1
  9
$HYPERLINKBASE
  1

  9
$STYLESHEET
  1

  9
$XEDIT
290
     1
  9
$CEPSNTYPE
380
     0
  9
$PSTYLEMODE
290
     1
  9
$FINGERPRINTGUID
  2
{BAD8752A-6B17-47C1-A577-6B5224634FAD}
  9
$VERSIONGUID
  2
{C57D89EA-393A-41F1-B8A1-B09D68D47321}
  9
$EXTNAMES
290
     1
  9
$PSVPSCALE
 40
0.0
  9
$OLESTARTUP
290
     0
  9
$SORTENTS
280
   127
  9
$INDEXCTL
280
     0
  9
$HIDETEXT
280
     1
  9
$XCLIPFRAME
280
     2
  9
$HALOGAP
280
     0
  9
$OBSCOLOR
 70
   257
  9
$OBSLTYPE
280
     0
  9
$INTERSECTIONDISPLAY
280
     0
  9
$INTERSECTIONCOLOR
 70
   257
  9
$DIMASSOC
280
     2
  9
$PROJECTNAME
  1

  9
$CAMERADISPLAY
290
     0
  9
$LENSLENGTH
 40
50.0
  9
$CAMERAHEIGHT
 40
0.0
  9
$STEPSPERSEC
 40
2.0
  9
$STEPSIZE
 40
6.0
  9
$3DDWFPREC
 40
2.0
  9
$PSOLWIDTH
 40
0.25
  9
$PSOLHEIGHT
 40
4.0
  9
$LOFTANG1
 40
1.570796326794896
  9
$LOFTANG2
 40
1.570796326794896
  9
$LOFTMAG1
 40
0.0
  9
$LOFTMAG2
 40
0.0
  9
$LOFTPARAM
 70
     7
  9
$LOFTNORMALS
280
     1
  9
$LATITUDE
 40
0.0
  9
$LONGITUDE
 40
0.0
  9
$NORTHDIRECTION
 40
0.0
  9
$TIMEZONE
 70
     0
  9
$LIGHTGLYPHDISPLAY
280
     1
  9
$TILEMODELIGHTSYNCH
280
     1
  9
$CMATERIAL
347
11
  9
$SOLIDHIST
280
     0
  9
$SHOWHIST
280
     1
  9
$DWFFRAME
280
     2
  9
$DGNFRAME
280
     0
  9
$REALWORLDSCALE
290
     1
  9
$INTERFERECOLOR
 62
     1
  9
$INTERFEREOBJVS
345
33
  9
$INTERFEREVPVS
346
30
  9
$CSHADOW
280
     0
  9
$SHADOWPLANELOCATION
 40
0.0
  0
ENDSEC
  0
SECTION
  2
CLASSES
  0
CLASS
  1
ACDBDICTIONARYWDFLT
  2
AcDbDictionaryWithDefault
  3
ObjectDBX Classes
 90
        0
 91
        1
280
     0
281
     0
  0
CLASS
  1
MATERIAL
  2
AcDbMaterial
  3
ObjectDBX Classes
 90
     1153
 91
        3
280
     0
281
     0
  0
CLASS
  1
VISUALSTYLE
  2
AcDbVisualStyle
  3
ObjectDBX Classes
 90
     4095
 91
       24
280
     0
281
     0
  0
CLASS
  1
SCALE
  2
AcDbScale
  3
ObjectDBX Classes
 90
     1153
 91
       17
280
     0
281
     0
  0
CLASS
  1
TABLESTYLE
  2
AcDbTableStyle
  3
ObjectDBX Classes
 90
     4095
 91
        1
280
     0
281
     0
  0
CLASS
  1
MLEADERSTYLE
  2
AcDbMLeaderStyle
  3
ACDB_MLEADERSTYLE_CLASS
 90
     4095
 91
        1
280
     0
281
     0
  0
CLASS
  1
ACDBSECTIONVIEWSTYLE
  2
AcDbSectionViewStyle
  3
ObjectDBX Classes
 90
     1025
 91
        1
280
     0
281
     0
  0
CLASS
  1
ACDBDETAILVIEWSTYLE
  2
AcDbDetailViewStyle
  3
ObjectDBX Classes
 90
     1025
 91
        1
280
     0
281
     0
  0
CLASS
  1
RASTERVARIABLES
  2
AcDbRasterVariables
  3
ISM
 90
        0
 91
        1
280
     0
281
     0
  0
CLASS
  1
DICTIONARYVAR
  2
AcDbDictionaryVar
  3
ObjectDBX Classes
 90
        0
 91
        5
280
     0
281
     0
  0
CLASS
  1
SORTENTSTABLE
  2
AcDbSortentsTable
  3
ObjectDBX Classes
 90
        0
 91
        1
280
     0
281
     0
  0
CLASS
  1
CELLSTYLEMAP
  2
AcDbCellStyleMap
  3
ObjectDBX Classes
 90
     1152
 91
        1
280
     0
281
     0
  0
ENDSEC
  0
SECTION
  2
TABLES
  0
TABLE
  2
VPORT
  5
8
330
0
100
AcDbSymbolTable
 70
     1
  0
VPORT
  5
57
330
8
100
AcDbSymbolTableRecord
100
AcDbViewportTableRecord
  2
*Active
 70
     0
 10
0.0
 20
0.0
 11
1.0
 21
1.0
 12
0.3152069060395561
 22
2.206301066285933
 13
0.0
 23
0.0
 14
1.0
 24
1.0
 15
0.0
 25
0.0
 16
0.0
 26
0.0
 36
1.0
 17
0.0
 27
0.0
 37
0.0
 40
10.83220703336743
 41
2.021505376344086
 42
50.0
 43
0.0
 44
0.0
 50
0.0
 51
0.0
 71
     0
 72
  1000
 73
     1
 74
     1
 75
     0
 76
     0
 77
     0
 78
     0
281
     0
 65
     1
110
0.0
120
0.0
130
0.0
111
1.0
121
0.0
131
0.0
112
0.0
122
1.0
132
0.0
 79
     0
146
0.0
348
2F
 60
     3
 61
     5
292
     1
282
     1
141
0.0
142
0.0
 63
   250
421
  3355443
1001
ACAD_NAV_VCDISPLAY
1070
     3
  0
ENDTAB
  0
TABLE
  2
LTYPE
  5
5
330
0
100
AcDbSymbolTable
 70
     2
  0
LTYPE
  5
5B
330
5
100
AcDbSymbolTableRecord
100
AcDbLinetypeTableRecord
  2
ByBlock
 70
     0
  3

 72
    65
 73
     0
 40
0.0
  0
LTYPE
  5
5C
330
5
100
AcDbSymbolTableRecord
100
AcDbLinetypeTableRecord
  2
ByLayer
 70
     0
  3

 72
    65
 73
     0
 40
0.0
  0
LTYPE
  5
5D
330
5
100
AcDbSymbolTableRecord
100
AcDbLinetypeTableRecord
  2
Continuous
 70
     0
  3
Solid line
 72
    65
 73
     0
 40
0.0
  0
ENDTAB
  0
TABLE
  2
LAYER
  5
2
102
{ACAD_XDICTIONARY
360
271
102
}
330
0
100
AcDbSymbolTable
 70
     4
  0
LAYER
  5
54
330
2
100
AcDbSymbolTableRecord
100
AcDbLayerTableRecord
  2
0
 70
     0
 62
     7
  6
Continuous
370
    -3
390
F
347
21
348
0
  0
LAYER
  5
2B3
330
2
100
AcDbSymbolTableRecord
100
AcDbLayerTableRecord
  2
Pressure_Balance_Rough_Valve-GROHE-35114000
 70
     0
 62
     7
  6
Continuous
370
    -3
390
F
347
21
348
0
1001
AcAecLayerStandard
1000

1000

1001
AcCmTransparency
1071
        0
  0
ENDTAB
  0
TABLE
  2
STYLE
  5
3
330
0
100
AcDbSymbolTable
 70
     2
  0
STYLE
  5
55
330
3
100
AcDbSymbolTableRecord
100
AcDbTextStyleTableRecord
  2
Standard
 70
     0
 40
0.0
 41
1.0
 50
0.0
 71
     0
 42
0.2
  3
txt
  4

  0
ENDTAB
  0
TABLE
  2
VIEW
  5
6
330
0
100
AcDbSymbolTable
 70
     2
  0
ENDTAB
  0
TABLE
  2
UCS
  5
7
330
0
100
AcDbSymbolTable
 70
     0
  0
ENDTAB
  0
TABLE
  2
APPID
  5
9
330
0
100
AcDbSymbolTable
 70
     7
  0
APPID
  5
56
330
9
100
AcDbSymbolTableRecord
100
AcDbRegAppTableRecord
  2
ACAD
 70
     0
  0
APPID
  5
5E
330
9
100
AcDbSymbolTableRecord
100
AcDbRegAppTableRecord
  2
AcadAnnotative
 70
     0
  0
APPID
  5
78
330
9
100
AcDbSymbolTableRecord
100
AcDbRegAppTableRecord
  2
REVIT
 70
     0
  0
APPID
  5
11D
330
9
100
AcDbSymbolTableRecord
100
AcDbRegAppTableRecord
  2
ACAD_NAV_VCDISPLAY
 70
     0
  0
APPID
  5
2B4
330
9
100
AcDbSymbolTableRecord
100
AcDbRegAppTableRecord
  2
AcAecLayerStandard
 70
     0
  0
APPID
  5
2B5
330
9
100
AcDbSymbolTableRecord
100
AcDbRegAppTableRecord
  2
AcCmTransparency
 70
     0
  0
APPID
  5
2C8
330
9
100
AcDbSymbolTableRecord
100
AcDbRegAppTableRecord
  2
ACAD_EXEMPT_FROM_CAD_STANDARDS
 70
     0
  0
ENDTAB
  0
TABLE
  2
DIMSTYLE
  5
A
330
0
100
AcDbSymbolTable
 70
     3
100
AcDbDimStyleTable
 71
     1
340
58
  0
DIMSTYLE
105
58
330
A
100
AcDbSymbolTableRecord
100
AcDbDimStyleTableRecord
  2
Standard
 70
     0
340
55
  0
ENDTAB
  0
TABLE
  2
BLOCK_RECORD
  5
1
330
0
100
AcDbSymbolTable
 70
     8
  0
BLOCK_RECORD
  5
70
102
{ACAD_XDICTIONARY
360
FD
102
}
330
1
100
AcDbSymbolTableRecord
100
AcDbBlockTableRecord
  2
*Model_Space
340
73
 70
     0
280
     1
281
     0
  0
BLOCK_RECORD
  5
6C
330
1
100
AcDbSymbolTableRecord
100
AcDbBlockTableRecord
  2
*Paper_Space
340
6F
 70
     0
280
     1
281
     0
  0
BLOCK_RECORD
  5
74
330
1
100
AcDbSymbolTableRecord
100
AcDbBlockTableRecord
  2
*Paper_Space0
340
77
 70
     0
280
     1
281
     0
  0
BLOCK_RECORD
  5
2EA
330
1
100
AcDbSymbolTableRecord
100
AcDbBlockTableRecord
  2
Pressure_Balance_Rough_Valve-GROHE-35114000- Top
340
0
310
28000000200000002000000001002000000000000010000001000000010000000000000000000000302821FF302821FF302821FF302821FF302821FF302821FF302821FF302821FF302821FF302821FF302821FF302821FF302821FF302821FF302821FF302821FF302821FF302821FF302821FF302821FF302821FF302821
310
FF302821FF302821FF302821FF302821FF302821FF302821FF302821FF302821FF302821FF302821FF302821FF302821FF302821FF302821FF302821FF302821FF302821FF302821FF302821FF302821FF302821FF302821FF302821FF302821FF302821FF302821FF302821FF302821FF302821FF302821FF302821FF3028
310
21FF302821FF302821FF302821FF302821FF302821FF302821FF302821FF302821FF302821FF302821FF302821FF302821FF302821FF302821FF302821FF302821FF302821FF302821FF302821FF302821FF302821FF302821FF302821FF302821FF302821FF302821FF302821FF302821FF302821FF302821FF302821FF30
310
2821FF302821FF302821FF302821FF302821FF302821FF302821FF302821FF302821FF302821FF302821FF302821FF302821FF302821FF302821FF302821FF302821FF302821FF302821FF302821FF302821FF302821FF302821FF302821FF302821FF302821FF302821FF302821FF302821FF302821FF302821FF302821FF
310
302821FF302821FF302821FF302821FF302821FF302821FF302821FF302821FF302821FF302821FF302821FF302821FF302821FF302821FF302821FF302821FF302821FF302821FF302821FF302821FF302821FF302821FF302821FF302821FF302821FF302821FF302821FF302821FF302821FF302821FF302821FF302821
310
FF302821FF302821FF302821FF302821FF302821FF302821FF302821FF302821FF302821FF302821FF302821FF302821FF302821FF302821FF302821FF302821FF302821FF302821FF302821FF302821FF302821FF302821FF302821FF302821FF302821FF302821FF302821FF302821FF302821FF302821FF302821FF3028
310
21FF302821FF302821FF302821FF302821FF302821FF302821FF302821FF302821FF302821FF302821FF302821FF302821FF302821FF302821FF302821FF302821FF302821FF302821FF302821FF302821FF302821FF302821FF302821FF302821FF302821FF302821FF302821FF302821FF302821FF302821FF302821FF30
310
2821FF302821FF302821FF302821FF302821FF302821FF302821FF302821FF302821FF302821FF302821FF302821FF302821FF302821FF302821FF302821FF302821FF302821FF302821FF302821FF302821FF302821FF302821FF302821FF302821FF302821FF302821FF302821FF302821FF302821FF302821FF302821FF
310
302821FF302821FF302821FF302821FF302821FF302821FF302821FF302821FF302821FF302821FF302821FF302821FF302821FF302821FF302821FF302821FF302821FF302821FF302821FF302821FF302821FF302821FF302821FF302821FF302821FF302821FF302821FF302821FF302821FF302821FF302821FF302821
310
FF302821FF302821FF302821FF302821FF302821FF302821FF302821FF302821FF302821FF302821FF302821FF302821FF302821FF302821FF302821FF302821FF302821FF302821FF302821FF302821FF302821FF302821FF302821FF302821FF302821FF302821FF302821FF302821FF302821FF302821FF302821FF3028
310
21FF302821FF302821FF302821FF302821FF302821FF302821FF302821FF302821FF302821FF302821FF302821FF302821FF302821FF302821FF302821FF302821FF302821FF302821FF302821FF302821FF302821FF302821FF302821FF302821FF302821FF302821FF302821FF302821FF302821FF302821FF302821FF30
310
2821FF302821FF302821FF302821FF302821FF302821FF302821FF302821FF302821FF302821FF302821FF302821FF302821FF302821FF302821FF302821FF302821FF302821FF302821FF302821FF302821FF302821FF302821FF302821FFFFFFFFFFFFFFFFFFFFFFFFFFFFFFFFFFFFFFFFFFFFFFFFFFFFFFFFFFFFFFFFFF
310
FFFFFFFFFFFFFFFF302821FF302821FF302821FF302821FF302821FF302821FF302821FF302821FF302821FF302821FF302821FF302821FF302821FF302821FF302821FF302821FF302821FF302821FF302821FF302821FF302821FF302821FFFFFFFFFF302821FF302821FF302821FF302821FF302821FF302821FF302821
310
FF302821FFFFFFFFFF302821FF302821FF302821FF302821FF302821FF302821FF302821FF302821FF302821FF302821FF302821FF302821FFFFFFFFFFFFFFFFFFFFFFFFFFFFFFFFFFFFFFFFFFFFFFFFFFFFFFFFFFFFFFFFFFFFFFFFFFFFFFFFFFFFFFFFFF302821FF302821FFFFFFFFFFFFFFFFFFFFFFFFFFFFFFFFFF3028
310
21FF302821FFFFFFFFFFFFFFFFFFFFFFFFFFFFFFFFFFFFFFFFFFFFFFFFFFFFFFFFFFFFFFFFFFFFFFFFFFFFFFFFFFFFFFFFFF302821FF302821FFFFFFFFFF302821FFFFFFFFFF302821FF302821FF302821FFFFFFFFFFFFFFFFFF302821FF302821FFFFFFFFFF302821FFFFFFFFFFFFFFFFFFFFFFFFFFFFFFFFFFFFFFFFFFFF
310
FFFFFF302821FFFFFFFFFF302821FF302821FFFFFFFFFFFFFFFFFF302821FF302821FF302821FFFFFFFFFF302821FFFFFFFFFF302821FF302821FFFFFFFFFF302821FFFFFFFFFF302821FF302821FF302821FFFFFFFFFFFFFFFFFF302821FF302821FFFFFFFFFF302821FFFFFFFFFFFFFFFFFFFFFFFFFFFFFFFFFFFFFFFFFF
310
FFFFFFFF302821FFFFFFFFFF302821FF302821FFFFFFFFFFFFFFFFFF302821FF302821FF302821FFFFFFFFFF302821FFFFFFFFFF302821FF302821FFFFFFFFFFFFFFFFFFFFFFFFFF302821FF302821FF302821FFFFFFFFFFFFFFFFFF302821FF302821FFFFFFFFFF302821FF302821FFFFFFFFFFFFFFFFFFFFFFFFFFFFFFFF
310
FF302821FF302821FFFFFFFFFF302821FF302821FFFFFFFFFFFFFFFFFF302821FF302821FF302821FFFFFFFFFFFFFFFFFFFFFFFFFF302821FF302821FFFFFFFFFFFFFFFFFFFFFFFFFFFFFFFFFFFFFFFFFFFFFFFFFFFFFFFFFFFFFFFFFFFFFFFFFFFFFFFFFFFFFFFFFFFFFFFFFFFFFFFFFFFFFFFFFFFFFFFFFFFFFFFFFFFFFF
310
FFFFFFFFFFFFFFFFFFFFFFFFFFFFFFFFFFFFFFFFFFFFFFFFFFFFFFFFFFFFFFFFFFFFFFFFFFFFFFFFFFFFFFFFFFFFFFFFFFFFFFFFFFFF302821FF302821FF302821FF302821FF302821FF302821FF302821FF302821FF302821FF302821FF302821FF302821FFFFFFFFFF302821FF302821FF302821FF302821FF302821FF30
310
2821FF302821FF302821FFFFFFFFFF302821FF302821FF302821FF302821FF302821FF302821FF302821FF302821FF302821FF302821FF302821FF302821FF302821FF302821FF302821FF302821FF302821FF302821FF302821FF302821FF302821FF302821FFFFFFFFFFFFFFFFFFFFFFFFFFFFFFFFFFFFFFFFFFFFFFFFFF
310
FFFFFFFFFFFFFFFFFFFFFFFFFFFFFFFF302821FF302821FF302821FF302821FF302821FF302821FF302821FF302821FF302821FF302821FF302821FF302821FF302821FF302821FF302821FF302821FF302821FF302821FF302821FF302821FF302821FF302821FF302821FF302821FF302821FFFFFFFFFFFFFFFFFFFFFFFF
310
FFFFFFFFFF302821FF302821FF302821FF302821FF302821FF302821FF302821FF302821FF302821FF302821FF302821FF302821FF302821FF302821FF302821FF302821FF302821FF302821FF302821FF302821FF302821FF302821FF302821FF302821FF302821FF302821FF302821FF302821FF302821FF302821FF3028
310
21FF302821FF302821FF302821FF302821FF302821FF302821FF302821FF302821FF302821FF302821FF302821FF302821FF302821FF302821FF302821FF302821FF302821FF302821FF302821FF302821FF302821FF302821FF302821FF302821FF302821FF302821FF302821FF302821FF302821FF302821FF302821FF30
310
2821FF302821FF302821FF302821FF302821FF302821FF302821FF302821FF302821FF302821FF302821FF302821FF302821FF302821FF302821FF302821FF302821FF302821FF302821FF302821FF302821FF302821FF302821FF302821FF302821FF302821FF302821FF302821FF302821FF302821FF302821FF302821FF
310
302821FF302821FF302821FF302821FF302821FF302821FF302821FF302821FF302821FF302821FF302821FF302821FF302821FF302821FF302821FF302821FF302821FF302821FF302821FF302821FF302821FF302821FF302821FF302821FF302821FF302821FF302821FF302821FF302821FF302821FF302821FF302821
310
FF302821FF302821FF302821FF302821FF302821FF302821FF302821FF302821FF302821FF302821FF302821FF302821FF302821FF302821FF302821FF302821FF302821FF302821FF302821FF302821FF302821FF302821FF302821FF302821FF302821FF302821FF302821FF302821FF302821FF302821FF302821FF3028
310
21FF302821FF302821FF302821FF302821FF302821FF302821FF302821FF302821FF302821FF302821FF302821FF302821FF302821FF302821FF302821FF302821FF302821FF302821FF302821FF302821FF302821FF302821FF302821FF302821FF302821FF302821FF302821FF302821FF302821FF302821FF302821FF30
310
2821FF302821FF302821FF302821FF302821FF302821FF302821FF302821FF302821FF302821FF302821FF302821FF302821FF302821FF302821FF302821FF302821FF302821FF302821FF302821FF302821FF302821FF302821FF302821FF302821FF302821FF302821FF302821FF302821FF302821FF302821FF302821FF
310
302821FF302821FF302821FF302821FF302821FF302821FF302821FF302821FF302821FF302821FF302821FF302821FF302821FF302821FF302821FF302821FF302821FF302821FF302821FF302821FF302821FF302821FF302821FF302821FF302821FF302821FF302821FF302821FF302821FF302821FF302821FF302821
310
FF302821FF302821FF302821FF302821FF302821FF302821FF302821FF302821FF302821FF302821FF302821FF302821FF302821FF302821FF302821FF302821FF302821FF302821FF302821FF302821FF302821FF302821FF302821FF302821FF302821FF302821FF302821FF302821FF302821FF302821FF302821FF3028
310
21FF302821FF302821FF302821FF302821FF302821FF302821FF302821FF302821FF302821FF302821FF302821FF302821FF302821FF302821FF302821FF302821FF302821FF302821FF302821FF302821FF302821FF302821FF302821FF302821FF302821FF302821FF302821FF302821FF302821FF302821FF302821FF30
310
2821FF302821FF302821FF302821FF302821FF302821FF302821FF302821FF302821FF302821FF302821FF302821FF302821FF302821FF302821FF302821FF302821FF302821FF302821FF302821FF302821FF302821FF302821FF302821FF302821FF302821FF302821FF302821FF302821FF302821FF302821FF302821FF
310
302821FF302821FF302821FF302821FF302821FF302821FF302821FF302821FF302821FF302821FF302821FF302821FF302821FF302821FF302821FF302821FF302821FF302821FF
102
{BLKREFS
331
329
102
}
 70
     1
280
     1
281
     0
  0
BLOCK_RECORD
  5
32A
330
1
100
AcDbSymbolTableRecord
100
AcDbBlockTableRecord
  2
Pressure_Balance_Rough_Valve-GROHE-35114000- Front
340
0
310
28000000200000002000000001002000000000000010000001000000010000000000000000000000302821FF302821FF302821FF302821FF302821FF302821FF302821FF302821FF302821FF302821FF302821FF302821FF302821FF302821FF302821FF302821FF302821FF302821FF302821FF302821FF302821FF302821
310
FF302821FF302821FF302821FF302821FF302821FF302821FF302821FF302821FF302821FF302821FF302821FF302821FF302821FF302821FF302821FF302821FF302821FF302821FF302821FF302821FF302821FF302821FF302821FF302821FF302821FF302821FF302821FF302821FF302821FF302821FF302821FF3028
310
21FF302821FF302821FF302821FF302821FF302821FF302821FF302821FF302821FF302821FF302821FF302821FF302821FF302821FF302821FF302821FF302821FF302821FF302821FF302821FF302821FF302821FF302821FF302821FF302821FF302821FF302821FF302821FF302821FF302821FF302821FF302821FF30
310
2821FF302821FF302821FF302821FF302821FF302821FF302821FF302821FF302821FF302821FF302821FF302821FF302821FF302821FF302821FF302821FF302821FF302821FF302821FF302821FF302821FF302821FF302821FF302821FF302821FF302821FF302821FF302821FF302821FF302821FF302821FF302821FF
310
302821FF302821FF302821FF302821FF302821FF302821FF302821FF302821FF302821FF302821FF302821FF302821FF302821FF302821FF302821FF302821FF302821FF302821FF302821FF302821FF302821FF302821FF302821FF302821FF302821FF302821FF302821FF302821FF302821FF302821FF302821FF302821
310
FF302821FF302821FF302821FF302821FF302821FF302821FF302821FF302821FF302821FF302821FF302821FF302821FF302821FF302821FF302821FF302821FF302821FF302821FF302821FF302821FF302821FF302821FF302821FF302821FF302821FF302821FF302821FF302821FF302821FF302821FF302821FF3028
310
21FF302821FF302821FF302821FF302821FF302821FF302821FF302821FF302821FF302821FF302821FF302821FF302821FF302821FF302821FF302821FF302821FF302821FF302821FF302821FF302821FF302821FF302821FF302821FF302821FF302821FF302821FF302821FF302821FF302821FF302821FF302821FF30
310
2821FF302821FF302821FF302821FF302821FF302821FF302821FF302821FF302821FF302821FF302821FF302821FF302821FF302821FF302821FF302821FF302821FF302821FF302821FF302821FF302821FF302821FF302821FF302821FF302821FF302821FF302821FF302821FF302821FF302821FF302821FF302821FF
310
302821FF302821FF302821FF302821FF302821FF302821FF302821FF302821FF302821FF302821FF302821FF302821FF302821FF302821FF302821FF302821FF302821FF302821FF302821FF302821FF302821FF302821FF302821FF302821FF302821FF302821FFFFFFFFFFFFFFFFFFFFFFFFFFFFFFFFFF302821FF302821
310
FF302821FF302821FF302821FF302821FF302821FF302821FF302821FF302821FF302821FF302821FF302821FF302821FF302821FF302821FF302821FF302821FF302821FF302821FF302821FF302821FF302821FF302821FF302821FF302821FF302821FF302821FFFFFFFFFF302821FF302821FFFFFFFFFF302821FF3028
310
21FF302821FF302821FF302821FF302821FF302821FF302821FF302821FF302821FF302821FF302821FF302821FF302821FF302821FF302821FF302821FF302821FF302821FF302821FF302821FF302821FF302821FFFFFFFFFFFFFFFFFF302821FF302821FFFFFFFFFFFFFFFFFFFFFFFFFFFFFFFFFFFFFFFFFFFFFFFFFFFF
310
FFFFFFFFFFFFFFFFFFFFFF302821FF302821FF302821FF302821FF302821FF302821FF302821FF302821FF302821FF302821FF302821FF302821FF302821FF302821FF302821FF302821FF302821FF302821FF302821FFFFFFFFFFFFFFFFFF302821FF302821FFFFFFFFFFFFFFFFFFFFFFFFFFFFFFFFFFFFFFFFFFFFFFFFFF
310
FFFFFFFFFFFFFFFFFFFFFFFF302821FF302821FF302821FF302821FF302821FF302821FF302821FF302821FF302821FF302821FF302821FF302821FF302821FF302821FF302821FF302821FF302821FF302821FF302821FFFFFFFFFF302821FFFFFFFFFFFFFFFFFFFFFFFFFFFFFFFFFF302821FF302821FFFFFFFFFFFFFFFF
310
FFFFFFFFFF302821FFFFFFFFFF302821FF302821FF302821FF302821FF302821FF302821FF302821FF302821FF302821FF302821FF302821FF302821FF302821FFFFFFFFFFFFFFFFFFFFFFFFFFFFFFFFFFFFFFFFFFFFFFFFFFFFFFFFFFFFFFFFFFFFFFFFFFFFFFFFFF302821FF302821FF302821FF302821FF302821FFFFFF
310
FFFFFFFFFFFFFFFFFFFFFFFFFFFFFFFFFFFFFFFFFFFFFFFFFFFFFFFFFFFFFFFFFFFFFFFFFFFFFFFFFFFF302821FF302821FF302821FF302821FFFFFFFFFFFFFFFFFFFFFFFFFF302821FF302821FF302821FFFFFFFFFFFFFFFFFF302821FF302821FFFFFFFFFFFFFFFFFF302821FF302821FF302821FF302821FF302821FF30
310
2821FFFFFFFFFFFFFFFFFF302821FF302821FFFFFFFFFFFFFFFFFF302821FF302821FF302821FFFFFFFFFFFFFFFFFFFFFFFFFF302821FF302821FFFFFFFFFF302821FFFFFFFFFF302821FF302821FF302821FFFFFFFFFFFFFFFFFFFFFFFFFFFFFFFFFFFFFFFFFFFFFFFFFFFFFFFFFFFFFFFFFFFFFFFFFFFFFFFFFFFFFFFFFF
310
FFFFFFFFFFFFFFFFFFFFFFFFFFFFFFFFFFFFFFFFFFFFFFFFFFFFFFFF302821FF302821FF302821FFFFFFFFFF302821FFFFFFFFFF302821FF302821FFFFFFFFFF302821FFFFFFFFFF302821FF302821FF302821FFFFFFFFFFFFFFFFFFFFFFFFFFFFFFFFFFFFFFFFFFFFFFFFFFFFFFFFFFFFFFFFFFFFFFFFFFFFFFFFFFFFFFFF
310
FFFFFFFFFFFFFFFFFFFFFFFFFFFFFFFFFFFFFFFFFFFFFFFFFFFFFFFFFF302821FF302821FF302821FFFFFFFFFF302821FFFFFFFFFF302821FF302821FFFFFFFFFFFFFFFFFFFFFFFFFF302821FF302821FF302821FFFFFFFFFFFFFFFFFF302821FF302821FFFFFFFFFFFFFFFFFF302821FF302821FF302821FF302821FF3028
310
21FF302821FFFFFFFFFFFFFFFFFF302821FF302821FFFFFFFFFFFFFFFFFF302821FF302821FF302821FFFFFFFFFFFFFFFFFFFFFFFFFF302821FF302821FF302821FF302821FFFFFFFFFFFFFFFFFFFFFFFFFFFFFFFFFFFFFFFFFFFFFFFFFFFFFFFFFFFFFFFFFFFFFFFFFFFFFFFFFF302821FF302821FF302821FF302821FF30
310
2821FFFFFFFFFFFFFFFFFFFFFFFFFFFFFFFFFFFFFFFFFFFFFFFFFFFFFFFFFFFFFFFFFFFFFFFFFFFFFFFFFFFFFFFFFF302821FF302821FF302821FF302821FF302821FF302821FF302821FF302821FF302821FF302821FF302821FF302821FF302821FFFFFFFFFF302821FFFFFFFFFFFFFFFFFFFFFFFFFF302821FF302821FF
310
FFFFFFFFFFFFFFFFFFFFFFFF302821FFFFFFFFFFFFFFFFFF302821FF302821FF302821FF302821FF302821FF302821FF302821FF302821FF302821FF302821FF302821FF302821FF302821FF302821FF302821FF302821FF302821FF302821FF302821FFFFFFFFFFFFFFFFFFFFFFFFFFFFFFFFFFFFFFFFFFFFFFFFFFFFFFFF
310
FFFFFFFFFFFFFFFFFF302821FF302821FFFFFFFFFFFFFFFFFF302821FF302821FF302821FF302821FF302821FF302821FF302821FF302821FF302821FF302821FF302821FF302821FF302821FF302821FF302821FF302821FF302821FF302821FF302821FFFFFFFFFFFFFFFFFFFFFFFFFFFFFFFFFFFFFFFFFFFFFFFFFFFFFF
310
FFFFFFFFFFFFFFFFFFFF302821FF302821FFFFFFFFFFFFFFFFFF302821FF302821FF302821FF302821FF302821FF302821FF302821FF302821FF302821FF302821FF302821FF302821FF302821FF302821FF302821FF302821FF302821FF302821FF302821FF302821FF302821FF302821FF302821FFFFFFFFFF302821FF30
310
2821FFFFFFFFFF302821FF302821FF302821FF302821FF302821FF302821FF302821FF302821FF302821FF302821FF302821FF302821FF302821FF302821FF302821FF302821FF302821FF302821FF302821FF302821FF302821FF302821FF302821FF302821FF302821FF302821FF302821FF302821FFFFFFFFFFFFFFFFFF
310
FFFFFFFFFFFFFFFF302821FF302821FF302821FF302821FF302821FF302821FF302821FF302821FF302821FF302821FF302821FF302821FF302821FF302821FF302821FF302821FF302821FF302821FF302821FF302821FF302821FF302821FF302821FF302821FF302821FF302821FF302821FF302821FF302821FF302821
310
FF302821FF302821FF302821FF302821FF302821FF302821FF302821FF302821FF302821FF302821FF302821FF302821FF302821FF302821FF302821FF302821FF302821FF302821FF302821FF302821FF302821FF302821FF302821FF302821FF302821FF302821FF302821FF302821FF302821FF302821FF302821FF3028
310
21FF302821FF302821FF302821FF302821FF302821FF302821FF302821FF302821FF302821FF302821FF302821FF302821FF302821FF302821FF302821FF302821FF302821FF302821FF302821FF302821FF302821FF302821FF302821FF302821FF302821FF302821FF302821FF302821FF302821FF302821FF302821FF30
310
2821FF302821FF302821FF302821FF302821FF302821FF302821FF302821FF302821FF302821FF302821FF302821FF302821FF302821FF302821FF302821FF302821FF302821FF302821FF302821FF302821FF302821FF302821FF302821FF302821FF302821FF302821FF302821FF302821FF302821FF302821FF302821FF
310
302821FF302821FF302821FF302821FF302821FF302821FF302821FF302821FF302821FF302821FF302821FF302821FF302821FF302821FF302821FF302821FF302821FF302821FF302821FF302821FF302821FF302821FF302821FF302821FF302821FF302821FF302821FF302821FF302821FF302821FF302821FF302821
310
FF302821FF302821FF302821FF302821FF302821FF302821FF302821FF302821FF302821FF302821FF302821FF302821FF302821FF302821FF302821FF302821FF302821FF302821FF302821FF302821FF302821FF302821FF302821FF302821FF302821FF302821FF302821FF302821FF302821FF302821FF302821FF3028
310
21FF302821FF302821FF302821FF302821FF302821FF302821FF302821FF302821FF302821FF302821FF302821FF302821FF302821FF302821FF302821FF302821FF302821FF302821FF302821FF302821FF302821FF302821FF302821FF302821FF302821FF302821FF302821FF302821FF302821FF302821FF302821FF30
310
2821FF302821FF302821FF302821FF302821FF302821FF302821FF302821FF302821FF302821FF302821FF302821FF302821FF302821FF302821FF302821FF302821FF302821FF302821FF302821FF302821FF302821FF302821FF302821FF302821FF302821FF302821FF302821FF302821FF302821FF302821FF302821FF
310
302821FF302821FF302821FF302821FF302821FF302821FF302821FF302821FF302821FF302821FF302821FF302821FF302821FF302821FF302821FF302821FF302821FF302821FF
102
{BLKREFS
331
380
102
}
 70
     1
280
     1
281
     0
  0
BLOCK_RECORD
  5
381
330
1
100
AcDbSymbolTableRecord
100
AcDbBlockTableRecord
  2
Pressure_Balance_Rough_Valve-GROHE-35114000- Left
340
0
310
28000000200000002000000001002000000000000010000001000000010000000000000000000000302821FF302821FF302821FF302821FF302821FF302821FF302821FF302821FF302821FF302821FF302821FF302821FF302821FF302821FF302821FF302821FF302821FF302821FF302821FF302821FF302821FF302821
310
FF302821FF302821FF302821FF302821FF302821FF302821FF302821FF302821FF302821FF302821FF302821FF302821FF302821FF302821FF302821FF302821FF302821FF302821FF302821FF302821FF302821FF302821FF302821FF302821FF302821FF302821FF302821FF302821FF302821FF302821FF302821FF3028
310
21FF302821FF302821FF302821FF302821FF302821FF302821FF302821FF302821FF302821FF302821FF302821FF302821FF302821FF302821FF302821FF302821FF302821FF302821FF302821FF302821FF302821FF302821FF302821FF302821FF302821FF302821FF302821FF302821FF302821FF302821FF302821FF30
310
2821FF302821FF302821FF302821FF302821FF302821FF302821FF302821FF302821FF302821FF302821FF302821FF302821FF302821FF302821FF302821FF302821FF302821FF302821FF302821FF302821FF302821FF302821FF302821FF302821FF302821FF302821FF302821FF302821FF302821FF302821FF302821FF
310
302821FF302821FF302821FF302821FF302821FF302821FF302821FF302821FF302821FF302821FF302821FF302821FF302821FF302821FF302821FF302821FF302821FF302821FF302821FF302821FF302821FF302821FF302821FF302821FF302821FF302821FF302821FF302821FF302821FF302821FF302821FF302821
310
FF302821FF302821FF302821FF302821FF302821FF302821FF302821FF302821FF302821FF302821FF302821FF302821FF302821FF302821FF302821FF302821FF302821FF302821FF302821FF302821FF302821FF302821FF302821FF302821FF302821FF302821FF302821FF302821FF302821FF302821FF302821FF3028
310
21FF302821FF302821FF302821FF302821FF302821FF302821FF302821FF302821FF302821FF302821FF302821FF302821FF302821FF302821FF302821FF302821FF302821FF302821FF302821FF302821FF302821FF302821FF302821FF302821FF302821FF302821FF302821FF302821FF302821FF302821FF302821FF30
310
2821FF302821FF302821FF302821FF302821FF302821FF302821FF302821FF302821FF302821FF302821FF302821FF302821FF302821FF302821FF302821FF302821FF302821FF302821FFFFFFFFFFFFFFFFFFFFFFFFFFFFFFFFFFFFFFFFFFFFFFFFFFFFFFFFFFFFFFFFFFFFFFFFFFFFFFFFFFFFFFFFFFFFFFFFFFFFFFFFFF
310
FFFFFFFFFFFFFFFFFFFFFFFFFFFFFFFFFFFFFFFF302821FF302821FF302821FF302821FF302821FF302821FF302821FF302821FF302821FF302821FF302821FF302821FF302821FF302821FFFFFFFFFF302821FF302821FF302821FF302821FF302821FF302821FF302821FF302821FF302821FF302821FF302821FF302821
310
FF302821FF302821FF302821FF302821FFFFFFFFFF302821FF302821FF302821FF302821FF302821FF302821FF302821FF302821FF302821FF302821FF302821FF302821FF302821FF302821FFFFFFFFFF302821FF302821FF302821FF302821FF302821FF302821FF302821FF302821FF302821FF302821FF302821FF3028
310
21FF302821FF302821FF302821FF302821FFFFFFFFFF302821FF302821FF302821FF302821FF302821FF302821FF302821FF302821FF302821FF302821FF302821FF302821FF302821FFFFFFFFFFFFFFFFFF302821FF302821FF302821FF302821FF302821FF302821FF302821FFFFFFFFFFFFFFFFFF302821FF302821FF30
310
2821FF302821FF302821FF302821FF302821FFFFFFFFFFFFFFFFFF302821FF302821FF302821FF302821FF302821FF302821FF302821FFFFFFFFFFFFFFFFFFFFFFFFFFFFFFFFFFFFFFFFFFFFFFFFFFFFFFFFFF302821FF302821FF302821FF302821FF302821FFFFFFFFFFFFFFFFFFFFFFFFFFFFFFFFFFFFFFFFFFFFFFFFFF
310
FFFFFFFFFFFFFFFFFFFFFFFFFFFFFFFFFFFFFFFFFFFFFFFFFFFFFFFFFFFFFFFFFFFFFFFFFFFFFFFFFFFFFFFFFFFFFFFF302821FF302821FFFFFFFFFF302821FF302821FF302821FF302821FFFFFFFFFFFFFFFFFF302821FF302821FF302821FF302821FFFFFFFFFFFFFFFFFFFFFFFFFFFFFFFFFFFFFFFFFFFFFFFFFFFFFFFF
310
FFFFFFFFFFFFFFFFFFFFFFFFFFFFFFFFFFFFFFFFFFFFFFFFFFFFFFFFFFFFFFFFFF302821FF302821FF302821FFFFFFFFFF302821FF302821FFFFFFFFFF302821FF302821FF302821FF302821FFFFFFFFFFFFFFFFFF302821FF302821FF302821FF302821FFFFFFFFFFFFFFFFFFFFFFFFFFFFFFFFFFFFFFFFFFFFFFFFFFFFFF
310
FFFFFFFFFFFF302821FF302821FF302821FF302821FFFFFFFFFFFFFFFFFF302821FF302821FF302821FF302821FFFFFFFFFF302821FF302821FFFFFFFFFF302821FF302821FF302821FF302821FFFFFFFFFFFFFFFFFF302821FF302821FF302821FF302821FFFFFFFFFFFFFFFFFFFFFFFFFF302821FF302821FFFFFFFFFFFF
310
FFFFFFFFFFFFFF302821FF302821FF302821FF302821FFFFFFFFFFFFFFFFFF302821FF302821FF302821FF302821FFFFFFFFFF302821FF302821FFFFFFFFFF302821FF302821FF302821FF302821FFFFFFFFFFFFFFFFFF302821FF302821FF302821FF302821FFFFFFFFFFFFFFFFFFFFFFFFFF302821FF302821FFFFFFFFFF
310
FFFFFFFFFFFFFFFF302821FF302821FF302821FF302821FFFFFFFFFFFFFFFFFF302821FF302821FF302821FF302821FFFFFFFFFF302821FF302821FFFFFFFFFF302821FF302821FF302821FFFFFFFFFFFFFFFFFFFFFFFFFFFFFFFFFFFFFFFFFFFFFFFFFFFFFFFFFFFFFFFFFFFFFFFFFFFFFFFFFFFFFFFFFFFFFFFFFFFFFFFF
310
FFFFFFFFFFFFFFFFFF302821FF302821FF302821FF302821FFFFFFFFFFFFFFFFFF302821FF302821FF302821FF302821FFFFFFFFFF302821FF302821FFFFFFFFFFFFFFFFFFFFFFFFFFFFFFFFFFFFFFFFFFFFFFFFFFFFFFFFFFFFFFFFFFFFFFFFFFFFFFFFFFFFFFFFFFFFFFFFFFFFFFFFFFFFFFFFFFFFFFFFFFFFFFFFFFFFFF
310
FFFFFFFFFFFF302821FF302821FF302821FF302821FF302821FFFFFFFFFFFFFFFFFFFFFFFFFFFFFFFFFFFFFFFFFFFFFFFFFFFFFFFFFF302821FF302821FF302821FF302821FF302821FF302821FF302821FFFFFFFFFFFFFFFFFF302821FF302821FF302821FF302821FF302821FF302821FFFFFFFFFFFFFFFFFFFFFFFFFFFF
310
FFFFFF302821FF302821FF302821FF302821FF302821FF302821FFFFFFFFFFFFFFFFFF302821FF302821FF302821FF302821FF302821FF302821FF302821FF302821FF302821FF302821FF302821FF302821FF302821FFFFFFFFFFFFFFFFFFFFFFFFFFFFFFFFFFFFFFFFFFFFFFFFFFFFFFFFFFFFFFFFFFFFFFFFFFFFFFFFFF
310
FFFFFFFFFFFFFFFFFFFFFFFFFFFFFFFFFFFFFFFFFFFFFFFFFFFFFFFFFFFFFFFF302821FF302821FF302821FF302821FF302821FF302821FF302821FF302821FF302821FF302821FF302821FF302821FF302821FF302821FFFFFFFFFF302821FF302821FF302821FF302821FF302821FF302821FF302821FF302821FF302821
310
FF302821FF302821FF302821FF302821FF302821FF302821FF302821FFFFFFFFFF302821FF302821FF302821FF302821FF302821FF302821FF302821FF302821FF302821FF302821FF302821FF302821FF302821FF302821FFFFFFFFFF302821FF302821FF302821FF302821FF302821FF302821FF302821FF302821FF3028
310
21FF302821FF302821FF302821FF302821FF302821FF302821FF302821FFFFFFFFFF302821FF302821FF302821FF302821FF302821FF302821FF302821FF302821FF302821FF302821FF302821FF302821FF302821FF302821FFFFFFFFFFFFFFFFFFFFFFFFFFFFFFFFFFFFFFFFFFFFFFFFFFFFFFFFFFFFFFFFFFFFFFFFFFFF
310
FFFFFFFFFFFFFFFFFFFFFFFFFFFFFFFFFFFFFFFFFFFFFFFFFFFFFFFFFFFFFFFFFFFFFF302821FF302821FF302821FF302821FF302821FF302821FF302821FF302821FF302821FF302821FF302821FF302821FF302821FF302821FF302821FF302821FF302821FF302821FF302821FF302821FF302821FF302821FFFFFFFFFF
310
FFFFFFFF302821FF302821FF302821FF302821FF302821FF302821FF302821FF302821FF302821FF302821FF302821FF302821FF302821FF302821FF302821FF302821FF302821FF302821FF302821FF302821FF302821FF302821FF302821FF302821FF302821FF302821FF302821FF302821FF302821FF302821FFFFFFFF
310
FFFFFFFFFF302821FF302821FF302821FF302821FF302821FF302821FF302821FF302821FF302821FF302821FF302821FF302821FF302821FF302821FF302821FF302821FF302821FF302821FF302821FF302821FF302821FF302821FF302821FF302821FF302821FF302821FF302821FF302821FF302821FF302821FF3028
310
21FF302821FF302821FF302821FF302821FF302821FF302821FF302821FF302821FF302821FF302821FF302821FF302821FF302821FF302821FF302821FF302821FF302821FF302821FF302821FF302821FF302821FF302821FF302821FF302821FF302821FF302821FF302821FF302821FF302821FF302821FF302821FF30
310
2821FF302821FF302821FF302821FF302821FF302821FF302821FF302821FF302821FF302821FF302821FF302821FF302821FF302821FF302821FF302821FF302821FF302821FF302821FF302821FF302821FF302821FF302821FF302821FF302821FF302821FF302821FF302821FF302821FF302821FF302821FF302821FF
310
302821FF302821FF302821FF302821FF302821FF302821FF302821FF302821FF302821FF302821FF302821FF302821FF302821FF302821FF302821FF302821FF302821FF302821FF302821FF302821FF302821FF302821FF302821FF302821FF302821FF302821FF302821FF302821FF302821FF302821FF302821FF302821
310
FF302821FF302821FF302821FF302821FF302821FF302821FF302821FF302821FF302821FF302821FF302821FF302821FF302821FF302821FF302821FF302821FF302821FF302821FF302821FF302821FF302821FF302821FF302821FF302821FF302821FF302821FF302821FF302821FF302821FF302821FF302821FF3028
310
21FF302821FF302821FF302821FF302821FF302821FF302821FF302821FF302821FF302821FF302821FF302821FF302821FF302821FF302821FF302821FF302821FF302821FF302821FF302821FF302821FF302821FF302821FF302821FF302821FF302821FF302821FF302821FF302821FF302821FF302821FF302821FF30
310
2821FF302821FF302821FF302821FF302821FF302821FF302821FF302821FF302821FF302821FF302821FF302821FF302821FF302821FF302821FF302821FF302821FF302821FF302821FF302821FF302821FF302821FF302821FF302821FF302821FF302821FF302821FF302821FF302821FF302821FF302821FF302821FF
310
302821FF302821FF302821FF302821FF302821FF302821FF302821FF302821FF302821FF302821FF302821FF302821FF302821FF302821FF302821FF302821FF302821FF302821FF
102
{BLKREFS
331
3B7
102
}
 70
     1
280
     1
281
     0
  0
ENDTAB
  0
ENDSEC
  0
SECTION
  2
BLOCKS
  0
BLOCK
  5
71
330
70
100
AcDbEntity
  8
0
100
AcDbBlockBegin
  2
*Model_Space
 70
     0
 10
0.0
 20
0.0
 30
0.0
  3
*Model_Space
  1

  0
ENDBLK
  5
72
330
70
100
AcDbEntity
  8
0
100
AcDbBlockEnd
  0
BLOCK
  5
6D
330
6C
100
AcDbEntity
 67
     1
  8
0
100
AcDbBlockBegin
  2
*Paper_Space
 70
     0
 10
0.0
 20
0.0
 30
0.0
  3
*Paper_Space
  1

  0
ENDBLK
  5
6E
330
6C
100
AcDbEntity
 67
     1
  8
0
100
AcDbBlockEnd
  0
BLOCK
  5
75
330
74
100
AcDbEntity
 67
     1
  8
0
100
AcDbBlockBegin
  2
*Paper_Space0
 70
     0
 10
0.0
 20
0.0
 30
0.0
  3
*Paper_Space0
  1

  0
ENDBLK
  5
76
330
74
100
AcDbEntity
 67
     1
  8
0
100
AcDbBlockEnd
  0
BLOCK
  5
2EB
330
2EA
100
AcDbEntity
  8
0
100
AcDbBlockBegin
  2
Pressure_Balance_Rough_Valve-GROHE-35114000- Top
 70
     0
 10
0.0
 20
0.0
 30
0.0
  3
Pressure_Balance_Rough_Valve-GROHE-35114000- Top
  1

  0
LINE
  5
2ED
330
2EA
100
AcDbEntity
  8
Pressure_Balance_Rough_Valve-GROHE-35114000
100
AcDbLine
 10
0.8645696171285804
 20
0.4549363560042128
 30
0.0
 11
0.296291329486581
 21
0.7199288734948528
 31
0.0
1001
REVIT
1002
{
1070
     2
1000
-2001160
1002
}
  0
ARC
  5
2EE
330
2EA
100
AcDbEntity
  8
Pressure_Balance_Rough_Valve-GROHE-35114000
100
AcDbCircle
 10
-0.0000000000000009
 20
-0.2943761830769867
 30
0.0
 40
1.056694515797317
100
AcDbArc
 50
73.71624894759567
 51
106.2837510523694
1001
REVIT
1002
{
1070
     2
1000
-2001160
1002
}
  0
LINE
  5
2EF
330
2EA
100
AcDbEntity
  8
Pressure_Balance_Rough_Valve-GROHE-35114000
100
AcDbLine
 10
-0.2962913294861997
 20
0.7199288734950598
 30
0.0
 11
-0.8645696171285983
 21
0.4549363560041959
 31
0.0
1001
REVIT
1002
{
1070
     2
1000
-2001160
1002
}
  0
LINE
  5
2F0
330
2EA
100
AcDbEntity
  8
Pressure_Balance_Rough_Valve-GROHE-35114000
100
AcDbLine
 10
1.129596651779346
 20
-0.000000000000008
 30
0.0
 11
1.129596651779342
 21
0.4549363560042057
 31
0.0
1001
REVIT
1002
{
1070
     1
1000
114472
1002
}
1002
{
1070
     2
1000
-2001160
1002
}
  0
LINE
  5
2F1
330
2EA
100
AcDbEntity
  8
Pressure_Balance_Rough_Valve-GROHE-35114000
100
AcDbLine
 10
-1.12959665177935
 20
0.4549363560041826
 30
0.0
 11
-1.129596651779346
 21
-0.0000000000000311
 31
0.0
1001
REVIT
1002
{
1070
     1
1000
114472
1002
}
1002
{
1070
     2
1000
-2001160
1002
}
  0
LINE
  5
2F2
330
2EA
100
AcDbEntity
  8
Pressure_Balance_Rough_Valve-GROHE-35114000
100
AcDbLine
 10
1.031250000000241
 20
-1.545063643995802
 30
0.0
 11
1.031250000000225
 21
0.0000000000000107
 31
0.0
1001
REVIT
1002
{
1070
     1
1000
114472
1002
}
1002
{
1070
     2
1000
-2001160
1002
}
  0
LINE
  5
2F3
330
2EA
100
AcDbEntity
  8
Pressure_Balance_Rough_Valve-GROHE-35114000
100
AcDbLine
 10
-1.031250000000225
 20
-0.0000000000000107
 30
0.0
 11
-1.031250000000209
 21
-1.545063643995824
 31
0.0
1001
REVIT
1002
{
1070
     1
1000
114472
1002
}
1002
{
1070
     2
1000
-2001160
1002
}
  0
LINE
  5
2F4
330
2EA
100
AcDbEntity
  8
Pressure_Balance_Rough_Valve-GROHE-35114000
100
AcDbLine
 10
1.129596651779342
 20
0.4549363560042031
 30
0.0
 11
-1.12959665177935
 21
0.4549363560041808
 31
0.0
1001
REVIT
1002
{
1070
     1
1000
114472
1002
}
1002
{
1070
     2
1000
-2001160
1002
}
  0
LINE
  5
2F5
330
2EA
100
AcDbEntity
  8
Pressure_Balance_Rough_Valve-GROHE-35114000
100
AcDbLine
 10
1.02560070459877
 20
-1.545063643995802
 30
0.0
 11
-1.025600704598741
 21
-1.545063643995823
 31
0.0
1001
REVIT
1002
{
1070
     1
1000
114472
1002
}
1002
{
1070
     2
1000
-2001160
1002
}
  0
LINE
  5
2F6
330
2EA
100
AcDbEntity
  8
Pressure_Balance_Rough_Valve-GROHE-35114000
100
AcDbLine
 10
1.285771107333375
 20
-0.0287292196358182
 30
0.0
 11
1.285771107333376
 21
-0.0450636439555154
 31
0.0
1001
REVIT
1002
{
1070
     1
1000
130422
1002
}
1002
{
1070
     2
1000
-2001160
1002
}
  0
LINE
  5
2F7
330
2EA
100
AcDbEntity
  8
Pressure_Balance_Rough_Valve-GROHE-35114000
100
AcDbLine
 10
-1.378214508456661
 20
0.0061345066244272
 30
0.0
 11
-1.378214508456661
 21
0.0416818353603645
 31
0.0
1001
REVIT
1002
{
1070
     1
1000
131792
1002
}
1002
{
1070
     2
1000
-2001160
1002
}
  0
LINE
  5
2F8
330
2EA
100
AcDbEntity
  8
Pressure_Balance_Rough_Valve-GROHE-35114000
100
AcDbLine
 10
-1.507490149391552
 20
0.0416818353603645
 30
0.0
 11
-1.507490149391552
 21
0.0061345066244272
 31
0.0
1001
REVIT
1002
{
1070
     1
1000
131792
1002
}
1002
{
1070
     2
1000
-2001160
1002
}
  0
LINE
  5
2F9
330
2EA
100
AcDbEntity
  8
Pressure_Balance_Rough_Valve-GROHE-35114000
100
AcDbLine
 10
-1.324317915663203
 20
-0.02872921963582
 30
0.0
 11
-1.324317915663203
 21
0.0061345066244272
 31
0.0
1001
REVIT
1002
{
1070
     1
1000
131792
1002
}
1002
{
1070
     2
1000
-2001160
1002
}
  0
LINE
  5
2FA
330
2EA
100
AcDbEntity
  8
Pressure_Balance_Rough_Valve-GROHE-35114000
100
AcDbLine
 10
-1.56138674218501
 20
0.0061345066244272
 30
0.0
 11
-1.56138674218501
 21
-0.02872921963582
 31
0.0
1001
REVIT
1002
{
1070
     1
1000
131792
1002
}
1002
{
1070
     2
1000
-2001160
1002
}
  0
LINE
  5
2FB
330
2EA
100
AcDbEntity
  8
Pressure_Balance_Rough_Valve-GROHE-35114000
100
AcDbLine
 10
-1.280567357218972
 20
-0.0450636439555154
 30
0.0
 11
-1.280567357218972
 21
-0.02872921963582
 31
0.0
1001
REVIT
1002
{
1070
     1
1000
131792
1002
}
1002
{
1070
     2
1000
-2001160
1002
}
  0
LINE
  5
2FC
330
2EA
100
AcDbEntity
  8
Pressure_Balance_Rough_Valve-GROHE-35114000
100
AcDbLine
 10
-1.605137300629241
 20
-0.02872921963582
 30
0.0
 11
-1.605137300629241
 21
-0.0450636439555154
 31
0.0
1001
REVIT
1002
{
1070
     1
1000
131792
1002
}
1002
{
1070
     2
1000
-2001160
1002
}
  0
LINE
  5
2FD
330
2EA
100
AcDbEntity
  8
Pressure_Balance_Rough_Valve-GROHE-35114000
100
AcDbLine
 10
-1.50749014939155
 20
0.0416818353603645
 30
0.0
 11
-1.378214508456659
 21
0.0416818353603645
 31
0.0
1001
REVIT
1002
{
1070
     1
1000
131792
1002
}
1002
{
1070
     2
1000
-2001160
1002
}
  0
LINE
  5
2FE
330
2EA
100
AcDbEntity
  8
Pressure_Balance_Rough_Valve-GROHE-35114000
100
AcDbLine
 10
-1.561386742185008
 20
0.0061345066244272
 30
0.0
 11
-1.324317915663201
 21
0.0061345066244272
 31
0.0
1001
REVIT
1002
{
1070
     1
1000
131792
1002
}
1002
{
1070
     2
1000
-2001160
1002
}
  0
LINE
  5
2FF
330
2EA
100
AcDbEntity
  8
Pressure_Balance_Rough_Valve-GROHE-35114000
100
AcDbLine
 10
-1.605137300629239
 20
-0.0287292196358191
 30
0.0
 11
-1.280567357218971
 21
-0.0287292196358191
 31
0.0
1001
REVIT
1002
{
1070
     1
1000
131792
1002
}
1002
{
1070
     2
1000
-2001160
1002
}
  0
LINE
  5
300
330
2EA
100
AcDbEntity
  8
Pressure_Balance_Rough_Valve-GROHE-35114000
100
AcDbLine
 10
-1.812500000000029
 20
-1.045063644033549
 30
0.0
 11
-1.031250000000214
 21
-1.045063644033549
 31
0.0
1001
REVIT
1002
{
1070
     1
1000
158160
1002
}
1002
{
1070
     2
1000
-2001160
1002
}
  0
LINE
  5
301
330
2EA
100
AcDbEntity
  8
Pressure_Balance_Rough_Valve-GROHE-35114000
100
AcDbLine
 10
1.031250000000236
 20
-1.045063644033549
 30
0.0
 11
1.812500000000031
 21
-1.045063644033549
 31
0.0
1001
REVIT
1002
{
1070
     1
1000
158160
1002
}
1002
{
1070
     2
1000
-2001160
1002
}
  0
LINE
  5
302
330
2EA
100
AcDbEntity
  8
Pressure_Balance_Rough_Valve-GROHE-35114000
100
AcDbLine
 10
1.812500000000031
 20
-0.0450636439555154
 30
0.0
 11
1.031250000000225
 21
-0.0450636439555154
 31
0.0
1001
REVIT
1002
{
1070
     1
1000
158160
1002
}
1002
{
1070
     2
1000
-2001160
1002
}
  0
LINE
  5
303
330
2EA
100
AcDbEntity
  8
Pressure_Balance_Rough_Valve-GROHE-35114000
100
AcDbLine
 10
-1.031250000000225
 20
-0.0450636439555146
 30
0.0
 11
-1.812500000000029
 21
-0.0450636439555154
 31
0.0
1001
REVIT
1002
{
1070
     1
1000
158160
1002
}
1002
{
1070
     2
1000
-2001160
1002
}
  0
LINE
  5
304
330
2EA
100
AcDbEntity
  8
Pressure_Balance_Rough_Valve-GROHE-35114000
100
AcDbLine
 10
1.812500000000031
 20
-0.9604729753433861
 30
0.0
 11
2.015828202845916
 21
-0.9604729753433861
 31
0.0
1001
REVIT
1002
{
1070
     1
1000
158160
1002
}
1002
{
1070
     2
1000
-2001160
1002
}
  0
LINE
  5
305
330
2EA
100
AcDbEntity
  8
Pressure_Balance_Rough_Valve-GROHE-35114000
100
AcDbLine
 10
2.015828202845916
 20
-0.1296543126456786
 30
0.0
 11
1.812500000000031
 21
-0.1296543126456786
 31
0.0
1001
REVIT
1002
{
1070
     1
1000
158160
1002
}
1002
{
1070
     2
1000
-2001160
1002
}
  0
LINE
  5
306
330
2EA
100
AcDbEntity
  8
Pressure_Balance_Rough_Valve-GROHE-35114000
100
AcDbLine
 10
-2.904904616257606
 20
-1.045063644033645
 30
0.0
 11
-2.015828202845905
 21
-1.045063644033645
 31
0.0
1001
REVIT
1002
{
1070
     1
1000
158160
1002
}
1002
{
1070
     2
1000
-2001160
1002
}
  0
LINE
  5
307
330
2EA
100
AcDbEntity
  8
Pressure_Balance_Rough_Valve-GROHE-35114000
100
AcDbLine
 10
-2.015828202845905
 20
-0.0450636439554177
 30
0.0
 11
-2.904904616257606
 21
-0.0450636439554177
 31
0.0
1001
REVIT
1002
{
1070
     1
1000
158160
1002
}
1002
{
1070
     2
1000
-2001160
1002
}
  0
LINE
  5
308
330
2EA
100
AcDbEntity
  8
Pressure_Balance_Rough_Valve-GROHE-35114000
100
AcDbLine
 10
-2.015828202845912
 20
-0.9604729753434369
 30
0.0
 11
-1.812500000000028
 21
-0.9604729753434369
 31
0.0
1001
REVIT
1002
{
1070
     1
1000
158160
1002
}
1002
{
1070
     2
1000
-2001160
1002
}
  0
LINE
  5
309
330
2EA
100
AcDbEntity
  8
Pressure_Balance_Rough_Valve-GROHE-35114000
100
AcDbLine
 10
-1.812500000000028
 20
-0.1296543126456271
 30
0.0
 11
-2.015828202845912
 21
-0.1296543126456271
 31
0.0
1001
REVIT
1002
{
1070
     1
1000
158160
1002
}
1002
{
1070
     2
1000
-2001160
1002
}
  0
LINE
  5
30A
330
2EA
100
AcDbEntity
  8
Pressure_Balance_Rough_Valve-GROHE-35114000
100
AcDbLine
 10
2.015828202845923
 20
-1.045063644033645
 30
0.0
 11
2.90490461625761
 21
-1.045063644033645
 31
0.0
1001
REVIT
1002
{
1070
     1
1000
158160
1002
}
1002
{
1070
     2
1000
-2001160
1002
}
  0
LINE
  5
30B
330
2EA
100
AcDbEntity
  8
Pressure_Balance_Rough_Valve-GROHE-35114000
100
AcDbLine
 10
2.90490461625761
 20
-0.0450636439554177
 30
0.0
 11
2.015828202845923
 21
-0.0450636439554177
 31
0.0
1001
REVIT
1002
{
1070
     1
1000
158160
1002
}
1002
{
1070
     2
1000
-2001160
1002
}
  0
LINE
  5
30C
330
2EA
100
AcDbEntity
  8
Pressure_Balance_Rough_Valve-GROHE-35114000
100
AcDbLine
 10
-3.312500000000006
 20
-0.9268875676442718
 30
0.0
 11
-2.904904616257606
 21
-0.9268875676442718
 31
0.0
1001
REVIT
1002
{
1070
     1
1000
158160
1002
}
1002
{
1070
     2
1000
-2001160
1002
}
  0
LINE
  5
30D
330
2EA
100
AcDbEntity
  8
Pressure_Balance_Rough_Valve-GROHE-35114000
100
AcDbLine
 10
-2.904904616257606
 20
-0.1632397203447926
 30
0.0
 11
-3.312500000000006
 21
-0.1632397203447926
 31
0.0
1001
REVIT
1002
{
1070
     1
1000
158160
1002
}
1002
{
1070
     2
1000
-2001160
1002
}
  0
LINE
  5
30E
330
2EA
100
AcDbEntity
  8
Pressure_Balance_Rough_Valve-GROHE-35114000
100
AcDbLine
 10
2.90490461625761
 20
-0.9268875676442718
 30
0.0
 11
3.312499999999999
 21
-0.9268875676442718
 31
0.0
1001
REVIT
1002
{
1070
     1
1000
158160
1002
}
1002
{
1070
     2
1000
-2001160
1002
}
  0
LINE
  5
30F
330
2EA
100
AcDbEntity
  8
Pressure_Balance_Rough_Valve-GROHE-35114000
100
AcDbLine
 10
3.312499999999999
 20
-0.1632397203447926
 30
0.0
 11
2.90490461625761
 21
-0.1632397203447926
 31
0.0
1001
REVIT
1002
{
1070
     1
1000
158160
1002
}
1002
{
1070
     2
1000
-2001160
1002
}
  0
LINE
  5
310
330
2EA
100
AcDbEntity
  8
Pressure_Balance_Rough_Valve-GROHE-35114000
100
AcDbLine
 10
2.015828202845921
 20
-1.045063644033644
 30
0.0
 11
2.015828202845921
 21
-0.0450636439554177
 31
0.0
1001
REVIT
1002
{
1070
     1
1000
158160
1002
}
1002
{
1070
     2
1000
-2001160
1002
}
  0
LINE
  5
311
330
2EA
100
AcDbEntity
  8
Pressure_Balance_Rough_Valve-GROHE-35114000
100
AcDbLine
 10
2.904904616257614
 20
-0.9782467250468451
 30
0.0
 11
3.312500000000002
 21
-0.9782467250468439
 31
0.0
1001
REVIT
1002
{
1070
     1
1000
177402
1002
}
1002
{
1070
     2
1000
-2001160
1002
}
  0
LINE
  5
312
330
2EA
100
AcDbEntity
  8
Pressure_Balance_Rough_Valve-GROHE-35114000
100
AcDbLine
 10
3.312499999999999
 20
-0.1118805629422148
 30
0.0
 11
2.90490461625761
 21
-0.1118805629422157
 31
0.0
1001
REVIT
1002
{
1070
     1
1000
177402
1002
}
1002
{
1070
     2
1000
-2001160
1002
}
  0
LINE
  5
313
330
2EA
100
AcDbEntity
  8
Pressure_Balance_Rough_Valve-GROHE-35114000
100
AcDbLine
 10
3.312499999999998
 20
-0.9782467250468425
 30
0.0
 11
3.312499999999995
 21
-0.1118805629422148
 31
0.0
1001
REVIT
1002
{
1070
     1
1000
177402
1002
}
1002
{
1070
     2
1000
-2001160
1002
}
  0
LINE
  5
314
330
2EA
100
AcDbEntity
  8
Pressure_Balance_Rough_Valve-GROHE-35114000
100
AcDbLine
 10
-3.312499999999971
 20
-0.9782467250469002
 30
0.0
 11
-2.904904616257584
 21
-0.978246725046894
 31
0.0
1001
REVIT
1002
{
1070
     1
1000
178088
1002
}
1002
{
1070
     2
1000
-2001160
1002
}
  0
LINE
  5
315
330
2EA
100
AcDbEntity
  8
Pressure_Balance_Rough_Valve-GROHE-35114000
100
AcDbLine
 10
-2.904904616257599
 20
-0.1118805629422876
 30
0.0
 11
-3.312499999999987
 21
-0.1118805629422948
 31
0.0
1001
REVIT
1002
{
1070
     1
1000
178088
1002
}
1002
{
1070
     2
1000
-2001160
1002
}
  0
LINE
  5
316
330
2EA
100
AcDbEntity
  8
Pressure_Balance_Rough_Valve-GROHE-35114000
100
AcDbLine
 10
-3.312499999999984
 20
-0.1118805629422939
 30
0.0
 11
-3.312499999999968
 21
-0.9782467250468984
 31
0.0
1001
REVIT
1002
{
1070
     1
1000
178088
1002
}
1002
{
1070
     2
1000
-2001160
1002
}
  0
LINE
  5
317
330
2EA
100
AcDbEntity
  8
Pressure_Balance_Rough_Valve-GROHE-35114000
100
AcDbLine
 10
-1.129596651779345
 20
-0.0000000000000115
 30
0.0
 11
1.129596651779345
 21
0.0000000000000115
 31
0.0
1001
REVIT
1002
{
1070
     1
1000
154011
1002
}
1002
{
1070
     2
1000
-2001160
1002
}
  0
CIRCLE
  5
318
330
2EA
100
AcDbEntity
  8
Pressure_Balance_Rough_Valve-GROHE-35114000
100
AcDbCircle
 10
-0.0000000000004936
 20
-0.5450636439957819
 30
0.0
 40
0.3125000000165307
1001
REVIT
1002
{
1070
     1
1000
169644
1002
}
1002
{
1070
     2
1000
-2001160
1002
}
  0
CIRCLE
  5
319
330
2EA
100
AcDbEntity
  8
Pressure_Balance_Rough_Valve-GROHE-35114000
100
AcDbCircle
 10
-0.0000000000004936
 20
-0.5450636439957819
 30
0.0
 40
0.2500000000165309
1001
REVIT
1002
{
1070
     1
1000
169662
1002
}
1002
{
1070
     2
1000
-2001160
1002
}
  0
CIRCLE
  5
31A
330
2EA
100
AcDbEntity
  8
Pressure_Balance_Rough_Valve-GROHE-35114000
100
AcDbCircle
 10
-0.0000000000004936
 20
-0.5450636439957819
 30
0.0
 40
0.375000000016531
1001
REVIT
1002
{
1070
     1
1000
169811
1002
}
1002
{
1070
     2
1000
-2001160
1002
}
  0
LINE
  5
31B
330
2EA
100
AcDbEntity
  8
Pressure_Balance_Rough_Valve-GROHE-35114000
100
AcDbLine
 10
2.904904616257607
 20
-0.0450636439554373
 30
0.0
 11
2.904904616257607
 21
-1.045063644033624
 31
0.0
1001
REVIT
1002
{
1070
     1
1000
180295
1002
}
1002
{
1070
     2
1000
-2001160
1002
}
  0
LINE
  5
31C
330
2EA
100
AcDbEntity
  8
Pressure_Balance_Rough_Valve-GROHE-35114000
100
AcDbLine
 10
-2.904904616257603
 20
-0.0450636439554373
 30
0.0
 11
-2.904904616257603
 21
-1.045063644033624
 31
0.0
1001
REVIT
1002
{
1070
     1
1000
180302
1002
}
1002
{
1070
     2
1000
-2001160
1002
}
  0
LINE
  5
31D
330
2EA
100
AcDbEntity
  8
Pressure_Balance_Rough_Valve-GROHE-35114000
100
AcDbLine
 10
-2.015828202845911
 20
-0.0450636439554373
 30
0.0
 11
-2.015828202845911
 21
-1.045063644033624
 31
0.0
1001
REVIT
1002
{
1070
     1
1000
180310
1002
}
1002
{
1070
     2
1000
-2001160
1002
}
  0
LINE
  5
31E
330
2EA
100
AcDbEntity
  8
Pressure_Balance_Rough_Valve-GROHE-35114000
100
AcDbLine
 10
1.81250000000003
 20
-0.0450636439555146
 30
0.0
 11
1.81250000000003
 21
-1.045063644033547
 31
0.0
1001
REVIT
1002
{
1070
     1
1000
180409
1002
}
1002
{
1070
     2
1000
-2001160
1002
}
  0
LINE
  5
31F
330
2EA
100
AcDbEntity
  8
Pressure_Balance_Rough_Valve-GROHE-35114000
100
AcDbLine
 10
-1.812500000000026
 20
-0.0450636439555146
 30
0.0
 11
-1.812500000000026
 21
-1.045063644033547
 31
0.0
1001
REVIT
1002
{
1070
     1
1000
180419
1002
}
1002
{
1070
     2
1000
-2001160
1002
}
  0
CIRCLE
  5
320
330
2EA
100
AcDbEntity
  8
Pressure_Balance_Rough_Valve-GROHE-35114000
100
AcDbCircle
 10
-0.0000000000004994
 20
-0.5450636439970449
 30
0.0
 40
0.4923468268136475
  0
LINE
  5
321
330
2EA
100
AcDbEntity
  8
Pressure_Balance_Rough_Valve-GROHE-35114000
100
AcDbLine
 10
1.512693899505956
 20
0.0061345066244272
 30
0.0
 11
1.512693899505956
 21
0.0416818353603645
 31
0.0
1001
REVIT
1002
{
1070
     1
1000
131792
1002
}
1002
{
1070
     2
1000
-2001160
1002
}
  0
LINE
  5
322
330
2EA
100
AcDbEntity
  8
Pressure_Balance_Rough_Valve-GROHE-35114000
100
AcDbLine
 10
1.383418258571065
 20
0.0416818353603645
 30
0.0
 11
1.383418258571065
 21
0.0061345066244272
 31
0.0
1001
REVIT
1002
{
1070
     1
1000
131792
1002
}
1002
{
1070
     2
1000
-2001160
1002
}
  0
LINE
  5
323
330
2EA
100
AcDbEntity
  8
Pressure_Balance_Rough_Valve-GROHE-35114000
100
AcDbLine
 10
1.566590492299414
 20
-0.02872921963582
 30
0.0
 11
1.566590492299414
 21
0.0061345066244272
 31
0.0
1001
REVIT
1002
{
1070
     1
1000
131792
1002
}
1002
{
1070
     2
1000
-2001160
1002
}
  0
LINE
  5
324
330
2EA
100
AcDbEntity
  8
Pressure_Balance_Rough_Valve-GROHE-35114000
100
AcDbLine
 10
1.329521665777606
 20
0.0061345066244272
 30
0.0
 11
1.329521665777606
 21
-0.02872921963582
 31
0.0
1001
REVIT
1002
{
1070
     1
1000
131792
1002
}
1002
{
1070
     2
1000
-2001160
1002
}
  0
LINE
  5
325
330
2EA
100
AcDbEntity
  8
Pressure_Balance_Rough_Valve-GROHE-35114000
100
AcDbLine
 10
1.610341050743645
 20
-0.0450636439555154
 30
0.0
 11
1.610341050743645
 21
-0.02872921963582
 31
0.0
1001
REVIT
1002
{
1070
     1
1000
131792
1002
}
1002
{
1070
     2
1000
-2001160
1002
}
  0
LINE
  5
326
330
2EA
100
AcDbEntity
  8
Pressure_Balance_Rough_Valve-GROHE-35114000
100
AcDbLine
 10
1.383418258571066
 20
0.0416818353603645
 30
0.0
 11
1.512693899505958
 21
0.0416818353603645
 31
0.0
1001
REVIT
1002
{
1070
     1
1000
131792
1002
}
1002
{
1070
     2
1000
-2001160
1002
}
  0
LINE
  5
327
330
2EA
100
AcDbEntity
  8
Pressure_Balance_Rough_Valve-GROHE-35114000
100
AcDbLine
 10
1.329521665777608
 20
0.0061345066244272
 30
0.0
 11
1.566590492299415
 21
0.0061345066244272
 31
0.0
1001
REVIT
1002
{
1070
     1
1000
131792
1002
}
1002
{
1070
     2
1000
-2001160
1002
}
  0
LINE
  5
328
330
2EA
100
AcDbEntity
  8
Pressure_Balance_Rough_Valve-GROHE-35114000
100
AcDbLine
 10
1.285771107333378
 20
-0.0287292196358191
 30
0.0
 11
1.610341050743645
 21
-0.0287292196358191
 31
0.0
1001
REVIT
1002
{
1070
     1
1000
131792
1002
}
1002
{
1070
     2
1000
-2001160
1002
}
  0
ENDBLK
  5
2EC
330
2EA
100
AcDbEntity
  8
0
100
AcDbBlockEnd
  0
BLOCK
  5
32B
330
32A
100
AcDbEntity
  8
0
100
AcDbBlockBegin
  2
Pressure_Balance_Rough_Valve-GROHE-35114000- Front
 70
     0
 10
0.0
 20
0.0
 30
0.0
  3
Pressure_Balance_Rough_Valve-GROHE-35114000- Front
  1

  0
LINE
  5
32D
330
32A
100
AcDbEntity
  8
Pressure_Balance_Rough_Valve-GROHE-35114000
 62
     8
370
    18
100
AcDbLine
 10
-0.8873907613466112
 20
0.6931734818321939
 30
0.0
 11
-0.9346730098280684
 21
1.176920550563954
 31
0.0
  0
ARC
  5
32E
330
32A
100
AcDbEntity
  8
Pressure_Balance_Rough_Valve-GROHE-35114000
 62
     8
370
    18
100
AcDbCircle
 10
-1.070253704130043
 20
1.163668666487259
 30
0.0
 40
0.1362267855415659
100
AcDbArc
 50
5.582453287638117
 51
174.4175467123611
  0
LINE
  5
32F
330
32A
100
AcDbEntity
  8
Pressure_Balance_Rough_Valve-GROHE-35114000
 62
     8
370
    18
100
AcDbLine
 10
-1.205834398432018
 20
1.176920550563954
 30
0.0
 11
-1.271997746472562
 21
0.5000000000396963
 31
0.0
  0
ARC
  5
330
330
32A
100
AcDbEntity
  8
Pressure_Balance_Rough_Valve-GROHE-35114000
 62
     8
370
    18
100
AcDbCircle
 10
1.065450953717166
 20
-1.163668666487268
 30
0.0
 40
0.1362267855415661
100
AcDbArc
 50
185.582453287638
 51
354.4175467123609
  0
LINE
  5
331
330
32A
100
AcDbEntity
  8
Pressure_Balance_Rough_Valve-GROHE-35114000
 62
     8
370
    18
100
AcDbLine
 10
1.201031648019141
 20
-1.176920550563964
 30
0.0
 11
1.267194996059801
 21
-0.5000000000383383
 31
0.0
  0
LINE
  5
332
330
32A
100
AcDbEntity
  8
Pressure_Balance_Rough_Valve-GROHE-35114000
 62
     8
370
    18
100
AcDbLine
 10
0.9610417109313084
 20
-0.03125
 30
0.0
 11
-0.9658444613451724
 21
-0.03125
 31
0.0
  0
LINE
  5
333
330
32A
100
AcDbEntity
  8
Pressure_Balance_Rough_Valve-GROHE-35114000
 62
     8
370
    18
100
AcDbLine
 10
-0.965844461345172
 20
0.03125
 30
0.0
 11
0.9610417109313093
 21
0.03125
 31
0.0
  0
LINE
  5
334
330
32A
100
AcDbEntity
  8
Pressure_Balance_Rough_Valve-GROHE-35114000
 62
     8
370
    18
100
AcDbLine
 10
0.2938899542790418
 20
0.0312499999999957
 30
0.0
 11
0.2938899542790418
 21
-0.0312500000000043
 31
0.0
  0
LINE
  5
335
330
32A
100
AcDbEntity
  8
Pressure_Balance_Rough_Valve-GROHE-35114000
 62
     8
370
    18
100
AcDbLine
 10
-0.298692704693517
 20
0.0312499999999957
 30
0.0
 11
-0.298692704693517
 21
-0.0312500000000043
 31
0.0
  0
LINE
  5
336
330
32A
100
AcDbEntity
  8
Pressure_Balance_Rough_Valve-GROHE-35114000
100
AcDbLine
 10
-1.552933066564577
 20
-0.5032195060480529
 30
0.0
 11
-1.487084398432015
 21
-1.176920550563819
 31
0.0
1001
REVIT
1002
{
1070
     1
1000
122706
1002
}
1002
{
1070
     2
1000
-2000051
1002
}
1002
{
1070
     3
1000
-2000287
1002
}
  0
ARC
  5
337
330
32A
100
AcDbEntity
  8
Pressure_Balance_Rough_Valve-GROHE-35114000
100
AcDbCircle
 10
-1.35150370413004
 20
-1.163668666487122
 30
0.0
 40
0.1362267855415661
100
AcDbArc
 50
185.5824532876381
 51
354.4175467123595
1001
REVIT
1002
{
1070
     1
1000
122706
1002
}
1002
{
1070
     2
1000
-2000051
1002
}
1002
{
1070
     3
1000
-2000287
1002
}
  0
LINE
  5
338
330
32A
100
AcDbEntity
  8
Pressure_Balance_Rough_Valve-GROHE-35114000
100
AcDbLine
 10
-1.215923009828065
 20
-1.176920550563819
 30
0.0
 11
-1.150074341695506
 21
-0.5032195060480531
 31
0.0
1001
REVIT
1002
{
1070
     1
1000
122706
1002
}
1002
{
1070
     2
1000
-2000051
1002
}
1002
{
1070
     3
1000
-2000287
1002
}
  0
LINE
  5
339
330
32A
100
AcDbEntity
  8
Pressure_Balance_Rough_Valve-GROHE-35114000
100
AcDbLine
 10
1.610630305195269
 20
0.5032196181439073
 30
0.0
 11
1.544781648019136
 21
1.1769205505641
 31
0.0
1001
REVIT
1002
{
1070
     1
1000
122706
1002
}
1002
{
1070
     2
1000
-2000051
1002
}
1002
{
1070
     3
1000
-2000287
1002
}
  0
ARC
  5
33A
330
32A
100
AcDbEntity
  8
Pressure_Balance_Rough_Valve-GROHE-35114000
100
AcDbCircle
 10
1.409200953717161
 20
1.163668666487406
 30
0.0
 40
0.1362267855415659
100
AcDbArc
 50
5.582453287637932
 51
174.417546712362
1001
REVIT
1002
{
1070
     1
1000
122706
1002
}
1002
{
1070
     2
1000
-2000051
1002
}
1002
{
1070
     3
1000
-2000287
1002
}
  0
LINE
  5
33B
330
32A
100
AcDbEntity
  8
Pressure_Balance_Rough_Valve-GROHE-35114000
100
AcDbLine
 10
1.273620259415188
 20
1.176920550564099
 30
0.0
 11
1.20777160223906
 21
0.5032196181439073
 31
0.0
1001
REVIT
1002
{
1070
     1
1000
122706
1002
}
1002
{
1070
     2
1000
-2000051
1002
}
1002
{
1070
     3
1000
-2000287
1002
}
  0
ARC
  5
33C
330
32A
100
AcDbEntity
  8
Pressure_Balance_Rough_Valve-GROHE-35114000
100
AcDbCircle
 10
-1.445253704130046
 20
0.0000000000006684
 30
0.0
 40
0.2285958673326128
100
AcDbArc
 50
311.1123012345891
 51
228.8876912649913
1001
REVIT
1002
{
1070
     1
1000
130422
1002
}
1002
{
1070
     2
1000
-2000051
1002
}
1002
{
1070
     3
1000
-2000287
1002
}
  0
ARC
  5
33D
330
32A
100
AcDbEntity
  8
Pressure_Balance_Rough_Valve-GROHE-35114000
100
AcDbCircle
 10
-1.445253704130046
 20
0.0000000000006682
 30
0.0
 40
0.2285958673326128
100
AcDbArc
 50
228.8876912649913
 51
311.1123012345891
1001
REVIT
1002
{
1070
     1
1000
130422
1002
}
1002
{
1070
     2
1000
-2000051
1002
}
1002
{
1070
     3
1000
-2000287
1002
}
  0
ARC
  5
33E
330
32A
100
AcDbEntity
  8
Pressure_Balance_Rough_Valve-GROHE-35114000
100
AcDbCircle
 10
1.440450953717169
 20
0.0000000000006798
 30
0.0
 40
0.2337996174480111
100
AcDbArc
 50
219.9984487420003
 51
320.0015695387053
1001
REVIT
1002
{
1070
     1
1000
131792
1002
}
1002
{
1070
     2
1000
-2000051
1002
}
1002
{
1070
     3
1000
-2000287
1002
}
  0
ARC
  5
33F
330
32A
100
AcDbEntity
  8
Pressure_Balance_Rough_Valve-GROHE-35114000
100
AcDbCircle
 10
1.440450953717169
 20
0.0000000000006795
 30
0.0
 40
0.2337996174480112
100
AcDbArc
 50
320.0015695387054
 51
219.9984487420003
1001
REVIT
1002
{
1070
     1
1000
131792
1002
}
1002
{
1070
     2
1000
-2000051
1002
}
1002
{
1070
     3
1000
-2000287
1002
}
  0
LINE
  5
340
330
32A
100
AcDbEntity
  8
Pressure_Balance_Rough_Valve-GROHE-35114000
100
AcDbLine
 10
1.810098624793094
 20
0.5000000000396963
 30
0.0
 11
1.010509576294768
 21
0.5000000000396963
 31
0.0
1001
REVIT
1002
{
1070
     1
1000
158160
1002
}
1002
{
1070
     2
1000
-2000051
1002
}
1002
{
1070
     3
1000
-2000287
1002
}
  0
LINE
  5
341
330
32A
100
AcDbEntity
  8
Pressure_Balance_Rough_Valve-GROHE-35114000
100
AcDbLine
 10
-1.009510845106363
 20
0.5000000000396963
 30
0.0
 11
-1.814901375206967
 21
0.5000000000396963
 31
0.0
1001
REVIT
1002
{
1070
     1
1000
158160
1002
}
1002
{
1070
     2
1000
-2000051
1002
}
1002
{
1070
     3
1000
-2000287
1002
}
  0
LINE
  5
342
330
32A
100
AcDbEntity
  8
Pressure_Balance_Rough_Valve-GROHE-35114000
100
AcDbLine
 10
-1.814901375206967
 20
-0.5000000000383383
 30
0.0
 11
-1.015312326708645
 21
-0.5000000000383383
 31
0.0
1001
REVIT
1002
{
1070
     1
1000
158160
1002
}
1002
{
1070
     2
1000
-2000051
1002
}
1002
{
1070
     3
1000
-2000287
1002
}
  0
LINE
  5
343
330
32A
100
AcDbEntity
  8
Pressure_Balance_Rough_Valve-GROHE-35114000
100
AcDbLine
 10
1.010509576294781
 20
-0.5000000000383383
 30
0.0
 11
1.810098624793094
 21
-0.5000000000383383
 31
0.0
1001
REVIT
1002
{
1070
     1
1000
158160
1002
}
1002
{
1070
     2
1000
-2000051
1002
}
1002
{
1070
     3
1000
-2000287
1002
}
  0
LINE
  5
344
330
32A
100
AcDbEntity
  8
Pressure_Balance_Rough_Valve-GROHE-35114000
100
AcDbLine
 10
-1.814901375206967
 20
0.4154093313495331
 30
0.0
 11
-2.018229578052851
 21
0.4154093313495331
 31
0.0
1001
REVIT
1002
{
1070
     1
1000
158160
1002
}
1002
{
1070
     2
1000
-2000051
1002
}
1002
{
1070
     3
1000
-2000287
1002
}
  0
LINE
  5
345
330
32A
100
AcDbEntity
  8
Pressure_Balance_Rough_Valve-GROHE-35114000
100
AcDbLine
 10
-2.018229578052851
 20
-0.4154093313481751
 30
0.0
 11
-1.814901375206967
 21
-0.4154093313481751
 31
0.0
1001
REVIT
1002
{
1070
     1
1000
158160
1002
}
1002
{
1070
     2
1000
-2000051
1002
}
1002
{
1070
     3
1000
-2000287
1002
}
  0
LINE
  5
346
330
32A
100
AcDbEntity
  8
Pressure_Balance_Rough_Valve-GROHE-35114000
100
AcDbLine
 10
2.90250324105067
 20
0.5000000000397929
 30
0.0
 11
2.013426827638969
 21
0.5000000000397929
 31
0.0
1001
REVIT
1002
{
1070
     1
1000
158160
1002
}
1002
{
1070
     2
1000
-2000051
1002
}
1002
{
1070
     3
1000
-2000287
1002
}
  0
LINE
  5
347
330
32A
100
AcDbEntity
  8
Pressure_Balance_Rough_Valve-GROHE-35114000
100
AcDbLine
 10
2.013426827638969
 20
-0.5000000000384352
 30
0.0
 11
2.90250324105067
 21
-0.5000000000384352
 31
0.0
1001
REVIT
1002
{
1070
     1
1000
158160
1002
}
1002
{
1070
     2
1000
-2000051
1002
}
1002
{
1070
     3
1000
-2000287
1002
}
  0
LINE
  5
348
330
32A
100
AcDbEntity
  8
Pressure_Balance_Rough_Valve-GROHE-35114000
100
AcDbLine
 10
2.013426827638975
 20
0.4154093313495837
 30
0.0
 11
1.810098624793092
 21
0.4154093313495837
 31
0.0
1001
REVIT
1002
{
1070
     1
1000
158160
1002
}
1002
{
1070
     2
1000
-2000051
1002
}
1002
{
1070
     3
1000
-2000287
1002
}
  0
LINE
  5
349
330
32A
100
AcDbEntity
  8
Pressure_Balance_Rough_Valve-GROHE-35114000
100
AcDbLine
 10
1.810098624793092
 20
-0.4154093313482255
 30
0.0
 11
2.013426827638975
 21
-0.4154093313482255
 31
0.0
1001
REVIT
1002
{
1070
     1
1000
158160
1002
}
1002
{
1070
     2
1000
-2000051
1002
}
1002
{
1070
     3
1000
-2000287
1002
}
  0
LINE
  5
34A
330
32A
100
AcDbEntity
  8
Pressure_Balance_Rough_Valve-GROHE-35114000
100
AcDbLine
 10
-2.018229578052859
 20
0.5000000000397929
 30
0.0
 11
-2.907305991464547
 21
0.5000000000397929
 31
0.0
1001
REVIT
1002
{
1070
     1
1000
158160
1002
}
1002
{
1070
     2
1000
-2000051
1002
}
1002
{
1070
     3
1000
-2000287
1002
}
  0
LINE
  5
34B
330
32A
100
AcDbEntity
  8
Pressure_Balance_Rough_Valve-GROHE-35114000
100
AcDbLine
 10
-2.907305991464547
 20
-0.5000000000384352
 30
0.0
 11
-2.018229578052859
 21
-0.5000000000384352
 31
0.0
1001
REVIT
1002
{
1070
     1
1000
158160
1002
}
1002
{
1070
     2
1000
-2000051
1002
}
1002
{
1070
     3
1000
-2000287
1002
}
  0
LINE
  5
34C
330
32A
100
AcDbEntity
  8
Pressure_Balance_Rough_Valve-GROHE-35114000
100
AcDbLine
 10
3.31009862479307
 20
0.3818239236504184
 30
0.0
 11
2.90250324105067
 21
0.3818239236504184
 31
0.0
1001
REVIT
1002
{
1070
     1
1000
158160
1002
}
1002
{
1070
     2
1000
-2000051
1002
}
1002
{
1070
     3
1000
-2000287
1002
}
  0
LINE
  5
34D
330
32A
100
AcDbEntity
  8
Pressure_Balance_Rough_Valve-GROHE-35114000
100
AcDbLine
 10
2.90250324105067
 20
-0.3818239236490601
 30
0.0
 11
3.31009862479307
 21
-0.3818239236490601
 31
0.0
1001
REVIT
1002
{
1070
     1
1000
158160
1002
}
1002
{
1070
     2
1000
-2000051
1002
}
1002
{
1070
     3
1000
-2000287
1002
}
  0
LINE
  5
34E
330
32A
100
AcDbEntity
  8
Pressure_Balance_Rough_Valve-GROHE-35114000
100
AcDbLine
 10
-2.907305991464547
 20
0.3818239236504184
 30
0.0
 11
-3.314901375206935
 21
0.3818239236504184
 31
0.0
1001
REVIT
1002
{
1070
     1
1000
158160
1002
}
1002
{
1070
     2
1000
-2000051
1002
}
1002
{
1070
     3
1000
-2000287
1002
}
  0
LINE
  5
34F
330
32A
100
AcDbEntity
  8
Pressure_Balance_Rough_Valve-GROHE-35114000
100
AcDbLine
 10
-3.314901375206935
 20
-0.3818239236490601
 30
0.0
 11
-2.907305991464547
 21
-0.3818239236490601
 31
0.0
1001
REVIT
1002
{
1070
     1
1000
158160
1002
}
1002
{
1070
     2
1000
-2000051
1002
}
1002
{
1070
     3
1000
-2000287
1002
}
  0
LINE
  5
350
330
32A
100
AcDbEntity
  8
Pressure_Balance_Rough_Valve-GROHE-35114000
100
AcDbLine
 10
1.810098624793091
 20
-0.5000000000383372
 30
0.0
 11
1.810098624793091
 21
0.5000000000396965
 31
0.0
1001
REVIT
1002
{
1070
     1
1000
158160
1002
}
1002
{
1070
     2
1000
-2000051
1002
}
1002
{
1070
     3
1000
-2000287
1002
}
  0
LINE
  5
351
330
32A
100
AcDbEntity
  8
Pressure_Balance_Rough_Valve-GROHE-35114000
100
AcDbLine
 10
-1.814901375206965
 20
0.5000000000396965
 30
0.0
 11
-1.814901375206965
 21
-0.5000000000383372
 31
0.0
1001
REVIT
1002
{
1070
     1
1000
158160
1002
}
1002
{
1070
     2
1000
-2000051
1002
}
1002
{
1070
     3
1000
-2000287
1002
}
  0
LINE
  5
352
330
32A
100
AcDbEntity
  8
Pressure_Balance_Rough_Valve-GROHE-35114000
100
AcDbLine
 10
2.902503241050667
 20
0.5000000000397931
 30
0.0
 11
2.902503241050667
 21
-0.5000000000384337
 31
0.0
1001
REVIT
1002
{
1070
     1
1000
158160
1002
}
1002
{
1070
     2
1000
-2000051
1002
}
1002
{
1070
     3
1000
-2000287
1002
}
  0
LINE
  5
353
330
32A
100
AcDbEntity
  8
Pressure_Balance_Rough_Valve-GROHE-35114000
100
AcDbLine
 10
2.013426827638967
 20
0.5000000000397931
 30
0.0
 11
2.013426827638967
 21
-0.5000000000384337
 31
0.0
1001
REVIT
1002
{
1070
     1
1000
158160
1002
}
1002
{
1070
     2
1000
-2000051
1002
}
1002
{
1070
     3
1000
-2000287
1002
}
  0
LINE
  5
354
330
32A
100
AcDbEntity
  8
Pressure_Balance_Rough_Valve-GROHE-35114000
100
AcDbLine
 10
-2.018229578052857
 20
0.5000000000397931
 30
0.0
 11
-2.018229578052857
 21
-0.5000000000384337
 31
0.0
1001
REVIT
1002
{
1070
     1
1000
158160
1002
}
1002
{
1070
     2
1000
-2000051
1002
}
1002
{
1070
     3
1000
-2000287
1002
}
  0
LINE
  5
355
330
32A
100
AcDbEntity
  8
Pressure_Balance_Rough_Valve-GROHE-35114000
100
AcDbLine
 10
-2.907305991464544
 20
0.5000000000397931
 30
0.0
 11
-2.907305991464544
 21
-0.5000000000384337
 31
0.0
1001
REVIT
1002
{
1070
     1
1000
158160
1002
}
1002
{
1070
     2
1000
-2000051
1002
}
1002
{
1070
     3
1000
-2000287
1002
}
  0
LINE
  5
356
330
32A
100
AcDbEntity
  8
Pressure_Balance_Rough_Valve-GROHE-35114000
100
AcDbLine
 10
-0.3774013752230476
 20
1.812500000000652
 30
0.0
 11
-0.3774013752230489
 21
1.1769205505653
 31
0.0
1001
REVIT
1002
{
1070
     1
1000
160299
1002
}
1002
{
1070
     2
1000
-2000051
1002
}
1002
{
1070
     3
1000
-2000287
1002
}
  0
LINE
  5
357
330
32A
100
AcDbEntity
  8
Pressure_Balance_Rough_Valve-GROHE-35114000
100
AcDbLine
 10
0.372598624810175
 20
1.176920550565299
 30
0.0
 11
0.372598624810177
 21
1.812500000000651
 31
0.0
1001
REVIT
1002
{
1070
     1
1000
160299
1002
}
1002
{
1070
     2
1000
-2000051
1002
}
1002
{
1070
     3
1000
-2000287
1002
}
  0
LINE
  5
358
330
32A
100
AcDbEntity
  8
Pressure_Balance_Rough_Valve-GROHE-35114000
100
AcDbLine
 10
-0.4947482020200854
 20
1.1769205505653
 30
0.0
 11
-0.494748202020086
 21
1.012943945858661
 31
0.0
1001
REVIT
1002
{
1070
     1
1000
160299
1002
}
1002
{
1070
     2
1000
-2000051
1002
}
1002
{
1070
     3
1000
-2000287
1002
}
  0
LINE
  5
359
330
32A
100
AcDbEntity
  8
Pressure_Balance_Rough_Valve-GROHE-35114000
100
AcDbLine
 10
-0.4947482020200887
 20
-1.012943945857329
 30
0.0
 11
-0.4947482020200893
 21
-1.176920550563967
 31
0.0
1001
REVIT
1002
{
1070
     1
1000
160299
1002
}
1002
{
1070
     2
1000
-2000051
1002
}
1002
{
1070
     3
1000
-2000287
1002
}
  0
LINE
  5
35A
330
32A
100
AcDbEntity
  8
Pressure_Balance_Rough_Valve-GROHE-35114000
100
AcDbLine
 10
0.4899454516072081
 20
-1.176920550563969
 30
0.0
 11
0.4899454516072081
 21
-1.01294394585676
 31
0.0
1001
REVIT
1002
{
1070
     1
1000
160299
1002
}
1002
{
1070
     2
1000
-2000051
1002
}
1002
{
1070
     3
1000
-2000287
1002
}
  0
LINE
  5
35B
330
32A
100
AcDbEntity
  8
Pressure_Balance_Rough_Valve-GROHE-35114000
100
AcDbLine
 10
0.4899454516072114
 20
1.012943945858091
 30
0.0
 11
0.4899454516072114
 21
1.176920550565299
 31
0.0
1001
REVIT
1002
{
1070
     1
1000
160299
1002
}
1002
{
1070
     2
1000
-2000051
1002
}
1002
{
1070
     3
1000
-2000287
1002
}
  0
LINE
  5
35C
330
32A
100
AcDbEntity
  8
Pressure_Balance_Rough_Valve-GROHE-35114000
100
AcDbLine
 10
-0.3774013752230236
 20
-1.176920550563963
 30
0.0
 11
-0.3774013752230243
 21
-1.8125
 31
0.0
1001
REVIT
1002
{
1070
     1
1000
160299
1002
}
1002
{
1070
     2
1000
-2000051
1002
}
1002
{
1070
     3
1000
-2000287
1002
}
  0
LINE
  5
35D
330
32A
100
AcDbEntity
  8
Pressure_Balance_Rough_Valve-GROHE-35114000
100
AcDbLine
 10
0.3725986248101417
 20
-1.812500000000001
 30
0.0
 11
0.3725986248101424
 21
-1.176920550563965
 31
0.0
1001
REVIT
1002
{
1070
     1
1000
160299
1002
}
1002
{
1070
     2
1000
-2000051
1002
}
1002
{
1070
     3
1000
-2000287
1002
}
  0
LINE
  5
35E
330
32A
100
AcDbEntity
  8
Pressure_Balance_Rough_Valve-GROHE-35114000
100
AcDbLine
 10
-0.3774013752230476
 20
1.812500000000651
 30
0.0
 11
0.372598624810177
 21
1.81250000000065
 31
0.0
1001
REVIT
1002
{
1070
     1
1000
160299
1002
}
1002
{
1070
     2
1000
-2000051
1002
}
1002
{
1070
     3
1000
-2000287
1002
}
  0
LINE
  5
35F
330
32A
100
AcDbEntity
  8
Pressure_Balance_Rough_Valve-GROHE-35114000
100
AcDbLine
 10
0.3725986248101418
 20
-1.812499999999999
 30
0.0
 11
-0.3774013752230243
 21
-1.812499999999998
 31
0.0
1001
REVIT
1002
{
1070
     1
1000
160299
1002
}
1002
{
1070
     2
1000
-2000051
1002
}
1002
{
1070
     3
1000
-2000287
1002
}
  0
LINE
  5
360
330
32A
100
AcDbEntity
  8
Pressure_Balance_Rough_Valve-GROHE-35114000
100
AcDbLine
 10
-0.4947482020200847
 20
1.176920550565299
 30
0.0
 11
0.4899454516072113
 21
1.176920550565298
 31
0.0
1001
REVIT
1002
{
1070
     1
1000
160299
1002
}
1002
{
1070
     2
1000
-2000051
1002
}
1002
{
1070
     3
1000
-2000287
1002
}
  0
LINE
  5
361
330
32A
100
AcDbEntity
  8
Pressure_Balance_Rough_Valve-GROHE-35114000
100
AcDbLine
 10
-0.4947482020200884
 20
-1.176920550563966
 30
0.0
 11
0.4899454516072074
 21
-1.176920550563967
 31
0.0
1001
REVIT
1002
{
1070
     1
1000
160299
1002
}
1002
{
1070
     2
1000
-2000051
1002
}
1002
{
1070
     3
1000
-2000287
1002
}
  0
LINE
  5
362
330
32A
100
AcDbEntity
  8
Pressure_Balance_Rough_Valve-GROHE-35114000
100
AcDbLine
 10
-2.907305991464549
 20
0.4331830810529937
 30
0.0
 11
-3.314901375206936
 21
0.4331830810529937
 31
0.0
1001
REVIT
1002
{
1070
     1
1000
177402
1002
}
1002
{
1070
     2
1000
-2000051
1002
}
1002
{
1070
     3
1000
-2000287
1002
}
  0
LINE
  5
363
330
32A
100
AcDbEntity
  8
Pressure_Balance_Rough_Valve-GROHE-35114000
100
AcDbLine
 10
-3.314901375206936
 20
-0.4331830810516353
 30
0.0
 11
-2.907305991464549
 21
-0.4331830810516353
 31
0.0
1001
REVIT
1002
{
1070
     1
1000
177402
1002
}
1002
{
1070
     2
1000
-2000051
1002
}
1002
{
1070
     3
1000
-2000287
1002
}
  0
LINE
  5
364
330
32A
100
AcDbEntity
  8
Pressure_Balance_Rough_Valve-GROHE-35114000
100
AcDbLine
 10
-3.314901375206932
 20
0.4331830810529937
 30
0.0
 11
-3.314901375206932
 21
-0.4331830810516353
 31
0.0
1001
REVIT
1002
{
1070
     1
1000
177402
1002
}
1002
{
1070
     2
1000
-2000051
1002
}
1002
{
1070
     3
1000
-2000287
1002
}
  0
LINE
  5
365
330
32A
100
AcDbEntity
  8
Pressure_Balance_Rough_Valve-GROHE-35114000
100
AcDbLine
 10
3.310098624793043
 20
0.433183081052982
 30
0.0
 11
2.902503241050657
 21
0.433183081052982
 31
0.0
1001
REVIT
1002
{
1070
     1
1000
178088
1002
}
1002
{
1070
     2
1000
-2000051
1002
}
1002
{
1070
     3
1000
-2000287
1002
}
  0
LINE
  5
366
330
32A
100
AcDbEntity
  8
Pressure_Balance_Rough_Valve-GROHE-35114000
100
AcDbLine
 10
2.902503241050657
 20
-0.4331830810516238
 30
0.0
 11
3.310098624793043
 21
-0.4331830810516238
 31
0.0
1001
REVIT
1002
{
1070
     1
1000
178088
1002
}
1002
{
1070
     2
1000
-2000051
1002
}
1002
{
1070
     3
1000
-2000287
1002
}
  0
LINE
  5
367
330
32A
100
AcDbEntity
  8
Pressure_Balance_Rough_Valve-GROHE-35114000
100
AcDbLine
 10
3.310098624793039
 20
-0.4331830810516238
 30
0.0
 11
3.310098624793039
 21
0.433183081052982
 31
0.0
1001
REVIT
1002
{
1070
     1
1000
178088
1002
}
1002
{
1070
     2
1000
-2000051
1002
}
1002
{
1070
     3
1000
-2000287
1002
}
  0
CIRCLE
  5
368
330
32A
100
AcDbEntity
  8
Pressure_Balance_Rough_Valve-GROHE-35114000
100
AcDbCircle
 10
-1.445253704130046
 20
0.0000000000006682
 30
0.0
 40
0.0646378204679522
  0
CIRCLE
  5
369
330
32A
100
AcDbEntity
  8
Pressure_Balance_Rough_Valve-GROHE-35114000
100
AcDbCircle
 10
1.440450953717169
 20
0.0000000000006798
 30
0.0
 40
0.0646378204674457
  0
CIRCLE
  5
36A
330
32A
100
AcDbEntity
  8
Pressure_Balance_Rough_Valve-GROHE-35114000
100
AcDbCircle
 10
-1.35150370413004
 20
-1.163668666487122
 30
0.0
 40
0.0651849087048404
  0
CIRCLE
  5
36B
330
32A
100
AcDbEntity
  8
Pressure_Balance_Rough_Valve-GROHE-35114000
 62
     8
370
    18
100
AcDbCircle
 10
-1.070253704130043
 20
1.163668666487259
 30
0.0
 40
0.0651849087048402
  0
CIRCLE
  5
36C
330
32A
100
AcDbEntity
  8
Pressure_Balance_Rough_Valve-GROHE-35114000
 62
     8
370
    18
100
AcDbCircle
 10
1.065450953717166
 20
-1.163668666487268
 30
0.0
 40
0.0651849087048405
  0
CIRCLE
  5
36D
330
32A
100
AcDbEntity
  8
Pressure_Balance_Rough_Valve-GROHE-35114000
100
AcDbCircle
 10
1.409200953717161
 20
1.163668666487406
 30
0.0
 40
0.06518490870484
  0
CIRCLE
  5
36E
330
32A
100
AcDbEntity
  8
Pressure_Balance_Rough_Valve-GROHE-35114000
100
AcDbCircle
 10
-1.445253704130046
 20
0.0000000000006682
 30
0.0
 40
0.1133306631455051
  0
CIRCLE
  5
36F
330
32A
100
AcDbEntity
  8
Pressure_Balance_Rough_Valve-GROHE-35114000
100
AcDbCircle
 10
1.440450953717169
 20
0.0000000000006798
 30
0.0
 40
0.1185344132609033
  0
CIRCLE
  5
370
330
32A
100
AcDbEntity
  8
Pressure_Balance_Rough_Valve-GROHE-35114000
100
AcDbCircle
 10
-1.445253704130046
 20
0.0000000000006682
 30
0.0
 40
0.1570812215897355
  0
CIRCLE
  5
371
330
32A
100
AcDbEntity
  8
Pressure_Balance_Rough_Valve-GROHE-35114000
100
AcDbCircle
 10
1.440450953717169
 20
0.0000000000006798
 30
0.0
 40
0.1622849717051338
  0
CIRCLE
  5
372
330
32A
100
AcDbEntity
  8
Pressure_Balance_Rough_Valve-GROHE-35114000
100
AcDbCircle
 10
-0.0024013752069317
 20
0.0000000000006659
 30
0.0
 40
0.968750000000228
  0
CIRCLE
  5
373
330
32A
100
AcDbEntity
  8
Pressure_Balance_Rough_Valve-GROHE-35114000
100
AcDbCircle
 10
-0.0024013752069317
 20
0.0000000000006659
 30
0.0
 40
1.129596651779346
  0
LINE
  5
374
330
32A
100
AcDbEntity
  8
Pressure_Balance_Rough_Valve-GROHE-35114000
100
AcDbLine
 10
-0.8881574015626808
 20
0.7010170165456167
 30
0.0
 11
-0.9346730098280676
 21
1.176920550563953
 31
0.0
1001
REVIT
1002
{
1070
     1
1000
122706
1002
}
1002
{
1070
     2
1000
-2000051
1002
}
1002
{
1070
     3
1000
-2000287
1002
}
  0
ARC
  5
375
330
32A
100
AcDbEntity
  8
Pressure_Balance_Rough_Valve-GROHE-35114000
100
AcDbCircle
 10
-1.070253704130043
 20
1.163668666487259
 30
0.0
 40
0.1362267855415659
100
AcDbArc
 50
5.582453287637932
 51
174.417546712362
1001
REVIT
1002
{
1070
     1
1000
122706
1002
}
1002
{
1070
     2
1000
-2000051
1002
}
1002
{
1070
     3
1000
-2000287
1002
}
  0
LINE
  5
376
330
32A
100
AcDbEntity
  8
Pressure_Balance_Rough_Valve-GROHE-35114000
100
AcDbLine
 10
-1.205834398432016
 20
1.176920550563951
 30
0.0
 11
-1.271683055608143
 21
0.5032196181437599
 31
0.0
1001
REVIT
1002
{
1070
     1
1000
122706
1002
}
1002
{
1070
     2
1000
-2000051
1002
}
1002
{
1070
     3
1000
-2000287
1002
}
  0
CIRCLE
  5
377
330
32A
100
AcDbEntity
  8
Pressure_Balance_Rough_Valve-GROHE-35114000
100
AcDbCircle
 10
-1.070253704130043
 20
1.163668666487259
 30
0.0
 40
0.06518490870484
  0
LINE
  5
378
330
32A
100
AcDbEntity
  8
Pressure_Balance_Rough_Valve-GROHE-35114000
100
AcDbLine
 10
0.8833546511495665
 20
-0.7010170165433385
 30
0.0
 11
0.9298702594151908
 21
-1.176920550563966
 31
0.0
1001
REVIT
1002
{
1070
     1
1000
122706
1002
}
1002
{
1070
     2
1000
-2000051
1002
}
1002
{
1070
     3
1000
-2000287
1002
}
  0
ARC
  5
379
330
32A
100
AcDbEntity
  8
Pressure_Balance_Rough_Valve-GROHE-35114000
100
AcDbCircle
 10
1.065450953717165
 20
-1.163668666487268
 30
0.0
 40
0.1362267855415661
100
AcDbArc
 50
185.5824532876381
 51
354.4175467123595
1001
REVIT
1002
{
1070
     1
1000
122706
1002
}
1002
{
1070
     2
1000
-2000051
1002
}
1002
{
1070
     3
1000
-2000287
1002
}
  0
LINE
  5
37A
330
32A
100
AcDbEntity
  8
Pressure_Balance_Rough_Valve-GROHE-35114000
100
AcDbLine
 10
1.20103164801914
 20
-1.176920550563965
 30
0.0
 11
1.266880316151699
 21
-0.5032195060481996
 31
0.0
1001
REVIT
1002
{
1070
     1
1000
122706
1002
}
1002
{
1070
     2
1000
-2000051
1002
}
1002
{
1070
     3
1000
-2000287
1002
}
  0
CIRCLE
  5
37B
330
32A
100
AcDbEntity
  8
Pressure_Balance_Rough_Valve-GROHE-35114000
100
AcDbCircle
 10
1.065450953717165
 20
-1.163668666487268
 30
0.0
 40
0.0651849087048404
  0
LINE
  5
37C
330
32A
100
AcDbEntity
  8
Pressure_Balance_Rough_Valve-GROHE-35114000
100
AcDbLine
 10
-0.965844461345172
 20
0.03125
 30
0.0
 11
0.9658444613451722
 21
0.03125
 31
0.0
  0
LINE
  5
37D
330
32A
100
AcDbEntity
  8
Pressure_Balance_Rough_Valve-GROHE-35114000
100
AcDbLine
 10
-0.9658444613451724
 20
-0.03125
 30
0.0
 11
0.9610417109313084
 21
-0.03125
 31
0.0
  0
LINE
  5
37E
330
32A
100
AcDbEntity
  8
Pressure_Balance_Rough_Valve-GROHE-35114000
100
AcDbLine
 10
-0.298692704693517
 20
0.03125
 30
0.0
 11
-0.298692704693517
 21
-0.03125
 31
0.0
  0
LINE
  5
37F
330
32A
100
AcDbEntity
  8
Pressure_Balance_Rough_Valve-GROHE-35114000
100
AcDbLine
 10
0.2938899542790418
 20
0.0312499999999957
 30
0.0
 11
0.2938899542790418
 21
-0.03125
 31
0.0
  0
ENDBLK
  5
32C
330
32A
100
AcDbEntity
  8
0
100
AcDbBlockEnd
  0
BLOCK
  5
382
330
381
100
AcDbEntity
  8
0
100
AcDbBlockBegin
  2
Pressure_Balance_Rough_Valve-GROHE-35114000- Left
 70
     0
 10
0.0
 20
0.0
 30
0.0
  3
Pressure_Balance_Rough_Valve-GROHE-35114000- Left
  1

  0
LINE
  5
384
330
381
100
AcDbEntity
  8
Pressure_Balance_Rough_Valve-GROHE-35114000
100
AcDbLine
 10
-1.29989545202816
 20
-0.6234729390632238
 30
0.0
 11
-1.29989545202816
 21
-0.7187500000005872
 31
0.0
1001
REVIT
1002
{
1070
     2
1000
-2001160
1002
}
  0
LINE
  5
385
330
381
100
AcDbEntity
  8
Pressure_Balance_Rough_Valve-GROHE-35114000
100
AcDbLine
 10
0.0312500000006715
 20
0.3073819767161362
 30
0.0
 11
-0.0312499999993285
 21
0.307381976716137
 31
0.0
1001
REVIT
1002
{
1070
     2
1000
-2001160
1002
}
  0
LINE
  5
386
330
381
100
AcDbEntity
  8
Pressure_Balance_Rough_Valve-GROHE-35114000
100
AcDbLine
 10
-1.299895452028159
 20
-0.6234729390632232
 30
0.0
 11
-0.3236135205597126
 21
-0.6234729390632264
 31
0.0
1001
REVIT
1002
{
1070
     2
1000
-2001160
1002
}
  0
LINE
  5
387
330
381
100
AcDbEntity
  8
Pressure_Balance_Rough_Valve-GROHE-35114000
100
AcDbLine
 10
-0.4090337335682018
 20
-0.7187500000005894
 30
0.0
 11
-1.299895452028159
 21
-0.7187500000005867
 31
0.0
1001
REVIT
1002
{
1070
     2
1000
-2001160
1002
}
  0
LINE
  5
388
330
381
100
AcDbEntity
  8
Pressure_Balance_Rough_Valve-GROHE-35114000
100
AcDbLine
 10
0.0312500000006706
 20
0.3026437508245663
 30
0.0
 11
0.0312500000006661
 21
0.0000000000000111
 31
0.0
1001
REVIT
1002
{
1070
     2
1000
-2001160
1002
}
  0
LINE
  5
389
330
381
100
AcDbEntity
  8
Pressure_Balance_Rough_Valve-GROHE-35114000
100
AcDbLine
 10
-0.0312499999993339
 20
0.0000000000000119
 30
0.0
 11
-0.0312499999993294
 21
0.302643750824568
 31
0.0
1001
REVIT
1002
{
1070
     2
1000
-2001160
1002
}
  0
LINE
  5
38A
330
381
100
AcDbEntity
  8
Pressure_Balance_Rough_Valve-GROHE-35114000
100
AcDbLine
 10
-0.0312499999993303
 20
0.2649925174906582
 30
0.0
 11
0.0312500000006697
 21
0.2649925174906574
 31
0.0
1001
REVIT
1002
{
1070
     2
1000
-2001160
1002
}
  0
LINE
  5
38B
330
381
100
AcDbEntity
  8
Pressure_Balance_Rough_Valve-GROHE-35114000
100
AcDbLine
 10
1.12959665177934
 20
-0.4549363560042293
 30
0.0
 11
1.129596651779347
 21
-0.0000000000000159
 31
0.0
1001
REVIT
1002
{
1070
     1
1000
114472
1002
}
1002
{
1070
     2
1000
-2001160
1002
}
  0
LINE
  5
38C
330
381
100
AcDbEntity
  8
Pressure_Balance_Rough_Valve-GROHE-35114000
100
AcDbLine
 10
-1.129596651779345
 20
0.0000000000000159
 30
0.0
 11
-1.129596651779352
 21
-0.4549363560041981
 31
0.0
1001
REVIT
1002
{
1070
     1
1000
114472
1002
}
1002
{
1070
     2
1000
-2001160
1002
}
  0
LINE
  5
38D
330
381
100
AcDbEntity
  8
Pressure_Balance_Rough_Valve-GROHE-35114000
100
AcDbLine
 10
1.031250000000198
 20
-2.000000000000022
 30
0.0
 11
1.031250000000206
 21
-1.367487129300024
 31
0.0
1001
REVIT
1002
{
1070
     1
1000
114472
1002
}
1002
{
1070
     2
1000
-2001160
1002
}
  0
LINE
  5
38E
330
381
100
AcDbEntity
  8
Pressure_Balance_Rough_Valve-GROHE-35114000
100
AcDbLine
 10
1.031250000000208
 20
-1.273437500001831
 30
0.0
 11
1.031250000000219
 21
-0.4549363560042089
 31
0.0
1001
REVIT
1002
{
1070
     1
1000
114472
1002
}
1002
{
1070
     2
1000
-2001160
1002
}
  0
LINE
  5
38F
330
381
100
AcDbEntity
  8
Pressure_Balance_Rough_Valve-GROHE-35114000
100
AcDbLine
 10
-1.031250000000231
 20
-0.45493635600418
 30
0.0
 11
-1.031250000000233
 21
-0.6234729390632247
 31
0.0
1001
REVIT
1002
{
1070
     1
1000
114472
1002
}
1002
{
1070
     2
1000
-2001160
1002
}
  0
LINE
  5
390
330
381
100
AcDbEntity
  8
Pressure_Balance_Rough_Valve-GROHE-35114000
100
AcDbLine
 10
-1.031250000000235
 20
-0.7187500000005881
 30
0.0
 11
-1.031250000000253
 21
-1.999999999999993
 31
0.0
1001
REVIT
1002
{
1070
     1
1000
114472
1002
}
1002
{
1070
     2
1000
-2001160
1002
}
  0
LINE
  5
391
330
381
100
AcDbEntity
  8
Pressure_Balance_Rough_Valve-GROHE-35114000
100
AcDbLine
 10
1.129596651779345
 20
-0.0000000000000159
 30
0.0
 11
-1.129596651779345
 21
0.0000000000000159
 31
0.0
1001
REVIT
1002
{
1070
     1
1000
114472
1002
}
1002
{
1070
     2
1000
-2001160
1002
}
  0
LINE
  5
392
330
381
100
AcDbEntity
  8
Pressure_Balance_Rough_Valve-GROHE-35114000
100
AcDbLine
 10
1.031250000000196
 20
-2.000000000000019
 30
0.0
 11
-1.031250000000253
 21
-1.999999999999991
 31
0.0
1001
REVIT
1002
{
1070
     1
1000
114472
1002
}
1002
{
1070
     2
1000
-2001160
1002
}
  0
LINE
  5
393
330
381
100
AcDbEntity
  8
Pressure_Balance_Rough_Valve-GROHE-35114000
100
AcDbLine
 10
1.299895452029355
 20
-1.367487129300025
 30
0.0
 11
1.299895452029356
 21
-1.273437500001833
 31
0.0
1001
REVIT
1002
{
1070
     1
1000
122706
1002
}
1002
{
1070
     2
1000
-2001160
1002
}
  0
LINE
  5
394
330
381
100
AcDbEntity
  8
Pressure_Balance_Rough_Valve-GROHE-35114000
100
AcDbLine
 10
0.4150284756579472
 20
-1.273437500001828
 30
0.0
 11
1.299895452029353
 21
-1.273437500001831
 31
0.0
1001
REVIT
1002
{
1070
     1
1000
122706
1002
}
1002
{
1070
     2
1000
-2001160
1002
}
  0
LINE
  5
395
330
381
100
AcDbEntity
  8
Pressure_Balance_Rough_Valve-GROHE-35114000
100
AcDbLine
 10
1.299895452029353
 20
-1.367487129300024
 30
0.0
 11
0.3353945888341281
 21
-1.367487129300021
 31
0.0
1001
REVIT
1002
{
1070
     1
1000
122706
1002
}
1002
{
1070
     2
1000
-2001160
1002
}
  0
LINE
  5
396
330
381
100
AcDbEntity
  8
Pressure_Balance_Rough_Valve-GROHE-35114000
100
AcDbLine
 10
0.2285958673326105
 20
-0.5581214160228735
 30
0.0
 11
0.2285958673326105
 21
-0.532598002999236
 31
0.0
1001
REVIT
1002
{
1070
     1
1000
130422
1002
}
1002
{
1070
     2
1000
-2001160
1002
}
  0
LINE
  5
397
330
381
100
AcDbEntity
  8
Pressure_Balance_Rough_Valve-GROHE-35114000
100
AcDbLine
 10
-0.2285958673326149
 20
-0.532598002999236
 30
0.0
 11
-0.2285958673326149
 21
-0.5581214160228624
 31
0.0
1001
REVIT
1002
{
1070
     1
1000
130422
1002
}
1002
{
1070
     2
1000
-2001160
1002
}
  0
LINE
  5
398
330
381
100
AcDbEntity
  8
Pressure_Balance_Rough_Valve-GROHE-35114000
100
AcDbLine
 10
0.157081221589733
 20
-0.5283194720196748
 30
0.0
 11
0.157081221589733
 21
-0.4925943551745779
 31
0.0
1001
REVIT
1002
{
1070
     1
1000
130422
1002
}
1002
{
1070
     2
1000
-2001160
1002
}
  0
LINE
  5
399
330
381
100
AcDbEntity
  8
Pressure_Balance_Rough_Valve-GROHE-35114000
100
AcDbLine
 10
-0.1570812215897375
 20
-0.4925943551745779
 30
0.0
 11
-0.1570812215897375
 21
-0.5283194720196748
 31
0.0
1001
REVIT
1002
{
1070
     1
1000
130422
1002
}
1002
{
1070
     2
1000
-2001160
1002
}
  0
LINE
  5
39A
330
381
100
AcDbEntity
  8
Pressure_Balance_Rough_Valve-GROHE-35114000
100
AcDbLine
 10
0.1133306631455033
 20
-0.4925943551745779
 30
0.0
 11
0.1133306631455033
 21
-0.4577306289143314
 31
0.0
1001
REVIT
1002
{
1070
     1
1000
130422
1002
}
1002
{
1070
     2
1000
-2001160
1002
}
  0
LINE
  5
39B
330
381
100
AcDbEntity
  8
Pressure_Balance_Rough_Valve-GROHE-35114000
100
AcDbLine
 10
-0.1133306631455069
 20
-0.4577306289143314
 30
0.0
 11
-0.1133306631455069
 21
-0.4925943551745779
 31
0.0
1001
REVIT
1002
{
1070
     1
1000
130422
1002
}
1002
{
1070
     2
1000
-2001160
1002
}
  0
LINE
  5
39C
330
381
100
AcDbEntity
  8
Pressure_Balance_Rough_Valve-GROHE-35114000
100
AcDbLine
 10
0.0646378204679499
 20
-0.4577306289143314
 30
0.0
 11
0.0646378204679499
 21
-0.4221833001783932
 31
0.0
1001
REVIT
1002
{
1070
     1
1000
130422
1002
}
1002
{
1070
     2
1000
-2001160
1002
}
  0
LINE
  5
39D
330
381
100
AcDbEntity
  8
Pressure_Balance_Rough_Valve-GROHE-35114000
100
AcDbLine
 10
-0.0646378204679543
 20
-0.4221833001783932
 30
0.0
 11
-0.0646378204679543
 21
-0.4577306289143314
 31
0.0
1001
REVIT
1002
{
1070
     1
1000
130422
1002
}
1002
{
1070
     2
1000
-2001160
1002
}
  0
LINE
  5
39E
330
381
100
AcDbEntity
  8
Pressure_Balance_Rough_Valve-GROHE-35114000
100
AcDbLine
 10
0.2285958673326105
 20
-0.5325980029992356
 30
0.0
 11
0.1722291903810094
 21
-0.5325980029992356
 31
0.0
1001
REVIT
1002
{
1070
     1
1000
130422
1002
}
1002
{
1070
     2
1000
-2001160
1002
}
  0
LINE
  5
39F
330
381
100
AcDbEntity
  8
Pressure_Balance_Rough_Valve-GROHE-35114000
100
AcDbLine
 10
-0.1722291903810316
 20
-0.5325980029992356
 30
0.0
 11
-0.2285958673326158
 21
-0.5325980029992356
 31
0.0
1001
REVIT
1002
{
1070
     1
1000
130422
1002
}
1002
{
1070
     2
1000
-2001160
1002
}
  0
LINE
  5
3A0
330
381
100
AcDbEntity
  8
Pressure_Balance_Rough_Valve-GROHE-35114000
100
AcDbLine
 10
0.1570812215897321
 20
-0.4925943551745772
 30
0.0
 11
-0.1570812215897384
 21
-0.4925943551745772
 31
0.0
1001
REVIT
1002
{
1070
     1
1000
130422
1002
}
1002
{
1070
     2
1000
-2001160
1002
}
  0
LINE
  5
3A1
330
381
100
AcDbEntity
  8
Pressure_Balance_Rough_Valve-GROHE-35114000
100
AcDbLine
 10
0.1133306631455024
 20
-0.4577306289143307
 30
0.0
 11
-0.1133306631455078
 21
-0.4577306289143307
 31
0.0
1001
REVIT
1002
{
1070
     1
1000
130422
1002
}
1002
{
1070
     2
1000
-2001160
1002
}
  0
LINE
  5
3A2
330
381
100
AcDbEntity
  8
Pressure_Balance_Rough_Valve-GROHE-35114000
100
AcDbLine
 10
0.064637820467949
 20
-0.4221833001783929
 30
0.0
 11
-0.0646378204679552
 21
-0.4221833001783929
 31
0.0
1001
REVIT
1002
{
1070
     1
1000
130422
1002
}
1002
{
1070
     2
1000
-2001160
1002
}
  0
LINE
  5
3A3
330
381
100
AcDbEntity
  8
Pressure_Balance_Rough_Valve-GROHE-35114000
100
AcDbLine
 10
-1.812499999999986
 20
-1.375000000017851
 30
0.0
 11
-1.176920550564633
 21
-1.375000000017851
 31
0.0
1001
REVIT
1002
{
1070
     1
1000
160299
1002
}
1002
{
1070
     2
1000
-2001160
1002
}
  0
LINE
  5
3A4
330
381
100
AcDbEntity
  8
Pressure_Balance_Rough_Valve-GROHE-35114000
100
AcDbLine
 10
-1.29989545202816
 20
-0.624999999984628
 30
0.0
 11
-1.812499999999986
 21
-0.624999999984628
 31
0.0
1001
REVIT
1002
{
1070
     1
1000
160299
1002
}
1002
{
1070
     2
1000
-2001160
1002
}
  0
LINE
  5
3A5
330
381
100
AcDbEntity
  8
Pressure_Balance_Rough_Valve-GROHE-35114000
100
AcDbLine
 10
-1.176920550564633
 20
-1.492346826814888
 30
0.0
 11
-1.031250000000246
 21
-1.492346826814888
 31
0.0
1001
REVIT
1002
{
1070
     1
1000
160299
1002
}
1002
{
1070
     2
1000
-2001160
1002
}
  0
LINE
  5
3A6
330
381
100
AcDbEntity
  8
Pressure_Balance_Rough_Valve-GROHE-35114000
100
AcDbLine
 10
1.031250000000206
 20
-1.492346826814888
 30
0.0
 11
1.176920550564633
 21
-1.492346826814888
 31
0.0
1001
REVIT
1002
{
1070
     1
1000
160299
1002
}
1002
{
1070
     2
1000
-2001160
1002
}
  0
LINE
  5
3A7
330
381
100
AcDbEntity
  8
Pressure_Balance_Rough_Valve-GROHE-35114000
100
AcDbLine
 10
1.176920550564633
 20
-0.5076531731875917
 30
0.0
 11
1.031250000000219
 21
-0.5076531731875917
 31
0.0
1001
REVIT
1002
{
1070
     1
1000
160299
1002
}
1002
{
1070
     2
1000
-2001160
1002
}
  0
LINE
  5
3A8
330
381
100
AcDbEntity
  8
Pressure_Balance_Rough_Valve-GROHE-35114000
100
AcDbLine
 10
-1.031250000000231
 20
-0.5076531731875917
 30
0.0
 11
-1.176920550564633
 21
-0.5076531731875917
 31
0.0
1001
REVIT
1002
{
1070
     1
1000
160299
1002
}
1002
{
1070
     2
1000
-2001160
1002
}
  0
LINE
  5
3A9
330
381
100
AcDbEntity
  8
Pressure_Balance_Rough_Valve-GROHE-35114000
100
AcDbLine
 10
1.17692055056463
 20
-1.375000000017822
 30
0.0
 11
1.812500000000667
 21
-1.375000000017822
 31
0.0
1001
REVIT
1002
{
1070
     1
1000
160299
1002
}
1002
{
1070
     2
1000
-2001160
1002
}
  0
LINE
  5
3AA
330
381
100
AcDbEntity
  8
Pressure_Balance_Rough_Valve-GROHE-35114000
100
AcDbLine
 10
1.812500000000667
 20
-0.6249999999846568
 30
0.0
 11
1.17692055056463
 21
-0.6249999999846568
 31
0.0
1001
REVIT
1002
{
1070
     1
1000
160299
1002
}
1002
{
1070
     2
1000
-2001160
1002
}
  0
LINE
  5
3AB
330
381
100
AcDbEntity
  8
Pressure_Balance_Rough_Valve-GROHE-35114000
100
AcDbLine
 10
-1.812499999999984
 20
-1.37500000001785
 30
0.0
 11
-1.812499999999984
 21
-0.6249999999846271
 31
0.0
1001
REVIT
1002
{
1070
     1
1000
160299
1002
}
1002
{
1070
     2
1000
-2001160
1002
}
  0
LINE
  5
3AC
330
381
100
AcDbEntity
  8
Pressure_Balance_Rough_Valve-GROHE-35114000
100
AcDbLine
 10
1.812500000000664
 20
-0.6249999999846564
 30
0.0
 11
1.812500000000664
 21
-1.375000000017821
 31
0.0
1001
REVIT
1002
{
1070
     1
1000
160299
1002
}
1002
{
1070
     2
1000
-2001160
1002
}
  0
LINE
  5
3AD
330
381
100
AcDbEntity
  8
Pressure_Balance_Rough_Valve-GROHE-35114000
100
AcDbLine
 10
-1.176920550564633
 20
-1.492346826814887
 30
0.0
 11
-1.176920550564633
 21
-0.718750000000587
 31
0.0
1001
REVIT
1002
{
1070
     1
1000
160299
1002
}
1002
{
1070
     2
1000
-2001160
1002
}
  0
LINE
  5
3AE
330
381
100
AcDbEntity
  8
Pressure_Balance_Rough_Valve-GROHE-35114000
100
AcDbLine
 10
-1.176920550564633
 20
-0.6174605730318433
 30
0.0
 11
-1.176920550564633
 21
-0.507653173187591
 31
0.0
1001
REVIT
1002
{
1070
     1
1000
160299
1002
}
1002
{
1070
     2
1000
-2001160
1002
}
  0
LINE
  5
3AF
330
381
100
AcDbEntity
  8
Pressure_Balance_Rough_Valve-GROHE-35114000
100
AcDbLine
 10
1.176920550564632
 20
-1.492346826814887
 30
0.0
 11
1.176920550564632
 21
-1.367487129300024
 31
0.0
1001
REVIT
1002
{
1070
     1
1000
160299
1002
}
1002
{
1070
     2
1000
-2001160
1002
}
  0
LINE
  5
3B0
330
381
100
AcDbEntity
  8
Pressure_Balance_Rough_Valve-GROHE-35114000
100
AcDbLine
 10
1.176920550564632
 20
-1.273437500001831
 30
0.0
 11
1.176920550564632
 21
-0.507653173187591
 31
0.0
1001
REVIT
1002
{
1070
     1
1000
160299
1002
}
1002
{
1070
     2
1000
-2001160
1002
}
  0
LINE
  5
3B1
330
381
100
AcDbEntity
  8
Pressure_Balance_Rough_Valve-GROHE-35114000
100
AcDbLine
 10
-1.129596651779352
 20
-0.454936356004196
 30
0.0
 11
1.129596651779338
 21
-0.4549363560042278
 31
0.0
1001
REVIT
1002
{
1070
     1
1000
172981
1002
}
1002
{
1070
     2
1000
-2001160
1002
}
  0
CIRCLE
  5
3B2
330
381
100
AcDbEntity
  8
Pressure_Balance_Rough_Valve-GROHE-35114000
100
AcDbCircle
 10
-0.0000000000000062
 20
-0.9999999999975212
 30
0.0
 40
0.4154093313488539
1001
REVIT
1002
{
1070
     1
1000
172988
1002
}
1002
{
1070
     2
1000
-2001160
1002
}
  0
CIRCLE
  5
3B3
330
381
100
AcDbEntity
  8
Pressure_Balance_Rough_Valve-GROHE-35114000
100
AcDbCircle
 10
-0.0000000000000142
 20
-0.9999999999987252
 30
0.0
 40
0.5000000000390172
1001
REVIT
1002
{
1070
     1
1000
173002
1002
}
1002
{
1070
     2
1000
-2001160
1002
}
  0
CIRCLE
  5
3B4
330
381
100
AcDbEntity
  8
Pressure_Balance_Rough_Valve-GROHE-35114000
100
AcDbCircle
 10
0.0000000000003393
 20
-0.9999999999975212
 30
0.0
 40
0.2500000000303518
1001
REVIT
1002
{
1070
     1
1000
173032
1002
}
1002
{
1070
     2
1000
-2001160
1002
}
  0
CIRCLE
  5
3B5
330
381
100
AcDbEntity
  8
Pressure_Balance_Rough_Valve-GROHE-35114000
100
AcDbCircle
 10
-0.0000000000000142
 20
-0.9999999999987252
 30
0.0
 40
0.3818239236497386
  0
CIRCLE
  5
3B6
330
381
100
AcDbEntity
  8
Pressure_Balance_Rough_Valve-GROHE-35114000
100
AcDbCircle
 10
-0.0000000000000142
 20
-0.9999999999987224
 30
0.0
 40
0.4331830810523144
  0
ENDBLK
  5
383
330
381
100
AcDbEntity
  8
0
100
AcDbBlockEnd
  0
ENDSEC
  0
SECTION
  2
ENTITIES
  0
INSERT
  5
329
330
70
100
AcDbEntity
  8
Pressure_Balance_Rough_Valve-GROHE-35114000
100
AcDbBlockReference
  2
Pressure_Balance_Rough_Valve-GROHE-35114000- Top
 10
0.0402995223728671
 20
4.253234692035572
 30
0.0
  0
INSERT
  5
380
330
70
100
AcDbEntity
  8
Pressure_Balance_Rough_Valve-GROHE-35114000
100
AcDbBlockReference
  2
Pressure_Balance_Rough_Valve-GROHE-35114000- Front
 10
0.0024013752071783
 20
-0.6250000000009968
 30
0.0
  0
INSERT
  5
3B7
330
70
100
AcDbEntity
  8
Pressure_Balance_Rough_Valve-GROHE-35114000
100
AcDbBlockReference
  2
Pressure_Balance_Rough_Valve-GROHE-35114000- Left
 10
-7.124982261236236
 20
0.3645460459894664
 30
0.0
  0
ENDSEC
  0
SECTION
  2
OBJECTS
  0
DICTIONARY
  5
C
330
0
100
AcDbDictionary
281
     1
  3
ACAD_CIP_PREVIOUS_PRODUCT_INFO
350
79
  3
ACAD_COLOR
350
63
  3
ACAD_DETAILVIEWSTYLE
350
6A
  3
ACAD_GROUP
350
D
  3
ACAD_IMAGE_VARS
350
7A
  3
ACAD_LAYOUT
350
62
  3
ACAD_MATERIAL
350
10
  3
ACAD_MLEADERSTYLE
350
66
  3
ACAD_MLINESTYLE
350
5F
  3
ACAD_PLOTSETTINGS
350
61
  3
ACAD_PLOTSTYLENAME
350
E
  3
ACAD_SCALELIST
350
42
  3
ACAD_SECTIONVIEWSTYLE
350
68
  3
ACAD_TABLESTYLE
350
64
  3
ACAD_VISUALSTYLE
350
29
  3
ACDB_RECOMPOSE_DATA
350
3BF
  3
AcDbVariableDictionary
350
104
  3
REVIT_DICTIONARY
350
F9
  0
DICTIONARY
  5
271
330
2
100
AcDbDictionary
280
     1
281
     1
  3
ACAD_LAYERSTATES
360
272
  0
DICTIONARY
  5
FD
330
70
100
AcDbDictionary
280
     1
281
     1
  3
ACAD_SORTENTS
360
FE
  0
XRECORD
  5
79
102
{ACAD_REACTORS
330
C
102
}
330
C
100
AcDbXrecord
280
     1
300
ACD
300
2016
300
86445ACD_2016_0F
  0
DICTIONARY
  5
63
102
{ACAD_REACTORS
330
C
102
}
330
C
100
AcDbDictionary
281
     1
  0
DICTIONARY
  5
6A
102
{ACAD_REACTORS
330
C
102
}
330
C
100
AcDbDictionary
281
     1
  3
Imperial24
350
6B
  0
DICTIONARY
  5
D
102
{ACAD_REACTORS
330
C
102
}
330
C
100
AcDbDictionary
281
     1
  0
RASTERVARIABLES
  5
7A
102
{ACAD_REACTORS
330
C
102
}
330
C
100
AcDbRasterVariables
 90
        0
 70
     0
 71
     1
 72
     5
  0
DICTIONARY
  5
62
102
{ACAD_REACTORS
330
C
102
}
330
C
100
AcDbDictionary
281
     1
  3
Layout1
350
6F
  3
Layout2
350
77
  3
Model
350
73
  0
DICTIONARY
  5
10
102
{ACAD_REACTORS
330
C
102
}
330
C
100
AcDbDictionary
281
     1
  3
ByBlock
350
19
  3
ByLayer
350
11
  3
Global
350
21
  0
DICTIONARY
  5
66
102
{ACAD_REACTORS
330
C
102
}
330
C
100
AcDbDictionary
281
     1
  3
Standard
350
67
  0
DICTIONARY
  5
5F
102
{ACAD_REACTORS
330
C
102
}
330
C
100
AcDbDictionary
281
     1
  3
Standard
350
60
  0
DICTIONARY
  5
61
102
{ACAD_REACTORS
330
C
102
}
330
C
100
AcDbDictionary
281
     1
  0
ACDBDICTIONARYWDFLT
  5
E
102
{ACAD_REACTORS
330
C
102
}
330
C
100
AcDbDictionary
281
     1
  3
Normal
350
F
100
AcDbDictionaryWithDefault
340
F
  0
DICTIONARY
  5
42
102
{ACAD_REACTORS
330
C
102
}
330
C
100
AcDbDictionary
281
     1
  3
A0
350
43
  3
A1
350
44
  3
A2
350
45
  3
A3
350
46
  3
A4
350
47
  3
A5
350
48
  3
A6
350
49
  3
A7
350
4A
  3
A8
350
4B
  3
A9
350
4C
  3
B0
350
4D
  3
B1
350
4E
  3
B2
350
4F
  3
B3
350
50
  3
B4
350
51
  3
B5
350
52
  3
B6
350
53
  0
DICTIONARY
  5
68
102
{ACAD_REACTORS
330
C
102
}
330
C
100
AcDbDictionary
281
     1
  3
Imperial24
350
69
  0
DICTIONARY
  5
64
102
{ACAD_REACTORS
330
C
102
}
330
C
100
AcDbDictionary
281
     1
  3
Standard
350
65
  0
DICTIONARY
  5
29
102
{ACAD_REACTORS
330
C
102
}
330
C
100
AcDbDictionary
281
     1
  3
2dWireframe
350
2F
  3
Basic
350
2E
  3
Brighten
350
35
  3
ColorChange
350
39
  3
Conceptual
350
32
  3
Dim
350
34
  3
EdgeColorOff
350
41
  3
Facepattern
350
38
  3
Flat
350
2A
  3
FlatWithEdges
350
2B
  3
Gouraud
350
2C
  3
GouraudWithEdges
350
2D
  3
Hidden
350
31
  3
JitterOff
350
3F
  3
Linepattern
350
37
  3
OverhangOff
350
40
  3
Realistic
350
33
  3
Shaded
350
3E
  3
Shaded with edges
350
3D
  3
Shades of Gray
350
3A
  3
Sketchy
350
3B
  3
Thicken
350
36
  3
Wireframe
350
30
  3
X-Ray
350
3C
  0
XRECORD
  5
3BF
102
{ACAD_REACTORS
330
C
102
}
330
C
100
AcDbXrecord
280
     1
 90
        1
330
65
330
69
330
6B
  0
DICTIONARY
  5
104
102
{ACAD_REACTORS
330
C
102
}
330
C
100
AcDbDictionary
281
     1
  3
CANNOSCALE
350
109
  3
CMLEADERSTYLE
350
106
  3
CTABLESTYLE
350
105
  3
CVIEWDETAILSTYLE
350
107
  3
CVIEWSECTIONSTYLE
350
108
  0
DICTIONARY
  5
F9
102
{ACAD_REACTORS
330
C
102
}
330
C
100
AcDbDictionary
281
     1
  3
DRAWING_TOOL
350
FC
  3
REVIT_CATEGORY_MAPPING
350
FA
  3
REVIT_SUB_CATEGORY_MAPPING
350
FB
  0
DICTIONARY
  5
272
102
{ACAD_REACTORS
330
271
102
}
330
271
100
AcDbDictionary
281
     1
  0
SORTENTSTABLE
  5
FE
102
{ACAD_REACTORS
330
FD
102
}
330
FD
100
AcDbSortentsTable
330
70
  0
ACDBDETAILVIEWSTYLE
  5
6B
102
{ACAD_XDICTIONARY
360
101
102
}
102
{ACAD_REACTORS
330
6A
102
}
330
6A
100
AcDbModelDocViewStyle
 70
     0
  3
Imperial24
290
     0
100
AcDbDetailViewStyle
 70
     0
 71
     0
 90
        3
 71
     1
340
55
 62
   256
 40
0.24
340
0
 62
   256
 40
0.24
300

 40
0.36
280
     3
 71
     2
340
5D
 90
       25
 62
   256
 71
     3
340
55
 62
   256
 40
0.24
 90
        1
 40
0.75
 90
        1
300
%<\AcVar ViewType \f "%tc1">% %<\AcVar ViewDetailId>%\PSCALE %<\AcVar ViewScale \f "%sn">%
 71
     4
340
5D
 90
       25
 62
   256
340
5D
 90
       25
 62
   256
280
     0
  0
LAYOUT
  5
6F
102
{ACAD_REACTORS
330
62
102
}
330
62
100
AcDbPlotSettings
  1

  2

  4

  6

 40
0.0
 41
0.0
 42
0.0
 43
0.0
 44
0.0
 45
0.0
 46
0.0
 47
0.0
 48
0.0
 49
0.0
140
0.0
141
0.0
142
1.0
143
1.0
 70
   688
 72
     0
 73
     0
 74
     5
  7

 75
    16
147
1.0
 76
     0
 77
     2
 78
   300
148
0.0
149
0.0
100
AcDbLayout
  1
Layout1
 70
     1
 71
     1
 10
0.0
 20
0.0
 11
12.0
 21
9.0
 12
0.0
 22
0.0
 32
0.0
 14
1.000000000000000E+20
 24
1.000000000000000E+20
 34
1.000000000000000E+20
 15
-1.000000000000000E+20
 25
-1.000000000000000E+20
 35
-1.000000000000000E+20
146
0.0
 13
0.0
 23
0.0
 33
0.0
 16
1.0
 26
0.0
 36
0.0
 17
0.0
 27
1.0
 37
0.0
 76
     0
330
6C
  0
LAYOUT
  5
77
102
{ACAD_REACTORS
330
62
102
}
330
62
100
AcDbPlotSettings
  1

  2

  4

  6

 40
0.0
 41
0.0
 42
0.0
 43
0.0
 44
0.0
 45
0.0
 46
0.0
 47
0.0
 48
0.0
 49
0.0
140
0.0
141
0.0
142
1.0
143
1.0
 70
   688
 72
     0
 73
     0
 74
     5
  7

 75
    16
147
1.0
 76
     0
 77
     2
 78
   300
148
0.0
149
0.0
100
AcDbLayout
  1
Layout2
 70
     1
 71
     2
 10
0.0
 20
0.0
 11
12.0
 21
9.0
 12
0.0
 22
0.0
 32
0.0
 14
0.0
 24
0.0
 34
0.0
 15
0.0
 25
0.0
 35
0.0
146
0.0
 13
0.0
 23
0.0
 33
0.0
 16
1.0
 26
0.0
 36
0.0
 17
0.0
 27
1.0
 37
0.0
 76
     0
330
74
  0
LAYOUT
  5
73
102
{ACAD_REACTORS
330
62
102
}
330
62
100
AcDbPlotSettings
  1

  2

  4

  6

 40
0.0
 41
0.0
 42
0.0
 43
0.0
 44
0.0
 45
0.0
 46
0.0
 47
0.0
 48
0.0
 49
0.0
140
0.0
141
0.0
142
1.0
143
1.0
 70
  1712
 72
     0
 73
     0
 74
     0
  7

 75
     0
147
1.0
 76
     0
 77
     2
 78
   300
148
0.0
149
0.0
100
AcDbLayout
  1
Model
 70
     1
 71
     0
 10
0.0
 20
0.0
 11
12.0
 21
9.0
 12
0.0
 22
0.0
 32
0.0
 14
0.0
 24
0.0
 34
0.0
 15
0.0
 25
0.0
 35
0.0
146
0.0
 13
0.0
 23
0.0
 33
0.0
 16
1.0
 26
0.0
 36
0.0
 17
0.0
 27
1.0
 37
0.0
 76
     0
330
70
331
57
  0
MATERIAL
  5
19
102
{ACAD_XDICTIONARY
360
1A
102
}
102
{ACAD_REACTORS
330
10
102
}
330
10
100
AcDbMaterial
  1
ByBlock
 72
     0
 43
0.0208333333333333
 43
0.0
 43
0.0
 43
0.0
 43
0.0
 43
0.0208333333333333
 43
0.0
 43
0.0
 43
0.0
 43
0.0
 43
1.0
 43
0.0
 43
0.0
 43
0.0
 43
0.0
 43
1.0
 77
     0
 47
0.0208333333333333
 47
0.0
 47
0.0
 47
0.0
 47
0.0
 47
0.0208333333333333
 47
0.0
 47
0.0
 47
0.0
 47
0.0
 47
1.0
 47
0.0
 47
0.0
 47
0.0
 47
0.0
 47
1.0
171
     0
 49
0.0208333333333333
 49
0.0
 49
0.0
 49
0.0
 49
0.0
 49
0.0208333333333333
 49
0.0
 49
0.0
 49
0.0
 49
0.0
 49
1.0
 49
0.0
 49
0.0
 49
0.0
 49
0.0
 49
1.0
175
     0
142
0.0208333333333333
142
0.0
142
0.0
142
0.0
142
0.0
142
0.0208333333333333
142
0.0
142
0.0
142
0.0
142
0.0
142
1.0
142
0.0
142
0.0
142
0.0
142
0.0
142
1.0
179
     0
144
0.0208333333333333
144
0.0
144
0.0
144
0.0
144
0.0
144
0.0208333333333333
144
0.0
144
0.0
144
0.0
144
0.0
144
1.0
144
0.0
144
0.0
144
0.0
144
0.0
144
1.0
147
0.0208333333333333
147
0.0
147
0.0
147
0.0
147
0.0
147
0.0208333333333333
147
0.0
147
0.0
147
0.0
147
0.0
147
1.0
147
0.0
147
0.0
147
0.0
147
0.0
147
1.0
  0
MATERIAL
  5
11
102
{ACAD_XDICTIONARY
360
12
102
}
102
{ACAD_REACTORS
330
10
102
}
330
10
100
AcDbMaterial
  1
ByLayer
 72
     0
 43
0.0208333333333333
 43
0.0
 43
0.0
 43
0.0
 43
0.0
 43
0.0208333333333333
 43
0.0
 43
0.0
 43
0.0
 43
0.0
 43
1.0
 43
0.0
 43
0.0
 43
0.0
 43
0.0
 43
1.0
 77
     0
 47
0.0208333333333333
 47
0.0
 47
0.0
 47
0.0
 47
0.0
 47
0.0208333333333333
 47
0.0
 47
0.0
 47
0.0
 47
0.0
 47
1.0
 47
0.0
 47
0.0
 47
0.0
 47
0.0
 47
1.0
171
     0
 49
0.0208333333333333
 49
0.0
 49
0.0
 49
0.0
 49
0.0
 49
0.0208333333333333
 49
0.0
 49
0.0
 49
0.0
 49
0.0
 49
1.0
 49
0.0
 49
0.0
 49
0.0
 49
0.0
 49
1.0
175
     0
142
0.0208333333333333
142
0.0
142
0.0
142
0.0
142
0.0
142
0.0208333333333333
142
0.0
142
0.0
142
0.0
142
0.0
142
1.0
142
0.0
142
0.0
142
0.0
142
0.0
142
1.0
179
     0
144
0.0208333333333333
144
0.0
144
0.0
144
0.0
144
0.0
144
0.0208333333333333
144
0.0
144
0.0
144
0.0
144
0.0
144
1.0
144
0.0
144
0.0
144
0.0
144
0.0
144
1.0
147
0.0208333333333333
147
0.0
147
0.0
147
0.0
147
0.0
147
0.0208333333333333
147
0.0
147
0.0
147
0.0
147
0.0
147
1.0
147
0.0
147
0.0
147
0.0
147
0.0
147
1.0
  0
MATERIAL
  5
21
102
{ACAD_XDICTIONARY
360
22
102
}
102
{ACAD_REACTORS
330
10
102
}
330
10
100
AcDbMaterial
  1
Global
 72
     0
 43
0.0208333333333333
 43
0.0
 43
0.0
 43
0.0
 43
0.0
 43
0.0208333333333333
 43
0.0
 43
0.0
 43
0.0
 43
0.0
 43
1.0
 43
0.0
 43
0.0
 43
0.0
 43
0.0
 43
1.0
 77
     0
 47
0.0208333333333333
 47
0.0
 47
0.0
 47
0.0
 47
0.0
 47
0.0208333333333333
 47
0.0
 47
0.0
 47
0.0
 47
0.0
 47
1.0
 47
0.0
 47
0.0
 47
0.0
 47
0.0
 47
1.0
171
     0
 49
0.0208333333333333
 49
0.0
 49
0.0
 49
0.0
 49
0.0
 49
0.0208333333333333
 49
0.0
 49
0.0
 49
0.0
 49
0.0
 49
1.0
 49
0.0
 49
0.0
 49
0.0
 49
0.0
 49
1.0
175
     0
142
0.0208333333333333
142
0.0
142
0.0
142
0.0
142
0.0
142
0.0208333333333333
142
0.0
142
0.0
142
0.0
142
0.0
142
1.0
142
0.0
142
0.0
142
0.0
142
0.0
142
1.0
179
     0
144
0.0208333333333333
144
0.0
144
0.0
144
0.0
144
0.0
144
0.0208333333333333
144
0.0
144
0.0
144
0.0
144
0.0
144
1.0
144
0.0
144
0.0
144
0.0
144
0.0
144
1.0
147
0.0208333333333333
147
0.0
147
0.0
147
0.0
147
0.0
147
0.0208333333333333
147
0.0
147
0.0
147
0.0
147
0.0
147
1.0
147
0.0
147
0.0
147
0.0
147
0.0
147
1.0
  0
MLEADERSTYLE
  5
67
102
{ACAD_REACTORS
330
66
102
}
330
66
100
AcDbMLeaderStyle
179
     2
170
     2
171
     1
172
     0
 90
        2
 40
0.0
 41
0.0
173
     1
 91
-1056964608
340
5B
 92
       -2
290
     1
 42
0.09
291
     1
 43
0.36
  3
Standard
 44
0.18
300

342
55
174
     1
178
     6
175
     1
176
     0
 93
-1056964608
 45
0.18
292
     0
297
     0
 46
0.18
 94
-1056964608
 47
1.0
 49
1.0
140
1.0
293
     1
141
0.0
294
     1
177
     0
142
1.0
295
     1
296
     0
143
0.125
271
     0
272
     9
273
     9
298
     1
  0
MLINESTYLE
  5
60
102
{ACAD_REACTORS
330
5F
102
}
330
5F
100
AcDbMlineStyle
  2
STANDARD
 70
     0
  3

 62
   256
 51
90.0
 52
90.0
 71
     2
 49
0.5
 62
   256
  6
BYLAYER
 49
-0.5
 62
   256
  6
BYLAYER
  0
ACDBPLACEHOLDER
  5
F
102
{ACAD_REACTORS
330
E
102
}
330
E
  0
SCALE
  5
43
102
{ACAD_REACTORS
330
42
102
}
330
42
100
AcDbScale
 70
     0
300
1:1
140
1.0
141
1.0
290
     1
  0
SCALE
  5
44
102
{ACAD_REACTORS
330
42
102
}
330
42
100
AcDbScale
 70
     0
300
1/128" = 1'-0"
140
0.0078125
141
12.0
290
     0
  0
SCALE
  5
45
102
{ACAD_REACTORS
330
42
102
}
330
42
100
AcDbScale
 70
     0
300
1/64" = 1'-0"
140
0.015625
141
12.0
290
     0
  0
SCALE
  5
46
102
{ACAD_REACTORS
330
42
102
}
330
42
100
AcDbScale
 70
     0
300
1/32" = 1'-0"
140
0.03125
141
12.0
290
     0
  0
SCALE
  5
47
102
{ACAD_REACTORS
330
42
102
}
330
42
100
AcDbScale
 70
     0
300
1/16" = 1'-0"
140
0.0625
141
12.0
290
     0
  0
SCALE
  5
48
102
{ACAD_REACTORS
330
42
102
}
330
42
100
AcDbScale
 70
     0
300
3/32" = 1'-0"
140
0.09375
141
12.0
290
     0
  0
SCALE
  5
49
102
{ACAD_REACTORS
330
42
102
}
330
42
100
AcDbScale
 70
     0
300
1/8" = 1'-0"
140
0.125
141
12.0
290
     0
  0
SCALE
  5
4A
102
{ACAD_REACTORS
330
42
102
}
330
42
100
AcDbScale
 70
     0
300
3/16" = 1'-0"
140
0.1875
141
12.0
290
     0
  0
SCALE
  5
4B
102
{ACAD_REACTORS
330
42
102
}
330
42
100
AcDbScale
 70
     0
300
1/4" = 1'-0"
140
0.25
141
12.0
290
     0
  0
SCALE
  5
4C
102
{ACAD_REACTORS
330
42
102
}
330
42
100
AcDbScale
 70
     0
300
3/8" = 1'-0"
140
0.375
141
12.0
290
     0
  0
SCALE
  5
4D
102
{ACAD_REACTORS
330
42
102
}
330
42
100
AcDbScale
 70
     0
300
1/2" = 1'-0"
140
0.5
141
12.0
290
     0
  0
SCALE
  5
4E
102
{ACAD_REACTORS
330
42
102
}
330
42
100
AcDbScale
 70
     0
300
3/4" = 1'-0"
140
0.75
141
12.0
290
     0
  0
SCALE
  5
4F
102
{ACAD_REACTORS
330
42
102
}
330
42
100
AcDbScale
 70
     0
300
1" = 1'-0"
140
1.0
141
12.0
290
     0
  0
SCALE
  5
50
102
{ACAD_REACTORS
330
42
102
}
330
42
100
AcDbScale
 70
     0
300
1-1/2" = 1'-0"
140
1.5
141
12.0
290
     0
  0
SCALE
  5
51
102
{ACAD_REACTORS
330
42
102
}
330
42
100
AcDbScale
 70
     0
300
3" = 1'-0"
140
3.0
141
12.0
290
     0
  0
SCALE
  5
52
102
{ACAD_REACTORS
330
42
102
}
330
42
100
AcDbScale
 70
     0
300
6" = 1'-0"
140
6.0
141
12.0
290
     0
  0
SCALE
  5
53
102
{ACAD_REACTORS
330
42
102
}
330
42
100
AcDbScale
 70
     0
300
1'-0" = 1'-0"
140
12.0
141
12.0
290
     0
  0
ACDBSECTIONVIEWSTYLE
  5
69
102
{ACAD_XDICTIONARY
360
FF
102
}
102
{ACAD_REACTORS
330
68
102
}
330
68
100
AcDbModelDocViewStyle
 70
     0
  3
Imperial24
290
     0
100
AcDbSectionViewStyle
 70
     0
 71
     0
 90
       78
 71
     1
340
55
 62
   256
 40
0.24
340
0
340
0
 62
   256
 40
0.24
300
I, O, Q, S, X, Z
 40
0.48
 90
        3
 40
0.18
 90
        1
 71
     2
340
5D
 90
       25
 62
   256
340
5D
 90
       50
 62
   256
 40
0.24
 40
0.0
 40
0.24
 71
     3
340
55
 62
   256
 40
0.24
 90
        1
 40
0.75
 90
        1
300
%<\AcVar ViewType \f "%tc1">% %<\AcVar ViewSectionStartId>%-%<\AcVar ViewSectionEndId>%\PSCALE %<\AcVar ViewScale \f "%sn">%
 71
     4
 62
   256
 62
   257
300
ANSI31
 40
1.0
 90
        0
290
     0
290
     0
 90
        6
 40
0.0
 40
1.570796326794896
 40
0.2617993877991494
 40
1.308996938995747
 40
-0.2617993877991494
 40
1.832595714594046
  0
TABLESTYLE
  5
65
102
{ACAD_XDICTIONARY
360
3BB
102
}
102
{ACAD_REACTORS
330
64
102
}
330
64
100
AcDbTableStyle
280
     0
  3
Standard
 70
     0
 71
     0
 40
0.06
 41
0.06
280
     0
281
     0
  7
Standard
140
0.18
170
     2
 62
     0
 63
     7
283
     0
 90
      512
 91
        0
  1

274
    -2
284
     1
 64
     0
275
    -2
285
     1
 65
     0
276
    -2
286
     1
 66
     0
277
    -2
287
     1
 67
     0
278
    -2
288
     1
 68
     0
279
    -2
289
     1
 69
     0
  7
Standard
140
0.25
170
     5
 62
     0
 63
     7
283
     0
 90
      512
 91
        0
  1

274
    -2
284
     1
 64
     0
275
    -2
285
     1
 65
     0
276
    -2
286
     1
 66
     0
277
    -2
287
     1
 67
     0
278
    -2
288
     1
 68
     0
279
    -2
289
     1
 69
     0
  7
Standard
140
0.18
170
     5
 62
     0
 63
     7
283
     0
 90
      512
 91
        0
  1

274
    -2
284
     1
 64
     0
275
    -2
285
     1
 65
     0
276
    -2
286
     1
 66
     0
277
    -2
287
     1
 67
     0
278
    -2
288
     1
 68
     0
279
    -2
289
     1
 69
     0
  0
VISUALSTYLE
  5
2F
102
{ACAD_REACTORS
330
29
102
}
330
29
100
AcDbVisualStyle
  2
2dWireframe
 70
     4
177
     3
291
     0
 70
    58
 90
        0
176
     1
 90
        2
176
     1
 90
        0
176
     1
 90
        0
176
     1
 40
0.6
176
     1
 40
30.0
176
     1
 62
     7
420
 16777215
176
     1
 90
        1
176
     1
 90
        4
176
     1
 62
     7
176
     1
 62
   257
176
     1
 90
        1
176
     1
 90
        1
176
     1
 40
1.0
176
     1
 90
        0
176
     1
 62
   257
176
     1
 40
1.0
176
     1
 90
        1
176
     1
 90
        6
176
     1
 90
        2
176
     1
 62
     7
176
     1
 90
        5
176
     1
 90
        0
176
     1
 90
        0
176
     1
290
     0
176
     1
 90
        1
176
     1
 40
0.0
176
     1
 90
        0
176
     1
290
     1
176
     1
290
     1
176
     1
290
     0
176
     1
290
     0
176
     1
290
     0
176
     1
290
     0
176
     1
290
     0
176
     1
290
     0
176
     1
290
     0
176
     1
 90
       50
176
     1
 40
0.0
176
     1
 40
1.0
176
     1
 90
        0
176
     1
 62
    18
420
        0
176
     1
 90
       50
176
     1
 90
        3
176
     1
 62
     5
420
      255
176
     1
290
     0
176
     1
 90
       50
176
     1
 90
       50
176
     1
 90
       50
176
     1
290
     0
176
     1
 90
       50
176
     1
 62
   256
176
     0
 40
1.0
176
     0
 90
        2
176
     1
  1
strokes_ogs.tif
176
     1
290
     0
176
     1
 40
1.0
176
     1
 40
1.0
176
     1
  0
VISUALSTYLE
  5
2E
102
{ACAD_REACTORS
330
29
102
}
330
29
100
AcDbVisualStyle
  2
Basic
 70
     7
177
     3
291
     1
 70
    58
 90
        1
176
     1
 90
        0
176
     1
 90
        1
176
     1
 90
        0
176
     1
 40
0.6
176
     1
 40
30.0
176
     1
 62
     7
420
 16777215
176
     1
 90
        0
176
     1
 90
        4
176
     1
 62
     7
176
     1
 62
   257
176
     1
 90
        1
176
     1
 90
        1
176
     1
 40
1.0
176
     1
 90
        8
176
     1
 62
     7
176
     1
 40
1.0
176
     1
 90
        1
176
     1
 90
        6
176
     1
 90
        2
176
     1
 62
     7
176
     1
 90
        5
176
     1
 90
        0
176
     1
 90
        0
176
     1
290
     0
176
     1
 90
        1
176
     1
 40
0.0
176
     1
 90
        0
176
     1
290
     0
176
     1
290
     1
176
     1
290
     1
176
     1
290
     0
176
     1
290
     0
176
     1
290
     0
176
     1
290
     0
176
     1
290
     0
176
     1
290
     0
176
     1
 90
       50
176
     1
 40
0.0
176
     1
 40
1.0
176
     1
 90
        0
176
     1
 62
    18
420
        0
176
     1
 90
       50
176
     1
 90
        3
176
     1
 62
     5
420
      255
176
     1
290
     0
176
     1
 90
       50
176
     1
 90
       50
176
     1
 90
       50
176
     1
290
     0
176
     1
 90
       50
176
     1
 62
   256
176
     0
 40
1.0
176
     0
 90
        2
176
     1
  1
strokes_ogs.tif
176
     1
290
     0
176
     1
 40
1.0
176
     1
 40
1.0
176
     1
  0
VISUALSTYLE
  5
35
102
{ACAD_REACTORS
330
29
102
}
330
29
100
AcDbVisualStyle
  2
Brighten
 70
    12
177
     3
291
     1
 70
    58
 90
        2
176
     1
 90
        2
176
     1
 90
        0
176
     1
 90
        0
176
     1
 40
0.6
176
     1
 40
30.0
176
     1
 62
     7
420
 16777215
176
     1
 90
        1
176
     1
 90
        4
176
     1
 62
     7
176
     1
 62
   257
176
     1
 90
        1
176
     1
 90
        1
176
     1
 40
1.0
176
     1
 90
        8
176
     1
 62
     7
176
     1
 40
1.0
176
     1
 90
        1
176
     1
 90
        6
176
     1
 90
        2
176
     1
 62
     7
176
     1
 90
        5
176
     1
 90
        0
176
     1
 90
        0
176
     1
290
     0
176
     1
 90
        1
176
     1
 40
50.0
176
     1
 90
        0
176
     1
290
     0
176
     1
290
     1
176
     1
290
     1
176
     1
290
     0
176
     1
290
     0
176
     1
290
     0
176
     1
290
     0
176
     1
290
     0
176
     1
290
     0
176
     1
 90
       50
176
     1
 40
0.0
176
     1
 40
1.0
176
     1
 90
        0
176
     1
 62
    18
420
        0
176
     1
 90
       50
176
     1
 90
        3
176
     1
 62
     5
420
      255
176
     1
290
     0
176
     1
 90
       50
176
     1
 90
       50
176
     1
 90
       50
176
     1
290
     0
176
     1
 90
       50
176
     1
 62
   256
176
     0
 40
1.0
176
     0
 90
        2
176
     1
  1
strokes_ogs.tif
176
     1
290
     0
176
     1
 40
1.0
176
     1
 40
1.0
176
     1
  0
VISUALSTYLE
  5
39
102
{ACAD_REACTORS
330
29
102
}
330
29
100
AcDbVisualStyle
  2
ColorChange
 70
    16
177
     3
291
     1
 70
    58
 90
        2
176
     1
 90
        2
176
     1
 90
        3
176
     1
 90
        0
176
     1
 40
0.6
176
     1
 40
30.0
176
     1
 62
     8
420
  8421504
176
     1
 90
        1
176
     1
 90
        4
176
     1
 62
     7
176
     1
 62
   257
176
     1
 90
        1
176
     1
 90
        1
176
     1
 40
1.0
176
     1
 90
        8
176
     1
 62
     8
420
  8421504
176
     1
 40
1.0
176
     1
 90
        1
176
     1
 90
        6
176
     1
 90
        2
176
     1
 62
     7
176
     1
 90
        5
176
     1
 90
        0
176
     1
 90
        0
176
     1
290
     0
176
     1
 90
        1
176
     1
 40
0.0
176
     1
 90
        0
176
     1
290
     0
176
     1
290
     1
176
     1
290
     1
176
     1
290
     0
176
     1
290
     0
176
     1
290
     0
176
     1
290
     0
176
     1
290
     0
176
     1
290
     0
176
     1
 90
       50
176
     1
 40
0.0
176
     1
 40
1.0
176
     1
 90
        0
176
     1
 62
    18
420
        0
176
     1
 90
       50
176
     1
 90
        3
176
     1
 62
     5
420
      255
176
     1
290
     0
176
     1
 90
       50
176
     1
 90
       50
176
     1
 90
       50
176
     1
290
     0
176
     1
 90
       50
176
     1
 62
   256
176
     0
 40
1.0
176
     0
 90
        2
176
     1
  1
strokes_ogs.tif
176
     1
290
     0
176
     1
 40
1.0
176
     1
 40
1.0
176
     1
  0
VISUALSTYLE
  5
32
102
{ACAD_REACTORS
330
29
102
}
330
29
100
AcDbVisualStyle
  2
Conceptual
 70
     9
177
     3
291
     0
 70
    58
 90
        3
176
     1
 90
        2
176
     1
 90
        0
176
     1
 90
        0
176
     1
 40
0.6
176
     1
 40
30.0
176
     1
 62
     7
420
 16777215
176
     1
 90
        2
176
     1
 90
        2
176
     1
 62
     7
176
     1
 62
   257
176
     1
 90
        1
176
     1
 90
        1
176
     1
 40
179.0
176
     1
 90
        8
176
     1
 62
     7
176
     1
 40
1.0
176
     1
 90
        1
176
     1
 90
        6
176
     1
 90
        2
176
     1
 62
     7
176
     1
 90
        3
176
     1
 90
        0
176
     1
 90
        0
176
     1
290
     0
176
     1
 90
        1
176
     1
 40
0.0
176
     1
 90
        0
176
     1
290
     0
176
     1
290
     1
176
     1
290
     1
176
     1
290
     0
176
     1
290
     0
176
     1
290
     0
176
     1
290
     0
176
     1
290
     0
176
     1
290
     0
176
     1
 90
       50
176
     1
 40
0.0
176
     1
 40
1.0
176
     1
 90
        0
176
     1
 62
    18
420
        0
176
     1
 90
       50
176
     1
 90
        3
176
     1
 62
     5
420
      255
176
     1
290
     0
176
     1
 90
       50
176
     1
 90
       50
176
     1
 90
       50
176
     1
290
     0
176
     1
 90
       50
176
     1
 62
   256
176
     0
 40
1.0
176
     0
 90
        2
176
     1
  1
strokes_ogs.tif
176
     1
290
     0
176
     1
 40
1.0
176
     1
 40
1.0
176
     1
  0
VISUALSTYLE
  5
34
102
{ACAD_REACTORS
330
29
102
}
330
29
100
AcDbVisualStyle
  2
Dim
 70
    11
177
     3
291
     1
 70
    58
 90
        2
176
     1
 90
        2
176
     1
 90
        0
176
     1
 90
        0
176
     1
 40
0.6
176
     1
 40
30.0
176
     1
 62
     7
420
 16777215
176
     1
 90
        1
176
     1
 90
        4
176
     1
 62
     7
176
     1
 62
   257
176
     1
 90
        1
176
     1
 90
        1
176
     1
 40
1.0
176
     1
 90
        8
176
     1
 62
     7
176
     1
 40
1.0
176
     1
 90
        1
176
     1
 90
        6
176
     1
 90
        2
176
     1
 62
     7
176
     1
 90
        5
176
     1
 90
        0
176
     1
 90
        0
176
     1
290
     0
176
     1
 90
        1
176
     1
 40
-50.0
176
     1
 90
        0
176
     1
290
     0
176
     1
290
     1
176
     1
290
     1
176
     1
290
     0
176
     1
290
     0
176
     1
290
     0
176
     1
290
     0
176
     1
290
     0
176
     1
290
     0
176
     1
 90
       50
176
     1
 40
0.0
176
     1
 40
1.0
176
     1
 90
        0
176
     1
 62
    18
420
        0
176
     1
 90
       50
176
     1
 90
        3
176
     1
 62
     5
420
      255
176
     1
290
     0
176
     1
 90
       50
176
     1
 90
       50
176
     1
 90
       50
176
     1
290
     0
176
     1
 90
       50
176
     1
 62
   256
176
     0
 40
1.0
176
     0
 90
        2
176
     1
  1
strokes_ogs.tif
176
     1
290
     0
176
     1
 40
1.0
176
     1
 40
1.0
176
     1
  0
VISUALSTYLE
  5
41
102
{ACAD_REACTORS
330
29
102
}
330
29
100
AcDbVisualStyle
  2
EdgeColorOff
 70
    22
177
     3
291
     1
 70
    58
 90
        2
176
     0
 90
        2
176
     0
 90
        0
176
     0
 90
        0
176
     0
 40
0.6
176
     0
 40
30.0
176
     0
 62
     7
420
 16777215
176
     0
 90
        1
176
     0
 90
        4
176
     0
 62
     7
176
     0
 62
   257
176
     0
 90
        1
176
     0
 90
        1
176
     0
 40
1.0
176
     0
 90
        8
176
     2
 62
     7
176
     0
 40
1.0
176
     0
 90
        1
176
     0
 90
        6
176
     0
 90
        2
176
     0
 62
     7
176
     0
 90
        5
176
     0
 90
        0
176
     0
 90
        0
176
     0
290
     0
176
     0
 90
        1
176
     0
 40
0.0
176
     0
 90
        0
176
     0
290
     0
176
     0
290
     1
176
     0
290
     1
176
     0
290
     0
176
     0
290
     0
176
     0
290
     0
176
     0
290
     0
176
     0
290
     0
176
     0
290
     0
176
     0
 90
       50
176
     0
 40
0.0
176
     0
 40
1.0
176
     0
 90
        0
176
     0
 62
    18
420
        0
176
     0
 90
       50
176
     0
 90
        3
176
     0
 62
     5
420
      255
176
     0
290
     0
176
     0
 90
       50
176
     0
 90
       50
176
     0
 90
       50
176
     0
290
     0
176
     0
 90
       50
176
     0
 62
   256
176
     0
 40
1.0
176
     0
 90
        2
176
     0
  1
strokes_ogs.tif
176
     0
290
     0
176
     0
 40
1.0
176
     0
 40
1.0
176
     0
  0
VISUALSTYLE
  5
38
102
{ACAD_REACTORS
330
29
102
}
330
29
100
AcDbVisualStyle
  2
Facepattern
 70
    15
177
     3
291
     1
 70
    58
 90
        2
176
     1
 90
        2
176
     1
 90
        0
176
     1
 90
        0
176
     1
 40
0.6
176
     1
 40
30.0
176
     1
 62
     7
420
 16777215
176
     1
 90
        1
176
     1
 90
        4
176
     1
 62
     7
176
     1
 62
   257
176
     1
 90
        1
176
     1
 90
        1
176
     1
 40
1.0
176
     1
 90
        8
176
     1
 62
     7
176
     1
 40
1.0
176
     1
 90
        1
176
     1
 90
        6
176
     1
 90
        2
176
     1
 62
     7
176
     1
 90
        5
176
     1
 90
        0
176
     1
 90
        0
176
     1
290
     0
176
     1
 90
        1
176
     1
 40
0.0
176
     1
 90
        0
176
     1
290
     0
176
     1
290
     1
176
     1
290
     1
176
     1
290
     0
176
     1
290
     0
176
     1
290
     0
176
     1
290
     0
176
     1
290
     0
176
     1
290
     0
176
     1
 90
       50
176
     1
 40
0.0
176
     1
 40
1.0
176
     1
 90
        0
176
     1
 62
    18
420
        0
176
     1
 90
       50
176
     1
 90
        3
176
     1
 62
     5
420
      255
176
     1
290
     0
176
     1
 90
       50
176
     1
 90
       50
176
     1
 90
       50
176
     1
290
     0
176
     1
 90
       50
176
     1
 62
   256
176
     0
 40
1.0
176
     0
 90
        2
176
     1
  1
strokes_ogs.tif
176
     1
290
     0
176
     1
 40
1.0
176
     1
 40
1.0
176
     1
  0
VISUALSTYLE
  5
2A
102
{ACAD_REACTORS
330
29
102
}
330
29
100
AcDbVisualStyle
  2
Flat
 70
     0
177
     3
291
     1
 70
    58
 90
        2
176
     1
 90
        1
176
     1
 90
        1
176
     1
 90
        2
176
     1
 40
0.6
176
     1
 40
30.0
176
     1
 62
     7
420
 16777215
176
     1
 90
        0
176
     1
 90
        0
176
     1
 62
     7
176
     1
 62
   257
176
     1
 90
        1
176
     1
 90
        1
176
     1
 40
1.0
176
     1
 90
        8
176
     1
 62
     7
176
     1
 40
1.0
176
     1
 90
        1
176
     1
 90
        6
176
     1
 90
        2
176
     1
 62
     7
176
     1
 90
        5
176
     1
 90
        0
176
     1
 90
        0
176
     1
290
     0
176
     1
 90
       13
176
     1
 40
0.0
176
     1
 90
        0
176
     1
290
     0
176
     1
290
     1
176
     1
290
     1
176
     1
290
     0
176
     1
290
     0
176
     1
290
     0
176
     1
290
     0
176
     1
290
     0
176
     1
290
     0
176
     1
 90
       50
176
     1
 40
0.0
176
     1
 40
1.0
176
     1
 90
        0
176
     1
 62
    18
420
        0
176
     1
 90
       50
176
     1
 90
        3
176
     1
 62
     5
420
      255
176
     1
290
     0
176
     1
 90
       50
176
     1
 90
       50
176
     1
 90
       50
176
     1
290
     0
176
     1
 90
       50
176
     1
 62
   256
176
     0
 40
1.0
176
     0
 90
        2
176
     1
  1
strokes_ogs.tif
176
     1
290
     0
176
     1
 40
1.0
176
     1
 40
1.0
176
     1
  0
VISUALSTYLE
  5
2B
102
{ACAD_REACTORS
330
29
102
}
330
29
100
AcDbVisualStyle
  2
FlatWithEdges
 70
     1
177
     3
291
     1
 70
    58
 90
        2
176
     1
 90
        1
176
     1
 90
        1
176
     1
 90
        2
176
     1
 40
0.6
176
     1
 40
30.0
176
     1
 62
     7
420
 16777215
176
     1
 90
        1
176
     1
 90
        0
176
     1
 62
     7
176
     1
 62
   257
176
     1
 90
        1
176
     1
 90
        1
176
     1
 40
1.0
176
     1
 90
        0
176
     1
 62
   257
176
     1
 40
1.0
176
     1
 90
        1
176
     1
 90
        6
176
     1
 90
        2
176
     1
 62
     7
176
     1
 90
        5
176
     1
 90
        0
176
     1
 90
        0
176
     1
290
     0
176
     1
 90
       13
176
     1
 40
0.0
176
     1
 90
        0
176
     1
290
     0
176
     1
290
     1
176
     1
290
     1
176
     1
290
     0
176
     1
290
     0
176
     1
290
     0
176
     1
290
     0
176
     1
290
     0
176
     1
290
     0
176
     1
 90
       50
176
     1
 40
0.0
176
     1
 40
1.0
176
     1
 90
        0
176
     1
 62
    18
420
        0
176
     1
 90
       50
176
     1
 90
        3
176
     1
 62
     5
420
      255
176
     1
290
     0
176
     1
 90
       50
176
     1
 90
       50
176
     1
 90
       50
176
     1
290
     0
176
     1
 90
       50
176
     1
 62
   256
176
     0
 40
1.0
176
     0
 90
        2
176
     1
  1
strokes_ogs.tif
176
     1
290
     0
176
     1
 40
1.0
176
     1
 40
1.0
176
     1
  0
VISUALSTYLE
  5
2C
102
{ACAD_REACTORS
330
29
102
}
330
29
100
AcDbVisualStyle
  2
Gouraud
 70
     2
177
     3
291
     1
 70
    58
 90
        2
176
     1
 90
        2
176
     1
 90
        1
176
     1
 90
        2
176
     1
 40
0.6
176
     1
 40
30.0
176
     1
 62
     7
420
 16777215
176
     1
 90
        0
176
     1
 90
        0
176
     1
 62
     7
176
     1
 62
   257
176
     1
 90
        1
176
     1
 90
        1
176
     1
 40
1.0
176
     1
 90
        0
176
     1
 62
     7
176
     1
 40
1.0
176
     1
 90
        1
176
     1
 90
        6
176
     1
 90
        2
176
     1
 62
     7
176
     1
 90
        5
176
     1
 90
        0
176
     1
 90
        0
176
     1
290
     0
176
     1
 90
       13
176
     1
 40
0.0
176
     1
 90
        0
176
     1
290
     0
176
     1
290
     1
176
     1
290
     1
176
     1
290
     0
176
     1
290
     0
176
     1
290
     0
176
     1
290
     0
176
     1
290
     0
176
     1
290
     0
176
     1
 90
       50
176
     1
 40
0.0
176
     1
 40
1.0
176
     1
 90
        0
176
     1
 62
    18
420
        0
176
     1
 90
       50
176
     1
 90
        3
176
     1
 62
     5
420
      255
176
     1
290
     0
176
     1
 90
       50
176
     1
 90
       50
176
     1
 90
       50
176
     1
290
     0
176
     1
 90
       50
176
     1
 62
   256
176
     0
 40
1.0
176
     0
 90
        2
176
     1
  1
strokes_ogs.tif
176
     1
290
     0
176
     1
 40
1.0
176
     1
 40
1.0
176
     1
  0
VISUALSTYLE
  5
2D
102
{ACAD_REACTORS
330
29
102
}
330
29
100
AcDbVisualStyle
  2
GouraudWithEdges
 70
     3
177
     3
291
     1
 70
    58
 90
        2
176
     1
 90
        2
176
     1
 90
        1
176
     1
 90
        2
176
     1
 40
0.6
176
     1
 40
30.0
176
     1
 62
     7
420
 16777215
176
     1
 90
        1
176
     1
 90
        0
176
     1
 62
     7
176
     1
 62
   257
176
     1
 90
        1
176
     1
 90
        1
176
     1
 40
1.0
176
     1
 90
        0
176
     1
 62
   257
176
     1
 40
1.0
176
     1
 90
        1
176
     1
 90
        6
176
     1
 90
        2
176
     1
 62
     7
176
     1
 90
        5
176
     1
 90
        0
176
     1
 90
        0
176
     1
290
     0
176
     1
 90
       13
176
     1
 40
0.0
176
     1
 90
        0
176
     1
290
     0
176
     1
290
     1
176
     1
290
     1
176
     1
290
     0
176
     1
290
     0
176
     1
290
     0
176
     1
290
     0
176
     1
290
     0
176
     1
290
     0
176
     1
 90
       50
176
     1
 40
0.0
176
     1
 40
1.0
176
     1
 90
        0
176
     1
 62
    18
420
        0
176
     1
 90
       50
176
     1
 90
        3
176
     1
 62
     5
420
      255
176
     1
290
     0
176
     1
 90
       50
176
     1
 90
       50
176
     1
 90
       50
176
     1
290
     0
176
     1
 90
       50
176
     1
 62
   256
176
     0
 40
1.0
176
     0
 90
        2
176
     1
  1
strokes_ogs.tif
176
     1
290
     0
176
     1
 40
1.0
176
     1
 40
1.0
176
     1
  0
VISUALSTYLE
  5
31
102
{ACAD_REACTORS
330
29
102
}
330
29
100
AcDbVisualStyle
  2
Hidden
 70
     6
177
     3
291
     0
 70
    58
 90
        1
176
     1
 90
        2
176
     1
 90
        2
176
     1
 90
        0
176
     1
 40
0.6
176
     1
 40
30.0
176
     1
 62
     7
420
 16777215
176
     1
 90
        2
176
     1
 90
        2
176
     1
 62
     7
176
     1
 62
   257
176
     1
 90
        2
176
     1
 90
        1
176
     1
 40
40.0
176
     1
 90
        0
176
     1
 62
   257
176
     1
 40
1.0
176
     1
 90
        1
176
     1
 90
        6
176
     1
 90
        2
176
     1
 62
     7
176
     1
 90
        3
176
     1
 90
        0
176
     1
 90
        0
176
     1
290
     0
176
     1
 90
        1
176
     1
 40
0.0
176
     1
 90
        0
176
     1
290
     0
176
     1
290
     1
176
     1
290
     1
176
     1
290
     0
176
     1
290
     0
176
     1
290
     0
176
     1
290
     0
176
     1
290
     0
176
     1
290
     0
176
     1
 90
       50
176
     1
 40
0.0
176
     1
 40
1.0
176
     1
 90
        0
176
     1
 62
    18
420
        0
176
     1
 90
       50
176
     1
 90
        3
176
     1
 62
     5
420
      255
176
     1
290
     0
176
     1
 90
       50
176
     1
 90
       50
176
     1
 90
       50
176
     1
290
     0
176
     1
 90
       50
176
     1
 62
   256
176
     0
 40
1.0
176
     0
 90
        2
176
     1
  1
strokes_ogs.tif
176
     1
290
     0
176
     1
 40
1.0
176
     1
 40
1.0
176
     1
  0
VISUALSTYLE
  5
3F
102
{ACAD_REACTORS
330
29
102
}
330
29
100
AcDbVisualStyle
  2
JitterOff
 70
    20
177
     3
291
     1
 70
    58
 90
        2
176
     0
 90
        2
176
     0
 90
        0
176
     0
 90
        0
176
     0
 40
0.6
176
     0
 40
30.0
176
     0
 62
     7
420
 16777215
176
     0
 90
        1
176
     0
 90
        4
176
     0
 62
     7
176
     0
 62
   257
176
     0
 90
        1
176
     0
 90
        1
176
     0
 40
1.0
176
     0
 90
       10
176
     2
 62
     7
176
     0
 40
1.0
176
     0
 90
        1
176
     0
 90
        6
176
     0
 90
        2
176
     0
 62
     7
176
     0
 90
        5
176
     0
 90
        0
176
     0
 90
        0
176
     0
290
     0
176
     0
 90
        1
176
     0
 40
0.0
176
     0
 90
        0
176
     0
290
     0
176
     0
290
     1
176
     0
290
     1
176
     0
290
     0
176
     0
290
     0
176
     0
290
     0
176
     0
290
     0
176
     0
290
     0
176
     0
290
     0
176
     0
 90
       50
176
     0
 40
0.0
176
     0
 40
1.0
176
     0
 90
        0
176
     0
 62
    18
420
        0
176
     0
 90
       50
176
     0
 90
        3
176
     0
 62
     5
420
      255
176
     0
290
     0
176
     0
 90
       50
176
     0
 90
       50
176
     0
 90
       50
176
     0
290
     0
176
     0
 90
       50
176
     0
 62
   256
176
     0
 40
1.0
176
     0
 90
        2
176
     0
  1
strokes_ogs.tif
176
     0
290
     0
176
     0
 40
1.0
176
     0
 40
1.0
176
     0
  0
VISUALSTYLE
  5
37
102
{ACAD_REACTORS
330
29
102
}
330
29
100
AcDbVisualStyle
  2
Linepattern
 70
    14
177
     3
291
     1
 70
    58
 90
        2
176
     1
 90
        2
176
     1
 90
        0
176
     1
 90
        0
176
     1
 40
0.6
176
     1
 40
30.0
176
     1
 62
     7
420
 16777215
176
     1
 90
        1
176
     1
 90
        4
176
     1
 62
     7
176
     1
 62
   257
176
     1
 90
        7
176
     1
 90
        7
176
     1
 40
1.0
176
     1
 90
        8
176
     1
 62
     7
176
     1
 40
1.0
176
     1
 90
        1
176
     1
 90
        6
176
     1
 90
        2
176
     1
 62
     7
176
     1
 90
        5
176
     1
 90
        0
176
     1
 90
        0
176
     1
290
     0
176
     1
 90
        1
176
     1
 40
0.0
176
     1
 90
        0
176
     1
290
     0
176
     1
290
     1
176
     1
290
     1
176
     1
290
     0
176
     1
290
     0
176
     1
290
     0
176
     1
290
     0
176
     1
290
     0
176
     1
290
     0
176
     1
 90
       50
176
     1
 40
0.0
176
     1
 40
1.0
176
     1
 90
        0
176
     1
 62
    18
420
        0
176
     1
 90
       50
176
     1
 90
        3
176
     1
 62
     5
420
      255
176
     1
290
     0
176
     1
 90
       50
176
     1
 90
       50
176
     1
 90
       50
176
     1
290
     0
176
     1
 90
       50
176
     1
 62
   256
176
     0
 40
1.0
176
     0
 90
        2
176
     1
  1
strokes_ogs.tif
176
     1
290
     0
176
     1
 40
1.0
176
     1
 40
1.0
176
     1
  0
VISUALSTYLE
  5
40
102
{ACAD_REACTORS
330
29
102
}
330
29
100
AcDbVisualStyle
  2
OverhangOff
 70
    21
177
     3
291
     1
 70
    58
 90
        2
176
     0
 90
        2
176
     0
 90
        0
176
     0
 90
        0
176
     0
 40
0.6
176
     0
 40
30.0
176
     0
 62
     7
420
 16777215
176
     0
 90
        1
176
     0
 90
        4
176
     0
 62
     7
176
     0
 62
   257
176
     0
 90
        1
176
     0
 90
        1
176
     0
 40
1.0
176
     0
 90
        9
176
     2
 62
     7
176
     0
 40
1.0
176
     0
 90
        1
176
     0
 90
        6
176
     0
 90
        2
176
     0
 62
     7
176
     0
 90
        5
176
     0
 90
        0
176
     0
 90
        0
176
     0
290
     0
176
     0
 90
        1
176
     0
 40
0.0
176
     0
 90
        0
176
     0
290
     0
176
     0
290
     1
176
     0
290
     1
176
     0
290
     0
176
     0
290
     0
176
     0
290
     0
176
     0
290
     0
176
     0
290
     0
176
     0
290
     0
176
     0
 90
       50
176
     0
 40
0.0
176
     0
 40
1.0
176
     0
 90
        0
176
     0
 62
    18
420
        0
176
     0
 90
       50
176
     0
 90
        3
176
     0
 62
     5
420
      255
176
     0
290
     0
176
     0
 90
       50
176
     0
 90
       50
176
     0
 90
       50
176
     0
290
     0
176
     0
 90
       50
176
     0
 62
   256
176
     0
 40
1.0
176
     0
 90
        2
176
     0
  1
strokes_ogs.tif
176
     0
290
     0
176
     0
 40
1.0
176
     0
 40
1.0
176
     0
  0
VISUALSTYLE
  5
33
102
{ACAD_REACTORS
330
29
102
}
330
29
100
AcDbVisualStyle
  2
Realistic
 70
     8
177
     3
291
     0
 70
    58
 90
        2
176
     1
 90
        3
176
     1
 90
        0
176
     1
 90
        2
176
     1
 40
0.6
176
     1
 40
30.0
176
     1
 62
     7
420
 16777215
176
     1
 90
        0
176
     1
 90
        0
176
     1
 62
     7
176
     1
 62
   257
176
     1
 90
        1
176
     1
 90
        1
176
     1
 40
1.0
176
     1
 90
        8
176
     1
 62
   257
176
     1
 40
1.0
176
     1
 90
        1
176
     1
 90
        6
176
     1
 90
        2
176
     1
 62
     7
176
     1
 90
        3
176
     1
 90
        0
176
     1
 90
        0
176
     1
290
     0
176
     1
 90
       13
176
     1
 40
0.0
176
     1
 90
        0
176
     1
290
     0
176
     1
290
     1
176
     1
290
     1
176
     1
290
     0
176
     1
290
     0
176
     1
290
     0
176
     1
290
     0
176
     1
290
     0
176
     1
290
     0
176
     1
 90
       50
176
     1
 40
0.0
176
     1
 40
1.0
176
     1
 90
        0
176
     1
 62
    18
420
        0
176
     1
 90
       50
176
     1
 90
        3
176
     1
 62
     5
420
      255
176
     1
290
     0
176
     1
 90
       50
176
     1
 90
       50
176
     1
 90
       50
176
     1
290
     0
176
     1
 90
       50
176
     1
 62
   256
176
     0
 40
1.0
176
     0
 90
        2
176
     1
  1
strokes_ogs.tif
176
     1
290
     0
176
     1
 40
1.0
176
     1
 40
1.0
176
     1
  0
VISUALSTYLE
  5
3E
102
{ACAD_REACTORS
330
29
102
}
330
29
100
AcDbVisualStyle
  2
Shaded
 70
    27
177
     3
291
     0
 70
    58
 90
        2
176
     1
 90
        2
176
     1
 90
        1
176
     1
 90
        2
176
     1
 40
0.6
176
     1
 40
30.0
176
     1
 62
     7
420
 16777215
176
     1
 90
        0
176
     1
 90
        4
176
     1
 62
     7
176
     1
 62
   257
176
     1
 90
        1
176
     1
 90
        1
176
     1
 40
1.0
176
     1
 90
        8
176
     1
 62
   257
176
     1
 40
1.0
176
     1
 90
        1
176
     1
 90
        6
176
     1
 90
        2
176
     1
 62
     8
420
  7895160
176
     1
 90
        3
176
     1
 90
        0
176
     1
 90
        0
176
     1
290
     0
176
     1
 90
        5
176
     1
 40
0.0
176
     1
 90
        0
176
     1
290
     0
176
     1
290
     1
176
     1
290
     1
176
     1
290
     0
176
     1
290
     0
176
     1
290
     0
176
     1
290
     0
176
     1
290
     0
176
     1
290
     0
176
     1
 90
       50
176
     1
 40
0.0
176
     1
 40
1.0
176
     1
 90
        0
176
     1
 62
    18
420
        0
176
     1
 90
       50
176
     1
 90
        3
176
     1
 62
     5
420
      255
176
     1
290
     0
176
     1
 90
       50
176
     1
 90
       50
176
     1
 90
       50
176
     1
290
     0
176
     1
 90
       50
176
     1
 62
   256
176
     0
 40
1.0
176
     0
 90
        2
176
     1
  1
strokes_ogs.tif
176
     1
290
     0
176
     1
 40
1.0
176
     1
 40
1.0
176
     1
  0
VISUALSTYLE
  5
3D
102
{ACAD_REACTORS
330
29
102
}
330
29
100
AcDbVisualStyle
  2
Shaded with edges
 70
    26
177
     3
291
     0
 70
    58
 90
        2
176
     1
 90
        2
176
     1
 90
        1
176
     1
 90
        2
176
     1
 40
0.6
176
     1
 40
30.0
176
     1
 62
     7
420
 16777215
176
     1
 90
        1
176
     1
 90
       10
176
     1
 62
     7
176
     1
 62
   257
176
     1
 90
        2
176
     1
 90
        1
176
     1
 40
1.0
176
     1
 90
        8
176
     1
 62
   257
176
     1
 40
1.0
176
     1
 90
        1
176
     1
 90
        6
176
     1
 90
        2
176
     1
 62
     7
176
     1
 90
        3
176
     1
 90
        0
176
     1
 90
        0
176
     1
290
     0
176
     1
 90
        5
176
     1
 40
0.0
176
     1
 90
        0
176
     1
290
     0
176
     1
290
     1
176
     1
290
     1
176
     1
290
     0
176
     1
290
     0
176
     1
290
     0
176
     1
290
     0
176
     1
290
     0
176
     1
290
     0
176
     1
 90
       50
176
     1
 40
0.0
176
     1
 40
1.0
176
     1
 90
        0
176
     1
 62
    18
420
        0
176
     1
 90
       50
176
     1
 90
        3
176
     1
 62
     5
420
      255
176
     1
290
     0
176
     1
 90
       50
176
     1
 90
       50
176
     1
 90
       50
176
     1
290
     0
176
     1
 90
       50
176
     1
 62
   256
176
     0
 40
1.0
176
     0
 90
        2
176
     1
  1
strokes_ogs.tif
176
     1
290
     0
176
     1
 40
1.0
176
     1
 40
1.0
176
     1
  0
VISUALSTYLE
  5
3A
102
{ACAD_REACTORS
330
29
102
}
330
29
100
AcDbVisualStyle
  2
Shades of Gray
 70
    23
177
     3
291
     0
 70
    58
 90
        2
176
     1
 90
        2
176
     1
 90
        3
176
     1
 90
        0
176
     1
 40
0.6
176
     1
 40
30.0
176
     1
 62
     7
420
 16777215
176
     1
 90
        2
176
     1
 90
        2
176
     1
 62
     7
176
     1
 62
     7
176
     1
 90
        1
176
     1
 90
        1
176
     1
 40
40.0
176
     1
 90
        8
176
     1
 62
     7
176
     1
 40
1.0
176
     1
 90
        1
176
     1
 90
        6
176
     1
 90
        2
176
     1
 62
     7
176
     1
 90
        3
176
     1
 90
        0
176
     1
 90
        0
176
     1
290
     0
176
     1
 90
        1
176
     1
 40
0.0
176
     1
 90
        0
176
     1
290
     0
176
     1
290
     1
176
     1
290
     1
176
     1
290
     0
176
     1
290
     0
176
     1
290
     0
176
     1
290
     0
176
     1
290
     0
176
     1
290
     0
176
     1
 90
       50
176
     1
 40
0.0
176
     1
 40
1.0
176
     1
 90
        0
176
     1
 62
    18
420
        0
176
     1
 90
       50
176
     1
 90
        3
176
     1
 62
     5
420
      255
176
     1
290
     0
176
     1
 90
       50
176
     1
 90
       50
176
     1
 90
       50
176
     1
290
     0
176
     1
 90
       50
176
     1
 62
   256
176
     0
 40
1.0
176
     0
 90
        2
176
     1
  1
strokes_ogs.tif
176
     1
290
     0
176
     1
 40
1.0
176
     1
 40
1.0
176
     1
  0
VISUALSTYLE
  5
3B
102
{ACAD_REACTORS
330
29
102
}
330
29
100
AcDbVisualStyle
  2
Sketchy
 70
    24
177
     3
291
     0
 70
    58
 90
        1
176
     1
 90
        2
176
     1
 90
        2
176
     1
 90
        0
176
     1
 40
0.6
176
     1
 40
30.0
176
     1
 62
     7
420
 16777215
176
     1
 90
        2
176
     1
 90
        2
176
     1
 62
     7
176
     1
 62
     7
176
     1
 90
        1
176
     1
 90
        1
176
     1
 40
40.0
176
     1
 90
       11
176
     1
 62
     7
176
     1
 40
1.0
176
     1
 90
        1
176
     1
 90
        6
176
     1
 90
        2
176
     1
 62
     7
176
     1
 90
        6
176
     1
 90
        0
176
     1
 90
        0
176
     1
290
     0
176
     1
 90
        1
176
     1
 40
0.0
176
     1
 90
        0
176
     1
290
     0
176
     1
290
     1
176
     1
290
     1
176
     1
290
     0
176
     1
290
     0
176
     1
290
     0
176
     1
290
     0
176
     1
290
     0
176
     1
290
     0
176
     1
 90
       50
176
     1
 40
0.0
176
     1
 40
1.0
176
     1
 90
        0
176
     1
 62
    18
420
        0
176
     1
 90
       50
176
     1
 90
        3
176
     1
 62
     5
420
      255
176
     1
290
     0
176
     1
 90
       50
176
     1
 90
       50
176
     1
 90
       50
176
     1
290
     0
176
     1
 90
       50
176
     1
 62
   256
176
     0
 40
1.0
176
     0
 90
        2
176
     1
  1
strokes_ogs.tif
176
     1
290
     0
176
     1
 40
1.0
176
     1
 40
1.0
176
     1
  0
VISUALSTYLE
  5
36
102
{ACAD_REACTORS
330
29
102
}
330
29
100
AcDbVisualStyle
  2
Thicken
 70
    13
177
     3
291
     1
 70
    58
 90
        2
176
     1
 90
        2
176
     1
 90
        0
176
     1
 90
        0
176
     1
 40
0.6
176
     1
 40
30.0
176
     1
 62
     7
420
 16777215
176
     1
 90
        1
176
     1
 90
        4
176
     1
 62
     7
176
     1
 62
   257
176
     1
 90
        1
176
     1
 90
        1
176
     1
 40
1.0
176
     1
 90
       12
176
     1
 62
     7
176
     1
 40
1.0
176
     1
 90
        1
176
     1
 90
        6
176
     1
 90
        2
176
     1
 62
     7
176
     1
 90
        5
176
     1
 90
        0
176
     1
 90
        0
176
     1
290
     0
176
     1
 90
        1
176
     1
 40
0.0
176
     1
 90
        0
176
     1
290
     0
176
     1
290
     1
176
     1
290
     1
176
     1
290
     0
176
     1
290
     0
176
     1
290
     0
176
     1
290
     0
176
     1
290
     0
176
     1
290
     0
176
     1
 90
       50
176
     1
 40
0.0
176
     1
 40
1.0
176
     1
 90
        0
176
     1
 62
    18
420
        0
176
     1
 90
       50
176
     1
 90
        3
176
     1
 62
     5
420
      255
176
     1
290
     0
176
     1
 90
       50
176
     1
 90
       50
176
     1
 90
       50
176
     1
290
     0
176
     1
 90
       50
176
     1
 62
   256
176
     0
 40
1.0
176
     0
 90
        2
176
     1
  1
strokes_ogs.tif
176
     1
290
     0
176
     1
 40
1.0
176
     1
 40
1.0
176
     1
  0
VISUALSTYLE
  5
30
102
{ACAD_REACTORS
330
29
102
}
330
29
100
AcDbVisualStyle
  2
Wireframe
 70
     5
177
     3
291
     0
 70
    58
 90
        0
176
     1
 90
        2
176
     1
 90
        0
176
     1
 90
        0
176
     1
 40
0.6
176
     1
 40
30.0
176
     1
 62
     7
420
 16777215
176
     1
 90
        1
176
     1
 90
        4
176
     1
 62
     7
176
     1
 62
   257
176
     1
 90
        1
176
     1
 90
        1
176
     1
 40
1.0
176
     1
 90
        0
176
     1
 62
   257
176
     1
 40
1.0
176
     1
 90
        1
176
     1
 90
        6
176
     1
 90
        2
176
     1
 62
     7
176
     1
 90
        3
176
     1
 90
        0
176
     1
 90
        0
176
     1
290
     0
176
     1
 90
        1
176
     1
 40
0.0
176
     1
 90
        0
176
     1
290
     0
176
     1
290
     1
176
     1
290
     1
176
     1
290
     0
176
     1
290
     0
176
     1
290
     0
176
     1
290
     0
176
     1
290
     0
176
     1
290
     0
176
     1
 90
       50
176
     1
 40
0.0
176
     1
 40
1.0
176
     1
 90
        0
176
     1
 62
    18
420
        0
176
     1
 90
       50
176
     1
 90
        3
176
     1
 62
     5
420
      255
176
     1
290
     0
176
     1
 90
       50
176
     1
 90
       50
176
     1
 90
       50
176
     1
290
     0
176
     1
 90
       50
176
     1
 62
   256
176
     0
 40
1.0
176
     0
 90
        2
176
     1
  1
strokes_ogs.tif
176
     1
290
     0
176
     1
 40
1.0
176
     1
 40
1.0
176
     1
  0
VISUALSTYLE
  5
3C
102
{ACAD_REACTORS
330
29
102
}
330
29
100
AcDbVisualStyle
  2
X-Ray
 70
    25
177
     3
291
     0
 70
    58
 90
        2
176
     1
 90
        2
176
     1
 90
        1
176
     1
 90
        1
176
     1
 40
0.5
176
     1
 40
30.0
176
     1
 62
     7
420
 16777215
176
     1
 90
        1
176
     1
 90
        0
176
     1
 62
     7
176
     1
 62
   257
176
     1
 90
        1
176
     1
 90
        1
176
     1
 40
1.0
176
     1
 90
        8
176
     1
 62
     7
176
     1
 40
1.0
176
     1
 90
        1
176
     1
 90
        6
176
     1
 90
        2
176
     1
 62
     7
176
     1
 90
        3
176
     1
 90
        0
176
     1
 90
        0
176
     1
290
     0
176
     1
 90
       13
176
     1
 40
0.0
176
     1
 90
        0
176
     1
290
     0
176
     1
290
     1
176
     1
290
     1
176
     1
290
     0
176
     1
290
     0
176
     1
290
     0
176
     1
290
     0
176
     1
290
     0
176
     1
290
     0
176
     1
 90
       50
176
     1
 40
0.0
176
     1
 40
1.0
176
     1
 90
        0
176
     1
 62
    18
420
        0
176
     1
 90
       50
176
     1
 90
        3
176
     1
 62
     5
420
      255
176
     1
290
     0
176
     1
 90
       50
176
     1
 90
       50
176
     1
 90
       50
176
     1
290
     0
176
     1
 90
       50
176
     1
 62
   256
176
     0
 40
1.0
176
     0
 90
        2
176
     1
  1
strokes_ogs.tif
176
     1
290
     0
176
     1
 40
1.0
176
     1
 40
1.0
176
     1
  0
DICTIONARYVAR
  5
109
102
{ACAD_REACTORS
330
104
102
}
330
104
100
DictionaryVariables
280
     0
  1
1:1
  0
DICTIONARYVAR
  5
106
102
{ACAD_REACTORS
330
104
102
}
330
104
100
DictionaryVariables
280
     0
  1
STANDARD
  0
DICTIONARYVAR
  5
105
102
{ACAD_REACTORS
330
104
102
}
330
104
100
DictionaryVariables
280
     0
  1
STANDARD
  0
DICTIONARYVAR
  5
107
102
{ACAD_REACTORS
330
104
102
}
330
104
100
DictionaryVariables
280
     0
  1
Imperial24
  0
DICTIONARYVAR
  5
108
102
{ACAD_REACTORS
330
104
102
}
330
104
100
DictionaryVariables
280
     0
  1
Imperial24
  0
XRECORD
  5
FC
102
{ACAD_REACTORS
330
F9
102
}
330
F9
100
AcDbXrecord
280
     1
  1
BUILDING_ID
  1
Pressure_Balance_Rough_Valve-GROHE-35114000
  1
FLOOR_ID
  1
1884
  0
XRECORD
  5
FA
102
{ACAD_REACTORS
330
F9
102
}
330
F9
100
AcDbXrecord
280
     1
  1
-2000051
  1
Lines
  0
XRECORD
  5
FB
102
{ACAD_REACTORS
330
F9
102
}
330
F9
100
AcDbXrecord
280
     1
  1
-2000287
  1
<Beyond>
  0
DICTIONARY
  5
101
330
6B
100
AcDbDictionary
280
     1
281
     1
  3
ACAD_XREC_ROUNDTRIP
360
3BE
  0
DICTIONARY
  5
1A
330
19
100
AcDbDictionary
280
     1
281
     1
  3
BUMPTILE
360
1C
  3
DIFFUSETILE
360
1B
  3
OPACITYTILE
360
1F
  3
REFLECTIONTILE
360
1E
  3
REFRACTIONTILE
360
20
  3
SPECULARTILE
360
1D
  0
DICTIONARY
  5
12
330
11
100
AcDbDictionary
280
     1
281
     1
  3
BUMPTILE
360
14
  3
DIFFUSETILE
360
13
  3
OPACITYTILE
360
17
  3
REFLECTIONTILE
360
16
  3
REFRACTIONTILE
360
18
  3
SPECULARTILE
360
15
  0
DICTIONARY
  5
22
330
21
100
AcDbDictionary
280
     1
281
     1
  3
BUMPTILE
360
24
  3
DIFFUSETILE
360
23
  3
OPACITYTILE
360
27
  3
REFLECTIONTILE
360
26
  3
REFRACTIONTILE
360
28
  3
SPECULARTILE
360
25
  0
DICTIONARY
  5
FF
330
69
100
AcDbDictionary
280
     1
281
     1
  3
ACAD_XREC_ROUNDTRIP
360
3BD
  0
DICTIONARY
  5
3BB
330
65
100
AcDbDictionary
280
     1
281
     1
  3
ACAD_ROUNDTRIP_2008_TABLESTYLE_CELLSTYLEMAP
360
3BC
  0
XRECORD
  5
3BE
102
{ACAD_REACTORS
330
101
102
}
330
101
100
AcDbXrecord
280
     1
102
DISPLAYNAME
  1
Imperial24
102
FLAGS
 90
        0
  0
XRECORD
  5
1C
102
{ACAD_REACTORS
330
1A
102
}
330
1A
100
AcDbXrecord
280
     1
270
     1
271
     1
  0
XRECORD
  5
1B
102
{ACAD_REACTORS
330
1A
102
}
330
1A
100
AcDbXrecord
280
     1
270
     1
271
     1
  0
XRECORD
  5
1F
102
{ACAD_REACTORS
330
1A
102
}
330
1A
100
AcDbXrecord
280
     1
270
     1
271
     1
  0
XRECORD
  5
1E
102
{ACAD_REACTORS
330
1A
102
}
330
1A
100
AcDbXrecord
280
     1
270
     1
271
     1
  0
XRECORD
  5
20
102
{ACAD_REACTORS
330
1A
102
}
330
1A
100
AcDbXrecord
280
     1
270
     1
271
     1
  0
XRECORD
  5
1D
102
{ACAD_REACTORS
330
1A
102
}
330
1A
100
AcDbXrecord
280
     1
270
     1
271
     1
  0
XRECORD
  5
14
102
{ACAD_REACTORS
330
12
102
}
330
12
100
AcDbXrecord
280
     1
270
     1
271
     1
  0
XRECORD
  5
13
102
{ACAD_REACTORS
330
12
102
}
330
12
100
AcDbXrecord
280
     1
270
     1
271
     1
  0
XRECORD
  5
17
102
{ACAD_REACTORS
330
12
102
}
330
12
100
AcDbXrecord
280
     1
270
     1
271
     1
  0
XRECORD
  5
16
102
{ACAD_REACTORS
330
12
102
}
330
12
100
AcDbXrecord
280
     1
270
     1
271
     1
  0
XRECORD
  5
18
102
{ACAD_REACTORS
330
12
102
}
330
12
100
AcDbXrecord
280
     1
270
     1
271
     1
  0
XRECORD
  5
15
102
{ACAD_REACTORS
330
12
102
}
330
12
100
AcDbXrecord
280
     1
270
     1
271
     1
  0
XRECORD
  5
24
102
{ACAD_REACTORS
330
22
102
}
330
22
100
AcDbXrecord
280
     1
270
     1
271
     1
  0
XRECORD
  5
23
102
{ACAD_REACTORS
330
22
102
}
330
22
100
AcDbXrecord
280
     1
270
     1
271
     1
  0
XRECORD
  5
27
102
{ACAD_REACTORS
330
22
102
}
330
22
100
AcDbXrecord
280
     1
270
     1
271
     1
  0
XRECORD
  5
26
102
{ACAD_REACTORS
330
22
102
}
330
22
100
AcDbXrecord
280
     1
270
     1
271
     1
  0
XRECORD
  5
28
102
{ACAD_REACTORS
330
22
102
}
330
22
100
AcDbXrecord
280
     1
270
     1
271
     1
  0
XRECORD
  5
25
102
{ACAD_REACTORS
330
22
102
}
330
22
100
AcDbXrecord
280
     1
270
     1
271
     1
  0
XRECORD
  5
3BD
102
{ACAD_REACTORS
330
FF
102
}
330
FF
100
AcDbXrecord
280
     1
102
DISPLAYNAME
  1
Imperial24
102
FLAGS
 90
        0
  0
CELLSTYLEMAP
  5
3BC
102
{ACAD_REACTORS
330
3BB
102
}
330
3BB
100
AcDbCellStyleMap
 90
        3
300
CELLSTYLE
  1
TABLEFORMAT_BEGIN
 90
        5
170
     1
 91
        0
 92
    32768
 62
   257
 93
        1
300
CONTENTFORMAT
  1
CONTENTFORMAT_BEGIN
 90
        0
 91
        0
 92
      512
 93
        0
300

 40
0.0
140
1.0
 94
        5
 62
     0
340
55
144
0.25
309
CONTENTFORMAT_END
171
     0
 94
        0
309
TABLEFORMAT_END
  1
CELLSTYLE_BEGIN
 90
        1
 91
        1
300
_TITLE
309
CELLSTYLE_END
300
CELLSTYLE
  1
TABLEFORMAT_BEGIN
 90
        5
170
     1
 91
        0
 92
        0
 62
   257
 93
        1
300
CONTENTFORMAT
  1
CONTENTFORMAT_BEGIN
 90
        0
 91
        0
 92
      512
 93
        0
300

 40
0.0
140
1.0
 94
        5
 62
     0
340
55
144
0.18
309
CONTENTFORMAT_END
171
     0
 94
        0
309
TABLEFORMAT_END
  1
CELLSTYLE_BEGIN
 90
        2
 91
        1
300
_HEADER
309
CELLSTYLE_END
300
CELLSTYLE
  1
TABLEFORMAT_BEGIN
 90
        5
170
     1
 91
        0
 92
        0
 62
   257
 93
        1
300
CONTENTFORMAT
  1
CONTENTFORMAT_BEGIN
 90
        0
 91
        0
 92
      512
 93
        0
300

 40
0.0
140
1.0
 94
        2
 62
     0
340
55
144
0.18
309
CONTENTFORMAT_END
171
     0
 94
        0
309
TABLEFORMAT_END
  1
CELLSTYLE_BEGIN
 90
        3
 91
        2
300
_DATA
309
CELLSTYLE_END
  0
ENDSEC
  0
SECTION
  2
ACDSDATA
 70
     2
 71
     8
  0
ACDSSCHEMA
 90
        0
  1
AcDb_Thumbnail_Schema
  2
AcDbDs::ID
280
    10
 91
        8
  2
Thumbnail_Data
280
    15
 91
        0
101
ACDSRECORD
 95
        0
 90
        1
  2
AcDbDs::TreatedAsObjectData
280
     1
291
     1
101
ACDSRECORD
 95
        0
 90
        2
  2
AcDbDs::Legacy
280
     1
291
     1
101
ACDSRECORD
  1
AcDbDs::ID
 90
        3
  2
AcDs:Indexable
280
     1
291
     1
101
ACDSRECORD
  1
AcDbDs::ID
 90
        4
  2
AcDbDs::HandleAttribute
280
     7
282
     1
  0
ACDSSCHEMA
 90
        1
  1
AcDbDs::TreatedAsObjectDataSchema
  2
AcDbDs::TreatedAsObjectData
280
     1
 91
        0
  0
ACDSSCHEMA
 90
        2
  1
AcDbDs::LegacySchema
  2
AcDbDs::Legacy
280
     1
 91
        0
  0
ACDSSCHEMA
 90
        3
  1
AcDbDs::IndexedPropertySchema
  2
AcDs:Indexable
280
     1
 91
        0
  0
ACDSSCHEMA
 90
        4
  1
AcDbDs::HandleAttributeSchema
  2
AcDbDs::HandleAttribute
280
     7
 91
        1
284
     1
  0
ACDSRECORD
 90
        0
  2
AcDbDs::ID
280
    10
320
73
  2
Thumbnail_Data
280
    15
 94
     1232
310
89504E470D0A1A0A0000000D49484452000001000000007E0803000000FCF33F5100000300504C5445212830000000C8C8C80000000000000000000000000000000000000000000000000000330000660000990000CC0000FF0033000033330033660033990033CC0033FF0066000066330066660066990066CC0066FF0099
310
000099330099660099990099CC0099FF00CC0000CC3300CC6600CC9900CCCC00CCFF00FF0000FF3300FF6600FF9900FFCC00FFFF3300003300333300663300993300CC3300FF3333003333333333663333993333CC3333FF3366003366333366663366993366CC3366FF3399003399333399663399993399CC3399FF33CC00
310
33CC3333CC6633CC9933CCCC33CCFF33FF0033FF3333FF6633FF9933FFCC33FFFF6600006600336600666600996600CC6600FF6633006633336633666633996633CC6633FF6666006666336666666666996666CC6666FF6699006699336699666699996699CC6699FF66CC0066CC3366CC6666CC9966CCCC66CCFF66FF0066
310
FF3366FF6666FF9966FFCC66FFFF9900009900339900669900999900CC9900FF9933009933339933669933999933CC9933FF9966009966339966669966999966CC9966FF9999009999339999669999999999CC9999FF99CC0099CC3399CC6699CC9999CCCC99CCFF99FF0099FF3399FF6699FF9999FFCC99FFFFCC0000CC00
310
33CC0066CC0099CC00CCCC00FFCC3300CC3333CC3366CC3399CC33CCCC33FFCC6600CC6633CC6666CC6699CC66CCCC66FFCC9900CC9933CC9966CC9999CC99CCCC99FFCCCC00CCCC33CCCC66CCCC99CCCCCCCCCCFFCCFF00CCFF33CCFF66CCFF99CCFFCCCCFFFFFF0000FF0033FF0066FF0099FF00CCFF00FFFF3300FF3333
310
FF3366FF3399FF33CCFF33FFFF6600FF6633FF6666FF6699FF66CCFF66FFFF9900FF9933FF9966FF9999FF99CCFF99FFFFCC00FFCC33FFCC66FFCC99FFCCCCFFCCFFFFFF00FFFF33FFFF66FFFF99FFFFCCFFFFFF0000000D0D0D1A1A1A2828283535354343435050505D5D5D6B6B6B787878868686939393A1A1A1AEAEAEBB
310
BBBBC9C9C9D6D6D6E4E4E4F1F1F1FFFFFF000000000000000000000000000000000000000000000000000000000000B21171F6000001064944415478DAEDDA5B0A8330144041F7BFDFFB5F28D8464D825629C63BF3515044C821C6079D2600000000000000000000000000000000E07A514839FCF656BAE1A74B501F6C9A04
310
ED813E3E41ECF4DC00971E268000020820C048F7BF230186BD1B56EEE8714EF59C371EF97632477B76CFE3EB5C00DB7973D30E8D00EB5DB17EF0FDFE341B0D12A0BA7EF566C03CF288EDFEEE0CB8E74AF94B80C5859E2E401405DE1B0903CCC35E164812A05CFE93062816F2080104C816A02C90720D58DE0562CA1820F983
310
5059E0118FC2C7DF063F0536BB93BC0D7E5F02FB6FCC6304D8FB41A47A78EF14A37C1039B6549C3C440001041040000104183240E6FF8700000000C0BFBC00874B73EF5A57683F0000000049454E44AE4260820BA07C1DC0C3D86A032D206800C55782A91A102D0057FACF87B1254781F12FBE3F0F28D1E701E3899FEEFD8F
310
4C139014F6A9C06C006D27083B0F9E0F406DE1978D23FA62E07600EF96BFAF05931D97B77531EAD3905F0370A766D3E1B13801640F802382000000000000000000C0BF3D01F1A12677AB0A1DE70000000049454E44AE426082
  0
ENDSEC
  0
EOF
