  0
SECTION
  2
HEADER
  9
$ACADVER
  1
AC1027
  9
$ACADMAINTVER
 70
   105
  9
$DWGCODEPAGE
  3
ANSI_1252
  9
$LASTSAVEDBY
  1
mariapalcon
  9
$REQUIREDVERSIONS
160
                 0
  9
$INSBASE
 10
0.0
 20
0.0
 30
0.0
  9
$EXTMIN
 10
-8.66140342199726
 20
-3.000000000000334
 30
0.0
  9
$EXTMAX
 10
2.937500000000728
 20
5.376500477023376
 30
0.0
  9
$LIMMIN
 10
0.0
 20
0.0
  9
$LIMMAX
 10
12.0
 20
9.0
  9
$ORTHOMODE
 70
     0
  9
$REGENMODE
 70
     1
  9
$FILLMODE
 70
     1
  9
$QTEXTMODE
 70
     0
  9
$MIRRTEXT
 70
     0
  9
$LTSCALE
 40
1.0
  9
$ATTMODE
 70
     1
  9
$TEXTSIZE
 40
0.2
  9
$TRACEWID
 40
0.05
  9
$TEXTSTYLE
  7
Standard
  9
$CLAYER
  8
0
  9
$CELTYPE
  6
ByLayer
  9
$CECOLOR
 62
   256
  9
$CELTSCALE
 40
1.0
  9
$DISPSILH
 70
     0
  9
$DIMSCALE
 40
1.0
  9
$DIMASZ
 40
0.18
  9
$DIMEXO
 40
0.0625
  9
$DIMDLI
 40
0.38
  9
$DIMRND
 40
0.0
  9
$DIMDLE
 40
0.0
  9
$DIMEXE
 40
0.18
  9
$DIMTP
 40
0.0
  9
$DIMTM
 40
0.0
  9
$DIMTXT
 40
0.18
  9
$DIMCEN
 40
0.09
  9
$DIMTSZ
 40
0.0
  9
$DIMTOL
 70
     0
  9
$DIMLIM
 70
     0
  9
$DIMTIH
 70
     1
  9
$DIMTOH
 70
     1
  9
$DIMSE1
 70
     0
  9
$DIMSE2
 70
     0
  9
$DIMTAD
 70
     0
  9
$DIMZIN
 70
     0
  9
$DIMBLK
  1

  9
$DIMASO
 70
     1
  9
$DIMSHO
 70
     1
  9
$DIMPOST
  1

  9
$DIMAPOST
  1

  9
$DIMALT
 70
     0
  9
$DIMALTD
 70
     2
  9
$DIMALTF
 40
25.4
  9
$DIMLFAC
 40
1.0
  9
$DIMTOFL
 70
     0
  9
$DIMTVP
 40
0.0
  9
$DIMTIX
 70
     0
  9
$DIMSOXD
 70
     0
  9
$DIMSAH
 70
     0
  9
$DIMBLK1
  1

  9
$DIMBLK2
  1

  9
$DIMSTYLE
  2
Standard
  9
$DIMCLRD
 70
     0
  9
$DIMCLRE
 70
     0
  9
$DIMCLRT
 70
     0
  9
$DIMTFAC
 40
1.0
  9
$DIMGAP
 40
0.09
  9
$DIMJUST
 70
     0
  9
$DIMSD1
 70
     0
  9
$DIMSD2
 70
     0
  9
$DIMTOLJ
 70
     1
  9
$DIMTZIN
 70
     0
  9
$DIMALTZ
 70
     0
  9
$DIMALTTZ
 70
     0
  9
$DIMUPT
 70
     0
  9
$DIMDEC
 70
     4
  9
$DIMTDEC
 70
     4
  9
$DIMALTU
 70
     4
  9
$DIMALTTD
 70
     2
  9
$DIMTXSTY
  7
Standard
  9
$DIMAUNIT
 70
     0
  9
$DIMADEC
 70
     0
  9
$DIMALTRND
 40
0.0
  9
$DIMAZIN
 70
     0
  9
$DIMDSEP
 70
    46
  9
$DIMATFIT
 70
     3
  9
$DIMFRAC
 70
     0
  9
$DIMLDRBLK
  1

  9
$DIMLUNIT
 70
     4
  9
$DIMLWD
 70
    -2
  9
$DIMLWE
 70
    -2
  9
$DIMTMOVE
 70
     0
  9
$DIMFXL
 40
1.0
  9
$DIMFXLON
 70
     0
  9
$DIMJOGANG
 40
0.7853981633974483
  9
$DIMTFILL
 70
     0
  9
$DIMTFILLCLR
 70
     0
  9
$DIMARCSYM
 70
     0
  9
$DIMLTYPE
  6

  9
$DIMLTEX1
  6

  9
$DIMLTEX2
  6

  9
$DIMTXTDIRECTION
 70
     0
  9
$LUNITS
 70
     4
  9
$LUPREC
 70
     4
  9
$SKETCHINC
 40
0.1
  9
$FILLETRAD
 40
0.0
  9
$AUNITS
 70
     0
  9
$AUPREC
 70
     0
  9
$MENU
  1
.
  9
$ELEVATION
 40
0.0
  9
$PELEVATION
 40
0.0
  9
$THICKNESS
 40
0.0
  9
$LIMCHECK
 70
     0
  9
$CHAMFERA
 40
0.0
  9
$CHAMFERB
 40
0.0
  9
$CHAMFERC
 40
0.0
  9
$CHAMFERD
 40
0.0
  9
$SKPOLY
 70
     0
  9
$TDCREATE
 40
2458932.481547570
  9
$TDUCREATE
 40
2458932.648214236
  9
$TDUPDATE
 40
2458932.545030880
  9
$TDUUPDATE
 40
2458932.711697547
  9
$TDINDWG
 40
0.0524987500
  9
$TDUSRTIMER
 40
0.0524987500
  9
$USRTIMER
 70
     1
  9
$ANGBASE
 50
0.0
  9
$ANGDIR
 70
     0
  9
$PDMODE
 70
     0
  9
$PDSIZE
 40
0.0
  9
$PLINEWID
 40
0.0
  9
$SPLFRAME
 70
     0
  9
$SPLINETYPE
 70
     6
  9
$SPLINESEGS
 70
     8
  9
$HANDSEED
  5
342
  9
$SURFTAB1
 70
     6
  9
$SURFTAB2
 70
     6
  9
$SURFTYPE
 70
     6
  9
$SURFU
 70
     6
  9
$SURFV
 70
     6
  9
$UCSBASE
  2

  9
$UCSNAME
  2

  9
$UCSORG
 10
0.0
 20
0.0
 30
0.0
  9
$UCSXDIR
 10
1.0
 20
0.0
 30
0.0
  9
$UCSYDIR
 10
0.0
 20
1.0
 30
0.0
  9
$UCSORTHOREF
  2

  9
$UCSORTHOVIEW
 70
     0
  9
$UCSORGTOP
 10
0.0
 20
0.0
 30
0.0
  9
$UCSORGBOTTOM
 10
0.0
 20
0.0
 30
0.0
  9
$UCSORGLEFT
 10
0.0
 20
0.0
 30
0.0
  9
$UCSORGRIGHT
 10
0.0
 20
0.0
 30
0.0
  9
$UCSORGFRONT
 10
0.0
 20
0.0
 30
0.0
  9
$UCSORGBACK
 10
0.0
 20
0.0
 30
0.0
  9
$PUCSBASE
  2

  9
$PUCSNAME
  2

  9
$PUCSORG
 10
0.0
 20
0.0
 30
0.0
  9
$PUCSXDIR
 10
1.0
 20
0.0
 30
0.0
  9
$PUCSYDIR
 10
0.0
 20
1.0
 30
0.0
  9
$PUCSORTHOREF
  2

  9
$PUCSORTHOVIEW
 70
     0
  9
$PUCSORGTOP
 10
0.0
 20
0.0
 30
0.0
  9
$PUCSORGBOTTOM
 10
0.0
 20
0.0
 30
0.0
  9
$PUCSORGLEFT
 10
0.0
 20
0.0
 30
0.0
  9
$PUCSORGRIGHT
 10
0.0
 20
0.0
 30
0.0
  9
$PUCSORGFRONT
 10
0.0
 20
0.0
 30
0.0
  9
$PUCSORGBACK
 10
0.0
 20
0.0
 30
0.0
  9
$USERI1
 70
     0
  9
$USERI2
 70
     0
  9
$USERI3
 70
     0
  9
$USERI4
 70
     0
  9
$USERI5
 70
     0
  9
$USERR1
 40
0.0
  9
$USERR2
 40
0.0
  9
$USERR3
 40
0.0
  9
$USERR4
 40
0.0
  9
$USERR5
 40
0.0
  9
$WORLDVIEW
 70
     1
  9
$SHADEDGE
 70
     3
  9
$SHADEDIF
 70
    70
  9
$TILEMODE
 70
     1
  9
$MAXACTVP
 70
    64
  9
$PINSBASE
 10
0.0
 20
0.0
 30
0.0
  9
$PLIMCHECK
 70
     0
  9
$PEXTMIN
 10
1.000000000000000E+20
 20
1.000000000000000E+20
 30
1.000000000000000E+20
  9
$PEXTMAX
 10
-1.000000000000000E+20
 20
-1.000000000000000E+20
 30
-1.000000000000000E+20
  9
$PLIMMIN
 10
0.0
 20
0.0
  9
$PLIMMAX
 10
12.0
 20
9.0
  9
$UNITMODE
 70
     0
  9
$VISRETAIN
 70
     1
  9
$PLINEGEN
 70
     0
  9
$PSLTSCALE
 70
     1
  9
$TREEDEPTH
 70
  3020
  9
$CMLSTYLE
  2
Standard
  9
$CMLJUST
 70
     0
  9
$CMLSCALE
 40
1.0
  9
$PROXYGRAPHICS
 70
     1
  9
$MEASUREMENT
 70
     0
  9
$CELWEIGHT
370
    -1
  9
$ENDCAPS
280
     0
  9
$JOINSTYLE
280
     0
  9
$LWDISPLAY
290
     0
  9
$INSUNITS
 70
     1
  9
$HYPERLINKBASE
  1

  9
$STYLESHEET
  1

  9
$XEDIT
290
     1
  9
$CEPSNTYPE
380
     0
  9
$PSTYLEMODE
290
     1
  9
$FINGERPRINTGUID
  2
{2257AB37-763B-4747-A116-17C96CC8F1EC}
  9
$VERSIONGUID
  2
{6582D6CF-262E-4ED6-A4B8-50BC74C4A2D0}
  9
$EXTNAMES
290
     1
  9
$PSVPSCALE
 40
0.0
  9
$OLESTARTUP
290
     0
  9
$SORTENTS
280
   127
  9
$INDEXCTL
280
     0
  9
$HIDETEXT
280
     1
  9
$XCLIPFRAME
280
     2
  9
$HALOGAP
280
     0
  9
$OBSCOLOR
 70
   257
  9
$OBSLTYPE
280
     0
  9
$INTERSECTIONDISPLAY
280
     0
  9
$INTERSECTIONCOLOR
 70
   257
  9
$DIMASSOC
280
     2
  9
$PROJECTNAME
  1

  9
$CAMERADISPLAY
290
     0
  9
$LENSLENGTH
 40
50.0
  9
$CAMERAHEIGHT
 40
0.0
  9
$STEPSPERSEC
 40
2.0
  9
$STEPSIZE
 40
6.0
  9
$3DDWFPREC
 40
2.0
  9
$PSOLWIDTH
 40
0.25
  9
$PSOLHEIGHT
 40
4.0
  9
$LOFTANG1
 40
1.570796326794896
  9
$LOFTANG2
 40
1.570796326794896
  9
$LOFTMAG1
 40
0.0
  9
$LOFTMAG2
 40
0.0
  9
$LOFTPARAM
 70
     7
  9
$LOFTNORMALS
280
     1
  9
$LATITUDE
 40
0.0
  9
$LONGITUDE
 40
0.0
  9
$NORTHDIRECTION
 40
0.0
  9
$TIMEZONE
 70
     0
  9
$LIGHTGLYPHDISPLAY
280
     1
  9
$TILEMODELIGHTSYNCH
280
     1
  9
$CMATERIAL
347
11
  9
$SOLIDHIST
280
     0
  9
$SHOWHIST
280
     1
  9
$DWFFRAME
280
     2
  9
$DGNFRAME
280
     0
  9
$REALWORLDSCALE
290
     1
  9
$INTERFERECOLOR
 62
     1
  9
$INTERFEREOBJVS
345
33
  9
$INTERFEREVPVS
346
30
  9
$CSHADOW
280
     0
  9
$SHADOWPLANELOCATION
 40
0.0
  0
ENDSEC
  0
SECTION
  2
CLASSES
  0
CLASS
  1
ACDBDICTIONARYWDFLT
  2
AcDbDictionaryWithDefault
  3
ObjectDBX Classes
 90
        0
 91
        1
280
     0
281
     0
  0
CLASS
  1
MATERIAL
  2
AcDbMaterial
  3
ObjectDBX Classes
 90
     1153
 91
        3
280
     0
281
     0
  0
CLASS
  1
VISUALSTYLE
  2
AcDbVisualStyle
  3
ObjectDBX Classes
 90
     4095
 91
       24
280
     0
281
     0
  0
CLASS
  1
SCALE
  2
AcDbScale
  3
ObjectDBX Classes
 90
     1153
 91
       17
280
     0
281
     0
  0
CLASS
  1
TABLESTYLE
  2
AcDbTableStyle
  3
ObjectDBX Classes
 90
     4095
 91
        1
280
     0
281
     0
  0
CLASS
  1
MLEADERSTYLE
  2
AcDbMLeaderStyle
  3
ACDB_MLEADERSTYLE_CLASS
 90
     4095
 91
        1
280
     0
281
     0
  0
CLASS
  1
ACDBSECTIONVIEWSTYLE
  2
AcDbSectionViewStyle
  3
ObjectDBX Classes
 90
     1025
 91
        1
280
     0
281
     0
  0
CLASS
  1
ACDBDETAILVIEWSTYLE
  2
AcDbDetailViewStyle
  3
ObjectDBX Classes
 90
     1025
 91
        1
280
     0
281
     0
  0
CLASS
  1
RASTERVARIABLES
  2
AcDbRasterVariables
  3
ISM
 90
        0
 91
        1
280
     0
281
     0
  0
CLASS
  1
DICTIONARYVAR
  2
AcDbDictionaryVar
  3
ObjectDBX Classes
 90
        0
 91
        5
280
     0
281
     0
  0
CLASS
  1
SORTENTSTABLE
  2
AcDbSortentsTable
  3
ObjectDBX Classes
 90
        0
 91
        1
280
     0
281
     0
  0
CLASS
  1
CELLSTYLEMAP
  2
AcDbCellStyleMap
  3
ObjectDBX Classes
 90
     1152
 91
        1
280
     0
281
     0
  0
ENDSEC
  0
SECTION
  2
TABLES
  0
TABLE
  2
VPORT
  5
8
330
0
100
AcDbSymbolTable
 70
     1
  0
VPORT
  5
57
330
8
100
AcDbSymbolTableRecord
100
AcDbViewportTableRecord
  2
*Active
 70
     0
 10
0.0
 20
0.0
 11
1.0
 21
1.0
 12
-0.2395463862418534
 22
1.532900167945456
 13
0.0
 23
0.0
 14
1.0
 24
1.0
 15
0.0
 25
0.0
 16
0.0
 26
0.0
 36
1.0
 17
0.0
 27
0.0
 37
0.0
 40
10.86055302691017
 41
2.021505376344086
 42
50.0
 43
0.0
 44
0.0
 50
0.0
 51
0.0
 71
     0
 72
  1000
 73
     1
 74
     1
 75
     0
 76
     0
 77
     0
 78
     0
281
     0
 65
     1
110
0.0
120
0.0
130
0.0
111
1.0
121
0.0
131
0.0
112
0.0
122
1.0
132
0.0
 79
     0
146
0.0
348
2F
 60
     3
 61
     5
292
     1
282
     1
141
0.0
142
0.0
 63
   250
421
  3355443
1001
ACAD_NAV_VCDISPLAY
1070
     3
  0
ENDTAB
  0
TABLE
  2
LTYPE
  5
5
330
0
100
AcDbSymbolTable
 70
     1
  0
LTYPE
  5
5B
330
5
100
AcDbSymbolTableRecord
100
AcDbLinetypeTableRecord
  2
ByBlock
 70
     0
  3

 72
    65
 73
     0
 40
0.0
  0
LTYPE
  5
5C
330
5
100
AcDbSymbolTableRecord
100
AcDbLinetypeTableRecord
  2
ByLayer
 70
     0
  3

 72
    65
 73
     0
 40
0.0
  0
LTYPE
  5
5D
330
5
100
AcDbSymbolTableRecord
100
AcDbLinetypeTableRecord
  2
Continuous
 70
     0
  3
Solid line
 72
    65
 73
     0
 40
0.0
  0
ENDTAB
  0
TABLE
  2
LAYER
  5
2
102
{ACAD_XDICTIONARY
360
228
102
}
330
0
100
AcDbSymbolTable
 70
     2
  0
LAYER
  5
54
330
2
100
AcDbSymbolTableRecord
100
AcDbLayerTableRecord
  2
0
 70
     0
 62
     7
  6
Continuous
370
    -3
390
F
347
21
348
0
  0
LAYER
  5
235
330
2
100
AcDbSymbolTableRecord
100
AcDbLayerTableRecord
  2
Pressure_Balance_Rough_Valve-GROHE-35113000
 70
     0
 62
     7
  6
Continuous
370
    -3
390
F
347
21
348
0
1001
AcAecLayerStandard
1000

1000

1001
AcCmTransparency
1071
        0
  0
ENDTAB
  0
TABLE
  2
STYLE
  5
3
330
0
100
AcDbSymbolTable
 70
     1
  0
STYLE
  5
55
330
3
100
AcDbSymbolTableRecord
100
AcDbTextStyleTableRecord
  2
Standard
 70
     0
 40
0.0
 41
1.0
 50
0.0
 71
     0
 42
0.2
  3
txt
  4

  0
ENDTAB
  0
TABLE
  2
VIEW
  5
6
330
0
100
AcDbSymbolTable
 70
     0
  0
ENDTAB
  0
TABLE
  2
UCS
  5
7
330
0
100
AcDbSymbolTable
 70
     0
  0
ENDTAB
  0
TABLE
  2
APPID
  5
9
330
0
100
AcDbSymbolTable
 70
     7
  0
APPID
  5
56
330
9
100
AcDbSymbolTableRecord
100
AcDbRegAppTableRecord
  2
ACAD
 70
     0
  0
APPID
  5
5E
330
9
100
AcDbSymbolTableRecord
100
AcDbRegAppTableRecord
  2
AcadAnnotative
 70
     0
  0
APPID
  5
78
330
9
100
AcDbSymbolTableRecord
100
AcDbRegAppTableRecord
  2
REVIT
 70
     0
  0
APPID
  5
101
330
9
100
AcDbSymbolTableRecord
100
AcDbRegAppTableRecord
  2
ACAD_NAV_VCDISPLAY
 70
     0
  0
APPID
  5
236
330
9
100
AcDbSymbolTableRecord
100
AcDbRegAppTableRecord
  2
AcAecLayerStandard
 70
     0
  0
APPID
  5
237
330
9
100
AcDbSymbolTableRecord
100
AcDbRegAppTableRecord
  2
AcCmTransparency
 70
     0
  0
APPID
  5
270
330
9
100
AcDbSymbolTableRecord
100
AcDbRegAppTableRecord
  2
ACAD_EXEMPT_FROM_CAD_STANDARDS
 70
     0
  0
ENDTAB
  0
TABLE
  2
DIMSTYLE
  5
A
330
0
100
AcDbSymbolTable
 70
     1
100
AcDbDimStyleTable
 71
     1
340
58
  0
DIMSTYLE
105
58
330
A
100
AcDbSymbolTableRecord
100
AcDbDimStyleTableRecord
  2
Standard
 70
     0
340
55
  0
ENDTAB
  0
TABLE
  2
BLOCK_RECORD
  5
1
330
0
100
AcDbSymbolTable
 70
     4
  0
BLOCK_RECORD
  5
70
102
{ACAD_XDICTIONARY
360
E1
102
}
330
1
100
AcDbSymbolTableRecord
100
AcDbBlockTableRecord
  2
*Model_Space
340
73
 70
     0
280
     1
281
     0
  0
BLOCK_RECORD
  5
6C
330
1
100
AcDbSymbolTableRecord
100
AcDbBlockTableRecord
  2
*Paper_Space
340
6F
 70
     0
280
     1
281
     0
  0
BLOCK_RECORD
  5
74
330
1
100
AcDbSymbolTableRecord
100
AcDbBlockTableRecord
  2
*Paper_Space0
340
77
 70
     0
280
     1
281
     0
  0
BLOCK_RECORD
  5
28B
330
1
100
AcDbSymbolTableRecord
100
AcDbBlockTableRecord
  2
Pressure_Balance_Rough_Valve-GROHE-35113000- Top
340
0
310
28000000200000002000000001002000000000000010000001000000010000000000000000000000302821FF302821FF302821FF302821FF302821FF302821FF302821FF302821FF302821FF302821FF302821FF302821FF302821FF302821FF302821FF302821FF302821FF302821FF302821FF302821FF302821FF302821
310
FF302821FF302821FF302821FF302821FF302821FF302821FF302821FF302821FF302821FF302821FF302821FF302821FF302821FF302821FF302821FF302821FF302821FF302821FF302821FF302821FF302821FF302821FF302821FF302821FF302821FF302821FF302821FF302821FF302821FF302821FF302821FF3028
310
21FF302821FF302821FF302821FF302821FF302821FF302821FF302821FF302821FF302821FF302821FF302821FF302821FF302821FF302821FF302821FF302821FF302821FF302821FF302821FF302821FF302821FF302821FF302821FF302821FF302821FF302821FF302821FF302821FF302821FF302821FF302821FF30
310
2821FF302821FF302821FF302821FF302821FF302821FF302821FF302821FF302821FF302821FF302821FF302821FF302821FF302821FF302821FF302821FF302821FF302821FF302821FF302821FF302821FF302821FF302821FF302821FF302821FF302821FF302821FF302821FF302821FF302821FF302821FF302821FF
310
302821FF302821FF302821FF302821FF302821FF302821FF302821FF302821FF302821FF302821FF302821FF302821FF302821FF302821FF302821FF302821FF302821FF302821FF302821FF302821FF302821FF302821FF302821FF302821FF302821FF302821FF302821FF302821FF302821FF302821FF302821FF302821
310
FF302821FF302821FF302821FF302821FF302821FF302821FF302821FF302821FF302821FF302821FF302821FF302821FF302821FF302821FF302821FF302821FF302821FF302821FF302821FF302821FF302821FF302821FF302821FF302821FF302821FF302821FF302821FF302821FF302821FF302821FF302821FF3028
310
21FF302821FF302821FF302821FF302821FF302821FF302821FF302821FF302821FF302821FF302821FF302821FF302821FF302821FF302821FF302821FF302821FF302821FF302821FF302821FF302821FF302821FF302821FF302821FF302821FF302821FF302821FF302821FF302821FF302821FF302821FF302821FF30
310
2821FF302821FF302821FF302821FF302821FF302821FF302821FF302821FF302821FF302821FF302821FF302821FF302821FF302821FF302821FF302821FF302821FF302821FF302821FF302821FF302821FF302821FF302821FF302821FF302821FF302821FF302821FF302821FF302821FF302821FF302821FF302821FF
310
302821FF302821FF302821FF302821FF302821FF302821FF302821FF302821FF302821FF302821FF302821FF302821FF302821FF302821FF302821FF302821FF302821FF302821FF302821FF302821FF302821FF302821FF302821FF302821FF302821FF302821FF302821FF302821FF302821FF302821FF302821FF302821
310
FF302821FF302821FF302821FF302821FF302821FF302821FF302821FF302821FF302821FF302821FF302821FF302821FF302821FF302821FF302821FF302821FF302821FF302821FF302821FF302821FF302821FF302821FF302821FF302821FF302821FF302821FF302821FF302821FF302821FF302821FF302821FF3028
310
21FF302821FF302821FF302821FF302821FF302821FF302821FF302821FF302821FF302821FF302821FF302821FF302821FF302821FF302821FF302821FF302821FF302821FF302821FF302821FF302821FF302821FF302821FF302821FFFFFFFFFFFFFFFFFFFFFFFFFFFFFFFFFFFFFFFFFFFFFFFFFFFFFFFFFFFFFFFFFFFF
310
FFFFFFFFFFFFFF302821FF302821FF302821FF302821FF302821FF302821FF302821FF302821FF302821FF302821FF302821FF302821FF302821FF302821FF302821FF302821FF302821FF302821FF302821FF302821FF302821FF302821FFFFFFFFFF302821FF302821FF302821FF302821FF302821FF302821FF302821FF
310
302821FFFFFFFFFF302821FF302821FF302821FF302821FF302821FF302821FF302821FF302821FF302821FF302821FF302821FF302821FF302821FF302821FF302821FF302821FF302821FF302821FF302821FF302821FF302821FF302821FFFFFFFFFF302821FF302821FF302821FF302821FF302821FF302821FF302821
310
FF302821FFFFFFFFFF302821FF302821FF302821FF302821FF302821FF302821FF302821FF302821FF302821FF302821FF302821FF302821FFFFFFFFFFFFFFFFFFFFFFFFFFFFFFFFFFFFFFFFFFFFFFFFFFFFFFFFFFFFFFFFFFFFFFFFFFFFFFFFFFFFFFFFFF302821FF302821FFFFFFFFFFFFFFFFFFFFFFFFFFFFFFFFFF3028
310
21FF302821FFFFFFFFFFFFFFFFFFFFFFFFFFFFFFFFFFFFFFFFFFFFFFFFFFFFFFFFFFFFFFFFFFFFFFFFFFFFFFFFFFFFFFFFFF302821FF302821FFFFFFFFFF302821FF302821FF302821FF302821FF302821FFFFFFFFFF302821FF302821FF302821FFFFFFFFFF302821FF302821FFFFFFFFFFFFFFFFFFFFFFFFFFFFFFFFFF30
310
2821FF302821FFFFFFFFFF302821FF302821FF302821FFFFFFFFFF302821FF302821FF302821FF302821FF302821FFFFFFFFFF302821FF302821FFFFFFFFFF302821FF302821FF302821FF302821FF302821FFFFFFFFFF302821FF302821FF302821FFFFFFFFFF302821FF302821FFFFFFFFFF302821FF302821FFFFFFFFFF
310
302821FF302821FFFFFFFFFF302821FF302821FF302821FFFFFFFFFF302821FF302821FF302821FF302821FF302821FFFFFFFFFF302821FF302821FFFFFFFFFFFFFFFFFFFFFFFFFFFFFFFFFFFFFFFFFFFFFFFFFFFFFFFFFF302821FF302821FF302821FFFFFFFFFF302821FF302821FFFFFFFFFFFFFFFFFFFFFFFFFFFFFFFF
310
FF302821FF302821FFFFFFFFFF302821FF302821FF302821FFFFFFFFFFFFFFFFFFFFFFFFFFFFFFFFFFFFFFFFFFFFFFFFFFFFFFFFFF302821FF302821FF302821FF302821FF302821FF302821FF302821FF302821FFFFFFFFFFFFFFFFFFFFFFFFFFFFFFFFFFFFFFFFFFFFFFFFFFFFFFFFFFFFFFFFFFFFFFFFFFFFFFFFFFFFFF
310
FFFFFFFFFFFFFFFFFFFFFFFFFFFFFFFFFFFFFFFFFFFFFFFFFFFFFFFFFFFF302821FF302821FF302821FF302821FF302821FF302821FF302821FF302821FF302821FF302821FF302821FF302821FF302821FF302821FF302821FF302821FF302821FFFFFFFFFF302821FF302821FF302821FF302821FF302821FF302821FF30
310
2821FF302821FF302821FF302821FFFFFFFFFF302821FF302821FF302821FF302821FF302821FF302821FF302821FF302821FF302821FF302821FF302821FF302821FF302821FF302821FF302821FF302821FF302821FF302821FF302821FF302821FFFFFFFFFF302821FF302821FF302821FF302821FF302821FF302821FF
310
302821FF302821FF302821FF302821FFFFFFFFFF302821FF302821FF302821FF302821FF302821FF302821FF302821FF302821FF302821FF302821FF302821FF302821FF302821FF302821FF302821FF302821FF302821FF302821FF302821FF302821FFFFFFFFFFFFFFFFFFFFFFFFFFFFFFFFFFFFFFFFFFFFFFFFFFFFFFFF
310
FFFFFFFFFFFFFFFFFFFFFFFFFFFFFFFFFFFFFFFFFF302821FF302821FF302821FF302821FF302821FF302821FF302821FF302821FF302821FF302821FF302821FF302821FF302821FF302821FF302821FF302821FF302821FF302821FF302821FF302821FF302821FF302821FF302821FFFFFFFFFFFFFFFFFFFFFFFFFFFFFF
310
FFFFFFFFFFFFFFFFFFFF302821FF302821FF302821FF302821FF302821FF302821FF302821FF302821FF302821FF302821FF302821FF302821FF302821FF302821FF302821FF302821FF302821FF302821FF302821FF302821FF302821FF302821FF302821FF302821FF302821FF302821FF302821FF302821FF302821FF30
310
2821FF302821FF302821FF302821FF302821FF302821FF302821FF302821FF302821FF302821FF302821FF302821FF302821FF302821FF302821FF302821FF302821FF302821FF302821FF302821FF302821FF302821FF302821FF302821FF302821FF302821FF302821FF302821FF302821FF302821FF302821FF302821FF
310
302821FF302821FF302821FF302821FF302821FF302821FF302821FF302821FF302821FF302821FF302821FF302821FF302821FF302821FF302821FF302821FF302821FF302821FF302821FF302821FF302821FF302821FF302821FF302821FF302821FF302821FF302821FF302821FF302821FF302821FF302821FF302821
310
FF302821FF302821FF302821FF302821FF302821FF302821FF302821FF302821FF302821FF302821FF302821FF302821FF302821FF302821FF302821FF302821FF302821FF302821FF302821FF302821FF302821FF302821FF302821FF302821FF302821FF302821FF302821FF302821FF302821FF302821FF302821FF3028
310
21FF302821FF302821FF302821FF302821FF302821FF302821FF302821FF302821FF302821FF302821FF302821FF302821FF302821FF302821FF302821FF302821FF302821FF302821FF302821FF302821FF302821FF302821FF302821FF302821FF302821FF302821FF302821FF302821FF302821FF302821FF302821FF30
310
2821FF302821FF302821FF302821FF302821FF302821FF302821FF302821FF302821FF302821FF302821FF302821FF302821FF302821FF302821FF302821FF302821FF302821FF302821FF302821FF302821FF302821FF302821FF302821FF302821FF302821FF302821FF302821FF302821FF302821FF302821FF302821FF
310
302821FF302821FF302821FF302821FF302821FF302821FF302821FF302821FF302821FF302821FF302821FF302821FF302821FF302821FF302821FF302821FF302821FF302821FF302821FF302821FF302821FF302821FF302821FF302821FF302821FF302821FF302821FF302821FF302821FF302821FF302821FF302821
310
FF302821FF302821FF302821FF302821FF302821FF302821FF302821FF302821FF302821FF302821FF302821FF302821FF302821FF302821FF302821FF302821FF302821FF302821FF302821FF302821FF302821FF302821FF302821FF302821FF302821FF302821FF302821FF302821FF302821FF302821FF302821FF3028
310
21FF302821FF302821FF302821FF302821FF302821FF302821FF302821FF302821FF302821FF302821FF302821FF302821FF302821FF302821FF302821FF302821FF302821FF302821FF302821FF302821FF302821FF302821FF302821FF302821FF302821FF302821FF302821FF302821FF302821FF302821FF302821FF30
310
2821FF302821FF302821FF302821FF302821FF302821FF302821FF302821FF302821FF302821FF302821FF302821FF302821FF302821FF302821FF302821FF302821FF302821FF302821FF302821FF302821FF302821FF302821FF302821FF302821FF302821FF302821FF302821FF302821FF302821FF302821FF302821FF
310
302821FF302821FF302821FF302821FF302821FF302821FF302821FF302821FF302821FF302821FF302821FF302821FF302821FF302821FF302821FF302821FF302821FF302821FF
102
{BLKREFS
331
2C1
102
}
 70
     1
280
     1
281
     0
  0
BLOCK_RECORD
  5
2C2
330
1
100
AcDbSymbolTableRecord
100
AcDbBlockTableRecord
  2
Pressure_Balance_Rough_Valve-GROHE-35113000- Front
340
0
310
28000000200000002000000001002000000000000010000001000000010000000000000000000000302821FF302821FF302821FF302821FF302821FF302821FF302821FF302821FF302821FF302821FF302821FF302821FF302821FF302821FF302821FF302821FF302821FF302821FF302821FF302821FF302821FF302821
310
FF302821FF302821FF302821FF302821FF302821FF302821FF302821FF302821FF302821FF302821FF302821FF302821FF302821FF302821FF302821FF302821FF302821FF302821FF302821FF302821FF302821FF302821FF302821FF302821FF302821FF302821FF302821FF302821FF302821FF302821FF302821FF3028
310
21FF302821FF302821FF302821FF302821FF302821FF302821FF302821FF302821FF302821FF302821FF302821FF302821FF302821FF302821FF302821FF302821FF302821FF302821FF302821FF302821FF302821FF302821FF302821FF302821FF302821FF302821FF302821FF302821FF302821FF302821FF302821FF30
310
2821FF302821FF302821FF302821FF302821FF302821FF302821FF302821FF302821FF302821FF302821FF302821FF302821FF302821FF302821FF302821FF302821FF302821FF302821FF302821FF302821FF302821FF302821FF302821FF302821FF302821FF302821FF302821FF302821FF302821FF302821FF302821FF
310
302821FF302821FF302821FF302821FF302821FF302821FF302821FF302821FF302821FF302821FF302821FF302821FF302821FF302821FF302821FF302821FF302821FF302821FF302821FF302821FF302821FF302821FF302821FF302821FF302821FFFFFFFFFFFFFFFFFFFFFFFFFFFFFFFFFF302821FF302821FF302821
310
FF302821FF302821FF302821FF302821FF302821FF302821FF302821FF302821FF302821FF302821FF302821FF302821FF302821FF302821FF302821FF302821FF302821FF302821FF302821FF302821FF302821FF302821FF302821FF302821FF302821FFFFFFFFFF302821FF302821FFFFFFFFFF302821FF302821FF3028
310
21FF302821FF302821FF302821FF302821FF302821FF302821FF302821FF302821FF302821FF302821FF302821FF302821FF302821FF302821FF302821FF302821FF302821FF302821FF302821FF302821FF302821FF302821FF302821FF302821FF302821FFFFFFFFFF302821FF302821FFFFFFFFFF302821FF302821FF30
310
2821FF302821FF302821FF302821FF302821FF302821FF302821FF302821FF302821FF302821FF302821FF302821FF302821FF302821FF302821FF302821FF302821FF302821FF302821FF302821FF302821FF302821FF302821FF302821FF302821FF302821FFFFFFFFFFFFFFFFFFFFFFFFFFFFFFFFFF302821FF302821FF
310
302821FF302821FF302821FF302821FF302821FF302821FF302821FF302821FF302821FF302821FF302821FF302821FF302821FF302821FF302821FF302821FF302821FF302821FF302821FF302821FF302821FF302821FF302821FF302821FF302821FF302821FFFFFFFFFF302821FF302821FFFFFFFFFF302821FF302821
310
FF302821FF302821FF302821FF302821FF302821FF302821FF302821FF302821FF302821FF302821FF302821FF302821FF302821FF302821FF302821FF302821FF302821FF302821FF302821FF302821FF302821FFFFFFFFFF302821FF302821FF302821FF302821FFFFFFFFFF302821FF302821FFFFFFFFFF302821FF3028
310
21FFFFFFFFFFFFFFFFFF302821FF302821FF302821FF302821FF302821FF302821FF302821FF302821FF302821FF302821FF302821FF302821FF302821FF302821FF302821FF302821FF302821FF302821FFFFFFFFFFFFFFFFFFFFFFFFFF302821FF302821FF302821FFFFFFFFFFFFFFFFFFFFFFFFFFFFFFFFFF302821FF30
310
2821FFFFFFFFFFFFFFFFFF302821FF302821FF302821FF302821FF302821FF302821FF302821FF302821FF302821FF302821FF302821FF302821FF302821FF302821FF302821FF302821FF302821FF302821FFFFFFFFFF302821FFFFFFFFFF302821FFFFFFFFFFFFFFFFFFFFFFFFFFFFFFFFFFFFFFFFFFFFFFFFFFFFFFFFFF
310
FFFFFFFFFFFFFFFFFFFFFFFF302821FF302821FF302821FF302821FF302821FF302821FF302821FF302821FF302821FF302821FF302821FF302821FF302821FF302821FF302821FF302821FF302821FF302821FFFFFFFFFF302821FFFFFFFFFFFFFFFFFFFFFFFFFF302821FF302821FF302821FF302821FF302821FFFFFFFF
310
FFFFFFFFFFFFFFFFFF302821FFFFFFFFFF302821FF302821FF302821FF302821FF302821FF302821FF302821FF302821FF302821FF302821FF302821FF302821FF302821FF302821FF302821FF302821FF302821FFFFFFFFFF302821FFFFFFFFFFFFFFFFFFFFFFFFFF302821FF302821FF302821FF302821FF302821FF3028
310
21FFFFFFFFFFFFFFFFFFFFFFFFFFFFFFFFFF302821FF302821FF302821FF302821FF302821FF302821FF302821FF302821FF302821FF302821FFFFFFFFFFFFFFFFFFFFFFFFFFFFFFFFFFFFFFFFFFFFFFFFFFFFFFFFFFFFFFFFFFFFFFFFFFFFFFFFFFFFFFFFFF302821FF302821FF302821FF302821FF302821FF302821FF30
310
2821FF302821FFFFFFFFFFFFFFFFFFFFFFFFFFFFFFFFFFFFFFFFFFFFFFFFFFFFFFFFFFFFFFFFFFFFFFFFFFFFFFFFFFFFFFFFFF302821FF302821FFFFFFFFFF302821FF302821FF302821FF302821FF302821FFFFFFFFFFFFFFFFFFFFFFFFFFFFFFFFFFFFFFFFFFFFFFFFFFFFFFFFFFFFFFFFFFFFFFFFFFFFFFFFFFFFFFFFFF
310
FFFFFFFFFFFFFFFFFFFFFFFFFFFFFFFFFFFFFFFFFFFFFFFFFFFFFFFF302821FF302821FF302821FF302821FF302821FFFFFFFFFF302821FF302821FFFFFFFFFF302821FF302821FF302821FF302821FF302821FFFFFFFFFFFFFFFFFFFFFFFFFFFFFFFFFFFFFFFFFFFFFFFFFFFFFFFFFFFFFFFFFFFFFFFFFFFFFFFFFFFFFFFF
310
FFFFFFFFFFFFFFFFFFFFFFFFFFFFFFFFFFFFFFFFFFFFFFFFFFFFFFFFFF302821FF302821FF302821FF302821FF302821FFFFFFFFFF302821FF302821FFFFFFFFFFFFFFFFFFFFFFFFFFFFFFFFFFFFFFFFFFFFFFFFFFFFFFFFFFFFFFFFFFFFFFFFFFFFFFFFFFFFFFFFFF302821FF302821FF302821FF302821FF302821FF3028
310
21FF302821FF302821FFFFFFFFFFFFFFFFFFFFFFFFFFFFFFFFFFFFFFFFFFFFFFFFFFFFFFFFFFFFFFFFFFFFFFFFFFFFFFFFFFFFFFFFFF302821FF302821FF302821FF302821FF302821FF302821FF302821FF302821FF302821FF302821FFFFFFFFFF302821FFFFFFFFFFFFFFFFFF302821FF302821FF302821FF302821FF30
310
2821FF302821FFFFFFFFFFFFFFFFFFFFFFFFFF302821FFFFFFFFFF302821FF302821FF302821FF302821FF302821FF302821FF302821FF302821FF302821FF302821FF302821FF302821FF302821FF302821FF302821FF302821FF302821FF302821FFFFFFFFFFFFFFFFFFFFFFFFFF302821FF302821FF302821FF302821FF
310
302821FFFFFFFFFFFFFFFFFF302821FF302821FFFFFFFFFFFFFFFFFF302821FF302821FF302821FF302821FF302821FF302821FF302821FF302821FF302821FF302821FF302821FF302821FF302821FF302821FF302821FF302821FF302821FF302821FFFFFFFFFFFFFFFFFFFFFFFFFFFFFFFFFFFFFFFFFFFFFFFFFFFFFFFF
310
FFFFFFFFFFFFFFFFFFFFFFFFFF302821FF302821FFFFFFFFFFFFFFFFFF302821FF302821FF302821FF302821FF302821FF302821FF302821FF302821FF302821FF302821FF302821FF302821FF302821FF302821FF302821FF302821FF302821FF302821FFFFFFFFFFFFFFFFFF302821FF302821FFFFFFFFFFFFFFFFFFFFFF
310
FFFFFFFFFFFF302821FF302821FF302821FF302821FFFFFFFFFFFFFFFFFF302821FF302821FF302821FF302821FF302821FF302821FF302821FF302821FF302821FF302821FF302821FF302821FF302821FF302821FF302821FF302821FF302821FF302821FFFFFFFFFFFFFFFFFF302821FF302821FFFFFFFFFF302821FF30
310
2821FFFFFFFFFF302821FF302821FF302821FF302821FFFFFFFFFFFFFFFFFF302821FF302821FF302821FF302821FF302821FF302821FF302821FF302821FF302821FF302821FF302821FF302821FF302821FF302821FF302821FF302821FF302821FF302821FF302821FF302821FF302821FF302821FFFFFFFFFF302821FF
310
302821FFFFFFFFFF302821FF302821FF302821FF302821FF302821FF302821FF302821FF302821FF302821FF302821FF302821FF302821FF302821FF302821FF302821FF302821FF302821FF302821FF302821FF302821FF302821FF302821FF302821FF302821FF302821FF302821FF302821FF302821FFFFFFFFFFFFFFFF
310
FFFFFFFFFFFFFFFFFF302821FF302821FF302821FF302821FF302821FF302821FF302821FF302821FF302821FF302821FF302821FF302821FF302821FF302821FF302821FF302821FF302821FF302821FF302821FF302821FF302821FF302821FF302821FF302821FF302821FF302821FF302821FF302821FFFFFFFFFF3028
310
21FF302821FFFFFFFFFF302821FF302821FF302821FF302821FF302821FF302821FF302821FF302821FF302821FF302821FF302821FF302821FF302821FF302821FF302821FF302821FF302821FF302821FF302821FF302821FF302821FF302821FF302821FF302821FF302821FF302821FF302821FF302821FFFFFFFFFF30
310
2821FF302821FFFFFFFFFF302821FF302821FF302821FF302821FF302821FF302821FF302821FF302821FF302821FF302821FF302821FF302821FF302821FF302821FF302821FF302821FF302821FF302821FF302821FF302821FF302821FF302821FF302821FF302821FF302821FF302821FF302821FF302821FFFFFFFFFF
310
FFFFFFFFFFFFFFFFFFFFFFFF302821FF302821FF302821FF302821FF302821FF302821FF302821FF302821FF302821FF302821FF302821FF302821FF302821FF302821FF302821FF302821FF302821FF302821FF302821FF302821FF302821FF302821FF302821FF302821FF302821FF302821FF302821FF302821FF302821
310
FF302821FF302821FF302821FF302821FF302821FF302821FF302821FF302821FF302821FF302821FF302821FF302821FF302821FF302821FF302821FF302821FF302821FF302821FF302821FF302821FF302821FF302821FF302821FF302821FF302821FF302821FF302821FF302821FF302821FF302821FF302821FF3028
310
21FF302821FF302821FF302821FF302821FF302821FF302821FF302821FF302821FF302821FF302821FF302821FF302821FF302821FF302821FF302821FF302821FF302821FF302821FF302821FF302821FF302821FF302821FF302821FF302821FF302821FF302821FF302821FF302821FF302821FF302821FF302821FF30
310
2821FF302821FF302821FF302821FF302821FF302821FF302821FF302821FF302821FF302821FF302821FF302821FF302821FF302821FF302821FF302821FF302821FF302821FF302821FF302821FF302821FF302821FF302821FF302821FF302821FF302821FF302821FF302821FF302821FF302821FF302821FF302821FF
310
302821FF302821FF302821FF302821FF302821FF302821FF302821FF302821FF302821FF302821FF302821FF302821FF302821FF302821FF302821FF302821FF302821FF302821FF
102
{BLKREFS
331
32D
102
}
 70
     1
280
     1
281
     0
  0
BLOCK_RECORD
  5
2FC
330
1
100
AcDbSymbolTableRecord
100
AcDbBlockTableRecord
  2
Pressure_Balance_Rough_Valve-GROHE-35113000- Left
340
0
310
28000000200000002000000001002000000000000010000001000000010000000000000000000000302821FF302821FF302821FF302821FF302821FF302821FF302821FF302821FF302821FF302821FF302821FF302821FF302821FF302821FF302821FF302821FF302821FF302821FF302821FF302821FF302821FF302821
310
FF302821FF302821FF302821FF302821FF302821FF302821FF302821FF302821FF302821FF302821FF302821FF302821FF302821FF302821FF302821FF302821FF302821FF302821FF302821FF302821FF302821FF302821FF302821FF302821FF302821FF302821FF302821FF302821FF302821FF302821FF302821FF3028
310
21FF302821FF302821FF302821FF302821FF302821FF302821FF302821FF302821FF302821FF302821FF302821FF302821FF302821FF302821FF302821FF302821FF302821FF302821FF302821FF302821FF302821FF302821FF302821FF302821FF302821FF302821FF302821FF302821FF302821FF302821FF302821FF30
310
2821FF302821FF302821FF302821FF302821FF302821FF302821FF302821FF302821FF302821FF302821FF302821FF302821FF302821FF302821FF302821FF302821FF302821FF302821FF302821FF302821FF302821FF302821FF302821FF302821FF302821FF302821FF302821FF302821FF302821FF302821FF302821FF
310
302821FF302821FF302821FF302821FF302821FF302821FF302821FF302821FF302821FF302821FF302821FF302821FF302821FF302821FF302821FF302821FF302821FF302821FF302821FF302821FF302821FF302821FF302821FF302821FF302821FF302821FF302821FF302821FF302821FF302821FF302821FF302821
310
FF302821FF302821FF302821FF302821FF302821FF302821FF302821FF302821FF302821FF302821FF302821FF302821FF302821FF302821FF302821FF302821FF302821FF302821FF302821FF302821FF302821FF302821FF302821FF302821FF302821FF302821FF302821FF302821FF302821FF302821FF302821FF3028
310
21FF302821FF302821FF302821FF302821FF302821FF302821FF302821FF302821FF302821FF302821FF302821FF302821FF302821FF302821FF302821FF302821FF302821FF302821FF302821FF302821FF302821FF302821FF302821FF302821FF302821FF302821FF302821FF302821FF302821FF302821FF302821FF30
310
2821FF302821FF302821FF302821FF302821FF302821FF302821FF302821FF302821FF302821FF302821FF302821FF302821FF302821FF302821FF302821FF302821FF302821FF302821FF302821FF302821FF302821FF302821FF302821FF302821FF302821FF302821FF302821FF302821FF302821FF302821FF302821FF
310
302821FF302821FF302821FF302821FF302821FF302821FF302821FF302821FF302821FF302821FF302821FF302821FF302821FF302821FF302821FF302821FF302821FF302821FF302821FF302821FF302821FF302821FF302821FF302821FF302821FF302821FF302821FF302821FF302821FF302821FF302821FF302821
310
FF302821FF302821FF302821FF302821FF302821FF302821FF302821FF302821FF302821FF302821FF302821FF302821FF302821FF302821FF302821FF302821FF302821FF302821FF302821FF302821FF302821FF302821FF302821FF302821FF302821FF302821FF302821FF302821FF302821FF302821FF302821FF3028
310
21FF302821FF302821FF302821FF302821FF302821FF302821FF302821FF302821FF302821FF302821FF302821FF302821FF302821FF302821FF302821FF302821FF302821FF302821FF302821FF302821FF302821FF302821FF302821FF302821FF302821FF302821FF302821FF302821FF302821FF302821FF302821FF30
310
2821FF302821FF302821FFFFFFFFFFFFFFFFFF302821FF302821FF302821FF302821FF302821FF302821FF302821FF302821FF302821FF302821FF302821FF302821FF302821FF302821FF302821FF302821FF302821FF302821FF302821FF302821FF302821FF302821FF302821FF302821FF302821FF302821FF302821FF
310
302821FF302821FF302821FFFFFFFFFFFFFFFFFF302821FF302821FF302821FF302821FF302821FF302821FF302821FF302821FF302821FF302821FF302821FF302821FF302821FF302821FF302821FF302821FF302821FF302821FF302821FF302821FF302821FF302821FF302821FF302821FF302821FF302821FF302821
310
FFFFFFFFFF302821FF302821FFFFFFFFFFFFFFFFFF302821FFFFFFFFFF302821FF302821FF302821FF302821FF302821FF302821FF302821FF302821FF302821FF302821FF302821FFFFFFFFFFFFFFFFFFFFFFFFFFFFFFFFFFFFFFFFFFFFFFFFFF302821FF302821FF302821FF302821FF302821FF302821FF302821FF3028
310
21FFFFFFFFFFFFFFFFFFFFFFFFFFFFFFFFFFFFFFFFFFFFFFFFFFFFFFFFFF302821FF302821FF302821FF302821FF302821FF302821FF302821FF302821FF302821FF302821FF302821FFFFFFFFFF302821FF302821FF302821FF302821FFFFFFFFFF302821FF302821FF302821FF302821FF302821FF302821FF302821FF30
310
2821FFFFFFFFFFFFFFFFFFFFFFFFFF302821FF302821FFFFFFFFFFFFFFFFFFFFFFFFFF302821FF302821FF302821FF302821FF302821FF302821FFFFFFFFFFFFFFFFFFFFFFFFFFFFFFFFFFFFFFFFFFFFFFFFFFFFFFFFFFFFFFFFFFFFFFFFFFFFFFFFFFFFFFFFFFFFFFFFFFFFFFFFFF302821FFFFFFFFFFFFFFFFFFFFFFFFFF
310
FFFFFFFFFFFFFFFFFFFFFFFFFFFFFFFFFFFFFFFFFFFFFFFFFFFFFFFFFFFFFFFFFFFFFFFFFFFFFFFFFFFFFFFFFFFFFFFFFFFFFFFF302821FF302821FFFFFFFFFFFFFFFFFFFFFFFFFFFFFFFFFFFFFFFFFFFFFFFFFFFFFFFFFFFFFFFFFF302821FFFFFFFFFFFFFFFFFFFFFFFFFFFFFFFFFF302821FFFFFFFFFFFFFFFFFFFFFFFF
310
FFFFFFFFFFFFFFFFFFFFFFFFFFFFFFFFFFFFFFFFFFFFFFFFFFFFFFFFFFFFFFFFFFFFFFFFFFFFFFFFFFFFFFFFFFFFFFFFFFFFFFFFFF302821FF302821FF302821FF302821FF302821FFFFFFFFFFFFFFFFFFFFFFFFFFFFFFFFFFFFFFFFFFFFFFFFFFFFFFFFFF302821FF302821FF302821FF302821FF302821FF302821FF3028
310
21FF302821FF302821FFFFFFFFFFFFFFFFFF302821FF302821FFFFFFFFFFFFFFFFFFFFFFFFFF302821FF302821FF302821FF302821FF302821FF302821FF302821FF302821FF302821FFFFFFFFFFFFFFFFFFFFFFFFFFFFFFFFFFFFFFFFFFFFFFFFFFFFFFFFFF302821FF302821FF302821FF302821FF302821FF302821FF30
310
2821FF302821FF302821FFFFFFFFFFFFFFFFFFFFFFFFFFFFFFFFFFFFFFFFFF302821FFFFFFFFFF302821FF302821FF302821FF302821FF302821FF302821FF302821FF302821FF302821FF302821FF302821FF302821FFFFFFFFFF302821FF302821FF302821FF302821FF302821FF302821FF302821FF302821FF302821FF
310
302821FF302821FF302821FFFFFFFFFF302821FFFFFFFFFFFFFFFFFF302821FF302821FFFFFFFFFF302821FF302821FF302821FF302821FF302821FF302821FF302821FF302821FF302821FF302821FF302821FF302821FF302821FF302821FF302821FF302821FF302821FF302821FF302821FF302821FF302821FF302821
310
FF302821FF302821FF302821FF302821FF302821FFFFFFFFFFFFFFFFFF302821FF302821FF302821FF302821FF302821FF302821FF302821FF302821FF302821FF302821FF302821FF302821FF302821FF302821FF302821FF302821FF302821FF302821FF302821FF302821FF302821FF302821FF302821FF302821FF3028
310
21FF302821FF302821FF302821FF302821FF302821FFFFFFFFFFFFFFFFFF302821FF302821FF302821FF302821FF302821FF302821FF302821FF302821FF302821FF302821FF302821FF302821FF302821FF302821FF302821FF302821FF302821FF302821FF302821FF302821FF302821FF302821FF302821FF302821FF30
310
2821FF302821FF302821FF302821FF302821FF302821FF302821FF302821FF302821FF302821FF302821FF302821FF302821FF302821FF302821FF302821FF302821FF302821FF302821FF302821FF302821FF302821FF302821FF302821FF302821FF302821FF302821FF302821FF302821FF302821FF302821FF302821FF
310
302821FF302821FF302821FF302821FF302821FF302821FF302821FF302821FF302821FF302821FF302821FF302821FF302821FF302821FF302821FF302821FF302821FF302821FF302821FF302821FF302821FF302821FF302821FF302821FF302821FF302821FF302821FF302821FF302821FF302821FF302821FF302821
310
FF302821FF302821FF302821FF302821FF302821FF302821FF302821FF302821FF302821FF302821FF302821FF302821FF302821FF302821FF302821FF302821FF302821FF302821FF302821FF302821FF302821FF302821FF302821FF302821FF302821FF302821FF302821FF302821FF302821FF302821FF302821FF3028
310
21FF302821FF302821FF302821FF302821FF302821FF302821FF302821FF302821FF302821FF302821FF302821FF302821FF302821FF302821FF302821FF302821FF302821FF302821FF302821FF302821FF302821FF302821FF302821FF302821FF302821FF302821FF302821FF302821FF302821FF302821FF302821FF30
310
2821FF302821FF302821FF302821FF302821FF302821FF302821FF302821FF302821FF302821FF302821FF302821FF302821FF302821FF302821FF302821FF302821FF302821FF302821FF302821FF302821FF302821FF302821FF302821FF302821FF302821FF302821FF302821FF302821FF302821FF302821FF302821FF
310
302821FF302821FF302821FF302821FF302821FF302821FF302821FF302821FF302821FF302821FF302821FF302821FF302821FF302821FF302821FF302821FF302821FF302821FF302821FF302821FF302821FF302821FF302821FF302821FF302821FF302821FF302821FF302821FF302821FF302821FF302821FF302821
310
FF302821FF302821FF302821FF302821FF302821FF302821FF302821FF302821FF302821FF302821FF302821FF302821FF302821FF302821FF302821FF302821FF302821FF302821FF302821FF302821FF302821FF302821FF302821FF302821FF302821FF302821FF302821FF302821FF302821FF302821FF302821FF3028
310
21FF302821FF302821FF302821FF302821FF302821FF302821FF302821FF302821FF302821FF302821FF302821FF302821FF302821FF302821FF302821FF302821FF302821FF302821FF302821FF302821FF302821FF302821FF302821FF302821FF302821FF302821FF302821FF302821FF302821FF302821FF302821FF30
310
2821FF302821FF302821FF302821FF302821FF302821FF302821FF302821FF302821FF302821FF302821FF302821FF302821FF302821FF302821FF302821FF302821FF302821FF302821FF302821FF302821FF302821FF302821FF302821FF302821FF302821FF302821FF302821FF302821FF302821FF302821FF302821FF
310
302821FF302821FF302821FF302821FF302821FF302821FF302821FF302821FF302821FF302821FF302821FF302821FF302821FF302821FF302821FF302821FF302821FF302821FF
102
{BLKREFS
331
32E
102
}
 70
     1
280
     1
281
     0
  0
ENDTAB
  0
ENDSEC
  0
SECTION
  2
BLOCKS
  0
BLOCK
  5
71
330
70
100
AcDbEntity
  8
0
100
AcDbBlockBegin
  2
*Model_Space
 70
     0
 10
0.0
 20
0.0
 30
0.0
  3
*Model_Space
  1

  0
ENDBLK
  5
72
330
70
100
AcDbEntity
  8
0
100
AcDbBlockEnd
  0
BLOCK
  5
6D
330
6C
100
AcDbEntity
 67
     1
  8
0
100
AcDbBlockBegin
  2
*Paper_Space
 70
     0
 10
0.0
 20
0.0
 30
0.0
  3
*Paper_Space
  1

  0
ENDBLK
  5
6E
330
6C
100
AcDbEntity
 67
     1
  8
0
100
AcDbBlockEnd
  0
BLOCK
  5
75
330
74
100
AcDbEntity
 67
     1
  8
0
100
AcDbBlockBegin
  2
*Paper_Space0
 70
     0
 10
0.0
 20
0.0
 30
0.0
  3
*Paper_Space0
  1

  0
ENDBLK
  5
76
330
74
100
AcDbEntity
 67
     1
  8
0
100
AcDbBlockEnd
  0
BLOCK
  5
28C
330
28B
100
AcDbEntity
  8
0
100
AcDbBlockBegin
  2
Pressure_Balance_Rough_Valve-GROHE-35113000- Top
 70
     0
 10
0.0
 20
0.0
 30
0.0
  3
Pressure_Balance_Rough_Valve-GROHE-35113000- Top
  1

  0
LINE
  5
28E
330
28B
100
AcDbEntity
  8
Pressure_Balance_Rough_Valve-GROHE-35113000
100
AcDbLine
 10
1.031250000000231
 20
-0.6234729390632241
 30
0.0
 11
1.81250000000003
 21
-0.6234729390632259
 31
0.0
1001
REVIT
1002
{
1070
     2
1000
-2001160
1002
}
  0
LINE
  5
28F
330
28B
100
AcDbEntity
  8
Pressure_Balance_Rough_Valve-GROHE-35113000
100
AcDbLine
 10
0.8645696171285845
 20
0.0000000000000204
 30
0.0
 11
0.2962913294865856
 21
0.2649925174906604
 31
0.0
1001
REVIT
1002
{
1070
     2
1000
-2001160
1002
}
  0
ARC
  5
290
330
28B
100
AcDbEntity
  8
Pressure_Balance_Rough_Valve-GROHE-35113000
100
AcDbCircle
 10
0.0000000000000037
 20
-0.7493125390811786
 30
0.0
 40
1.056694515797317
100
AcDbArc
 50
73.71624894759567
 51
106.2837510523694
1001
REVIT
1002
{
1070
     2
1000
-2001160
1002
}
  0
LINE
  5
291
330
28B
100
AcDbEntity
  8
Pressure_Balance_Rough_Valve-GROHE-35113000
100
AcDbLine
 10
-0.2962913294861951
 20
0.2649925174908665
 30
0.0
 11
-0.8645696171285941
 21
0.0000000000000027
 31
0.0
1001
REVIT
1002
{
1070
     2
1000
-2001160
1002
}
  0
LINE
  5
292
330
28B
100
AcDbEntity
  8
Pressure_Balance_Rough_Valve-GROHE-35113000
100
AcDbLine
 10
1.129596651779351
 20
-0.4549363560042013
 30
0.0
 11
1.129596651779346
 21
0.0000000000000133
 31
0.0
1001
REVIT
1002
{
1070
     1
1000
114472
1002
}
1002
{
1070
     2
1000
-2001160
1002
}
  0
LINE
  5
293
330
28B
100
AcDbEntity
  8
Pressure_Balance_Rough_Valve-GROHE-35113000
100
AcDbLine
 10
-1.129596651779346
 20
-0.0000000000000098
 30
0.0
 11
-1.129596651779341
 21
-0.4549363560042244
 31
0.0
1001
REVIT
1002
{
1070
     1
1000
114472
1002
}
1002
{
1070
     2
1000
-2001160
1002
}
  0
LINE
  5
294
330
28B
100
AcDbEntity
  8
Pressure_Balance_Rough_Valve-GROHE-35113000
100
AcDbLine
 10
1.031250000000246
 20
-1.999999999999996
 30
0.0
 11
1.031250000000232
 21
-0.4549363560041817
 31
0.0
1001
REVIT
1002
{
1070
     1
1000
114472
1002
}
1002
{
1070
     2
1000
-2001160
1002
}
  0
LINE
  5
295
330
28B
100
AcDbEntity
  8
Pressure_Balance_Rough_Valve-GROHE-35113000
100
AcDbLine
 10
-1.031250000000221
 20
-0.4549363560042048
 30
0.0
 11
-1.031250000000205
 21
-2.000000000000017
 31
0.0
1001
REVIT
1002
{
1070
     1
1000
114472
1002
}
1002
{
1070
     2
1000
-2001160
1002
}
  0
LINE
  5
296
330
28B
100
AcDbEntity
  8
Pressure_Balance_Rough_Valve-GROHE-35113000
100
AcDbLine
 10
1.129596651779346
 20
0.0000000000000115
 30
0.0
 11
-1.129596651779346
 21
-0.0000000000000115
 31
0.0
1001
REVIT
1002
{
1070
     1
1000
114472
1002
}
1002
{
1070
     2
1000
-2001160
1002
}
  0
LINE
  5
297
330
28B
100
AcDbEntity
  8
Pressure_Balance_Rough_Valve-GROHE-35113000
100
AcDbLine
 10
1.025600704598775
 20
-1.999999999999995
 30
0.0
 11
-1.025600704598736
 21
-2.000000000000015
 31
0.0
1001
REVIT
1002
{
1070
     1
1000
114472
1002
}
1002
{
1070
     2
1000
-2001160
1002
}
  0
LINE
  5
298
330
28B
100
AcDbEntity
  8
Pressure_Balance_Rough_Valve-GROHE-35113000
100
AcDbLine
 10
-1.160987449380277
 20
-1.37529962930002
 30
0.0
 11
-1.662217208467921
 21
-1.37529962930002
 31
0.0
1001
REVIT
1002
{
1070
     1
1000
122706
1002
}
1002
{
1070
     2
1000
-2001160
1002
}
  0
LINE
  5
299
330
28B
100
AcDbEntity
  8
Pressure_Balance_Rough_Valve-GROHE-35113000
100
AcDbLine
 10
1.378214508455678
 20
-0.5078092122360163
 30
0.0
 11
1.378214508455678
 21
-0.5433565409719554
 31
0.0
1001
REVIT
1002
{
1070
     1
1000
130422
1002
}
1002
{
1070
     2
1000
-2001160
1002
}
  0
LINE
  5
29A
330
28B
100
AcDbEntity
  8
Pressure_Balance_Rough_Valve-GROHE-35113000
100
AcDbLine
 10
1.507490149390554
 20
-0.5433565409719554
 30
0.0
 11
1.507490149390554
 21
-0.5078092122360163
 31
0.0
1001
REVIT
1002
{
1070
     1
1000
130422
1002
}
1002
{
1070
     2
1000
-2001160
1002
}
  0
LINE
  5
29B
330
28B
100
AcDbEntity
  8
Pressure_Balance_Rough_Valve-GROHE-35113000
100
AcDbLine
 10
1.329521665778124
 20
-0.5433565409719554
 30
0.0
 11
1.329521665778124
 21
-0.5782202672322017
 31
0.0
1001
REVIT
1002
{
1070
     1
1000
130422
1002
}
1002
{
1070
     2
1000
-2001160
1002
}
  0
LINE
  5
29C
330
28B
100
AcDbEntity
  8
Pressure_Balance_Rough_Valve-GROHE-35113000
100
AcDbLine
 10
1.556182992068107
 20
-0.5782202672322017
 30
0.0
 11
1.556182992068107
 21
-0.5433565409719554
 31
0.0
1001
REVIT
1002
{
1070
     1
1000
130422
1002
}
1002
{
1070
     2
1000
-2001160
1002
}
  0
LINE
  5
29D
330
28B
100
AcDbEntity
  8
Pressure_Balance_Rough_Valve-GROHE-35113000
100
AcDbLine
 10
1.285771107333895
 20
-0.5782202672322017
 30
0.0
 11
1.285771107333895
 21
-0.6182239150568601
 31
0.0
1001
REVIT
1002
{
1070
     1
1000
130422
1002
}
1002
{
1070
     2
1000
-2001160
1002
}
  0
LINE
  5
29E
330
28B
100
AcDbEntity
  8
Pressure_Balance_Rough_Valve-GROHE-35113000
100
AcDbLine
 10
1.599933550512337
 20
-0.6182239150568601
 30
0.0
 11
1.599933550512337
 21
-0.5782202672322017
 31
0.0
1001
REVIT
1002
{
1070
     1
1000
130422
1002
}
1002
{
1070
     2
1000
-2001160
1002
}
  0
LINE
  5
29F
330
28B
100
AcDbEntity
  8
Pressure_Balance_Rough_Valve-GROHE-35113000
100
AcDbLine
 10
1.214256461591016
 20
-0.6182239150568601
 30
0.0
 11
1.214256461591016
 21
-0.6234729390632241
 31
0.0
1001
REVIT
1002
{
1070
     1
1000
130422
1002
}
1002
{
1070
     2
1000
-2001160
1002
}
  0
LINE
  5
2A0
330
28B
100
AcDbEntity
  8
Pressure_Balance_Rough_Valve-GROHE-35113000
100
AcDbLine
 10
1.671448196255215
 20
-0.6234729390632259
 30
0.0
 11
1.671448196255215
 21
-0.6182239150568601
 31
0.0
1001
REVIT
1002
{
1070
     1
1000
130422
1002
}
1002
{
1070
     2
1000
-2001160
1002
}
  0
LINE
  5
2A1
330
28B
100
AcDbEntity
  8
Pressure_Balance_Rough_Valve-GROHE-35113000
100
AcDbLine
 10
1.378214508455676
 20
-0.5078092122360163
 30
0.0
 11
1.507490149390553
 21
-0.5078092122360163
 31
0.0
1001
REVIT
1002
{
1070
     1
1000
130422
1002
}
1002
{
1070
     2
1000
-2001160
1002
}
  0
LINE
  5
2A2
330
28B
100
AcDbEntity
  8
Pressure_Balance_Rough_Valve-GROHE-35113000
100
AcDbLine
 10
1.329521665778123
 20
-0.5433565409719537
 30
0.0
 11
1.556182992068105
 21
-0.5433565409719537
 31
0.0
1001
REVIT
1002
{
1070
     1
1000
130422
1002
}
1002
{
1070
     2
1000
-2001160
1002
}
  0
LINE
  5
2A3
330
28B
100
AcDbEntity
  8
Pressure_Balance_Rough_Valve-GROHE-35113000
100
AcDbLine
 10
1.285771107333893
 20
-0.5782202672321999
 30
0.0
 11
1.599933550512336
 21
-0.5782202672321999
 31
0.0
1001
REVIT
1002
{
1070
     1
1000
130422
1002
}
1002
{
1070
     2
1000
-2001160
1002
}
  0
LINE
  5
2A4
330
28B
100
AcDbEntity
  8
Pressure_Balance_Rough_Valve-GROHE-35113000
100
AcDbLine
 10
1.214256461591015
 20
-0.6182239150568583
 30
0.0
 11
1.671448196255213
 21
-0.6182239150568583
 31
0.0
1001
REVIT
1002
{
1070
     1
1000
130422
1002
}
1002
{
1070
     2
1000
-2001160
1002
}
  0
LINE
  5
2A5
330
28B
100
AcDbEntity
  8
Pressure_Balance_Rough_Valve-GROHE-35113000
100
AcDbLine
 10
-1.378214508456656
 20
-0.5440789103171336
 30
0.0
 11
-1.378214508456656
 21
-0.5085315815811962
 31
0.0
1001
REVIT
1002
{
1070
     1
1000
131792
1002
}
1002
{
1070
     2
1000
-2001160
1002
}
  0
LINE
  5
2A6
330
28B
100
AcDbEntity
  8
Pressure_Balance_Rough_Valve-GROHE-35113000
100
AcDbLine
 10
-1.507490149391547
 20
-0.5085315815811962
 30
0.0
 11
-1.507490149391547
 21
-0.5440789103171336
 31
0.0
1001
REVIT
1002
{
1070
     1
1000
131792
1002
}
1002
{
1070
     2
1000
-2001160
1002
}
  0
LINE
  5
2A7
330
28B
100
AcDbEntity
  8
Pressure_Balance_Rough_Valve-GROHE-35113000
100
AcDbLine
 10
-1.324317915663198
 20
-0.5789426365773798
 30
0.0
 11
-1.324317915663198
 21
-0.5440789103171336
 31
0.0
1001
REVIT
1002
{
1070
     1
1000
131792
1002
}
1002
{
1070
     2
1000
-2001160
1002
}
  0
LINE
  5
2A8
330
28B
100
AcDbEntity
  8
Pressure_Balance_Rough_Valve-GROHE-35113000
100
AcDbLine
 10
-1.561386742185005
 20
-0.5440789103171336
 30
0.0
 11
-1.561386742185005
 21
-0.5789426365773798
 31
0.0
1001
REVIT
1002
{
1070
     1
1000
131792
1002
}
1002
{
1070
     2
1000
-2001160
1002
}
  0
LINE
  5
2A9
330
28B
100
AcDbEntity
  8
Pressure_Balance_Rough_Valve-GROHE-35113000
100
AcDbLine
 10
-1.280567357218968
 20
-0.6189462844020382
 30
0.0
 11
-1.280567357218968
 21
-0.5789426365773798
 31
0.0
1001
REVIT
1002
{
1070
     1
1000
131792
1002
}
1002
{
1070
     2
1000
-2001160
1002
}
  0
LINE
  5
2AA
330
28B
100
AcDbEntity
  8
Pressure_Balance_Rough_Valve-GROHE-35113000
100
AcDbLine
 10
-1.605137300629236
 20
-0.5789426365773798
 30
0.0
 11
-1.605137300629236
 21
-0.6189462844020382
 31
0.0
1001
REVIT
1002
{
1070
     1
1000
131792
1002
}
1002
{
1070
     2
1000
-2001160
1002
}
  0
LINE
  5
2AB
330
28B
100
AcDbEntity
  8
Pressure_Balance_Rough_Valve-GROHE-35113000
100
AcDbLine
 10
-1.20905271147609
 20
-0.6249999999646656
 30
0.0
 11
-1.20905271147609
 21
-0.6189462844020382
 31
0.0
1001
REVIT
1002
{
1070
     1
1000
131792
1002
}
1002
{
1070
     2
1000
-2001160
1002
}
  0
LINE
  5
2AC
330
28B
100
AcDbEntity
  8
Pressure_Balance_Rough_Valve-GROHE-35113000
100
AcDbLine
 10
-1.676651946372113
 20
-0.6189462844020382
 30
0.0
 11
-1.676651946372113
 21
-0.6249999999646656
 31
0.0
1001
REVIT
1002
{
1070
     1
1000
131792
1002
}
1002
{
1070
     2
1000
-2001160
1002
}
  0
LINE
  5
2AD
330
28B
100
AcDbEntity
  8
Pressure_Balance_Rough_Valve-GROHE-35113000
100
AcDbLine
 10
-1.507490149391546
 20
-0.5085315815811962
 30
0.0
 11
-1.378214508456654
 21
-0.5085315815811962
 31
0.0
1001
REVIT
1002
{
1070
     1
1000
131792
1002
}
1002
{
1070
     2
1000
-2001160
1002
}
  0
LINE
  5
2AE
330
28B
100
AcDbEntity
  8
Pressure_Balance_Rough_Valve-GROHE-35113000
100
AcDbLine
 10
-1.561386742185004
 20
-0.5440789103171336
 30
0.0
 11
-1.324317915663197
 21
-0.5440789103171336
 31
0.0
1001
REVIT
1002
{
1070
     1
1000
131792
1002
}
1002
{
1070
     2
1000
-2001160
1002
}
  0
LINE
  5
2AF
330
28B
100
AcDbEntity
  8
Pressure_Balance_Rough_Valve-GROHE-35113000
100
AcDbLine
 10
-1.605137300629234
 20
-0.5789426365773798
 30
0.0
 11
-1.280567357218966
 21
-0.5789426365773798
 31
0.0
1001
REVIT
1002
{
1070
     1
1000
131792
1002
}
1002
{
1070
     2
1000
-2001160
1002
}
  0
LINE
  5
2B0
330
28B
100
AcDbEntity
  8
Pressure_Balance_Rough_Valve-GROHE-35113000
100
AcDbLine
 10
-1.676651946372111
 20
-0.6189462844020382
 30
0.0
 11
-1.209052711476089
 21
-0.6189462844020382
 31
0.0
1001
REVIT
1002
{
1070
     1
1000
131792
1002
}
1002
{
1070
     2
1000
-2001160
1002
}
  0
LINE
  5
2B1
330
28B
100
AcDbEntity
  8
Pressure_Balance_Rough_Valve-GROHE-35113000
100
AcDbLine
 10
-2.937500000000003
 20
-1.312500000035263
 30
0.0
 11
-1.812499999999994
 21
-1.312500000035263
 31
0.0
1001
REVIT
1002
{
1070
     1
1000
158160
1002
}
1002
{
1070
     2
1000
-2001160
1002
}
  0
LINE
  5
2B2
330
28B
100
AcDbEntity
  8
Pressure_Balance_Rough_Valve-GROHE-35113000
100
AcDbLine
 10
-1.812499999999994
 20
-0.6874999999621858
 30
0.0
 11
-2.937500000000003
 21
-0.6874999999621858
 31
0.0
1001
REVIT
1002
{
1070
     1
1000
158160
1002
}
1002
{
1070
     2
1000
-2001160
1002
}
  0
LINE
  5
2B3
330
28B
100
AcDbEntity
  8
Pressure_Balance_Rough_Valve-GROHE-35113000
100
AcDbLine
 10
-1.812499999999995
 20
-1.375000000032785
 30
0.0
 11
-1.602362899071494
 21
-1.375000000032785
 31
0.0
1001
REVIT
1002
{
1070
     1
1000
158160
1002
}
1002
{
1070
     2
1000
-2001160
1002
}
  0
LINE
  5
2B4
330
28B
100
AcDbEntity
  8
Pressure_Balance_Rough_Valve-GROHE-35113000
100
AcDbLine
 10
-1.220841758776702
 20
-1.375000000032785
 30
0.0
 11
-1.031250000000211
 21
-1.375000000032785
 31
0.0
1001
REVIT
1002
{
1070
     1
1000
158160
1002
}
1002
{
1070
     2
1000
-2001160
1002
}
  0
LINE
  5
2B5
330
28B
100
AcDbEntity
  8
Pressure_Balance_Rough_Valve-GROHE-35113000
100
AcDbLine
 10
1.03125000000024
 20
-1.375000000032785
 30
0.0
 11
1.812500000000032
 21
-1.375000000032785
 31
0.0
1001
REVIT
1002
{
1070
     1
1000
158160
1002
}
1002
{
1070
     2
1000
-2001160
1002
}
  0
LINE
  5
2B6
330
28B
100
AcDbEntity
  8
Pressure_Balance_Rough_Valve-GROHE-35113000
100
AcDbLine
 10
-1.031250000000219
 20
-0.6249999999646656
 30
0.0
 11
-1.812499999999995
 21
-0.6249999999646656
 31
0.0
1001
REVIT
1002
{
1070
     1
1000
158160
1002
}
1002
{
1070
     2
1000
-2001160
1002
}
  0
LINE
  5
2B7
330
28B
100
AcDbEntity
  8
Pressure_Balance_Rough_Valve-GROHE-35113000
100
AcDbLine
 10
1.812500000000036
 20
-1.312500000035263
 30
0.0
 11
2.937500000000004
 21
-1.312500000035263
 31
0.0
1001
REVIT
1002
{
1070
     1
1000
158160
1002
}
1002
{
1070
     2
1000
-2001160
1002
}
  0
LINE
  5
2B8
330
28B
100
AcDbEntity
  8
Pressure_Balance_Rough_Valve-GROHE-35113000
100
AcDbLine
 10
2.937500000000004
 20
-0.6874999999621876
 30
0.0
 11
1.812500000000036
 21
-0.6874999999621876
 31
0.0
1001
REVIT
1002
{
1070
     1
1000
158160
1002
}
1002
{
1070
     2
1000
-2001160
1002
}
  0
LINE
  5
2B9
330
28B
100
AcDbEntity
  8
Pressure_Balance_Rough_Valve-GROHE-35113000
100
AcDbLine
 10
-2.937499999999999
 20
-1.312500000035262
 30
0.0
 11
-2.937499999999999
 21
-0.6874999999621858
 31
0.0
1001
REVIT
1002
{
1070
     1
1000
158160
1002
}
1002
{
1070
     2
1000
-2001160
1002
}
  0
LINE
  5
2BA
330
28B
100
AcDbEntity
  8
Pressure_Balance_Rough_Valve-GROHE-35113000
100
AcDbLine
 10
-1.812499999999993
 20
-1.375000000032783
 30
0.0
 11
-1.812499999999993
 21
-0.6249999999646639
 31
0.0
1001
REVIT
1002
{
1070
     1
1000
158160
1002
}
1002
{
1070
     2
1000
-2001160
1002
}
  0
LINE
  5
2BB
330
28B
100
AcDbEntity
  8
Pressure_Balance_Rough_Valve-GROHE-35113000
100
AcDbLine
 10
1.81250000000003
 20
-1.375000000032783
 30
0.0
 11
1.81250000000003
 21
-0.6234729390632259
 31
0.0
1001
REVIT
1002
{
1070
     1
1000
158160
1002
}
1002
{
1070
     2
1000
-2001160
1002
}
  0
LINE
  5
2BC
330
28B
100
AcDbEntity
  8
Pressure_Balance_Rough_Valve-GROHE-35113000
100
AcDbLine
 10
2.9375
 20
-1.312500000035262
 30
0.0
 11
2.9375
 21
-0.6874999999621858
 31
0.0
1001
REVIT
1002
{
1070
     1
1000
158160
1002
}
1002
{
1070
     2
1000
-2001160
1002
}
  0
LINE
  5
2BD
330
28B
100
AcDbEntity
  8
Pressure_Balance_Rough_Valve-GROHE-35113000
100
AcDbLine
 10
-1.12959665177934
 20
-0.4549363560042048
 30
0.0
 11
1.129596651779349
 21
-0.4549363560041817
 31
0.0
1001
REVIT
1002
{
1070
     1
1000
154011
1002
}
1002
{
1070
     2
1000
-2001160
1002
}
  0
CIRCLE
  5
2BE
330
28B
100
AcDbEntity
  8
Pressure_Balance_Rough_Valve-GROHE-35113000
100
AcDbCircle
 10
-0.000000000000489
 20
-0.9999999999999742
 30
0.0
 40
0.3125000000165307
1001
REVIT
1002
{
1070
     1
1000
169644
1002
}
1002
{
1070
     2
1000
-2001160
1002
}
  0
CIRCLE
  5
2BF
330
28B
100
AcDbEntity
  8
Pressure_Balance_Rough_Valve-GROHE-35113000
100
AcDbCircle
 10
-0.000000000000489
 20
-0.9999999999999742
 30
0.0
 40
0.2500000000165309
1001
REVIT
1002
{
1070
     1
1000
169662
1002
}
1002
{
1070
     2
1000
-2001160
1002
}
  0
CIRCLE
  5
2C0
330
28B
100
AcDbEntity
  8
Pressure_Balance_Rough_Valve-GROHE-35113000
100
AcDbCircle
 10
-0.000000000000489
 20
-0.9999999999999742
 30
0.0
 40
0.375000000016531
1001
REVIT
1002
{
1070
     1
1000
169811
1002
}
1002
{
1070
     2
1000
-2001160
1002
}
  0
ENDBLK
  5
28D
330
28B
100
AcDbEntity
  8
0
100
AcDbBlockEnd
  0
BLOCK
  5
2C3
330
2C2
100
AcDbEntity
  8
0
100
AcDbBlockBegin
  2
Pressure_Balance_Rough_Valve-GROHE-35113000- Front
 70
     0
 10
0.0
 20
0.0
 30
0.0
  3
Pressure_Balance_Rough_Valve-GROHE-35113000- Front
  1

  0
LINE
  5
2C5
330
2C2
100
AcDbEntity
  8
Pressure_Balance_Rough_Valve-GROHE-35113000
100
AcDbLine
 10
-0.8857560263557447
 20
0.7010170165456227
 30
0.0
 11
-0.9322716346211368
 21
1.176920550563954
 31
0.0
  0
ARC
  5
2C6
330
2C2
100
AcDbEntity
  8
Pressure_Balance_Rough_Valve-GROHE-35113000
100
AcDbCircle
 10
-1.067852328923111
 20
1.163668666487259
 30
0.0
 40
0.1362267855415659
100
AcDbArc
 50
5.582453287638117
 51
174.4175467123611
  0
LINE
  5
2C7
330
2C2
100
AcDbEntity
  8
Pressure_Balance_Rough_Valve-GROHE-35113000
100
AcDbLine
 10
-1.203433023225086
 20
1.176920550563954
 30
0.0
 11
-1.281814080565475
 21
0.3750000000347393
 31
0.0
  0
LINE
  5
2C8
330
2C2
100
AcDbEntity
  8
Pressure_Balance_Rough_Valve-GROHE-35113000
100
AcDbLine
 10
0.8857560263565165
 20
-0.701017016543315
 30
0.0
 11
0.9322716346221229
 21
-1.176920550563964
 31
0.0
  0
ARC
  5
2C9
330
2C2
100
AcDbEntity
  8
Pressure_Balance_Rough_Valve-GROHE-35113000
100
AcDbCircle
 10
1.067852328924097
 20
-1.163668666487268
 30
0.0
 40
0.1362267855415661
100
AcDbArc
 50
185.582453287638
 51
354.4175467123609
  0
LINE
  5
2CA
330
2C2
100
AcDbEntity
  8
Pressure_Balance_Rough_Valve-GROHE-35113000
100
AcDbLine
 10
1.203433023226072
 20
-1.176920550563964
 30
0.0
 11
1.281814080566574
 21
-0.3750000000333813
 31
0.0
  0
LINE
  5
2CB
330
2C2
100
AcDbEntity
  8
Pressure_Balance_Rough_Valve-GROHE-35113000
100
AcDbLine
 10
0.9634430861382398
 20
-0.03125
 30
0.0
 11
-0.963443086138241
 21
-0.03125
 31
0.0
  0
LINE
  5
2CC
330
2C2
100
AcDbEntity
  8
Pressure_Balance_Rough_Valve-GROHE-35113000
100
AcDbLine
 10
-0.9634430861382405
 20
0.03125
 30
0.0
 11
0.9634430861382405
 21
0.03125
 31
0.0
  0
LINE
  5
2CD
330
2C2
100
AcDbEntity
  8
Pressure_Balance_Rough_Valve-GROHE-35113000
100
AcDbLine
 10
0.2962913294859733
 20
0.0312499999999957
 30
0.0
 11
0.2962913294859733
 21
-0.0312500000000043
 31
0.0
  0
LINE
  5
2CE
330
2C2
100
AcDbEntity
  8
Pressure_Balance_Rough_Valve-GROHE-35113000
100
AcDbLine
 10
-0.2962913294865856
 20
0.0312499999999957
 30
0.0
 11
-0.2962913294865856
 21
-0.0312500000000043
 31
0.0
  0
LINE
  5
2CF
330
2C2
100
AcDbEntity
  8
Pressure_Balance_Rough_Valve-GROHE-35113000
100
AcDbLine
 10
-1.563064080565606
 20
-0.3750000000333811
 30
0.0
 11
-1.484683023225084
 21
-1.176920550563819
 31
0.0
1001
REVIT
1002
{
1070
     1
1000
122706
1002
}
1002
{
1070
     2
1000
-2000051
1002
}
1002
{
1070
     3
1000
-2000287
1002
}
  0
ARC
  5
2D0
330
2C2
100
AcDbEntity
  8
Pressure_Balance_Rough_Valve-GROHE-35113000
100
AcDbCircle
 10
-1.349102328923109
 20
-1.163668666487122
 30
0.0
 40
0.1362267855415661
100
AcDbArc
 50
185.5824532876381
 51
354.4175467123595
1001
REVIT
1002
{
1070
     1
1000
122706
1002
}
1002
{
1070
     2
1000
-2000051
1002
}
1002
{
1070
     3
1000
-2000287
1002
}
  0
LINE
  5
2D1
330
2C2
100
AcDbEntity
  8
Pressure_Balance_Rough_Valve-GROHE-35113000
100
AcDbLine
 10
-1.213521634621134
 20
-1.176920550563819
 30
0.0
 11
-1.135140577280615
 21
-0.3750000000333811
 31
0.0
1001
REVIT
1002
{
1070
     1
1000
122706
1002
}
1002
{
1070
     2
1000
-2000051
1002
}
1002
{
1070
     3
1000
-2000287
1002
}
  0
LINE
  5
2D2
330
2C2
100
AcDbEntity
  8
Pressure_Balance_Rough_Valve-GROHE-35113000
100
AcDbLine
 10
1.625564080566461
 20
0.3750000000347394
 30
0.0
 11
1.547183023226068
 21
1.1769205505641
 31
0.0
1001
REVIT
1002
{
1070
     1
1000
122706
1002
}
1002
{
1070
     2
1000
-2000051
1002
}
1002
{
1070
     3
1000
-2000287
1002
}
  0
ARC
  5
2D3
330
2C2
100
AcDbEntity
  8
Pressure_Balance_Rough_Valve-GROHE-35113000
100
AcDbCircle
 10
1.411602328924093
 20
1.163668666487406
 30
0.0
 40
0.136226785541566
100
AcDbArc
 50
5.582453287637983
 51
174.4175467123619
1001
REVIT
1002
{
1070
     1
1000
122706
1002
}
1002
{
1070
     2
1000
-2000051
1002
}
1002
{
1070
     3
1000
-2000287
1002
}
  0
LINE
  5
2D4
330
2C2
100
AcDbEntity
  8
Pressure_Balance_Rough_Valve-GROHE-35113000
100
AcDbLine
 10
1.276021634622119
 20
1.176920550564099
 30
0.0
 11
1.197640577281732
 21
0.3750000000347394
 31
0.0
1001
REVIT
1002
{
1070
     1
1000
122706
1002
}
1002
{
1070
     2
1000
-2000051
1002
}
1002
{
1070
     3
1000
-2000287
1002
}
  0
LINE
  5
2D5
330
2C2
100
AcDbEntity
  8
Pressure_Balance_Rough_Valve-GROHE-35113000
100
AcDbLine
 10
2.937500000000002
 20
0.3125000000372176
 30
0.0
 11
1.812499999999994
 21
0.3125000000372176
 31
0.0
1001
REVIT
1002
{
1070
     1
1000
158160
1002
}
1002
{
1070
     2
1000
-2000051
1002
}
1002
{
1070
     3
1000
-2000287
1002
}
  0
LINE
  5
2D6
330
2C2
100
AcDbEntity
  8
Pressure_Balance_Rough_Valve-GROHE-35113000
100
AcDbLine
 10
1.812499999999994
 20
-0.3125000000358593
 30
0.0
 11
2.937500000000002
 21
-0.3125000000358593
 31
0.0
1001
REVIT
1002
{
1070
     1
1000
158160
1002
}
1002
{
1070
     2
1000
-2000051
1002
}
1002
{
1070
     3
1000
-2000287
1002
}
  0
LINE
  5
2D7
330
2C2
100
AcDbEntity
  8
Pressure_Balance_Rough_Valve-GROHE-35113000
100
AcDbLine
 10
1.812499999999995
 20
0.3750000000347393
 30
0.0
 11
1.062763055565202
 21
0.3750000000347393
 31
0.0
1001
REVIT
1002
{
1070
     1
1000
158160
1002
}
1002
{
1070
     2
1000
-2000051
1002
}
1002
{
1070
     3
1000
-2000287
1002
}
  0
LINE
  5
2D8
330
2C2
100
AcDbEntity
  8
Pressure_Balance_Rough_Valve-GROHE-35113000
100
AcDbLine
 10
-1.065534417879383
 20
0.3750000000347394
 30
0.0
 11
-1.812500000000033
 21
0.3750000000347393
 31
0.0
1001
REVIT
1002
{
1070
     1
1000
158160
1002
}
1002
{
1070
     2
1000
-2000051
1002
}
1002
{
1070
     3
1000
-2000287
1002
}
  0
LINE
  5
2D9
330
2C2
100
AcDbEntity
  8
Pressure_Balance_Rough_Valve-GROHE-35113000
100
AcDbLine
 10
-1.812500000000033
 20
-0.3750000000333811
 30
0.0
 11
-1.062763055565214
 21
-0.3750000000333811
 31
0.0
1001
REVIT
1002
{
1070
     1
1000
158160
1002
}
1002
{
1070
     2
1000
-2000051
1002
}
1002
{
1070
     3
1000
-2000287
1002
}
  0
LINE
  5
2DA
330
2C2
100
AcDbEntity
  8
Pressure_Balance_Rough_Valve-GROHE-35113000
100
AcDbLine
 10
1.065534417879391
 20
-0.3750000000333811
 30
0.0
 11
1.812499999999995
 21
-0.3750000000333811
 31
0.0
1001
REVIT
1002
{
1070
     1
1000
158160
1002
}
1002
{
1070
     2
1000
-2000051
1002
}
1002
{
1070
     3
1000
-2000287
1002
}
  0
LINE
  5
2DB
330
2C2
100
AcDbEntity
  8
Pressure_Balance_Rough_Valve-GROHE-35113000
100
AcDbLine
 10
-1.812500000000036
 20
0.3125000000372173
 30
0.0
 11
-2.937500000000003
 21
0.3125000000372173
 31
0.0
1001
REVIT
1002
{
1070
     1
1000
158160
1002
}
1002
{
1070
     2
1000
-2000051
1002
}
1002
{
1070
     3
1000
-2000287
1002
}
  0
LINE
  5
2DC
330
2C2
100
AcDbEntity
  8
Pressure_Balance_Rough_Valve-GROHE-35113000
100
AcDbLine
 10
-2.937500000000003
 20
-0.3125000000358593
 30
0.0
 11
-1.812500000000036
 21
-0.3125000000358593
 31
0.0
1001
REVIT
1002
{
1070
     1
1000
158160
1002
}
1002
{
1070
     2
1000
-2000051
1002
}
1002
{
1070
     3
1000
-2000287
1002
}
  0
LINE
  5
2DD
330
2C2
100
AcDbEntity
  8
Pressure_Balance_Rough_Valve-GROHE-35113000
100
AcDbLine
 10
2.937499999999999
 20
0.3125000000372176
 30
0.0
 11
2.937499999999999
 21
-0.3125000000358594
 31
0.0
1001
REVIT
1002
{
1070
     1
1000
158160
1002
}
1002
{
1070
     2
1000
-2000051
1002
}
1002
{
1070
     3
1000
-2000287
1002
}
  0
LINE
  5
2DE
330
2C2
100
AcDbEntity
  8
Pressure_Balance_Rough_Valve-GROHE-35113000
100
AcDbLine
 10
1.812499999999993
 20
0.3750000000347393
 30
0.0
 11
1.812499999999992
 21
-0.3750000000333808
 31
0.0
1001
REVIT
1002
{
1070
     1
1000
158160
1002
}
1002
{
1070
     2
1000
-2000051
1002
}
1002
{
1070
     3
1000
-2000287
1002
}
  0
LINE
  5
2DF
330
2C2
100
AcDbEntity
  8
Pressure_Balance_Rough_Valve-GROHE-35113000
100
AcDbLine
 10
-1.81250000000003
 20
0.3750000000347394
 30
0.0
 11
-1.81250000000003
 21
-0.3750000000333811
 31
0.0
1001
REVIT
1002
{
1070
     1
1000
158160
1002
}
1002
{
1070
     2
1000
-2000051
1002
}
1002
{
1070
     3
1000
-2000287
1002
}
  0
LINE
  5
2E0
330
2C2
100
AcDbEntity
  8
Pressure_Balance_Rough_Valve-GROHE-35113000
100
AcDbLine
 10
-2.9375
 20
0.3125000000372173
 30
0.0
 11
-2.9375
 21
-0.3077524228516216
 31
0.0
1001
REVIT
1002
{
1070
     1
1000
158160
1002
}
1002
{
1070
     2
1000
-2000051
1002
}
1002
{
1070
     3
1000
-2000287
1002
}
  0
LINE
  5
2E1
330
2C2
100
AcDbEntity
  8
Pressure_Balance_Rough_Valve-GROHE-35113000
100
AcDbLine
 10
-0.3125000000160102
 20
2.375000000000667
 30
0.0
 11
-0.3125000000160108
 21
1.812500000000653
 31
0.0
1001
REVIT
1002
{
1070
     1
1000
160299
1002
}
1002
{
1070
     2
1000
-2000051
1002
}
1002
{
1070
     3
1000
-2000287
1002
}
  0
LINE
  5
2E2
330
2C2
100
AcDbEntity
  8
Pressure_Balance_Rough_Valve-GROHE-35113000
100
AcDbLine
 10
0.312500000017002
 20
1.812500000000652
 30
0.0
 11
0.3125000000170034
 21
2.375000000000666
 31
0.0
1001
REVIT
1002
{
1070
     1
1000
160299
1002
}
1002
{
1070
     2
1000
-2000051
1002
}
1002
{
1070
     3
1000
-2000287
1002
}
  0
LINE
  5
2E3
330
2C2
100
AcDbEntity
  8
Pressure_Balance_Rough_Valve-GROHE-35113000
100
AcDbLine
 10
-0.3750000000160876
 20
1.812500000000653
 30
0.0
 11
-0.3750000000160885
 21
1.065534417886378
 31
0.0
1001
REVIT
1002
{
1070
     1
1000
160299
1002
}
1002
{
1070
     2
1000
-2000051
1002
}
1002
{
1070
     3
1000
-2000287
1002
}
  0
LINE
  5
2E4
330
2C2
100
AcDbEntity
  8
Pressure_Balance_Rough_Valve-GROHE-35113000
100
AcDbLine
 10
-0.375000000016092
 20
-1.065534417885045
 30
0.0
 11
-0.3750000000160933
 21
-1.8125
 31
0.0
1001
REVIT
1002
{
1070
     1
1000
160299
1002
}
1002
{
1070
     2
1000
-2000051
1002
}
1002
{
1070
     3
1000
-2000287
1002
}
  0
LINE
  5
2E5
330
2C2
100
AcDbEntity
  8
Pressure_Balance_Rough_Valve-GROHE-35113000
100
AcDbLine
 10
0.3750000000170731
 20
-1.812500000000001
 30
0.0
 11
0.3750000000170738
 21
-1.065534417884699
 31
0.0
1001
REVIT
1002
{
1070
     1
1000
160299
1002
}
1002
{
1070
     2
1000
-2000051
1002
}
1002
{
1070
     3
1000
-2000287
1002
}
  0
LINE
  5
2E6
330
2C2
100
AcDbEntity
  8
Pressure_Balance_Rough_Valve-GROHE-35113000
100
AcDbLine
 10
0.3750000000170771
 20
1.06553441788603
 30
0.0
 11
0.3750000000170784
 21
1.812500000000652
 31
0.0
1001
REVIT
1002
{
1070
     1
1000
160299
1002
}
1002
{
1070
     2
1000
-2000051
1002
}
1002
{
1070
     3
1000
-2000287
1002
}
  0
LINE
  5
2E7
330
2C2
100
AcDbEntity
  8
Pressure_Balance_Rough_Valve-GROHE-35113000
100
AcDbLine
 10
-0.3125000000160165
 20
-1.8125
 30
0.0
 11
-0.3125000000160172
 21
-2.374999999999337
 31
0.0
1001
REVIT
1002
{
1070
     1
1000
160299
1002
}
1002
{
1070
     2
1000
-2000051
1002
}
1002
{
1070
     3
1000
-2000287
1002
}
  0
LINE
  5
2E8
330
2C2
100
AcDbEntity
  8
Pressure_Balance_Rough_Valve-GROHE-35113000
100
AcDbLine
 10
0.3125000000169954
 20
-2.374999999999338
 30
0.0
 11
0.3125000000169961
 21
-1.812500000000001
 31
0.0
1001
REVIT
1002
{
1070
     1
1000
160299
1002
}
1002
{
1070
     2
1000
-2000051
1002
}
1002
{
1070
     3
1000
-2000287
1002
}
  0
LINE
  5
2E9
330
2C2
100
AcDbEntity
  8
Pressure_Balance_Rough_Valve-GROHE-35113000
100
AcDbLine
 10
-0.3125000000160102
 20
2.375000000000665
 30
0.0
 11
0.3125000000170034
 21
2.375000000000664
 31
0.0
1001
REVIT
1002
{
1070
     1
1000
160299
1002
}
1002
{
1070
     2
1000
-2000051
1002
}
1002
{
1070
     3
1000
-2000287
1002
}
  0
LINE
  5
2EA
330
2C2
100
AcDbEntity
  8
Pressure_Balance_Rough_Valve-GROHE-35113000
100
AcDbLine
 10
-0.3750000000160875
 20
1.812500000000651
 30
0.0
 11
0.3750000000170784
 21
1.81250000000065
 31
0.0
1001
REVIT
1002
{
1070
     1
1000
160299
1002
}
1002
{
1070
     2
1000
-2000051
1002
}
1002
{
1070
     3
1000
-2000287
1002
}
  0
LINE
  5
2EB
330
2C2
100
AcDbEntity
  8
Pressure_Balance_Rough_Valve-GROHE-35113000
100
AcDbLine
 10
-0.3750000000160933
 20
-1.812499999999998
 30
0.0
 11
0.3750000000170731
 21
-1.812499999999999
 31
0.0
1001
REVIT
1002
{
1070
     1
1000
160299
1002
}
1002
{
1070
     2
1000
-2000051
1002
}
1002
{
1070
     3
1000
-2000287
1002
}
  0
LINE
  5
2EC
330
2C2
100
AcDbEntity
  8
Pressure_Balance_Rough_Valve-GROHE-35113000
100
AcDbLine
 10
-0.3125000000160172
 20
-2.374999999999333
 30
0.0
 11
0.3125000000169954
 21
-2.374999999999334
 31
0.0
1001
REVIT
1002
{
1070
     1
1000
160299
1002
}
1002
{
1070
     2
1000
-2000051
1002
}
1002
{
1070
     3
1000
-2000287
1002
}
  0
CIRCLE
  5
2ED
330
2C2
100
AcDbEntity
  8
Pressure_Balance_Rough_Valve-GROHE-35113000
100
AcDbCircle
 10
-1.442852328923114
 20
0.0000000000006682
 30
0.0
 40
0.0646378204674381
  0
CIRCLE
  5
2EE
330
2C2
100
AcDbEntity
  8
Pressure_Balance_Rough_Valve-GROHE-35113000
100
AcDbCircle
 10
1.4428523289241
 20
0.0000000000006798
 30
0.0
 40
0.0646378204674457
  0
CIRCLE
  5
2EF
330
2C2
100
AcDbEntity
  8
Pressure_Balance_Rough_Valve-GROHE-35113000
100
AcDbCircle
 10
-1.349102328923109
 20
-1.163668666487122
 30
0.0
 40
0.0651849087048404
  0
CIRCLE
  5
2F0
330
2C2
100
AcDbEntity
  8
Pressure_Balance_Rough_Valve-GROHE-35113000
100
AcDbCircle
 10
-1.067852328923111
 20
1.163668666487259
 30
0.0
 40
0.0651849087048402
  0
CIRCLE
  5
2F1
330
2C2
100
AcDbEntity
  8
Pressure_Balance_Rough_Valve-GROHE-35113000
100
AcDbCircle
 10
1.067852328924097
 20
-1.163668666487268
 30
0.0
 40
0.0651849087048405
  0
CIRCLE
  5
2F2
330
2C2
100
AcDbEntity
  8
Pressure_Balance_Rough_Valve-GROHE-35113000
100
AcDbCircle
 10
1.411602328924093
 20
1.163668666487406
 30
0.0
 40
0.0651849087048402
  0
CIRCLE
  5
2F3
330
2C2
100
AcDbEntity
  8
Pressure_Balance_Rough_Valve-GROHE-35113000
100
AcDbCircle
 10
-1.442852328923114
 20
0.0000000000006682
 30
0.0
 40
0.1133306631449909
  0
CIRCLE
  5
2F4
330
2C2
100
AcDbEntity
  8
Pressure_Balance_Rough_Valve-GROHE-35113000
100
AcDbCircle
 10
1.4428523289241
 20
0.0000000000006798
 30
0.0
 40
0.1185344132609033
  0
CIRCLE
  5
2F5
330
2C2
100
AcDbEntity
  8
Pressure_Balance_Rough_Valve-GROHE-35113000
100
AcDbCircle
 10
-1.442852328923114
 20
0.0000000000006682
 30
0.0
 40
0.1570812215892214
  0
CIRCLE
  5
2F6
330
2C2
100
AcDbEntity
  8
Pressure_Balance_Rough_Valve-GROHE-35113000
100
AcDbCircle
 10
1.4428523289241
 20
0.0000000000006798
 30
0.0
 40
0.1622849717051338
  0
CIRCLE
  5
2F7
330
2C2
100
AcDbEntity
  8
Pressure_Balance_Rough_Valve-GROHE-35113000
100
AcDbCircle
 10
-1.442852328923114
 20
0.0000000000006682
 30
0.0
 40
0.2285958673320987
  0
CIRCLE
  5
2F8
330
2C2
100
AcDbEntity
  8
Pressure_Balance_Rough_Valve-GROHE-35113000
100
AcDbCircle
 10
1.4428523289241
 20
0.0000000000006798
 30
0.0
 40
0.2337996174480111
  0
CIRCLE
  5
2F9
330
2C2
100
AcDbEntity
  8
Pressure_Balance_Rough_Valve-GROHE-35113000
100
AcDbCircle
 10
-0.0000000000000003
 20
0.0000000000006659
 30
0.0
 40
0.968750000000228
  0
CIRCLE
  5
2FA
330
2C2
100
AcDbEntity
  8
Pressure_Balance_Rough_Valve-GROHE-35113000
100
AcDbCircle
 10
-0.0000000000000003
 20
0.0000000000006659
 30
0.0
 40
1.129596651779346
  0
ENDBLK
  5
2C4
330
2C2
100
AcDbEntity
  8
0
100
AcDbBlockEnd
  0
BLOCK
  5
2FD
330
2FC
100
AcDbEntity
  8
0
100
AcDbBlockBegin
  2
Pressure_Balance_Rough_Valve-GROHE-35113000- Left
 70
     0
 10
0.0
 20
0.0
 30
0.0
  3
Pressure_Balance_Rough_Valve-GROHE-35113000- Left
  1

  0
LINE
  5
2FF
330
2FC
100
AcDbEntity
  8
Pressure_Balance_Rough_Valve-GROHE-35113000
100
AcDbLine
 10
-1.29989545202816
 20
-0.623472939063224
 30
0.0
 11
-1.29989545202816
 21
-0.7187500000005875
 31
0.0
1001
REVIT
1002
{
1070
     2
1000
-2001160
1002
}
  0
LINE
  5
300
330
2FC
100
AcDbEntity
  8
Pressure_Balance_Rough_Valve-GROHE-35113000
100
AcDbLine
 10
0.0312500000006706
 20
0.3073819767161362
 30
0.0
 11
-0.0312499999993294
 21
0.3073819767161371
 31
0.0
1001
REVIT
1002
{
1070
     2
1000
-2001160
1002
}
  0
LINE
  5
301
330
2FC
100
AcDbEntity
  8
Pressure_Balance_Rough_Valve-GROHE-35113000
100
AcDbLine
 10
-1.299895452028159
 20
-0.6234729390632232
 30
0.0
 11
-0.2285958673321025
 21
-0.6234729390632267
 31
0.0
1001
REVIT
1002
{
1070
     2
1000
-2001160
1002
}
  0
LINE
  5
302
330
2FC
100
AcDbEntity
  8
Pressure_Balance_Rough_Valve-GROHE-35113000
100
AcDbLine
 10
-0.2460939360416594
 20
-0.71875000000059
 30
0.0
 11
-1.29989545202816
 21
-0.7187500000005867
 31
0.0
1001
REVIT
1002
{
1070
     2
1000
-2001160
1002
}
  0
LINE
  5
303
330
2FC
100
AcDbEntity
  8
Pressure_Balance_Rough_Valve-GROHE-35113000
100
AcDbLine
 10
0.0312500000006706
 20
0.3073819767161362
 30
0.0
 11
0.0312500000006653
 21
0.0000000000000111
 31
0.0
1001
REVIT
1002
{
1070
     2
1000
-2001160
1002
}
  0
LINE
  5
304
330
2FC
100
AcDbEntity
  8
Pressure_Balance_Rough_Valve-GROHE-35113000
100
AcDbLine
 10
-0.0312499999993348
 20
0.0000000000000119
 30
0.0
 11
-0.0312499999993303
 21
0.3073819767161371
 31
0.0
1001
REVIT
1002
{
1070
     2
1000
-2001160
1002
}
  0
LINE
  5
305
330
2FC
100
AcDbEntity
  8
Pressure_Balance_Rough_Valve-GROHE-35113000
100
AcDbLine
 10
-0.0312499999993312
 20
0.2649925174906582
 30
0.0
 11
0.0312500000006688
 21
0.2649925174906574
 31
0.0
1001
REVIT
1002
{
1070
     2
1000
-2001160
1002
}
  0
LINE
  5
306
330
2FC
100
AcDbEntity
  8
Pressure_Balance_Rough_Valve-GROHE-35113000
100
AcDbLine
 10
1.12959665177934
 20
-0.4549363560042296
 30
0.0
 11
1.129596651779347
 21
-0.0000000000000157
 31
0.0
1001
REVIT
1002
{
1070
     1
1000
114472
1002
}
1002
{
1070
     2
1000
-2001160
1002
}
  0
LINE
  5
307
330
2FC
100
AcDbEntity
  8
Pressure_Balance_Rough_Valve-GROHE-35113000
100
AcDbLine
 10
-1.129596651779347
 20
0.0000000000000159
 30
0.0
 11
-1.129596651779352
 21
-0.4549363560041981
 31
0.0
1001
REVIT
1002
{
1070
     1
1000
114472
1002
}
1002
{
1070
     2
1000
-2001160
1002
}
  0
LINE
  5
308
330
2FC
100
AcDbEntity
  8
Pressure_Balance_Rough_Valve-GROHE-35113000
100
AcDbLine
 10
1.031250000000198
 20
-2.000000000000022
 30
0.0
 11
1.031250000000206
 21
-1.375299629300026
 31
0.0
1001
REVIT
1002
{
1070
     1
1000
114472
1002
}
1002
{
1070
     2
1000
-2001160
1002
}
  0
LINE
  5
309
330
2FC
100
AcDbEntity
  8
Pressure_Balance_Rough_Valve-GROHE-35113000
100
AcDbLine
 10
1.031250000000208
 20
-1.281250000001833
 30
0.0
 11
1.031250000000219
 21
-0.4549363560042092
 31
0.0
1001
REVIT
1002
{
1070
     1
1000
114472
1002
}
1002
{
1070
     2
1000
-2001160
1002
}
  0
LINE
  5
30A
330
2FC
100
AcDbEntity
  8
Pressure_Balance_Rough_Valve-GROHE-35113000
100
AcDbLine
 10
-1.031250000000231
 20
-0.45493635600418
 30
0.0
 11
-1.031250000000235
 21
-0.6234729390632247
 31
0.0
1001
REVIT
1002
{
1070
     1
1000
114472
1002
}
1002
{
1070
     2
1000
-2001160
1002
}
  0
LINE
  5
30B
330
2FC
100
AcDbEntity
  8
Pressure_Balance_Rough_Valve-GROHE-35113000
100
AcDbLine
 10
-1.031250000000235
 20
-0.7187500000005881
 30
0.0
 11
-1.031250000000253
 21
-1.999999999999993
 31
0.0
1001
REVIT
1002
{
1070
     1
1000
114472
1002
}
1002
{
1070
     2
1000
-2001160
1002
}
  0
LINE
  5
30C
330
2FC
100
AcDbEntity
  8
Pressure_Balance_Rough_Valve-GROHE-35113000
100
AcDbLine
 10
1.129596651779338
 20
-0.4549363560042292
 30
0.0
 11
-1.129596651779352
 21
-0.4549363560041974
 31
0.0
1001
REVIT
1002
{
1070
     1
1000
114472
1002
}
1002
{
1070
     2
1000
-2001160
1002
}
  0
LINE
  5
30D
330
2FC
100
AcDbEntity
  8
Pressure_Balance_Rough_Valve-GROHE-35113000
100
AcDbLine
 10
1.129596651779345
 20
-0.0000000000000159
 30
0.0
 11
-1.129596651779345
 21
0.0000000000000159
 31
0.0
1001
REVIT
1002
{
1070
     1
1000
114472
1002
}
1002
{
1070
     2
1000
-2001160
1002
}
  0
LINE
  5
30E
330
2FC
100
AcDbEntity
  8
Pressure_Balance_Rough_Valve-GROHE-35113000
100
AcDbLine
 10
1.031250000000196
 20
-2.00000000000002
 30
0.0
 11
-1.031250000000253
 21
-1.999999999999991
 31
0.0
1001
REVIT
1002
{
1070
     1
1000
114472
1002
}
1002
{
1070
     2
1000
-2001160
1002
}
  0
LINE
  5
30F
330
2FC
100
AcDbEntity
  8
Pressure_Balance_Rough_Valve-GROHE-35113000
100
AcDbLine
 10
1.299895452029356
 20
-1.375299629300027
 30
0.0
 11
1.299895452029356
 21
-1.281250000001834
 31
0.0
1001
REVIT
1002
{
1070
     1
1000
122706
1002
}
1002
{
1070
     2
1000
-2001160
1002
}
  0
LINE
  5
310
330
2FC
100
AcDbEntity
  8
Pressure_Balance_Rough_Valve-GROHE-35113000
100
AcDbLine
 10
0.2460939360374601
 20
-1.281250000001829
 30
0.0
 11
1.299895452029352
 21
-1.281250000001833
 31
0.0
1001
REVIT
1002
{
1070
     1
1000
122706
1002
}
1002
{
1070
     2
1000
-2001160
1002
}
  0
LINE
  5
311
330
2FC
100
AcDbEntity
  8
Pressure_Balance_Rough_Valve-GROHE-35113000
100
AcDbLine
 10
1.299895452029352
 20
-1.375299629300025
 30
0.0
 11
0.0000000000008642
 21
-1.375299629300021
 31
0.0
1001
REVIT
1002
{
1070
     1
1000
122706
1002
}
1002
{
1070
     2
1000
-2001160
1002
}
  0
LINE
  5
312
330
2FC
100
AcDbEntity
  8
Pressure_Balance_Rough_Valve-GROHE-35113000
100
AcDbLine
 10
0.0646378204674365
 20
-0.543356540971956
 30
0.0
 11
0.0646378204674365
 21
-0.5078092122360182
 31
0.0
1001
REVIT
1002
{
1070
     1
1000
130422
1002
}
1002
{
1070
     2
1000
-2001160
1002
}
  0
LINE
  5
313
330
2FC
100
AcDbEntity
  8
Pressure_Balance_Rough_Valve-GROHE-35113000
100
AcDbLine
 10
-0.0646378204674401
 20
-0.5078092122360182
 30
0.0
 11
-0.0646378204674401
 21
-0.543356540971956
 31
0.0
1001
REVIT
1002
{
1070
     1
1000
130422
1002
}
1002
{
1070
     2
1000
-2001160
1002
}
  0
LINE
  5
314
330
2FC
100
AcDbEntity
  8
Pressure_Balance_Rough_Valve-GROHE-35113000
100
AcDbLine
 10
0.11333066314499
 20
-0.5782202672322022
 30
0.0
 11
0.11333066314499
 21
-0.543356540971956
 31
0.0
1001
REVIT
1002
{
1070
     1
1000
130422
1002
}
1002
{
1070
     2
1000
-2001160
1002
}
  0
LINE
  5
315
330
2FC
100
AcDbEntity
  8
Pressure_Balance_Rough_Valve-GROHE-35113000
100
AcDbLine
 10
-0.1133306631449935
 20
-0.543356540971956
 30
0.0
 11
-0.1133306631449935
 21
-0.5782202672322022
 31
0.0
1001
REVIT
1002
{
1070
     1
1000
130422
1002
}
1002
{
1070
     2
1000
-2001160
1002
}
  0
LINE
  5
316
330
2FC
100
AcDbEntity
  8
Pressure_Balance_Rough_Valve-GROHE-35113000
100
AcDbLine
 10
0.1570812215892188
 20
-0.6182239150568609
 30
0.0
 11
0.1570812215892188
 21
-0.5782202672322022
 31
0.0
1001
REVIT
1002
{
1070
     1
1000
130422
1002
}
1002
{
1070
     2
1000
-2001160
1002
}
  0
LINE
  5
317
330
2FC
100
AcDbEntity
  8
Pressure_Balance_Rough_Valve-GROHE-35113000
100
AcDbLine
 10
-0.1570812215892241
 20
-0.5782202672322022
 30
0.0
 11
-0.1570812215892241
 21
-0.6182239150568609
 31
0.0
1001
REVIT
1002
{
1070
     1
1000
130422
1002
}
1002
{
1070
     2
1000
-2001160
1002
}
  0
LINE
  5
318
330
2FC
100
AcDbEntity
  8
Pressure_Balance_Rough_Valve-GROHE-35113000
100
AcDbLine
 10
0.2285958673320954
 20
-0.7027308804074739
 30
0.0
 11
0.2285958673320971
 21
-0.6182239150568609
 31
0.0
1001
REVIT
1002
{
1070
     1
1000
130422
1002
}
1002
{
1070
     2
1000
-2001160
1002
}
  0
LINE
  5
319
330
2FC
100
AcDbEntity
  8
Pressure_Balance_Rough_Valve-GROHE-35113000
100
AcDbLine
 10
-0.2285958673321025
 20
-0.6182239150568609
 30
0.0
 11
-0.2285958673321025
 21
-0.7027308804074688
 31
0.0
1001
REVIT
1002
{
1070
     1
1000
130422
1002
}
1002
{
1070
     2
1000
-2001160
1002
}
  0
LINE
  5
31A
330
2FC
100
AcDbEntity
  8
Pressure_Balance_Rough_Valve-GROHE-35113000
100
AcDbLine
 10
-0.0646378204674418
 20
-0.5078092122360177
 30
0.0
 11
0.0646378204674347
 21
-0.5078092122360177
 31
0.0
1001
REVIT
1002
{
1070
     1
1000
130422
1002
}
1002
{
1070
     2
1000
-2001160
1002
}
  0
LINE
  5
31B
330
2FC
100
AcDbEntity
  8
Pressure_Balance_Rough_Valve-GROHE-35113000
100
AcDbLine
 10
-0.1133306631449935
 20
-0.5433565409719555
 30
0.0
 11
0.1133306631449882
 21
-0.5433565409719555
 31
0.0
1001
REVIT
1002
{
1070
     1
1000
130422
1002
}
1002
{
1070
     2
1000
-2001160
1002
}
  0
LINE
  5
31C
330
2FC
100
AcDbEntity
  8
Pressure_Balance_Rough_Valve-GROHE-35113000
100
AcDbLine
 10
-0.1570812215892241
 20
-0.5782202672322018
 30
0.0
 11
0.1570812215892188
 21
-0.5782202672322018
 31
0.0
1001
REVIT
1002
{
1070
     1
1000
130422
1002
}
1002
{
1070
     2
1000
-2001160
1002
}
  0
LINE
  5
31D
330
2FC
100
AcDbEntity
  8
Pressure_Balance_Rough_Valve-GROHE-35113000
100
AcDbLine
 10
-0.2285958673321025
 20
-0.6182239150568602
 30
0.0
 11
0.2285958673320954
 21
-0.6182239150568602
 31
0.0
1001
REVIT
1002
{
1070
     1
1000
130422
1002
}
1002
{
1070
     2
1000
-2001160
1002
}
  0
LINE
  5
31E
330
2FC
100
AcDbEntity
  8
Pressure_Balance_Rough_Valve-GROHE-35113000
100
AcDbLine
 10
-2.375
 20
-1.312500000017746
 30
0.0
 11
-1.812499999999986
 21
-1.312500000017746
 31
0.0
1001
REVIT
1002
{
1070
     1
1000
160299
1002
}
1002
{
1070
     2
1000
-2001160
1002
}
  0
LINE
  5
31F
330
2FC
100
AcDbEntity
  8
Pressure_Balance_Rough_Valve-GROHE-35113000
100
AcDbLine
 10
-1.812499999999986
 20
-0.6874999999847332
 30
0.0
 11
-2.375
 21
-0.6874999999847332
 31
0.0
1001
REVIT
1002
{
1070
     1
1000
160299
1002
}
1002
{
1070
     2
1000
-2001160
1002
}
  0
LINE
  5
320
330
2FC
100
AcDbEntity
  8
Pressure_Balance_Rough_Valve-GROHE-35113000
100
AcDbLine
 10
-1.812499999999986
 20
-1.375000000017823
 30
0.0
 11
-1.031250000000244
 21
-1.375000000017823
 31
0.0
1001
REVIT
1002
{
1070
     1
1000
160299
1002
}
1002
{
1070
     2
1000
-2001160
1002
}
  0
LINE
  5
321
330
2FC
100
AcDbEntity
  8
Pressure_Balance_Rough_Valve-GROHE-35113000
100
AcDbLine
 10
1.299895452029356
 20
-1.375000000017823
 30
0.0
 11
1.812500000000665
 21
-1.375000000017823
 31
0.0
1001
REVIT
1002
{
1070
     1
1000
160299
1002
}
1002
{
1070
     2
1000
-2001160
1002
}
  0
LINE
  5
322
330
2FC
100
AcDbEntity
  8
Pressure_Balance_Rough_Valve-GROHE-35113000
100
AcDbLine
 10
1.812500000000665
 20
-0.6249999999846568
 30
0.0
 11
1.031250000000217
 21
-0.6249999999846568
 31
0.0
1001
REVIT
1002
{
1070
     1
1000
160299
1002
}
1002
{
1070
     2
1000
-2001160
1002
}
  0
LINE
  5
323
330
2FC
100
AcDbEntity
  8
Pressure_Balance_Rough_Valve-GROHE-35113000
100
AcDbLine
 10
-1.29989545202816
 20
-0.6249999999846568
 30
0.0
 11
-1.812499999999986
 21
-0.6249999999846568
 31
0.0
1001
REVIT
1002
{
1070
     1
1000
160299
1002
}
1002
{
1070
     2
1000
-2001160
1002
}
  0
LINE
  5
324
330
2FC
100
AcDbEntity
  8
Pressure_Balance_Rough_Valve-GROHE-35113000
100
AcDbLine
 10
1.812500000000665
 20
-1.312500000017745
 30
0.0
 11
2.375000000000002
 21
-1.312500000017745
 31
0.0
1001
REVIT
1002
{
1070
     1
1000
160299
1002
}
1002
{
1070
     2
1000
-2001160
1002
}
  0
LINE
  5
325
330
2FC
100
AcDbEntity
  8
Pressure_Balance_Rough_Valve-GROHE-35113000
100
AcDbLine
 10
2.375000000000002
 20
-0.6874999999847341
 30
0.0
 11
1.812500000000665
 21
-0.6874999999847341
 31
0.0
1001
REVIT
1002
{
1070
     1
1000
160299
1002
}
1002
{
1070
     2
1000
-2001160
1002
}
  0
LINE
  5
326
330
2FC
100
AcDbEntity
  8
Pressure_Balance_Rough_Valve-GROHE-35113000
100
AcDbLine
 10
-2.374999999999999
 20
-1.312500000017745
 30
0.0
 11
-2.374999999999999
 21
-0.6874999999847328
 31
0.0
1001
REVIT
1002
{
1070
     1
1000
160299
1002
}
1002
{
1070
     2
1000
-2001160
1002
}
  0
LINE
  5
327
330
2FC
100
AcDbEntity
  8
Pressure_Balance_Rough_Valve-GROHE-35113000
100
AcDbLine
 10
-1.812499999999986
 20
-1.375000000017821
 30
0.0
 11
-1.812499999999986
 21
-0.6249999999846564
 31
0.0
1001
REVIT
1002
{
1070
     1
1000
160299
1002
}
1002
{
1070
     2
1000
-2001160
1002
}
  0
LINE
  5
328
330
2FC
100
AcDbEntity
  8
Pressure_Balance_Rough_Valve-GROHE-35113000
100
AcDbLine
 10
2.374999999999999
 20
-1.312500000017744
 30
0.0
 11
2.374999999999999
 21
-0.6874999999847332
 31
0.0
1001
REVIT
1002
{
1070
     1
1000
160299
1002
}
1002
{
1070
     2
1000
-2001160
1002
}
  0
CIRCLE
  5
329
330
2FC
100
AcDbEntity
  8
Pressure_Balance_Rough_Valve-GROHE-35113000
100
AcDbCircle
 10
-0.0000000000000062
 20
-0.9999999999975212
 30
0.0
 40
0.3125000000303516
1001
REVIT
1002
{
1070
     1
1000
172988
1002
}
1002
{
1070
     2
1000
-2001160
1002
}
  0
CIRCLE
  5
32A
330
2FC
100
AcDbEntity
  8
Pressure_Balance_Rough_Valve-GROHE-35113000
100
AcDbCircle
 10
-0.0000000000000062
 20
-0.9999999999937337
 30
0.0
 40
0.3750000000278753
1001
REVIT
1002
{
1070
     1
1000
173002
1002
}
1002
{
1070
     2
1000
-2001160
1002
}
  0
LINE
  5
32B
330
2FC
100
AcDbEntity
  8
Pressure_Balance_Rough_Valve-GROHE-35113000
100
AcDbLine
 10
1.812500000000663
 20
-0.6249999999846564
 30
0.0
 11
1.812500000000663
 21
-1.375000000017821
 31
0.0
1001
REVIT
1002
{
1070
     1
1000
173015
1002
}
1002
{
1070
     2
1000
-2001160
1002
}
  0
CIRCLE
  5
32C
330
2FC
100
AcDbEntity
  8
Pressure_Balance_Rough_Valve-GROHE-35113000
100
AcDbCircle
 10
0.0000000000003384
 20
-0.9999999999975212
 30
0.0
 40
0.2500000000303518
1001
REVIT
1002
{
1070
     1
1000
173032
1002
}
1002
{
1070
     2
1000
-2001160
1002
}
  0
INSERT
  5
32D
330
2FC
100
AcDbEntity
  8
0
100
AcDbBlockReference
  2
Pressure_Balance_Rough_Valve-GROHE-35113000- Front
 10
6.286403421997506
 20
-1.002373788594036
 30
0.0
  0
ENDBLK
  5
2FE
330
2FC
100
AcDbEntity
  8
0
100
AcDbBlockEnd
  0
ENDSEC
  0
SECTION
  2
ENTITIES
  0
INSERT
  5
2C1
330
70
100
AcDbEntity
  8
0
100
AcDbBlockReference
  2
Pressure_Balance_Rough_Valve-GROHE-35113000- Top
 10
0.0000000000007243
 20
5.069118500307237
 30
0.0
  0
INSERT
  5
32E
330
70
100
AcDbEntity
  8
0
100
AcDbBlockReference
  2
Pressure_Balance_Rough_Valve-GROHE-35113000- Left
 10
-6.286403421997259
 20
0.3773737885930399
 30
0.0
  0
ENDSEC
  0
SECTION
  2
OBJECTS
  0
DICTIONARY
  5
C
330
0
100
AcDbDictionary
281
     1
  3
ACAD_CIP_PREVIOUS_PRODUCT_INFO
350
79
  3
ACAD_COLOR
350
63
  3
ACAD_DETAILVIEWSTYLE
350
6A
  3
ACAD_GROUP
350
D
  3
ACAD_IMAGE_VARS
350
7A
  3
ACAD_LAYOUT
350
62
  3
ACAD_MATERIAL
350
10
  3
ACAD_MLEADERSTYLE
350
66
  3
ACAD_MLINESTYLE
350
5F
  3
ACAD_PLOTSETTINGS
350
61
  3
ACAD_PLOTSTYLENAME
350
E
  3
ACAD_SCALELIST
350
42
  3
ACAD_SECTIONVIEWSTYLE
350
68
  3
ACAD_TABLESTYLE
350
64
  3
ACAD_VISUALSTYLE
350
29
  3
ACDB_RECOMPOSE_DATA
350
341
  3
AcDbVariableDictionary
350
E8
  3
REVIT_DICTIONARY
350
DD
  0
DICTIONARY
  5
228
330
2
100
AcDbDictionary
280
     1
281
     1
  3
ACAD_LAYERSTATES
360
229
  0
DICTIONARY
  5
E1
330
70
100
AcDbDictionary
280
     1
281
     1
  3
ACAD_SORTENTS
360
E2
  0
XRECORD
  5
79
102
{ACAD_REACTORS
330
C
102
}
330
C
100
AcDbXrecord
280
     1
300
ACD
300
2016
300
86445ACD_2016_0F
  0
DICTIONARY
  5
63
102
{ACAD_REACTORS
330
C
102
}
330
C
100
AcDbDictionary
281
     1
  0
DICTIONARY
  5
6A
102
{ACAD_REACTORS
330
C
102
}
330
C
100
AcDbDictionary
281
     1
  3
Imperial24
350
6B
  0
DICTIONARY
  5
D
102
{ACAD_REACTORS
330
C
102
}
330
C
100
AcDbDictionary
281
     1
  0
RASTERVARIABLES
  5
7A
102
{ACAD_REACTORS
330
C
102
}
330
C
100
AcDbRasterVariables
 90
        0
 70
     0
 71
     1
 72
     5
  0
DICTIONARY
  5
62
102
{ACAD_REACTORS
330
C
102
}
330
C
100
AcDbDictionary
281
     1
  3
Layout1
350
6F
  3
Layout2
350
77
  3
Model
350
73
  0
DICTIONARY
  5
10
102
{ACAD_REACTORS
330
C
102
}
330
C
100
AcDbDictionary
281
     1
  3
ByBlock
350
19
  3
ByLayer
350
11
  3
Global
350
21
  0
DICTIONARY
  5
66
102
{ACAD_REACTORS
330
C
102
}
330
C
100
AcDbDictionary
281
     1
  3
Standard
350
67
  0
DICTIONARY
  5
5F
102
{ACAD_REACTORS
330
C
102
}
330
C
100
AcDbDictionary
281
     1
  3
Standard
350
60
  0
DICTIONARY
  5
61
102
{ACAD_REACTORS
330
C
102
}
330
C
100
AcDbDictionary
281
     1
  0
ACDBDICTIONARYWDFLT
  5
E
102
{ACAD_REACTORS
330
C
102
}
330
C
100
AcDbDictionary
281
     1
  3
Normal
350
F
100
AcDbDictionaryWithDefault
340
F
  0
DICTIONARY
  5
42
102
{ACAD_REACTORS
330
C
102
}
330
C
100
AcDbDictionary
281
     1
  3
A0
350
43
  3
A1
350
44
  3
A2
350
45
  3
A3
350
46
  3
A4
350
47
  3
A5
350
48
  3
A6
350
49
  3
A7
350
4A
  3
A8
350
4B
  3
A9
350
4C
  3
B0
350
4D
  3
B1
350
4E
  3
B2
350
4F
  3
B3
350
50
  3
B4
350
51
  3
B5
350
52
  3
B6
350
53
  0
DICTIONARY
  5
68
102
{ACAD_REACTORS
330
C
102
}
330
C
100
AcDbDictionary
281
     1
  3
Imperial24
350
69
  0
DICTIONARY
  5
64
102
{ACAD_REACTORS
330
C
102
}
330
C
100
AcDbDictionary
281
     1
  3
Standard
350
65
  0
DICTIONARY
  5
29
102
{ACAD_REACTORS
330
C
102
}
330
C
100
AcDbDictionary
281
     1
  3
2dWireframe
350
2F
  3
Basic
350
2E
  3
Brighten
350
35
  3
ColorChange
350
39
  3
Conceptual
350
32
  3
Dim
350
34
  3
EdgeColorOff
350
41
  3
Facepattern
350
38
  3
Flat
350
2A
  3
FlatWithEdges
350
2B
  3
Gouraud
350
2C
  3
GouraudWithEdges
350
2D
  3
Hidden
350
31
  3
JitterOff
350
3F
  3
Linepattern
350
37
  3
OverhangOff
350
40
  3
Realistic
350
33
  3
Shaded
350
3E
  3
Shaded with edges
350
3D
  3
Shades of Gray
350
3A
  3
Sketchy
350
3B
  3
Thicken
350
36
  3
Wireframe
350
30
  3
X-Ray
350
3C
  0
XRECORD
  5
341
102
{ACAD_REACTORS
330
C
102
}
330
C
100
AcDbXrecord
280
     1
 90
        1
330
65
330
69
330
6B
  0
DICTIONARY
  5
E8
102
{ACAD_REACTORS
330
C
102
}
330
C
100
AcDbDictionary
281
     1
  3
CANNOSCALE
350
ED
  3
CMLEADERSTYLE
350
EA
  3
CTABLESTYLE
350
E9
  3
CVIEWDETAILSTYLE
350
EB
  3
CVIEWSECTIONSTYLE
350
EC
  0
DICTIONARY
  5
DD
102
{ACAD_REACTORS
330
C
102
}
330
C
100
AcDbDictionary
281
     1
  3
DRAWING_TOOL
350
E0
  3
REVIT_CATEGORY_MAPPING
350
DE
  3
REVIT_SUB_CATEGORY_MAPPING
350
DF
  0
DICTIONARY
  5
229
102
{ACAD_REACTORS
330
228
102
}
330
228
100
AcDbDictionary
281
     1
  0
SORTENTSTABLE
  5
E2
102
{ACAD_REACTORS
330
E1
102
}
330
E1
100
AcDbSortentsTable
330
70
  0
ACDBDETAILVIEWSTYLE
  5
6B
102
{ACAD_XDICTIONARY
360
E5
102
}
102
{ACAD_REACTORS
330
6A
102
}
330
6A
100
AcDbModelDocViewStyle
 70
     0
  3
Imperial24
290
     0
100
AcDbDetailViewStyle
 70
     0
 71
     0
 90
        3
 71
     1
340
55
 62
   256
 40
0.24
340
0
 62
   256
 40
0.24
300

 40
0.36
280
     3
 71
     2
340
5D
 90
       25
 62
   256
 71
     3
340
55
 62
   256
 40
0.24
 90
        1
 40
0.75
 90
        1
300
%<\AcVar ViewType \f "%tc1">% %<\AcVar ViewDetailId>%\PSCALE %<\AcVar ViewScale \f "%sn">%
 71
     4
340
5D
 90
       25
 62
   256
340
5D
 90
       25
 62
   256
280
     0
  0
LAYOUT
  5
6F
102
{ACAD_REACTORS
330
62
102
}
330
62
100
AcDbPlotSettings
  1

  2

  4

  6

 40
0.0
 41
0.0
 42
0.0
 43
0.0
 44
0.0
 45
0.0
 46
0.0
 47
0.0
 48
0.0
 49
0.0
140
0.0
141
0.0
142
1.0
143
1.0
 70
   688
 72
     0
 73
     0
 74
     5
  7

 75
    16
147
1.0
 76
     0
 77
     2
 78
   300
148
0.0
149
0.0
100
AcDbLayout
  1
Layout1
 70
     1
 71
     1
 10
0.0
 20
0.0
 11
12.0
 21
9.0
 12
0.0
 22
0.0
 32
0.0
 14
1.000000000000000E+20
 24
1.000000000000000E+20
 34
1.000000000000000E+20
 15
-1.000000000000000E+20
 25
-1.000000000000000E+20
 35
-1.000000000000000E+20
146
0.0
 13
0.0
 23
0.0
 33
0.0
 16
1.0
 26
0.0
 36
0.0
 17
0.0
 27
1.0
 37
0.0
 76
     0
330
6C
  0
LAYOUT
  5
77
102
{ACAD_REACTORS
330
62
102
}
330
62
100
AcDbPlotSettings
  1

  2

  4

  6

 40
0.0
 41
0.0
 42
0.0
 43
0.0
 44
0.0
 45
0.0
 46
0.0
 47
0.0
 48
0.0
 49
0.0
140
0.0
141
0.0
142
1.0
143
1.0
 70
   688
 72
     0
 73
     0
 74
     5
  7

 75
    16
147
1.0
 76
     0
 77
     2
 78
   300
148
0.0
149
0.0
100
AcDbLayout
  1
Layout2
 70
     1
 71
     2
 10
0.0
 20
0.0
 11
12.0
 21
9.0
 12
0.0
 22
0.0
 32
0.0
 14
0.0
 24
0.0
 34
0.0
 15
0.0
 25
0.0
 35
0.0
146
0.0
 13
0.0
 23
0.0
 33
0.0
 16
1.0
 26
0.0
 36
0.0
 17
0.0
 27
1.0
 37
0.0
 76
     0
330
74
  0
LAYOUT
  5
73
102
{ACAD_REACTORS
330
62
102
}
330
62
100
AcDbPlotSettings
  1

  2

  4

  6

 40
0.0
 41
0.0
 42
0.0
 43
0.0
 44
0.0
 45
0.0
 46
0.0
 47
0.0
 48
0.0
 49
0.0
140
0.0
141
0.0
142
1.0
143
1.0
 70
  1712
 72
     0
 73
     0
 74
     0
  7

 75
     0
147
1.0
 76
     0
 77
     2
 78
   300
148
0.0
149
0.0
100
AcDbLayout
  1
Model
 70
     1
 71
     0
 10
0.0
 20
0.0
 11
12.0
 21
9.0
 12
0.0
 22
0.0
 32
0.0
 14
0.0
 24
0.0
 34
0.0
 15
0.0
 25
0.0
 35
0.0
146
0.0
 13
0.0
 23
0.0
 33
0.0
 16
1.0
 26
0.0
 36
0.0
 17
0.0
 27
1.0
 37
0.0
 76
     0
330
70
331
57
  0
MATERIAL
  5
19
102
{ACAD_XDICTIONARY
360
1A
102
}
102
{ACAD_REACTORS
330
10
102
}
330
10
100
AcDbMaterial
  1
ByBlock
 72
     0
 43
0.0208333333333333
 43
0.0
 43
0.0
 43
0.0
 43
0.0
 43
0.0208333333333333
 43
0.0
 43
0.0
 43
0.0
 43
0.0
 43
1.0
 43
0.0
 43
0.0
 43
0.0
 43
0.0
 43
1.0
 77
     0
 47
0.0208333333333333
 47
0.0
 47
0.0
 47
0.0
 47
0.0
 47
0.0208333333333333
 47
0.0
 47
0.0
 47
0.0
 47
0.0
 47
1.0
 47
0.0
 47
0.0
 47
0.0
 47
0.0
 47
1.0
171
     0
 49
0.0208333333333333
 49
0.0
 49
0.0
 49
0.0
 49
0.0
 49
0.0208333333333333
 49
0.0
 49
0.0
 49
0.0
 49
0.0
 49
1.0
 49
0.0
 49
0.0
 49
0.0
 49
0.0
 49
1.0
175
     0
142
0.0208333333333333
142
0.0
142
0.0
142
0.0
142
0.0
142
0.0208333333333333
142
0.0
142
0.0
142
0.0
142
0.0
142
1.0
142
0.0
142
0.0
142
0.0
142
0.0
142
1.0
179
     0
144
0.0208333333333333
144
0.0
144
0.0
144
0.0
144
0.0
144
0.0208333333333333
144
0.0
144
0.0
144
0.0
144
0.0
144
1.0
144
0.0
144
0.0
144
0.0
144
0.0
144
1.0
147
0.0208333333333333
147
0.0
147
0.0
147
0.0
147
0.0
147
0.0208333333333333
147
0.0
147
0.0
147
0.0
147
0.0
147
1.0
147
0.0
147
0.0
147
0.0
147
0.0
147
1.0
  0
MATERIAL
  5
11
102
{ACAD_XDICTIONARY
360
12
102
}
102
{ACAD_REACTORS
330
10
102
}
330
10
100
AcDbMaterial
  1
ByLayer
 72
     0
 43
0.0208333333333333
 43
0.0
 43
0.0
 43
0.0
 43
0.0
 43
0.0208333333333333
 43
0.0
 43
0.0
 43
0.0
 43
0.0
 43
1.0
 43
0.0
 43
0.0
 43
0.0
 43
0.0
 43
1.0
 77
     0
 47
0.0208333333333333
 47
0.0
 47
0.0
 47
0.0
 47
0.0
 47
0.0208333333333333
 47
0.0
 47
0.0
 47
0.0
 47
0.0
 47
1.0
 47
0.0
 47
0.0
 47
0.0
 47
0.0
 47
1.0
171
     0
 49
0.0208333333333333
 49
0.0
 49
0.0
 49
0.0
 49
0.0
 49
0.0208333333333333
 49
0.0
 49
0.0
 49
0.0
 49
0.0
 49
1.0
 49
0.0
 49
0.0
 49
0.0
 49
0.0
 49
1.0
175
     0
142
0.0208333333333333
142
0.0
142
0.0
142
0.0
142
0.0
142
0.0208333333333333
142
0.0
142
0.0
142
0.0
142
0.0
142
1.0
142
0.0
142
0.0
142
0.0
142
0.0
142
1.0
179
     0
144
0.0208333333333333
144
0.0
144
0.0
144
0.0
144
0.0
144
0.0208333333333333
144
0.0
144
0.0
144
0.0
144
0.0
144
1.0
144
0.0
144
0.0
144
0.0
144
0.0
144
1.0
147
0.0208333333333333
147
0.0
147
0.0
147
0.0
147
0.0
147
0.0208333333333333
147
0.0
147
0.0
147
0.0
147
0.0
147
1.0
147
0.0
147
0.0
147
0.0
147
0.0
147
1.0
  0
MATERIAL
  5
21
102
{ACAD_XDICTIONARY
360
22
102
}
102
{ACAD_REACTORS
330
10
102
}
330
10
100
AcDbMaterial
  1
Global
 72
     0
 43
0.0208333333333333
 43
0.0
 43
0.0
 43
0.0
 43
0.0
 43
0.0208333333333333
 43
0.0
 43
0.0
 43
0.0
 43
0.0
 43
1.0
 43
0.0
 43
0.0
 43
0.0
 43
0.0
 43
1.0
 77
     0
 47
0.0208333333333333
 47
0.0
 47
0.0
 47
0.0
 47
0.0
 47
0.0208333333333333
 47
0.0
 47
0.0
 47
0.0
 47
0.0
 47
1.0
 47
0.0
 47
0.0
 47
0.0
 47
0.0
 47
1.0
171
     0
 49
0.0208333333333333
 49
0.0
 49
0.0
 49
0.0
 49
0.0
 49
0.0208333333333333
 49
0.0
 49
0.0
 49
0.0
 49
0.0
 49
1.0
 49
0.0
 49
0.0
 49
0.0
 49
0.0
 49
1.0
175
     0
142
0.0208333333333333
142
0.0
142
0.0
142
0.0
142
0.0
142
0.0208333333333333
142
0.0
142
0.0
142
0.0
142
0.0
142
1.0
142
0.0
142
0.0
142
0.0
142
0.0
142
1.0
179
     0
144
0.0208333333333333
144
0.0
144
0.0
144
0.0
144
0.0
144
0.0208333333333333
144
0.0
144
0.0
144
0.0
144
0.0
144
1.0
144
0.0
144
0.0
144
0.0
144
0.0
144
1.0
147
0.0208333333333333
147
0.0
147
0.0
147
0.0
147
0.0
147
0.0208333333333333
147
0.0
147
0.0
147
0.0
147
0.0
147
1.0
147
0.0
147
0.0
147
0.0
147
0.0
147
1.0
  0
MLEADERSTYLE
  5
67
102
{ACAD_REACTORS
330
66
102
}
330
66
100
AcDbMLeaderStyle
179
     2
170
     2
171
     1
172
     0
 90
        2
 40
0.0
 41
0.0
173
     1
 91
-1056964608
340
5B
 92
       -2
290
     1
 42
0.09
291
     1
 43
0.36
  3
Standard
 44
0.18
300

342
55
174
     1
178
     6
175
     1
176
     0
 93
-1056964608
 45
0.18
292
     0
297
     0
 46
0.18
 94
-1056964608
 47
1.0
 49
1.0
140
1.0
293
     1
141
0.0
294
     1
177
     0
142
1.0
295
     1
296
     0
143
0.125
271
     0
272
     9
273
     9
298
     1
  0
MLINESTYLE
  5
60
102
{ACAD_REACTORS
330
5F
102
}
330
5F
100
AcDbMlineStyle
  2
STANDARD
 70
     0
  3

 62
   256
 51
90.0
 52
90.0
 71
     2
 49
0.5
 62
   256
  6
BYLAYER
 49
-0.5
 62
   256
  6
BYLAYER
  0
ACDBPLACEHOLDER
  5
F
102
{ACAD_REACTORS
330
E
102
}
330
E
  0
SCALE
  5
43
102
{ACAD_REACTORS
330
42
102
}
330
42
100
AcDbScale
 70
     0
300
1:1
140
1.0
141
1.0
290
     1
  0
SCALE
  5
44
102
{ACAD_REACTORS
330
42
102
}
330
42
100
AcDbScale
 70
     0
300
1/128" = 1'-0"
140
0.0078125
141
12.0
290
     0
  0
SCALE
  5
45
102
{ACAD_REACTORS
330
42
102
}
330
42
100
AcDbScale
 70
     0
300
1/64" = 1'-0"
140
0.015625
141
12.0
290
     0
  0
SCALE
  5
46
102
{ACAD_REACTORS
330
42
102
}
330
42
100
AcDbScale
 70
     0
300
1/32" = 1'-0"
140
0.03125
141
12.0
290
     0
  0
SCALE
  5
47
102
{ACAD_REACTORS
330
42
102
}
330
42
100
AcDbScale
 70
     0
300
1/16" = 1'-0"
140
0.0625
141
12.0
290
     0
  0
SCALE
  5
48
102
{ACAD_REACTORS
330
42
102
}
330
42
100
AcDbScale
 70
     0
300
3/32" = 1'-0"
140
0.09375
141
12.0
290
     0
  0
SCALE
  5
49
102
{ACAD_REACTORS
330
42
102
}
330
42
100
AcDbScale
 70
     0
300
1/8" = 1'-0"
140
0.125
141
12.0
290
     0
  0
SCALE
  5
4A
102
{ACAD_REACTORS
330
42
102
}
330
42
100
AcDbScale
 70
     0
300
3/16" = 1'-0"
140
0.1875
141
12.0
290
     0
  0
SCALE
  5
4B
102
{ACAD_REACTORS
330
42
102
}
330
42
100
AcDbScale
 70
     0
300
1/4" = 1'-0"
140
0.25
141
12.0
290
     0
  0
SCALE
  5
4C
102
{ACAD_REACTORS
330
42
102
}
330
42
100
AcDbScale
 70
     0
300
3/8" = 1'-0"
140
0.375
141
12.0
290
     0
  0
SCALE
  5
4D
102
{ACAD_REACTORS
330
42
102
}
330
42
100
AcDbScale
 70
     0
300
1/2" = 1'-0"
140
0.5
141
12.0
290
     0
  0
SCALE
  5
4E
102
{ACAD_REACTORS
330
42
102
}
330
42
100
AcDbScale
 70
     0
300
3/4" = 1'-0"
140
0.75
141
12.0
290
     0
  0
SCALE
  5
4F
102
{ACAD_REACTORS
330
42
102
}
330
42
100
AcDbScale
 70
     0
300
1" = 1'-0"
140
1.0
141
12.0
290
     0
  0
SCALE
  5
50
102
{ACAD_REACTORS
330
42
102
}
330
42
100
AcDbScale
 70
     0
300
1-1/2" = 1'-0"
140
1.5
141
12.0
290
     0
  0
SCALE
  5
51
102
{ACAD_REACTORS
330
42
102
}
330
42
100
AcDbScale
 70
     0
300
3" = 1'-0"
140
3.0
141
12.0
290
     0
  0
SCALE
  5
52
102
{ACAD_REACTORS
330
42
102
}
330
42
100
AcDbScale
 70
     0
300
6" = 1'-0"
140
6.0
141
12.0
290
     0
  0
SCALE
  5
53
102
{ACAD_REACTORS
330
42
102
}
330
42
100
AcDbScale
 70
     0
300
1'-0" = 1'-0"
140
12.0
141
12.0
290
     0
  0
ACDBSECTIONVIEWSTYLE
  5
69
102
{ACAD_XDICTIONARY
360
E3
102
}
102
{ACAD_REACTORS
330
68
102
}
330
68
100
AcDbModelDocViewStyle
 70
     0
  3
Imperial24
290
     0
100
AcDbSectionViewStyle
 70
     0
 71
     0
 90
       78
 71
     1
340
55
 62
   256
 40
0.24
340
0
340
0
 62
   256
 40
0.24
300
I, O, Q, S, X, Z
 40
0.48
 90
        3
 40
0.18
 90
        1
 71
     2
340
5D
 90
       25
 62
   256
340
5D
 90
       50
 62
   256
 40
0.24
 40
0.0
 40
0.24
 71
     3
340
55
 62
   256
 40
0.24
 90
        1
 40
0.75
 90
        1
300
%<\AcVar ViewType \f "%tc1">% %<\AcVar ViewSectionStartId>%-%<\AcVar ViewSectionEndId>%\PSCALE %<\AcVar ViewScale \f "%sn">%
 71
     4
 62
   256
 62
   257
300
ANSI31
 40
1.0
 90
        0
290
     0
290
     0
 90
        6
 40
0.0
 40
1.570796326794896
 40
0.2617993877991494
 40
1.308996938995747
 40
-0.2617993877991494
 40
1.832595714594046
  0
TABLESTYLE
  5
65
102
{ACAD_XDICTIONARY
360
33D
102
}
102
{ACAD_REACTORS
330
64
102
}
330
64
100
AcDbTableStyle
280
     0
  3
Standard
 70
     0
 71
     0
 40
0.06
 41
0.06
280
     0
281
     0
  7
Standard
140
0.18
170
     2
 62
     0
 63
     7
283
     0
 90
      512
 91
        0
  1

274
    -2
284
     1
 64
     0
275
    -2
285
     1
 65
     0
276
    -2
286
     1
 66
     0
277
    -2
287
     1
 67
     0
278
    -2
288
     1
 68
     0
279
    -2
289
     1
 69
     0
  7
Standard
140
0.25
170
     5
 62
     0
 63
     7
283
     0
 90
      512
 91
        0
  1

274
    -2
284
     1
 64
     0
275
    -2
285
     1
 65
     0
276
    -2
286
     1
 66
     0
277
    -2
287
     1
 67
     0
278
    -2
288
     1
 68
     0
279
    -2
289
     1
 69
     0
  7
Standard
140
0.18
170
     5
 62
     0
 63
     7
283
     0
 90
      512
 91
        0
  1

274
    -2
284
     1
 64
     0
275
    -2
285
     1
 65
     0
276
    -2
286
     1
 66
     0
277
    -2
287
     1
 67
     0
278
    -2
288
     1
 68
     0
279
    -2
289
     1
 69
     0
  0
VISUALSTYLE
  5
2F
102
{ACAD_REACTORS
330
29
102
}
330
29
100
AcDbVisualStyle
  2
2dWireframe
 70
     4
177
     3
291
     0
 70
    58
 90
        0
176
     1
 90
        2
176
     1
 90
        0
176
     1
 90
        0
176
     1
 40
0.6
176
     1
 40
30.0
176
     1
 62
     7
420
 16777215
176
     1
 90
        1
176
     1
 90
        4
176
     1
 62
     7
176
     1
 62
   257
176
     1
 90
        1
176
     1
 90
        1
176
     1
 40
1.0
176
     1
 90
        0
176
     1
 62
   257
176
     1
 40
1.0
176
     1
 90
        1
176
     1
 90
        6
176
     1
 90
        2
176
     1
 62
     7
176
     1
 90
        5
176
     1
 90
        0
176
     1
 90
        0
176
     1
290
     0
176
     1
 90
        1
176
     1
 40
0.0
176
     1
 90
        0
176
     1
290
     1
176
     1
290
     1
176
     1
290
     0
176
     1
290
     0
176
     1
290
     0
176
     1
290
     0
176
     1
290
     0
176
     1
290
     0
176
     1
290
     0
176
     1
 90
       50
176
     1
 40
0.0
176
     1
 40
1.0
176
     1
 90
        0
176
     1
 62
    18
420
        0
176
     1
 90
       50
176
     1
 90
        3
176
     1
 62
     5
420
      255
176
     1
290
     0
176
     1
 90
       50
176
     1
 90
       50
176
     1
 90
       50
176
     1
290
     0
176
     1
 90
       50
176
     1
 62
   256
176
     0
 40
1.0
176
     0
 90
        2
176
     1
  1
strokes_ogs.tif
176
     1
290
     0
176
     1
 40
1.0
176
     1
 40
1.0
176
     1
  0
VISUALSTYLE
  5
2E
102
{ACAD_REACTORS
330
29
102
}
330
29
100
AcDbVisualStyle
  2
Basic
 70
     7
177
     3
291
     1
 70
    58
 90
        1
176
     1
 90
        0
176
     1
 90
        1
176
     1
 90
        0
176
     1
 40
0.6
176
     1
 40
30.0
176
     1
 62
     7
420
 16777215
176
     1
 90
        0
176
     1
 90
        4
176
     1
 62
     7
176
     1
 62
   257
176
     1
 90
        1
176
     1
 90
        1
176
     1
 40
1.0
176
     1
 90
        8
176
     1
 62
     7
176
     1
 40
1.0
176
     1
 90
        1
176
     1
 90
        6
176
     1
 90
        2
176
     1
 62
     7
176
     1
 90
        5
176
     1
 90
        0
176
     1
 90
        0
176
     1
290
     0
176
     1
 90
        1
176
     1
 40
0.0
176
     1
 90
        0
176
     1
290
     0
176
     1
290
     1
176
     1
290
     1
176
     1
290
     0
176
     1
290
     0
176
     1
290
     0
176
     1
290
     0
176
     1
290
     0
176
     1
290
     0
176
     1
 90
       50
176
     1
 40
0.0
176
     1
 40
1.0
176
     1
 90
        0
176
     1
 62
    18
420
        0
176
     1
 90
       50
176
     1
 90
        3
176
     1
 62
     5
420
      255
176
     1
290
     0
176
     1
 90
       50
176
     1
 90
       50
176
     1
 90
       50
176
     1
290
     0
176
     1
 90
       50
176
     1
 62
   256
176
     0
 40
1.0
176
     0
 90
        2
176
     1
  1
strokes_ogs.tif
176
     1
290
     0
176
     1
 40
1.0
176
     1
 40
1.0
176
     1
  0
VISUALSTYLE
  5
35
102
{ACAD_REACTORS
330
29
102
}
330
29
100
AcDbVisualStyle
  2
Brighten
 70
    12
177
     3
291
     1
 70
    58
 90
        2
176
     1
 90
        2
176
     1
 90
        0
176
     1
 90
        0
176
     1
 40
0.6
176
     1
 40
30.0
176
     1
 62
     7
420
 16777215
176
     1
 90
        1
176
     1
 90
        4
176
     1
 62
     7
176
     1
 62
   257
176
     1
 90
        1
176
     1
 90
        1
176
     1
 40
1.0
176
     1
 90
        8
176
     1
 62
     7
176
     1
 40
1.0
176
     1
 90
        1
176
     1
 90
        6
176
     1
 90
        2
176
     1
 62
     7
176
     1
 90
        5
176
     1
 90
        0
176
     1
 90
        0
176
     1
290
     0
176
     1
 90
        1
176
     1
 40
50.0
176
     1
 90
        0
176
     1
290
     0
176
     1
290
     1
176
     1
290
     1
176
     1
290
     0
176
     1
290
     0
176
     1
290
     0
176
     1
290
     0
176
     1
290
     0
176
     1
290
     0
176
     1
 90
       50
176
     1
 40
0.0
176
     1
 40
1.0
176
     1
 90
        0
176
     1
 62
    18
420
        0
176
     1
 90
       50
176
     1
 90
        3
176
     1
 62
     5
420
      255
176
     1
290
     0
176
     1
 90
       50
176
     1
 90
       50
176
     1
 90
       50
176
     1
290
     0
176
     1
 90
       50
176
     1
 62
   256
176
     0
 40
1.0
176
     0
 90
        2
176
     1
  1
strokes_ogs.tif
176
     1
290
     0
176
     1
 40
1.0
176
     1
 40
1.0
176
     1
  0
VISUALSTYLE
  5
39
102
{ACAD_REACTORS
330
29
102
}
330
29
100
AcDbVisualStyle
  2
ColorChange
 70
    16
177
     3
291
     1
 70
    58
 90
        2
176
     1
 90
        2
176
     1
 90
        3
176
     1
 90
        0
176
     1
 40
0.6
176
     1
 40
30.0
176
     1
 62
     8
420
  8421504
176
     1
 90
        1
176
     1
 90
        4
176
     1
 62
     7
176
     1
 62
   257
176
     1
 90
        1
176
     1
 90
        1
176
     1
 40
1.0
176
     1
 90
        8
176
     1
 62
     8
420
  8421504
176
     1
 40
1.0
176
     1
 90
        1
176
     1
 90
        6
176
     1
 90
        2
176
     1
 62
     7
176
     1
 90
        5
176
     1
 90
        0
176
     1
 90
        0
176
     1
290
     0
176
     1
 90
        1
176
     1
 40
0.0
176
     1
 90
        0
176
     1
290
     0
176
     1
290
     1
176
     1
290
     1
176
     1
290
     0
176
     1
290
     0
176
     1
290
     0
176
     1
290
     0
176
     1
290
     0
176
     1
290
     0
176
     1
 90
       50
176
     1
 40
0.0
176
     1
 40
1.0
176
     1
 90
        0
176
     1
 62
    18
420
        0
176
     1
 90
       50
176
     1
 90
        3
176
     1
 62
     5
420
      255
176
     1
290
     0
176
     1
 90
       50
176
     1
 90
       50
176
     1
 90
       50
176
     1
290
     0
176
     1
 90
       50
176
     1
 62
   256
176
     0
 40
1.0
176
     0
 90
        2
176
     1
  1
strokes_ogs.tif
176
     1
290
     0
176
     1
 40
1.0
176
     1
 40
1.0
176
     1
  0
VISUALSTYLE
  5
32
102
{ACAD_REACTORS
330
29
102
}
330
29
100
AcDbVisualStyle
  2
Conceptual
 70
     9
177
     3
291
     0
 70
    58
 90
        3
176
     1
 90
        2
176
     1
 90
        0
176
     1
 90
        0
176
     1
 40
0.6
176
     1
 40
30.0
176
     1
 62
     7
420
 16777215
176
     1
 90
        2
176
     1
 90
        2
176
     1
 62
     7
176
     1
 62
   257
176
     1
 90
        1
176
     1
 90
        1
176
     1
 40
179.0
176
     1
 90
        8
176
     1
 62
     7
176
     1
 40
1.0
176
     1
 90
        1
176
     1
 90
        6
176
     1
 90
        2
176
     1
 62
     7
176
     1
 90
        3
176
     1
 90
        0
176
     1
 90
        0
176
     1
290
     0
176
     1
 90
        1
176
     1
 40
0.0
176
     1
 90
        0
176
     1
290
     0
176
     1
290
     1
176
     1
290
     1
176
     1
290
     0
176
     1
290
     0
176
     1
290
     0
176
     1
290
     0
176
     1
290
     0
176
     1
290
     0
176
     1
 90
       50
176
     1
 40
0.0
176
     1
 40
1.0
176
     1
 90
        0
176
     1
 62
    18
420
        0
176
     1
 90
       50
176
     1
 90
        3
176
     1
 62
     5
420
      255
176
     1
290
     0
176
     1
 90
       50
176
     1
 90
       50
176
     1
 90
       50
176
     1
290
     0
176
     1
 90
       50
176
     1
 62
   256
176
     0
 40
1.0
176
     0
 90
        2
176
     1
  1
strokes_ogs.tif
176
     1
290
     0
176
     1
 40
1.0
176
     1
 40
1.0
176
     1
  0
VISUALSTYLE
  5
34
102
{ACAD_REACTORS
330
29
102
}
330
29
100
AcDbVisualStyle
  2
Dim
 70
    11
177
     3
291
     1
 70
    58
 90
        2
176
     1
 90
        2
176
     1
 90
        0
176
     1
 90
        0
176
     1
 40
0.6
176
     1
 40
30.0
176
     1
 62
     7
420
 16777215
176
     1
 90
        1
176
     1
 90
        4
176
     1
 62
     7
176
     1
 62
   257
176
     1
 90
        1
176
     1
 90
        1
176
     1
 40
1.0
176
     1
 90
        8
176
     1
 62
     7
176
     1
 40
1.0
176
     1
 90
        1
176
     1
 90
        6
176
     1
 90
        2
176
     1
 62
     7
176
     1
 90
        5
176
     1
 90
        0
176
     1
 90
        0
176
     1
290
     0
176
     1
 90
        1
176
     1
 40
-50.0
176
     1
 90
        0
176
     1
290
     0
176
     1
290
     1
176
     1
290
     1
176
     1
290
     0
176
     1
290
     0
176
     1
290
     0
176
     1
290
     0
176
     1
290
     0
176
     1
290
     0
176
     1
 90
       50
176
     1
 40
0.0
176
     1
 40
1.0
176
     1
 90
        0
176
     1
 62
    18
420
        0
176
     1
 90
       50
176
     1
 90
        3
176
     1
 62
     5
420
      255
176
     1
290
     0
176
     1
 90
       50
176
     1
 90
       50
176
     1
 90
       50
176
     1
290
     0
176
     1
 90
       50
176
     1
 62
   256
176
     0
 40
1.0
176
     0
 90
        2
176
     1
  1
strokes_ogs.tif
176
     1
290
     0
176
     1
 40
1.0
176
     1
 40
1.0
176
     1
  0
VISUALSTYLE
  5
41
102
{ACAD_REACTORS
330
29
102
}
330
29
100
AcDbVisualStyle
  2
EdgeColorOff
 70
    22
177
     3
291
     1
 70
    58
 90
        2
176
     0
 90
        2
176
     0
 90
        0
176
     0
 90
        0
176
     0
 40
0.6
176
     0
 40
30.0
176
     0
 62
     7
420
 16777215
176
     0
 90
        1
176
     0
 90
        4
176
     0
 62
     7
176
     0
 62
   257
176
     0
 90
        1
176
     0
 90
        1
176
     0
 40
1.0
176
     0
 90
        8
176
     2
 62
     7
176
     0
 40
1.0
176
     0
 90
        1
176
     0
 90
        6
176
     0
 90
        2
176
     0
 62
     7
176
     0
 90
        5
176
     0
 90
        0
176
     0
 90
        0
176
     0
290
     0
176
     0
 90
        1
176
     0
 40
0.0
176
     0
 90
        0
176
     0
290
     0
176
     0
290
     1
176
     0
290
     1
176
     0
290
     0
176
     0
290
     0
176
     0
290
     0
176
     0
290
     0
176
     0
290
     0
176
     0
290
     0
176
     0
 90
       50
176
     0
 40
0.0
176
     0
 40
1.0
176
     0
 90
        0
176
     0
 62
    18
420
        0
176
     0
 90
       50
176
     0
 90
        3
176
     0
 62
     5
420
      255
176
     0
290
     0
176
     0
 90
       50
176
     0
 90
       50
176
     0
 90
       50
176
     0
290
     0
176
     0
 90
       50
176
     0
 62
   256
176
     0
 40
1.0
176
     0
 90
        2
176
     0
  1
strokes_ogs.tif
176
     0
290
     0
176
     0
 40
1.0
176
     0
 40
1.0
176
     0
  0
VISUALSTYLE
  5
38
102
{ACAD_REACTORS
330
29
102
}
330
29
100
AcDbVisualStyle
  2
Facepattern
 70
    15
177
     3
291
     1
 70
    58
 90
        2
176
     1
 90
        2
176
     1
 90
        0
176
     1
 90
        0
176
     1
 40
0.6
176
     1
 40
30.0
176
     1
 62
     7
420
 16777215
176
     1
 90
        1
176
     1
 90
        4
176
     1
 62
     7
176
     1
 62
   257
176
     1
 90
        1
176
     1
 90
        1
176
     1
 40
1.0
176
     1
 90
        8
176
     1
 62
     7
176
     1
 40
1.0
176
     1
 90
        1
176
     1
 90
        6
176
     1
 90
        2
176
     1
 62
     7
176
     1
 90
        5
176
     1
 90
        0
176
     1
 90
        0
176
     1
290
     0
176
     1
 90
        1
176
     1
 40
0.0
176
     1
 90
        0
176
     1
290
     0
176
     1
290
     1
176
     1
290
     1
176
     1
290
     0
176
     1
290
     0
176
     1
290
     0
176
     1
290
     0
176
     1
290
     0
176
     1
290
     0
176
     1
 90
       50
176
     1
 40
0.0
176
     1
 40
1.0
176
     1
 90
        0
176
     1
 62
    18
420
        0
176
     1
 90
       50
176
     1
 90
        3
176
     1
 62
     5
420
      255
176
     1
290
     0
176
     1
 90
       50
176
     1
 90
       50
176
     1
 90
       50
176
     1
290
     0
176
     1
 90
       50
176
     1
 62
   256
176
     0
 40
1.0
176
     0
 90
        2
176
     1
  1
strokes_ogs.tif
176
     1
290
     0
176
     1
 40
1.0
176
     1
 40
1.0
176
     1
  0
VISUALSTYLE
  5
2A
102
{ACAD_REACTORS
330
29
102
}
330
29
100
AcDbVisualStyle
  2
Flat
 70
     0
177
     3
291
     1
 70
    58
 90
        2
176
     1
 90
        1
176
     1
 90
        1
176
     1
 90
        2
176
     1
 40
0.6
176
     1
 40
30.0
176
     1
 62
     7
420
 16777215
176
     1
 90
        0
176
     1
 90
        0
176
     1
 62
     7
176
     1
 62
   257
176
     1
 90
        1
176
     1
 90
        1
176
     1
 40
1.0
176
     1
 90
        8
176
     1
 62
     7
176
     1
 40
1.0
176
     1
 90
        1
176
     1
 90
        6
176
     1
 90
        2
176
     1
 62
     7
176
     1
 90
        5
176
     1
 90
        0
176
     1
 90
        0
176
     1
290
     0
176
     1
 90
       13
176
     1
 40
0.0
176
     1
 90
        0
176
     1
290
     0
176
     1
290
     1
176
     1
290
     1
176
     1
290
     0
176
     1
290
     0
176
     1
290
     0
176
     1
290
     0
176
     1
290
     0
176
     1
290
     0
176
     1
 90
       50
176
     1
 40
0.0
176
     1
 40
1.0
176
     1
 90
        0
176
     1
 62
    18
420
        0
176
     1
 90
       50
176
     1
 90
        3
176
     1
 62
     5
420
      255
176
     1
290
     0
176
     1
 90
       50
176
     1
 90
       50
176
     1
 90
       50
176
     1
290
     0
176
     1
 90
       50
176
     1
 62
   256
176
     0
 40
1.0
176
     0
 90
        2
176
     1
  1
strokes_ogs.tif
176
     1
290
     0
176
     1
 40
1.0
176
     1
 40
1.0
176
     1
  0
VISUALSTYLE
  5
2B
102
{ACAD_REACTORS
330
29
102
}
330
29
100
AcDbVisualStyle
  2
FlatWithEdges
 70
     1
177
     3
291
     1
 70
    58
 90
        2
176
     1
 90
        1
176
     1
 90
        1
176
     1
 90
        2
176
     1
 40
0.6
176
     1
 40
30.0
176
     1
 62
     7
420
 16777215
176
     1
 90
        1
176
     1
 90
        0
176
     1
 62
     7
176
     1
 62
   257
176
     1
 90
        1
176
     1
 90
        1
176
     1
 40
1.0
176
     1
 90
        0
176
     1
 62
   257
176
     1
 40
1.0
176
     1
 90
        1
176
     1
 90
        6
176
     1
 90
        2
176
     1
 62
     7
176
     1
 90
        5
176
     1
 90
        0
176
     1
 90
        0
176
     1
290
     0
176
     1
 90
       13
176
     1
 40
0.0
176
     1
 90
        0
176
     1
290
     0
176
     1
290
     1
176
     1
290
     1
176
     1
290
     0
176
     1
290
     0
176
     1
290
     0
176
     1
290
     0
176
     1
290
     0
176
     1
290
     0
176
     1
 90
       50
176
     1
 40
0.0
176
     1
 40
1.0
176
     1
 90
        0
176
     1
 62
    18
420
        0
176
     1
 90
       50
176
     1
 90
        3
176
     1
 62
     5
420
      255
176
     1
290
     0
176
     1
 90
       50
176
     1
 90
       50
176
     1
 90
       50
176
     1
290
     0
176
     1
 90
       50
176
     1
 62
   256
176
     0
 40
1.0
176
     0
 90
        2
176
     1
  1
strokes_ogs.tif
176
     1
290
     0
176
     1
 40
1.0
176
     1
 40
1.0
176
     1
  0
VISUALSTYLE
  5
2C
102
{ACAD_REACTORS
330
29
102
}
330
29
100
AcDbVisualStyle
  2
Gouraud
 70
     2
177
     3
291
     1
 70
    58
 90
        2
176
     1
 90
        2
176
     1
 90
        1
176
     1
 90
        2
176
     1
 40
0.6
176
     1
 40
30.0
176
     1
 62
     7
420
 16777215
176
     1
 90
        0
176
     1
 90
        0
176
     1
 62
     7
176
     1
 62
   257
176
     1
 90
        1
176
     1
 90
        1
176
     1
 40
1.0
176
     1
 90
        0
176
     1
 62
     7
176
     1
 40
1.0
176
     1
 90
        1
176
     1
 90
        6
176
     1
 90
        2
176
     1
 62
     7
176
     1
 90
        5
176
     1
 90
        0
176
     1
 90
        0
176
     1
290
     0
176
     1
 90
       13
176
     1
 40
0.0
176
     1
 90
        0
176
     1
290
     0
176
     1
290
     1
176
     1
290
     1
176
     1
290
     0
176
     1
290
     0
176
     1
290
     0
176
     1
290
     0
176
     1
290
     0
176
     1
290
     0
176
     1
 90
       50
176
     1
 40
0.0
176
     1
 40
1.0
176
     1
 90
        0
176
     1
 62
    18
420
        0
176
     1
 90
       50
176
     1
 90
        3
176
     1
 62
     5
420
      255
176
     1
290
     0
176
     1
 90
       50
176
     1
 90
       50
176
     1
 90
       50
176
     1
290
     0
176
     1
 90
       50
176
     1
 62
   256
176
     0
 40
1.0
176
     0
 90
        2
176
     1
  1
strokes_ogs.tif
176
     1
290
     0
176
     1
 40
1.0
176
     1
 40
1.0
176
     1
  0
VISUALSTYLE
  5
2D
102
{ACAD_REACTORS
330
29
102
}
330
29
100
AcDbVisualStyle
  2
GouraudWithEdges
 70
     3
177
     3
291
     1
 70
    58
 90
        2
176
     1
 90
        2
176
     1
 90
        1
176
     1
 90
        2
176
     1
 40
0.6
176
     1
 40
30.0
176
     1
 62
     7
420
 16777215
176
     1
 90
        1
176
     1
 90
        0
176
     1
 62
     7
176
     1
 62
   257
176
     1
 90
        1
176
     1
 90
        1
176
     1
 40
1.0
176
     1
 90
        0
176
     1
 62
   257
176
     1
 40
1.0
176
     1
 90
        1
176
     1
 90
        6
176
     1
 90
        2
176
     1
 62
     7
176
     1
 90
        5
176
     1
 90
        0
176
     1
 90
        0
176
     1
290
     0
176
     1
 90
       13
176
     1
 40
0.0
176
     1
 90
        0
176
     1
290
     0
176
     1
290
     1
176
     1
290
     1
176
     1
290
     0
176
     1
290
     0
176
     1
290
     0
176
     1
290
     0
176
     1
290
     0
176
     1
290
     0
176
     1
 90
       50
176
     1
 40
0.0
176
     1
 40
1.0
176
     1
 90
        0
176
     1
 62
    18
420
        0
176
     1
 90
       50
176
     1
 90
        3
176
     1
 62
     5
420
      255
176
     1
290
     0
176
     1
 90
       50
176
     1
 90
       50
176
     1
 90
       50
176
     1
290
     0
176
     1
 90
       50
176
     1
 62
   256
176
     0
 40
1.0
176
     0
 90
        2
176
     1
  1
strokes_ogs.tif
176
     1
290
     0
176
     1
 40
1.0
176
     1
 40
1.0
176
     1
  0
VISUALSTYLE
  5
31
102
{ACAD_REACTORS
330
29
102
}
330
29
100
AcDbVisualStyle
  2
Hidden
 70
     6
177
     3
291
     0
 70
    58
 90
        1
176
     1
 90
        2
176
     1
 90
        2
176
     1
 90
        0
176
     1
 40
0.6
176
     1
 40
30.0
176
     1
 62
     7
420
 16777215
176
     1
 90
        2
176
     1
 90
        2
176
     1
 62
     7
176
     1
 62
   257
176
     1
 90
        2
176
     1
 90
        1
176
     1
 40
40.0
176
     1
 90
        0
176
     1
 62
   257
176
     1
 40
1.0
176
     1
 90
        1
176
     1
 90
        6
176
     1
 90
        2
176
     1
 62
     7
176
     1
 90
        3
176
     1
 90
        0
176
     1
 90
        0
176
     1
290
     0
176
     1
 90
        1
176
     1
 40
0.0
176
     1
 90
        0
176
     1
290
     0
176
     1
290
     1
176
     1
290
     1
176
     1
290
     0
176
     1
290
     0
176
     1
290
     0
176
     1
290
     0
176
     1
290
     0
176
     1
290
     0
176
     1
 90
       50
176
     1
 40
0.0
176
     1
 40
1.0
176
     1
 90
        0
176
     1
 62
    18
420
        0
176
     1
 90
       50
176
     1
 90
        3
176
     1
 62
     5
420
      255
176
     1
290
     0
176
     1
 90
       50
176
     1
 90
       50
176
     1
 90
       50
176
     1
290
     0
176
     1
 90
       50
176
     1
 62
   256
176
     0
 40
1.0
176
     0
 90
        2
176
     1
  1
strokes_ogs.tif
176
     1
290
     0
176
     1
 40
1.0
176
     1
 40
1.0
176
     1
  0
VISUALSTYLE
  5
3F
102
{ACAD_REACTORS
330
29
102
}
330
29
100
AcDbVisualStyle
  2
JitterOff
 70
    20
177
     3
291
     1
 70
    58
 90
        2
176
     0
 90
        2
176
     0
 90
        0
176
     0
 90
        0
176
     0
 40
0.6
176
     0
 40
30.0
176
     0
 62
     7
420
 16777215
176
     0
 90
        1
176
     0
 90
        4
176
     0
 62
     7
176
     0
 62
   257
176
     0
 90
        1
176
     0
 90
        1
176
     0
 40
1.0
176
     0
 90
       10
176
     2
 62
     7
176
     0
 40
1.0
176
     0
 90
        1
176
     0
 90
        6
176
     0
 90
        2
176
     0
 62
     7
176
     0
 90
        5
176
     0
 90
        0
176
     0
 90
        0
176
     0
290
     0
176
     0
 90
        1
176
     0
 40
0.0
176
     0
 90
        0
176
     0
290
     0
176
     0
290
     1
176
     0
290
     1
176
     0
290
     0
176
     0
290
     0
176
     0
290
     0
176
     0
290
     0
176
     0
290
     0
176
     0
290
     0
176
     0
 90
       50
176
     0
 40
0.0
176
     0
 40
1.0
176
     0
 90
        0
176
     0
 62
    18
420
        0
176
     0
 90
       50
176
     0
 90
        3
176
     0
 62
     5
420
      255
176
     0
290
     0
176
     0
 90
       50
176
     0
 90
       50
176
     0
 90
       50
176
     0
290
     0
176
     0
 90
       50
176
     0
 62
   256
176
     0
 40
1.0
176
     0
 90
        2
176
     0
  1
strokes_ogs.tif
176
     0
290
     0
176
     0
 40
1.0
176
     0
 40
1.0
176
     0
  0
VISUALSTYLE
  5
37
102
{ACAD_REACTORS
330
29
102
}
330
29
100
AcDbVisualStyle
  2
Linepattern
 70
    14
177
     3
291
     1
 70
    58
 90
        2
176
     1
 90
        2
176
     1
 90
        0
176
     1
 90
        0
176
     1
 40
0.6
176
     1
 40
30.0
176
     1
 62
     7
420
 16777215
176
     1
 90
        1
176
     1
 90
        4
176
     1
 62
     7
176
     1
 62
   257
176
     1
 90
        7
176
     1
 90
        7
176
     1
 40
1.0
176
     1
 90
        8
176
     1
 62
     7
176
     1
 40
1.0
176
     1
 90
        1
176
     1
 90
        6
176
     1
 90
        2
176
     1
 62
     7
176
     1
 90
        5
176
     1
 90
        0
176
     1
 90
        0
176
     1
290
     0
176
     1
 90
        1
176
     1
 40
0.0
176
     1
 90
        0
176
     1
290
     0
176
     1
290
     1
176
     1
290
     1
176
     1
290
     0
176
     1
290
     0
176
     1
290
     0
176
     1
290
     0
176
     1
290
     0
176
     1
290
     0
176
     1
 90
       50
176
     1
 40
0.0
176
     1
 40
1.0
176
     1
 90
        0
176
     1
 62
    18
420
        0
176
     1
 90
       50
176
     1
 90
        3
176
     1
 62
     5
420
      255
176
     1
290
     0
176
     1
 90
       50
176
     1
 90
       50
176
     1
 90
       50
176
     1
290
     0
176
     1
 90
       50
176
     1
 62
   256
176
     0
 40
1.0
176
     0
 90
        2
176
     1
  1
strokes_ogs.tif
176
     1
290
     0
176
     1
 40
1.0
176
     1
 40
1.0
176
     1
  0
VISUALSTYLE
  5
40
102
{ACAD_REACTORS
330
29
102
}
330
29
100
AcDbVisualStyle
  2
OverhangOff
 70
    21
177
     3
291
     1
 70
    58
 90
        2
176
     0
 90
        2
176
     0
 90
        0
176
     0
 90
        0
176
     0
 40
0.6
176
     0
 40
30.0
176
     0
 62
     7
420
 16777215
176
     0
 90
        1
176
     0
 90
        4
176
     0
 62
     7
176
     0
 62
   257
176
     0
 90
        1
176
     0
 90
        1
176
     0
 40
1.0
176
     0
 90
        9
176
     2
 62
     7
176
     0
 40
1.0
176
     0
 90
        1
176
     0
 90
        6
176
     0
 90
        2
176
     0
 62
     7
176
     0
 90
        5
176
     0
 90
        0
176
     0
 90
        0
176
     0
290
     0
176
     0
 90
        1
176
     0
 40
0.0
176
     0
 90
        0
176
     0
290
     0
176
     0
290
     1
176
     0
290
     1
176
     0
290
     0
176
     0
290
     0
176
     0
290
     0
176
     0
290
     0
176
     0
290
     0
176
     0
290
     0
176
     0
 90
       50
176
     0
 40
0.0
176
     0
 40
1.0
176
     0
 90
        0
176
     0
 62
    18
420
        0
176
     0
 90
       50
176
     0
 90
        3
176
     0
 62
     5
420
      255
176
     0
290
     0
176
     0
 90
       50
176
     0
 90
       50
176
     0
 90
       50
176
     0
290
     0
176
     0
 90
       50
176
     0
 62
   256
176
     0
 40
1.0
176
     0
 90
        2
176
     0
  1
strokes_ogs.tif
176
     0
290
     0
176
     0
 40
1.0
176
     0
 40
1.0
176
     0
  0
VISUALSTYLE
  5
33
102
{ACAD_REACTORS
330
29
102
}
330
29
100
AcDbVisualStyle
  2
Realistic
 70
     8
177
     3
291
     0
 70
    58
 90
        2
176
     1
 90
        3
176
     1
 90
        0
176
     1
 90
        2
176
     1
 40
0.6
176
     1
 40
30.0
176
     1
 62
     7
420
 16777215
176
     1
 90
        0
176
     1
 90
        0
176
     1
 62
     7
176
     1
 62
   257
176
     1
 90
        1
176
     1
 90
        1
176
     1
 40
1.0
176
     1
 90
        8
176
     1
 62
   257
176
     1
 40
1.0
176
     1
 90
        1
176
     1
 90
        6
176
     1
 90
        2
176
     1
 62
     7
176
     1
 90
        3
176
     1
 90
        0
176
     1
 90
        0
176
     1
290
     0
176
     1
 90
       13
176
     1
 40
0.0
176
     1
 90
        0
176
     1
290
     0
176
     1
290
     1
176
     1
290
     1
176
     1
290
     0
176
     1
290
     0
176
     1
290
     0
176
     1
290
     0
176
     1
290
     0
176
     1
290
     0
176
     1
 90
       50
176
     1
 40
0.0
176
     1
 40
1.0
176
     1
 90
        0
176
     1
 62
    18
420
        0
176
     1
 90
       50
176
     1
 90
        3
176
     1
 62
     5
420
      255
176
     1
290
     0
176
     1
 90
       50
176
     1
 90
       50
176
     1
 90
       50
176
     1
290
     0
176
     1
 90
       50
176
     1
 62
   256
176
     0
 40
1.0
176
     0
 90
        2
176
     1
  1
strokes_ogs.tif
176
     1
290
     0
176
     1
 40
1.0
176
     1
 40
1.0
176
     1
  0
VISUALSTYLE
  5
3E
102
{ACAD_REACTORS
330
29
102
}
330
29
100
AcDbVisualStyle
  2
Shaded
 70
    27
177
     3
291
     0
 70
    58
 90
        2
176
     1
 90
        2
176
     1
 90
        1
176
     1
 90
        2
176
     1
 40
0.6
176
     1
 40
30.0
176
     1
 62
     7
420
 16777215
176
     1
 90
        0
176
     1
 90
        4
176
     1
 62
     7
176
     1
 62
   257
176
     1
 90
        1
176
     1
 90
        1
176
     1
 40
1.0
176
     1
 90
        8
176
     1
 62
   257
176
     1
 40
1.0
176
     1
 90
        1
176
     1
 90
        6
176
     1
 90
        2
176
     1
 62
     8
420
  7895160
176
     1
 90
        3
176
     1
 90
        0
176
     1
 90
        0
176
     1
290
     0
176
     1
 90
        5
176
     1
 40
0.0
176
     1
 90
        0
176
     1
290
     0
176
     1
290
     1
176
     1
290
     1
176
     1
290
     0
176
     1
290
     0
176
     1
290
     0
176
     1
290
     0
176
     1
290
     0
176
     1
290
     0
176
     1
 90
       50
176
     1
 40
0.0
176
     1
 40
1.0
176
     1
 90
        0
176
     1
 62
    18
420
        0
176
     1
 90
       50
176
     1
 90
        3
176
     1
 62
     5
420
      255
176
     1
290
     0
176
     1
 90
       50
176
     1
 90
       50
176
     1
 90
       50
176
     1
290
     0
176
     1
 90
       50
176
     1
 62
   256
176
     0
 40
1.0
176
     0
 90
        2
176
     1
  1
strokes_ogs.tif
176
     1
290
     0
176
     1
 40
1.0
176
     1
 40
1.0
176
     1
  0
VISUALSTYLE
  5
3D
102
{ACAD_REACTORS
330
29
102
}
330
29
100
AcDbVisualStyle
  2
Shaded with edges
 70
    26
177
     3
291
     0
 70
    58
 90
        2
176
     1
 90
        2
176
     1
 90
        1
176
     1
 90
        2
176
     1
 40
0.6
176
     1
 40
30.0
176
     1
 62
     7
420
 16777215
176
     1
 90
        1
176
     1
 90
       10
176
     1
 62
     7
176
     1
 62
   257
176
     1
 90
        2
176
     1
 90
        1
176
     1
 40
1.0
176
     1
 90
        8
176
     1
 62
   257
176
     1
 40
1.0
176
     1
 90
        1
176
     1
 90
        6
176
     1
 90
        2
176
     1
 62
     7
176
     1
 90
        3
176
     1
 90
        0
176
     1
 90
        0
176
     1
290
     0
176
     1
 90
        5
176
     1
 40
0.0
176
     1
 90
        0
176
     1
290
     0
176
     1
290
     1
176
     1
290
     1
176
     1
290
     0
176
     1
290
     0
176
     1
290
     0
176
     1
290
     0
176
     1
290
     0
176
     1
290
     0
176
     1
 90
       50
176
     1
 40
0.0
176
     1
 40
1.0
176
     1
 90
        0
176
     1
 62
    18
420
        0
176
     1
 90
       50
176
     1
 90
        3
176
     1
 62
     5
420
      255
176
     1
290
     0
176
     1
 90
       50
176
     1
 90
       50
176
     1
 90
       50
176
     1
290
     0
176
     1
 90
       50
176
     1
 62
   256
176
     0
 40
1.0
176
     0
 90
        2
176
     1
  1
strokes_ogs.tif
176
     1
290
     0
176
     1
 40
1.0
176
     1
 40
1.0
176
     1
  0
VISUALSTYLE
  5
3A
102
{ACAD_REACTORS
330
29
102
}
330
29
100
AcDbVisualStyle
  2
Shades of Gray
 70
    23
177
     3
291
     0
 70
    58
 90
        2
176
     1
 90
        2
176
     1
 90
        3
176
     1
 90
        0
176
     1
 40
0.6
176
     1
 40
30.0
176
     1
 62
     7
420
 16777215
176
     1
 90
        2
176
     1
 90
        2
176
     1
 62
     7
176
     1
 62
     7
176
     1
 90
        1
176
     1
 90
        1
176
     1
 40
40.0
176
     1
 90
        8
176
     1
 62
     7
176
     1
 40
1.0
176
     1
 90
        1
176
     1
 90
        6
176
     1
 90
        2
176
     1
 62
     7
176
     1
 90
        3
176
     1
 90
        0
176
     1
 90
        0
176
     1
290
     0
176
     1
 90
        1
176
     1
 40
0.0
176
     1
 90
        0
176
     1
290
     0
176
     1
290
     1
176
     1
290
     1
176
     1
290
     0
176
     1
290
     0
176
     1
290
     0
176
     1
290
     0
176
     1
290
     0
176
     1
290
     0
176
     1
 90
       50
176
     1
 40
0.0
176
     1
 40
1.0
176
     1
 90
        0
176
     1
 62
    18
420
        0
176
     1
 90
       50
176
     1
 90
        3
176
     1
 62
     5
420
      255
176
     1
290
     0
176
     1
 90
       50
176
     1
 90
       50
176
     1
 90
       50
176
     1
290
     0
176
     1
 90
       50
176
     1
 62
   256
176
     0
 40
1.0
176
     0
 90
        2
176
     1
  1
strokes_ogs.tif
176
     1
290
     0
176
     1
 40
1.0
176
     1
 40
1.0
176
     1
  0
VISUALSTYLE
  5
3B
102
{ACAD_REACTORS
330
29
102
}
330
29
100
AcDbVisualStyle
  2
Sketchy
 70
    24
177
     3
291
     0
 70
    58
 90
        1
176
     1
 90
        2
176
     1
 90
        2
176
     1
 90
        0
176
     1
 40
0.6
176
     1
 40
30.0
176
     1
 62
     7
420
 16777215
176
     1
 90
        2
176
     1
 90
        2
176
     1
 62
     7
176
     1
 62
     7
176
     1
 90
        1
176
     1
 90
        1
176
     1
 40
40.0
176
     1
 90
       11
176
     1
 62
     7
176
     1
 40
1.0
176
     1
 90
        1
176
     1
 90
        6
176
     1
 90
        2
176
     1
 62
     7
176
     1
 90
        6
176
     1
 90
        0
176
     1
 90
        0
176
     1
290
     0
176
     1
 90
        1
176
     1
 40
0.0
176
     1
 90
        0
176
     1
290
     0
176
     1
290
     1
176
     1
290
     1
176
     1
290
     0
176
     1
290
     0
176
     1
290
     0
176
     1
290
     0
176
     1
290
     0
176
     1
290
     0
176
     1
 90
       50
176
     1
 40
0.0
176
     1
 40
1.0
176
     1
 90
        0
176
     1
 62
    18
420
        0
176
     1
 90
       50
176
     1
 90
        3
176
     1
 62
     5
420
      255
176
     1
290
     0
176
     1
 90
       50
176
     1
 90
       50
176
     1
 90
       50
176
     1
290
     0
176
     1
 90
       50
176
     1
 62
   256
176
     0
 40
1.0
176
     0
 90
        2
176
     1
  1
strokes_ogs.tif
176
     1
290
     0
176
     1
 40
1.0
176
     1
 40
1.0
176
     1
  0
VISUALSTYLE
  5
36
102
{ACAD_REACTORS
330
29
102
}
330
29
100
AcDbVisualStyle
  2
Thicken
 70
    13
177
     3
291
     1
 70
    58
 90
        2
176
     1
 90
        2
176
     1
 90
        0
176
     1
 90
        0
176
     1
 40
0.6
176
     1
 40
30.0
176
     1
 62
     7
420
 16777215
176
     1
 90
        1
176
     1
 90
        4
176
     1
 62
     7
176
     1
 62
   257
176
     1
 90
        1
176
     1
 90
        1
176
     1
 40
1.0
176
     1
 90
       12
176
     1
 62
     7
176
     1
 40
1.0
176
     1
 90
        1
176
     1
 90
        6
176
     1
 90
        2
176
     1
 62
     7
176
     1
 90
        5
176
     1
 90
        0
176
     1
 90
        0
176
     1
290
     0
176
     1
 90
        1
176
     1
 40
0.0
176
     1
 90
        0
176
     1
290
     0
176
     1
290
     1
176
     1
290
     1
176
     1
290
     0
176
     1
290
     0
176
     1
290
     0
176
     1
290
     0
176
     1
290
     0
176
     1
290
     0
176
     1
 90
       50
176
     1
 40
0.0
176
     1
 40
1.0
176
     1
 90
        0
176
     1
 62
    18
420
        0
176
     1
 90
       50
176
     1
 90
        3
176
     1
 62
     5
420
      255
176
     1
290
     0
176
     1
 90
       50
176
     1
 90
       50
176
     1
 90
       50
176
     1
290
     0
176
     1
 90
       50
176
     1
 62
   256
176
     0
 40
1.0
176
     0
 90
        2
176
     1
  1
strokes_ogs.tif
176
     1
290
     0
176
     1
 40
1.0
176
     1
 40
1.0
176
     1
  0
VISUALSTYLE
  5
30
102
{ACAD_REACTORS
330
29
102
}
330
29
100
AcDbVisualStyle
  2
Wireframe
 70
     5
177
     3
291
     0
 70
    58
 90
        0
176
     1
 90
        2
176
     1
 90
        0
176
     1
 90
        0
176
     1
 40
0.6
176
     1
 40
30.0
176
     1
 62
     7
420
 16777215
176
     1
 90
        1
176
     1
 90
        4
176
     1
 62
     7
176
     1
 62
   257
176
     1
 90
        1
176
     1
 90
        1
176
     1
 40
1.0
176
     1
 90
        0
176
     1
 62
   257
176
     1
 40
1.0
176
     1
 90
        1
176
     1
 90
        6
176
     1
 90
        2
176
     1
 62
     7
176
     1
 90
        3
176
     1
 90
        0
176
     1
 90
        0
176
     1
290
     0
176
     1
 90
        1
176
     1
 40
0.0
176
     1
 90
        0
176
     1
290
     0
176
     1
290
     1
176
     1
290
     1
176
     1
290
     0
176
     1
290
     0
176
     1
290
     0
176
     1
290
     0
176
     1
290
     0
176
     1
290
     0
176
     1
 90
       50
176
     1
 40
0.0
176
     1
 40
1.0
176
     1
 90
        0
176
     1
 62
    18
420
        0
176
     1
 90
       50
176
     1
 90
        3
176
     1
 62
     5
420
      255
176
     1
290
     0
176
     1
 90
       50
176
     1
 90
       50
176
     1
 90
       50
176
     1
290
     0
176
     1
 90
       50
176
     1
 62
   256
176
     0
 40
1.0
176
     0
 90
        2
176
     1
  1
strokes_ogs.tif
176
     1
290
     0
176
     1
 40
1.0
176
     1
 40
1.0
176
     1
  0
VISUALSTYLE
  5
3C
102
{ACAD_REACTORS
330
29
102
}
330
29
100
AcDbVisualStyle
  2
X-Ray
 70
    25
177
     3
291
     0
 70
    58
 90
        2
176
     1
 90
        2
176
     1
 90
        1
176
     1
 90
        1
176
     1
 40
0.5
176
     1
 40
30.0
176
     1
 62
     7
420
 16777215
176
     1
 90
        1
176
     1
 90
        0
176
     1
 62
     7
176
     1
 62
   257
176
     1
 90
        1
176
     1
 90
        1
176
     1
 40
1.0
176
     1
 90
        8
176
     1
 62
     7
176
     1
 40
1.0
176
     1
 90
        1
176
     1
 90
        6
176
     1
 90
        2
176
     1
 62
     7
176
     1
 90
        3
176
     1
 90
        0
176
     1
 90
        0
176
     1
290
     0
176
     1
 90
       13
176
     1
 40
0.0
176
     1
 90
        0
176
     1
290
     0
176
     1
290
     1
176
     1
290
     1
176
     1
290
     0
176
     1
290
     0
176
     1
290
     0
176
     1
290
     0
176
     1
290
     0
176
     1
290
     0
176
     1
 90
       50
176
     1
 40
0.0
176
     1
 40
1.0
176
     1
 90
        0
176
     1
 62
    18
420
        0
176
     1
 90
       50
176
     1
 90
        3
176
     1
 62
     5
420
      255
176
     1
290
     0
176
     1
 90
       50
176
     1
 90
       50
176
     1
 90
       50
176
     1
290
     0
176
     1
 90
       50
176
     1
 62
   256
176
     0
 40
1.0
176
     0
 90
        2
176
     1
  1
strokes_ogs.tif
176
     1
290
     0
176
     1
 40
1.0
176
     1
 40
1.0
176
     1
  0
DICTIONARYVAR
  5
ED
102
{ACAD_REACTORS
330
E8
102
}
330
E8
100
DictionaryVariables
280
     0
  1
1:1
  0
DICTIONARYVAR
  5
EA
102
{ACAD_REACTORS
330
E8
102
}
330
E8
100
DictionaryVariables
280
     0
  1
STANDARD
  0
DICTIONARYVAR
  5
E9
102
{ACAD_REACTORS
330
E8
102
}
330
E8
100
DictionaryVariables
280
     0
  1
STANDARD
  0
DICTIONARYVAR
  5
EB
102
{ACAD_REACTORS
330
E8
102
}
330
E8
100
DictionaryVariables
280
     0
  1
Imperial24
  0
DICTIONARYVAR
  5
EC
102
{ACAD_REACTORS
330
E8
102
}
330
E8
100
DictionaryVariables
280
     0
  1
Imperial24
  0
XRECORD
  5
E0
102
{ACAD_REACTORS
330
DD
102
}
330
DD
100
AcDbXrecord
280
     1
  1
BUILDING_ID
  1
Pressure_Balance_Rough_Valve-GROHE-35113000
  1
FLOOR_ID
  1
1884
  0
XRECORD
  5
DE
102
{ACAD_REACTORS
330
DD
102
}
330
DD
100
AcDbXrecord
280
     1
  1
-2000051
  1
Lines
  0
XRECORD
  5
DF
102
{ACAD_REACTORS
330
DD
102
}
330
DD
100
AcDbXrecord
280
     1
  1
-2000287
  1
<Beyond>
  0
DICTIONARY
  5
E5
330
6B
100
AcDbDictionary
280
     1
281
     1
  3
ACAD_XREC_ROUNDTRIP
360
340
  0
DICTIONARY
  5
1A
330
19
100
AcDbDictionary
280
     1
281
     1
  3
BUMPTILE
360
1C
  3
DIFFUSETILE
360
1B
  3
OPACITYTILE
360
1F
  3
REFLECTIONTILE
360
1E
  3
REFRACTIONTILE
360
20
  3
SPECULARTILE
360
1D
  0
DICTIONARY
  5
12
330
11
100
AcDbDictionary
280
     1
281
     1
  3
BUMPTILE
360
14
  3
DIFFUSETILE
360
13
  3
OPACITYTILE
360
17
  3
REFLECTIONTILE
360
16
  3
REFRACTIONTILE
360
18
  3
SPECULARTILE
360
15
  0
DICTIONARY
  5
22
330
21
100
AcDbDictionary
280
     1
281
     1
  3
BUMPTILE
360
24
  3
DIFFUSETILE
360
23
  3
OPACITYTILE
360
27
  3
REFLECTIONTILE
360
26
  3
REFRACTIONTILE
360
28
  3
SPECULARTILE
360
25
  0
DICTIONARY
  5
E3
330
69
100
AcDbDictionary
280
     1
281
     1
  3
ACAD_XREC_ROUNDTRIP
360
33F
  0
DICTIONARY
  5
33D
330
65
100
AcDbDictionary
280
     1
281
     1
  3
ACAD_ROUNDTRIP_2008_TABLESTYLE_CELLSTYLEMAP
360
33E
  0
XRECORD
  5
340
102
{ACAD_REACTORS
330
E5
102
}
330
E5
100
AcDbXrecord
280
     1
102
DISPLAYNAME
  1
Imperial24
102
FLAGS
 90
        0
  0
XRECORD
  5
1C
102
{ACAD_REACTORS
330
1A
102
}
330
1A
100
AcDbXrecord
280
     1
270
     1
271
     1
  0
XRECORD
  5
1B
102
{ACAD_REACTORS
330
1A
102
}
330
1A
100
AcDbXrecord
280
     1
270
     1
271
     1
  0
XRECORD
  5
1F
102
{ACAD_REACTORS
330
1A
102
}
330
1A
100
AcDbXrecord
280
     1
270
     1
271
     1
  0
XRECORD
  5
1E
102
{ACAD_REACTORS
330
1A
102
}
330
1A
100
AcDbXrecord
280
     1
270
     1
271
     1
  0
XRECORD
  5
20
102
{ACAD_REACTORS
330
1A
102
}
330
1A
100
AcDbXrecord
280
     1
270
     1
271
     1
  0
XRECORD
  5
1D
102
{ACAD_REACTORS
330
1A
102
}
330
1A
100
AcDbXrecord
280
     1
270
     1
271
     1
  0
XRECORD
  5
14
102
{ACAD_REACTORS
330
12
102
}
330
12
100
AcDbXrecord
280
     1
270
     1
271
     1
  0
XRECORD
  5
13
102
{ACAD_REACTORS
330
12
102
}
330
12
100
AcDbXrecord
280
     1
270
     1
271
     1
  0
XRECORD
  5
17
102
{ACAD_REACTORS
330
12
102
}
330
12
100
AcDbXrecord
280
     1
270
     1
271
     1
  0
XRECORD
  5
16
102
{ACAD_REACTORS
330
12
102
}
330
12
100
AcDbXrecord
280
     1
270
     1
271
     1
  0
XRECORD
  5
18
102
{ACAD_REACTORS
330
12
102
}
330
12
100
AcDbXrecord
280
     1
270
     1
271
     1
  0
XRECORD
  5
15
102
{ACAD_REACTORS
330
12
102
}
330
12
100
AcDbXrecord
280
     1
270
     1
271
     1
  0
XRECORD
  5
24
102
{ACAD_REACTORS
330
22
102
}
330
22
100
AcDbXrecord
280
     1
270
     1
271
     1
  0
XRECORD
  5
23
102
{ACAD_REACTORS
330
22
102
}
330
22
100
AcDbXrecord
280
     1
270
     1
271
     1
  0
XRECORD
  5
27
102
{ACAD_REACTORS
330
22
102
}
330
22
100
AcDbXrecord
280
     1
270
     1
271
     1
  0
XRECORD
  5
26
102
{ACAD_REACTORS
330
22
102
}
330
22
100
AcDbXrecord
280
     1
270
     1
271
     1
  0
XRECORD
  5
28
102
{ACAD_REACTORS
330
22
102
}
330
22
100
AcDbXrecord
280
     1
270
     1
271
     1
  0
XRECORD
  5
25
102
{ACAD_REACTORS
330
22
102
}
330
22
100
AcDbXrecord
280
     1
270
     1
271
     1
  0
XRECORD
  5
33F
102
{ACAD_REACTORS
330
E3
102
}
330
E3
100
AcDbXrecord
280
     1
102
DISPLAYNAME
  1
Imperial24
102
FLAGS
 90
        0
  0
CELLSTYLEMAP
  5
33E
102
{ACAD_REACTORS
330
33D
102
}
330
33D
100
AcDbCellStyleMap
 90
        3
300
CELLSTYLE
  1
TABLEFORMAT_BEGIN
 90
        5
170
     1
 91
        0
 92
    32768
 62
   257
 93
        1
300
CONTENTFORMAT
  1
CONTENTFORMAT_BEGIN
 90
        0
 91
        0
 92
      512
 93
        0
300

 40
0.0
140
1.0
 94
        5
 62
     0
340
55
144
0.25
309
CONTENTFORMAT_END
171
     0
 94
        0
309
TABLEFORMAT_END
  1
CELLSTYLE_BEGIN
 90
        1
 91
        1
300
_TITLE
309
CELLSTYLE_END
300
CELLSTYLE
  1
TABLEFORMAT_BEGIN
 90
        5
170
     1
 91
        0
 92
        0
 62
   257
 93
        1
300
CONTENTFORMAT
  1
CONTENTFORMAT_BEGIN
 90
        0
 91
        0
 92
      512
 93
        0
300

 40
0.0
140
1.0
 94
        5
 62
     0
340
55
144
0.18
309
CONTENTFORMAT_END
171
     0
 94
        0
309
TABLEFORMAT_END
  1
CELLSTYLE_BEGIN
 90
        2
 91
        1
300
_HEADER
309
CELLSTYLE_END
300
CELLSTYLE
  1
TABLEFORMAT_BEGIN
 90
        5
170
     1
 91
        0
 92
        0
 62
   257
 93
        1
300
CONTENTFORMAT
  1
CONTENTFORMAT_BEGIN
 90
        0
 91
        0
 92
      512
 93
        0
300

 40
0.0
140
1.0
 94
        2
 62
     0
340
55
144
0.18
309
CONTENTFORMAT_END
171
     0
 94
        0
309
TABLEFORMAT_END
  1
CELLSTYLE_BEGIN
 90
        3
 91
        2
300
_DATA
309
CELLSTYLE_END
  0
ENDSEC
  0
SECTION
  2
ACDSDATA
 70
     2
 71
     8
  0
ACDSSCHEMA
 90
        0
  1
AcDb_Thumbnail_Schema
  2
AcDbDs::ID
280
    10
 91
        8
  2
Thumbnail_Data
280
    15
 91
        0
101
ACDSRECORD
 95
        0
 90
        1
  2
AcDbDs::TreatedAsObjectData
280
     1
291
     1
101
ACDSRECORD
 95
        0
 90
        2
  2
AcDbDs::Legacy
280
     1
291
     1
101
ACDSRECORD
  1
AcDbDs::ID
 90
        3
  2
AcDs:Indexable
280
     1
291
     1
101
ACDSRECORD
  1
AcDbDs::ID
 90
        4
  2
AcDbDs::HandleAttribute
280
     7
282
     1
  0
ACDSSCHEMA
 90
        1
  1
AcDbDs::TreatedAsObjectDataSchema
  2
AcDbDs::TreatedAsObjectData
280
     1
 91
        0
  0
ACDSSCHEMA
 90
        2
  1
AcDbDs::LegacySchema
  2
AcDbDs::Legacy
280
     1
 91
        0
  0
ACDSSCHEMA
 90
        3
  1
AcDbDs::IndexedPropertySchema
  2
AcDs:Indexable
280
     1
 91
        0
  0
ACDSSCHEMA
 90
        4
  1
AcDbDs::HandleAttributeSchema
  2
AcDbDs::HandleAttribute
280
     7
 91
        1
284
     1
  0
ACDSRECORD
 90
        0
  2
AcDbDs::ID
280
    10
320
73
  2
Thumbnail_Data
280
    15
 94
     1481
310
89504E470D0A1A0A0000000D49484452000001000000007E0803000000FCF33F5100000300504C5445212830000000C8C8C80000000000000000000000000000000000000000000000000000330000660000990000CC0000FF0033000033330033660033990033CC0033FF0066000066330066660066990066CC0066FF0099
310
000099330099660099990099CC0099FF00CC0000CC3300CC6600CC9900CCCC00CCFF00FF0000FF3300FF6600FF9900FFCC00FFFF3300003300333300663300993300CC3300FF3333003333333333663333993333CC3333FF3366003366333366663366993366CC3366FF3399003399333399663399993399CC3399FF33CC00
310
33CC3333CC6633CC9933CCCC33CCFF33FF0033FF3333FF6633FF9933FFCC33FFFF6600006600336600666600996600CC6600FF6633006633336633666633996633CC6633FF6666006666336666666666996666CC6666FF6699006699336699666699996699CC6699FF66CC0066CC3366CC6666CC9966CCCC66CCFF66FF0066
310
FF3366FF6666FF9966FFCC66FFFF9900009900339900669900999900CC9900FF9933009933339933669933999933CC9933FF9966009966339966669966999966CC9966FF9999009999339999669999999999CC9999FF99CC0099CC3399CC6699CC9999CCCC99CCFF99FF0099FF3399FF6699FF9999FFCC99FFFFCC0000CC00
310
33CC0066CC0099CC00CCCC00FFCC3300CC3333CC3366CC3399CC33CCCC33FFCC6600CC6633CC6666CC6699CC66CCCC66FFCC9900CC9933CC9966CC9999CC99CCCC99FFCCCC00CCCC33CCCC66CCCC99CCCCCCCCCCFFCCFF00CCFF33CCFF66CCFF99CCFFCCCCFFFFFF0000FF0033FF0066FF0099FF00CCFF00FFFF3300FF3333
310
FF3366FF3399FF33CCFF33FFFF6600FF6633FF6666FF6699FF66CCFF66FFFF9900FF9933FF9966FF9999FF99CCFF99FFFFCC00FFCC33FFCC66FFCC99FFCCCCFFCCFFFFFF00FFFF33FFFF66FFFF99FFFFCCFFFFFF0000000D0D0D1A1A1A2828283535354343435050505D5D5D6B6B6B787878868686939393A1A1A1AEAEAEBB
310
BBBBC9C9C9D6D6D6E4E4E4F1F1F1FFFFFF000000000000000000000000000000000000000000000000000000000000B21171F6000001EB4944415478DAED9CED8E82301045FBFEEF7BFFEF6E148576A6CA4A76DBDE731213B162E861987E502C05000000000000000000E05FD003D3EAC7EF0DAB6FA740292E024E17200001
310
082009AE53F7F44C6B2B37EAF9351BAB45421CE13A96362960A1CB42E146254059F90289B12BE05EF587010420C04F8076F5F713609104FB3DBE68CBA17728EFA1000210800004B80BF09E14060000000000006FEC87C1F51D210420000108706C046C9B81F06E3002108000044C76F8BF48FEA980995A844F04A823404602
310
5EAC1D1EB9E7F2C98DDD6DB9F87E75545D36DD493F29E0FB755F22A86DB1A09B005511F04C0BCB0BB885FFF141C19F28D0B36C7D016DD6D83D4A32B2802B92E02DF8D57EBC7D3AC9357068BC4EFE86A23D540616F0D692DF9781D08F180D393FB03FA2DC80A2AF07E676E7BAC42110EC3544CCD735AD8E4EC9D7DBE5F2BAE5
310
FB5440FB58DDB0027AA39A54C0A62D1310148F2AE0D0853D2F204E2908984880FD25D07DD867A524F8A2BDAB5AABF59AC1B8D9CBFB46CB7584DE1BF3E8DC0F28ED0A0F3F3D7A95806C30E422201D0EDB08A82744A6180A5F22E039235A544D89CD1000170A682745E71070C97CD0B13FFD78278B9B849D7914A7FFD1097BD0
310
36024A2EA078C1FA0004200001DE02EC1F1B67AD30021080006F01FC77080000000000FC155F596B679FEF90D02F0000000049454E44AE4260828201982DF5760BEAF141E07A004B2FB789F4E56D278C01407E7F3F38F92800BB0340C6074404E0BEF5909B75E71743BA03207F6368E6785A17B02004FC84461E40A4F7E90F
310
1676B2AFCC28500738DA78977F6768800F2AF0E62800000000000000000000C0B00046FF96189FD3030000000000000000000000C0B00046FF1F2308A1FFA81FC18A65B5F6F3C3720000000049454E44AE426082
  0
ENDSEC
  0
EOF
