  0
SECTION
  2
HEADER
  9
$ACADVER
  1
AC1027
  9
$ACADMAINTVER
 70
   105
  9
$DWGCODEPAGE
  3
ANSI_1252
  9
$LASTSAVEDBY
  1
mariapalcon
  9
$REQUIREDVERSIONS
160
                 0
  9
$INSBASE
 10
0.0
 20
0.0
 30
0.0
  9
$EXTMIN
 10
-8.515695544137148
 20
-2.437500000000998
 30
0.0
  9
$EXTMAX
 10
3.287078370352672
 20
4.875638849723932
 30
0.0
  9
$LIMMIN
 10
0.0
 20
0.0
  9
$LIMMAX
 10
12.0
 20
9.0
  9
$ORTHOMODE
 70
     0
  9
$REGENMODE
 70
     1
  9
$FILLMODE
 70
     1
  9
$QTEXTMODE
 70
     0
  9
$MIRRTEXT
 70
     0
  9
$LTSCALE
 40
1.0
  9
$ATTMODE
 70
     1
  9
$TEXTSIZE
 40
0.2
  9
$TRACEWID
 40
0.05
  9
$TEXTSTYLE
  7
Standard
  9
$CLAYER
  8
Pressure_Balance_Rough_Valve-GROHE-35115000
  9
$CELTYPE
  6
ByLayer
  9
$CECOLOR
 62
   256
  9
$CELTSCALE
 40
1.0
  9
$DISPSILH
 70
     0
  9
$DIMSCALE
 40
1.0
  9
$DIMASZ
 40
0.18
  9
$DIMEXO
 40
0.0625
  9
$DIMDLI
 40
0.38
  9
$DIMRND
 40
0.0
  9
$DIMDLE
 40
0.0
  9
$DIMEXE
 40
0.18
  9
$DIMTP
 40
0.0
  9
$DIMTM
 40
0.0
  9
$DIMTXT
 40
0.18
  9
$DIMCEN
 40
0.09
  9
$DIMTSZ
 40
0.0
  9
$DIMTOL
 70
     0
  9
$DIMLIM
 70
     0
  9
$DIMTIH
 70
     1
  9
$DIMTOH
 70
     1
  9
$DIMSE1
 70
     0
  9
$DIMSE2
 70
     0
  9
$DIMTAD
 70
     0
  9
$DIMZIN
 70
     0
  9
$DIMBLK
  1

  9
$DIMASO
 70
     1
  9
$DIMSHO
 70
     1
  9
$DIMPOST
  1

  9
$DIMAPOST
  1

  9
$DIMALT
 70
     0
  9
$DIMALTD
 70
     2
  9
$DIMALTF
 40
25.4
  9
$DIMLFAC
 40
1.0
  9
$DIMTOFL
 70
     0
  9
$DIMTVP
 40
0.0
  9
$DIMTIX
 70
     0
  9
$DIMSOXD
 70
     0
  9
$DIMSAH
 70
     0
  9
$DIMBLK1
  1

  9
$DIMBLK2
  1

  9
$DIMSTYLE
  2
Standard
  9
$DIMCLRD
 70
     0
  9
$DIMCLRE
 70
     0
  9
$DIMCLRT
 70
     0
  9
$DIMTFAC
 40
1.0
  9
$DIMGAP
 40
0.09
  9
$DIMJUST
 70
     0
  9
$DIMSD1
 70
     0
  9
$DIMSD2
 70
     0
  9
$DIMTOLJ
 70
     1
  9
$DIMTZIN
 70
     0
  9
$DIMALTZ
 70
     0
  9
$DIMALTTZ
 70
     0
  9
$DIMUPT
 70
     0
  9
$DIMDEC
 70
     4
  9
$DIMTDEC
 70
     4
  9
$DIMALTU
 70
     4
  9
$DIMALTTD
 70
     2
  9
$DIMTXSTY
  7
Standard
  9
$DIMAUNIT
 70
     0
  9
$DIMADEC
 70
     0
  9
$DIMALTRND
 40
0.0
  9
$DIMAZIN
 70
     0
  9
$DIMDSEP
 70
    46
  9
$DIMATFIT
 70
     3
  9
$DIMFRAC
 70
     0
  9
$DIMLDRBLK
  1

  9
$DIMLUNIT
 70
     4
  9
$DIMLWD
 70
    -2
  9
$DIMLWE
 70
    -2
  9
$DIMTMOVE
 70
     0
  9
$DIMFXL
 40
1.0
  9
$DIMFXLON
 70
     0
  9
$DIMJOGANG
 40
0.7853981633974483
  9
$DIMTFILL
 70
     0
  9
$DIMTFILLCLR
 70
     0
  9
$DIMARCSYM
 70
     0
  9
$DIMLTYPE
  6

  9
$DIMLTEX1
  6

  9
$DIMLTEX2
  6

  9
$DIMTXTDIRECTION
 70
     0
  9
$LUNITS
 70
     4
  9
$LUPREC
 70
     4
  9
$SKETCHINC
 40
0.1
  9
$FILLETRAD
 40
0.0
  9
$AUNITS
 70
     0
  9
$AUPREC
 70
     0
  9
$MENU
  1
.
  9
$ELEVATION
 40
0.0
  9
$PELEVATION
 40
0.0
  9
$THICKNESS
 40
0.0
  9
$LIMCHECK
 70
     0
  9
$CHAMFERA
 40
0.0
  9
$CHAMFERB
 40
0.0
  9
$CHAMFERC
 40
0.0
  9
$CHAMFERD
 40
0.0
  9
$SKPOLY
 70
     0
  9
$TDCREATE
 40
2458932.589650232
  9
$TDUCREATE
 40
2458932.756316898
  9
$TDUPDATE
 40
2458932.605403403
  9
$TDUUPDATE
 40
2458932.772070069
  9
$TDINDWG
 40
0.0142585417
  9
$TDUSRTIMER
 40
0.0142585417
  9
$USRTIMER
 70
     1
  9
$ANGBASE
 50
0.0
  9
$ANGDIR
 70
     0
  9
$PDMODE
 70
     0
  9
$PDSIZE
 40
0.0
  9
$PLINEWID
 40
0.0
  9
$SPLFRAME
 70
     0
  9
$SPLINETYPE
 70
     6
  9
$SPLINESEGS
 70
     8
  9
$HANDSEED
  5
A05
  9
$SURFTAB1
 70
     6
  9
$SURFTAB2
 70
     6
  9
$SURFTYPE
 70
     6
  9
$SURFU
 70
     6
  9
$SURFV
 70
     6
  9
$UCSBASE
  2

  9
$UCSNAME
  2

  9
$UCSORG
 10
0.0
 20
0.0
 30
0.0
  9
$UCSXDIR
 10
1.0
 20
0.0
 30
0.0
  9
$UCSYDIR
 10
0.0
 20
1.0
 30
0.0
  9
$UCSORTHOREF
  2

  9
$UCSORTHOVIEW
 70
     0
  9
$UCSORGTOP
 10
0.0
 20
0.0
 30
0.0
  9
$UCSORGBOTTOM
 10
0.0
 20
0.0
 30
0.0
  9
$UCSORGLEFT
 10
0.0
 20
0.0
 30
0.0
  9
$UCSORGRIGHT
 10
0.0
 20
0.0
 30
0.0
  9
$UCSORGFRONT
 10
0.0
 20
0.0
 30
0.0
  9
$UCSORGBACK
 10
0.0
 20
0.0
 30
0.0
  9
$PUCSBASE
  2

  9
$PUCSNAME
  2

  9
$PUCSORG
 10
0.0
 20
0.0
 30
0.0
  9
$PUCSXDIR
 10
1.0
 20
0.0
 30
0.0
  9
$PUCSYDIR
 10
0.0
 20
1.0
 30
0.0
  9
$PUCSORTHOREF
  2

  9
$PUCSORTHOVIEW
 70
     0
  9
$PUCSORGTOP
 10
0.0
 20
0.0
 30
0.0
  9
$PUCSORGBOTTOM
 10
0.0
 20
0.0
 30
0.0
  9
$PUCSORGLEFT
 10
0.0
 20
0.0
 30
0.0
  9
$PUCSORGRIGHT
 10
0.0
 20
0.0
 30
0.0
  9
$PUCSORGFRONT
 10
0.0
 20
0.0
 30
0.0
  9
$PUCSORGBACK
 10
0.0
 20
0.0
 30
0.0
  9
$USERI1
 70
     0
  9
$USERI2
 70
     0
  9
$USERI3
 70
     0
  9
$USERI4
 70
     0
  9
$USERI5
 70
     0
  9
$USERR1
 40
0.0
  9
$USERR2
 40
0.0
  9
$USERR3
 40
0.0
  9
$USERR4
 40
0.0
  9
$USERR5
 40
0.0
  9
$WORLDVIEW
 70
     1
  9
$SHADEDGE
 70
     3
  9
$SHADEDIF
 70
    70
  9
$TILEMODE
 70
     1
  9
$MAXACTVP
 70
    64
  9
$PINSBASE
 10
0.0
 20
0.0
 30
0.0
  9
$PLIMCHECK
 70
     0
  9
$PEXTMIN
 10
1.000000000000000E+20
 20
1.000000000000000E+20
 30
1.000000000000000E+20
  9
$PEXTMAX
 10
-1.000000000000000E+20
 20
-1.000000000000000E+20
 30
-1.000000000000000E+20
  9
$PLIMMIN
 10
0.0
 20
0.0
  9
$PLIMMAX
 10
12.0
 20
9.0
  9
$UNITMODE
 70
     0
  9
$VISRETAIN
 70
     1
  9
$PLINEGEN
 70
     0
  9
$PSLTSCALE
 70
     1
  9
$TREEDEPTH
 70
  3020
  9
$CMLSTYLE
  2
Standard
  9
$CMLJUST
 70
     0
  9
$CMLSCALE
 40
1.0
  9
$PROXYGRAPHICS
 70
     1
  9
$MEASUREMENT
 70
     0
  9
$CELWEIGHT
370
    -1
  9
$ENDCAPS
280
     0
  9
$JOINSTYLE
280
     0
  9
$LWDISPLAY
290
     0
  9
$INSUNITS
 70
     1
  9
$HYPERLINKBASE
  1

  9
$STYLESHEET
  1

  9
$XEDIT
290
     1
  9
$CEPSNTYPE
380
     0
  9
$PSTYLEMODE
290
     1
  9
$FINGERPRINTGUID
  2
{637D6489-B959-491E-AFB9-C2B8C96B3234}
  9
$VERSIONGUID
  2
{7F260BF7-B047-4BDD-9A85-DF1E73436938}
  9
$EXTNAMES
290
     1
  9
$PSVPSCALE
 40
0.0
  9
$OLESTARTUP
290
     0
  9
$SORTENTS
280
   127
  9
$INDEXCTL
280
     0
  9
$HIDETEXT
280
     1
  9
$XCLIPFRAME
280
     2
  9
$HALOGAP
280
     0
  9
$OBSCOLOR
 70
   257
  9
$OBSLTYPE
280
     0
  9
$INTERSECTIONDISPLAY
280
     0
  9
$INTERSECTIONCOLOR
 70
   257
  9
$DIMASSOC
280
     2
  9
$PROJECTNAME
  1

  9
$CAMERADISPLAY
290
     0
  9
$LENSLENGTH
 40
50.0
  9
$CAMERAHEIGHT
 40
0.0
  9
$STEPSPERSEC
 40
2.0
  9
$STEPSIZE
 40
6.0
  9
$3DDWFPREC
 40
2.0
  9
$PSOLWIDTH
 40
0.25
  9
$PSOLHEIGHT
 40
4.0
  9
$LOFTANG1
 40
1.570796326794896
  9
$LOFTANG2
 40
1.570796326794896
  9
$LOFTMAG1
 40
0.0
  9
$LOFTMAG2
 40
0.0
  9
$LOFTPARAM
 70
     7
  9
$LOFTNORMALS
280
     1
  9
$LATITUDE
 40
0.0
  9
$LONGITUDE
 40
0.0
  9
$NORTHDIRECTION
 40
0.0
  9
$TIMEZONE
 70
     0
  9
$LIGHTGLYPHDISPLAY
280
     1
  9
$TILEMODELIGHTSYNCH
280
     1
  9
$CMATERIAL
347
11
  9
$SOLIDHIST
280
     0
  9
$SHOWHIST
280
     1
  9
$DWFFRAME
280
     2
  9
$DGNFRAME
280
     0
  9
$REALWORLDSCALE
290
     1
  9
$INTERFERECOLOR
 62
     1
  9
$INTERFEREOBJVS
345
33
  9
$INTERFEREVPVS
346
30
  9
$CSHADOW
280
     0
  9
$SHADOWPLANELOCATION
 40
0.0
  0
ENDSEC
  0
SECTION
  2
CLASSES
  0
CLASS
  1
ACDBDICTIONARYWDFLT
  2
AcDbDictionaryWithDefault
  3
ObjectDBX Classes
 90
        0
 91
        1
280
     0
281
     0
  0
CLASS
  1
MATERIAL
  2
AcDbMaterial
  3
ObjectDBX Classes
 90
     1153
 91
        3
280
     0
281
     0
  0
CLASS
  1
VISUALSTYLE
  2
AcDbVisualStyle
  3
ObjectDBX Classes
 90
     4095
 91
       24
280
     0
281
     0
  0
CLASS
  1
SCALE
  2
AcDbScale
  3
ObjectDBX Classes
 90
     1153
 91
       17
280
     0
281
     0
  0
CLASS
  1
TABLESTYLE
  2
AcDbTableStyle
  3
ObjectDBX Classes
 90
     4095
 91
        1
280
     0
281
     0
  0
CLASS
  1
MLEADERSTYLE
  2
AcDbMLeaderStyle
  3
ACDB_MLEADERSTYLE_CLASS
 90
     4095
 91
        1
280
     0
281
     0
  0
CLASS
  1
ACDBSECTIONVIEWSTYLE
  2
AcDbSectionViewStyle
  3
ObjectDBX Classes
 90
     1025
 91
        1
280
     0
281
     0
  0
CLASS
  1
ACDBDETAILVIEWSTYLE
  2
AcDbDetailViewStyle
  3
ObjectDBX Classes
 90
     1025
 91
        1
280
     0
281
     0
  0
CLASS
  1
RASTERVARIABLES
  2
AcDbRasterVariables
  3
ISM
 90
        0
 91
        1
280
     0
281
     0
  0
CLASS
  1
DICTIONARYVAR
  2
AcDbDictionaryVar
  3
ObjectDBX Classes
 90
        0
 91
        5
280
     0
281
     0
  0
CLASS
  1
SORTENTSTABLE
  2
AcDbSortentsTable
  3
ObjectDBX Classes
 90
        0
 91
        3
280
     0
281
     0
  0
CLASS
  1
CELLSTYLEMAP
  2
AcDbCellStyleMap
  3
ObjectDBX Classes
 90
     1152
 91
        1
280
     0
281
     0
  0
ENDSEC
  0
SECTION
  2
TABLES
  0
TABLE
  2
VPORT
  5
8
330
0
100
AcDbSymbolTable
 70
     1
  0
VPORT
  5
57
330
8
100
AcDbSymbolTableRecord
100
AcDbViewportTableRecord
  2
*Active
 70
     0
 10
0.0
 20
0.0
 11
1.0
 21
1.0
 12
-3.175055125921348
 22
1.547422481201937
 13
0.0
 23
0.0
 14
1.0
 24
1.0
 15
0.0
 25
0.0
 16
0.0
 26
0.0
 36
1.0
 17
0.0
 27
0.0
 37
0.0
 40
11.39960977451252
 41
2.021505376344086
 42
50.0
 43
0.0
 44
0.0
 50
0.0
 51
0.0
 71
     0
 72
  1000
 73
     1
 74
     1
 75
     0
 76
     0
 77
     0
 78
     0
281
     0
 65
     1
110
0.0
120
0.0
130
0.0
111
1.0
121
0.0
131
0.0
112
0.0
122
1.0
132
0.0
 79
     0
146
0.0
348
2F
 60
     3
 61
     5
292
     1
282
     1
141
0.0
142
0.0
 63
   250
421
  3355443
1001
ACAD_NAV_VCDISPLAY
1070
     3
  0
ENDTAB
  0
TABLE
  2
LTYPE
  5
5
330
0
100
AcDbSymbolTable
 70
     2
  0
LTYPE
  5
5B
330
5
100
AcDbSymbolTableRecord
100
AcDbLinetypeTableRecord
  2
ByBlock
 70
     0
  3

 72
    65
 73
     0
 40
0.0
  0
LTYPE
  5
5C
330
5
100
AcDbSymbolTableRecord
100
AcDbLinetypeTableRecord
  2
ByLayer
 70
     0
  3

 72
    65
 73
     0
 40
0.0
  0
LTYPE
  5
5D
330
5
100
AcDbSymbolTableRecord
100
AcDbLinetypeTableRecord
  2
Continuous
 70
     0
  3
Solid line
 72
    65
 73
     0
 40
0.0
  0
ENDTAB
  0
TABLE
  2
LAYER
  5
2
102
{ACAD_XDICTIONARY
360
733
102
}
330
0
100
AcDbSymbolTable
 70
     4
  0
LAYER
  5
54
330
2
100
AcDbSymbolTableRecord
100
AcDbLayerTableRecord
  2
0
 70
     0
 62
     7
  6
Continuous
370
    -3
390
F
347
21
348
0
  0
LAYER
  5
709
330
2
100
AcDbSymbolTableRecord
100
AcDbLayerTableRecord
  2
Pressure_Balance_Rough_Valve-GROHE-35115000
 70
     0
 62
     7
  6
Continuous
370
    -3
390
F
347
21
348
0
1001
AcAecLayerStandard
1000

1000

1001
AcCmTransparency
1071
        0
  0
ENDTAB
  0
TABLE
  2
STYLE
  5
3
330
0
100
AcDbSymbolTable
 70
     2
  0
STYLE
  5
55
330
3
100
AcDbSymbolTableRecord
100
AcDbTextStyleTableRecord
  2
Standard
 70
     0
 40
0.0
 41
1.0
 50
0.0
 71
     0
 42
0.2
  3
txt
  4

  0
ENDTAB
  0
TABLE
  2
VIEW
  5
6
330
0
100
AcDbSymbolTable
 70
     3
  0
ENDTAB
  0
TABLE
  2
UCS
  5
7
330
0
100
AcDbSymbolTable
 70
     0
  0
ENDTAB
  0
TABLE
  2
APPID
  5
9
330
0
100
AcDbSymbolTable
 70
     7
  0
APPID
  5
56
330
9
100
AcDbSymbolTableRecord
100
AcDbRegAppTableRecord
  2
ACAD
 70
     0
  0
APPID
  5
5E
330
9
100
AcDbSymbolTableRecord
100
AcDbRegAppTableRecord
  2
AcadAnnotative
 70
     0
  0
APPID
  5
78
330
9
100
AcDbSymbolTableRecord
100
AcDbRegAppTableRecord
  2
REVIT
 70
     0
  0
APPID
  5
125
330
9
100
AcDbSymbolTableRecord
100
AcDbRegAppTableRecord
  2
ACAD_NAV_VCDISPLAY
 70
     0
  0
APPID
  5
70A
330
9
100
AcDbSymbolTableRecord
100
AcDbRegAppTableRecord
  2
AcAecLayerStandard
 70
     0
  0
APPID
  5
70B
330
9
100
AcDbSymbolTableRecord
100
AcDbRegAppTableRecord
  2
AcCmTransparency
 70
     0
  0
APPID
  5
714
330
9
100
AcDbSymbolTableRecord
100
AcDbRegAppTableRecord
  2
ACAD_EXEMPT_FROM_CAD_STANDARDS
 70
     0
  0
ENDTAB
  0
TABLE
  2
DIMSTYLE
  5
A
330
0
100
AcDbSymbolTable
 70
     3
100
AcDbDimStyleTable
 71
     1
340
58
  0
DIMSTYLE
105
58
330
A
100
AcDbSymbolTableRecord
100
AcDbDimStyleTableRecord
  2
Standard
 70
     0
340
55
  0
ENDTAB
  0
TABLE
  2
BLOCK_RECORD
  5
1
330
0
100
AcDbSymbolTable
 70
    10
  0
BLOCK_RECORD
  5
70
102
{ACAD_XDICTIONARY
360
107
102
}
330
1
100
AcDbSymbolTableRecord
100
AcDbBlockTableRecord
  2
*Model_Space
340
73
 70
     0
280
     1
281
     0
  0
BLOCK_RECORD
  5
6C
330
1
100
AcDbSymbolTableRecord
100
AcDbBlockTableRecord
  2
*Paper_Space
340
6F
 70
     0
280
     1
281
     0
  0
BLOCK_RECORD
  5
74
330
1
100
AcDbSymbolTableRecord
100
AcDbBlockTableRecord
  2
*Paper_Space0
340
77
 70
     0
280
     1
281
     0
  0
BLOCK_RECORD
  5
748
330
1
100
AcDbSymbolTableRecord
100
AcDbBlockTableRecord
  2
Pressure_Balance_Rough_Valve-GROHE-35115000- Top
340
0
310
28000000200000002000000001002000000000000010000001000000010000000000000000000000302821FF302821FF302821FF302821FF302821FF302821FF302821FF302821FF302821FF302821FF302821FF302821FF302821FF302821FF302821FF302821FF302821FF302821FF302821FF302821FF302821FF302821
310
FF302821FF302821FF302821FF302821FF302821FF302821FF302821FF302821FF302821FF302821FF302821FF302821FF302821FF302821FF302821FF302821FF302821FF302821FF302821FF302821FF302821FF302821FF302821FF302821FF302821FF302821FF302821FF302821FF302821FF302821FF302821FF3028
310
21FF302821FF302821FF302821FF302821FF302821FF302821FF302821FF302821FF302821FF302821FF302821FF302821FF302821FF302821FF302821FF302821FF302821FF302821FF302821FF302821FF302821FF302821FF302821FF302821FF302821FF302821FF302821FF302821FF302821FF302821FF302821FF30
310
2821FF302821FF302821FF302821FF302821FF302821FF302821FF302821FF302821FF302821FF302821FF302821FF302821FF302821FF302821FF302821FF302821FF302821FF302821FF302821FF302821FF302821FF302821FF302821FF302821FF302821FF302821FF302821FF302821FF302821FF302821FF302821FF
310
302821FF302821FF302821FF302821FF302821FF302821FF302821FF302821FF302821FF302821FF302821FF302821FF302821FF302821FF302821FF302821FF302821FF302821FF302821FF302821FF302821FF302821FF302821FF302821FF302821FF302821FF302821FF302821FF302821FF302821FF302821FF302821
310
FF302821FF302821FF302821FF302821FF302821FF302821FF302821FF302821FF302821FF302821FF302821FF302821FF302821FF302821FF302821FF302821FF302821FF302821FF302821FF302821FF302821FF302821FF302821FF302821FF302821FF302821FF302821FF302821FF302821FF302821FF302821FF3028
310
21FF302821FF302821FF302821FF302821FF302821FF302821FF302821FF302821FF302821FF302821FF302821FF302821FF302821FF302821FF302821FF302821FF302821FF302821FF302821FF302821FF302821FF302821FF302821FF302821FF302821FF302821FF302821FF302821FF302821FF302821FF302821FF30
310
2821FF302821FF302821FF302821FF302821FF302821FF302821FF302821FF302821FF302821FF302821FF302821FF302821FF302821FF302821FF302821FF302821FF302821FF302821FF302821FF302821FF302821FF302821FF302821FF302821FF302821FF302821FF302821FF302821FF302821FF302821FF302821FF
310
302821FF302821FF302821FF302821FF302821FF302821FF302821FF302821FF302821FF302821FF302821FF302821FF302821FF302821FF302821FF302821FF302821FF302821FF302821FF302821FF302821FF302821FF302821FF302821FF302821FF302821FF302821FF302821FF302821FF302821FF302821FF302821
310
FF302821FF302821FF302821FF302821FF302821FF302821FF302821FF302821FF302821FF302821FF302821FF302821FF302821FF302821FF302821FF302821FF302821FF302821FF302821FF302821FF302821FF302821FF302821FF302821FF302821FF302821FF302821FF302821FF302821FF302821FF302821FF3028
310
21FF302821FF302821FF302821FF302821FF302821FF302821FF302821FF302821FF302821FF302821FF302821FF302821FF302821FF302821FF302821FF302821FF302821FF302821FF302821FF302821FF302821FF302821FF302821FFFFFFFFFFFFFFFFFFFFFFFFFFFFFFFFFFFFFFFFFFFFFFFFFFFFFFFFFFFFFFFFFFFF
310
FFFFFFFFFFFFFF302821FF302821FF302821FF302821FF302821FF302821FF302821FF302821FF302821FF302821FF302821FF302821FF302821FF302821FF302821FF302821FF302821FF302821FF302821FF302821FF302821FF302821FFFFFFFFFF302821FF302821FF302821FF302821FF302821FF302821FF302821FF
310
302821FFFFFFFFFF302821FF302821FF302821FF302821FF302821FF302821FF302821FF302821FF302821FF302821FF302821FF302821FF302821FF302821FF302821FF302821FF302821FF302821FF302821FF302821FF302821FF302821FFFFFFFFFF302821FF302821FF302821FF302821FF302821FF302821FF302821
310
FF302821FFFFFFFFFF302821FF302821FF302821FF302821FF302821FF302821FF302821FF302821FF302821FF302821FF302821FF302821FF302821FFFFFFFFFFFFFFFFFFFFFFFFFFFFFFFFFFFFFFFFFFFFFFFFFFFFFFFFFFFFFFFFFFFFFFFFFFFFFFFFFF302821FF302821FFFFFFFFFFFFFFFFFFFFFFFFFFFFFFFFFF3028
310
21FF302821FFFFFFFFFFFFFFFFFFFFFFFFFFFFFFFFFFFFFFFFFFFFFFFFFFFFFFFFFFFFFFFFFFFFFFFFFFFFFFFFFF302821FF302821FF302821FFFFFFFFFFFFFFFFFF302821FF302821FFFFFFFFFF302821FF302821FFFFFFFFFF302821FF302821FFFFFFFFFF302821FFFFFFFFFFFFFFFFFFFFFFFFFFFFFFFFFFFFFFFFFFFF
310
FFFFFF302821FFFFFFFFFF302821FF302821FFFFFFFFFF302821FF302821FFFFFFFFFF302821FF302821FFFFFFFFFFFFFFFFFF302821FF302821FFFFFFFFFF302821FF302821FF302821FFFFFFFFFF302821FF302821FFFFFFFFFF302821FF302821FFFFFFFFFF302821FFFFFFFFFFFFFFFFFFFFFFFFFFFFFFFFFFFFFFFFFF
310
FFFFFFFF302821FFFFFFFFFF302821FF302821FFFFFFFFFF302821FF302821FFFFFFFFFF302821FF302821FF302821FFFFFFFFFF302821FF302821FFFFFFFFFFFFFFFFFFFFFFFFFFFFFFFFFFFFFFFFFF302821FF302821FFFFFFFFFF302821FF302821FFFFFFFFFF302821FF302821FFFFFFFFFFFFFFFFFFFFFFFFFFFFFFFF
310
FF302821FF302821FFFFFFFFFF302821FF302821FFFFFFFFFF302821FF302821FFFFFFFFFFFFFFFFFFFFFFFFFFFFFFFFFFFFFFFFFF302821FF302821FF302821FF302821FF302821FF302821FFFFFFFFFFFFFFFFFFFFFFFFFFFFFFFFFFFFFFFFFFFFFFFFFFFFFFFFFFFFFFFFFFFFFFFFFFFFFFFFFFFFFFFFFFFFFFFFFFFFFF
310
FFFFFFFFFFFFFFFFFFFFFFFFFFFFFFFFFFFFFFFFFFFFFFFFFFFFFFFFFFFFFFFFFFFFFFFFFFFF302821FF302821FF302821FF302821FF302821FF302821FF302821FF302821FF302821FF302821FF302821FF302821FF302821FF302821FF302821FF302821FFFFFFFFFF302821FF302821FF302821FF302821FF302821FF30
310
2821FF302821FF302821FFFFFFFFFF302821FF302821FF302821FF302821FF302821FF302821FF302821FF302821FF302821FF302821FF302821FF302821FF302821FF302821FF302821FF302821FF302821FF302821FF302821FF302821FF302821FF302821FFFFFFFFFFFFFFFFFFFFFFFFFFFFFFFFFFFFFFFFFFFFFFFFFF
310
FFFFFFFFFFFFFFFFFFFFFFFFFFFFFFFF302821FF302821FF302821FF302821FF302821FF302821FF302821FF302821FF302821FF302821FF302821FF302821FF302821FF302821FF302821FF302821FF302821FF302821FF302821FF302821FF302821FF302821FF302821FF302821FF302821FFFFFFFFFFFFFFFFFFFFFFFF
310
FFFFFFFFFF302821FF302821FF302821FF302821FF302821FF302821FF302821FF302821FF302821FF302821FF302821FF302821FF302821FF302821FF302821FF302821FF302821FF302821FF302821FF302821FF302821FF302821FF302821FF302821FF302821FF302821FF302821FF302821FF302821FF302821FF3028
310
21FF302821FF302821FF302821FF302821FF302821FF302821FF302821FF302821FF302821FF302821FF302821FF302821FF302821FF302821FF302821FF302821FF302821FF302821FF302821FF302821FF302821FF302821FF302821FF302821FF302821FF302821FF302821FF302821FF302821FF302821FF302821FF30
310
2821FF302821FF302821FF302821FF302821FF302821FF302821FF302821FF302821FF302821FF302821FF302821FF302821FF302821FF302821FF302821FF302821FF302821FF302821FF302821FF302821FF302821FF302821FF302821FF302821FF302821FF302821FF302821FF302821FF302821FF302821FF302821FF
310
302821FF302821FF302821FF302821FF302821FF302821FF302821FF302821FF302821FF302821FF302821FF302821FF302821FF302821FF302821FF302821FF302821FF302821FF302821FF302821FF302821FF302821FF302821FF302821FF302821FF302821FF302821FF302821FF302821FF302821FF302821FF302821
310
FF302821FF302821FF302821FF302821FF302821FF302821FF302821FF302821FF302821FF302821FF302821FF302821FF302821FF302821FF302821FF302821FF302821FF302821FF302821FF302821FF302821FF302821FF302821FF302821FF302821FF302821FF302821FF302821FF302821FF302821FF302821FF3028
310
21FF302821FF302821FF302821FF302821FF302821FF302821FF302821FF302821FF302821FF302821FF302821FF302821FF302821FF302821FF302821FF302821FF302821FF302821FF302821FF302821FF302821FF302821FF302821FF302821FF302821FF302821FF302821FF302821FF302821FF302821FF302821FF30
310
2821FF302821FF302821FF302821FF302821FF302821FF302821FF302821FF302821FF302821FF302821FF302821FF302821FF302821FF302821FF302821FF302821FF302821FF302821FF302821FF302821FF302821FF302821FF302821FF302821FF302821FF302821FF302821FF302821FF302821FF302821FF302821FF
310
302821FF302821FF302821FF302821FF302821FF302821FF302821FF302821FF302821FF302821FF302821FF302821FF302821FF302821FF302821FF302821FF302821FF302821FF302821FF302821FF302821FF302821FF302821FF302821FF302821FF302821FF302821FF302821FF302821FF302821FF302821FF302821
310
FF302821FF302821FF302821FF302821FF302821FF302821FF302821FF302821FF302821FF302821FF302821FF302821FF302821FF302821FF302821FF302821FF302821FF302821FF302821FF302821FF302821FF302821FF302821FF302821FF302821FF302821FF302821FF302821FF302821FF302821FF302821FF3028
310
21FF302821FF302821FF302821FF302821FF302821FF302821FF302821FF302821FF302821FF302821FF302821FF302821FF302821FF302821FF302821FF302821FF302821FF302821FF302821FF302821FF302821FF302821FF302821FF302821FF302821FF302821FF302821FF302821FF302821FF302821FF302821FF30
310
2821FF302821FF302821FF302821FF302821FF302821FF302821FF302821FF302821FF302821FF302821FF302821FF302821FF302821FF302821FF302821FF302821FF302821FF302821FF302821FF302821FF302821FF302821FF302821FF302821FF302821FF302821FF302821FF302821FF302821FF302821FF302821FF
310
302821FF302821FF302821FF302821FF302821FF302821FF302821FF302821FF302821FF302821FF302821FF302821FF302821FF302821FF302821FF302821FF302821FF302821FF
102
{BLKREFS
331
823
102
}
 70
     1
280
     1
281
     0
  0
BLOCK_RECORD
  5
824
330
1
100
AcDbSymbolTableRecord
100
AcDbBlockTableRecord
  2
Pressure_Balance_Rough_Valve-GROHE-35115000- Front
340
0
310
28000000200000002000000001002000000000000010000001000000010000000000000000000000302821FF302821FF302821FF302821FF302821FF302821FF302821FF302821FF302821FF302821FF302821FF302821FF302821FF302821FF302821FF302821FF302821FF302821FF302821FF302821FF302821FF302821
310
FF302821FF302821FF302821FF302821FF302821FF302821FF302821FF302821FF302821FF302821FF302821FF302821FF302821FF302821FF302821FF302821FF302821FF302821FF302821FF302821FF302821FF302821FF302821FF302821FF302821FF302821FF302821FF302821FF302821FF302821FF302821FF3028
310
21FF302821FF302821FF302821FF302821FF302821FF302821FF302821FF302821FF302821FF302821FF302821FF302821FF302821FF302821FF302821FF302821FF302821FF302821FF302821FF302821FF302821FF302821FF302821FF302821FF302821FF302821FF302821FF302821FF302821FF302821FF302821FF30
310
2821FF302821FF302821FF302821FF302821FF302821FF302821FF302821FF302821FF302821FF302821FF302821FF302821FF302821FF302821FF302821FF302821FF302821FF302821FF302821FF302821FF302821FF302821FF302821FF302821FF302821FF302821FF302821FF302821FF302821FF302821FF302821FF
310
302821FF302821FF302821FF302821FF302821FF302821FF302821FF302821FF302821FF302821FF302821FF302821FF302821FF302821FF302821FF302821FF302821FF302821FF302821FF302821FF302821FF302821FF302821FF302821FF302821FF302821FF302821FF302821FF302821FF302821FF302821FF302821
310
FF302821FF302821FF302821FF302821FF302821FF302821FF302821FF302821FF302821FF302821FF302821FF302821FF302821FF302821FF302821FF302821FF302821FF302821FF302821FF302821FF302821FF302821FF302821FF302821FF302821FF302821FF302821FF302821FF302821FF302821FF302821FF3028
310
21FF302821FF302821FF302821FF302821FF302821FF302821FF302821FF302821FF302821FF302821FF302821FF302821FF302821FF302821FF302821FF302821FF302821FF302821FF302821FF302821FF302821FF302821FF302821FF302821FF302821FF302821FF302821FF302821FF302821FF302821FF302821FF30
310
2821FF302821FF302821FF302821FF302821FF302821FF302821FF302821FF302821FF302821FF302821FF302821FF302821FF302821FF302821FF302821FF302821FF302821FF302821FF302821FF302821FF302821FF302821FF302821FF302821FF302821FF302821FF302821FF302821FF302821FF302821FF302821FF
310
302821FF302821FF302821FF302821FF302821FF302821FF302821FF302821FF302821FF302821FF302821FF302821FF302821FF302821FF302821FF302821FF302821FF302821FF302821FF302821FF302821FF302821FF302821FF302821FF302821FF302821FFFFFFFFFFFFFFFFFFFFFFFFFFFFFFFFFF302821FF302821
310
FF302821FF302821FF302821FF302821FF302821FF302821FF302821FF302821FF302821FF302821FF302821FF302821FF302821FF302821FF302821FF302821FF302821FF302821FF302821FF302821FF302821FF302821FF302821FF302821FF302821FF302821FFFFFFFFFF302821FF302821FFFFFFFFFF302821FF3028
310
21FF302821FF302821FF302821FF302821FF302821FF302821FF302821FF302821FF302821FF302821FF302821FF302821FF302821FF302821FF302821FF302821FF302821FF302821FF302821FF302821FF302821FFFFFFFFFFFFFFFFFF302821FF302821FFFFFFFFFFFFFFFFFFFFFFFFFFFFFFFFFFFFFFFFFFFFFFFFFF30
310
2821FFFFFFFFFFFFFFFFFF302821FF302821FF302821FF302821FF302821FF302821FF302821FF302821FF302821FF302821FF302821FF302821FFFFFFFFFFFFFFFFFFFFFFFFFF302821FF302821FF302821FF302821FFFFFFFFFFFFFFFFFF302821FF302821FFFFFFFFFFFFFFFFFFFFFFFFFFFFFFFFFFFFFFFFFFFFFFFFFF
310
302821FFFFFFFFFFFFFFFFFF302821FF302821FF302821FF302821FF302821FFFFFFFFFFFFFFFFFFFFFFFFFF302821FF302821FF302821FF302821FFFFFFFFFF302821FFFFFFFFFF302821FF302821FF302821FF302821FFFFFFFFFF302821FFFFFFFFFFFFFFFFFFFFFFFFFFFFFFFFFF302821FF302821FFFFFFFFFFFFFFFF
310
FFFFFFFFFF302821FFFFFFFFFF302821FF302821FF302821FF302821FF302821FFFFFFFFFF302821FFFFFFFFFF302821FF302821FF302821FF302821FFFFFFFFFF302821FFFFFFFFFF302821FF302821FF302821FFFFFFFFFFFFFFFFFFFFFFFFFFFFFFFFFFFFFFFFFF302821FF302821FF302821FF302821FF302821FF3028
310
21FFFFFFFFFFFFFFFFFFFFFFFFFFFFFFFFFFFFFFFFFF302821FF302821FF302821FFFFFFFFFF302821FFFFFFFFFF302821FF302821FF302821FF302821FFFFFFFFFFFFFFFFFFFFFFFFFFFFFFFFFFFFFFFFFFFFFFFFFFFFFFFFFF302821FF302821FFFFFFFFFFFFFFFFFF302821FF302821FF302821FF302821FF302821FF30
310
2821FFFFFFFFFFFFFFFFFF302821FFFFFFFFFFFFFFFFFFFFFFFFFFFFFFFFFFFFFFFFFFFFFFFFFFFFFFFFFFFFFFFFFF302821FF302821FF302821FFFFFFFFFFFFFFFFFF302821FF302821FFFFFFFFFF302821FF302821FFFFFFFFFFFFFFFFFFFFFFFFFFFFFFFFFFFFFFFFFFFFFFFFFFFFFFFFFFFFFFFFFFFFFFFFFFFFFFFFFF
310
FFFFFFFFFFFFFFFFFFFFFFFFFFFFFFFFFFFFFFFFFFFFFFFF302821FF302821FFFFFFFFFF302821FF302821FFFFFFFFFFFFFFFFFF302821FF302821FFFFFFFFFFFFFFFFFF302821FF302821FFFFFFFFFF302821FF302821FFFFFFFFFFFFFFFFFFFFFFFFFFFFFFFFFFFFFFFFFFFFFFFFFFFFFFFFFFFFFFFFFFFFFFFFFFFFFFFF
310
FFFFFFFFFFFFFFFFFFFFFFFFFFFFFFFFFFFFFFFFFFFFFFFFFF302821FF302821FFFFFFFFFF302821FF302821FFFFFFFFFFFFFFFFFF302821FF302821FF302821FFFFFFFFFFFFFFFFFFFFFFFFFFFFFFFFFFFFFFFFFFFFFFFFFFFFFFFFFF302821FF302821FFFFFFFFFFFFFFFFFF302821FF302821FF302821FF302821FF3028
310
21FF302821FFFFFFFFFFFFFFFFFF302821FFFFFFFFFFFFFFFFFFFFFFFFFFFFFFFFFFFFFFFFFFFFFFFFFFFFFFFFFFFFFFFFFF302821FF302821FF302821FF302821FF302821FF302821FF302821FF302821FF302821FF302821FFFFFFFFFFFFFFFFFFFFFFFFFFFFFFFFFFFFFFFFFF302821FF302821FF302821FF302821FF30
310
2821FF302821FFFFFFFFFFFFFFFFFFFFFFFFFFFFFFFFFFFFFFFFFF302821FF302821FF302821FF302821FF302821FF302821FF302821FF302821FF302821FF302821FF302821FF302821FF302821FF302821FF302821FF302821FF302821FF302821FFFFFFFFFF302821FFFFFFFFFFFFFFFFFFFFFFFFFF302821FF302821FF
310
FFFFFFFFFFFFFFFFFFFFFFFF302821FFFFFFFFFFFFFFFFFF302821FF302821FF302821FF302821FF302821FF302821FF302821FF302821FF302821FF302821FF302821FF302821FF302821FF302821FF302821FF302821FF302821FF302821FF302821FFFFFFFFFFFFFFFFFFFFFFFFFFFFFFFFFFFFFFFFFFFFFFFFFFFFFFFF
310
FFFFFFFFFFFFFFFFFF302821FF302821FFFFFFFFFFFFFFFFFF302821FF302821FF302821FF302821FF302821FF302821FF302821FF302821FF302821FF302821FF302821FF302821FF302821FF302821FF302821FF302821FF302821FF302821FF302821FFFFFFFFFFFFFFFFFF302821FFFFFFFFFFFFFFFFFFFFFFFFFFFFFF
310
FFFFFFFFFFFFFFFFFFFF302821FF302821FFFFFFFFFFFFFFFFFF302821FF302821FF302821FF302821FF302821FF302821FF302821FF302821FF302821FF302821FF302821FF302821FF302821FF302821FF302821FF302821FF302821FF302821FF302821FF302821FF302821FF302821FF302821FFFFFFFFFF302821FF30
310
2821FFFFFFFFFF302821FF302821FF302821FF302821FF302821FF302821FF302821FF302821FF302821FF302821FF302821FF302821FF302821FF302821FF302821FF302821FF302821FF302821FF302821FF302821FF302821FF302821FF302821FF302821FF302821FF302821FF302821FF302821FFFFFFFFFFFFFFFFFF
310
FFFFFFFFFFFFFFFF302821FF302821FF302821FF302821FF302821FF302821FF302821FF302821FF302821FF302821FF302821FF302821FF302821FF302821FF302821FF302821FF302821FF302821FF302821FF302821FF302821FF302821FF302821FF302821FF302821FF302821FF302821FF302821FF302821FF302821
310
FF302821FF302821FF302821FF302821FF302821FF302821FF302821FF302821FF302821FF302821FF302821FF302821FF302821FF302821FF302821FF302821FF302821FF302821FF302821FF302821FF302821FF302821FF302821FF302821FF302821FF302821FF302821FF302821FF302821FF302821FF302821FF3028
310
21FF302821FF302821FF302821FF302821FF302821FF302821FF302821FF302821FF302821FF302821FF302821FF302821FF302821FF302821FF302821FF302821FF302821FF302821FF302821FF302821FF302821FF302821FF302821FF302821FF302821FF302821FF302821FF302821FF302821FF302821FF302821FF30
310
2821FF302821FF302821FF302821FF302821FF302821FF302821FF302821FF302821FF302821FF302821FF302821FF302821FF302821FF302821FF302821FF302821FF302821FF302821FF302821FF302821FF302821FF302821FF302821FF302821FF302821FF302821FF302821FF302821FF302821FF302821FF302821FF
310
302821FF302821FF302821FF302821FF302821FF302821FF302821FF302821FF302821FF302821FF302821FF302821FF302821FF302821FF302821FF302821FF302821FF302821FF302821FF302821FF302821FF302821FF302821FF302821FF302821FF302821FF302821FF302821FF302821FF302821FF302821FF302821
310
FF302821FF302821FF302821FF302821FF302821FF302821FF302821FF302821FF302821FF302821FF302821FF302821FF302821FF302821FF302821FF302821FF302821FF302821FF302821FF302821FF302821FF302821FF302821FF302821FF302821FF302821FF302821FF302821FF302821FF302821FF302821FF3028
310
21FF302821FF302821FF302821FF302821FF302821FF302821FF302821FF302821FF302821FF302821FF302821FF302821FF302821FF302821FF302821FF302821FF302821FF302821FF302821FF302821FF302821FF302821FF302821FF302821FF302821FF302821FF302821FF302821FF302821FF302821FF302821FF30
310
2821FF302821FF302821FF302821FF302821FF302821FF302821FF302821FF302821FF302821FF302821FF302821FF302821FF302821FF302821FF302821FF302821FF302821FF302821FF302821FF302821FF302821FF302821FF302821FF302821FF302821FF302821FF302821FF302821FF302821FF302821FF302821FF
310
302821FF302821FF302821FF302821FF302821FF302821FF302821FF302821FF302821FF302821FF302821FF302821FF302821FF302821FF302821FF302821FF302821FF302821FF
102
{BLKREFS
331
912
102
}
 70
     1
280
     1
281
     0
  0
BLOCK_RECORD
  5
913
330
1
100
AcDbSymbolTableRecord
100
AcDbBlockTableRecord
  2
Pressure_Balance_Rough_Valve-GROHE-35115000- Left
340
0
310
28000000200000002000000001002000000000000010000001000000010000000000000000000000302821FF302821FF302821FF302821FF302821FF302821FF302821FF302821FF302821FF302821FF302821FF302821FF302821FF302821FF302821FF302821FF302821FF302821FF302821FF302821FF302821FF302821
310
FF302821FF302821FF302821FF302821FF302821FF302821FF302821FF302821FF302821FF302821FF302821FF302821FF302821FF302821FF302821FF302821FF302821FF302821FF302821FF302821FF302821FF302821FF302821FF302821FF302821FF302821FF302821FF302821FF302821FF302821FF302821FF3028
310
21FF302821FF302821FF302821FF302821FF302821FF302821FF302821FF302821FF302821FF302821FF302821FF302821FF302821FF302821FF302821FF302821FF302821FF302821FF302821FF302821FF302821FF302821FF302821FF302821FF302821FF302821FF302821FF302821FF302821FF302821FF302821FF30
310
2821FF302821FF302821FF302821FF302821FF302821FF302821FF302821FF302821FF302821FF302821FF302821FF302821FF302821FF302821FF302821FF302821FF302821FF302821FF302821FF302821FF302821FF302821FF302821FF302821FF302821FF302821FF302821FF302821FF302821FF302821FF302821FF
310
302821FF302821FF302821FF302821FF302821FF302821FF302821FF302821FF302821FF302821FF302821FF302821FF302821FF302821FF302821FF302821FF302821FF302821FF302821FF302821FF302821FF302821FF302821FF302821FF302821FF302821FF302821FF302821FF302821FF302821FF302821FF302821
310
FF302821FF302821FF302821FF302821FF302821FF302821FF302821FF302821FF302821FF302821FF302821FF302821FF302821FF302821FF302821FF302821FF302821FF302821FF302821FF302821FF302821FF302821FF302821FF302821FF302821FF302821FF302821FF302821FF302821FF302821FF302821FF3028
310
21FF302821FF302821FF302821FF302821FF302821FF302821FF302821FF302821FF302821FF302821FF302821FF302821FF302821FF302821FF302821FF302821FF302821FF302821FF302821FF302821FF302821FF302821FF302821FF302821FF302821FF302821FF302821FF302821FF302821FF302821FF302821FF30
310
2821FF302821FF302821FF302821FF302821FF302821FF302821FF302821FF302821FF302821FF302821FF302821FF302821FF302821FF302821FF302821FF302821FF302821FF302821FFFFFFFFFFFFFFFFFFFFFFFFFFFFFFFFFFFFFFFFFFFFFFFFFFFFFFFFFFFFFFFFFFFFFFFFFFFFFFFFFFFFFFFFFFFFFFFFFFFFFFFFFF
310
FFFFFFFFFFFFFFFFFFFFFFFFFFFFFFFFFFFFFFFF302821FF302821FF302821FF302821FF302821FF302821FF302821FF302821FF302821FF302821FF302821FF302821FF302821FF302821FFFFFFFFFF302821FF302821FF302821FF302821FF302821FF302821FF302821FF302821FF302821FF302821FF302821FF302821
310
FF302821FF302821FF302821FF302821FFFFFFFFFF302821FF302821FF302821FF302821FF302821FF302821FF302821FF302821FF302821FF302821FF302821FF302821FF302821FF302821FFFFFFFFFF302821FF302821FF302821FF302821FF302821FF302821FF302821FF302821FF302821FF302821FF302821FF3028
310
21FF302821FF302821FF302821FF302821FFFFFFFFFF302821FF302821FF302821FF302821FF302821FF302821FF302821FF302821FF302821FF302821FF302821FF302821FF302821FFFFFFFFFFFFFFFFFF302821FF302821FF302821FF302821FF302821FF302821FF302821FFFFFFFFFFFFFFFFFF302821FF302821FF30
310
2821FF302821FF302821FF302821FF302821FFFFFFFFFFFFFFFFFF302821FF302821FF302821FF302821FF302821FF302821FF302821FFFFFFFFFFFFFFFFFFFFFFFFFFFFFFFFFFFFFFFFFFFFFFFFFFFFFFFFFF302821FF302821FF302821FF302821FF302821FFFFFFFFFFFFFFFFFFFFFFFFFFFFFFFFFFFFFFFFFFFFFFFFFF
310
FFFFFFFFFFFFFFFFFFFFFFFFFFFFFFFFFFFFFFFFFFFFFFFFFFFFFFFFFFFFFFFFFFFFFFFFFFFFFFFFFFFFFFFFFFFFFFFF302821FF302821FFFFFFFFFF302821FF302821FF302821FF302821FFFFFFFFFFFFFFFFFF302821FF302821FF302821FF302821FFFFFFFFFFFFFFFFFFFFFFFFFFFFFFFFFFFFFFFFFFFFFFFFFFFFFFFF
310
FFFFFFFFFFFFFFFFFFFFFFFFFFFFFFFFFFFFFFFFFFFFFFFFFFFFFFFFFFFFFFFFFF302821FF302821FF302821FFFFFFFFFF302821FF302821FFFFFFFFFF302821FF302821FF302821FF302821FFFFFFFFFFFFFFFFFF302821FF302821FF302821FF302821FFFFFFFFFFFFFFFFFFFFFFFFFFFFFFFFFFFFFFFFFFFFFFFFFFFFFF
310
FFFFFFFFFFFFFFFFFFFFFFFFFFFFFFFFFFFFFFFFFFFFFFFFFFFFFFFFFFFF302821FF302821FF302821FF302821FFFFFFFFFF302821FF302821FFFFFFFFFF302821FF302821FF302821FF302821FFFFFFFFFFFFFFFFFF302821FF302821FF302821FF302821FFFFFFFFFFFFFFFFFFFFFFFFFF302821FF302821FFFFFFFFFFFF
310
FFFFFFFFFFFFFF302821FF302821FF302821FF302821FFFFFFFFFFFFFFFFFF302821FF302821FF302821FF302821FFFFFFFFFF302821FF302821FFFFFFFFFF302821FF302821FF302821FF302821FFFFFFFFFFFFFFFFFF302821FF302821FF302821FF302821FFFFFFFFFFFFFFFFFFFFFFFFFF302821FF302821FFFFFFFFFF
310
FFFFFFFFFFFFFFFF302821FF302821FF302821FF302821FFFFFFFFFFFFFFFFFF302821FF302821FF302821FF302821FFFFFFFFFF302821FF302821FFFFFFFFFF302821FF302821FF302821FFFFFFFFFFFFFFFFFFFFFFFFFFFFFFFFFFFFFFFFFFFFFFFFFFFFFFFFFFFFFFFFFFFFFFFFFFFFFFFFFFFFFFFFFFFFFFFFFFFFFFFF
310
FFFFFFFFFFFFFFFFFFFFFFFFFFFFFFFFFFFFFFFFFFFFFFFFFFFFFFFFFFFFFFFFFF302821FF302821FF302821FF302821FFFFFFFFFF302821FF302821FFFFFFFFFFFFFFFFFFFFFFFFFFFFFFFFFFFFFFFFFFFFFFFFFFFFFFFFFFFFFFFFFFFFFFFFFFFFFFFFFFFFFFFFFFFFFFFFFFFFFFFFFFFFFFFFFFFFFFFFFFFFFFFFFFFFFF
310
FFFFFFFFFFFFFFFFFFFF302821FF302821FF302821FF302821FFFFFFFFFFFFFFFFFFFFFFFFFFFFFFFFFFFFFFFFFFFFFFFFFFFFFFFFFF302821FF302821FF302821FF302821FF302821FF302821FF302821FFFFFFFFFFFFFFFFFF302821FF302821FF302821FF302821FF302821FF302821FFFFFFFFFFFFFFFFFFFFFFFFFFFF
310
FFFFFF302821FF302821FF302821FF302821FF302821FF302821FFFFFFFFFFFFFFFFFF302821FF302821FF302821FF302821FF302821FF302821FF302821FF302821FF302821FF302821FF302821FF302821FF302821FFFFFFFFFFFFFFFFFFFFFFFFFFFFFFFFFFFFFFFFFFFFFFFFFFFFFFFFFFFFFFFFFFFFFFFFFFFFFFFFFF
310
FFFFFFFFFFFFFFFFFFFFFFFFFFFFFFFFFFFFFFFFFFFFFFFFFFFFFFFFFFFFFFFF302821FF302821FF302821FF302821FF302821FF302821FF302821FF302821FF302821FF302821FF302821FF302821FF302821FF302821FFFFFFFFFF302821FF302821FF302821FF302821FF302821FF302821FF302821FF302821FF302821
310
FF302821FF302821FF302821FF302821FF302821FF302821FF302821FFFFFFFFFF302821FF302821FF302821FF302821FF302821FF302821FF302821FF302821FF302821FF302821FF302821FF302821FF302821FF302821FFFFFFFFFF302821FF302821FF302821FF302821FF302821FF302821FF302821FF302821FF3028
310
21FF302821FF302821FF302821FF302821FF302821FF302821FF302821FFFFFFFFFF302821FF302821FF302821FF302821FF302821FF302821FF302821FF302821FF302821FF302821FF302821FF302821FF302821FF302821FFFFFFFFFFFFFFFFFFFFFFFFFFFFFFFFFFFFFFFFFFFFFFFFFFFFFFFFFFFFFFFFFFFFFFFFFFFF
310
FFFFFFFFFFFFFFFFFFFFFFFFFFFFFFFFFFFFFFFFFFFFFFFFFFFFFFFFFFFFFFFFFFFFFF302821FF302821FF302821FF302821FF302821FF302821FF302821FF302821FF302821FF302821FF302821FF302821FF302821FF302821FF302821FF302821FF302821FF302821FF302821FF302821FF302821FF302821FFFFFFFFFF
310
FFFFFFFF302821FF302821FF302821FF302821FF302821FF302821FF302821FF302821FF302821FF302821FF302821FF302821FF302821FF302821FF302821FF302821FF302821FF302821FF302821FF302821FF302821FF302821FF302821FF302821FF302821FF302821FF302821FF302821FF302821FF302821FFFFFFFF
310
FFFFFFFFFF302821FF302821FF302821FF302821FF302821FF302821FF302821FF302821FF302821FF302821FF302821FF302821FF302821FF302821FF302821FF302821FF302821FF302821FF302821FF302821FF302821FF302821FF302821FF302821FF302821FF302821FF302821FF302821FF302821FF302821FF3028
310
21FF302821FF302821FF302821FF302821FF302821FF302821FF302821FF302821FF302821FF302821FF302821FF302821FF302821FF302821FF302821FF302821FF302821FF302821FF302821FF302821FF302821FF302821FF302821FF302821FF302821FF302821FF302821FF302821FF302821FF302821FF302821FF30
310
2821FF302821FF302821FF302821FF302821FF302821FF302821FF302821FF302821FF302821FF302821FF302821FF302821FF302821FF302821FF302821FF302821FF302821FF302821FF302821FF302821FF302821FF302821FF302821FF302821FF302821FF302821FF302821FF302821FF302821FF302821FF302821FF
310
302821FF302821FF302821FF302821FF302821FF302821FF302821FF302821FF302821FF302821FF302821FF302821FF302821FF302821FF302821FF302821FF302821FF302821FF302821FF302821FF302821FF302821FF302821FF302821FF302821FF302821FF302821FF302821FF302821FF302821FF302821FF302821
310
FF302821FF302821FF302821FF302821FF302821FF302821FF302821FF302821FF302821FF302821FF302821FF302821FF302821FF302821FF302821FF302821FF302821FF302821FF302821FF302821FF302821FF302821FF302821FF302821FF302821FF302821FF302821FF302821FF302821FF302821FF302821FF3028
310
21FF302821FF302821FF302821FF302821FF302821FF302821FF302821FF302821FF302821FF302821FF302821FF302821FF302821FF302821FF302821FF302821FF302821FF302821FF302821FF302821FF302821FF302821FF302821FF302821FF302821FF302821FF302821FF302821FF302821FF302821FF302821FF30
310
2821FF302821FF302821FF302821FF302821FF302821FF302821FF302821FF302821FF302821FF302821FF302821FF302821FF302821FF302821FF302821FF302821FF302821FF302821FF302821FF302821FF302821FF302821FF302821FF302821FF302821FF302821FF302821FF302821FF302821FF302821FF302821FF
310
302821FF302821FF302821FF302821FF302821FF302821FF302821FF302821FF302821FF302821FF302821FF302821FF302821FF302821FF302821FF302821FF302821FF302821FF
102
{BLKREFS
331
9EB
102
}
 70
     1
280
     1
281
     0
  0
ENDTAB
  0
ENDSEC
  0
SECTION
  2
BLOCKS
  0
BLOCK
  5
71
330
70
100
AcDbEntity
  8
0
100
AcDbBlockBegin
  2
*Model_Space
 70
     0
 10
0.0
 20
0.0
 30
0.0
  3
*Model_Space
  1

  0
ENDBLK
  5
72
330
70
100
AcDbEntity
  8
0
100
AcDbBlockEnd
  0
BLOCK
  5
6D
330
6C
100
AcDbEntity
 67
     1
  8
0
100
AcDbBlockBegin
  2
*Paper_Space
 70
     0
 10
0.0
 20
0.0
 30
0.0
  3
*Paper_Space
  1

  0
ENDBLK
  5
6E
330
6C
100
AcDbEntity
 67
     1
  8
0
100
AcDbBlockEnd
  0
BLOCK
  5
75
330
74
100
AcDbEntity
 67
     1
  8
0
100
AcDbBlockBegin
  2
*Paper_Space0
 70
     0
 10
0.0
 20
0.0
 30
0.0
  3
*Paper_Space0
  1

  0
ENDBLK
  5
76
330
74
100
AcDbEntity
 67
     1
  8
0
100
AcDbBlockEnd
  0
BLOCK
  5
749
330
748
100
AcDbEntity
  8
0
100
AcDbBlockBegin
  2
Pressure_Balance_Rough_Valve-GROHE-35115000- Top
 70
     0
 10
0.0
 20
0.0
 30
0.0
  3
Pressure_Balance_Rough_Valve-GROHE-35115000- Top
  1

  0
LINE
  5
74B
330
748
100
AcDbEntity
  8
Pressure_Balance_Rough_Valve-GROHE-35115000
100
AcDbLine
 10
0.8645696171285843
 20
0.0000000000000195
 30
0.0
 11
0.2962913294865853
 21
0.2649925174906595
 31
0.0
1001
REVIT
1002
{
1070
     2
1000
-2001160
1002
}
  0
ARC
  5
74C
330
748
100
AcDbEntity
  8
Pressure_Balance_Rough_Valve-GROHE-35115000
100
AcDbCircle
 10
0.0000000000000034
 20
-0.7493125390811799
 30
0.0
 40
1.056694515797317
100
AcDbArc
 50
73.71624894759567
 51
106.2837510523694
1001
REVIT
1002
{
1070
     2
1000
-2001160
1002
}
  0
LINE
  5
74D
330
748
100
AcDbEntity
  8
Pressure_Balance_Rough_Valve-GROHE-35115000
100
AcDbLine
 10
-0.2962913294861954
 20
0.2649925174908665
 30
0.0
 11
-0.8645696171285946
 21
0.0000000000000018
 31
0.0
1001
REVIT
1002
{
1070
     2
1000
-2001160
1002
}
  0
LINE
  5
74E
330
748
100
AcDbEntity
  8
Pressure_Balance_Rough_Valve-GROHE-35115000
100
AcDbLine
 10
1.129596651779351
 20
-0.4549363560042013
 30
0.0
 11
1.129596651779346
 21
0.0000000000000124
 31
0.0
1001
REVIT
1002
{
1070
     1
1000
114472
1002
}
1002
{
1070
     2
1000
-2001160
1002
}
  0
LINE
  5
74F
330
748
100
AcDbEntity
  8
Pressure_Balance_Rough_Valve-GROHE-35115000
100
AcDbLine
 10
-1.129596651779346
 20
-0.0000000000000107
 30
0.0
 11
-1.129596651779342
 21
-0.4549363560042244
 31
0.0
1001
REVIT
1002
{
1070
     1
1000
114472
1002
}
1002
{
1070
     2
1000
-2001160
1002
}
  0
LINE
  5
750
330
748
100
AcDbEntity
  8
Pressure_Balance_Rough_Valve-GROHE-35115000
100
AcDbLine
 10
1.031250000000246
 20
-1.999999999999996
 30
0.0
 11
1.031250000000233
 21
-0.4549363560041826
 31
0.0
1001
REVIT
1002
{
1070
     1
1000
114472
1002
}
1002
{
1070
     2
1000
-2001160
1002
}
  0
LINE
  5
751
330
748
100
AcDbEntity
  8
Pressure_Balance_Rough_Valve-GROHE-35115000
100
AcDbLine
 10
-1.03125000000022
 20
-0.4549363560042039
 30
0.0
 11
-1.031250000000204
 21
-2.000000000000017
 31
0.0
1001
REVIT
1002
{
1070
     1
1000
114472
1002
}
1002
{
1070
     2
1000
-2001160
1002
}
  0
LINE
  5
752
330
748
100
AcDbEntity
  8
Pressure_Balance_Rough_Valve-GROHE-35115000
100
AcDbLine
 10
1.129596651779346
 20
0.0000000000000115
 30
0.0
 11
-1.129596651779346
 21
-0.0000000000000115
 31
0.0
1001
REVIT
1002
{
1070
     1
1000
114472
1002
}
1002
{
1070
     2
1000
-2001160
1002
}
  0
LINE
  5
753
330
748
100
AcDbEntity
  8
Pressure_Balance_Rough_Valve-GROHE-35115000
100
AcDbLine
 10
1.031250000000246
 20
-1.999999999999995
 30
0.0
 11
-1.031250000000204
 21
-2.000000000000015
 31
0.0
1001
REVIT
1002
{
1070
     1
1000
114472
1002
}
1002
{
1070
     2
1000
-2001160
1002
}
  0
LINE
  5
754
330
748
100
AcDbEntity
  8
Pressure_Balance_Rough_Valve-GROHE-35115000
100
AcDbLine
 10
1.28577110733338
 20
-0.4836655756400124
 30
0.0
 11
1.28577110733338
 21
-0.4999999999597078
 31
0.0
1001
REVIT
1002
{
1070
     1
1000
130422
1002
}
1002
{
1070
     2
1000
-2001160
1002
}
  0
LINE
  5
755
330
748
100
AcDbEntity
  8
Pressure_Balance_Rough_Valve-GROHE-35115000
100
AcDbLine
 10
-1.378214508456656
 20
-0.448801849379767
 30
0.0
 11
-1.378214508456656
 21
-0.4132545206438288
 31
0.0
1001
REVIT
1002
{
1070
     1
1000
131792
1002
}
1002
{
1070
     2
1000
-2001160
1002
}
  0
LINE
  5
756
330
748
100
AcDbEntity
  8
Pressure_Balance_Rough_Valve-GROHE-35115000
100
AcDbLine
 10
-1.507490149391548
 20
-0.4132545206438288
 30
0.0
 11
-1.507490149391548
 21
-0.448801849379767
 31
0.0
1001
REVIT
1002
{
1070
     1
1000
131792
1002
}
1002
{
1070
     2
1000
-2001160
1002
}
  0
LINE
  5
757
330
748
100
AcDbEntity
  8
Pressure_Balance_Rough_Valve-GROHE-35115000
100
AcDbLine
 10
-1.324317915663199
 20
-0.4836655756400133
 30
0.0
 11
-1.324317915663199
 21
-0.448801849379767
 31
0.0
1001
REVIT
1002
{
1070
     1
1000
131792
1002
}
1002
{
1070
     2
1000
-2001160
1002
}
  0
LINE
  5
758
330
748
100
AcDbEntity
  8
Pressure_Balance_Rough_Valve-GROHE-35115000
100
AcDbLine
 10
-1.561386742185005
 20
-0.448801849379767
 30
0.0
 11
-1.561386742185005
 21
-0.4836655756400133
 31
0.0
1001
REVIT
1002
{
1070
     1
1000
131792
1002
}
1002
{
1070
     2
1000
-2001160
1002
}
  0
LINE
  5
759
330
748
100
AcDbEntity
  8
Pressure_Balance_Rough_Valve-GROHE-35115000
100
AcDbLine
 10
-1.280567357218968
 20
-0.4999999999597078
 30
0.0
 11
-1.280567357218968
 21
-0.4836655756400133
 31
0.0
1001
REVIT
1002
{
1070
     1
1000
131792
1002
}
1002
{
1070
     2
1000
-2001160
1002
}
  0
LINE
  5
75A
330
748
100
AcDbEntity
  8
Pressure_Balance_Rough_Valve-GROHE-35115000
100
AcDbLine
 10
-1.605137300629236
 20
-0.4836655756400133
 30
0.0
 11
-1.605137300629236
 21
-0.4999999999597078
 31
0.0
1001
REVIT
1002
{
1070
     1
1000
131792
1002
}
1002
{
1070
     2
1000
-2001160
1002
}
  0
LINE
  5
75B
330
748
100
AcDbEntity
  8
Pressure_Balance_Rough_Valve-GROHE-35115000
100
AcDbLine
 10
-1.507490149391546
 20
-0.4132545206438279
 30
0.0
 11
-1.378214508456655
 21
-0.4132545206438279
 31
0.0
1001
REVIT
1002
{
1070
     1
1000
131792
1002
}
1002
{
1070
     2
1000
-2001160
1002
}
  0
LINE
  5
75C
330
748
100
AcDbEntity
  8
Pressure_Balance_Rough_Valve-GROHE-35115000
100
AcDbLine
 10
-1.561386742185004
 20
-0.4488018493797661
 30
0.0
 11
-1.324317915663197
 21
-0.4488018493797661
 31
0.0
1001
REVIT
1002
{
1070
     1
1000
131792
1002
}
1002
{
1070
     2
1000
-2001160
1002
}
  0
LINE
  5
75D
330
748
100
AcDbEntity
  8
Pressure_Balance_Rough_Valve-GROHE-35115000
100
AcDbLine
 10
-1.605137300629234
 20
-0.4836655756400124
 30
0.0
 11
-1.280567357218966
 21
-0.4836655756400124
 31
0.0
1001
REVIT
1002
{
1070
     1
1000
131792
1002
}
1002
{
1070
     2
1000
-2001160
1002
}
  0
LINE
  5
75E
330
748
100
AcDbEntity
  8
Pressure_Balance_Rough_Valve-GROHE-35115000
100
AcDbLine
 10
-1.812500000000025
 20
-1.500000000037742
 30
0.0
 11
-1.031250000000209
 21
-1.500000000037742
 31
0.0
1001
REVIT
1002
{
1070
     1
1000
158160
1002
}
1002
{
1070
     2
1000
-2001160
1002
}
  0
LINE
  5
75F
330
748
100
AcDbEntity
  8
Pressure_Balance_Rough_Valve-GROHE-35115000
100
AcDbLine
 10
1.031250000000242
 20
-1.500000000037741
 30
0.0
 11
1.812500000000035
 21
-1.500000000037742
 31
0.0
1001
REVIT
1002
{
1070
     1
1000
158160
1002
}
1002
{
1070
     2
1000
-2001160
1002
}
  0
LINE
  5
760
330
748
100
AcDbEntity
  8
Pressure_Balance_Rough_Valve-GROHE-35115000
100
AcDbLine
 10
1.812500000000035
 20
-0.4999999999597078
 30
0.0
 11
1.031250000000233
 21
-0.4999999999597078
 31
0.0
1001
REVIT
1002
{
1070
     1
1000
158160
1002
}
1002
{
1070
     2
1000
-2001160
1002
}
  0
LINE
  5
761
330
748
100
AcDbEntity
  8
Pressure_Balance_Rough_Valve-GROHE-35115000
100
AcDbLine
 10
-1.03125000000022
 20
-0.4999999999597078
 30
0.0
 11
-1.812500000000025
 21
-0.4999999999597078
 31
0.0
1001
REVIT
1002
{
1070
     1
1000
158160
1002
}
1002
{
1070
     2
1000
-2001160
1002
}
  0
LINE
  5
762
330
748
100
AcDbEntity
  8
Pressure_Balance_Rough_Valve-GROHE-35115000
100
AcDbLine
 10
1.812500000000035
 20
-1.415409331347579
 30
0.0
 11
2.341126045624274
 21
-1.415409331347579
 31
0.0
1001
REVIT
1002
{
1070
     1
1000
158160
1002
}
1002
{
1070
     2
1000
-2001160
1002
}
  0
LINE
  5
763
330
748
100
AcDbEntity
  8
Pressure_Balance_Rough_Valve-GROHE-35115000
100
AcDbLine
 10
2.341126045624274
 20
-0.584590668649871
 30
0.0
 11
1.812500000000035
 21
-0.584590668649871
 31
0.0
1001
REVIT
1002
{
1070
     1
1000
158160
1002
}
1002
{
1070
     2
1000
-2001160
1002
}
  0
LINE
  5
764
330
748
100
AcDbEntity
  8
Pressure_Balance_Rough_Valve-GROHE-35115000
100
AcDbLine
 10
-2.42782033881236
 20
-1.382812500057833
 30
0.0
 11
-2.341126045624252
 21
-1.415409331347523
 31
0.0
1001
REVIT
1002
{
1070
     1
1000
158160
1002
}
1002
{
1070
     2
1000
-2001160
1002
}
  0
LINE
  5
765
330
748
100
AcDbEntity
  8
Pressure_Balance_Rough_Valve-GROHE-35115000
100
AcDbLine
 10
-2.341126045624252
 20
-0.5845906686499279
 30
0.0
 11
-2.42782033881236
 21
-0.6171874999396172
 31
0.0
1001
REVIT
1002
{
1070
     1
1000
158160
1002
}
1002
{
1070
     2
1000
-2001160
1002
}
  0
LINE
  5
766
330
748
100
AcDbEntity
  8
Pressure_Balance_Rough_Valve-GROHE-35115000
100
AcDbLine
 10
2.341126045624274
 20
-1.415409331347579
 30
0.0
 11
2.427820338812386
 21
-1.382812500037886
 31
0.0
1001
REVIT
1002
{
1070
     1
1000
158160
1002
}
1002
{
1070
     2
1000
-2001160
1002
}
  0
LINE
  5
767
330
748
100
AcDbEntity
  8
Pressure_Balance_Rough_Valve-GROHE-35115000
100
AcDbLine
 10
2.427820338812386
 20
-0.6171874999595648
 30
0.0
 11
2.341126045624274
 21
-0.584590668649871
 31
0.0
1001
REVIT
1002
{
1070
     1
1000
158160
1002
}
1002
{
1070
     2
1000
-2001160
1002
}
  0
LINE
  5
768
330
748
100
AcDbEntity
  8
Pressure_Balance_Rough_Valve-GROHE-35115000
100
AcDbLine
 10
-2.968564999505242
 20
-1.382812500057833
 30
0.0
 11
-2.42782033881236
 21
-1.382812500057833
 31
0.0
1001
REVIT
1002
{
1070
     1
1000
158160
1002
}
1002
{
1070
     2
1000
-2001160
1002
}
  0
LINE
  5
769
330
748
100
AcDbEntity
  8
Pressure_Balance_Rough_Valve-GROHE-35115000
100
AcDbLine
 10
-2.42782033881236
 20
-0.6171874999396172
 30
0.0
 11
-2.968564999505242
 21
-0.6171874999396172
 31
0.0
1001
REVIT
1002
{
1070
     1
1000
158160
1002
}
1002
{
1070
     2
1000
-2001160
1002
}
  0
LINE
  5
76A
330
748
100
AcDbEntity
  8
Pressure_Balance_Rough_Valve-GROHE-35115000
100
AcDbLine
 10
-2.341126045624261
 20
-1.415409331347547
 30
0.0
 11
-1.812500000000023
 21
-1.415409331347547
 31
0.0
1001
REVIT
1002
{
1070
     1
1000
158160
1002
}
1002
{
1070
     2
1000
-2001160
1002
}
  0
LINE
  5
76B
330
748
100
AcDbEntity
  8
Pressure_Balance_Rough_Valve-GROHE-35115000
100
AcDbLine
 10
-1.812500000000023
 20
-0.5845906686499034
 30
0.0
 11
-2.341126045624261
 21
-0.5845906686499034
 31
0.0
1001
REVIT
1002
{
1070
     1
1000
158160
1002
}
1002
{
1070
     2
1000
-2001160
1002
}
  0
LINE
  5
76C
330
748
100
AcDbEntity
  8
Pressure_Balance_Rough_Valve-GROHE-35115000
100
AcDbLine
 10
-3.250000000000002
 20
-0.8986225004343779
 30
0.0
 11
-3.249774882017739
 21
-0.8873681021477777
 31
0.0
1001
REVIT
1002
{
1070
     1
1000
158160
1002
}
1002
{
1070
     2
1000
-2001160
1002
}
  0
LINE
  5
76D
330
748
100
AcDbEntity
  8
Pressure_Balance_Rough_Valve-GROHE-35115000
100
AcDbLine
 10
-3.249774882017739
 20
-0.8873681021477777
 30
0.0
 11
-3.249099888211698
 21
-0.876131708497625
 31
0.0
1001
REVIT
1002
{
1070
     1
1000
158160
1002
}
1002
{
1070
     2
1000
-2001160
1002
}
  0
LINE
  5
76E
330
748
100
AcDbEntity
  8
Pressure_Balance_Rough_Valve-GROHE-35115000
100
AcDbLine
 10
-3.249099888211698
 20
-0.876131708497625
 30
0.0
 11
-3.247976098427977
 21
-0.8649312953167921
 31
0.0
1001
REVIT
1002
{
1070
     1
1000
158160
1002
}
1002
{
1070
     2
1000
-2001160
1002
}
  0
LINE
  5
76F
330
748
100
AcDbEntity
  8
Pressure_Balance_Rough_Valve-GROHE-35115000
100
AcDbLine
 10
-3.247976098427977
 20
-0.8649312953167921
 30
0.0
 11
-3.246405310490502
 21
-0.8537847808770733
 31
0.0
1001
REVIT
1002
{
1070
     1
1000
158160
1002
}
1002
{
1070
     2
1000
-2001160
1002
}
  0
LINE
  5
770
330
748
100
AcDbEntity
  8
Pressure_Balance_Rough_Valve-GROHE-35115000
100
AcDbLine
 10
-3.246405310490502
 20
-0.8537847808770733
 30
0.0
 11
-3.24439003732489
 21
-0.8427099972237762
 31
0.0
1001
REVIT
1002
{
1070
     1
1000
158160
1002
}
1002
{
1070
     2
1000
-2001160
1002
}
  0
LINE
  5
771
330
748
100
AcDbEntity
  8
Pressure_Balance_Rough_Valve-GROHE-35115000
100
AcDbLine
 10
-3.24439003732489
 20
-0.8427099972237762
 30
0.0
 11
-3.241933502938302
 21
-0.8317246616482512
 31
0.0
1001
REVIT
1002
{
1070
     1
1000
158160
1002
}
1002
{
1070
     2
1000
-2001160
1002
}
  0
LINE
  5
772
330
748
100
AcDbEntity
  8
Pressure_Balance_Rough_Valve-GROHE-35115000
100
AcDbLine
 10
-3.241933502938302
 20
-0.8317246616482512
 30
0.0
 11
-3.239039637261726
 21
-0.820846348344007
 31
0.0
1001
REVIT
1002
{
1070
     1
1000
158160
1002
}
1002
{
1070
     2
1000
-2001160
1002
}
  0
LINE
  5
773
330
748
100
AcDbEntity
  8
Pressure_Balance_Rough_Valve-GROHE-35115000
100
AcDbLine
 10
-3.239039637261726
 20
-0.820846348344007
 30
0.0
 11
-3.235713069862918
 21
-0.810092460291746
 31
0.0
1001
REVIT
1002
{
1070
     1
1000
158160
1002
}
1002
{
1070
     2
1000
-2001160
1002
}
  0
LINE
  5
774
330
748
100
AcDbEntity
  8
Pressure_Balance_Rough_Valve-GROHE-35115000
100
AcDbLine
 10
-3.235713069862918
 20
-0.810092460291746
 30
0.0
 11
-3.231959122540086
 21
-0.7994802014183118
 31
0.0
1001
REVIT
1002
{
1070
     1
1000
158160
1002
}
1002
{
1070
     2
1000
-2001160
1002
}
  0
LINE
  5
775
330
748
100
AcDbEntity
  8
Pressure_Balance_Rough_Valve-GROHE-35115000
100
AcDbLine
 10
-3.231959122540086
 20
-0.7994802014183118
 30
0.0
 11
-3.227783800808149
 21
-0.789026549074074
 31
0.0
1001
REVIT
1002
{
1070
     1
1000
158160
1002
}
1002
{
1070
     2
1000
-2001160
1002
}
  0
LINE
  5
776
330
748
100
AcDbEntity
  8
Pressure_Balance_Rough_Valve-GROHE-35115000
100
AcDbLine
 10
-3.227783800808149
 20
-0.789026549074074
 30
0.0
 11
-3.223193784291187
 21
-0.7787482268727901
 31
0.0
1001
REVIT
1002
{
1070
     1
1000
158160
1002
}
1002
{
1070
     2
1000
-2001160
1002
}
  0
LINE
  5
777
330
748
100
AcDbEntity
  8
Pressure_Balance_Rough_Valve-GROHE-35115000
100
AcDbLine
 10
-3.223193784291187
 20
-0.7787482268727901
 30
0.0
 11
-3.218196416036479
 21
-0.7686616779373905
 31
0.0
1001
REVIT
1002
{
1070
     1
1000
158160
1002
}
1002
{
1070
     2
1000
-2001160
1002
}
  0
LINE
  5
778
330
748
100
AcDbEntity
  8
Pressure_Balance_Rough_Valve-GROHE-35115000
100
AcDbLine
 10
-3.218196416036479
 20
-0.7686616779373905
 30
0.0
 11
-3.212799690767184
 21
-0.7587830385944892
 31
0.0
1001
REVIT
1002
{
1070
     1
1000
158160
1002
}
1002
{
1070
     2
1000
-2001160
1002
}
  0
LINE
  5
779
330
748
100
AcDbEntity
  8
Pressure_Balance_Rough_Valve-GROHE-35115000
100
AcDbLine
 10
-3.212799690767184
 20
-0.7587830385944892
 30
0.0
 11
-3.207012242092491
 21
-0.7491281125597045
 31
0.0
1001
REVIT
1002
{
1070
     1
1000
158160
1002
}
1002
{
1070
     2
1000
-2001160
1002
}
  0
LINE
  5
77A
330
748
100
AcDbEntity
  8
Pressure_Balance_Rough_Valve-GROHE-35115000
100
AcDbLine
 10
-3.207012242092491
 20
-0.7491281125597045
 30
0.0
 11
-3.200843328695691
 21
-0.7397123456550832
 31
0.0
1001
REVIT
1002
{
1070
     1
1000
158160
1002
}
1002
{
1070
     2
1000
-2001160
1002
}
  0
LINE
  5
77B
330
748
100
AcDbEntity
  8
Pressure_Balance_Rough_Valve-GROHE-35115000
100
AcDbLine
 10
-3.200843328695691
 20
-0.7397123456550832
 30
0.0
 11
-3.194302819522252
 21
-0.7305508010990845
 31
0.0
1001
REVIT
1002
{
1070
     1
1000
158160
1002
}
1002
{
1070
     2
1000
-2001160
1002
}
  0
LINE
  5
77C
330
748
100
AcDbEntity
  8
Pressure_Balance_Rough_Valve-GROHE-35115000
100
AcDbLine
 10
-3.194302819522252
 20
-0.7305508010990845
 30
0.0
 11
-3.187401177991621
 21
-0.7216581354086383
 31
0.0
1001
REVIT
1002
{
1070
     1
1000
158160
1002
}
1002
{
1070
     2
1000
-2001160
1002
}
  0
LINE
  5
77D
330
748
100
AcDbEntity
  8
Pressure_Balance_Rough_Valve-GROHE-35115000
100
AcDbLine
 10
-3.187401177991621
 20
-0.7216581354086383
 30
0.0
 11
-3.180149445257973
 21
-0.7130485749518485
 31
0.0
1001
REVIT
1002
{
1070
     1
1000
158160
1002
}
1002
{
1070
     2
1000
-2001160
1002
}
  0
LINE
  5
77E
330
748
100
AcDbEntity
  8
Pressure_Balance_Rough_Valve-GROHE-35115000
100
AcDbLine
 10
-3.180149445257973
 20
-0.7130485749518485
 30
0.0
 11
-3.172559222546729
 21
-0.7047358931888388
 31
0.0
1001
REVIT
1002
{
1070
     1
1000
158160
1002
}
1002
{
1070
     2
1000
-2001160
1002
}
  0
LINE
  5
77F
330
748
100
AcDbEntity
  8
Pressure_Balance_Rough_Valve-GROHE-35115000
100
AcDbLine
 10
-3.172559222546729
 20
-0.7047358931888388
 30
0.0
 11
-3.164642652595063
 21
-0.696733388637151
 31
0.0
1001
REVIT
1002
{
1070
     1
1000
158160
1002
}
1002
{
1070
     2
1000
-2001160
1002
}
  0
LINE
  5
780
330
748
100
AcDbEntity
  8
Pressure_Balance_Rough_Valve-GROHE-35115000
100
AcDbLine
 10
-3.164642652595063
 20
-0.696733388637151
 30
0.0
 11
-3.156412400226125
 21
-0.6890538635969592
 31
0.0
1001
REVIT
1002
{
1070
     1
1000
158160
1002
}
1002
{
1070
     2
1000
-2001160
1002
}
  0
LINE
  5
781
330
748
100
AcDbEntity
  8
Pressure_Balance_Rough_Valve-GROHE-35115000
100
AcDbLine
 10
-3.156412400226125
 20
-0.6890538635969592
 30
0.0
 11
-3.147881632088007
 21
-0.6817096036701154
 31
0.0
1001
REVIT
1002
{
1070
     1
1000
158160
1002
}
1002
{
1070
     2
1000
-2001160
1002
}
  0
LINE
  5
782
330
748
100
AcDbEntity
  8
Pressure_Balance_Rough_Valve-GROHE-35115000
100
AcDbLine
 10
-3.147881632088007
 20
-0.6817096036701154
 30
0.0
 11
-3.139063995589931
 21
-0.6747123581058108
 31
0.0
1001
REVIT
1002
{
1070
     1
1000
158160
1002
}
1002
{
1070
     2
1000
-2001160
1002
}
  0
LINE
  5
783
330
748
100
AcDbEntity
  8
Pressure_Balance_Rough_Valve-GROHE-35115000
100
AcDbLine
 10
-3.139063995589931
 20
-0.6747123581058108
 30
0.0
 11
-3.129973597069299
 21
-0.6680733210042829
 31
0.0
1001
REVIT
1002
{
1070
     1
1000
158160
1002
}
1002
{
1070
     2
1000
-2001160
1002
}
  0
LINE
  5
784
330
748
100
AcDbEntity
  8
Pressure_Balance_Rough_Valve-GROHE-35115000
100
AcDbLine
 10
-3.129973597069299
 20
-0.6680733210042829
 30
0.0
 11
-3.120624979224561
 21
-0.6618031134086411
 31
0.0
1001
REVIT
1002
{
1070
     1
1000
158160
1002
}
1002
{
1070
     2
1000
-2001160
1002
}
  0
LINE
  5
785
330
748
100
AcDbEntity
  8
Pressure_Balance_Rough_Valve-GROHE-35115000
100
AcDbLine
 10
-3.120624979224561
 20
-0.6618031134086411
 30
0.0
 11
-3.111033097850006
 21
-0.6559117663134653
 31
0.0
1001
REVIT
1002
{
1070
     1
1000
158160
1002
}
1002
{
1070
     2
1000
-2001160
1002
}
  0
LINE
  5
786
330
748
100
AcDbEntity
  8
Pressure_Balance_Rough_Valve-GROHE-35115000
100
AcDbLine
 10
-3.111033097850006
 20
-0.6559117663134653
 30
0.0
 11
-3.101213297909673
 21
-0.6504087046173548
 31
0.0
1001
REVIT
1002
{
1070
     1
1000
158160
1002
}
1002
{
1070
     2
1000
-2001160
1002
}
  0
LINE
  5
787
330
748
100
AcDbEntity
  8
Pressure_Balance_Rough_Valve-GROHE-35115000
100
AcDbLine
 10
-3.101213297909673
 20
-0.6504087046173548
 30
0.0
 11
-3.091181288988686
 21
-0.6453027320450993
 31
0.0
1001
REVIT
1002
{
1070
     1
1000
158160
1002
}
1002
{
1070
     2
1000
-2001160
1002
}
  0
LINE
  5
788
330
748
100
AcDbEntity
  8
Pressure_Balance_Rough_Valve-GROHE-35115000
100
AcDbLine
 10
-3.091181288988686
 20
-0.6453027320450993
 30
0.0
 11
-3.080953120161273
 21
-0.6406020170635976
 31
0.0
1001
REVIT
1002
{
1070
     1
1000
158160
1002
}
1002
{
1070
     2
1000
-2001160
1002
}
  0
LINE
  5
789
330
748
100
AcDbEntity
  8
Pressure_Balance_Rough_Valve-GROHE-35115000
100
AcDbLine
 10
-3.080953120161273
 20
-0.6406020170635976
 30
0.0
 11
-3.070545154315665
 21
-0.6363140798140554
 31
0.0
1001
REVIT
1002
{
1070
     1
1000
158160
1002
}
1002
{
1070
     2
1000
-2001160
1002
}
  0
LINE
  5
78A
330
748
100
AcDbEntity
  8
Pressure_Balance_Rough_Valve-GROHE-35115000
100
AcDbLine
 10
-3.070545154315665
 20
-0.6363140798140554
 30
0.0
 11
-3.059974041976965
 21
-0.6324457800813601
 31
0.0
1001
REVIT
1002
{
1070
     1
1000
158160
1002
}
1002
{
1070
     2
1000
-2001160
1002
}
  0
LINE
  5
78B
330
748
100
AcDbEntity
  8
Pressure_Balance_Rough_Valve-GROHE-35115000
100
AcDbLine
 10
-3.059974041976965
 20
-0.6324457800813601
 30
0.0
 11
-3.049256694669865
 21
-0.6290033063198912
 31
0.0
1001
REVIT
1002
{
1070
     1
1000
158160
1002
}
1002
{
1070
     2
1000
-2001160
1002
}
  0
LINE
  5
78C
330
748
100
AcDbEntity
  8
Pressure_Balance_Rough_Valve-GROHE-35115000
100
AcDbLine
 10
-3.049256694669865
 20
-0.6290033063198912
 30
0.0
 11
-3.038410257863814
 21
-0.6259921657533117
 31
0.0
1001
REVIT
1002
{
1070
     1
1000
158160
1002
}
1002
{
1070
     2
1000
-2001160
1002
}
  0
LINE
  5
78D
330
748
100
AcDbEntity
  8
Pressure_Balance_Rough_Valve-GROHE-35115000
100
AcDbLine
 10
-3.038410257863814
 20
-0.6259921657533117
 30
0.0
 11
-3.027452083543916
 21
-0.6234171755641858
 31
0.0
1001
REVIT
1002
{
1070
     1
1000
158160
1002
}
1002
{
1070
     2
1000
-2001160
1002
}
  0
LINE
  5
78E
330
748
100
AcDbEntity
  8
Pressure_Balance_Rough_Valve-GROHE-35115000
100
AcDbLine
 10
-3.027452083543916
 20
-0.6234171755641858
 30
0.0
 11
-3.016399702451463
 21
-0.6212824551875143
 31
0.0
1001
REVIT
1002
{
1070
     1
1000
158160
1002
}
1002
{
1070
     2
1000
-2001160
1002
}
  0
LINE
  5
78F
330
748
100
AcDbEntity
  8
Pressure_Balance_Rough_Valve-GROHE-35115000
100
AcDbLine
 10
-3.016399702451463
 20
-0.6212824551875143
 30
0.0
 11
-3.00527079603849
 21
-0.6195914197205159
 31
0.0
1001
REVIT
1002
{
1070
     1
1000
158160
1002
}
1002
{
1070
     2
1000
-2001160
1002
}
  0
LINE
  5
790
330
748
100
AcDbEntity
  8
Pressure_Balance_Rough_Valve-GROHE-35115000
100
AcDbLine
 10
-3.00527079603849
 20
-0.6195914197205159
 30
0.0
 11
-2.994083168181215
 21
-0.6183467744592042
 31
0.0
1001
REVIT
1002
{
1070
     1
1000
158160
1002
}
1002
{
1070
     2
1000
-2001160
1002
}
  0
LINE
  5
791
330
748
100
AcDbEntity
  8
Pressure_Balance_Rough_Valve-GROHE-35115000
100
AcDbLine
 10
-2.994083168181215
 20
-0.6183467744592042
 30
0.0
 11
-2.982854716697645
 21
-0.6175505105704873
 31
0.0
1001
REVIT
1002
{
1070
     1
1000
158160
1002
}
1002
{
1070
     2
1000
-2001160
1002
}
  0
LINE
  5
792
330
748
100
AcDbEntity
  8
Pressure_Balance_Rough_Valve-GROHE-35115000
100
AcDbLine
 10
-2.982854716697645
 20
-0.6175505105704873
 30
0.0
 11
-2.971603404714876
 21
-0.6172039019067257
 31
0.0
1001
REVIT
1002
{
1070
     1
1000
158160
1002
}
1002
{
1070
     2
1000
-2001160
1002
}
  0
LINE
  5
793
330
748
100
AcDbEntity
  8
Pressure_Balance_Rough_Valve-GROHE-35115000
100
AcDbLine
 10
-2.971603404714876
 20
-0.6172039019067257
 30
0.0
 11
-2.968564999505247
 21
-0.6171874999396172
 31
0.0
1001
REVIT
1002
{
1070
     1
1000
158160
1002
}
1002
{
1070
     2
1000
-2001160
1002
}
  0
LINE
  5
794
330
748
100
AcDbEntity
  8
Pressure_Balance_Rough_Valve-GROHE-35115000
100
AcDbLine
 10
-2.968564999505247
 20
-1.382812500057833
 30
0.0
 11
-2.979819397791848
 21
-1.382587382075569
 31
0.0
1001
REVIT
1002
{
1070
     1
1000
158160
1002
}
1002
{
1070
     2
1000
-2001160
1002
}
  0
LINE
  5
795
330
748
100
AcDbEntity
  8
Pressure_Balance_Rough_Valve-GROHE-35115000
100
AcDbLine
 10
-2.979819397791848
 20
-1.382587382075569
 30
0.0
 11
-2.991055791442
 21
-1.381912388269528
 31
0.0
1001
REVIT
1002
{
1070
     1
1000
158160
1002
}
1002
{
1070
     2
1000
-2001160
1002
}
  0
LINE
  5
796
330
748
100
AcDbEntity
  8
Pressure_Balance_Rough_Valve-GROHE-35115000
100
AcDbLine
 10
-2.991055791442
 20
-1.381912388269528
 30
0.0
 11
-3.002256204622833
 21
-1.380788598485807
 31
0.0
1001
REVIT
1002
{
1070
     1
1000
158160
1002
}
1002
{
1070
     2
1000
-2001160
1002
}
  0
LINE
  5
797
330
748
100
AcDbEntity
  8
Pressure_Balance_Rough_Valve-GROHE-35115000
100
AcDbLine
 10
-3.002256204622833
 20
-1.380788598485807
 30
0.0
 11
-3.013402719062552
 21
-1.379217810548332
 31
0.0
1001
REVIT
1002
{
1070
     1
1000
158160
1002
}
1002
{
1070
     2
1000
-2001160
1002
}
  0
LINE
  5
798
330
748
100
AcDbEntity
  8
Pressure_Balance_Rough_Valve-GROHE-35115000
100
AcDbLine
 10
-3.013402719062552
 20
-1.379217810548332
 30
0.0
 11
-3.024477502715849
 21
-1.377202537382719
 31
0.0
1001
REVIT
1002
{
1070
     1
1000
158160
1002
}
1002
{
1070
     2
1000
-2001160
1002
}
  0
LINE
  5
799
330
748
100
AcDbEntity
  8
Pressure_Balance_Rough_Valve-GROHE-35115000
100
AcDbLine
 10
-3.024477502715849
 20
-1.377202537382719
 30
0.0
 11
-3.035462838291373
 21
-1.374746002996132
 31
0.0
1001
REVIT
1002
{
1070
     1
1000
158160
1002
}
1002
{
1070
     2
1000
-2001160
1002
}
  0
LINE
  5
79A
330
748
100
AcDbEntity
  8
Pressure_Balance_Rough_Valve-GROHE-35115000
100
AcDbLine
 10
-3.035462838291373
 20
-1.374746002996132
 30
0.0
 11
-3.046341151595619
 21
-1.371852137319555
 31
0.0
1001
REVIT
1002
{
1070
     1
1000
158160
1002
}
1002
{
1070
     2
1000
-2001160
1002
}
  0
LINE
  5
79B
330
748
100
AcDbEntity
  8
Pressure_Balance_Rough_Valve-GROHE-35115000
100
AcDbLine
 10
-3.046341151595619
 20
-1.371852137319555
 30
0.0
 11
-3.057095039647879
 21
-1.368525569920747
 31
0.0
1001
REVIT
1002
{
1070
     1
1000
158160
1002
}
1002
{
1070
     2
1000
-2001160
1002
}
  0
LINE
  5
79C
330
748
100
AcDbEntity
  8
Pressure_Balance_Rough_Valve-GROHE-35115000
100
AcDbLine
 10
-3.057095039647879
 20
-1.368525569920747
 30
0.0
 11
-3.067707298521312
 21
-1.364771622597914
 31
0.0
1001
REVIT
1002
{
1070
     1
1000
158160
1002
}
1002
{
1070
     2
1000
-2001160
1002
}
  0
LINE
  5
79D
330
748
100
AcDbEntity
  8
Pressure_Balance_Rough_Valve-GROHE-35115000
100
AcDbLine
 10
-3.067707298521312
 20
-1.364771622597914
 30
0.0
 11
-3.078160950865551
 21
-1.360596300865977
 31
0.0
1001
REVIT
1002
{
1070
     1
1000
158160
1002
}
1002
{
1070
     2
1000
-2001160
1002
}
  0
LINE
  5
79E
330
748
100
AcDbEntity
  8
Pressure_Balance_Rough_Valve-GROHE-35115000
100
AcDbLine
 10
-3.078160950865551
 20
-1.360596300865977
 30
0.0
 11
-3.088439273066834
 21
-1.356006284349016
 31
0.0
1001
REVIT
1002
{
1070
     1
1000
158160
1002
}
1002
{
1070
     2
1000
-2001160
1002
}
  0
LINE
  5
79F
330
748
100
AcDbEntity
  8
Pressure_Balance_Rough_Valve-GROHE-35115000
100
AcDbLine
 10
-3.088439273066834
 20
-1.356006284349016
 30
0.0
 11
-3.098525822002234
 21
-1.351008916094308
 31
0.0
1001
REVIT
1002
{
1070
     1
1000
158160
1002
}
1002
{
1070
     2
1000
-2001160
1002
}
  0
LINE
  5
7A0
330
748
100
AcDbEntity
  8
Pressure_Balance_Rough_Valve-GROHE-35115000
100
AcDbLine
 10
-3.098525822002234
 20
-1.351008916094308
 30
0.0
 11
-3.108404461345135
 21
-1.345612190825011
 31
0.0
1001
REVIT
1002
{
1070
     1
1000
158160
1002
}
1002
{
1070
     2
1000
-2001160
1002
}
  0
LINE
  5
7A1
330
748
100
AcDbEntity
  8
Pressure_Balance_Rough_Valve-GROHE-35115000
100
AcDbLine
 10
-3.108404461345135
 20
-1.345612190825011
 30
0.0
 11
-3.118059387379921
 21
-1.339824742150318
 31
0.0
1001
REVIT
1002
{
1070
     1
1000
158160
1002
}
1002
{
1070
     2
1000
-2001160
1002
}
  0
LINE
  5
7A2
330
748
100
AcDbEntity
  8
Pressure_Balance_Rough_Valve-GROHE-35115000
100
AcDbLine
 10
-3.118059387379921
 20
-1.339824742150318
 30
0.0
 11
-3.127475154284541
 21
-1.333655828753518
 31
0.0
1001
REVIT
1002
{
1070
     1
1000
158160
1002
}
1002
{
1070
     2
1000
-2001160
1002
}
  0
LINE
  5
7A3
330
748
100
AcDbEntity
  8
Pressure_Balance_Rough_Valve-GROHE-35115000
100
AcDbLine
 10
-3.127475154284541
 20
-1.333655828753518
 30
0.0
 11
-3.136636698840539
 21
-1.32711531958008
 31
0.0
1001
REVIT
1002
{
1070
     1
1000
158160
1002
}
1002
{
1070
     2
1000
-2001160
1002
}
  0
LINE
  5
7A4
330
748
100
AcDbEntity
  8
Pressure_Balance_Rough_Valve-GROHE-35115000
100
AcDbLine
 10
-3.136636698840539
 20
-1.32711531958008
 30
0.0
 11
-3.145529364530986
 21
-1.320213678049448
 31
0.0
1001
REVIT
1002
{
1070
     1
1000
158160
1002
}
1002
{
1070
     2
1000
-2001160
1002
}
  0
LINE
  5
7A5
330
748
100
AcDbEntity
  8
Pressure_Balance_Rough_Valve-GROHE-35115000
100
AcDbLine
 10
-3.145529364530986
 20
-1.320213678049448
 30
0.0
 11
-3.154138924987775
 21
-1.3129619453158
 31
0.0
1001
REVIT
1002
{
1070
     1
1000
158160
1002
}
1002
{
1070
     2
1000
-2001160
1002
}
  0
LINE
  5
7A6
330
748
100
AcDbEntity
  8
Pressure_Balance_Rough_Valve-GROHE-35115000
100
AcDbLine
 10
-3.154138924987775
 20
-1.3129619453158
 30
0.0
 11
-3.162451606750784
 21
-1.305371722604555
 31
0.0
1001
REVIT
1002
{
1070
     1
1000
158160
1002
}
1002
{
1070
     2
1000
-2001160
1002
}
  0
LINE
  5
7A7
330
748
100
AcDbEntity
  8
Pressure_Balance_Rough_Valve-GROHE-35115000
100
AcDbLine
 10
-3.162451606750784
 20
-1.305371722604555
 30
0.0
 11
-3.170454111302472
 21
-1.29745515265289
 31
0.0
1001
REVIT
1002
{
1070
     1
1000
158160
1002
}
1002
{
1070
     2
1000
-2001160
1002
}
  0
LINE
  5
7A8
330
748
100
AcDbEntity
  8
Pressure_Balance_Rough_Valve-GROHE-35115000
100
AcDbLine
 10
-3.170454111302472
 20
-1.29745515265289
 30
0.0
 11
-3.178133636342664
 21
-1.289224900283951
 31
0.0
1001
REVIT
1002
{
1070
     1
1000
158160
1002
}
1002
{
1070
     2
1000
-2001160
1002
}
  0
LINE
  5
7A9
330
748
100
AcDbEntity
  8
Pressure_Balance_Rough_Valve-GROHE-35115000
100
AcDbLine
 10
-3.178133636342664
 20
-1.289224900283951
 30
0.0
 11
-3.185477896269508
 21
-1.280694132145832
 31
0.0
1001
REVIT
1002
{
1070
     1
1000
158160
1002
}
1002
{
1070
     2
1000
-2001160
1002
}
  0
LINE
  5
7AA
330
748
100
AcDbEntity
  8
Pressure_Balance_Rough_Valve-GROHE-35115000
100
AcDbLine
 10
-3.185477896269508
 20
-1.280694132145832
 30
0.0
 11
-3.192475141833811
 21
-1.271876495647756
 31
0.0
1001
REVIT
1002
{
1070
     1
1000
158160
1002
}
1002
{
1070
     2
1000
-2001160
1002
}
  0
LINE
  5
7AB
330
748
100
AcDbEntity
  8
Pressure_Balance_Rough_Valve-GROHE-35115000
100
AcDbLine
 10
-3.192475141833811
 20
-1.271876495647756
 30
0.0
 11
-3.19911417893534
 21
-1.262786097127124
 31
0.0
1001
REVIT
1002
{
1070
     1
1000
158160
1002
}
1002
{
1070
     2
1000
-2001160
1002
}
  0
LINE
  5
7AC
330
748
100
AcDbEntity
  8
Pressure_Balance_Rough_Valve-GROHE-35115000
100
AcDbLine
 10
-3.19911417893534
 20
-1.262786097127124
 30
0.0
 11
-3.205384386530981
 21
-1.253437479282387
 31
0.0
1001
REVIT
1002
{
1070
     1
1000
158160
1002
}
1002
{
1070
     2
1000
-2001160
1002
}
  0
LINE
  5
7AD
330
748
100
AcDbEntity
  8
Pressure_Balance_Rough_Valve-GROHE-35115000
100
AcDbLine
 10
-3.205384386530981
 20
-1.253437479282387
 30
0.0
 11
-3.211275733626157
 21
-1.243845597907832
 31
0.0
1001
REVIT
1002
{
1070
     1
1000
158160
1002
}
1002
{
1070
     2
1000
-2001160
1002
}
  0
LINE
  5
7AE
330
748
100
AcDbEntity
  8
Pressure_Balance_Rough_Valve-GROHE-35115000
100
AcDbLine
 10
-3.211275733626157
 20
-1.243845597907832
 30
0.0
 11
-3.216778795322268
 21
-1.234025797967498
 31
0.0
1001
REVIT
1002
{
1070
     1
1000
158160
1002
}
1002
{
1070
     2
1000
-2001160
1002
}
  0
LINE
  5
7AF
330
748
100
AcDbEntity
  8
Pressure_Balance_Rough_Valve-GROHE-35115000
100
AcDbLine
 10
-3.216778795322268
 20
-1.234025797967498
 30
0.0
 11
-3.221884767894524
 21
-1.223993789046512
 31
0.0
1001
REVIT
1002
{
1070
     1
1000
158160
1002
}
1002
{
1070
     2
1000
-2001160
1002
}
  0
LINE
  5
7B0
330
748
100
AcDbEntity
  8
Pressure_Balance_Rough_Valve-GROHE-35115000
100
AcDbLine
 10
-3.221884767894524
 20
-1.223993789046512
 30
0.0
 11
-3.226585482876024
 21
-1.213765620219099
 31
0.0
1001
REVIT
1002
{
1070
     1
1000
158160
1002
}
1002
{
1070
     2
1000
-2001160
1002
}
  0
LINE
  5
7B1
330
748
100
AcDbEntity
  8
Pressure_Balance_Rough_Valve-GROHE-35115000
100
AcDbLine
 10
-3.226585482876024
 20
-1.213765620219099
 30
0.0
 11
-3.230873420125566
 21
-1.20335765437349
 31
0.0
1001
REVIT
1002
{
1070
     1
1000
158160
1002
}
1002
{
1070
     2
1000
-2001160
1002
}
  0
LINE
  5
7B2
330
748
100
AcDbEntity
  8
Pressure_Balance_Rough_Valve-GROHE-35115000
100
AcDbLine
 10
-3.230873420125566
 20
-1.20335765437349
 30
0.0
 11
-3.234741719858261
 21
-1.19278654203479
 31
0.0
1001
REVIT
1002
{
1070
     1
1000
158160
1002
}
1002
{
1070
     2
1000
-2001160
1002
}
  0
LINE
  5
7B3
330
748
100
AcDbEntity
  8
Pressure_Balance_Rough_Valve-GROHE-35115000
100
AcDbLine
 10
-3.234741719858261
 20
-1.19278654203479
 30
0.0
 11
-3.238184193619729
 21
-1.182069194727692
 31
0.0
1001
REVIT
1002
{
1070
     1
1000
158160
1002
}
1002
{
1070
     2
1000
-2001160
1002
}
  0
LINE
  5
7B4
330
748
100
AcDbEntity
  8
Pressure_Balance_Rough_Valve-GROHE-35115000
100
AcDbLine
 10
-3.238184193619729
 20
-1.182069194727692
 30
0.0
 11
-3.241195334186309
 21
-1.171222757921639
 31
0.0
1001
REVIT
1002
{
1070
     1
1000
158160
1002
}
1002
{
1070
     2
1000
-2001160
1002
}
  0
LINE
  5
7B5
330
748
100
AcDbEntity
  8
Pressure_Balance_Rough_Valve-GROHE-35115000
100
AcDbLine
 10
-3.241195334186309
 20
-1.171222757921639
 30
0.0
 11
-3.243770324375434
 21
-1.160264583601741
 31
0.0
1001
REVIT
1002
{
1070
     1
1000
158160
1002
}
1002
{
1070
     2
1000
-2001160
1002
}
  0
LINE
  5
7B6
330
748
100
AcDbEntity
  8
Pressure_Balance_Rough_Valve-GROHE-35115000
100
AcDbLine
 10
-3.243770324375434
 20
-1.160264583601741
 30
0.0
 11
-3.245905044752106
 21
-1.149212202509288
 31
0.0
1001
REVIT
1002
{
1070
     1
1000
158160
1002
}
1002
{
1070
     2
1000
-2001160
1002
}
  0
LINE
  5
7B7
330
748
100
AcDbEntity
  8
Pressure_Balance_Rough_Valve-GROHE-35115000
100
AcDbLine
 10
-3.245905044752106
 20
-1.149212202509288
 30
0.0
 11
-3.247596080219104
 21
-1.138083296096315
 31
0.0
1001
REVIT
1002
{
1070
     1
1000
158160
1002
}
1002
{
1070
     2
1000
-2001160
1002
}
  0
LINE
  5
7B8
330
748
100
AcDbEntity
  8
Pressure_Balance_Rough_Valve-GROHE-35115000
100
AcDbLine
 10
-3.247596080219104
 20
-1.138083296096315
 30
0.0
 11
-3.248840725480416
 21
-1.12689566823904
 31
0.0
1001
REVIT
1002
{
1070
     1
1000
158160
1002
}
1002
{
1070
     2
1000
-2001160
1002
}
  0
LINE
  5
7B9
330
748
100
AcDbEntity
  8
Pressure_Balance_Rough_Valve-GROHE-35115000
100
AcDbLine
 10
-3.248840725480416
 20
-1.12689566823904
 30
0.0
 11
-3.249636989369133
 21
-1.115667216755469
 31
0.0
1001
REVIT
1002
{
1070
     1
1000
158160
1002
}
1002
{
1070
     2
1000
-2001160
1002
}
  0
LINE
  5
7BA
330
748
100
AcDbEntity
  8
Pressure_Balance_Rough_Valve-GROHE-35115000
100
AcDbLine
 10
-3.249636989369133
 20
-1.115667216755469
 30
0.0
 11
-3.249983598032894
 21
-1.104415904772701
 31
0.0
1001
REVIT
1002
{
1070
     1
1000
158160
1002
}
1002
{
1070
     2
1000
-2001160
1002
}
  0
LINE
  5
7BB
330
748
100
AcDbEntity
  8
Pressure_Balance_Rough_Valve-GROHE-35115000
100
AcDbLine
 10
-3.249983598032894
 20
-1.104415904772701
 30
0.0
 11
-3.250000000000002
 21
-1.101377499563072
 31
0.0
1001
REVIT
1002
{
1070
     1
1000
158160
1002
}
1002
{
1070
     2
1000
-2001160
1002
}
  0
LINE
  5
7BC
330
748
100
AcDbEntity
  8
Pressure_Balance_Rough_Valve-GROHE-35115000
100
AcDbLine
 10
-3.250000000000002
 20
-1.101377499563072
 30
0.0
 11
-3.250000000000002
 21
-0.8986225004343776
 31
0.0
1001
REVIT
1002
{
1070
     1
1000
158160
1002
}
1002
{
1070
     2
1000
-2001160
1002
}
  0
LINE
  5
7BD
330
748
100
AcDbEntity
  8
Pressure_Balance_Rough_Valve-GROHE-35115000
100
AcDbLine
 10
2.427820338812405
 20
-1.382812500037891
 30
0.0
 11
2.968564999505241
 21
-1.382812500037891
 31
0.0
1001
REVIT
1002
{
1070
     1
1000
158160
1002
}
1002
{
1070
     2
1000
-2001160
1002
}
  0
LINE
  5
7BE
330
748
100
AcDbEntity
  8
Pressure_Balance_Rough_Valve-GROHE-35115000
100
AcDbLine
 10
2.968564999505241
 20
-0.6171874999595595
 30
0.0
 11
2.427820338812405
 21
-0.6171874999595595
 31
0.0
1001
REVIT
1002
{
1070
     1
1000
158160
1002
}
1002
{
1070
     2
1000
-2001160
1002
}
  0
LINE
  5
7BF
330
748
100
AcDbEntity
  8
Pressure_Balance_Rough_Valve-GROHE-35115000
100
AcDbLine
 10
3.250000000000003
 20
-1.101377499543131
 30
0.0
 11
3.250000000000003
 21
-0.8986225004543193
 31
0.0
1001
REVIT
1002
{
1070
     1
1000
158160
1002
}
1002
{
1070
     2
1000
-2001160
1002
}
  0
LINE
  5
7C0
330
748
100
AcDbEntity
  8
Pressure_Balance_Rough_Valve-GROHE-35115000
100
AcDbLine
 10
2.96856499950524
 20
-0.6171874999595595
 30
0.0
 11
2.979819397791841
 21
-0.6174126179418225
 31
0.0
1001
REVIT
1002
{
1070
     1
1000
158160
1002
}
1002
{
1070
     2
1000
-2001160
1002
}
  0
LINE
  5
7C1
330
748
100
AcDbEntity
  8
Pressure_Balance_Rough_Valve-GROHE-35115000
100
AcDbLine
 10
2.979819397791841
 20
-0.6174126179418225
 30
0.0
 11
2.991055791441992
 21
-0.618087611747864
 31
0.0
1001
REVIT
1002
{
1070
     1
1000
158160
1002
}
1002
{
1070
     2
1000
-2001160
1002
}
  0
LINE
  5
7C2
330
748
100
AcDbEntity
  8
Pressure_Balance_Rough_Valve-GROHE-35115000
100
AcDbLine
 10
2.991055791441992
 20
-0.618087611747864
 30
0.0
 11
3.002256204622826
 21
-0.619211401531584
 31
0.0
1001
REVIT
1002
{
1070
     1
1000
158160
1002
}
1002
{
1070
     2
1000
-2001160
1002
}
  0
LINE
  5
7C3
330
748
100
AcDbEntity
  8
Pressure_Balance_Rough_Valve-GROHE-35115000
100
AcDbLine
 10
3.002256204622826
 20
-0.619211401531584
 30
0.0
 11
3.013402719062545
 21
-0.6207821894690584
 31
0.0
1001
REVIT
1002
{
1070
     1
1000
158160
1002
}
1002
{
1070
     2
1000
-2001160
1002
}
  0
LINE
  5
7C4
330
748
100
AcDbEntity
  8
Pressure_Balance_Rough_Valve-GROHE-35115000
100
AcDbLine
 10
3.013402719062545
 20
-0.6207821894690584
 30
0.0
 11
3.024477502715842
 21
-0.6227974626346713
 31
0.0
1001
REVIT
1002
{
1070
     1
1000
158160
1002
}
1002
{
1070
     2
1000
-2001160
1002
}
  0
LINE
  5
7C5
330
748
100
AcDbEntity
  8
Pressure_Balance_Rough_Valve-GROHE-35115000
100
AcDbLine
 10
3.024477502715842
 20
-0.6227974626346713
 30
0.0
 11
3.035462838291365
 21
-0.6252539970212583
 31
0.0
1001
REVIT
1002
{
1070
     1
1000
158160
1002
}
1002
{
1070
     2
1000
-2001160
1002
}
  0
LINE
  5
7C6
330
748
100
AcDbEntity
  8
Pressure_Balance_Rough_Valve-GROHE-35115000
100
AcDbLine
 10
3.035462838291365
 20
-0.6252539970212583
 30
0.0
 11
3.04634115159561
 21
-0.6281478626978348
 31
0.0
1001
REVIT
1002
{
1070
     1
1000
158160
1002
}
1002
{
1070
     2
1000
-2001160
1002
}
  0
LINE
  5
7C7
330
748
100
AcDbEntity
  8
Pressure_Balance_Rough_Valve-GROHE-35115000
100
AcDbLine
 10
3.04634115159561
 20
-0.6281478626978348
 30
0.0
 11
3.057095039647871
 21
-0.6314744300966427
 31
0.0
1001
REVIT
1002
{
1070
     1
1000
158160
1002
}
1002
{
1070
     2
1000
-2001160
1002
}
  0
LINE
  5
7C8
330
748
100
AcDbEntity
  8
Pressure_Balance_Rough_Valve-GROHE-35115000
100
AcDbLine
 10
3.057095039647871
 20
-0.6314744300966427
 30
0.0
 11
3.067707298521305
 21
-0.6352283774194741
 31
0.0
1001
REVIT
1002
{
1070
     1
1000
158160
1002
}
1002
{
1070
     2
1000
-2001160
1002
}
  0
LINE
  5
7C9
330
748
100
AcDbEntity
  8
Pressure_Balance_Rough_Valve-GROHE-35115000
100
AcDbLine
 10
3.067707298521305
 20
-0.6352283774194741
 30
0.0
 11
3.078160950865543
 21
-0.6394036991514121
 31
0.0
1001
REVIT
1002
{
1070
     1
1000
158160
1002
}
1002
{
1070
     2
1000
-2001160
1002
}
  0
LINE
  5
7CA
330
748
100
AcDbEntity
  8
Pressure_Balance_Rough_Valve-GROHE-35115000
100
AcDbLine
 10
3.078160950865543
 20
-0.6394036991514121
 30
0.0
 11
3.088439273066826
 21
-0.6439937156683726
 31
0.0
1001
REVIT
1002
{
1070
     1
1000
158160
1002
}
1002
{
1070
     2
1000
-2001160
1002
}
  0
LINE
  5
7CB
330
748
100
AcDbEntity
  8
Pressure_Balance_Rough_Valve-GROHE-35115000
100
AcDbLine
 10
3.088439273066826
 20
-0.6439937156683726
 30
0.0
 11
3.098525822002226
 21
-0.6489910839230802
 31
0.0
1001
REVIT
1002
{
1070
     1
1000
158160
1002
}
1002
{
1070
     2
1000
-2001160
1002
}
  0
LINE
  5
7CC
330
748
100
AcDbEntity
  8
Pressure_Balance_Rough_Valve-GROHE-35115000
100
AcDbLine
 10
3.098525822002226
 20
-0.6489910839230802
 30
0.0
 11
3.108404461345126
 21
-0.6543878091923756
 31
0.0
1001
REVIT
1002
{
1070
     1
1000
158160
1002
}
1002
{
1070
     2
1000
-2001160
1002
}
  0
LINE
  5
7CD
330
748
100
AcDbEntity
  8
Pressure_Balance_Rough_Valve-GROHE-35115000
100
AcDbLine
 10
3.108404461345126
 20
-0.6543878091923756
 30
0.0
 11
3.118059387379912
 21
-0.6601752578670684
 31
0.0
1001
REVIT
1002
{
1070
     1
1000
158160
1002
}
1002
{
1070
     2
1000
-2001160
1002
}
  0
LINE
  5
7CE
330
748
100
AcDbEntity
  8
Pressure_Balance_Rough_Valve-GROHE-35115000
100
AcDbLine
 10
3.118059387379912
 20
-0.6601752578670684
 30
0.0
 11
3.127475154284534
 21
-0.6663441712638685
 31
0.0
1001
REVIT
1002
{
1070
     1
1000
158160
1002
}
1002
{
1070
     2
1000
-2001160
1002
}
  0
LINE
  5
7CF
330
748
100
AcDbEntity
  8
Pressure_Balance_Rough_Valve-GROHE-35115000
100
AcDbLine
 10
3.127475154284534
 20
-0.6663441712638685
 30
0.0
 11
3.136636698840533
 21
-0.6728846804373059
 31
0.0
1001
REVIT
1002
{
1070
     1
1000
158160
1002
}
1002
{
1070
     2
1000
-2001160
1002
}
  0
LINE
  5
7D0
330
748
100
AcDbEntity
  8
Pressure_Balance_Rough_Valve-GROHE-35115000
100
AcDbLine
 10
3.136636698840533
 20
-0.6728846804373059
 30
0.0
 11
3.145529364530977
 21
-0.6797863219679368
 31
0.0
1001
REVIT
1002
{
1070
     1
1000
158160
1002
}
1002
{
1070
     2
1000
-2001160
1002
}
  0
LINE
  5
7D1
330
748
100
AcDbEntity
  8
Pressure_Balance_Rough_Valve-GROHE-35115000
100
AcDbLine
 10
3.145529364530977
 20
-0.6797863219679368
 30
0.0
 11
3.154138924987767
 21
-0.6870380547015849
 31
0.0
1001
REVIT
1002
{
1070
     1
1000
158160
1002
}
1002
{
1070
     2
1000
-2001160
1002
}
  0
LINE
  5
7D2
330
748
100
AcDbEntity
  8
Pressure_Balance_Rough_Valve-GROHE-35115000
100
AcDbLine
 10
3.154138924987767
 20
-0.6870380547015849
 30
0.0
 11
3.162451606750777
 21
-0.694628277412829
 31
0.0
1001
REVIT
1002
{
1070
     1
1000
158160
1002
}
1002
{
1070
     2
1000
-2001160
1002
}
  0
LINE
  5
7D3
330
748
100
AcDbEntity
  8
Pressure_Balance_Rough_Valve-GROHE-35115000
100
AcDbLine
 10
3.162451606750777
 20
-0.694628277412829
 30
0.0
 11
3.170454111302465
 21
-0.7025448473644929
 31
0.0
1001
REVIT
1002
{
1070
     1
1000
158160
1002
}
1002
{
1070
     2
1000
-2001160
1002
}
  0
LINE
  5
7D4
330
748
100
AcDbEntity
  8
Pressure_Balance_Rough_Valve-GROHE-35115000
100
AcDbLine
 10
3.170454111302465
 20
-0.7025448473644929
 30
0.0
 11
3.178133636342657
 21
-0.7107750997334322
 31
0.0
1001
REVIT
1002
{
1070
     1
1000
158160
1002
}
1002
{
1070
     2
1000
-2001160
1002
}
  0
LINE
  5
7D5
330
748
100
AcDbEntity
  8
Pressure_Balance_Rough_Valve-GROHE-35115000
100
AcDbLine
 10
3.178133636342657
 20
-0.7107750997334322
 30
0.0
 11
3.1854778962695
 21
-0.7193058678715505
 31
0.0
1001
REVIT
1002
{
1070
     1
1000
158160
1002
}
1002
{
1070
     2
1000
-2001160
1002
}
  0
LINE
  5
7D6
330
748
100
AcDbEntity
  8
Pressure_Balance_Rough_Valve-GROHE-35115000
100
AcDbLine
 10
3.1854778962695
 20
-0.7193058678715505
 30
0.0
 11
3.192475141833805
 21
-0.7281235043696257
 31
0.0
1001
REVIT
1002
{
1070
     1
1000
158160
1002
}
1002
{
1070
     2
1000
-2001160
1002
}
  0
LINE
  5
7D7
330
748
100
AcDbEntity
  8
Pressure_Balance_Rough_Valve-GROHE-35115000
100
AcDbLine
 10
3.192475141833805
 20
-0.7281235043696257
 30
0.0
 11
3.199114178935333
 21
-0.7372139028902574
 31
0.0
1001
REVIT
1002
{
1070
     1
1000
158160
1002
}
1002
{
1070
     2
1000
-2001160
1002
}
  0
LINE
  5
7D8
330
748
100
AcDbEntity
  8
Pressure_Balance_Rough_Valve-GROHE-35115000
100
AcDbLine
 10
3.199114178935333
 20
-0.7372139028902574
 30
0.0
 11
3.205384386530976
 21
-0.7465625207349938
 31
0.0
1001
REVIT
1002
{
1070
     1
1000
158160
1002
}
1002
{
1070
     2
1000
-2001160
1002
}
  0
LINE
  5
7D9
330
748
100
AcDbEntity
  8
Pressure_Balance_Rough_Valve-GROHE-35115000
100
AcDbLine
 10
3.205384386530976
 20
-0.7465625207349938
 30
0.0
 11
3.211275733626152
 21
-0.7561544021095492
 31
0.0
1001
REVIT
1002
{
1070
     1
1000
158160
1002
}
1002
{
1070
     2
1000
-2001160
1002
}
  0
LINE
  5
7DA
330
748
100
AcDbEntity
  8
Pressure_Balance_Rough_Valve-GROHE-35115000
100
AcDbLine
 10
3.211275733626152
 20
-0.7561544021095492
 30
0.0
 11
3.216778795322262
 21
-0.7659742020498821
 31
0.0
1001
REVIT
1002
{
1070
     1
1000
158160
1002
}
1002
{
1070
     2
1000
-2001160
1002
}
  0
LINE
  5
7DB
330
748
100
AcDbEntity
  8
Pressure_Balance_Rough_Valve-GROHE-35115000
100
AcDbLine
 10
3.216778795322262
 20
-0.7659742020498821
 30
0.0
 11
3.221884767894518
 21
-0.7760062109708681
 31
0.0
1001
REVIT
1002
{
1070
     1
1000
158160
1002
}
1002
{
1070
     2
1000
-2001160
1002
}
  0
LINE
  5
7DC
330
748
100
AcDbEntity
  8
Pressure_Balance_Rough_Valve-GROHE-35115000
100
AcDbLine
 10
3.221884767894518
 20
-0.7760062109708681
 30
0.0
 11
3.22658548287602
 21
-0.7862343797982803
 31
0.0
1001
REVIT
1002
{
1070
     1
1000
158160
1002
}
1002
{
1070
     2
1000
-2001160
1002
}
  0
LINE
  5
7DD
330
748
100
AcDbEntity
  8
Pressure_Balance_Rough_Valve-GROHE-35115000
100
AcDbLine
 10
3.22658548287602
 20
-0.7862343797982803
 30
0.0
 11
3.230873420125563
 21
-0.796642345643889
 31
0.0
1001
REVIT
1002
{
1070
     1
1000
158160
1002
}
1002
{
1070
     2
1000
-2001160
1002
}
  0
LINE
  5
7DE
330
748
100
AcDbEntity
  8
Pressure_Balance_Rough_Valve-GROHE-35115000
100
AcDbLine
 10
3.230873420125563
 20
-0.796642345643889
 30
0.0
 11
3.234741719858257
 21
-0.8072134579825881
 31
0.0
1001
REVIT
1002
{
1070
     1
1000
158160
1002
}
1002
{
1070
     2
1000
-2001160
1002
}
  0
LINE
  5
7DF
330
748
100
AcDbEntity
  8
Pressure_Balance_Rough_Valve-GROHE-35115000
100
AcDbLine
 10
3.234741719858257
 20
-0.8072134579825881
 30
0.0
 11
3.238184193619727
 21
-0.8179308052896864
 31
0.0
1001
REVIT
1002
{
1070
     1
1000
158160
1002
}
1002
{
1070
     2
1000
-2001160
1002
}
  0
LINE
  5
7E0
330
748
100
AcDbEntity
  8
Pressure_Balance_Rough_Valve-GROHE-35115000
100
AcDbLine
 10
3.238184193619727
 20
-0.8179308052896864
 30
0.0
 11
3.241195334186307
 21
-0.8287772420957386
 31
0.0
1001
REVIT
1002
{
1070
     1
1000
158160
1002
}
1002
{
1070
     2
1000
-2001160
1002
}
  0
LINE
  5
7E1
330
748
100
AcDbEntity
  8
Pressure_Balance_Rough_Valve-GROHE-35115000
100
AcDbLine
 10
3.241195334186307
 20
-0.8287772420957386
 30
0.0
 11
3.243770324375432
 21
-0.8397354164156363
 31
0.0
1001
REVIT
1002
{
1070
     1
1000
158160
1002
}
1002
{
1070
     2
1000
-2001160
1002
}
  0
LINE
  5
7E2
330
748
100
AcDbEntity
  8
Pressure_Balance_Rough_Valve-GROHE-35115000
100
AcDbLine
 10
3.243770324375432
 20
-0.8397354164156363
 30
0.0
 11
3.245905044752105
 21
-0.8507877975080884
 31
0.0
1001
REVIT
1002
{
1070
     1
1000
158160
1002
}
1002
{
1070
     2
1000
-2001160
1002
}
  0
LINE
  5
7E3
330
748
100
AcDbEntity
  8
Pressure_Balance_Rough_Valve-GROHE-35115000
100
AcDbLine
 10
3.245905044752105
 20
-0.8507877975080884
 30
0.0
 11
3.247596080219103
 21
-0.8619167039210617
 31
0.0
1001
REVIT
1002
{
1070
     1
1000
158160
1002
}
1002
{
1070
     2
1000
-2001160
1002
}
  0
LINE
  5
7E4
330
748
100
AcDbEntity
  8
Pressure_Balance_Rough_Valve-GROHE-35115000
100
AcDbLine
 10
3.247596080219103
 20
-0.8619167039210617
 30
0.0
 11
3.248840725480414
 21
-0.873104331778336
 31
0.0
1001
REVIT
1002
{
1070
     1
1000
158160
1002
}
1002
{
1070
     2
1000
-2001160
1002
}
  0
LINE
  5
7E5
330
748
100
AcDbEntity
  8
Pressure_Balance_Rough_Valve-GROHE-35115000
100
AcDbLine
 10
3.248840725480414
 20
-0.873104331778336
 30
0.0
 11
3.249636989369132
 21
-0.8843327832619065
 31
0.0
1001
REVIT
1002
{
1070
     1
1000
158160
1002
}
1002
{
1070
     2
1000
-2001160
1002
}
  0
LINE
  5
7E6
330
748
100
AcDbEntity
  8
Pressure_Balance_Rough_Valve-GROHE-35115000
100
AcDbLine
 10
3.249636989369132
 20
-0.8843327832619065
 30
0.0
 11
3.249983598032896
 21
-0.8955840952446742
 31
0.0
1001
REVIT
1002
{
1070
     1
1000
158160
1002
}
1002
{
1070
     2
1000
-2001160
1002
}
  0
LINE
  5
7E7
330
748
100
AcDbEntity
  8
Pressure_Balance_Rough_Valve-GROHE-35115000
100
AcDbLine
 10
3.249983598032896
 20
-0.8955840952446742
 30
0.0
 11
3.250000000000003
 21
-0.8986225004543126
 31
0.0
1001
REVIT
1002
{
1070
     1
1000
158160
1002
}
1002
{
1070
     2
1000
-2001160
1002
}
  0
LINE
  5
7E8
330
748
100
AcDbEntity
  8
Pressure_Balance_Rough_Valve-GROHE-35115000
100
AcDbLine
 10
3.250000000000003
 20
-1.101377499543137
 30
0.0
 11
3.249774882017739
 21
-1.112631897829738
 31
0.0
1001
REVIT
1002
{
1070
     1
1000
158160
1002
}
1002
{
1070
     2
1000
-2001160
1002
}
  0
LINE
  5
7E9
330
748
100
AcDbEntity
  8
Pressure_Balance_Rough_Valve-GROHE-35115000
100
AcDbLine
 10
3.249774882017739
 20
-1.112631897829738
 30
0.0
 11
3.249099888211697
 21
-1.123868291479889
 31
0.0
1001
REVIT
1002
{
1070
     1
1000
158160
1002
}
1002
{
1070
     2
1000
-2001160
1002
}
  0
LINE
  5
7EA
330
748
100
AcDbEntity
  8
Pressure_Balance_Rough_Valve-GROHE-35115000
100
AcDbLine
 10
3.249099888211697
 20
-1.123868291479889
 30
0.0
 11
3.247976098427978
 21
-1.135068704660723
 31
0.0
1001
REVIT
1002
{
1070
     1
1000
158160
1002
}
1002
{
1070
     2
1000
-2001160
1002
}
  0
LINE
  5
7EB
330
748
100
AcDbEntity
  8
Pressure_Balance_Rough_Valve-GROHE-35115000
100
AcDbLine
 10
3.247976098427978
 20
-1.135068704660723
 30
0.0
 11
3.246405310490501
 21
-1.146215219100441
 31
0.0
1001
REVIT
1002
{
1070
     1
1000
158160
1002
}
1002
{
1070
     2
1000
-2001160
1002
}
  0
LINE
  5
7EC
330
748
100
AcDbEntity
  8
Pressure_Balance_Rough_Valve-GROHE-35115000
100
AcDbLine
 10
3.246405310490501
 20
-1.146215219100441
 30
0.0
 11
3.24439003732489
 21
-1.157290002753738
 31
0.0
1001
REVIT
1002
{
1070
     1
1000
158160
1002
}
1002
{
1070
     2
1000
-2001160
1002
}
  0
LINE
  5
7ED
330
748
100
AcDbEntity
  8
Pressure_Balance_Rough_Valve-GROHE-35115000
100
AcDbLine
 10
3.24439003732489
 20
-1.157290002753738
 30
0.0
 11
3.241933502938302
 21
-1.168275338329262
 31
0.0
1001
REVIT
1002
{
1070
     1
1000
158160
1002
}
1002
{
1070
     2
1000
-2001160
1002
}
  0
LINE
  5
7EE
330
748
100
AcDbEntity
  8
Pressure_Balance_Rough_Valve-GROHE-35115000
100
AcDbLine
 10
3.241933502938302
 20
-1.168275338329262
 30
0.0
 11
3.239039637261725
 21
-1.179153651633507
 31
0.0
1001
REVIT
1002
{
1070
     1
1000
158160
1002
}
1002
{
1070
     2
1000
-2001160
1002
}
  0
LINE
  5
7EF
330
748
100
AcDbEntity
  8
Pressure_Balance_Rough_Valve-GROHE-35115000
100
AcDbLine
 10
3.239039637261725
 20
-1.179153651633507
 30
0.0
 11
3.235713069862917
 21
-1.189907539685767
 31
0.0
1001
REVIT
1002
{
1070
     1
1000
158160
1002
}
1002
{
1070
     2
1000
-2001160
1002
}
  0
LINE
  5
7F0
330
748
100
AcDbEntity
  8
Pressure_Balance_Rough_Valve-GROHE-35115000
100
AcDbLine
 10
3.235713069862917
 20
-1.189907539685767
 30
0.0
 11
3.231959122540085
 21
-1.200519798559201
 31
0.0
1001
REVIT
1002
{
1070
     1
1000
158160
1002
}
1002
{
1070
     2
1000
-2001160
1002
}
  0
LINE
  5
7F1
330
748
100
AcDbEntity
  8
Pressure_Balance_Rough_Valve-GROHE-35115000
100
AcDbLine
 10
3.231959122540085
 20
-1.200519798559201
 30
0.0
 11
3.227783800808147
 21
-1.210973450903439
 31
0.0
1001
REVIT
1002
{
1070
     1
1000
158160
1002
}
1002
{
1070
     2
1000
-2001160
1002
}
  0
LINE
  5
7F2
330
748
100
AcDbEntity
  8
Pressure_Balance_Rough_Valve-GROHE-35115000
100
AcDbLine
 10
3.227783800808147
 20
-1.210973450903439
 30
0.0
 11
3.223193784291186
 21
-1.221251773104722
 31
0.0
1001
REVIT
1002
{
1070
     1
1000
158160
1002
}
1002
{
1070
     2
1000
-2001160
1002
}
  0
LINE
  5
7F3
330
748
100
AcDbEntity
  8
Pressure_Balance_Rough_Valve-GROHE-35115000
100
AcDbLine
 10
3.223193784291186
 20
-1.221251773104722
 30
0.0
 11
3.218196416036477
 21
-1.231338322040121
 31
0.0
1001
REVIT
1002
{
1070
     1
1000
158160
1002
}
1002
{
1070
     2
1000
-2001160
1002
}
  0
LINE
  5
7F4
330
748
100
AcDbEntity
  8
Pressure_Balance_Rough_Valve-GROHE-35115000
100
AcDbLine
 10
3.218196416036477
 20
-1.231338322040121
 30
0.0
 11
3.212799690767182
 21
-1.241216961383023
 31
0.0
1001
REVIT
1002
{
1070
     1
1000
158160
1002
}
1002
{
1070
     2
1000
-2001160
1002
}
  0
LINE
  5
7F5
330
748
100
AcDbEntity
  8
Pressure_Balance_Rough_Valve-GROHE-35115000
100
AcDbLine
 10
3.212799690767182
 20
-1.241216961383023
 30
0.0
 11
3.20701224209249
 21
-1.250871887417807
 31
0.0
1001
REVIT
1002
{
1070
     1
1000
158160
1002
}
1002
{
1070
     2
1000
-2001160
1002
}
  0
LINE
  5
7F6
330
748
100
AcDbEntity
  8
Pressure_Balance_Rough_Valve-GROHE-35115000
100
AcDbLine
 10
3.20701224209249
 20
-1.250871887417807
 30
0.0
 11
3.200843328695689
 21
-1.260287654322428
 31
0.0
1001
REVIT
1002
{
1070
     1
1000
158160
1002
}
1002
{
1070
     2
1000
-2001160
1002
}
  0
LINE
  5
7F7
330
748
100
AcDbEntity
  8
Pressure_Balance_Rough_Valve-GROHE-35115000
100
AcDbLine
 10
3.200843328695689
 20
-1.260287654322428
 30
0.0
 11
3.194302819522252
 21
-1.269449198878427
 31
0.0
1001
REVIT
1002
{
1070
     1
1000
158160
1002
}
1002
{
1070
     2
1000
-2001160
1002
}
  0
LINE
  5
7F8
330
748
100
AcDbEntity
  8
Pressure_Balance_Rough_Valve-GROHE-35115000
100
AcDbLine
 10
3.194302819522252
 20
-1.269449198878427
 30
0.0
 11
3.18740117799162
 21
-1.278341864568872
 31
0.0
1001
REVIT
1002
{
1070
     1
1000
158160
1002
}
1002
{
1070
     2
1000
-2001160
1002
}
  0
LINE
  5
7F9
330
748
100
AcDbEntity
  8
Pressure_Balance_Rough_Valve-GROHE-35115000
100
AcDbLine
 10
3.18740117799162
 20
-1.278341864568872
 30
0.0
 11
3.180149445257972
 21
-1.286951425025661
 31
0.0
1001
REVIT
1002
{
1070
     1
1000
158160
1002
}
1002
{
1070
     2
1000
-2001160
1002
}
  0
LINE
  5
7FA
330
748
100
AcDbEntity
  8
Pressure_Balance_Rough_Valve-GROHE-35115000
100
AcDbLine
 10
3.180149445257972
 20
-1.286951425025661
 30
0.0
 11
3.172559222546728
 21
-1.295264106788671
 31
0.0
1001
REVIT
1002
{
1070
     1
1000
158160
1002
}
1002
{
1070
     2
1000
-2001160
1002
}
  0
LINE
  5
7FB
330
748
100
AcDbEntity
  8
Pressure_Balance_Rough_Valve-GROHE-35115000
100
AcDbLine
 10
3.172559222546728
 20
-1.295264106788671
 30
0.0
 11
3.164642652595063
 21
-1.303266611340359
 31
0.0
1001
REVIT
1002
{
1070
     1
1000
158160
1002
}
1002
{
1070
     2
1000
-2001160
1002
}
  0
LINE
  5
7FC
330
748
100
AcDbEntity
  8
Pressure_Balance_Rough_Valve-GROHE-35115000
100
AcDbLine
 10
3.164642652595063
 20
-1.303266611340359
 30
0.0
 11
3.156412400226123
 21
-1.31094613638055
 31
0.0
1001
REVIT
1002
{
1070
     1
1000
158160
1002
}
1002
{
1070
     2
1000
-2001160
1002
}
  0
LINE
  5
7FD
330
748
100
AcDbEntity
  8
Pressure_Balance_Rough_Valve-GROHE-35115000
100
AcDbLine
 10
3.156412400226123
 20
-1.31094613638055
 30
0.0
 11
3.147881632088006
 21
-1.318290396307394
 31
0.0
1001
REVIT
1002
{
1070
     1
1000
158160
1002
}
1002
{
1070
     2
1000
-2001160
1002
}
  0
LINE
  5
7FE
330
748
100
AcDbEntity
  8
Pressure_Balance_Rough_Valve-GROHE-35115000
100
AcDbLine
 10
3.147881632088006
 20
-1.318290396307394
 30
0.0
 11
3.13906399558993
 21
-1.325287641871698
 31
0.0
1001
REVIT
1002
{
1070
     1
1000
158160
1002
}
1002
{
1070
     2
1000
-2001160
1002
}
  0
LINE
  5
7FF
330
748
100
AcDbEntity
  8
Pressure_Balance_Rough_Valve-GROHE-35115000
100
AcDbLine
 10
3.13906399558993
 20
-1.325287641871698
 30
0.0
 11
3.129973597069298
 21
-1.331926678973226
 31
0.0
1001
REVIT
1002
{
1070
     1
1000
158160
1002
}
1002
{
1070
     2
1000
-2001160
1002
}
  0
LINE
  5
800
330
748
100
AcDbEntity
  8
Pressure_Balance_Rough_Valve-GROHE-35115000
100
AcDbLine
 10
3.129973597069298
 20
-1.331926678973226
 30
0.0
 11
3.12062497922456
 21
-1.338196886568868
 31
0.0
1001
REVIT
1002
{
1070
     1
1000
158160
1002
}
1002
{
1070
     2
1000
-2001160
1002
}
  0
LINE
  5
801
330
748
100
AcDbEntity
  8
Pressure_Balance_Rough_Valve-GROHE-35115000
100
AcDbLine
 10
3.12062497922456
 20
-1.338196886568868
 30
0.0
 11
3.111033097850007
 21
-1.344088233664043
 31
0.0
1001
REVIT
1002
{
1070
     1
1000
158160
1002
}
1002
{
1070
     2
1000
-2001160
1002
}
  0
LINE
  5
802
330
748
100
AcDbEntity
  8
Pressure_Balance_Rough_Valve-GROHE-35115000
100
AcDbLine
 10
3.111033097850007
 20
-1.344088233664043
 30
0.0
 11
3.101213297909674
 21
-1.349591295360154
 31
0.0
1001
REVIT
1002
{
1070
     1
1000
158160
1002
}
1002
{
1070
     2
1000
-2001160
1002
}
  0
LINE
  5
803
330
748
100
AcDbEntity
  8
Pressure_Balance_Rough_Valve-GROHE-35115000
100
AcDbLine
 10
3.101213297909674
 20
-1.349591295360154
 30
0.0
 11
3.091181288988686
 21
-1.35469726793241
 31
0.0
1001
REVIT
1002
{
1070
     1
1000
158160
1002
}
1002
{
1070
     2
1000
-2001160
1002
}
  0
LINE
  5
804
330
748
100
AcDbEntity
  8
Pressure_Balance_Rough_Valve-GROHE-35115000
100
AcDbLine
 10
3.091181288988686
 20
-1.35469726793241
 30
0.0
 11
3.080953120161273
 21
-1.359397982913911
 31
0.0
1001
REVIT
1002
{
1070
     1
1000
158160
1002
}
1002
{
1070
     2
1000
-2001160
1002
}
  0
LINE
  5
805
330
748
100
AcDbEntity
  8
Pressure_Balance_Rough_Valve-GROHE-35115000
100
AcDbLine
 10
3.080953120161273
 20
-1.359397982913911
 30
0.0
 11
3.070545154315666
 21
-1.363685920163453
 31
0.0
1001
REVIT
1002
{
1070
     1
1000
158160
1002
}
1002
{
1070
     2
1000
-2001160
1002
}
  0
LINE
  5
806
330
748
100
AcDbEntity
  8
Pressure_Balance_Rough_Valve-GROHE-35115000
100
AcDbLine
 10
3.070545154315666
 20
-1.363685920163453
 30
0.0
 11
3.059974041976966
 21
-1.367554219896148
 31
0.0
1001
REVIT
1002
{
1070
     1
1000
158160
1002
}
1002
{
1070
     2
1000
-2001160
1002
}
  0
LINE
  5
807
330
748
100
AcDbEntity
  8
Pressure_Balance_Rough_Valve-GROHE-35115000
100
AcDbLine
 10
3.059974041976966
 20
-1.367554219896148
 30
0.0
 11
3.049256694669868
 21
-1.370996693657617
 31
0.0
1001
REVIT
1002
{
1070
     1
1000
158160
1002
}
1002
{
1070
     2
1000
-2001160
1002
}
  0
LINE
  5
808
330
748
100
AcDbEntity
  8
Pressure_Balance_Rough_Valve-GROHE-35115000
100
AcDbLine
 10
3.049256694669868
 20
-1.370996693657617
 30
0.0
 11
3.038410257863816
 21
-1.374007834224197
 31
0.0
1001
REVIT
1002
{
1070
     1
1000
158160
1002
}
1002
{
1070
     2
1000
-2001160
1002
}
  0
LINE
  5
809
330
748
100
AcDbEntity
  8
Pressure_Balance_Rough_Valve-GROHE-35115000
100
AcDbLine
 10
3.038410257863816
 20
-1.374007834224197
 30
0.0
 11
3.027452083543918
 21
-1.376582824413322
 31
0.0
1001
REVIT
1002
{
1070
     1
1000
158160
1002
}
1002
{
1070
     2
1000
-2001160
1002
}
  0
LINE
  5
80A
330
748
100
AcDbEntity
  8
Pressure_Balance_Rough_Valve-GROHE-35115000
100
AcDbLine
 10
3.027452083543918
 20
-1.376582824413322
 30
0.0
 11
3.016399702451465
 21
-1.378717544789994
 31
0.0
1001
REVIT
1002
{
1070
     1
1000
158160
1002
}
1002
{
1070
     2
1000
-2001160
1002
}
  0
LINE
  5
80B
330
748
100
AcDbEntity
  8
Pressure_Balance_Rough_Valve-GROHE-35115000
100
AcDbLine
 10
3.016399702451465
 20
-1.378717544789994
 30
0.0
 11
3.005270796038492
 21
-1.380408580256992
 31
0.0
1001
REVIT
1002
{
1070
     1
1000
158160
1002
}
1002
{
1070
     2
1000
-2001160
1002
}
  0
LINE
  5
80C
330
748
100
AcDbEntity
  8
Pressure_Balance_Rough_Valve-GROHE-35115000
100
AcDbLine
 10
3.005270796038492
 20
-1.380408580256992
 30
0.0
 11
2.994083168181217
 21
-1.381653225518304
 31
0.0
1001
REVIT
1002
{
1070
     1
1000
158160
1002
}
1002
{
1070
     2
1000
-2001160
1002
}
  0
LINE
  5
80D
330
748
100
AcDbEntity
  8
Pressure_Balance_Rough_Valve-GROHE-35115000
100
AcDbLine
 10
2.994083168181217
 20
-1.381653225518304
 30
0.0
 11
2.982854716697646
 21
-1.38244948940702
 31
0.0
1001
REVIT
1002
{
1070
     1
1000
158160
1002
}
1002
{
1070
     2
1000
-2001160
1002
}
  0
LINE
  5
80E
330
748
100
AcDbEntity
  8
Pressure_Balance_Rough_Valve-GROHE-35115000
100
AcDbLine
 10
2.982854716697646
 20
-1.38244948940702
 30
0.0
 11
2.971603404714878
 21
-1.382796098070782
 31
0.0
1001
REVIT
1002
{
1070
     1
1000
158160
1002
}
1002
{
1070
     2
1000
-2001160
1002
}
  0
LINE
  5
80F
330
748
100
AcDbEntity
  8
Pressure_Balance_Rough_Valve-GROHE-35115000
100
AcDbLine
 10
2.971603404714878
 20
-1.382796098070782
 30
0.0
 11
2.96856499950524
 21
-1.382812500037891
 31
0.0
1001
REVIT
1002
{
1070
     1
1000
158160
1002
}
1002
{
1070
     2
1000
-2001160
1002
}
  0
LINE
  5
810
330
748
100
AcDbEntity
  8
Pressure_Balance_Rough_Valve-GROHE-35115000
100
AcDbLine
 10
-1.812500000000023
 20
-0.4999999999597078
 30
0.0
 11
-1.812500000000023
 21
-1.50000000003774
 31
0.0
1001
REVIT
1002
{
1070
     1
1000
158160
1002
}
1002
{
1070
     2
1000
-2001160
1002
}
  0
LINE
  5
811
330
748
100
AcDbEntity
  8
Pressure_Balance_Rough_Valve-GROHE-35115000
100
AcDbLine
 10
1.812500000000034
 20
-1.50000000003774
 30
0.0
 11
1.812500000000034
 21
-0.4999999999597078
 31
0.0
1001
REVIT
1002
{
1070
     1
1000
158160
1002
}
1002
{
1070
     2
1000
-2001160
1002
}
  0
LINE
  5
812
330
748
100
AcDbEntity
  8
Pressure_Balance_Rough_Valve-GROHE-35115000
100
AcDbLine
 10
-1.12959665177934
 20
-0.4549363560042048
 30
0.0
 11
1.129596651779349
 21
-0.4549363560041817
 31
0.0
1001
REVIT
1002
{
1070
     1
1000
154011
1002
}
1002
{
1070
     2
1000
-2001160
1002
}
  0
CIRCLE
  5
813
330
748
100
AcDbEntity
  8
Pressure_Balance_Rough_Valve-GROHE-35115000
100
AcDbCircle
 10
-0.0000000000004893
 20
-0.9999999999999751
 30
0.0
 40
0.3125000000165307
1001
REVIT
1002
{
1070
     1
1000
169644
1002
}
1002
{
1070
     2
1000
-2001160
1002
}
  0
CIRCLE
  5
814
330
748
100
AcDbEntity
  8
Pressure_Balance_Rough_Valve-GROHE-35115000
100
AcDbCircle
 10
-0.0000000000004893
 20
-0.9999999999999751
 30
0.0
 40
0.2500000000165309
1001
REVIT
1002
{
1070
     1
1000
169662
1002
}
1002
{
1070
     2
1000
-2001160
1002
}
  0
CIRCLE
  5
815
330
748
100
AcDbEntity
  8
Pressure_Balance_Rough_Valve-GROHE-35115000
100
AcDbCircle
 10
-0.0000000000004893
 20
-0.9999999999999751
 30
0.0
 40
0.375000000016531
1001
REVIT
1002
{
1070
     1
1000
169811
1002
}
1002
{
1070
     2
1000
-2001160
1002
}
  0
LINE
  5
816
330
748
100
AcDbEntity
  8
Pressure_Balance_Rough_Valve-GROHE-35115000
100
AcDbLine
 10
-2.427820338812359
 20
-1.382812500052835
 30
0.0
 11
-2.427820338812359
 21
-0.6171874999446123
 31
0.0
1001
REVIT
1002
{
1070
     1
1000
197077
1002
}
1002
{
1070
     2
1000
-2001160
1002
}
  0
LINE
  5
817
330
748
100
AcDbEntity
  8
Pressure_Balance_Rough_Valve-GROHE-35115000
100
AcDbLine
 10
-2.341126045624258
 20
-1.415409331347545
 30
0.0
 11
-2.341126045624258
 21
-0.584590668649903
 31
0.0
1001
REVIT
1002
{
1070
     1
1000
197084
1002
}
1002
{
1070
     2
1000
-2001160
1002
}
  0
LINE
  5
818
330
748
100
AcDbEntity
  8
Pressure_Balance_Rough_Valve-GROHE-35115000
100
AcDbLine
 10
2.4278203388124
 20
-1.382812500037889
 30
0.0
 11
2.4278203388124
 21
-0.6171874999595586
 31
0.0
1001
REVIT
1002
{
1070
     1
1000
197091
1002
}
1002
{
1070
     2
1000
-2001160
1002
}
  0
LINE
  5
819
330
748
100
AcDbEntity
  8
Pressure_Balance_Rough_Valve-GROHE-35115000
100
AcDbLine
 10
2.341126045624271
 20
-1.415409331347578
 30
0.0
 11
2.341126045624271
 21
-0.584590668649871
 31
0.0
1001
REVIT
1002
{
1070
     1
1000
197098
1002
}
1002
{
1070
     2
1000
-2001160
1002
}
  0
CIRCLE
  5
81A
330
748
100
AcDbEntity
  8
Pressure_Balance_Rough_Valve-GROHE-35115000
100
AcDbCircle
 10
-0.000000000000495
 20
-1.000000000001238
 30
0.0
 40
0.4923468268136475
  0
LINE
  5
81B
330
748
100
AcDbEntity
  8
Pressure_Balance_Rough_Valve-GROHE-35115000
100
AcDbLine
 10
1.51269389950596
 20
-0.448801849379767
 30
0.0
 11
1.51269389950596
 21
-0.4132545206438288
 31
0.0
1001
REVIT
1002
{
1070
     1
1000
131792
1002
}
1002
{
1070
     2
1000
-2001160
1002
}
  0
LINE
  5
81C
330
748
100
AcDbEntity
  8
Pressure_Balance_Rough_Valve-GROHE-35115000
100
AcDbLine
 10
1.383418258571068
 20
-0.4132545206438288
 30
0.0
 11
1.383418258571068
 21
-0.448801849379767
 31
0.0
1001
REVIT
1002
{
1070
     1
1000
131792
1002
}
1002
{
1070
     2
1000
-2001160
1002
}
  0
LINE
  5
81D
330
748
100
AcDbEntity
  8
Pressure_Balance_Rough_Valve-GROHE-35115000
100
AcDbLine
 10
1.566590492299417
 20
-0.4836655756400133
 30
0.0
 11
1.566590492299417
 21
-0.448801849379767
 31
0.0
1001
REVIT
1002
{
1070
     1
1000
131792
1002
}
1002
{
1070
     2
1000
-2001160
1002
}
  0
LINE
  5
81E
330
748
100
AcDbEntity
  8
Pressure_Balance_Rough_Valve-GROHE-35115000
100
AcDbLine
 10
1.329521665777611
 20
-0.448801849379767
 30
0.0
 11
1.329521665777611
 21
-0.4836655756400133
 31
0.0
1001
REVIT
1002
{
1070
     1
1000
131792
1002
}
1002
{
1070
     2
1000
-2001160
1002
}
  0
LINE
  5
81F
330
748
100
AcDbEntity
  8
Pressure_Balance_Rough_Valve-GROHE-35115000
100
AcDbLine
 10
1.610341050743648
 20
-0.4999999999597078
 30
0.0
 11
1.610341050743648
 21
-0.4836655756400133
 31
0.0
1001
REVIT
1002
{
1070
     1
1000
131792
1002
}
1002
{
1070
     2
1000
-2001160
1002
}
  0
LINE
  5
820
330
748
100
AcDbEntity
  8
Pressure_Balance_Rough_Valve-GROHE-35115000
100
AcDbLine
 10
1.38341825857107
 20
-0.4132545206438279
 30
0.0
 11
1.512693899505961
 21
-0.4132545206438279
 31
0.0
1001
REVIT
1002
{
1070
     1
1000
131792
1002
}
1002
{
1070
     2
1000
-2001160
1002
}
  0
LINE
  5
821
330
748
100
AcDbEntity
  8
Pressure_Balance_Rough_Valve-GROHE-35115000
100
AcDbLine
 10
1.329521665777612
 20
-0.4488018493797661
 30
0.0
 11
1.566590492299419
 21
-0.4488018493797661
 31
0.0
1001
REVIT
1002
{
1070
     1
1000
131792
1002
}
1002
{
1070
     2
1000
-2001160
1002
}
  0
LINE
  5
822
330
748
100
AcDbEntity
  8
Pressure_Balance_Rough_Valve-GROHE-35115000
100
AcDbLine
 10
1.285771107333382
 20
-0.4836655756400124
 30
0.0
 11
1.61034105074365
 21
-0.4836655756400124
 31
0.0
1001
REVIT
1002
{
1070
     1
1000
131792
1002
}
1002
{
1070
     2
1000
-2001160
1002
}
  0
ENDBLK
  5
74A
330
748
100
AcDbEntity
  8
0
100
AcDbBlockEnd
  0
BLOCK
  5
825
330
824
100
AcDbEntity
  8
0
100
AcDbBlockBegin
  2
Pressure_Balance_Rough_Valve-GROHE-35115000- Front
 70
     0
 10
0.0
 20
0.0
 30
0.0
  3
Pressure_Balance_Rough_Valve-GROHE-35115000- Front
  1

  0
LINE
  5
827
330
824
100
AcDbEntity
  8
Pressure_Balance_Rough_Valve-GROHE-35115000
 62
     8
370
    18
100
AcDbLine
 10
-0.8849893861396799
 20
0.6931734818321939
 30
0.0
 11
-0.932271634621137
 21
1.176920550563954
 31
0.0
  0
ARC
  5
828
330
824
100
AcDbEntity
  8
Pressure_Balance_Rough_Valve-GROHE-35115000
 62
     8
370
    18
100
AcDbCircle
 10
-1.067852328923111
 20
1.163668666487259
 30
0.0
 40
0.1362267855415659
100
AcDbArc
 50
5.582453287638117
 51
174.4175467123611
  0
LINE
  5
829
330
824
100
AcDbEntity
  8
Pressure_Balance_Rough_Valve-GROHE-35115000
 62
     8
370
    18
100
AcDbLine
 10
0.8857560263565163
 20
-0.701017016543315
 30
0.0
 11
0.9322716346221227
 21
-1.176920550563964
 31
0.0
  0
ARC
  5
82A
330
824
100
AcDbEntity
  8
Pressure_Balance_Rough_Valve-GROHE-35115000
 62
     8
370
    18
100
AcDbCircle
 10
1.067852328924097
 20
-1.163668666487268
 30
0.0
 40
0.1362267855415661
100
AcDbArc
 50
185.582453287638
 51
354.4175467123609
  0
LINE
  5
82B
330
824
100
AcDbEntity
  8
Pressure_Balance_Rough_Valve-GROHE-35115000
 62
     8
370
    18
100
AcDbLine
 10
0.9634430861382398
 20
-0.03125
 30
0.0
 11
-0.9634430861382409
 21
-0.03125
 31
0.0
  0
LINE
  5
82C
330
824
100
AcDbEntity
  8
Pressure_Balance_Rough_Valve-GROHE-35115000
 62
     8
370
    18
100
AcDbLine
 10
-0.9634430861382405
 20
0.03125
 30
0.0
 11
0.9634430861382407
 21
0.03125
 31
0.0
  0
LINE
  5
82D
330
824
100
AcDbEntity
  8
Pressure_Balance_Rough_Valve-GROHE-35115000
 62
     8
370
    18
100
AcDbLine
 10
0.2962913294859732
 20
0.0312499999999957
 30
0.0
 11
0.2962913294859732
 21
-0.0312500000000043
 31
0.0
  0
LINE
  5
82E
330
824
100
AcDbEntity
  8
Pressure_Balance_Rough_Valve-GROHE-35115000
 62
     8
370
    18
100
AcDbLine
 10
-0.2962913294865857
 20
0.0312499999999957
 30
0.0
 11
-0.2962913294865857
 21
-0.0312500000000043
 31
0.0
  0
LINE
  5
82F
330
824
100
AcDbEntity
  8
Pressure_Balance_Rough_Valve-GROHE-35115000
100
AcDbLine
 10
-1.550846371265759
 20
-0.5000000000383381
 30
0.0
 11
-1.484683023225084
 21
-1.176920550563819
 31
0.0
1001
REVIT
1002
{
1070
     1
1000
122706
1002
}
1002
{
1070
     2
1000
-2000051
1002
}
1002
{
1070
     3
1000
-2000287
1002
}
  0
ARC
  5
830
330
824
100
AcDbEntity
  8
Pressure_Balance_Rough_Valve-GROHE-35115000
100
AcDbCircle
 10
-1.349102328923109
 20
-1.163668666487122
 30
0.0
 40
0.1362267855415661
100
AcDbArc
 50
185.5824532876381
 51
354.4175467123595
1001
REVIT
1002
{
1070
     1
1000
122706
1002
}
1002
{
1070
     2
1000
-2000051
1002
}
1002
{
1070
     3
1000
-2000287
1002
}
  0
LINE
  5
831
330
824
100
AcDbEntity
  8
Pressure_Balance_Rough_Valve-GROHE-35115000
100
AcDbLine
 10
-1.213521634621134
 20
-1.176920550563819
 30
0.0
 11
-1.147358286580461
 21
-0.5000000000383381
 31
0.0
1001
REVIT
1002
{
1070
     1
1000
122706
1002
}
1002
{
1070
     2
1000
-2000051
1002
}
1002
{
1070
     3
1000
-2000287
1002
}
  0
LINE
  5
832
330
824
100
AcDbEntity
  8
Pressure_Balance_Rough_Valve-GROHE-35115000
100
AcDbLine
 10
1.613346371266618
 20
0.5000000000396965
 30
0.0
 11
1.547183023226068
 21
1.1769205505641
 31
0.0
1001
REVIT
1002
{
1070
     1
1000
122706
1002
}
1002
{
1070
     2
1000
-2000051
1002
}
1002
{
1070
     3
1000
-2000287
1002
}
  0
ARC
  5
833
330
824
100
AcDbEntity
  8
Pressure_Balance_Rough_Valve-GROHE-35115000
100
AcDbCircle
 10
1.411602328924092
 20
1.163668666487406
 30
0.0
 40
0.1362267855415659
100
AcDbArc
 50
5.582453287637932
 51
174.417546712362
1001
REVIT
1002
{
1070
     1
1000
122706
1002
}
1002
{
1070
     2
1000
-2000051
1002
}
1002
{
1070
     3
1000
-2000287
1002
}
  0
LINE
  5
834
330
824
100
AcDbEntity
  8
Pressure_Balance_Rough_Valve-GROHE-35115000
100
AcDbLine
 10
1.276021634622119
 20
1.176920550564099
 30
0.0
 11
1.209858286581574
 21
0.5000000000396965
 31
0.0
1001
REVIT
1002
{
1070
     1
1000
122706
1002
}
1002
{
1070
     2
1000
-2000051
1002
}
1002
{
1070
     3
1000
-2000287
1002
}
  0
ARC
  5
835
330
824
100
AcDbEntity
  8
Pressure_Balance_Rough_Valve-GROHE-35115000
100
AcDbCircle
 10
-1.442852328923114
 20
0.0000000000006681
 30
0.0
 40
0.2285958673326125
100
AcDbArc
 50
311.1123012345891
 51
228.8876912649912
1001
REVIT
1002
{
1070
     1
1000
130422
1002
}
1002
{
1070
     2
1000
-2000051
1002
}
1002
{
1070
     3
1000
-2000287
1002
}
  0
ARC
  5
836
330
824
100
AcDbEntity
  8
Pressure_Balance_Rough_Valve-GROHE-35115000
100
AcDbCircle
 10
-1.442852328923114
 20
0.0000000000006682
 30
0.0
 40
0.2285958673326128
100
AcDbArc
 50
228.8876912649913
 51
311.1123012345891
1001
REVIT
1002
{
1070
     1
1000
130422
1002
}
1002
{
1070
     2
1000
-2000051
1002
}
1002
{
1070
     3
1000
-2000287
1002
}
  0
ARC
  5
837
330
824
100
AcDbEntity
  8
Pressure_Balance_Rough_Valve-GROHE-35115000
100
AcDbCircle
 10
1.4428523289241
 20
0.0000000000006798
 30
0.0
 40
0.2337996174480111
100
AcDbArc
 50
219.9984487420004
 51
320.0015695387053
1001
REVIT
1002
{
1070
     1
1000
131792
1002
}
1002
{
1070
     2
1000
-2000051
1002
}
1002
{
1070
     3
1000
-2000287
1002
}
  0
ARC
  5
838
330
824
100
AcDbEntity
  8
Pressure_Balance_Rough_Valve-GROHE-35115000
100
AcDbCircle
 10
1.4428523289241
 20
0.0000000000006797
 30
0.0
 40
0.2337996174480111
100
AcDbArc
 50
320.0015695387053
 51
219.9984487420004
1001
REVIT
1002
{
1070
     1
1000
131792
1002
}
1002
{
1070
     2
1000
-2000051
1002
}
1002
{
1070
     3
1000
-2000287
1002
}
  0
LINE
  5
839
330
824
100
AcDbEntity
  8
Pressure_Balance_Rough_Valve-GROHE-35115000
100
AcDbLine
 10
1.812500000000024
 20
0.5000000000396965
 30
0.0
 11
1.012910951501699
 21
0.5000000000396965
 31
0.0
1001
REVIT
1002
{
1070
     1
1000
158160
1002
}
1002
{
1070
     2
1000
-2000051
1002
}
1002
{
1070
     3
1000
-2000287
1002
}
  0
LINE
  5
83A
330
824
100
AcDbEntity
  8
Pressure_Balance_Rough_Valve-GROHE-35115000
100
AcDbLine
 10
-1.0129109515017
 20
0.5000000000396964
 30
0.0
 11
-1.812500000000036
 21
0.5000000000396965
 31
0.0
1001
REVIT
1002
{
1070
     1
1000
158160
1002
}
1002
{
1070
     2
1000
-2000051
1002
}
1002
{
1070
     3
1000
-2000287
1002
}
  0
LINE
  5
83B
330
824
100
AcDbEntity
  8
Pressure_Balance_Rough_Valve-GROHE-35115000
100
AcDbLine
 10
-1.812500000000036
 20
-0.5000000000383381
 30
0.0
 11
-1.012910951501713
 21
-0.5000000000383381
 31
0.0
1001
REVIT
1002
{
1070
     1
1000
158160
1002
}
1002
{
1070
     2
1000
-2000051
1002
}
1002
{
1070
     3
1000
-2000287
1002
}
  0
LINE
  5
83C
330
824
100
AcDbEntity
  8
Pressure_Balance_Rough_Valve-GROHE-35115000
100
AcDbLine
 10
1.012910951501712
 20
-0.5000000000383381
 30
0.0
 11
1.812500000000024
 21
-0.5000000000383381
 31
0.0
1001
REVIT
1002
{
1070
     1
1000
158160
1002
}
1002
{
1070
     2
1000
-2000051
1002
}
1002
{
1070
     3
1000
-2000287
1002
}
  0
LINE
  5
83D
330
824
100
AcDbEntity
  8
Pressure_Balance_Rough_Valve-GROHE-35115000
100
AcDbLine
 10
-1.812500000000036
 20
0.415409331349533
 30
0.0
 11
-2.341126045624274
 21
0.415409331349533
 31
0.0
1001
REVIT
1002
{
1070
     1
1000
158160
1002
}
1002
{
1070
     2
1000
-2000051
1002
}
1002
{
1070
     3
1000
-2000287
1002
}
  0
LINE
  5
83E
330
824
100
AcDbEntity
  8
Pressure_Balance_Rough_Valve-GROHE-35115000
100
AcDbLine
 10
-2.341126045624274
 20
-0.4154093313481753
 30
0.0
 11
-1.812500000000036
 21
-0.4154093313481753
 31
0.0
1001
REVIT
1002
{
1070
     1
1000
158160
1002
}
1002
{
1070
     2
1000
-2000051
1002
}
1002
{
1070
     3
1000
-2000287
1002
}
  0
LINE
  5
83F
330
824
100
AcDbEntity
  8
Pressure_Balance_Rough_Valve-GROHE-35115000
100
AcDbLine
 10
2.42782033881236
 20
0.3828125000597871
 30
0.0
 11
2.341126045624253
 21
0.4154093313494767
 31
0.0
1001
REVIT
1002
{
1070
     1
1000
158160
1002
}
1002
{
1070
     2
1000
-2000051
1002
}
1002
{
1070
     3
1000
-2000287
1002
}
  0
LINE
  5
840
330
824
100
AcDbEntity
  8
Pressure_Balance_Rough_Valve-GROHE-35115000
100
AcDbLine
 10
2.341126045624253
 20
-0.4154093313481187
 30
0.0
 11
2.42782033881236
 21
-0.382812500058429
 31
0.0
1001
REVIT
1002
{
1070
     1
1000
158160
1002
}
1002
{
1070
     2
1000
-2000051
1002
}
1002
{
1070
     3
1000
-2000287
1002
}
  0
LINE
  5
841
330
824
100
AcDbEntity
  8
Pressure_Balance_Rough_Valve-GROHE-35115000
100
AcDbLine
 10
-2.341126045624274
 20
0.415409331349533
 30
0.0
 11
-2.427820338812386
 21
0.3828125000398393
 31
0.0
1001
REVIT
1002
{
1070
     1
1000
158160
1002
}
1002
{
1070
     2
1000
-2000051
1002
}
1002
{
1070
     3
1000
-2000287
1002
}
  0
LINE
  5
842
330
824
100
AcDbEntity
  8
Pressure_Balance_Rough_Valve-GROHE-35115000
100
AcDbLine
 10
-2.427820338812386
 20
-0.3828125000384817
 30
0.0
 11
-2.341126045624274
 21
-0.4154093313481753
 31
0.0
1001
REVIT
1002
{
1070
     1
1000
158160
1002
}
1002
{
1070
     2
1000
-2000051
1002
}
1002
{
1070
     3
1000
-2000287
1002
}
  0
LINE
  5
843
330
824
100
AcDbEntity
  8
Pressure_Balance_Rough_Valve-GROHE-35115000
100
AcDbLine
 10
2.968564999505242
 20
0.3828125000597871
 30
0.0
 11
2.42782033881236
 21
0.3828125000597871
 31
0.0
1001
REVIT
1002
{
1070
     1
1000
158160
1002
}
1002
{
1070
     2
1000
-2000051
1002
}
1002
{
1070
     3
1000
-2000287
1002
}
  0
LINE
  5
844
330
824
100
AcDbEntity
  8
Pressure_Balance_Rough_Valve-GROHE-35115000
100
AcDbLine
 10
2.42782033881236
 20
-0.382812500058429
 30
0.0
 11
2.595582414759482
 21
-0.382812500058429
 31
0.0
1001
REVIT
1002
{
1070
     1
1000
158160
1002
}
1002
{
1070
     2
1000
-2000051
1002
}
1002
{
1070
     3
1000
-2000287
1002
}
  0
LINE
  5
845
330
824
100
AcDbEntity
  8
Pressure_Balance_Rough_Valve-GROHE-35115000
100
AcDbLine
 10
2.341126045624261
 20
0.415409331349501
 30
0.0
 11
1.812500000000023
 21
0.415409331349501
 31
0.0
1001
REVIT
1002
{
1070
     1
1000
158160
1002
}
1002
{
1070
     2
1000
-2000051
1002
}
1002
{
1070
     3
1000
-2000287
1002
}
  0
LINE
  5
846
330
824
100
AcDbEntity
  8
Pressure_Balance_Rough_Valve-GROHE-35115000
100
AcDbLine
 10
1.812500000000023
 20
-0.4154093313481427
 30
0.0
 11
2.341126045624261
 21
-0.4154093313481427
 31
0.0
1001
REVIT
1002
{
1070
     1
1000
158160
1002
}
1002
{
1070
     2
1000
-2000051
1002
}
1002
{
1070
     3
1000
-2000287
1002
}
  0
LINE
  5
847
330
824
100
AcDbEntity
  8
Pressure_Balance_Rough_Valve-GROHE-35115000
100
AcDbLine
 10
2.968564999505248
 20
0.3828125000597871
 30
0.0
 11
2.979819397791847
 21
0.3825873820775233
 31
0.0
1001
REVIT
1002
{
1070
     1
1000
158160
1002
}
1002
{
1070
     2
1000
-2000051
1002
}
1002
{
1070
     3
1000
-2000287
1002
}
  0
LINE
  5
848
330
824
100
AcDbEntity
  8
Pressure_Balance_Rough_Valve-GROHE-35115000
100
AcDbLine
 10
2.979819397791847
 20
0.3825873820775233
 30
0.0
 11
2.991055791442001
 21
0.3819123882714815
 31
0.0
1001
REVIT
1002
{
1070
     1
1000
158160
1002
}
1002
{
1070
     2
1000
-2000051
1002
}
1002
{
1070
     3
1000
-2000287
1002
}
  0
LINE
  5
849
330
824
100
AcDbEntity
  8
Pressure_Balance_Rough_Valve-GROHE-35115000
100
AcDbLine
 10
2.991055791442001
 20
0.3819123882714815
 30
0.0
 11
3.002256204622833
 21
0.380788598487761
 31
0.0
1001
REVIT
1002
{
1070
     1
1000
158160
1002
}
1002
{
1070
     2
1000
-2000051
1002
}
1002
{
1070
     3
1000
-2000287
1002
}
  0
LINE
  5
84A
330
824
100
AcDbEntity
  8
Pressure_Balance_Rough_Valve-GROHE-35115000
100
AcDbLine
 10
3.002256204622833
 20
0.380788598487761
 30
0.0
 11
3.013402719062552
 21
0.3792178105502861
 31
0.0
1001
REVIT
1002
{
1070
     1
1000
158160
1002
}
1002
{
1070
     2
1000
-2000051
1002
}
1002
{
1070
     3
1000
-2000287
1002
}
  0
LINE
  5
84B
330
824
100
AcDbEntity
  8
Pressure_Balance_Rough_Valve-GROHE-35115000
100
AcDbLine
 10
3.013402719062552
 20
0.3792178105502861
 30
0.0
 11
3.024477502715849
 21
0.3772025373846735
 31
0.0
1001
REVIT
1002
{
1070
     1
1000
158160
1002
}
1002
{
1070
     2
1000
-2000051
1002
}
1002
{
1070
     3
1000
-2000287
1002
}
  0
LINE
  5
84C
330
824
100
AcDbEntity
  8
Pressure_Balance_Rough_Valve-GROHE-35115000
100
AcDbLine
 10
3.024477502715849
 20
0.3772025373846735
 30
0.0
 11
3.035462838291373
 21
0.3747460029980856
 31
0.0
1001
REVIT
1002
{
1070
     1
1000
158160
1002
}
1002
{
1070
     2
1000
-2000051
1002
}
1002
{
1070
     3
1000
-2000287
1002
}
  0
LINE
  5
84D
330
824
100
AcDbEntity
  8
Pressure_Balance_Rough_Valve-GROHE-35115000
100
AcDbLine
 10
3.035462838291373
 20
0.3747460029980856
 30
0.0
 11
3.046341151595619
 21
0.3718521373215088
 31
0.0
1001
REVIT
1002
{
1070
     1
1000
158160
1002
}
1002
{
1070
     2
1000
-2000051
1002
}
1002
{
1070
     3
1000
-2000287
1002
}
  0
LINE
  5
84E
330
824
100
AcDbEntity
  8
Pressure_Balance_Rough_Valve-GROHE-35115000
100
AcDbLine
 10
3.046341151595619
 20
0.3718521373215088
 30
0.0
 11
3.057095039647879
 21
0.3685255699227006
 31
0.0
1001
REVIT
1002
{
1070
     1
1000
158160
1002
}
1002
{
1070
     2
1000
-2000051
1002
}
1002
{
1070
     3
1000
-2000287
1002
}
  0
LINE
  5
84F
330
824
100
AcDbEntity
  8
Pressure_Balance_Rough_Valve-GROHE-35115000
100
AcDbLine
 10
3.057095039647879
 20
0.3685255699227006
 30
0.0
 11
3.067707298521312
 21
0.3647716225998687
 31
0.0
1001
REVIT
1002
{
1070
     1
1000
158160
1002
}
1002
{
1070
     2
1000
-2000051
1002
}
1002
{
1070
     3
1000
-2000287
1002
}
  0
LINE
  5
850
330
824
100
AcDbEntity
  8
Pressure_Balance_Rough_Valve-GROHE-35115000
100
AcDbLine
 10
3.067707298521312
 20
0.3647716225998687
 30
0.0
 11
3.078160950865551
 21
0.3605963008679306
 31
0.0
1001
REVIT
1002
{
1070
     1
1000
158160
1002
}
1002
{
1070
     2
1000
-2000051
1002
}
1002
{
1070
     3
1000
-2000287
1002
}
  0
LINE
  5
851
330
824
100
AcDbEntity
  8
Pressure_Balance_Rough_Valve-GROHE-35115000
100
AcDbLine
 10
3.078160950865551
 20
0.3605963008679306
 30
0.0
 11
3.088439273066834
 21
0.3560062843509697
 31
0.0
1001
REVIT
1002
{
1070
     1
1000
158160
1002
}
1002
{
1070
     2
1000
-2000051
1002
}
1002
{
1070
     3
1000
-2000287
1002
}
  0
LINE
  5
852
330
824
100
AcDbEntity
  8
Pressure_Balance_Rough_Valve-GROHE-35115000
100
AcDbLine
 10
3.088439273066834
 20
0.3560062843509697
 30
0.0
 11
3.098525822002234
 21
0.3510089160962616
 31
0.0
1001
REVIT
1002
{
1070
     1
1000
158160
1002
}
1002
{
1070
     2
1000
-2000051
1002
}
1002
{
1070
     3
1000
-2000287
1002
}
  0
LINE
  5
853
330
824
100
AcDbEntity
  8
Pressure_Balance_Rough_Valve-GROHE-35115000
100
AcDbLine
 10
3.098525822002234
 20
0.3510089160962616
 30
0.0
 11
3.108404461345135
 21
0.3456121908269655
 31
0.0
1001
REVIT
1002
{
1070
     1
1000
158160
1002
}
1002
{
1070
     2
1000
-2000051
1002
}
1002
{
1070
     3
1000
-2000287
1002
}
  0
LINE
  5
854
330
824
100
AcDbEntity
  8
Pressure_Balance_Rough_Valve-GROHE-35115000
100
AcDbLine
 10
3.108404461345135
 20
0.3456121908269655
 30
0.0
 11
3.118059387379921
 21
0.3398247421522726
 31
0.0
1001
REVIT
1002
{
1070
     1
1000
158160
1002
}
1002
{
1070
     2
1000
-2000051
1002
}
1002
{
1070
     3
1000
-2000287
1002
}
  0
LINE
  5
855
330
824
100
AcDbEntity
  8
Pressure_Balance_Rough_Valve-GROHE-35115000
100
AcDbLine
 10
3.118059387379921
 20
0.3398247421522726
 30
0.0
 11
3.12747515428454
 21
0.3336558287554718
 31
0.0
1001
REVIT
1002
{
1070
     1
1000
158160
1002
}
1002
{
1070
     2
1000
-2000051
1002
}
1002
{
1070
     3
1000
-2000287
1002
}
  0
LINE
  5
856
330
824
100
AcDbEntity
  8
Pressure_Balance_Rough_Valve-GROHE-35115000
100
AcDbLine
 10
3.12747515428454
 20
0.3336558287554718
 30
0.0
 11
3.136636698840541
 21
0.3271153195820339
 31
0.0
1001
REVIT
1002
{
1070
     1
1000
158160
1002
}
1002
{
1070
     2
1000
-2000051
1002
}
1002
{
1070
     3
1000
-2000287
1002
}
  0
LINE
  5
857
330
824
100
AcDbEntity
  8
Pressure_Balance_Rough_Valve-GROHE-35115000
100
AcDbLine
 10
3.136636698840541
 20
0.3271153195820339
 30
0.0
 11
3.145529364530987
 21
0.3202136780514022
 31
0.0
1001
REVIT
1002
{
1070
     1
1000
158160
1002
}
1002
{
1070
     2
1000
-2000051
1002
}
1002
{
1070
     3
1000
-2000287
1002
}
  0
LINE
  5
858
330
824
100
AcDbEntity
  8
Pressure_Balance_Rough_Valve-GROHE-35115000
100
AcDbLine
 10
3.145529364530987
 20
0.3202136780514022
 30
0.0
 11
3.154138924987775
 21
0.3129619453177541
 31
0.0
1001
REVIT
1002
{
1070
     1
1000
158160
1002
}
1002
{
1070
     2
1000
-2000051
1002
}
1002
{
1070
     3
1000
-2000287
1002
}
  0
LINE
  5
859
330
824
100
AcDbEntity
  8
Pressure_Balance_Rough_Valve-GROHE-35115000
100
AcDbLine
 10
3.154138924987775
 20
0.3129619453177541
 30
0.0
 11
3.162451606750784
 21
0.3053717226065093
 31
0.0
1001
REVIT
1002
{
1070
     1
1000
158160
1002
}
1002
{
1070
     2
1000
-2000051
1002
}
1002
{
1070
     3
1000
-2000287
1002
}
  0
LINE
  5
85A
330
824
100
AcDbEntity
  8
Pressure_Balance_Rough_Valve-GROHE-35115000
100
AcDbLine
 10
3.162451606750784
 20
0.3053717226065093
 30
0.0
 11
3.170454111302473
 21
0.2974551526548447
 31
0.0
1001
REVIT
1002
{
1070
     1
1000
158160
1002
}
1002
{
1070
     2
1000
-2000051
1002
}
1002
{
1070
     3
1000
-2000287
1002
}
  0
LINE
  5
85B
330
824
100
AcDbEntity
  8
Pressure_Balance_Rough_Valve-GROHE-35115000
100
AcDbLine
 10
3.170454111302473
 20
0.2974551526548447
 30
0.0
 11
3.178133636342664
 21
0.2892249002859046
 31
0.0
1001
REVIT
1002
{
1070
     1
1000
158160
1002
}
1002
{
1070
     2
1000
-2000051
1002
}
1002
{
1070
     3
1000
-2000287
1002
}
  0
LINE
  5
85C
330
824
100
AcDbEntity
  8
Pressure_Balance_Rough_Valve-GROHE-35115000
100
AcDbLine
 10
3.178133636342664
 20
0.2892249002859046
 30
0.0
 11
3.185477896269508
 21
0.2806941321477863
 31
0.0
1001
REVIT
1002
{
1070
     1
1000
158160
1002
}
1002
{
1070
     2
1000
-2000051
1002
}
1002
{
1070
     3
1000
-2000287
1002
}
  0
LINE
  5
85D
330
824
100
AcDbEntity
  8
Pressure_Balance_Rough_Valve-GROHE-35115000
100
AcDbLine
 10
3.185477896269508
 20
0.2806941321477863
 30
0.0
 11
3.192475141833811
 21
0.2718764956497103
 31
0.0
1001
REVIT
1002
{
1070
     1
1000
158160
1002
}
1002
{
1070
     2
1000
-2000051
1002
}
1002
{
1070
     3
1000
-2000287
1002
}
  0
LINE
  5
85E
330
824
100
AcDbEntity
  8
Pressure_Balance_Rough_Valve-GROHE-35115000
100
AcDbLine
 10
3.192475141833811
 20
0.2718764956497103
 30
0.0
 11
3.199114178935341
 21
0.2627860971290782
 31
0.0
1001
REVIT
1002
{
1070
     1
1000
158160
1002
}
1002
{
1070
     2
1000
-2000051
1002
}
1002
{
1070
     3
1000
-2000287
1002
}
  0
LINE
  5
85F
330
824
100
AcDbEntity
  8
Pressure_Balance_Rough_Valve-GROHE-35115000
100
AcDbLine
 10
3.199114178935341
 20
0.2627860971290782
 30
0.0
 11
3.205384386530982
 21
0.2534374792843415
 31
0.0
1001
REVIT
1002
{
1070
     1
1000
158160
1002
}
1002
{
1070
     2
1000
-2000051
1002
}
1002
{
1070
     3
1000
-2000287
1002
}
  0
LINE
  5
860
330
824
100
AcDbEntity
  8
Pressure_Balance_Rough_Valve-GROHE-35115000
100
AcDbLine
 10
3.205384386530982
 20
0.2534374792843415
 30
0.0
 11
3.211275733626158
 21
0.2438455979097858
 31
0.0
1001
REVIT
1002
{
1070
     1
1000
158160
1002
}
1002
{
1070
     2
1000
-2000051
1002
}
1002
{
1070
     3
1000
-2000287
1002
}
  0
LINE
  5
861
330
824
100
AcDbEntity
  8
Pressure_Balance_Rough_Valve-GROHE-35115000
100
AcDbLine
 10
3.211275733626158
 20
0.2438455979097858
 30
0.0
 11
3.216778795322268
 21
0.2340257979694522
 31
0.0
1001
REVIT
1002
{
1070
     1
1000
158160
1002
}
1002
{
1070
     2
1000
-2000051
1002
}
1002
{
1070
     3
1000
-2000287
1002
}
  0
LINE
  5
862
330
824
100
AcDbEntity
  8
Pressure_Balance_Rough_Valve-GROHE-35115000
100
AcDbLine
 10
3.216778795322268
 20
0.2340257979694522
 30
0.0
 11
3.221884767894525
 21
0.2239937890484659
 31
0.0
1001
REVIT
1002
{
1070
     1
1000
158160
1002
}
1002
{
1070
     2
1000
-2000051
1002
}
1002
{
1070
     3
1000
-2000287
1002
}
  0
LINE
  5
863
330
824
100
AcDbEntity
  8
Pressure_Balance_Rough_Valve-GROHE-35115000
100
AcDbLine
 10
3.221884767894525
 20
0.2239937890484659
 30
0.0
 11
3.226585482876024
 21
0.2137656202210527
 31
0.0
1001
REVIT
1002
{
1070
     1
1000
158160
1002
}
1002
{
1070
     2
1000
-2000051
1002
}
1002
{
1070
     3
1000
-2000287
1002
}
  0
LINE
  5
864
330
824
100
AcDbEntity
  8
Pressure_Balance_Rough_Valve-GROHE-35115000
100
AcDbLine
 10
3.226585482876024
 20
0.2137656202210527
 30
0.0
 11
3.230873420125567
 21
0.2033576543754437
 31
0.0
1001
REVIT
1002
{
1070
     1
1000
158160
1002
}
1002
{
1070
     2
1000
-2000051
1002
}
1002
{
1070
     3
1000
-2000287
1002
}
  0
LINE
  5
865
330
824
100
AcDbEntity
  8
Pressure_Balance_Rough_Valve-GROHE-35115000
100
AcDbLine
 10
3.230873420125567
 20
0.2033576543754437
 30
0.0
 11
3.23474171985826
 21
0.1927865420367439
 31
0.0
1001
REVIT
1002
{
1070
     1
1000
158160
1002
}
1002
{
1070
     2
1000
-2000051
1002
}
1002
{
1070
     3
1000
-2000287
1002
}
  0
LINE
  5
866
330
824
100
AcDbEntity
  8
Pressure_Balance_Rough_Valve-GROHE-35115000
100
AcDbLine
 10
3.23474171985826
 20
0.1927865420367439
 30
0.0
 11
3.23818419361973
 21
0.1820691947296453
 31
0.0
1001
REVIT
1002
{
1070
     1
1000
158160
1002
}
1002
{
1070
     2
1000
-2000051
1002
}
1002
{
1070
     3
1000
-2000287
1002
}
  0
LINE
  5
867
330
824
100
AcDbEntity
  8
Pressure_Balance_Rough_Valve-GROHE-35115000
100
AcDbLine
 10
3.23818419361973
 20
0.1820691947296453
 30
0.0
 11
3.241195334186309
 21
0.1712227579235934
 31
0.0
1001
REVIT
1002
{
1070
     1
1000
158160
1002
}
1002
{
1070
     2
1000
-2000051
1002
}
1002
{
1070
     3
1000
-2000287
1002
}
  0
LINE
  5
868
330
824
100
AcDbEntity
  8
Pressure_Balance_Rough_Valve-GROHE-35115000
100
AcDbLine
 10
3.241195334186309
 20
0.1712227579235934
 30
0.0
 11
3.243770324375434
 21
0.160264583603695
 31
0.0
1001
REVIT
1002
{
1070
     1
1000
158160
1002
}
1002
{
1070
     2
1000
-2000051
1002
}
1002
{
1070
     3
1000
-2000287
1002
}
  0
LINE
  5
869
330
824
100
AcDbEntity
  8
Pressure_Balance_Rough_Valve-GROHE-35115000
100
AcDbLine
 10
3.243770324375434
 20
0.160264583603695
 30
0.0
 11
3.245905044752106
 21
0.1492122025112427
 31
0.0
1001
REVIT
1002
{
1070
     1
1000
158160
1002
}
1002
{
1070
     2
1000
-2000051
1002
}
1002
{
1070
     3
1000
-2000287
1002
}
  0
LINE
  5
86A
330
824
100
AcDbEntity
  8
Pressure_Balance_Rough_Valve-GROHE-35115000
100
AcDbLine
 10
3.245905044752106
 20
0.1492122025112427
 30
0.0
 11
3.247596080219103
 21
0.1380832960982686
 31
0.0
1001
REVIT
1002
{
1070
     1
1000
158160
1002
}
1002
{
1070
     2
1000
-2000051
1002
}
1002
{
1070
     3
1000
-2000287
1002
}
  0
LINE
  5
86B
330
824
100
AcDbEntity
  8
Pressure_Balance_Rough_Valve-GROHE-35115000
100
AcDbLine
 10
3.247596080219103
 20
0.1380832960982686
 30
0.0
 11
3.248840725480417
 21
0.1268956682409938
 31
0.0
1001
REVIT
1002
{
1070
     1
1000
158160
1002
}
1002
{
1070
     2
1000
-2000051
1002
}
1002
{
1070
     3
1000
-2000287
1002
}
  0
LINE
  5
86C
330
824
100
AcDbEntity
  8
Pressure_Balance_Rough_Valve-GROHE-35115000
100
AcDbLine
 10
3.248840725480417
 20
0.1268956682409938
 30
0.0
 11
3.249636989369133
 21
0.1156672167574233
 31
0.0
1001
REVIT
1002
{
1070
     1
1000
158160
1002
}
1002
{
1070
     2
1000
-2000051
1002
}
1002
{
1070
     3
1000
-2000287
1002
}
  0
LINE
  5
86D
330
824
100
AcDbEntity
  8
Pressure_Balance_Rough_Valve-GROHE-35115000
100
AcDbLine
 10
3.249636989369133
 20
0.1156672167574233
 30
0.0
 11
3.249983598032895
 21
0.1044159047746554
 31
0.0
1001
REVIT
1002
{
1070
     1
1000
158160
1002
}
1002
{
1070
     2
1000
-2000051
1002
}
1002
{
1070
     3
1000
-2000287
1002
}
  0
LINE
  5
86E
330
824
100
AcDbEntity
  8
Pressure_Balance_Rough_Valve-GROHE-35115000
100
AcDbLine
 10
3.249983598032895
 20
0.1044159047746554
 30
0.0
 11
3.250000000000002
 21
0.1013774995650263
 31
0.0
1001
REVIT
1002
{
1070
     1
1000
158160
1002
}
1002
{
1070
     2
1000
-2000051
1002
}
1002
{
1070
     3
1000
-2000287
1002
}
  0
LINE
  5
86F
330
824
100
AcDbEntity
  8
Pressure_Balance_Rough_Valve-GROHE-35115000
100
AcDbLine
 10
3.250000000000002
 20
-0.1013774995636684
 30
0.0
 11
3.24977488201774
 21
-0.1126318978502687
 31
0.0
1001
REVIT
1002
{
1070
     1
1000
158160
1002
}
1002
{
1070
     2
1000
-2000051
1002
}
1002
{
1070
     3
1000
-2000287
1002
}
  0
LINE
  5
870
330
824
100
AcDbEntity
  8
Pressure_Balance_Rough_Valve-GROHE-35115000
100
AcDbLine
 10
3.24977488201774
 20
-0.1126318978502687
 30
0.0
 11
3.249099888211699
 21
-0.123868291500421
 31
0.0
1001
REVIT
1002
{
1070
     1
1000
158160
1002
}
1002
{
1070
     2
1000
-2000051
1002
}
1002
{
1070
     3
1000
-2000287
1002
}
  0
LINE
  5
871
330
824
100
AcDbEntity
  8
Pressure_Balance_Rough_Valve-GROHE-35115000
100
AcDbLine
 10
3.249099888211699
 20
-0.123868291500421
 30
0.0
 11
3.247976098427978
 21
-0.1350687046812542
 31
0.0
1001
REVIT
1002
{
1070
     1
1000
158160
1002
}
1002
{
1070
     2
1000
-2000051
1002
}
1002
{
1070
     3
1000
-2000287
1002
}
  0
LINE
  5
872
330
824
100
AcDbEntity
  8
Pressure_Balance_Rough_Valve-GROHE-35115000
100
AcDbLine
 10
3.247976098427978
 20
-0.1350687046812542
 30
0.0
 11
3.246405310490503
 21
-0.1462152191209729
 31
0.0
1001
REVIT
1002
{
1070
     1
1000
158160
1002
}
1002
{
1070
     2
1000
-2000051
1002
}
1002
{
1070
     3
1000
-2000287
1002
}
  0
LINE
  5
873
330
824
100
AcDbEntity
  8
Pressure_Balance_Rough_Valve-GROHE-35115000
100
AcDbLine
 10
3.246405310490503
 20
-0.1462152191209729
 30
0.0
 11
3.244390037324891
 21
-0.15729000277427
 31
0.0
1001
REVIT
1002
{
1070
     1
1000
158160
1002
}
1002
{
1070
     2
1000
-2000051
1002
}
1002
{
1070
     3
1000
-2000287
1002
}
  0
LINE
  5
874
330
824
100
AcDbEntity
  8
Pressure_Balance_Rough_Valve-GROHE-35115000
100
AcDbLine
 10
3.244390037324891
 20
-0.15729000277427
 30
0.0
 11
3.241933502938303
 21
-0.1682753383497944
 31
0.0
1001
REVIT
1002
{
1070
     1
1000
158160
1002
}
1002
{
1070
     2
1000
-2000051
1002
}
1002
{
1070
     3
1000
-2000287
1002
}
  0
LINE
  5
875
330
824
100
AcDbEntity
  8
Pressure_Balance_Rough_Valve-GROHE-35115000
100
AcDbLine
 10
3.241933502938303
 20
-0.1682753383497944
 30
0.0
 11
3.239039637261726
 21
-0.1791536516540393
 31
0.0
1001
REVIT
1002
{
1070
     1
1000
158160
1002
}
1002
{
1070
     2
1000
-2000051
1002
}
1002
{
1070
     3
1000
-2000287
1002
}
  0
LINE
  5
876
330
824
100
AcDbEntity
  8
Pressure_Balance_Rough_Valve-GROHE-35115000
100
AcDbLine
 10
3.239039637261726
 20
-0.1791536516540393
 30
0.0
 11
3.235713069862919
 21
-0.1899075397063006
 31
0.0
1001
REVIT
1002
{
1070
     1
1000
158160
1002
}
1002
{
1070
     2
1000
-2000051
1002
}
1002
{
1070
     3
1000
-2000287
1002
}
  0
LINE
  5
877
330
824
100
AcDbEntity
  8
Pressure_Balance_Rough_Valve-GROHE-35115000
100
AcDbLine
 10
3.235713069862919
 20
-0.1899075397063006
 30
0.0
 11
3.231959122540087
 21
-0.2005197985797348
 31
0.0
1001
REVIT
1002
{
1070
     1
1000
158160
1002
}
1002
{
1070
     2
1000
-2000051
1002
}
1002
{
1070
     3
1000
-2000287
1002
}
  0
LINE
  5
878
330
824
100
AcDbEntity
  8
Pressure_Balance_Rough_Valve-GROHE-35115000
100
AcDbLine
 10
3.231959122540087
 20
-0.2005197985797348
 30
0.0
 11
3.22778380080815
 21
-0.210973450923972
 31
0.0
1001
REVIT
1002
{
1070
     1
1000
158160
1002
}
1002
{
1070
     2
1000
-2000051
1002
}
1002
{
1070
     3
1000
-2000287
1002
}
  0
LINE
  5
879
330
824
100
AcDbEntity
  8
Pressure_Balance_Rough_Valve-GROHE-35115000
100
AcDbLine
 10
3.22778380080815
 20
-0.210973450923972
 30
0.0
 11
3.223193784291188
 21
-0.2212517731252561
 31
0.0
1001
REVIT
1002
{
1070
     1
1000
158160
1002
}
1002
{
1070
     2
1000
-2000051
1002
}
1002
{
1070
     3
1000
-2000287
1002
}
  0
LINE
  5
87A
330
824
100
AcDbEntity
  8
Pressure_Balance_Rough_Valve-GROHE-35115000
100
AcDbLine
 10
3.223193784291188
 20
-0.2212517731252561
 30
0.0
 11
3.218196416036481
 21
-0.2313383220606555
 31
0.0
1001
REVIT
1002
{
1070
     1
1000
158160
1002
}
1002
{
1070
     2
1000
-2000051
1002
}
1002
{
1070
     3
1000
-2000287
1002
}
  0
LINE
  5
87B
330
824
100
AcDbEntity
  8
Pressure_Balance_Rough_Valve-GROHE-35115000
100
AcDbLine
 10
3.218196416036481
 20
-0.2313383220606555
 30
0.0
 11
3.212799690767184
 21
-0.2412169614035569
 31
0.0
1001
REVIT
1002
{
1070
     1
1000
158160
1002
}
1002
{
1070
     2
1000
-2000051
1002
}
1002
{
1070
     3
1000
-2000287
1002
}
  0
LINE
  5
87C
330
824
100
AcDbEntity
  8
Pressure_Balance_Rough_Valve-GROHE-35115000
100
AcDbLine
 10
3.212799690767184
 20
-0.2412169614035569
 30
0.0
 11
3.20701224209249
 21
-0.250871887438342
 31
0.0
1001
REVIT
1002
{
1070
     1
1000
158160
1002
}
1002
{
1070
     2
1000
-2000051
1002
}
1002
{
1070
     3
1000
-2000287
1002
}
  0
LINE
  5
87D
330
824
100
AcDbEntity
  8
Pressure_Balance_Rough_Valve-GROHE-35115000
100
AcDbLine
 10
3.20701224209249
 20
-0.250871887438342
 30
0.0
 11
3.200843328695692
 21
-0.2602876543429629
 31
0.0
1001
REVIT
1002
{
1070
     1
1000
158160
1002
}
1002
{
1070
     2
1000
-2000051
1002
}
1002
{
1070
     3
1000
-2000287
1002
}
  0
LINE
  5
87E
330
824
100
AcDbEntity
  8
Pressure_Balance_Rough_Valve-GROHE-35115000
100
AcDbLine
 10
3.200843328695692
 20
-0.2602876543429629
 30
0.0
 11
3.194302819522252
 21
-0.269449198898962
 31
0.0
1001
REVIT
1002
{
1070
     1
1000
158160
1002
}
1002
{
1070
     2
1000
-2000051
1002
}
1002
{
1070
     3
1000
-2000287
1002
}
  0
LINE
  5
87F
330
824
100
AcDbEntity
  8
Pressure_Balance_Rough_Valve-GROHE-35115000
100
AcDbLine
 10
3.194302819522252
 20
-0.269449198898962
 30
0.0
 11
3.187401177991621
 21
-0.278341864589408
 31
0.0
1001
REVIT
1002
{
1070
     1
1000
158160
1002
}
1002
{
1070
     2
1000
-2000051
1002
}
1002
{
1070
     3
1000
-2000287
1002
}
  0
LINE
  5
880
330
824
100
AcDbEntity
  8
Pressure_Balance_Rough_Valve-GROHE-35115000
100
AcDbLine
 10
3.187401177991621
 20
-0.278341864589408
 30
0.0
 11
3.180149445257973
 21
-0.2869514250461976
 31
0.0
1001
REVIT
1002
{
1070
     1
1000
158160
1002
}
1002
{
1070
     2
1000
-2000051
1002
}
1002
{
1070
     3
1000
-2000287
1002
}
  0
LINE
  5
881
330
824
100
AcDbEntity
  8
Pressure_Balance_Rough_Valve-GROHE-35115000
100
AcDbLine
 10
3.180149445257973
 20
-0.2869514250461976
 30
0.0
 11
3.17255922254673
 21
-0.2952641068092074
 31
0.0
1001
REVIT
1002
{
1070
     1
1000
158160
1002
}
1002
{
1070
     2
1000
-2000051
1002
}
1002
{
1070
     3
1000
-2000287
1002
}
  0
LINE
  5
882
330
824
100
AcDbEntity
  8
Pressure_Balance_Rough_Valve-GROHE-35115000
100
AcDbLine
 10
3.17255922254673
 20
-0.2952641068092074
 30
0.0
 11
3.164642652595063
 21
-0.303266611360895
 31
0.0
1001
REVIT
1002
{
1070
     1
1000
158160
1002
}
1002
{
1070
     2
1000
-2000051
1002
}
1002
{
1070
     3
1000
-2000287
1002
}
  0
LINE
  5
883
330
824
100
AcDbEntity
  8
Pressure_Balance_Rough_Valve-GROHE-35115000
100
AcDbLine
 10
3.164642652595063
 20
-0.303266611360895
 30
0.0
 11
3.156412400226126
 21
-0.3109461364010872
 31
0.0
1001
REVIT
1002
{
1070
     1
1000
158160
1002
}
1002
{
1070
     2
1000
-2000051
1002
}
1002
{
1070
     3
1000
-2000287
1002
}
  0
LINE
  5
884
330
824
100
AcDbEntity
  8
Pressure_Balance_Rough_Valve-GROHE-35115000
100
AcDbLine
 10
3.156412400226126
 20
-0.3109461364010872
 30
0.0
 11
3.147881632088008
 21
-0.3182903963279309
 31
0.0
1001
REVIT
1002
{
1070
     1
1000
158160
1002
}
1002
{
1070
     2
1000
-2000051
1002
}
1002
{
1070
     3
1000
-2000287
1002
}
  0
LINE
  5
885
330
824
100
AcDbEntity
  8
Pressure_Balance_Rough_Valve-GROHE-35115000
100
AcDbLine
 10
3.147881632088008
 20
-0.3182903963279309
 30
0.0
 11
3.139063995589931
 21
-0.3252876418922356
 31
0.0
1001
REVIT
1002
{
1070
     1
1000
158160
1002
}
1002
{
1070
     2
1000
-2000051
1002
}
1002
{
1070
     3
1000
-2000287
1002
}
  0
LINE
  5
886
330
824
100
AcDbEntity
  8
Pressure_Balance_Rough_Valve-GROHE-35115000
100
AcDbLine
 10
3.139063995589931
 20
-0.3252876418922356
 30
0.0
 11
3.129973597069299
 21
-0.3319266789937632
 31
0.0
1001
REVIT
1002
{
1070
     1
1000
158160
1002
}
1002
{
1070
     2
1000
-2000051
1002
}
1002
{
1070
     3
1000
-2000287
1002
}
  0
LINE
  5
887
330
824
100
AcDbEntity
  8
Pressure_Balance_Rough_Valve-GROHE-35115000
100
AcDbLine
 10
3.129973597069299
 20
-0.3319266789937632
 30
0.0
 11
3.120624979224562
 21
-0.3381968865894053
 31
0.0
1001
REVIT
1002
{
1070
     1
1000
158160
1002
}
1002
{
1070
     2
1000
-2000051
1002
}
1002
{
1070
     3
1000
-2000287
1002
}
  0
LINE
  5
888
330
824
100
AcDbEntity
  8
Pressure_Balance_Rough_Valve-GROHE-35115000
100
AcDbLine
 10
3.120624979224562
 20
-0.3381968865894053
 30
0.0
 11
3.111033097850006
 21
-0.344088233684581
 31
0.0
1001
REVIT
1002
{
1070
     1
1000
158160
1002
}
1002
{
1070
     2
1000
-2000051
1002
}
1002
{
1070
     3
1000
-2000287
1002
}
  0
LINE
  5
889
330
824
100
AcDbEntity
  8
Pressure_Balance_Rough_Valve-GROHE-35115000
100
AcDbLine
 10
3.111033097850006
 20
-0.344088233684581
 30
0.0
 11
3.101213297909674
 21
-0.3495912953806913
 31
0.0
1001
REVIT
1002
{
1070
     1
1000
158160
1002
}
1002
{
1070
     2
1000
-2000051
1002
}
1002
{
1070
     3
1000
-2000287
1002
}
  0
LINE
  5
88A
330
824
100
AcDbEntity
  8
Pressure_Balance_Rough_Valve-GROHE-35115000
100
AcDbLine
 10
3.101213297909674
 20
-0.3495912953806913
 30
0.0
 11
3.091181288988686
 21
-0.3546972679529472
 31
0.0
1001
REVIT
1002
{
1070
     1
1000
158160
1002
}
1002
{
1070
     2
1000
-2000051
1002
}
1002
{
1070
     3
1000
-2000287
1002
}
  0
LINE
  5
88B
330
824
100
AcDbEntity
  8
Pressure_Balance_Rough_Valve-GROHE-35115000
100
AcDbLine
 10
3.091181288988686
 20
-0.3546972679529472
 30
0.0
 11
3.080953120161275
 21
-0.3593979829344484
 31
0.0
1001
REVIT
1002
{
1070
     1
1000
158160
1002
}
1002
{
1070
     2
1000
-2000051
1002
}
1002
{
1070
     3
1000
-2000287
1002
}
  0
LINE
  5
88C
330
824
100
AcDbEntity
  8
Pressure_Balance_Rough_Valve-GROHE-35115000
100
AcDbLine
 10
3.080953120161275
 20
-0.3593979829344484
 30
0.0
 11
3.070545154315665
 21
-0.3636859201839907
 31
0.0
1001
REVIT
1002
{
1070
     1
1000
158160
1002
}
1002
{
1070
     2
1000
-2000051
1002
}
1002
{
1070
     3
1000
-2000287
1002
}
  0
LINE
  5
88D
330
824
100
AcDbEntity
  8
Pressure_Balance_Rough_Valve-GROHE-35115000
100
AcDbLine
 10
3.070545154315665
 20
-0.3636859201839907
 30
0.0
 11
3.059974041976965
 21
-0.3675542199166858
 31
0.0
1001
REVIT
1002
{
1070
     1
1000
158160
1002
}
1002
{
1070
     2
1000
-2000051
1002
}
1002
{
1070
     3
1000
-2000287
1002
}
  0
LINE
  5
88E
330
824
100
AcDbEntity
  8
Pressure_Balance_Rough_Valve-GROHE-35115000
100
AcDbLine
 10
3.059974041976965
 20
-0.3675542199166858
 30
0.0
 11
3.049256694669865
 21
-0.370996693678155
 31
0.0
1001
REVIT
1002
{
1070
     1
1000
158160
1002
}
1002
{
1070
     2
1000
-2000051
1002
}
1002
{
1070
     3
1000
-2000287
1002
}
  0
LINE
  5
88F
330
824
100
AcDbEntity
  8
Pressure_Balance_Rough_Valve-GROHE-35115000
100
AcDbLine
 10
3.049256694669865
 20
-0.370996693678155
 30
0.0
 11
3.038410257863814
 21
-0.3740078342447346
 31
0.0
1001
REVIT
1002
{
1070
     1
1000
158160
1002
}
1002
{
1070
     2
1000
-2000051
1002
}
1002
{
1070
     3
1000
-2000287
1002
}
  0
LINE
  5
890
330
824
100
AcDbEntity
  8
Pressure_Balance_Rough_Valve-GROHE-35115000
100
AcDbLine
 10
3.038410257863814
 20
-0.3740078342447346
 30
0.0
 11
3.020696020484973
 21
-0.3781703877985258
 31
0.0
1001
REVIT
1002
{
1070
     1
1000
158160
1002
}
1002
{
1070
     2
1000
-2000051
1002
}
1002
{
1070
     3
1000
-2000287
1002
}
  0
LINE
  5
891
330
824
100
AcDbEntity
  8
Pressure_Balance_Rough_Valve-GROHE-35115000
100
AcDbLine
 10
3.250000000000002
 20
-0.1013774995636687
 30
0.0
 11
3.250000000000002
 21
0.1013774995650266
 31
0.0
1001
REVIT
1002
{
1070
     1
1000
158160
1002
}
1002
{
1070
     2
1000
-2000051
1002
}
1002
{
1070
     3
1000
-2000287
1002
}
  0
LINE
  5
892
330
824
100
AcDbEntity
  8
Pressure_Balance_Rough_Valve-GROHE-35115000
100
AcDbLine
 10
-2.427820338812404
 20
0.382812500039845
 30
0.0
 11
-2.968564999505241
 21
0.382812500039845
 31
0.0
1001
REVIT
1002
{
1070
     1
1000
158160
1002
}
1002
{
1070
     2
1000
-2000051
1002
}
1002
{
1070
     3
1000
-2000287
1002
}
  0
LINE
  5
893
330
824
100
AcDbEntity
  8
Pressure_Balance_Rough_Valve-GROHE-35115000
100
AcDbLine
 10
-2.595582414759482
 20
-0.382812500038487
 30
0.0
 11
-2.427820338812404
 21
-0.382812500038487
 31
0.0
1001
REVIT
1002
{
1070
     1
1000
158160
1002
}
1002
{
1070
     2
1000
-2000051
1002
}
1002
{
1070
     3
1000
-2000287
1002
}
  0
LINE
  5
894
330
824
100
AcDbEntity
  8
Pressure_Balance_Rough_Valve-GROHE-35115000
100
AcDbLine
 10
-3.250000000000003
 20
0.1013774995450916
 30
0.0
 11
-3.249774882017739
 21
0.1126318978316919
 31
0.0
1001
REVIT
1002
{
1070
     1
1000
158160
1002
}
1002
{
1070
     2
1000
-2000051
1002
}
1002
{
1070
     3
1000
-2000287
1002
}
  0
LINE
  5
895
330
824
100
AcDbEntity
  8
Pressure_Balance_Rough_Valve-GROHE-35115000
100
AcDbLine
 10
-3.249774882017739
 20
0.1126318978316919
 30
0.0
 11
-3.249099888211697
 21
0.1238682914818439
 31
0.0
1001
REVIT
1002
{
1070
     1
1000
158160
1002
}
1002
{
1070
     2
1000
-2000051
1002
}
1002
{
1070
     3
1000
-2000287
1002
}
  0
LINE
  5
896
330
824
100
AcDbEntity
  8
Pressure_Balance_Rough_Valve-GROHE-35115000
100
AcDbLine
 10
-3.249099888211697
 20
0.1238682914818439
 30
0.0
 11
-3.247976098427977
 21
0.1350687046626768
 31
0.0
1001
REVIT
1002
{
1070
     1
1000
158160
1002
}
1002
{
1070
     2
1000
-2000051
1002
}
1002
{
1070
     3
1000
-2000287
1002
}
  0
LINE
  5
897
330
824
100
AcDbEntity
  8
Pressure_Balance_Rough_Valve-GROHE-35115000
100
AcDbLine
 10
-3.247976098427977
 20
0.1350687046626768
 30
0.0
 11
-3.246405310490501
 21
0.1462152191023949
 31
0.0
1001
REVIT
1002
{
1070
     1
1000
158160
1002
}
1002
{
1070
     2
1000
-2000051
1002
}
1002
{
1070
     3
1000
-2000287
1002
}
  0
LINE
  5
898
330
824
100
AcDbEntity
  8
Pressure_Balance_Rough_Valve-GROHE-35115000
100
AcDbLine
 10
-3.246405310490501
 20
0.1462152191023949
 30
0.0
 11
-3.244390037324889
 21
0.1572900027556919
 31
0.0
1001
REVIT
1002
{
1070
     1
1000
158160
1002
}
1002
{
1070
     2
1000
-2000051
1002
}
1002
{
1070
     3
1000
-2000287
1002
}
  0
LINE
  5
899
330
824
100
AcDbEntity
  8
Pressure_Balance_Rough_Valve-GROHE-35115000
100
AcDbLine
 10
-3.244390037324889
 20
0.1572900027556919
 30
0.0
 11
-3.241933502938302
 21
0.1682753383312163
 31
0.0
1001
REVIT
1002
{
1070
     1
1000
158160
1002
}
1002
{
1070
     2
1000
-2000051
1002
}
1002
{
1070
     3
1000
-2000287
1002
}
  0
LINE
  5
89A
330
824
100
AcDbEntity
  8
Pressure_Balance_Rough_Valve-GROHE-35115000
100
AcDbLine
 10
-3.241933502938302
 20
0.1682753383312163
 30
0.0
 11
-3.239039637261725
 21
0.1791536516354606
 31
0.0
1001
REVIT
1002
{
1070
     1
1000
158160
1002
}
1002
{
1070
     2
1000
-2000051
1002
}
1002
{
1070
     3
1000
-2000287
1002
}
  0
LINE
  5
89B
330
824
100
AcDbEntity
  8
Pressure_Balance_Rough_Valve-GROHE-35115000
100
AcDbLine
 10
-3.239039637261725
 20
0.1791536516354606
 30
0.0
 11
-3.235713069862917
 21
0.1899075396877216
 31
0.0
1001
REVIT
1002
{
1070
     1
1000
158160
1002
}
1002
{
1070
     2
1000
-2000051
1002
}
1002
{
1070
     3
1000
-2000287
1002
}
  0
LINE
  5
89C
330
824
100
AcDbEntity
  8
Pressure_Balance_Rough_Valve-GROHE-35115000
100
AcDbLine
 10
-3.235713069862917
 20
0.1899075396877216
 30
0.0
 11
-3.231959122540085
 21
0.2005197985611554
 31
0.0
1001
REVIT
1002
{
1070
     1
1000
158160
1002
}
1002
{
1070
     2
1000
-2000051
1002
}
1002
{
1070
     3
1000
-2000287
1002
}
  0
LINE
  5
89D
330
824
100
AcDbEntity
  8
Pressure_Balance_Rough_Valve-GROHE-35115000
100
AcDbLine
 10
-3.231959122540085
 20
0.2005197985611554
 30
0.0
 11
-3.227783800808146
 21
0.2109734509053927
 31
0.0
1001
REVIT
1002
{
1070
     1
1000
158160
1002
}
1002
{
1070
     2
1000
-2000051
1002
}
1002
{
1070
     3
1000
-2000287
1002
}
  0
LINE
  5
89E
330
824
100
AcDbEntity
  8
Pressure_Balance_Rough_Valve-GROHE-35115000
100
AcDbLine
 10
-3.227783800808146
 20
0.2109734509053927
 30
0.0
 11
-3.223193784291186
 21
0.2212517731066761
 31
0.0
1001
REVIT
1002
{
1070
     1
1000
158160
1002
}
1002
{
1070
     2
1000
-2000051
1002
}
1002
{
1070
     3
1000
-2000287
1002
}
  0
LINE
  5
89F
330
824
100
AcDbEntity
  8
Pressure_Balance_Rough_Valve-GROHE-35115000
100
AcDbLine
 10
-3.223193784291186
 20
0.2212517731066761
 30
0.0
 11
-3.218196416036478
 21
0.2313383220420755
 31
0.0
1001
REVIT
1002
{
1070
     1
1000
158160
1002
}
1002
{
1070
     2
1000
-2000051
1002
}
1002
{
1070
     3
1000
-2000287
1002
}
  0
LINE
  5
8A0
330
824
100
AcDbEntity
  8
Pressure_Balance_Rough_Valve-GROHE-35115000
100
AcDbLine
 10
-3.218196416036478
 20
0.2313383220420755
 30
0.0
 11
-3.212799690767182
 21
0.2412169613849766
 31
0.0
1001
REVIT
1002
{
1070
     1
1000
158160
1002
}
1002
{
1070
     2
1000
-2000051
1002
}
1002
{
1070
     3
1000
-2000287
1002
}
  0
LINE
  5
8A1
330
824
100
AcDbEntity
  8
Pressure_Balance_Rough_Valve-GROHE-35115000
100
AcDbLine
 10
-3.212799690767182
 20
0.2412169613849766
 30
0.0
 11
-3.20701224209249
 21
0.2508718874197616
 31
0.0
1001
REVIT
1002
{
1070
     1
1000
158160
1002
}
1002
{
1070
     2
1000
-2000051
1002
}
1002
{
1070
     3
1000
-2000287
1002
}
  0
LINE
  5
8A2
330
824
100
AcDbEntity
  8
Pressure_Balance_Rough_Valve-GROHE-35115000
100
AcDbLine
 10
-3.20701224209249
 20
0.2508718874197616
 30
0.0
 11
-3.200843328695689
 21
0.2602876543243818
 31
0.0
1001
REVIT
1002
{
1070
     1
1000
158160
1002
}
1002
{
1070
     2
1000
-2000051
1002
}
1002
{
1070
     3
1000
-2000287
1002
}
  0
LINE
  5
8A3
330
824
100
AcDbEntity
  8
Pressure_Balance_Rough_Valve-GROHE-35115000
100
AcDbLine
 10
-3.200843328695689
 20
0.2602876543243818
 30
0.0
 11
-3.194302819522252
 21
0.2694491988803807
 31
0.0
1001
REVIT
1002
{
1070
     1
1000
158160
1002
}
1002
{
1070
     2
1000
-2000051
1002
}
1002
{
1070
     3
1000
-2000287
1002
}
  0
LINE
  5
8A4
330
824
100
AcDbEntity
  8
Pressure_Balance_Rough_Valve-GROHE-35115000
100
AcDbLine
 10
-3.194302819522252
 20
0.2694491988803807
 30
0.0
 11
-3.18740117799162
 21
0.2783418645708263
 31
0.0
1001
REVIT
1002
{
1070
     1
1000
158160
1002
}
1002
{
1070
     2
1000
-2000051
1002
}
1002
{
1070
     3
1000
-2000287
1002
}
  0
LINE
  5
8A5
330
824
100
AcDbEntity
  8
Pressure_Balance_Rough_Valve-GROHE-35115000
100
AcDbLine
 10
-3.18740117799162
 20
0.2783418645708263
 30
0.0
 11
-3.180149445257971
 21
0.2869514250276156
 31
0.0
1001
REVIT
1002
{
1070
     1
1000
158160
1002
}
1002
{
1070
     2
1000
-2000051
1002
}
1002
{
1070
     3
1000
-2000287
1002
}
  0
LINE
  5
8A6
330
824
100
AcDbEntity
  8
Pressure_Balance_Rough_Valve-GROHE-35115000
100
AcDbLine
 10
-3.180149445257971
 20
0.2869514250276156
 30
0.0
 11
-3.172559222546728
 21
0.2952641067906254
 31
0.0
1001
REVIT
1002
{
1070
     1
1000
158160
1002
}
1002
{
1070
     2
1000
-2000051
1002
}
1002
{
1070
     3
1000
-2000287
1002
}
  0
LINE
  5
8A7
330
824
100
AcDbEntity
  8
Pressure_Balance_Rough_Valve-GROHE-35115000
100
AcDbLine
 10
-3.172559222546728
 20
0.2952641067906254
 30
0.0
 11
-3.164642652595063
 21
0.3032666113423129
 31
0.0
1001
REVIT
1002
{
1070
     1
1000
158160
1002
}
1002
{
1070
     2
1000
-2000051
1002
}
1002
{
1070
     3
1000
-2000287
1002
}
  0
LINE
  5
8A8
330
824
100
AcDbEntity
  8
Pressure_Balance_Rough_Valve-GROHE-35115000
100
AcDbLine
 10
-3.164642652595063
 20
0.3032666113423129
 30
0.0
 11
-3.156412400226123
 21
0.3109461363825048
 31
0.0
1001
REVIT
1002
{
1070
     1
1000
158160
1002
}
1002
{
1070
     2
1000
-2000051
1002
}
1002
{
1070
     3
1000
-2000287
1002
}
  0
LINE
  5
8A9
330
824
100
AcDbEntity
  8
Pressure_Balance_Rough_Valve-GROHE-35115000
100
AcDbLine
 10
-3.156412400226123
 20
0.3109461363825048
 30
0.0
 11
-3.147881632088006
 21
0.3182903963093482
 31
0.0
1001
REVIT
1002
{
1070
     1
1000
158160
1002
}
1002
{
1070
     2
1000
-2000051
1002
}
1002
{
1070
     3
1000
-2000287
1002
}
  0
LINE
  5
8AA
330
824
100
AcDbEntity
  8
Pressure_Balance_Rough_Valve-GROHE-35115000
100
AcDbLine
 10
-3.147881632088006
 20
0.3182903963093482
 30
0.0
 11
-3.13906399558993
 21
0.3252876418736525
 31
0.0
1001
REVIT
1002
{
1070
     1
1000
158160
1002
}
1002
{
1070
     2
1000
-2000051
1002
}
1002
{
1070
     3
1000
-2000287
1002
}
  0
LINE
  5
8AB
330
824
100
AcDbEntity
  8
Pressure_Balance_Rough_Valve-GROHE-35115000
100
AcDbLine
 10
-3.13906399558993
 20
0.3252876418736525
 30
0.0
 11
-3.129973597069297
 21
0.3319266789751805
 31
0.0
1001
REVIT
1002
{
1070
     1
1000
158160
1002
}
1002
{
1070
     2
1000
-2000051
1002
}
1002
{
1070
     3
1000
-2000287
1002
}
  0
LINE
  5
8AC
330
824
100
AcDbEntity
  8
Pressure_Balance_Rough_Valve-GROHE-35115000
100
AcDbLine
 10
-3.129973597069297
 20
0.3319266789751805
 30
0.0
 11
-3.120624979224561
 21
0.3381968865708222
 31
0.0
1001
REVIT
1002
{
1070
     1
1000
158160
1002
}
1002
{
1070
     2
1000
-2000051
1002
}
1002
{
1070
     3
1000
-2000287
1002
}
  0
LINE
  5
8AD
330
824
100
AcDbEntity
  8
Pressure_Balance_Rough_Valve-GROHE-35115000
100
AcDbLine
 10
-3.120624979224561
 20
0.3381968865708222
 30
0.0
 11
-3.111033097850006
 21
0.3440882336659976
 31
0.0
1001
REVIT
1002
{
1070
     1
1000
158160
1002
}
1002
{
1070
     2
1000
-2000051
1002
}
1002
{
1070
     3
1000
-2000287
1002
}
  0
LINE
  5
8AE
330
824
100
AcDbEntity
  8
Pressure_Balance_Rough_Valve-GROHE-35115000
100
AcDbLine
 10
-3.111033097850006
 20
0.3440882336659976
 30
0.0
 11
-3.101213297909672
 21
0.349591295362108
 31
0.0
1001
REVIT
1002
{
1070
     1
1000
158160
1002
}
1002
{
1070
     2
1000
-2000051
1002
}
1002
{
1070
     3
1000
-2000287
1002
}
  0
LINE
  5
8AF
330
824
100
AcDbEntity
  8
Pressure_Balance_Rough_Valve-GROHE-35115000
100
AcDbLine
 10
-3.101213297909672
 20
0.349591295362108
 30
0.0
 11
-3.091181288988686
 21
0.3546972679343635
 31
0.0
1001
REVIT
1002
{
1070
     1
1000
158160
1002
}
1002
{
1070
     2
1000
-2000051
1002
}
1002
{
1070
     3
1000
-2000287
1002
}
  0
LINE
  5
8B0
330
824
100
AcDbEntity
  8
Pressure_Balance_Rough_Valve-GROHE-35115000
100
AcDbLine
 10
-3.091181288988686
 20
0.3546972679343635
 30
0.0
 11
-3.080953120161273
 21
0.359397982915865
 31
0.0
1001
REVIT
1002
{
1070
     1
1000
158160
1002
}
1002
{
1070
     2
1000
-2000051
1002
}
1002
{
1070
     3
1000
-2000287
1002
}
  0
LINE
  5
8B1
330
824
100
AcDbEntity
  8
Pressure_Balance_Rough_Valve-GROHE-35115000
100
AcDbLine
 10
-3.080953120161273
 20
0.359397982915865
 30
0.0
 11
-3.070545154315666
 21
0.363685920165407
 31
0.0
1001
REVIT
1002
{
1070
     1
1000
158160
1002
}
1002
{
1070
     2
1000
-2000051
1002
}
1002
{
1070
     3
1000
-2000287
1002
}
  0
LINE
  5
8B2
330
824
100
AcDbEntity
  8
Pressure_Balance_Rough_Valve-GROHE-35115000
100
AcDbLine
 10
-3.070545154315666
 20
0.363685920165407
 30
0.0
 11
-3.059974041976966
 21
0.3675542198981021
 31
0.0
1001
REVIT
1002
{
1070
     1
1000
158160
1002
}
1002
{
1070
     2
1000
-2000051
1002
}
1002
{
1070
     3
1000
-2000287
1002
}
  0
LINE
  5
8B3
330
824
100
AcDbEntity
  8
Pressure_Balance_Rough_Valve-GROHE-35115000
100
AcDbLine
 10
-3.059974041976966
 20
0.3675542198981021
 30
0.0
 11
-3.049256694669867
 21
0.370996693659571
 31
0.0
1001
REVIT
1002
{
1070
     1
1000
158160
1002
}
1002
{
1070
     2
1000
-2000051
1002
}
1002
{
1070
     3
1000
-2000287
1002
}
  0
LINE
  5
8B4
330
824
100
AcDbEntity
  8
Pressure_Balance_Rough_Valve-GROHE-35115000
100
AcDbLine
 10
-3.049256694669867
 20
0.370996693659571
 30
0.0
 11
-3.038410257863815
 21
0.3740078342261502
 31
0.0
1001
REVIT
1002
{
1070
     1
1000
158160
1002
}
1002
{
1070
     2
1000
-2000051
1002
}
1002
{
1070
     3
1000
-2000287
1002
}
  0
LINE
  5
8B5
330
824
100
AcDbEntity
  8
Pressure_Balance_Rough_Valve-GROHE-35115000
100
AcDbLine
 10
-3.038410257863815
 20
0.3740078342261502
 30
0.0
 11
-3.027452083543917
 21
0.3765828244152764
 31
0.0
1001
REVIT
1002
{
1070
     1
1000
158160
1002
}
1002
{
1070
     2
1000
-2000051
1002
}
1002
{
1070
     3
1000
-2000287
1002
}
  0
LINE
  5
8B6
330
824
100
AcDbEntity
  8
Pressure_Balance_Rough_Valve-GROHE-35115000
100
AcDbLine
 10
-3.027452083543917
 20
0.3765828244152764
 30
0.0
 11
-3.016399702451466
 21
0.3787175447919482
 31
0.0
1001
REVIT
1002
{
1070
     1
1000
158160
1002
}
1002
{
1070
     2
1000
-2000051
1002
}
1002
{
1070
     3
1000
-2000287
1002
}
  0
LINE
  5
8B7
330
824
100
AcDbEntity
  8
Pressure_Balance_Rough_Valve-GROHE-35115000
100
AcDbLine
 10
-3.016399702451466
 20
0.3787175447919482
 30
0.0
 11
-3.005270796038492
 21
0.3804085802589461
 31
0.0
1001
REVIT
1002
{
1070
     1
1000
158160
1002
}
1002
{
1070
     2
1000
-2000051
1002
}
1002
{
1070
     3
1000
-2000287
1002
}
  0
LINE
  5
8B8
330
824
100
AcDbEntity
  8
Pressure_Balance_Rough_Valve-GROHE-35115000
100
AcDbLine
 10
-3.005270796038492
 20
0.3804085802589461
 30
0.0
 11
-2.994083168181217
 21
0.3816532255202578
 31
0.0
1001
REVIT
1002
{
1070
     1
1000
158160
1002
}
1002
{
1070
     2
1000
-2000051
1002
}
1002
{
1070
     3
1000
-2000287
1002
}
  0
LINE
  5
8B9
330
824
100
AcDbEntity
  8
Pressure_Balance_Rough_Valve-GROHE-35115000
100
AcDbLine
 10
-2.994083168181217
 20
0.3816532255202578
 30
0.0
 11
-2.982854716697646
 21
0.382449489408975
 31
0.0
1001
REVIT
1002
{
1070
     1
1000
158160
1002
}
1002
{
1070
     2
1000
-2000051
1002
}
1002
{
1070
     3
1000
-2000287
1002
}
  0
LINE
  5
8BA
330
824
100
AcDbEntity
  8
Pressure_Balance_Rough_Valve-GROHE-35115000
100
AcDbLine
 10
-2.982854716697646
 20
0.382449489408975
 30
0.0
 11
-2.971603404714878
 21
0.3827960980727369
 31
0.0
1001
REVIT
1002
{
1070
     1
1000
158160
1002
}
1002
{
1070
     2
1000
-2000051
1002
}
1002
{
1070
     3
1000
-2000287
1002
}
  0
LINE
  5
8BB
330
824
100
AcDbEntity
  8
Pressure_Balance_Rough_Valve-GROHE-35115000
100
AcDbLine
 10
-2.971603404714878
 20
0.3827960980727369
 30
0.0
 11
-2.96856499950524
 21
0.382812500039845
 31
0.0
1001
REVIT
1002
{
1070
     1
1000
158160
1002
}
1002
{
1070
     2
1000
-2000051
1002
}
1002
{
1070
     3
1000
-2000287
1002
}
  0
LINE
  5
8BC
330
824
100
AcDbEntity
  8
Pressure_Balance_Rough_Valve-GROHE-35115000
100
AcDbLine
 10
-3.024477502715841
 20
-0.3772025373633752
 30
0.0
 11
-3.035462838291366
 21
-0.3747460029767878
 31
0.0
1001
REVIT
1002
{
1070
     1
1000
158160
1002
}
1002
{
1070
     2
1000
-2000051
1002
}
1002
{
1070
     3
1000
-2000287
1002
}
  0
LINE
  5
8BD
330
824
100
AcDbEntity
  8
Pressure_Balance_Rough_Valve-GROHE-35115000
100
AcDbLine
 10
-3.035462838291366
 20
-0.3747460029767878
 30
0.0
 11
-3.04634115159561
 21
-0.371852137300211
 31
0.0
1001
REVIT
1002
{
1070
     1
1000
158160
1002
}
1002
{
1070
     2
1000
-2000051
1002
}
1002
{
1070
     3
1000
-2000287
1002
}
  0
LINE
  5
8BE
330
824
100
AcDbEntity
  8
Pressure_Balance_Rough_Valve-GROHE-35115000
100
AcDbLine
 10
-3.04634115159561
 20
-0.371852137300211
 30
0.0
 11
-3.057095039647871
 21
-0.3685255699014035
 31
0.0
1001
REVIT
1002
{
1070
     1
1000
158160
1002
}
1002
{
1070
     2
1000
-2000051
1002
}
1002
{
1070
     3
1000
-2000287
1002
}
  0
LINE
  5
8BF
330
824
100
AcDbEntity
  8
Pressure_Balance_Rough_Valve-GROHE-35115000
100
AcDbLine
 10
-3.057095039647871
 20
-0.3685255699014035
 30
0.0
 11
-3.067707298521306
 21
-0.3647716225785716
 31
0.0
1001
REVIT
1002
{
1070
     1
1000
158160
1002
}
1002
{
1070
     2
1000
-2000051
1002
}
1002
{
1070
     3
1000
-2000287
1002
}
  0
LINE
  5
8C0
330
824
100
AcDbEntity
  8
Pressure_Balance_Rough_Valve-GROHE-35115000
100
AcDbLine
 10
-3.067707298521306
 20
-0.3647716225785716
 30
0.0
 11
-3.078160950865542
 21
-0.3605963008466345
 31
0.0
1001
REVIT
1002
{
1070
     1
1000
158160
1002
}
1002
{
1070
     2
1000
-2000051
1002
}
1002
{
1070
     3
1000
-2000287
1002
}
  0
LINE
  5
8C1
330
824
100
AcDbEntity
  8
Pressure_Balance_Rough_Valve-GROHE-35115000
100
AcDbLine
 10
-3.078160950865542
 20
-0.3605963008466345
 30
0.0
 11
-3.088439273066826
 21
-0.3560062843296736
 31
0.0
1001
REVIT
1002
{
1070
     1
1000
158160
1002
}
1002
{
1070
     2
1000
-2000051
1002
}
1002
{
1070
     3
1000
-2000287
1002
}
  0
LINE
  5
8C2
330
824
100
AcDbEntity
  8
Pressure_Balance_Rough_Valve-GROHE-35115000
100
AcDbLine
 10
-3.088439273066826
 20
-0.3560062843296736
 30
0.0
 11
-3.098525822002226
 21
-0.3510089160749662
 31
0.0
1001
REVIT
1002
{
1070
     1
1000
158160
1002
}
1002
{
1070
     2
1000
-2000051
1002
}
1002
{
1070
     3
1000
-2000287
1002
}
  0
LINE
  5
8C3
330
824
100
AcDbEntity
  8
Pressure_Balance_Rough_Valve-GROHE-35115000
100
AcDbLine
 10
-3.098525822002226
 20
-0.3510089160749662
 30
0.0
 11
-3.108404461345127
 21
-0.3456121908056704
 31
0.0
1001
REVIT
1002
{
1070
     1
1000
158160
1002
}
1002
{
1070
     2
1000
-2000051
1002
}
1002
{
1070
     3
1000
-2000287
1002
}
  0
LINE
  5
8C4
330
824
100
AcDbEntity
  8
Pressure_Balance_Rough_Valve-GROHE-35115000
100
AcDbLine
 10
-3.108404461345127
 20
-0.3456121908056704
 30
0.0
 11
-3.118059387379911
 21
-0.3398247421309781
 31
0.0
1001
REVIT
1002
{
1070
     1
1000
158160
1002
}
1002
{
1070
     2
1000
-2000051
1002
}
1002
{
1070
     3
1000
-2000287
1002
}
  0
LINE
  5
8C5
330
824
100
AcDbEntity
  8
Pressure_Balance_Rough_Valve-GROHE-35115000
100
AcDbLine
 10
-3.118059387379911
 20
-0.3398247421309781
 30
0.0
 11
-3.127475154284533
 21
-0.3336558287341774
 31
0.0
1001
REVIT
1002
{
1070
     1
1000
158160
1002
}
1002
{
1070
     2
1000
-2000051
1002
}
1002
{
1070
     3
1000
-2000287
1002
}
  0
LINE
  5
8C6
330
824
100
AcDbEntity
  8
Pressure_Balance_Rough_Valve-GROHE-35115000
100
AcDbLine
 10
-3.127475154284533
 20
-0.3336558287341774
 30
0.0
 11
-3.136636698840531
 21
-0.3271153195607405
 31
0.0
1001
REVIT
1002
{
1070
     1
1000
158160
1002
}
1002
{
1070
     2
1000
-2000051
1002
}
1002
{
1070
     3
1000
-2000287
1002
}
  0
LINE
  5
8C7
330
824
100
AcDbEntity
  8
Pressure_Balance_Rough_Valve-GROHE-35115000
100
AcDbLine
 10
-3.136636698840531
 20
-0.3271153195607405
 30
0.0
 11
-3.145529364530978
 21
-0.3202136780301092
 31
0.0
1001
REVIT
1002
{
1070
     1
1000
158160
1002
}
1002
{
1070
     2
1000
-2000051
1002
}
1002
{
1070
     3
1000
-2000287
1002
}
  0
LINE
  5
8C8
330
824
100
AcDbEntity
  8
Pressure_Balance_Rough_Valve-GROHE-35115000
100
AcDbLine
 10
-3.145529364530978
 20
-0.3202136780301092
 30
0.0
 11
-3.154138924987767
 21
-0.3129619452964614
 31
0.0
1001
REVIT
1002
{
1070
     1
1000
158160
1002
}
1002
{
1070
     2
1000
-2000051
1002
}
1002
{
1070
     3
1000
-2000287
1002
}
  0
LINE
  5
8C9
330
824
100
AcDbEntity
  8
Pressure_Balance_Rough_Valve-GROHE-35115000
100
AcDbLine
 10
-3.154138924987767
 20
-0.3129619452964614
 30
0.0
 11
-3.162451606750777
 21
-0.3053717225852171
 31
0.0
1001
REVIT
1002
{
1070
     1
1000
158160
1002
}
1002
{
1070
     2
1000
-2000051
1002
}
1002
{
1070
     3
1000
-2000287
1002
}
  0
LINE
  5
8CA
330
824
100
AcDbEntity
  8
Pressure_Balance_Rough_Valve-GROHE-35115000
100
AcDbLine
 10
-3.162451606750777
 20
-0.3053717225852171
 30
0.0
 11
-3.170454111302465
 21
-0.2974551526335529
 31
0.0
1001
REVIT
1002
{
1070
     1
1000
158160
1002
}
1002
{
1070
     2
1000
-2000051
1002
}
1002
{
1070
     3
1000
-2000287
1002
}
  0
LINE
  5
8CB
330
824
100
AcDbEntity
  8
Pressure_Balance_Rough_Valve-GROHE-35115000
100
AcDbLine
 10
-3.170454111302465
 20
-0.2974551526335529
 30
0.0
 11
-3.178133636342656
 21
-0.2892249002646139
 31
0.0
1001
REVIT
1002
{
1070
     1
1000
158160
1002
}
1002
{
1070
     2
1000
-2000051
1002
}
1002
{
1070
     3
1000
-2000287
1002
}
  0
LINE
  5
8CC
330
824
100
AcDbEntity
  8
Pressure_Balance_Rough_Valve-GROHE-35115000
100
AcDbLine
 10
-3.178133636342656
 20
-0.2892249002646139
 30
0.0
 11
-3.185477896269501
 21
-0.2806941321264959
 31
0.0
1001
REVIT
1002
{
1070
     1
1000
158160
1002
}
1002
{
1070
     2
1000
-2000051
1002
}
1002
{
1070
     3
1000
-2000287
1002
}
  0
LINE
  5
8CD
330
824
100
AcDbEntity
  8
Pressure_Balance_Rough_Valve-GROHE-35115000
100
AcDbLine
 10
-3.185477896269501
 20
-0.2806941321264959
 30
0.0
 11
-3.192475141833805
 21
-0.2718764956284208
 31
0.0
1001
REVIT
1002
{
1070
     1
1000
158160
1002
}
1002
{
1070
     2
1000
-2000051
1002
}
1002
{
1070
     3
1000
-2000287
1002
}
  0
LINE
  5
8CE
330
824
100
AcDbEntity
  8
Pressure_Balance_Rough_Valve-GROHE-35115000
100
AcDbLine
 10
-3.192475141833805
 20
-0.2718764956284208
 30
0.0
 11
-3.199114178935333
 21
-0.2627860971077887
 31
0.0
1001
REVIT
1002
{
1070
     1
1000
158160
1002
}
1002
{
1070
     2
1000
-2000051
1002
}
1002
{
1070
     3
1000
-2000287
1002
}
  0
LINE
  5
8CF
330
824
100
AcDbEntity
  8
Pressure_Balance_Rough_Valve-GROHE-35115000
100
AcDbLine
 10
-3.199114178935333
 20
-0.2627860971077887
 30
0.0
 11
-3.205384386530976
 21
-0.2534374792630524
 31
0.0
1001
REVIT
1002
{
1070
     1
1000
158160
1002
}
1002
{
1070
     2
1000
-2000051
1002
}
1002
{
1070
     3
1000
-2000287
1002
}
  0
LINE
  5
8D0
330
824
100
AcDbEntity
  8
Pressure_Balance_Rough_Valve-GROHE-35115000
100
AcDbLine
 10
-3.205384386530976
 20
-0.2534374792630524
 30
0.0
 11
-3.211275733626151
 21
-0.2438455978884973
 31
0.0
1001
REVIT
1002
{
1070
     1
1000
158160
1002
}
1002
{
1070
     2
1000
-2000051
1002
}
1002
{
1070
     3
1000
-2000287
1002
}
  0
LINE
  5
8D1
330
824
100
AcDbEntity
  8
Pressure_Balance_Rough_Valve-GROHE-35115000
100
AcDbLine
 10
-3.211275733626151
 20
-0.2438455978884973
 30
0.0
 11
-3.216778795322261
 21
-0.2340257979481641
 31
0.0
1001
REVIT
1002
{
1070
     1
1000
158160
1002
}
1002
{
1070
     2
1000
-2000051
1002
}
1002
{
1070
     3
1000
-2000287
1002
}
  0
LINE
  5
8D2
330
824
100
AcDbEntity
  8
Pressure_Balance_Rough_Valve-GROHE-35115000
100
AcDbLine
 10
-3.216778795322261
 20
-0.2340257979481641
 30
0.0
 11
-3.221884767894518
 21
-0.2239937890271781
 31
0.0
1001
REVIT
1002
{
1070
     1
1000
158160
1002
}
1002
{
1070
     2
1000
-2000051
1002
}
1002
{
1070
     3
1000
-2000287
1002
}
  0
LINE
  5
8D3
330
824
100
AcDbEntity
  8
Pressure_Balance_Rough_Valve-GROHE-35115000
100
AcDbLine
 10
-3.221884767894518
 20
-0.2239937890271781
 30
0.0
 11
-3.22658548287602
 21
-0.2137656201997653
 31
0.0
1001
REVIT
1002
{
1070
     1
1000
158160
1002
}
1002
{
1070
     2
1000
-2000051
1002
}
1002
{
1070
     3
1000
-2000287
1002
}
  0
LINE
  5
8D4
330
824
100
AcDbEntity
  8
Pressure_Balance_Rough_Valve-GROHE-35115000
100
AcDbLine
 10
-3.22658548287602
 20
-0.2137656201997653
 30
0.0
 11
-3.230873420125562
 21
-0.203357654354157
 31
0.0
1001
REVIT
1002
{
1070
     1
1000
158160
1002
}
1002
{
1070
     2
1000
-2000051
1002
}
1002
{
1070
     3
1000
-2000287
1002
}
  0
LINE
  5
8D5
330
824
100
AcDbEntity
  8
Pressure_Balance_Rough_Valve-GROHE-35115000
100
AcDbLine
 10
-3.230873420125562
 20
-0.203357654354157
 30
0.0
 11
-3.234741719858257
 21
-0.1927865420154579
 31
0.0
1001
REVIT
1002
{
1070
     1
1000
158160
1002
}
1002
{
1070
     2
1000
-2000051
1002
}
1002
{
1070
     3
1000
-2000287
1002
}
  0
LINE
  5
8D6
330
824
100
AcDbEntity
  8
Pressure_Balance_Rough_Valve-GROHE-35115000
100
AcDbLine
 10
-3.234741719858257
 20
-0.1927865420154579
 30
0.0
 11
-3.238184193619726
 21
-0.1820691947083596
 31
0.0
1001
REVIT
1002
{
1070
     1
1000
158160
1002
}
1002
{
1070
     2
1000
-2000051
1002
}
1002
{
1070
     3
1000
-2000287
1002
}
  0
LINE
  5
8D7
330
824
100
AcDbEntity
  8
Pressure_Balance_Rough_Valve-GROHE-35115000
100
AcDbLine
 10
-3.238184193619726
 20
-0.1820691947083596
 30
0.0
 11
-3.241195334186306
 21
-0.171222757902308
 31
0.0
1001
REVIT
1002
{
1070
     1
1000
158160
1002
}
1002
{
1070
     2
1000
-2000051
1002
}
1002
{
1070
     3
1000
-2000287
1002
}
  0
LINE
  5
8D8
330
824
100
AcDbEntity
  8
Pressure_Balance_Rough_Valve-GROHE-35115000
100
AcDbLine
 10
-3.241195334186306
 20
-0.171222757902308
 30
0.0
 11
-3.243770324375432
 21
-0.1602645835824099
 31
0.0
1001
REVIT
1002
{
1070
     1
1000
158160
1002
}
1002
{
1070
     2
1000
-2000051
1002
}
1002
{
1070
     3
1000
-2000287
1002
}
  0
LINE
  5
8D9
330
824
100
AcDbEntity
  8
Pressure_Balance_Rough_Valve-GROHE-35115000
100
AcDbLine
 10
-3.243770324375432
 20
-0.1602645835824099
 30
0.0
 11
-3.245905044752104
 21
-0.1492122024899583
 31
0.0
1001
REVIT
1002
{
1070
     1
1000
158160
1002
}
1002
{
1070
     2
1000
-2000051
1002
}
1002
{
1070
     3
1000
-2000287
1002
}
  0
LINE
  5
8DA
330
824
100
AcDbEntity
  8
Pressure_Balance_Rough_Valve-GROHE-35115000
100
AcDbLine
 10
-3.245905044752104
 20
-0.1492122024899583
 30
0.0
 11
-3.247596080219103
 21
-0.1380832960769845
 31
0.0
1001
REVIT
1002
{
1070
     1
1000
158160
1002
}
1002
{
1070
     2
1000
-2000051
1002
}
1002
{
1070
     3
1000
-2000287
1002
}
  0
LINE
  5
8DB
330
824
100
AcDbEntity
  8
Pressure_Balance_Rough_Valve-GROHE-35115000
100
AcDbLine
 10
-3.247596080219103
 20
-0.1380832960769845
 30
0.0
 11
-3.248840725480415
 21
-0.1268956682197101
 31
0.0
1001
REVIT
1002
{
1070
     1
1000
158160
1002
}
1002
{
1070
     2
1000
-2000051
1002
}
1002
{
1070
     3
1000
-2000287
1002
}
  0
LINE
  5
8DC
330
824
100
AcDbEntity
  8
Pressure_Balance_Rough_Valve-GROHE-35115000
100
AcDbLine
 10
-3.248840725480415
 20
-0.1268956682197101
 30
0.0
 11
-3.249636989369132
 21
-0.1156672167361397
 31
0.0
1001
REVIT
1002
{
1070
     1
1000
158160
1002
}
1002
{
1070
     2
1000
-2000051
1002
}
1002
{
1070
     3
1000
-2000287
1002
}
  0
LINE
  5
8DD
330
824
100
AcDbEntity
  8
Pressure_Balance_Rough_Valve-GROHE-35115000
100
AcDbLine
 10
-3.249636989369132
 20
-0.1156672167361397
 30
0.0
 11
-3.249983598032895
 21
-0.1044159047533718
 31
0.0
1001
REVIT
1002
{
1070
     1
1000
158160
1002
}
1002
{
1070
     2
1000
-2000051
1002
}
1002
{
1070
     3
1000
-2000287
1002
}
  0
LINE
  5
8DE
330
824
100
AcDbEntity
  8
Pressure_Balance_Rough_Valve-GROHE-35115000
100
AcDbLine
 10
-3.249983598032895
 20
-0.1044159047533718
 30
0.0
 11
-3.250000000000003
 21
-0.1013774995437333
 31
0.0
1001
REVIT
1002
{
1070
     1
1000
158160
1002
}
1002
{
1070
     2
1000
-2000051
1002
}
1002
{
1070
     3
1000
-2000287
1002
}
  0
LINE
  5
8DF
330
824
100
AcDbEntity
  8
Pressure_Balance_Rough_Valve-GROHE-35115000
100
AcDbLine
 10
-3.250000000000003
 20
-0.101377499543727
 30
0.0
 11
-3.250000000000003
 21
0.1013774995450846
 31
0.0
1001
REVIT
1002
{
1070
     1
1000
158160
1002
}
1002
{
1070
     2
1000
-2000051
1002
}
1002
{
1070
     3
1000
-2000287
1002
}
  0
LINE
  5
8E0
330
824
100
AcDbEntity
  8
Pressure_Balance_Rough_Valve-GROHE-35115000
100
AcDbLine
 10
1.812500000000022
 20
-0.5000000000383372
 30
0.0
 11
1.812500000000022
 21
0.5000000000396965
 31
0.0
1001
REVIT
1002
{
1070
     1
1000
158160
1002
}
1002
{
1070
     2
1000
-2000051
1002
}
1002
{
1070
     3
1000
-2000287
1002
}
  0
LINE
  5
8E1
330
824
100
AcDbEntity
  8
Pressure_Balance_Rough_Valve-GROHE-35115000
100
AcDbLine
 10
-1.812500000000034
 20
0.5000000000396965
 30
0.0
 11
-1.812500000000034
 21
-0.5000000000383372
 31
0.0
1001
REVIT
1002
{
1070
     1
1000
158160
1002
}
1002
{
1070
     2
1000
-2000051
1002
}
1002
{
1070
     3
1000
-2000287
1002
}
  0
LINE
  5
8E2
330
824
100
AcDbEntity
  8
Pressure_Balance_Rough_Valve-GROHE-35115000
100
AcDbLine
 10
2.427820338812358
 20
-0.3828125000584299
 30
0.0
 11
2.427820338812358
 21
0.3828125000597878
 31
0.0
1001
REVIT
1002
{
1070
     1
1000
158160
1002
}
1002
{
1070
     2
1000
-2000051
1002
}
1002
{
1070
     3
1000
-2000287
1002
}
  0
LINE
  5
8E3
330
824
100
AcDbEntity
  8
Pressure_Balance_Rough_Valve-GROHE-35115000
100
AcDbLine
 10
-2.341126045624271
 20
0.415409331349533
 30
0.0
 11
-2.341126045624271
 21
-0.4154093313481753
 31
0.0
1001
REVIT
1002
{
1070
     1
1000
158160
1002
}
1002
{
1070
     2
1000
-2000051
1002
}
1002
{
1070
     3
1000
-2000287
1002
}
  0
LINE
  5
8E4
330
824
100
AcDbEntity
  8
Pressure_Balance_Rough_Valve-GROHE-35115000
100
AcDbLine
 10
2.341126045624258
 20
0.4154093313494747
 30
0.0
 11
2.341126045624258
 21
-0.4154093313481163
 31
0.0
1001
REVIT
1002
{
1070
     1
1000
158160
1002
}
1002
{
1070
     2
1000
-2000051
1002
}
1002
{
1070
     3
1000
-2000287
1002
}
  0
LINE
  5
8E5
330
824
100
AcDbEntity
  8
Pressure_Balance_Rough_Valve-GROHE-35115000
100
AcDbLine
 10
-2.427820338812402
 20
0.3828125000398332
 30
0.0
 11
-2.427820338812402
 21
-0.3828125000384757
 31
0.0
1001
REVIT
1002
{
1070
     1
1000
158160
1002
}
1002
{
1070
     2
1000
-2000051
1002
}
1002
{
1070
     3
1000
-2000287
1002
}
  0
LINE
  5
8E6
330
824
100
AcDbEntity
  8
Pressure_Balance_Rough_Valve-GROHE-35115000
100
AcDbLine
 10
-0.3750000000161163
 20
1.812500000000652
 30
0.0
 11
-0.3750000000161177
 21
1.1769205505653
 31
0.0
1001
REVIT
1002
{
1070
     1
1000
160299
1002
}
1002
{
1070
     2
1000
-2000051
1002
}
1002
{
1070
     3
1000
-2000287
1002
}
  0
LINE
  5
8E7
330
824
100
AcDbEntity
  8
Pressure_Balance_Rough_Valve-GROHE-35115000
100
AcDbLine
 10
0.3750000000171063
 20
1.176920550565299
 30
0.0
 11
0.3750000000171076
 21
1.812500000000651
 31
0.0
1001
REVIT
1002
{
1070
     1
1000
160299
1002
}
1002
{
1070
     2
1000
-2000051
1002
}
1002
{
1070
     3
1000
-2000287
1002
}
  0
LINE
  5
8E8
330
824
100
AcDbEntity
  8
Pressure_Balance_Rough_Valve-GROHE-35115000
100
AcDbLine
 10
-0.492346826813154
 20
1.1769205505653
 30
0.0
 11
-0.492346826813154
 21
1.012943945858661
 31
0.0
1001
REVIT
1002
{
1070
     1
1000
160299
1002
}
1002
{
1070
     2
1000
-2000051
1002
}
1002
{
1070
     3
1000
-2000287
1002
}
  0
LINE
  5
8E9
330
824
100
AcDbEntity
  8
Pressure_Balance_Rough_Valve-GROHE-35115000
100
AcDbLine
 10
-0.4923468268131574
 20
-1.016652938734144
 30
0.0
 11
-0.4923468268131574
 21
-1.176920550563968
 31
0.0
1001
REVIT
1002
{
1070
     1
1000
160299
1002
}
1002
{
1070
     2
1000
-2000051
1002
}
1002
{
1070
     3
1000
-2000287
1002
}
  0
LINE
  5
8EA
330
824
100
AcDbEntity
  8
Pressure_Balance_Rough_Valve-GROHE-35115000
100
AcDbLine
 10
0.4923468268141387
 20
-1.17692055056397
 30
0.0
 11
0.4923468268141387
 21
-1.016652938733668
 31
0.0
1001
REVIT
1002
{
1070
     1
1000
160299
1002
}
1002
{
1070
     2
1000
-2000051
1002
}
1002
{
1070
     3
1000
-2000287
1002
}
  0
LINE
  5
8EB
330
824
100
AcDbEntity
  8
Pressure_Balance_Rough_Valve-GROHE-35115000
100
AcDbLine
 10
0.4923468268141434
 20
1.016652938734998
 30
0.0
 11
0.4923468268141434
 21
1.176920550565299
 31
0.0
1001
REVIT
1002
{
1070
     1
1000
160299
1002
}
1002
{
1070
     2
1000
-2000051
1002
}
1002
{
1070
     3
1000
-2000287
1002
}
  0
LINE
  5
8EC
330
824
100
AcDbEntity
  8
Pressure_Balance_Rough_Valve-GROHE-35115000
100
AcDbLine
 10
-0.3750000000160924
 20
-1.176920550563964
 30
0.0
 11
-0.375000000016093
 21
-1.812500000000001
 31
0.0
1001
REVIT
1002
{
1070
     1
1000
160299
1002
}
1002
{
1070
     2
1000
-2000051
1002
}
1002
{
1070
     3
1000
-2000287
1002
}
  0
LINE
  5
8ED
330
824
100
AcDbEntity
  8
Pressure_Balance_Rough_Valve-GROHE-35115000
100
AcDbLine
 10
0.375000000017073
 20
-1.812500000000001
 30
0.0
 11
0.3750000000170743
 21
-1.176920550563965
 31
0.0
1001
REVIT
1002
{
1070
     1
1000
160299
1002
}
1002
{
1070
     2
1000
-2000051
1002
}
1002
{
1070
     3
1000
-2000287
1002
}
  0
LINE
  5
8EE
330
824
100
AcDbEntity
  8
Pressure_Balance_Rough_Valve-GROHE-35115000
100
AcDbLine
 10
-0.3750000000161163
 20
1.812500000000651
 30
0.0
 11
0.3750000000171076
 21
1.81250000000065
 31
0.0
1001
REVIT
1002
{
1070
     1
1000
160299
1002
}
1002
{
1070
     2
1000
-2000051
1002
}
1002
{
1070
     3
1000
-2000287
1002
}
  0
LINE
  5
8EF
330
824
100
AcDbEntity
  8
Pressure_Balance_Rough_Valve-GROHE-35115000
100
AcDbLine
 10
0.375000000017073
 20
-1.812499999999998
 30
0.0
 11
-0.375000000016093
 21
-1.812499999999998
 31
0.0
1001
REVIT
1002
{
1070
     1
1000
160299
1002
}
1002
{
1070
     2
1000
-2000051
1002
}
1002
{
1070
     3
1000
-2000287
1002
}
  0
LINE
  5
8F0
330
824
100
AcDbEntity
  8
Pressure_Balance_Rough_Valve-GROHE-35115000
100
AcDbLine
 10
-0.4923468268131534
 20
1.176920550565299
 30
0.0
 11
0.4923468268141426
 21
1.176920550565298
 31
0.0
1001
REVIT
1002
{
1070
     1
1000
160299
1002
}
1002
{
1070
     2
1000
-2000051
1002
}
1002
{
1070
     3
1000
-2000287
1002
}
  0
LINE
  5
8F1
330
824
100
AcDbEntity
  8
Pressure_Balance_Rough_Valve-GROHE-35115000
100
AcDbLine
 10
-0.4923468268131571
 20
-1.176920550563966
 30
0.0
 11
0.4923468268141387
 21
-1.176920550563967
 31
0.0
1001
REVIT
1002
{
1070
     1
1000
160299
1002
}
1002
{
1070
     2
1000
-2000051
1002
}
1002
{
1070
     3
1000
-2000287
1002
}
  0
LINE
  5
8F2
330
824
100
AcDbEntity
  8
Pressure_Balance_Rough_Valve-GROHE-35115000
100
AcDbLine
 10
-2.595582414759482
 20
-1.130281122486616
 30
0.0
 11
-2.595582414759482
 21
-0.382812500038487
 31
0.0
1001
REVIT
1002
{
1070
     1
1000
188408
1002
}
1002
{
1070
     2
1000
-2000051
1002
}
1002
{
1070
     3
1000
-2000287
1002
}
  0
LINE
  5
8F3
330
824
100
AcDbEntity
  8
Pressure_Balance_Rough_Valve-GROHE-35115000
100
AcDbLine
 10
-3.029417585239547
 20
-0.3760978389671694
 30
0.0
 11
-3.029417585239547
 21
-1.130281122486616
 31
0.0
1001
REVIT
1002
{
1070
     1
1000
188408
1002
}
1002
{
1070
     2
1000
-2000051
1002
}
1002
{
1070
     3
1000
-2000287
1002
}
  0
LINE
  5
8F4
330
824
100
AcDbEntity
  8
Pressure_Balance_Rough_Valve-GROHE-35115000
100
AcDbLine
 10
-2.59558241475948
 20
-1.130281122486614
 30
0.0
 11
-3.029417585239545
 21
-1.130281122486614
 31
0.0
1001
REVIT
1002
{
1070
     1
1000
188408
1002
}
1002
{
1070
     2
1000
-2000051
1002
}
1002
{
1070
     3
1000
-2000287
1002
}
  0
LINE
  5
8F5
330
824
100
AcDbEntity
  8
Pressure_Balance_Rough_Valve-GROHE-35115000
100
AcDbLine
 10
2.595582414759482
 20
-0.3772025373633743
 30
0.0
 11
2.595582414759482
 21
-1.130281122486279
 31
0.0
1001
REVIT
1002
{
1070
     1
1000
193538
1002
}
1002
{
1070
     2
1000
-2000051
1002
}
1002
{
1070
     3
1000
-2000287
1002
}
  0
LINE
  5
8F6
330
824
100
AcDbEntity
  8
Pressure_Balance_Rough_Valve-GROHE-35115000
100
AcDbLine
 10
3.029417585239524
 20
-1.130281122486279
 30
0.0
 11
3.029417585239524
 21
-0.389201319690329
 31
0.0
1001
REVIT
1002
{
1070
     1
1000
193538
1002
}
1002
{
1070
     2
1000
-2000051
1002
}
1002
{
1070
     3
1000
-2000287
1002
}
  0
LINE
  5
8F7
330
824
100
AcDbEntity
  8
Pressure_Balance_Rough_Valve-GROHE-35115000
100
AcDbLine
 10
3.02941758523952
 20
-1.130281122486277
 30
0.0
 11
2.59558241475948
 21
-1.130281122486277
 31
0.0
1001
REVIT
1002
{
1070
     1
1000
193538
1002
}
1002
{
1070
     2
1000
-2000051
1002
}
1002
{
1070
     3
1000
-2000287
1002
}
  0
CIRCLE
  5
8F8
330
824
100
AcDbEntity
  8
Pressure_Balance_Rough_Valve-GROHE-35115000
100
AcDbCircle
 10
-1.442852328923114
 20
0.0000000000006682
 30
0.0
 40
0.0646378204679522
  0
CIRCLE
  5
8F9
330
824
100
AcDbEntity
  8
Pressure_Balance_Rough_Valve-GROHE-35115000
100
AcDbCircle
 10
1.4428523289241
 20
0.0000000000006798
 30
0.0
 40
0.0646378204674457
  0
CIRCLE
  5
8FA
330
824
100
AcDbEntity
  8
Pressure_Balance_Rough_Valve-GROHE-35115000
100
AcDbCircle
 10
-1.349102328923109
 20
-1.163668666487122
 30
0.0
 40
0.0651849087048404
  0
CIRCLE
  5
8FB
330
824
100
AcDbEntity
  8
Pressure_Balance_Rough_Valve-GROHE-35115000
 62
     8
370
    18
100
AcDbCircle
 10
-1.067852328923111
 20
1.163668666487259
 30
0.0
 40
0.0651849087048402
  0
CIRCLE
  5
8FC
330
824
100
AcDbEntity
  8
Pressure_Balance_Rough_Valve-GROHE-35115000
 62
     8
370
    18
100
AcDbCircle
 10
1.067852328924097
 20
-1.163668666487268
 30
0.0
 40
0.0651849087048405
  0
CIRCLE
  5
8FD
330
824
100
AcDbEntity
  8
Pressure_Balance_Rough_Valve-GROHE-35115000
100
AcDbCircle
 10
1.411602328924092
 20
1.163668666487406
 30
0.0
 40
0.06518490870484
  0
CIRCLE
  5
8FE
330
824
100
AcDbEntity
  8
Pressure_Balance_Rough_Valve-GROHE-35115000
100
AcDbCircle
 10
-1.442852328923114
 20
0.0000000000006682
 30
0.0
 40
0.1133306631455051
  0
CIRCLE
  5
8FF
330
824
100
AcDbEntity
  8
Pressure_Balance_Rough_Valve-GROHE-35115000
100
AcDbCircle
 10
1.4428523289241
 20
0.0000000000006798
 30
0.0
 40
0.1185344132609033
  0
CIRCLE
  5
900
330
824
100
AcDbEntity
  8
Pressure_Balance_Rough_Valve-GROHE-35115000
100
AcDbCircle
 10
-1.442852328923114
 20
0.0000000000006682
 30
0.0
 40
0.1570812215897355
  0
CIRCLE
  5
901
330
824
100
AcDbEntity
  8
Pressure_Balance_Rough_Valve-GROHE-35115000
100
AcDbCircle
 10
1.4428523289241
 20
0.0000000000006798
 30
0.0
 40
0.1622849717051338
  0
CIRCLE
  5
902
330
824
100
AcDbEntity
  8
Pressure_Balance_Rough_Valve-GROHE-35115000
100
AcDbCircle
 10
-0.0000000000000004
 20
0.0000000000006659
 30
0.0
 40
0.968750000000228
  0
CIRCLE
  5
903
330
824
100
AcDbEntity
  8
Pressure_Balance_Rough_Valve-GROHE-35115000
100
AcDbCircle
 10
-0.0000000000000004
 20
0.0000000000006659
 30
0.0
 40
1.129596651779346
  0
LINE
  5
904
330
824
100
AcDbEntity
  8
Pressure_Balance_Rough_Valve-GROHE-35115000
100
AcDbLine
 10
-0.8857560263557497
 20
0.7010170165456166
 30
0.0
 11
-0.9322716346211365
 21
1.176920550563953
 31
0.0
1001
REVIT
1002
{
1070
     1
1000
122706
1002
}
1002
{
1070
     2
1000
-2000051
1002
}
1002
{
1070
     3
1000
-2000287
1002
}
  0
ARC
  5
905
330
824
100
AcDbEntity
  8
Pressure_Balance_Rough_Valve-GROHE-35115000
100
AcDbCircle
 10
-1.067852328923111
 20
1.163668666487259
 30
0.0
 40
0.1362267855415659
100
AcDbArc
 50
5.582453287637932
 51
174.417546712362
1001
REVIT
1002
{
1070
     1
1000
122706
1002
}
1002
{
1070
     2
1000
-2000051
1002
}
1002
{
1070
     3
1000
-2000287
1002
}
  0
LINE
  5
906
330
824
100
AcDbEntity
  8
Pressure_Balance_Rough_Valve-GROHE-35115000
100
AcDbLine
 10
-1.203433023225085
 20
1.176920550563951
 30
0.0
 11
-1.269596371265615
 21
0.5000000000396964
 31
0.0
1001
REVIT
1002
{
1070
     1
1000
122706
1002
}
1002
{
1070
     2
1000
-2000051
1002
}
1002
{
1070
     3
1000
-2000287
1002
}
  0
CIRCLE
  5
907
330
824
100
AcDbEntity
  8
Pressure_Balance_Rough_Valve-GROHE-35115000
100
AcDbCircle
 10
-1.067852328923111
 20
1.163668666487259
 30
0.0
 40
0.06518490870484
  0
LINE
  5
908
330
824
100
AcDbEntity
  8
Pressure_Balance_Rough_Valve-GROHE-35115000
100
AcDbLine
 10
0.8857560263564977
 20
-0.7010170165433385
 30
0.0
 11
0.9322716346221222
 21
-1.176920550563966
 31
0.0
1001
REVIT
1002
{
1070
     1
1000
122706
1002
}
1002
{
1070
     2
1000
-2000051
1002
}
1002
{
1070
     3
1000
-2000287
1002
}
  0
ARC
  5
909
330
824
100
AcDbEntity
  8
Pressure_Balance_Rough_Valve-GROHE-35115000
100
AcDbCircle
 10
1.067852328924097
 20
-1.163668666487268
 30
0.0
 40
0.1362267855415661
100
AcDbArc
 50
185.5824532876381
 51
354.4175467123595
1001
REVIT
1002
{
1070
     1
1000
122706
1002
}
1002
{
1070
     2
1000
-2000051
1002
}
1002
{
1070
     3
1000
-2000287
1002
}
  0
LINE
  5
90A
330
824
100
AcDbEntity
  8
Pressure_Balance_Rough_Valve-GROHE-35115000
100
AcDbLine
 10
1.203433023226072
 20
-1.176920550563965
 30
0.0
 11
1.269596371266759
 21
-0.5000000000383381
 31
0.0
1001
REVIT
1002
{
1070
     1
1000
122706
1002
}
1002
{
1070
     2
1000
-2000051
1002
}
1002
{
1070
     3
1000
-2000287
1002
}
  0
CIRCLE
  5
90B
330
824
100
AcDbEntity
  8
Pressure_Balance_Rough_Valve-GROHE-35115000
100
AcDbCircle
 10
1.067852328924097
 20
-1.163668666487268
 30
0.0
 40
0.0651849087048404
  0
LINE
  5
90C
330
824
100
AcDbEntity
  8
Pressure_Balance_Rough_Valve-GROHE-35115000
100
AcDbLine
 10
-0.9634430861382405
 20
0.03125
 30
0.0
 11
0.9634430861382407
 21
0.03125
 31
0.0
  0
LINE
  5
90D
330
824
100
AcDbEntity
  8
Pressure_Balance_Rough_Valve-GROHE-35115000
100
AcDbLine
 10
-0.9634430861382409
 20
-0.03125
 30
0.0
 11
0.9682458365520604
 21
-0.03125
 31
0.0
  0
LINE
  5
90E
330
824
100
AcDbEntity
  8
Pressure_Balance_Rough_Valve-GROHE-35115000
100
AcDbLine
 10
0.2962913294859732
 20
0.0312499999999957
 30
0.0
 11
0.2962913294859732
 21
-0.0312500000000043
 31
0.0
  0
LINE
  5
90F
330
824
100
AcDbEntity
  8
Pressure_Balance_Rough_Valve-GROHE-35115000
100
AcDbLine
 10
-0.2962913294865857
 20
0.03125
 30
0.0
 11
-0.2962913294865857
 21
-0.03125
 31
0.0
  0
ARC
  5
910
330
824
100
AcDbEntity
  8
Pressure_Balance_Rough_Valve-GROHE-35115000
100
AcDbCircle
 10
-2.812325550632433
 20
-0.5555110192835211
 30
0.0
 40
0.2771323970550318
100
AcDbArc
 50
38.5474470596854
 51
139.9537768306668
  0
ARC
  5
911
330
824
100
AcDbEntity
  8
Pressure_Balance_Rough_Valve-GROHE-35115000
100
AcDbCircle
 10
2.80773436684289
 20
-0.555511019283522
 30
0.0
 40
0.2771323970550323
100
AcDbArc
 50
36.87771853308102
 51
139.9537768306667
  0
ENDBLK
  5
826
330
824
100
AcDbEntity
  8
0
100
AcDbBlockEnd
  0
BLOCK
  5
914
330
913
100
AcDbEntity
  8
0
100
AcDbBlockBegin
  2
Pressure_Balance_Rough_Valve-GROHE-35115000- Left
 70
     0
 10
0.0
 20
0.0
 30
0.0
  3
Pressure_Balance_Rough_Valve-GROHE-35115000- Left
  1

  0
LINE
  5
916
330
913
100
AcDbEntity
  8
Pressure_Balance_Rough_Valve-GROHE-35115000
100
AcDbLine
 10
-1.29989545202816
 20
-0.6234729390632241
 30
0.0
 11
-1.29989545202816
 21
-0.7187500000005872
 31
0.0
1001
REVIT
1002
{
1070
     2
1000
-2001160
1002
}
  0
LINE
  5
917
330
913
100
AcDbEntity
  8
Pressure_Balance_Rough_Valve-GROHE-35115000
100
AcDbLine
 10
0.0312500000006715
 20
0.3073819767161362
 30
0.0
 11
-0.0312499999993285
 21
0.3073819767161371
 31
0.0
1001
REVIT
1002
{
1070
     2
1000
-2001160
1002
}
  0
LINE
  5
918
330
913
100
AcDbEntity
  8
Pressure_Balance_Rough_Valve-GROHE-35115000
100
AcDbLine
 10
-1.299895452028159
 20
-0.6234729390632232
 30
0.0
 11
-0.3289792887436862
 21
-0.6234729390632264
 31
0.0
1001
REVIT
1002
{
1070
     2
1000
-2001160
1002
}
  0
LINE
  5
919
330
913
100
AcDbEntity
  8
Pressure_Balance_Rough_Valve-GROHE-35115000
100
AcDbLine
 10
-0.4133986424023153
 20
-0.7187500000005894
 30
0.0
 11
-1.299895452028159
 21
-0.7187500000005867
 31
0.0
1001
REVIT
1002
{
1070
     2
1000
-2001160
1002
}
  0
LINE
  5
91A
330
913
100
AcDbEntity
  8
Pressure_Balance_Rough_Valve-GROHE-35115000
100
AcDbLine
 10
0.0312500000006706
 20
0.3026437508245663
 30
0.0
 11
0.0312500000006661
 21
0.0000000000000111
 31
0.0
1001
REVIT
1002
{
1070
     2
1000
-2001160
1002
}
  0
LINE
  5
91B
330
913
100
AcDbEntity
  8
Pressure_Balance_Rough_Valve-GROHE-35115000
100
AcDbLine
 10
-0.0312499999993339
 20
0.0000000000000119
 30
0.0
 11
-0.0312499999993294
 21
0.302643750824568
 31
0.0
1001
REVIT
1002
{
1070
     2
1000
-2001160
1002
}
  0
LINE
  5
91C
330
913
100
AcDbEntity
  8
Pressure_Balance_Rough_Valve-GROHE-35115000
100
AcDbLine
 10
-0.0312499999993303
 20
0.2649925174906582
 30
0.0
 11
0.0312500000006697
 21
0.2649925174906574
 31
0.0
1001
REVIT
1002
{
1070
     2
1000
-2001160
1002
}
  0
LINE
  5
91D
330
913
100
AcDbEntity
  8
Pressure_Balance_Rough_Valve-GROHE-35115000
100
AcDbLine
 10
1.12959665177934
 20
-0.4549363560042296
 30
0.0
 11
1.129596651779347
 21
-0.0000000000000159
 31
0.0
1001
REVIT
1002
{
1070
     1
1000
114472
1002
}
1002
{
1070
     2
1000
-2001160
1002
}
  0
LINE
  5
91E
330
913
100
AcDbEntity
  8
Pressure_Balance_Rough_Valve-GROHE-35115000
100
AcDbLine
 10
-1.129596651779346
 20
0.0000000000000159
 30
0.0
 11
-1.129596651779352
 21
-0.4549363560041981
 31
0.0
1001
REVIT
1002
{
1070
     1
1000
114472
1002
}
1002
{
1070
     2
1000
-2001160
1002
}
  0
LINE
  5
91F
330
913
100
AcDbEntity
  8
Pressure_Balance_Rough_Valve-GROHE-35115000
100
AcDbLine
 10
1.031250000000198
 20
-2.000000000000022
 30
0.0
 11
1.031250000000206
 21
-1.367487129300025
 31
0.0
1001
REVIT
1002
{
1070
     1
1000
114472
1002
}
1002
{
1070
     2
1000
-2001160
1002
}
  0
LINE
  5
920
330
913
100
AcDbEntity
  8
Pressure_Balance_Rough_Valve-GROHE-35115000
100
AcDbLine
 10
1.031250000000208
 20
-1.273437500001832
 30
0.0
 11
1.031250000000209
 21
-1.213011335235166
 31
0.0
1001
REVIT
1002
{
1070
     1
1000
114472
1002
}
1002
{
1070
     2
1000
-2001160
1002
}
  0
LINE
  5
921
330
913
100
AcDbEntity
  8
Pressure_Balance_Rough_Valve-GROHE-35115000
100
AcDbLine
 10
1.031250000000214
 20
-0.7791761647551009
 30
0.0
 11
1.031250000000219
 21
-0.4549363560042092
 31
0.0
1001
REVIT
1002
{
1070
     1
1000
114472
1002
}
1002
{
1070
     2
1000
-2001160
1002
}
  0
LINE
  5
922
330
913
100
AcDbEntity
  8
Pressure_Balance_Rough_Valve-GROHE-35115000
100
AcDbLine
 10
-1.031250000000231
 20
-0.45493635600418
 30
0.0
 11
-1.031250000000234
 21
-0.6234729390632251
 31
0.0
1001
REVIT
1002
{
1070
     1
1000
114472
1002
}
1002
{
1070
     2
1000
-2001160
1002
}
  0
LINE
  5
923
330
913
100
AcDbEntity
  8
Pressure_Balance_Rough_Valve-GROHE-35115000
100
AcDbLine
 10
-1.031250000000235
 20
-0.7187500000005881
 30
0.0
 11
-1.031250000000253
 21
-1.999999999999993
 31
0.0
1001
REVIT
1002
{
1070
     1
1000
114472
1002
}
1002
{
1070
     2
1000
-2001160
1002
}
  0
LINE
  5
924
330
913
100
AcDbEntity
  8
Pressure_Balance_Rough_Valve-GROHE-35115000
100
AcDbLine
 10
1.129596651779345
 20
-0.0000000000000159
 30
0.0
 11
-1.129596651779345
 21
0.0000000000000159
 31
0.0
1001
REVIT
1002
{
1070
     1
1000
114472
1002
}
1002
{
1070
     2
1000
-2001160
1002
}
  0
LINE
  5
925
330
913
100
AcDbEntity
  8
Pressure_Balance_Rough_Valve-GROHE-35115000
100
AcDbLine
 10
1.031250000000196
 20
-2.000000000000019
 30
0.0
 11
-1.031250000000253
 21
-1.999999999999991
 31
0.0
1001
REVIT
1002
{
1070
     1
1000
114472
1002
}
1002
{
1070
     2
1000
-2001160
1002
}
  0
LINE
  5
926
330
913
100
AcDbEntity
  8
Pressure_Balance_Rough_Valve-GROHE-35115000
100
AcDbLine
 10
1.299895452029356
 20
-1.367487129300025
 30
0.0
 11
1.299895452029356
 21
-1.273437500001833
 31
0.0
1001
REVIT
1002
{
1070
     1
1000
122706
1002
}
1002
{
1070
     2
1000
-2001160
1002
}
  0
LINE
  5
927
330
913
100
AcDbEntity
  8
Pressure_Balance_Rough_Valve-GROHE-35115000
100
AcDbLine
 10
0.4186071351888998
 20
-1.273437500001828
 30
0.0
 11
1.299895452029353
 21
-1.273437500001831
 31
0.0
1001
REVIT
1002
{
1070
     1
1000
122706
1002
}
1002
{
1070
     2
1000
-2001160
1002
}
  0
LINE
  5
928
330
913
100
AcDbEntity
  8
Pressure_Balance_Rough_Valve-GROHE-35115000
100
AcDbLine
 10
1.299895452029353
 20
-1.367487129300024
 30
0.0
 11
0.33539458883397
 21
-1.367487129300021
 31
0.0
1001
REVIT
1002
{
1070
     1
1000
122706
1002
}
1002
{
1070
     2
1000
-2001160
1002
}
  0
LINE
  5
929
330
913
100
AcDbEntity
  8
Pressure_Balance_Rough_Valve-GROHE-35115000
100
AcDbLine
 10
0.2285958673326105
 20
-0.5553159217167812
 30
0.0
 11
0.2285958673326105
 21
-0.5325980029992362
 31
0.0
1001
REVIT
1002
{
1070
     1
1000
130422
1002
}
1002
{
1070
     2
1000
-2001160
1002
}
  0
LINE
  5
92A
330
913
100
AcDbEntity
  8
Pressure_Balance_Rough_Valve-GROHE-35115000
100
AcDbLine
 10
-0.2285958673326149
 20
-0.5325980029992362
 30
0.0
 11
-0.2285958673326158
 21
-0.5553159217167693
 31
0.0
1001
REVIT
1002
{
1070
     1
1000
130422
1002
}
1002
{
1070
     2
1000
-2001160
1002
}
  0
LINE
  5
92B
330
913
100
AcDbEntity
  8
Pressure_Balance_Rough_Valve-GROHE-35115000
100
AcDbLine
 10
0.1570812215897339
 20
-0.5253153785258052
 30
0.0
 11
0.1570812215897339
 21
-0.4925943551745779
 31
0.0
1001
REVIT
1002
{
1070
     1
1000
130422
1002
}
1002
{
1070
     2
1000
-2001160
1002
}
  0
LINE
  5
92C
330
913
100
AcDbEntity
  8
Pressure_Balance_Rough_Valve-GROHE-35115000
100
AcDbLine
 10
-0.1570812215897375
 20
-0.4925943551745779
 30
0.0
 11
-0.1570812215897375
 21
-0.5253153785257969
 31
0.0
1001
REVIT
1002
{
1070
     1
1000
130422
1002
}
1002
{
1070
     2
1000
-2001160
1002
}
  0
LINE
  5
92D
330
913
100
AcDbEntity
  8
Pressure_Balance_Rough_Valve-GROHE-35115000
100
AcDbLine
 10
0.1133306631455033
 20
-0.4925943551745779
 30
0.0
 11
0.1133306631455033
 21
-0.4577306289143314
 31
0.0
1001
REVIT
1002
{
1070
     1
1000
130422
1002
}
1002
{
1070
     2
1000
-2001160
1002
}
  0
LINE
  5
92E
330
913
100
AcDbEntity
  8
Pressure_Balance_Rough_Valve-GROHE-35115000
100
AcDbLine
 10
-0.1133306631455069
 20
-0.4577306289143314
 30
0.0
 11
-0.1133306631455069
 21
-0.4925943551745779
 31
0.0
1001
REVIT
1002
{
1070
     1
1000
130422
1002
}
1002
{
1070
     2
1000
-2001160
1002
}
  0
LINE
  5
92F
330
913
100
AcDbEntity
  8
Pressure_Balance_Rough_Valve-GROHE-35115000
100
AcDbLine
 10
0.0646378204679499
 20
-0.4577306289143314
 30
0.0
 11
0.0646378204679499
 21
-0.4221833001783934
 31
0.0
1001
REVIT
1002
{
1070
     1
1000
130422
1002
}
1002
{
1070
     2
1000
-2001160
1002
}
  0
LINE
  5
930
330
913
100
AcDbEntity
  8
Pressure_Balance_Rough_Valve-GROHE-35115000
100
AcDbLine
 10
-0.0646378204679543
 20
-0.4221833001783934
 30
0.0
 11
-0.0646378204679543
 21
-0.4577306289143314
 31
0.0
1001
REVIT
1002
{
1070
     1
1000
130422
1002
}
1002
{
1070
     2
1000
-2001160
1002
}
  0
LINE
  5
931
330
913
100
AcDbEntity
  8
Pressure_Balance_Rough_Valve-GROHE-35115000
100
AcDbLine
 10
0.2285958673326105
 20
-0.5325980029992356
 30
0.0
 11
0.1775820183461745
 21
-0.5325980029992355
 31
0.0
1001
REVIT
1002
{
1070
     1
1000
130422
1002
}
1002
{
1070
     2
1000
-2001160
1002
}
  0
LINE
  5
932
330
913
100
AcDbEntity
  8
Pressure_Balance_Rough_Valve-GROHE-35115000
100
AcDbLine
 10
-0.1775820183462029
 20
-0.5325980029992356
 30
0.0
 11
-0.2285958673326158
 21
-0.5325980029992356
 31
0.0
1001
REVIT
1002
{
1070
     1
1000
130422
1002
}
1002
{
1070
     2
1000
-2001160
1002
}
  0
LINE
  5
933
330
913
100
AcDbEntity
  8
Pressure_Balance_Rough_Valve-GROHE-35115000
100
AcDbLine
 10
0.1570812215897321
 20
-0.4925943551745772
 30
0.0
 11
-0.1570812215897384
 21
-0.4925943551745772
 31
0.0
1001
REVIT
1002
{
1070
     1
1000
130422
1002
}
1002
{
1070
     2
1000
-2001160
1002
}
  0
LINE
  5
934
330
913
100
AcDbEntity
  8
Pressure_Balance_Rough_Valve-GROHE-35115000
100
AcDbLine
 10
0.1133306631455024
 20
-0.4577306289143307
 30
0.0
 11
-0.1133306631455078
 21
-0.4577306289143307
 31
0.0
1001
REVIT
1002
{
1070
     1
1000
130422
1002
}
1002
{
1070
     2
1000
-2001160
1002
}
  0
LINE
  5
935
330
913
100
AcDbEntity
  8
Pressure_Balance_Rough_Valve-GROHE-35115000
100
AcDbLine
 10
0.064637820467949
 20
-0.4221833001783929
 30
0.0
 11
-0.0646378204679552
 21
-0.4221833001783929
 31
0.0
1001
REVIT
1002
{
1070
     1
1000
130422
1002
}
1002
{
1070
     2
1000
-2001160
1002
}
  0
LINE
  5
936
330
913
100
AcDbEntity
  8
Pressure_Balance_Rough_Valve-GROHE-35115000
100
AcDbLine
 10
-0.000000000000008
 20
-0.6171874999595605
 30
0.0
 11
-0.0153084169948956
 21
-0.6174937091284357
 31
0.0
1001
REVIT
1002
{
1070
     1
1000
158160
1002
}
1002
{
1070
     2
1000
-2001160
1002
}
  0
LINE
  5
937
330
913
100
AcDbEntity
  8
Pressure_Balance_Rough_Valve-GROHE-35115000
100
AcDbLine
 10
-0.0153084169948956
 20
-0.6174937091284357
 30
0.0
 11
-0.0305923437882116
 21
-0.6184118467657137
 31
0.0
1001
REVIT
1002
{
1070
     1
1000
158160
1002
}
1002
{
1070
     2
1000
-2001160
1002
}
  0
LINE
  5
938
330
913
100
AcDbEntity
  8
Pressure_Balance_Rough_Valve-GROHE-35115000
100
AcDbLine
 10
-0.0305923437882116
 20
-0.6184118467657137
 30
0.0
 11
-0.0458273293574862
 21
-0.6199404440470332
 31
0.0
1001
REVIT
1002
{
1070
     1
1000
158160
1002
}
1002
{
1070
     2
1000
-2001160
1002
}
  0
LINE
  5
939
330
913
100
AcDbEntity
  8
Pressure_Balance_Rough_Valve-GROHE-35115000
100
AcDbLine
 10
-0.0458273293574862
 20
-0.6199404440470332
 30
0.0
 11
-0.0609890009757637
 21
-0.6220770555428273
 31
0.0
1001
REVIT
1002
{
1070
     1
1000
158160
1002
}
1002
{
1070
     2
1000
-2001160
1002
}
  0
LINE
  5
93A
330
913
100
AcDbEntity
  8
Pressure_Balance_Rough_Valve-GROHE-35115000
100
AcDbLine
 10
-0.0609890009757637
 20
-0.6220770555428273
 30
0.0
 11
-0.0760531032027734
 21
-0.6248182631304897
 31
0.0
1001
REVIT
1002
{
1070
     1
1000
158160
1002
}
1002
{
1070
     2
1000
-2001160
1002
}
  0
LINE
  5
93B
330
913
100
AcDbEntity
  8
Pressure_Balance_Rough_Valve-GROHE-35115000
100
AcDbLine
 10
-0.0760531032027734
 20
-0.6248182631304897
 30
0.0
 11
-0.0909955366884559
 21
-0.6281596814626393
 31
0.0
1001
REVIT
1002
{
1070
     1
1000
158160
1002
}
1002
{
1070
     2
1000
-2001160
1002
}
  0
LINE
  5
93C
330
913
100
AcDbEntity
  8
Pressure_Balance_Rough_Valve-GROHE-35115000
100
AcDbLine
 10
-0.0909955366884559
 20
-0.6281596814626393
 30
0.0
 11
-0.1057923967267813
 21
-0.6320959649827424
 31
0.0
1001
REVIT
1002
{
1070
     1
1000
158160
1002
}
1002
{
1070
     2
1000
-2001160
1002
}
  0
LINE
  5
93D
330
913
100
AcDbEntity
  8
Pressure_Balance_Rough_Valve-GROHE-35115000
100
AcDbLine
 10
-0.1057923967267813
 20
-0.6320959649827424
 30
0.0
 11
-0.1204200114981857
 21
-0.6366208164768624
 31
0.0
1001
REVIT
1002
{
1070
     1
1000
158160
1002
}
1002
{
1070
     2
1000
-2001160
1002
}
  0
LINE
  5
93E
330
913
100
AcDbEntity
  8
Pressure_Balance_Rough_Valve-GROHE-35115000
100
AcDbLine
 10
-0.1204200114981857
 20
-0.6366208164768624
 30
0.0
 11
-0.1348549799394254
 21
-0.6417269971478598
 31
0.0
1001
REVIT
1002
{
1070
     1
1000
158160
1002
}
1002
{
1070
     2
1000
-2001160
1002
}
  0
LINE
  5
93F
330
913
100
AcDbEntity
  8
Pressure_Balance_Rough_Valve-GROHE-35115000
100
AcDbLine
 10
-0.1348549799394254
 20
-0.6417269971478598
 30
0.0
 11
-0.1490742091802906
 21
-0.6474063381959207
 31
0.0
1001
REVIT
1002
{
1070
     1
1000
158160
1002
}
1002
{
1070
     2
1000
-2001160
1002
}
  0
LINE
  5
940
330
913
100
AcDbEntity
  8
Pressure_Balance_Rough_Valve-GROHE-35115000
100
AcDbLine
 10
-0.1490742091802906
 20
-0.6474063381959207
 30
0.0
 11
-0.1630549514872692
 21
-0.6536497538868963
 31
0.0
1001
REVIT
1002
{
1070
     1
1000
158160
1002
}
1002
{
1070
     2
1000
-2001160
1002
}
  0
LINE
  5
941
330
913
100
AcDbEntity
  8
Pressure_Balance_Rough_Valve-GROHE-35115000
100
AcDbLine
 10
-0.1630549514872692
 20
-0.6536497538868963
 30
0.0
 11
-0.1767748406550682
 21
-0.6604472560875393
 31
0.0
1001
REVIT
1002
{
1070
     1
1000
158160
1002
}
1002
{
1070
     2
1000
-2001160
1002
}
  0
LINE
  5
942
330
913
100
AcDbEntity
  8
Pressure_Balance_Rough_Valve-GROHE-35115000
100
AcDbLine
 10
-0.1767748406550682
 20
-0.6604472560875393
 30
0.0
 11
-0.1902119277877752
 21
-0.6677879702443846
 31
0.0
1001
REVIT
1002
{
1070
     1
1000
158160
1002
}
1002
{
1070
     2
1000
-2001160
1002
}
  0
LINE
  5
943
330
913
100
AcDbEntity
  8
Pressure_Balance_Rough_Valve-GROHE-35115000
100
AcDbLine
 10
-0.1902119277877752
 20
-0.6677879702443846
 30
0.0
 11
-0.2033447164124018
 21
-0.6756601527807166
 31
0.0
1001
REVIT
1002
{
1070
     1
1000
158160
1002
}
1002
{
1070
     2
1000
-2001160
1002
}
  0
LINE
  5
944
330
913
100
AcDbEntity
  8
Pressure_Balance_Rough_Valve-GROHE-35115000
100
AcDbLine
 10
-0.2033447164124018
 20
-0.6756601527807166
 30
0.0
 11
-0.216152196868661
 21
-0.6840512098837871
 31
0.0
1001
REVIT
1002
{
1070
     1
1000
158160
1002
}
1002
{
1070
     2
1000
-2001160
1002
}
  0
LINE
  5
945
330
913
100
AcDbEntity
  8
Pressure_Balance_Rough_Valve-GROHE-35115000
100
AcDbLine
 10
-0.216152196868661
 20
-0.6840512098837871
 30
0.0
 11
-0.2286138799199397
 21
-0.6929477176522278
 31
0.0
1001
REVIT
1002
{
1070
     1
1000
158160
1002
}
1002
{
1070
     2
1000
-2001160
1002
}
  0
LINE
  5
946
330
913
100
AcDbEntity
  8
Pressure_Balance_Rough_Valve-GROHE-35115000
100
AcDbLine
 10
-0.2286138799199397
 20
-0.6929477176522278
 30
0.0
 11
-0.2407098295317072
 21
-0.702335443571429
 31
0.0
1001
REVIT
1002
{
1070
     1
1000
158160
1002
}
1002
{
1070
     2
1000
-2001160
1002
}
  0
LINE
  5
947
330
913
100
AcDbEntity
  8
Pressure_Balance_Rough_Valve-GROHE-35115000
100
AcDbLine
 10
-0.2407098295317072
 20
-0.702335443571429
 30
0.0
 11
-0.2524206947649139
 21
-0.7121993692825287
 31
0.0
1001
REVIT
1002
{
1070
     1
1000
158160
1002
}
1002
{
1070
     2
1000
-2001160
1002
}
  0
LINE
  5
948
330
913
100
AcDbEntity
  8
Pressure_Balance_Rough_Valve-GROHE-35115000
100
AcDbLine
 10
-0.2524206947649139
 20
-0.7121993692825287
 30
0.0
 11
-0.2637277407333753
 21
-0.7225237146085811
 31
0.0
1001
REVIT
1002
{
1070
     1
1000
158160
1002
}
1002
{
1070
     2
1000
-2001160
1002
}
  0
LINE
  5
949
330
913
100
AcDbEntity
  8
Pressure_Balance_Rough_Valve-GROHE-35115000
100
AcDbLine
 10
-0.2637277407333753
 20
-0.7225237146085811
 30
0.0
 11
-0.2746128785755797
 21
-0.7332919627994735
 31
0.0
1001
REVIT
1002
{
1070
     1
1000
158160
1002
}
1002
{
1070
     2
1000
-2001160
1002
}
  0
LINE
  5
94A
330
913
100
AcDbEntity
  8
Pressure_Balance_Rough_Valve-GROHE-35115000
100
AcDbLine
 10
-0.2746128785755797
 20
-0.7332919627994735
 30
0.0
 11
-0.2850586943930198
 21
-0.7444868869552052
 31
0.0
1001
REVIT
1002
{
1070
     1
1000
158160
1002
}
1002
{
1070
     2
1000
-2001160
1002
}
  0
LINE
  5
94B
330
913
100
AcDbEntity
  8
Pressure_Balance_Rough_Valve-GROHE-35115000
100
AcDbLine
 10
-0.2850586943930198
 20
-0.7444868869552052
 30
0.0
 11
-0.2950484771087085
 21
-0.7560905775852488
 31
0.0
1001
REVIT
1002
{
1070
     1
1000
158160
1002
}
1002
{
1070
     2
1000
-2001160
1002
}
  0
LINE
  5
94C
330
913
100
AcDbEntity
  8
Pressure_Balance_Rough_Valve-GROHE-35115000
100
AcDbLine
 10
-0.2950484771087085
 20
-0.7560905775852488
 30
0.0
 11
-0.3045662452013422
 21
-0.7680844712599192
 31
0.0
1001
REVIT
1002
{
1070
     1
1000
158160
1002
}
1002
{
1070
     2
1000
-2001160
1002
}
  0
LINE
  5
94D
330
913
100
AcDbEntity
  8
Pressure_Balance_Rough_Valve-GROHE-35115000
100
AcDbLine
 10
-0.3045662452013422
 20
-0.7680844712599192
 30
0.0
 11
-0.3135967722723203
 21
-0.7804493803078973
 31
0.0
1001
REVIT
1002
{
1070
     1
1000
158160
1002
}
1002
{
1070
     2
1000
-2001160
1002
}
  0
LINE
  5
94E
330
913
100
AcDbEntity
  8
Pressure_Balance_Rough_Valve-GROHE-35115000
100
AcDbLine
 10
-0.3135967722723203
 20
-0.7804493803078973
 30
0.0
 11
-0.3221256114047408
 21
-0.7931655235124132
 31
0.0
1001
REVIT
1002
{
1070
     1
1000
158160
1002
}
1002
{
1070
     2
1000
-2001160
1002
}
  0
LINE
  5
94F
330
913
100
AcDbEntity
  8
Pressure_Balance_Rough_Valve-GROHE-35115000
100
AcDbLine
 10
-0.3221256114047408
 20
-0.7931655235124132
 30
0.0
 11
-0.3301391182753788
 21
-0.8062125577569721
 31
0.0
1001
REVIT
1002
{
1070
     1
1000
158160
1002
}
1002
{
1070
     2
1000
-2001160
1002
}
  0
LINE
  5
950
330
913
100
AcDbEntity
  8
Pressure_Balance_Rough_Valve-GROHE-35115000
100
AcDbLine
 10
-0.3301391182753788
 20
-0.8062125577569721
 30
0.0
 11
-0.3376244729826974
 21
-0.8195696105700022
 31
0.0
1001
REVIT
1002
{
1070
     1
1000
158160
1002
}
1002
{
1070
     2
1000
-2001160
1002
}
  0
LINE
  5
951
330
913
100
AcDbEntity
  8
Pressure_Balance_Rough_Valve-GROHE-35115000
100
AcDbLine
 10
-0.3376244729826974
 20
-0.8195696105700022
 30
0.0
 11
-0.344569700555958
 21
-0.8332153135163538
 31
0.0
1001
REVIT
1002
{
1070
     1
1000
158160
1002
}
1002
{
1070
     2
1000
-2001160
1002
}
  0
LINE
  5
952
330
913
100
AcDbEntity
  8
Pressure_Balance_Rough_Valve-GROHE-35115000
100
AcDbLine
 10
-0.344569700555958
 20
-0.8332153135163538
 30
0.0
 11
-0.3509636901126107
 21
-0.8471278363822422
 31
0.0
1001
REVIT
1002
{
1070
     1
1000
158160
1002
}
1002
{
1070
     2
1000
-2001160
1002
}
  0
LINE
  5
953
330
913
100
AcDbEntity
  8
Pressure_Balance_Rough_Valve-GROHE-35115000
100
AcDbLine
 10
-0.3509636901126107
 20
-0.8471278363822422
 30
0.0
 11
-0.3567962126333448
 21
-0.8612849220989279
 31
0.0
1001
REVIT
1002
{
1070
     1
1000
158160
1002
}
1002
{
1070
     2
1000
-2001160
1002
}
  0
LINE
  5
954
330
913
100
AcDbEntity
  8
Pressure_Balance_Rough_Valve-GROHE-35115000
100
AcDbLine
 10
-0.3567962126333448
 20
-0.8612849220989279
 30
0.0
 11
-0.3620579373263313
 21
-0.8756639223492815
 31
0.0
1001
REVIT
1002
{
1070
     1
1000
158160
1002
}
1002
{
1070
     2
1000
-2001160
1002
}
  0
LINE
  5
955
330
913
100
AcDbEntity
  8
Pressure_Balance_Rough_Valve-GROHE-35115000
100
AcDbLine
 10
-0.3620579373263313
 20
-0.8756639223492815
 30
0.0
 11
-0.3667404465545028
 21
-0.8902418338002592
 31
0.0
1001
REVIT
1002
{
1070
     1
1000
158160
1002
}
1002
{
1070
     2
1000
-2001160
1002
}
  0
LINE
  5
956
330
913
100
AcDbEntity
  8
Pressure_Balance_Rough_Valve-GROHE-35115000
100
AcDbLine
 10
-0.3667404465545028
 20
-0.8902418338002592
 30
0.0
 11
-0.3708362493019761
 21
-0.9049953349033273
 31
0.0
1001
REVIT
1002
{
1070
     1
1000
158160
1002
}
1002
{
1070
     2
1000
-2001160
1002
}
  0
LINE
  5
957
330
913
100
AcDbEntity
  8
Pressure_Balance_Rough_Valve-GROHE-35115000
100
AcDbLine
 10
-0.3708362493019761
 20
-0.9049953349033273
 30
0.0
 11
-0.3743387931580804
 21
-0.9199008232039675
 31
0.0
1001
REVIT
1002
{
1070
     1
1000
158160
1002
}
1002
{
1070
     2
1000
-2001160
1002
}
  0
LINE
  5
958
330
913
100
AcDbEntity
  8
Pressure_Balance_Rough_Valve-GROHE-35115000
100
AcDbLine
 10
-0.3743387931580804
 20
-0.9199008232039675
 30
0.0
 11
-0.3772424747998162
 21
-0.9349344531005662
 31
0.0
1001
REVIT
1002
{
1070
     1
1000
158160
1002
}
1002
{
1070
     2
1000
-2001160
1002
}
  0
LINE
  5
959
330
913
100
AcDbEntity
  8
Pressure_Balance_Rough_Valve-GROHE-35115000
100
AcDbLine
 10
-0.3772424747998162
 20
-0.9349344531005662
 30
0.0
 11
-0.3795426489559741
 21
-0.9500721739922918
 31
0.0
1001
REVIT
1002
{
1070
     1
1000
158160
1002
}
1002
{
1070
     2
1000
-2001160
1002
}
  0
LINE
  5
95A
330
913
100
AcDbEntity
  8
Pressure_Balance_Rough_Valve-GROHE-35115000
100
AcDbLine
 10
-0.3795426489559741
 20
-0.9500721739922918
 30
0.0
 11
-0.3812356358385829
 21
-0.9652897687549268
 31
0.0
1001
REVIT
1002
{
1070
     1
1000
158160
1002
}
1002
{
1070
     2
1000
-2001160
1002
}
  0
LINE
  5
95B
330
913
100
AcDbEntity
  8
Pressure_Balance_Rough_Valve-GROHE-35115000
100
AcDbLine
 10
-0.3812356358385829
 20
-0.9652897687549268
 30
0.0
 11
-0.3823187270297819
 21
-0.9805628924830969
 31
0.0
1001
REVIT
1002
{
1070
     1
1000
158160
1002
}
1002
{
1070
     2
1000
-2001160
1002
}
  0
LINE
  5
95C
330
913
100
AcDbEntity
  8
Pressure_Balance_Rough_Valve-GROHE-35115000
100
AcDbLine
 10
-0.3823187270297819
 20
-0.9805628924830969
 30
0.0
 11
-0.3827901898147115
 21
-0.9958671114369305
 31
0.0
1001
REVIT
1002
{
1070
     1
1000
158160
1002
}
1002
{
1070
     2
1000
-2001160
1002
}
  0
LINE
  5
95D
330
913
100
AcDbEntity
  8
Pressure_Balance_Rough_Valve-GROHE-35115000
100
AcDbLine
 10
-0.3827901898147115
 20
-0.9958671114369305
 30
0.0
 11
-0.3826492699534887
 21
-1.011177942130827
 31
0.0
1001
REVIT
1002
{
1070
     1
1000
158160
1002
}
1002
{
1070
     2
1000
-2001160
1002
}
  0
LINE
  5
95E
330
913
100
AcDbEntity
  8
Pressure_Balance_Rough_Valve-GROHE-35115000
100
AcDbLine
 10
-0.3826492699534887
 20
-1.011177942130827
 30
0.0
 11
-0.3818961928878321
 21
-1.026470890501812
 31
0.0
1001
REVIT
1002
{
1070
     1
1000
158160
1002
}
1002
{
1070
     2
1000
-2001160
1002
}
  0
LINE
  5
95F
330
913
100
AcDbEntity
  8
Pressure_Balance_Rough_Valve-GROHE-35115000
100
AcDbLine
 10
-0.3818961928878321
 20
-1.026470890501812
 30
0.0
 11
-0.3805321633803977
 21
-1.041721491094815
 31
0.0
1001
REVIT
1002
{
1070
     1
1000
158160
1002
}
1002
{
1070
     2
1000
-2001160
1002
}
  0
LINE
  5
960
330
913
100
AcDbEntity
  8
Pressure_Balance_Rough_Valve-GROHE-35115000
100
AcDbLine
 10
-0.3805321633803977
 20
-1.041721491094815
 30
0.0
 11
-0.3785593635874198
 21
-1.056905346202175
 31
0.0
1001
REVIT
1002
{
1070
     1
1000
158160
1002
}
1002
{
1070
     2
1000
-2001160
1002
}
  0
LINE
  5
961
330
913
100
AcDbEntity
  8
Pressure_Balance_Rough_Valve-GROHE-35115000
100
AcDbLine
 10
-0.3785593635874198
 20
-1.056905346202175
 30
0.0
 11
-0.375980949567726
 21
-1.071998164894768
 31
0.0
1001
REVIT
1002
{
1070
     1
1000
158160
1002
}
1002
{
1070
     2
1000
-2001160
1002
}
  0
LINE
  5
962
330
913
100
AcDbEntity
  8
Pressure_Balance_Rough_Valve-GROHE-35115000
100
AcDbLine
 10
-0.375980949567726
 20
-1.071998164894768
 30
0.0
 11
-0.3728010462337155
 21
-1.086975801882317
 31
0.0
1001
REVIT
1002
{
1070
     1
1000
158160
1002
}
1002
{
1070
     2
1000
-2001160
1002
}
  0
LINE
  5
963
330
913
100
AcDbEntity
  8
Pressure_Balance_Rough_Valve-GROHE-35115000
100
AcDbLine
 10
-0.3728010462337155
 20
-1.086975801882317
 30
0.0
 11
-0.369024740752379
 21
-1.101814296140701
 31
0.0
1001
REVIT
1002
{
1070
     1
1000
158160
1002
}
1002
{
1070
     2
1000
-2001160
1002
}
  0
LINE
  5
964
330
913
100
AcDbEntity
  8
Pressure_Balance_Rough_Valve-GROHE-35115000
100
AcDbLine
 10
-0.369024740752379
 20
-1.101814296140701
 30
0.0
 11
-0.3646580744069192
 21
-1.116489909244482
 31
0.0
1001
REVIT
1002
{
1070
     1
1000
158160
1002
}
1002
{
1070
     2
1000
-2001160
1002
}
  0
LINE
  5
965
330
913
100
AcDbEntity
  8
Pressure_Balance_Rough_Valve-GROHE-35115000
100
AcDbLine
 10
-0.3646580744069192
 20
-1.116489909244482
 30
0.0
 11
-0.3597080329319811
 21
-1.130979163343325
 31
0.0
1001
REVIT
1002
{
1070
     1
1000
158160
1002
}
1002
{
1070
     2
1000
-2001160
1002
}
  0
LINE
  5
966
330
913
100
AcDbEntity
  8
Pressure_Balance_Rough_Valve-GROHE-35115000
100
AcDbLine
 10
-0.3597080329319811
 20
-1.130979163343325
 30
0.0
 11
-0.3541825353379728
 21
-1.145258878721549
 31
0.0
1001
REVIT
1002
{
1070
     1
1000
158160
1002
}
1002
{
1070
     2
1000
-2001160
1002
}
  0
LINE
  5
967
330
913
100
AcDbEntity
  8
Pressure_Balance_Rough_Valve-GROHE-35115000
100
AcDbLine
 10
-0.3541825353379728
 20
-1.145258878721549
 30
0.0
 11
-0.3480904212423352
 21
-1.159306210880723
 31
0.0
1001
REVIT
1002
{
1070
     1
1000
158160
1002
}
1002
{
1070
     2
1000
-2001160
1002
}
  0
LINE
  5
968
330
913
100
AcDbEntity
  8
Pressure_Balance_Rough_Valve-GROHE-35115000
100
AcDbLine
 10
-0.3480904212423352
 20
-1.159306210880723
 30
0.0
 11
-0.3414414367280392
 21
-1.173098687086
 31
0.0
1001
REVIT
1002
{
1070
     1
1000
158160
1002
}
1002
{
1070
     2
1000
-2001160
1002
}
  0
LINE
  5
969
330
913
100
AcDbEntity
  8
Pressure_Balance_Rough_Valve-GROHE-35115000
100
AcDbLine
 10
-0.3414414367280392
 20
-1.173098687086
 30
0.0
 11
-0.3342462187519342
 21
-1.186614242317686
 31
0.0
1001
REVIT
1002
{
1070
     1
1000
158160
1002
}
1002
{
1070
     2
1000
-2001160
1002
}
  0
LINE
  5
96A
330
913
100
AcDbEntity
  8
Pressure_Balance_Rough_Valve-GROHE-35115000
100
AcDbLine
 10
-0.3342462187519342
 20
-1.186614242317686
 30
0.0
 11
-0.3265162781278823
 21
-1.199831254570578
 31
0.0
1001
REVIT
1002
{
1070
     1
1000
158160
1002
}
1002
{
1070
     2
1000
-2001160
1002
}
  0
LINE
  5
96B
330
913
100
AcDbEntity
  8
Pressure_Balance_Rough_Valve-GROHE-35115000
100
AcDbLine
 10
-0.3265162781278823
 20
-1.199831254570578
 30
0.0
 11
-0.3182639811119179
 21
-1.212728579444549
 31
0.0
1001
REVIT
1002
{
1070
     1
1000
158160
1002
}
1002
{
1070
     2
1000
-2001160
1002
}
  0
LINE
  5
96C
330
913
100
AcDbEntity
  8
Pressure_Balance_Rough_Valve-GROHE-35115000
100
AcDbLine
 10
-0.3182639811119179
 20
-1.212728579444549
 30
0.0
 11
-0.3095025296188689
 21
-1.225285583971083
 31
0.0
1001
REVIT
1002
{
1070
     1
1000
158160
1002
}
1002
{
1070
     2
1000
-2001160
1002
}
  0
LINE
  5
96D
330
913
100
AcDbEntity
  8
Pressure_Balance_Rough_Valve-GROHE-35115000
100
AcDbLine
 10
-0.3095025296188689
 20
-1.225285583971083
 30
0.0
 11
-0.3002459401021147
 21
-1.237482179621623
 31
0.0
1001
REVIT
1002
{
1070
     1
1000
158160
1002
}
1002
{
1070
     2
1000
-2001160
1002
}
  0
LINE
  5
96E
330
913
100
AcDbEntity
  8
Pressure_Balance_Rough_Valve-GROHE-35115000
100
AcDbLine
 10
-0.3002459401021147
 20
-1.237482179621623
 30
0.0
 11
-0.2905090211302479
 21
-1.249298854444929
 31
0.0
1001
REVIT
1002
{
1070
     1
1000
158160
1002
}
1002
{
1070
     2
1000
-2001160
1002
}
  0
LINE
  5
96F
330
913
100
AcDbEntity
  8
Pressure_Balance_Rough_Valve-GROHE-35115000
100
AcDbLine
 10
-0.2905090211302479
 20
-1.249298854444929
 30
0.0
 11
-0.2803073496965256
 21
-1.260716704282041
 31
0.0
1001
REVIT
1002
{
1070
     1
1000
158160
1002
}
1002
{
1070
     2
1000
-2001160
1002
}
  0
LINE
  5
970
330
913
100
AcDbEntity
  8
Pressure_Balance_Rough_Valve-GROHE-35115000
100
AcDbLine
 10
-0.2803073496965256
 20
-1.260716704282041
 30
0.0
 11
-0.2696572462990012
 21
-1.271717463008896
 31
0.0
1001
REVIT
1002
{
1070
     1
1000
158160
1002
}
1002
{
1070
     2
1000
-2001160
1002
}
  0
LINE
  5
971
330
913
100
AcDbEntity
  8
Pressure_Balance_Rough_Valve-GROHE-35115000
100
AcDbLine
 10
-0.2696572462990012
 20
-1.271717463008896
 30
0.0
 11
-0.2585757488312099
 21
-1.282283531758237
 31
0.0
1001
REVIT
1002
{
1070
     1
1000
158160
1002
}
1002
{
1070
     2
1000
-2001160
1002
}
  0
LINE
  5
972
330
913
100
AcDbEntity
  8
Pressure_Balance_Rough_Valve-GROHE-35115000
100
AcDbLine
 10
-0.2585757488312099
 20
-1.282283531758237
 30
0.0
 11
-0.2470805853251727
 21
-1.292398007074036
 31
0.0
1001
REVIT
1002
{
1070
     1
1000
158160
1002
}
1002
{
1070
     2
1000
-2001160
1002
}
  0
LINE
  5
973
330
913
100
AcDbEntity
  8
Pressure_Balance_Rough_Valve-GROHE-35115000
100
AcDbLine
 10
-0.2470805853251727
 20
-1.292398007074036
 30
0.0
 11
-0.2351901455903285
 21
-1.30204470795343
 31
0.0
1001
REVIT
1002
{
1070
     1
1000
158160
1002
}
1002
{
1070
     2
1000
-2001160
1002
}
  0
LINE
  5
974
330
913
100
AcDbEntity
  8
Pressure_Balance_Rough_Valve-GROHE-35115000
100
AcDbLine
 10
-0.2351901455903285
 20
-1.30204470795343
 30
0.0
 11
-0.2229234517937622
 21
-1.311208201732865
 31
0.0
1001
REVIT
1002
{
1070
     1
1000
158160
1002
}
1002
{
1070
     2
1000
-2001160
1002
}
  0
LINE
  5
975
330
913
100
AcDbEntity
  8
Pressure_Balance_Rough_Valve-GROHE-35115000
100
AcDbLine
 10
-0.2229234517937622
 20
-1.311208201732865
 30
0.0
 11
-0.210300128028793
 21
-1.319873828777067
 31
0.0
1001
REVIT
1002
{
1070
     1
1000
158160
1002
}
1002
{
1070
     2
1000
-2001160
1002
}
  0
LINE
  5
976
330
913
100
AcDbEntity
  8
Pressure_Balance_Rough_Valve-GROHE-35115000
100
AcDbLine
 10
-0.210300128028793
 20
-1.319873828777067
 30
0.0
 11
-0.1973403689206119
 21
-1.328027725931335
 31
0.0
1001
REVIT
1002
{
1070
     1
1000
158160
1002
}
1002
{
1070
     2
1000
-2001160
1002
}
  0
LINE
  5
977
330
913
100
AcDbEntity
  8
Pressure_Balance_Rough_Valve-GROHE-35115000
100
AcDbLine
 10
-0.1973403689206119
 20
-1.328027725931335
 30
0.0
 11
-0.1840649073191915
 21
-1.335656848699626
 31
0.0
1001
REVIT
1002
{
1070
     1
1000
158160
1002
}
1002
{
1070
     2
1000
-2001160
1002
}
  0
LINE
  5
978
330
913
100
AcDbEntity
  8
Pressure_Balance_Rough_Valve-GROHE-35115000
100
AcDbLine
 10
-0.1840649073191915
 20
-1.335656848699626
 30
0.0
 11
-0.1704949811311467
 21
-1.342748992112972
 31
0.0
1001
REVIT
1002
{
1070
     1
1000
158160
1002
}
1002
{
1070
     2
1000
-2001160
1002
}
  0
LINE
  5
979
330
913
100
AcDbEntity
  8
Pressure_Balance_Rough_Valve-GROHE-35115000
100
AcDbLine
 10
-0.1704949811311467
 20
-1.342748992112972
 30
0.0
 11
-0.1566522993436141
 21
-1.34929281025482
 31
0.0
1001
REVIT
1002
{
1070
     1
1000
158160
1002
}
1002
{
1070
     2
1000
-2001160
1002
}
  0
LINE
  5
97A
330
913
100
AcDbEntity
  8
Pressure_Balance_Rough_Valve-GROHE-35115000
100
AcDbLine
 10
-0.1566522993436141
 20
-1.34929281025482
 30
0.0
 11
-0.1425590072945075
 21
-1.355277834412083
 31
0.0
1001
REVIT
1002
{
1070
     1
1000
158160
1002
}
1002
{
1070
     2
1000
-2001160
1002
}
  0
LINE
  5
97B
330
913
100
AcDbEntity
  8
Pressure_Balance_Rough_Valve-GROHE-35115000
100
AcDbLine
 10
-0.1425590072945075
 20
-1.355277834412083
 30
0.0
 11
-0.128237651244695
 21
-1.360694489822849
 31
0.0
1001
REVIT
1002
{
1070
     1
1000
158160
1002
}
1002
{
1070
     2
1000
-2001160
1002
}
  0
LINE
  5
97C
330
913
100
AcDbEntity
  8
Pressure_Balance_Rough_Valve-GROHE-35115000
100
AcDbLine
 10
-0.128237651244695
 20
-1.360694489822849
 30
0.0
 11
-0.1137111423087989
 21
-1.365534110993948
 31
0.0
1001
REVIT
1002
{
1070
     1
1000
158160
1002
}
1002
{
1070
     2
1000
-2001160
1002
}
  0
LINE
  5
97D
330
913
100
AcDbEntity
  8
Pressure_Balance_Rough_Valve-GROHE-35115000
100
AcDbLine
 10
-0.1137111423087989
 20
-1.365534110993948
 30
0.0
 11
-0.0990027198022903
 21
-1.369788955563908
 31
0.0
1001
REVIT
1002
{
1070
     1
1000
158160
1002
}
1002
{
1070
     2
1000
-2001160
1002
}
  0
LINE
  5
97E
330
913
100
AcDbEntity
  8
Pressure_Balance_Rough_Valve-GROHE-35115000
100
AcDbLine
 10
-0.0990027198022903
 20
-1.369788955563908
 30
0.0
 11
-0.0841359140635536
 21
-1.373452216689067
 31
0.0
1001
REVIT
1002
{
1070
     1
1000
158160
1002
}
1002
{
1070
     2
1000
-2001160
1002
}
  0
LINE
  5
97F
330
913
100
AcDbEntity
  8
Pressure_Balance_Rough_Valve-GROHE-35115000
100
AcDbLine
 10
-0.0841359140635536
 20
-1.373452216689067
 30
0.0
 11
-0.0691345088103521
 21
-1.376518033933078
 31
0.0
1001
REVIT
1002
{
1070
     1
1000
158160
1002
}
1002
{
1070
     2
1000
-2001160
1002
}
  0
LINE
  5
980
330
913
100
AcDbEntity
  8
Pressure_Balance_Rough_Valve-GROHE-35115000
100
AcDbLine
 10
-0.0691345088103521
 20
-1.376518033933078
 30
0.0
 11
-0.0540225030909634
 21
-1.378981502642358
 31
0.0
1001
REVIT
1002
{
1070
     1
1000
158160
1002
}
1002
{
1070
     2
1000
-2001160
1002
}
  0
LINE
  5
981
330
913
100
AcDbEntity
  8
Pressure_Balance_Rough_Valve-GROHE-35115000
100
AcDbLine
 10
-0.0540225030909634
 20
-1.378981502642358
 30
0.0
 11
-0.0388240728908143
 21
-1.380838681792483
 31
0.0
1001
REVIT
1002
{
1070
     1
1000
158160
1002
}
1002
{
1070
     2
1000
-2001160
1002
}
  0
LINE
  5
982
330
913
100
AcDbEntity
  8
Pressure_Balance_Rough_Valve-GROHE-35115000
100
AcDbLine
 10
-0.0388240728908143
 20
-1.380838681792483
 30
0.0
 11
-0.0235635324560679
 21
-1.382086600292991
 31
0.0
1001
REVIT
1002
{
1070
     1
1000
158160
1002
}
1002
{
1070
     2
1000
-2001160
1002
}
  0
LINE
  5
983
330
913
100
AcDbEntity
  8
Pressure_Balance_Rough_Valve-GROHE-35115000
100
AcDbLine
 10
-0.0235635324560679
 20
-1.382086600292991
 30
0.0
 11
-0.0082652953960096
 21
-1.382723261740488
 31
0.0
1001
REVIT
1002
{
1070
     1
1000
158160
1002
}
1002
{
1070
     2
1000
-2001160
1002
}
  0
LINE
  5
984
330
913
100
AcDbEntity
  8
Pressure_Balance_Rough_Valve-GROHE-35115000
100
AcDbLine
 10
-0.0082652953960096
 20
-1.382723261740488
 30
0.0
 11
-0.0000000000000204
 21
-1.382812500037892
 31
0.0
1001
REVIT
1002
{
1070
     1
1000
158160
1002
}
1002
{
1070
     2
1000
-2001160
1002
}
  0
LINE
  5
985
330
913
100
AcDbEntity
  8
Pressure_Balance_Rough_Valve-GROHE-35115000
100
AcDbLine
 10
0.0000000000003331
 20
-1.382812500037885
 30
0.0
 11
0.0153084169948672
 21
-1.382506290869017
 31
0.0
1001
REVIT
1002
{
1070
     1
1000
158160
1002
}
1002
{
1070
     2
1000
-2001160
1002
}
  0
LINE
  5
986
330
913
100
AcDbEntity
  8
Pressure_Balance_Rough_Valve-GROHE-35115000
100
AcDbLine
 10
0.0153084169948672
 20
-1.382506290869017
 30
0.0
 11
0.0305923437881841
 21
-1.381588153231739
 31
0.0
1001
REVIT
1002
{
1070
     1
1000
158160
1002
}
1002
{
1070
     2
1000
-2001160
1002
}
  0
LINE
  5
987
330
913
100
AcDbEntity
  8
Pressure_Balance_Rough_Valve-GROHE-35115000
100
AcDbLine
 10
0.0305923437881841
 20
-1.381588153231739
 30
0.0
 11
0.0458273293574587
 21
-1.38005955595042
 31
0.0
1001
REVIT
1002
{
1070
     1
1000
158160
1002
}
1002
{
1070
     2
1000
-2001160
1002
}
  0
LINE
  5
988
330
913
100
AcDbEntity
  8
Pressure_Balance_Rough_Valve-GROHE-35115000
100
AcDbLine
 10
0.0458273293574587
 20
-1.38005955595042
 30
0.0
 11
0.0609890009757361
 21
-1.377922944454625
 31
0.0
1001
REVIT
1002
{
1070
     1
1000
158160
1002
}
1002
{
1070
     2
1000
-2001160
1002
}
  0
LINE
  5
989
330
913
100
AcDbEntity
  8
Pressure_Balance_Rough_Valve-GROHE-35115000
100
AcDbLine
 10
0.0609890009757361
 20
-1.377922944454625
 30
0.0
 11
0.076053103202745
 21
-1.375181736866963
 31
0.0
1001
REVIT
1002
{
1070
     1
1000
158160
1002
}
1002
{
1070
     2
1000
-2001160
1002
}
  0
LINE
  5
98A
330
913
100
AcDbEntity
  8
Pressure_Balance_Rough_Valve-GROHE-35115000
100
AcDbLine
 10
0.076053103202745
 20
-1.375181736866963
 30
0.0
 11
0.0909955366884274
 21
-1.371840318534814
 31
0.0
1001
REVIT
1002
{
1070
     1
1000
158160
1002
}
1002
{
1070
     2
1000
-2001160
1002
}
  0
LINE
  5
98B
330
913
100
AcDbEntity
  8
Pressure_Balance_Rough_Valve-GROHE-35115000
100
AcDbLine
 10
0.0909955366884274
 20
-1.371840318534814
 30
0.0
 11
0.1057923967267538
 21
-1.36790403501471
 31
0.0
1001
REVIT
1002
{
1070
     1
1000
158160
1002
}
1002
{
1070
     2
1000
-2001160
1002
}
  0
LINE
  5
98C
330
913
100
AcDbEntity
  8
Pressure_Balance_Rough_Valve-GROHE-35115000
100
AcDbLine
 10
0.1057923967267538
 20
-1.36790403501471
 30
0.0
 11
0.1204200114981591
 21
-1.36337918352059
 31
0.0
1001
REVIT
1002
{
1070
     1
1000
158160
1002
}
1002
{
1070
     2
1000
-2001160
1002
}
  0
LINE
  5
98D
330
913
100
AcDbEntity
  8
Pressure_Balance_Rough_Valve-GROHE-35115000
100
AcDbLine
 10
0.1204200114981591
 20
-1.36337918352059
 30
0.0
 11
0.1348549799393988
 21
-1.358273002849593
 31
0.0
1001
REVIT
1002
{
1070
     1
1000
158160
1002
}
1002
{
1070
     2
1000
-2001160
1002
}
  0
LINE
  5
98E
330
913
100
AcDbEntity
  8
Pressure_Balance_Rough_Valve-GROHE-35115000
100
AcDbLine
 10
0.1348549799393988
 20
-1.358273002849593
 30
0.0
 11
0.149074209180263
 21
-1.352593661801532
 31
0.0
1001
REVIT
1002
{
1070
     1
1000
158160
1002
}
1002
{
1070
     2
1000
-2001160
1002
}
  0
LINE
  5
98F
330
913
100
AcDbEntity
  8
Pressure_Balance_Rough_Valve-GROHE-35115000
100
AcDbLine
 10
0.149074209180263
 20
-1.352593661801532
 30
0.0
 11
0.1630549514872408
 21
-1.346350246110556
 31
0.0
1001
REVIT
1002
{
1070
     1
1000
158160
1002
}
1002
{
1070
     2
1000
-2001160
1002
}
  0
LINE
  5
990
330
913
100
AcDbEntity
  8
Pressure_Balance_Rough_Valve-GROHE-35115000
100
AcDbLine
 10
0.1630549514872408
 20
-1.346350246110556
 30
0.0
 11
0.1767748406550407
 21
-1.339552743909914
 31
0.0
1001
REVIT
1002
{
1070
     1
1000
158160
1002
}
1002
{
1070
     2
1000
-2001160
1002
}
  0
LINE
  5
991
330
913
100
AcDbEntity
  8
Pressure_Balance_Rough_Valve-GROHE-35115000
100
AcDbLine
 10
0.1767748406550407
 20
-1.339552743909914
 30
0.0
 11
0.1902119277877476
 21
-1.332212029753069
 31
0.0
1001
REVIT
1002
{
1070
     1
1000
158160
1002
}
1002
{
1070
     2
1000
-2001160
1002
}
  0
LINE
  5
992
330
913
100
AcDbEntity
  8
Pressure_Balance_Rough_Valve-GROHE-35115000
100
AcDbLine
 10
0.1902119277877476
 20
-1.332212029753069
 30
0.0
 11
0.2033447164123734
 21
-1.324339847216736
 31
0.0
1001
REVIT
1002
{
1070
     1
1000
158160
1002
}
1002
{
1070
     2
1000
-2001160
1002
}
  0
LINE
  5
993
330
913
100
AcDbEntity
  8
Pressure_Balance_Rough_Valve-GROHE-35115000
100
AcDbLine
 10
0.2033447164123734
 20
-1.324339847216736
 30
0.0
 11
0.2161521968686335
 21
-1.315948790113666
 31
0.0
1001
REVIT
1002
{
1070
     1
1000
158160
1002
}
1002
{
1070
     2
1000
-2001160
1002
}
  0
LINE
  5
994
330
913
100
AcDbEntity
  8
Pressure_Balance_Rough_Valve-GROHE-35115000
100
AcDbLine
 10
0.2161521968686335
 20
-1.315948790113666
 30
0.0
 11
0.2286138799199122
 21
-1.307052282345226
 31
0.0
1001
REVIT
1002
{
1070
     1
1000
158160
1002
}
1002
{
1070
     2
1000
-2001160
1002
}
  0
LINE
  5
995
330
913
100
AcDbEntity
  8
Pressure_Balance_Rough_Valve-GROHE-35115000
100
AcDbLine
 10
0.2286138799199122
 20
-1.307052282345226
 30
0.0
 11
0.2407098295316787
 21
-1.297664556426024
 31
0.0
1001
REVIT
1002
{
1070
     1
1000
158160
1002
}
1002
{
1070
     2
1000
-2001160
1002
}
  0
LINE
  5
996
330
913
100
AcDbEntity
  8
Pressure_Balance_Rough_Valve-GROHE-35115000
100
AcDbLine
 10
0.2407098295316787
 20
-1.297664556426024
 30
0.0
 11
0.2524206947648873
 21
-1.287800630714925
 31
0.0
1001
REVIT
1002
{
1070
     1
1000
158160
1002
}
1002
{
1070
     2
1000
-2001160
1002
}
  0
LINE
  5
997
330
913
100
AcDbEntity
  8
Pressure_Balance_Rough_Valve-GROHE-35115000
100
AcDbLine
 10
0.2524206947648873
 20
-1.287800630714925
 30
0.0
 11
0.2637277407333469
 21
-1.277476285388872
 31
0.0
1001
REVIT
1002
{
1070
     1
1000
158160
1002
}
1002
{
1070
     2
1000
-2001160
1002
}
  0
LINE
  5
998
330
913
100
AcDbEntity
  8
Pressure_Balance_Rough_Valve-GROHE-35115000
100
AcDbLine
 10
0.2637277407333469
 20
-1.277476285388872
 30
0.0
 11
0.2746128785755522
 21
-1.26670803719798
 31
0.0
1001
REVIT
1002
{
1070
     1
1000
158160
1002
}
1002
{
1070
     2
1000
-2001160
1002
}
  0
LINE
  5
999
330
913
100
AcDbEntity
  8
Pressure_Balance_Rough_Valve-GROHE-35115000
100
AcDbLine
 10
0.2746128785755522
 20
-1.26670803719798
 30
0.0
 11
0.2850586943929913
 21
-1.255513113042248
 31
0.0
1001
REVIT
1002
{
1070
     1
1000
158160
1002
}
1002
{
1070
     2
1000
-2001160
1002
}
  0
LINE
  5
99A
330
913
100
AcDbEntity
  8
Pressure_Balance_Rough_Valve-GROHE-35115000
100
AcDbLine
 10
0.2850586943929913
 20
-1.255513113042248
 30
0.0
 11
0.295048477108681
 21
-1.243909422412205
 31
0.0
1001
REVIT
1002
{
1070
     1
1000
158160
1002
}
1002
{
1070
     2
1000
-2001160
1002
}
  0
LINE
  5
99B
330
913
100
AcDbEntity
  8
Pressure_Balance_Rough_Valve-GROHE-35115000
100
AcDbLine
 10
0.295048477108681
 20
-1.243909422412205
 30
0.0
 11
0.3045662452013147
 21
-1.231915528737534
 31
0.0
1001
REVIT
1002
{
1070
     1
1000
158160
1002
}
1002
{
1070
     2
1000
-2001160
1002
}
  0
LINE
  5
99C
330
913
100
AcDbEntity
  8
Pressure_Balance_Rough_Valve-GROHE-35115000
100
AcDbLine
 10
0.3045662452013147
 20
-1.231915528737534
 30
0.0
 11
0.3135967722722937
 21
-1.219550619689556
 31
0.0
1001
REVIT
1002
{
1070
     1
1000
158160
1002
}
1002
{
1070
     2
1000
-2001160
1002
}
  0
LINE
  5
99D
330
913
100
AcDbEntity
  8
Pressure_Balance_Rough_Valve-GROHE-35115000
100
AcDbLine
 10
0.3135967722722937
 20
-1.219550619689556
 30
0.0
 11
0.3221256114047124
 21
-1.20683447648504
 31
0.0
1001
REVIT
1002
{
1070
     1
1000
158160
1002
}
1002
{
1070
     2
1000
-2001160
1002
}
  0
LINE
  5
99E
330
913
100
AcDbEntity
  8
Pressure_Balance_Rough_Valve-GROHE-35115000
100
AcDbLine
 10
0.3221256114047124
 20
-1.20683447648504
 30
0.0
 11
0.3301391182753504
 21
-1.193787442240481
 31
0.0
1001
REVIT
1002
{
1070
     1
1000
158160
1002
}
1002
{
1070
     2
1000
-2001160
1002
}
  0
LINE
  5
99F
330
913
100
AcDbEntity
  8
Pressure_Balance_Rough_Valve-GROHE-35115000
100
AcDbLine
 10
0.3301391182753504
 20
-1.193787442240481
 30
0.0
 11
0.3376244729826707
 21
-1.180430389427452
 31
0.0
1001
REVIT
1002
{
1070
     1
1000
158160
1002
}
1002
{
1070
     2
1000
-2001160
1002
}
  0
LINE
  5
9A0
330
913
100
AcDbEntity
  8
Pressure_Balance_Rough_Valve-GROHE-35115000
100
AcDbLine
 10
0.3376244729826707
 20
-1.180430389427452
 30
0.0
 11
0.3445697005559305
 21
-1.166784686481099
 31
0.0
1001
REVIT
1002
{
1070
     1
1000
158160
1002
}
1002
{
1070
     2
1000
-2001160
1002
}
  0
LINE
  5
9A1
330
913
100
AcDbEntity
  8
Pressure_Balance_Rough_Valve-GROHE-35115000
100
AcDbLine
 10
0.3445697005559305
 20
-1.166784686481099
 30
0.0
 11
0.3509636901125832
 21
-1.152872163615211
 31
0.0
1001
REVIT
1002
{
1070
     1
1000
158160
1002
}
1002
{
1070
     2
1000
-2001160
1002
}
  0
LINE
  5
9A2
330
913
100
AcDbEntity
  8
Pressure_Balance_Rough_Valve-GROHE-35115000
100
AcDbLine
 10
0.3509636901125832
 20
-1.152872163615211
 30
0.0
 11
0.3567962126333173
 21
-1.138715077898526
 31
0.0
1001
REVIT
1002
{
1070
     1
1000
158160
1002
}
1002
{
1070
     2
1000
-2001160
1002
}
  0
LINE
  5
9A3
330
913
100
AcDbEntity
  8
Pressure_Balance_Rough_Valve-GROHE-35115000
100
AcDbLine
 10
0.3567962126333173
 20
-1.138715077898526
 30
0.0
 11
0.3620579373263046
 21
-1.124336077648172
 31
0.0
1001
REVIT
1002
{
1070
     1
1000
158160
1002
}
1002
{
1070
     2
1000
-2001160
1002
}
  0
LINE
  5
9A4
330
913
100
AcDbEntity
  8
Pressure_Balance_Rough_Valve-GROHE-35115000
100
AcDbLine
 10
0.3620579373263046
 20
-1.124336077648172
 30
0.0
 11
0.3667404465544752
 21
-1.109758166197194
 31
0.0
1001
REVIT
1002
{
1070
     1
1000
158160
1002
}
1002
{
1070
     2
1000
-2001160
1002
}
  0
LINE
  5
9A5
330
913
100
AcDbEntity
  8
Pressure_Balance_Rough_Valve-GROHE-35115000
100
AcDbLine
 10
0.3667404465544752
 20
-1.109758166197194
 30
0.0
 11
0.3708362493019495
 21
-1.095004665094126
 31
0.0
1001
REVIT
1002
{
1070
     1
1000
158160
1002
}
1002
{
1070
     2
1000
-2001160
1002
}
  0
LINE
  5
9A6
330
913
100
AcDbEntity
  8
Pressure_Balance_Rough_Valve-GROHE-35115000
100
AcDbLine
 10
0.3708362493019495
 20
-1.095004665094126
 30
0.0
 11
0.3743387931580537
 21
-1.080099176793486
 31
0.0
1001
REVIT
1002
{
1070
     1
1000
158160
1002
}
1002
{
1070
     2
1000
-2001160
1002
}
  0
LINE
  5
9A7
330
913
100
AcDbEntity
  8
Pressure_Balance_Rough_Valve-GROHE-35115000
100
AcDbLine
 10
0.3743387931580537
 20
-1.080099176793486
 30
0.0
 11
0.3772424747997887
 21
-1.065065546896887
 31
0.0
1001
REVIT
1002
{
1070
     1
1000
158160
1002
}
1002
{
1070
     2
1000
-2001160
1002
}
  0
LINE
  5
9A8
330
913
100
AcDbEntity
  8
Pressure_Balance_Rough_Valve-GROHE-35115000
100
AcDbLine
 10
0.3772424747997887
 20
-1.065065546896887
 30
0.0
 11
0.3795426489559466
 21
-1.049927826005162
 31
0.0
1001
REVIT
1002
{
1070
     1
1000
158160
1002
}
1002
{
1070
     2
1000
-2001160
1002
}
  0
LINE
  5
9A9
330
913
100
AcDbEntity
  8
Pressure_Balance_Rough_Valve-GROHE-35115000
100
AcDbLine
 10
0.3795426489559466
 20
-1.049927826005162
 30
0.0
 11
0.3812356358385562
 21
-1.034710231242527
 31
0.0
1001
REVIT
1002
{
1070
     1
1000
158160
1002
}
1002
{
1070
     2
1000
-2001160
1002
}
  0
LINE
  5
9AA
330
913
100
AcDbEntity
  8
Pressure_Balance_Rough_Valve-GROHE-35115000
100
AcDbLine
 10
0.3812356358385562
 20
-1.034710231242527
 30
0.0
 11
0.3823187270297543
 21
-1.019437107514356
 31
0.0
1001
REVIT
1002
{
1070
     1
1000
158160
1002
}
1002
{
1070
     2
1000
-2001160
1002
}
  0
LINE
  5
9AB
330
913
100
AcDbEntity
  8
Pressure_Balance_Rough_Valve-GROHE-35115000
100
AcDbLine
 10
0.3823187270297543
 20
-1.019437107514356
 30
0.0
 11
0.3827901898146839
 21
-1.004132888560523
 31
0.0
1001
REVIT
1002
{
1070
     1
1000
158160
1002
}
1002
{
1070
     2
1000
-2001160
1002
}
  0
LINE
  5
9AC
330
913
100
AcDbEntity
  8
Pressure_Balance_Rough_Valve-GROHE-35115000
100
AcDbLine
 10
0.3827901898146839
 20
-1.004132888560523
 30
0.0
 11
0.382649269953462
 21
-0.988822057866627
 31
0.0
1001
REVIT
1002
{
1070
     1
1000
158160
1002
}
1002
{
1070
     2
1000
-2001160
1002
}
  0
LINE
  5
9AD
330
913
100
AcDbEntity
  8
Pressure_Balance_Rough_Valve-GROHE-35115000
100
AcDbLine
 10
0.382649269953462
 20
-0.988822057866627
 30
0.0
 11
0.3818961928878055
 21
-0.9735291094956409
 31
0.0
1001
REVIT
1002
{
1070
     1
1000
158160
1002
}
1002
{
1070
     2
1000
-2001160
1002
}
  0
LINE
  5
9AE
330
913
100
AcDbEntity
  8
Pressure_Balance_Rough_Valve-GROHE-35115000
100
AcDbLine
 10
0.3818961928878055
 20
-0.9735291094956409
 30
0.0
 11
0.3805321633803711
 21
-0.9582785089026383
 31
0.0
1001
REVIT
1002
{
1070
     1
1000
158160
1002
}
1002
{
1070
     2
1000
-2001160
1002
}
  0
LINE
  5
9AF
330
913
100
AcDbEntity
  8
Pressure_Balance_Rough_Valve-GROHE-35115000
100
AcDbLine
 10
0.3805321633803711
 20
-0.9582785089026383
 30
0.0
 11
0.3785593635873932
 21
-0.943094653795279
 31
0.0
1001
REVIT
1002
{
1070
     1
1000
158160
1002
}
1002
{
1070
     2
1000
-2001160
1002
}
  0
LINE
  5
9B0
330
913
100
AcDbEntity
  8
Pressure_Balance_Rough_Valve-GROHE-35115000
100
AcDbLine
 10
0.3785593635873932
 20
-0.943094653795279
 30
0.0
 11
0.3759809495676993
 21
-0.9280018351026853
 31
0.0
1001
REVIT
1002
{
1070
     1
1000
158160
1002
}
1002
{
1070
     2
1000
-2001160
1002
}
  0
LINE
  5
9B1
330
913
100
AcDbEntity
  8
Pressure_Balance_Rough_Valve-GROHE-35115000
100
AcDbLine
 10
0.3759809495676993
 20
-0.9280018351026853
 30
0.0
 11
0.3728010462336888
 21
-0.9130241981151364
 31
0.0
1001
REVIT
1002
{
1070
     1
1000
158160
1002
}
1002
{
1070
     2
1000
-2001160
1002
}
  0
LINE
  5
9B2
330
913
100
AcDbEntity
  8
Pressure_Balance_Rough_Valve-GROHE-35115000
100
AcDbLine
 10
0.3728010462336888
 20
-0.9130241981151364
 30
0.0
 11
0.3690247407523524
 21
-0.8981857038567529
 31
0.0
1001
REVIT
1002
{
1070
     1
1000
158160
1002
}
1002
{
1070
     2
1000
-2001160
1002
}
  0
LINE
  5
9B3
330
913
100
AcDbEntity
  8
Pressure_Balance_Rough_Valve-GROHE-35115000
100
AcDbLine
 10
0.3690247407523524
 20
-0.8981857038567529
 30
0.0
 11
0.3646580744068926
 21
-0.8835100907529714
 31
0.0
1001
REVIT
1002
{
1070
     1
1000
158160
1002
}
1002
{
1070
     2
1000
-2001160
1002
}
  0
LINE
  5
9B4
330
913
100
AcDbEntity
  8
Pressure_Balance_Rough_Valve-GROHE-35115000
100
AcDbLine
 10
0.3646580744068926
 20
-0.8835100907529714
 30
0.0
 11
0.3597080329319544
 21
-0.8690208366541282
 31
0.0
1001
REVIT
1002
{
1070
     1
1000
158160
1002
}
1002
{
1070
     2
1000
-2001160
1002
}
  0
LINE
  5
9B5
330
913
100
AcDbEntity
  8
Pressure_Balance_Rough_Valve-GROHE-35115000
100
AcDbLine
 10
0.3597080329319544
 20
-0.8690208366541282
 30
0.0
 11
0.3541825353379462
 21
-0.8547411212759051
 31
0.0
1001
REVIT
1002
{
1070
     1
1000
158160
1002
}
1002
{
1070
     2
1000
-2001160
1002
}
  0
LINE
  5
9B6
330
913
100
AcDbEntity
  8
Pressure_Balance_Rough_Valve-GROHE-35115000
100
AcDbLine
 10
0.3541825353379462
 20
-0.8547411212759051
 30
0.0
 11
0.3480904212423086
 21
-0.8406937891167302
 31
0.0
1001
REVIT
1002
{
1070
     1
1000
158160
1002
}
1002
{
1070
     2
1000
-2001160
1002
}
  0
LINE
  5
9B7
330
913
100
AcDbEntity
  8
Pressure_Balance_Rough_Valve-GROHE-35115000
100
AcDbLine
 10
0.3480904212423086
 20
-0.8406937891167302
 30
0.0
 11
0.3414414367280125
 21
-0.826901312911454
 31
0.0
1001
REVIT
1002
{
1070
     1
1000
158160
1002
}
1002
{
1070
     2
1000
-2001160
1002
}
  0
LINE
  5
9B8
330
913
100
AcDbEntity
  8
Pressure_Balance_Rough_Valve-GROHE-35115000
100
AcDbLine
 10
0.3414414367280125
 20
-0.826901312911454
 30
0.0
 11
0.3342462187519075
 21
-0.8133857576797669
 31
0.0
1001
REVIT
1002
{
1070
     1
1000
158160
1002
}
1002
{
1070
     2
1000
-2001160
1002
}
  0
LINE
  5
9B9
330
913
100
AcDbEntity
  8
Pressure_Balance_Rough_Valve-GROHE-35115000
100
AcDbLine
 10
0.3342462187519075
 20
-0.8133857576797669
 30
0.0
 11
0.3265162781278565
 21
-0.8001687454268752
 31
0.0
1001
REVIT
1002
{
1070
     1
1000
158160
1002
}
1002
{
1070
     2
1000
-2001160
1002
}
  0
LINE
  5
9BA
330
913
100
AcDbEntity
  8
Pressure_Balance_Rough_Valve-GROHE-35115000
100
AcDbLine
 10
0.3265162781278565
 20
-0.8001687454268752
 30
0.0
 11
0.3182639811118921
 21
-0.7872714205529042
 31
0.0
1001
REVIT
1002
{
1070
     1
1000
158160
1002
}
1002
{
1070
     2
1000
-2001160
1002
}
  0
LINE
  5
9BB
330
913
100
AcDbEntity
  8
Pressure_Balance_Rough_Valve-GROHE-35115000
100
AcDbLine
 10
0.3182639811118921
 20
-0.7872714205529042
 30
0.0
 11
0.3095025296188423
 21
-0.7747144160263703
 31
0.0
1001
REVIT
1002
{
1070
     1
1000
158160
1002
}
1002
{
1070
     2
1000
-2001160
1002
}
  0
LINE
  5
9BC
330
913
100
AcDbEntity
  8
Pressure_Balance_Rough_Valve-GROHE-35115000
100
AcDbLine
 10
0.3095025296188423
 20
-0.7747144160263703
 30
0.0
 11
0.300245940102088
 21
-0.76251782037583
 31
0.0
1001
REVIT
1002
{
1070
     1
1000
158160
1002
}
1002
{
1070
     2
1000
-2001160
1002
}
  0
LINE
  5
9BD
330
913
100
AcDbEntity
  8
Pressure_Balance_Rough_Valve-GROHE-35115000
100
AcDbLine
 10
0.300245940102088
 20
-0.76251782037583
 30
0.0
 11
0.2905090211302221
 21
-0.7507011455525238
 31
0.0
1001
REVIT
1002
{
1070
     1
1000
158160
1002
}
1002
{
1070
     2
1000
-2001160
1002
}
  0
LINE
  5
9BE
330
913
100
AcDbEntity
  8
Pressure_Balance_Rough_Valve-GROHE-35115000
100
AcDbLine
 10
0.2905090211302221
 20
-0.7507011455525238
 30
0.0
 11
0.2803073496964998
 21
-0.7392832957154125
 31
0.0
1001
REVIT
1002
{
1070
     1
1000
158160
1002
}
1002
{
1070
     2
1000
-2001160
1002
}
  0
LINE
  5
9BF
330
913
100
AcDbEntity
  8
Pressure_Balance_Rough_Valve-GROHE-35115000
100
AcDbLine
 10
0.2803073496964998
 20
-0.7392832957154125
 30
0.0
 11
0.2696572462989755
 21
-0.7282825369885568
 31
0.0
1001
REVIT
1002
{
1070
     1
1000
158160
1002
}
1002
{
1070
     2
1000
-2001160
1002
}
  0
LINE
  5
9C0
330
913
100
AcDbEntity
  8
Pressure_Balance_Rough_Valve-GROHE-35115000
100
AcDbLine
 10
0.2696572462989755
 20
-0.7282825369885568
 30
0.0
 11
0.2585757488311833
 21
-0.7177164682392167
 31
0.0
1001
REVIT
1002
{
1070
     1
1000
158160
1002
}
1002
{
1070
     2
1000
-2001160
1002
}
  0
LINE
  5
9C1
330
913
100
AcDbEntity
  8
Pressure_Balance_Rough_Valve-GROHE-35115000
100
AcDbLine
 10
0.2585757488311833
 20
-0.7177164682392167
 30
0.0
 11
0.2470805853251461
 21
-0.7076019929234169
 31
0.0
1001
REVIT
1002
{
1070
     1
1000
158160
1002
}
1002
{
1070
     2
1000
-2001160
1002
}
  0
LINE
  5
9C2
330
913
100
AcDbEntity
  8
Pressure_Balance_Rough_Valve-GROHE-35115000
100
AcDbLine
 10
0.2470805853251461
 20
-0.7076019929234169
 30
0.0
 11
0.2351901455903027
 21
-0.6979552920440228
 31
0.0
1001
REVIT
1002
{
1070
     1
1000
158160
1002
}
1002
{
1070
     2
1000
-2001160
1002
}
  0
LINE
  5
9C3
330
913
100
AcDbEntity
  8
Pressure_Balance_Rough_Valve-GROHE-35115000
100
AcDbLine
 10
0.2351901455903027
 20
-0.6979552920440228
 30
0.0
 11
0.2229234517937364
 21
-0.688791798264588
 31
0.0
1001
REVIT
1002
{
1070
     1
1000
158160
1002
}
1002
{
1070
     2
1000
-2001160
1002
}
  0
LINE
  5
9C4
330
913
100
AcDbEntity
  8
Pressure_Balance_Rough_Valve-GROHE-35115000
100
AcDbLine
 10
0.2229234517937364
 20
-0.688791798264588
 30
0.0
 11
0.2103001280287673
 21
-0.680126171220386
 31
0.0
1001
REVIT
1002
{
1070
     1
1000
158160
1002
}
1002
{
1070
     2
1000
-2001160
1002
}
  0
LINE
  5
9C5
330
913
100
AcDbEntity
  8
Pressure_Balance_Rough_Valve-GROHE-35115000
100
AcDbLine
 10
0.2103001280287673
 20
-0.680126171220386
 30
0.0
 11
0.1973403689205861
 21
-0.6719722740661182
 31
0.0
1001
REVIT
1002
{
1070
     1
1000
158160
1002
}
1002
{
1070
     2
1000
-2001160
1002
}
  0
LINE
  5
9C6
330
913
100
AcDbEntity
  8
Pressure_Balance_Rough_Valve-GROHE-35115000
100
AcDbLine
 10
0.1973403689205861
 20
-0.6719722740661182
 30
0.0
 11
0.1840649073191658
 21
-0.664343151297827
 31
0.0
1001
REVIT
1002
{
1070
     1
1000
158160
1002
}
1002
{
1070
     2
1000
-2001160
1002
}
  0
LINE
  5
9C7
330
913
100
AcDbEntity
  8
Pressure_Balance_Rough_Valve-GROHE-35115000
100
AcDbLine
 10
0.1840649073191658
 20
-0.664343151297827
 30
0.0
 11
0.17049498113112
 21
-0.6572510078844817
 31
0.0
1001
REVIT
1002
{
1070
     1
1000
158160
1002
}
1002
{
1070
     2
1000
-2001160
1002
}
  0
LINE
  5
9C8
330
913
100
AcDbEntity
  8
Pressure_Balance_Rough_Valve-GROHE-35115000
100
AcDbLine
 10
0.17049498113112
 20
-0.6572510078844817
 30
0.0
 11
0.1566522993435884
 21
-0.6507071897426334
 31
0.0
1001
REVIT
1002
{
1070
     1
1000
158160
1002
}
1002
{
1070
     2
1000
-2001160
1002
}
  0
LINE
  5
9C9
330
913
100
AcDbEntity
  8
Pressure_Balance_Rough_Valve-GROHE-35115000
100
AcDbLine
 10
0.1566522993435884
 20
-0.6507071897426334
 30
0.0
 11
0.1425590072944809
 21
-0.6447221655853696
 31
0.0
1001
REVIT
1002
{
1070
     1
1000
158160
1002
}
1002
{
1070
     2
1000
-2001160
1002
}
  0
LINE
  5
9CA
330
913
100
AcDbEntity
  8
Pressure_Balance_Rough_Valve-GROHE-35115000
100
AcDbLine
 10
0.1425590072944809
 20
-0.6447221655853696
 30
0.0
 11
0.1282376512446701
 21
-0.6393055101746047
 31
0.0
1001
REVIT
1002
{
1070
     1
1000
158160
1002
}
1002
{
1070
     2
1000
-2001160
1002
}
  0
LINE
  5
9CB
330
913
100
AcDbEntity
  8
Pressure_Balance_Rough_Valve-GROHE-35115000
100
AcDbLine
 10
0.1282376512446701
 20
-0.6393055101746047
 30
0.0
 11
0.1137111423087722
 21
-0.6344658890035042
 31
0.0
1001
REVIT
1002
{
1070
     1
1000
158160
1002
}
1002
{
1070
     2
1000
-2001160
1002
}
  0
LINE
  5
9CC
330
913
100
AcDbEntity
  8
Pressure_Balance_Rough_Valve-GROHE-35115000
100
AcDbLine
 10
0.1137111423087722
 20
-0.6344658890035042
 30
0.0
 11
0.0990027198022654
 21
-0.6302110444335446
 31
0.0
1001
REVIT
1002
{
1070
     1
1000
158160
1002
}
1002
{
1070
     2
1000
-2001160
1002
}
  0
LINE
  5
9CD
330
913
100
AcDbEntity
  8
Pressure_Balance_Rough_Valve-GROHE-35115000
100
AcDbLine
 10
0.0990027198022654
 20
-0.6302110444335446
 30
0.0
 11
0.0841359140635278
 21
-0.6265477833083862
 31
0.0
1001
REVIT
1002
{
1070
     1
1000
158160
1002
}
1002
{
1070
     2
1000
-2001160
1002
}
  0
LINE
  5
9CE
330
913
100
AcDbEntity
  8
Pressure_Balance_Rough_Valve-GROHE-35115000
100
AcDbLine
 10
0.0841359140635278
 20
-0.6265477833083862
 30
0.0
 11
0.0691345088103264
 21
-0.6234819660643748
 31
0.0
1001
REVIT
1002
{
1070
     1
1000
158160
1002
}
1002
{
1070
     2
1000
-2001160
1002
}
  0
LINE
  5
9CF
330
913
100
AcDbEntity
  8
Pressure_Balance_Rough_Valve-GROHE-35115000
100
AcDbLine
 10
0.0691345088103264
 20
-0.6234819660643748
 30
0.0
 11
0.0540225030909367
 21
-0.6210184973550951
 31
0.0
1001
REVIT
1002
{
1070
     1
1000
158160
1002
}
1002
{
1070
     2
1000
-2001160
1002
}
  0
LINE
  5
9D0
330
913
100
AcDbEntity
  8
Pressure_Balance_Rough_Valve-GROHE-35115000
100
AcDbLine
 10
0.0540225030909367
 20
-0.6210184973550951
 30
0.0
 11
0.0388240728907885
 21
-0.6191613182049697
 31
0.0
1001
REVIT
1002
{
1070
     1
1000
158160
1002
}
1002
{
1070
     2
1000
-2001160
1002
}
  0
LINE
  5
9D1
330
913
100
AcDbEntity
  8
Pressure_Balance_Rough_Valve-GROHE-35115000
100
AcDbLine
 10
0.0388240728907885
 20
-0.6191613182049697
 30
0.0
 11
0.0235635324560422
 21
-0.6179133997044621
 31
0.0
1001
REVIT
1002
{
1070
     1
1000
158160
1002
}
1002
{
1070
     2
1000
-2001160
1002
}
  0
LINE
  5
9D2
330
913
100
AcDbEntity
  8
Pressure_Balance_Rough_Valve-GROHE-35115000
100
AcDbLine
 10
0.0235635324560422
 20
-0.6179133997044621
 30
0.0
 11
0.0082652953959839
 21
-0.6172767382569643
 31
0.0
1001
REVIT
1002
{
1070
     1
1000
158160
1002
}
1002
{
1070
     2
1000
-2001160
1002
}
  0
LINE
  5
9D3
330
913
100
AcDbEntity
  8
Pressure_Balance_Rough_Valve-GROHE-35115000
100
AcDbLine
 10
0.0082652953959839
 20
-0.6172767382569643
 30
0.0
 11
0.0000000000003331
 21
-0.617187499959564
 31
0.0
1001
REVIT
1002
{
1070
     1
1000
158160
1002
}
1002
{
1070
     2
1000
-2001160
1002
}
  0
LINE
  5
9D4
330
913
100
AcDbEntity
  8
Pressure_Balance_Rough_Valve-GROHE-35115000
100
AcDbLine
 10
-1.812499999999986
 20
-1.375000000017852
 30
0.0
 11
-1.176920550564633
 21
-1.375000000017852
 31
0.0
1001
REVIT
1002
{
1070
     1
1000
160299
1002
}
1002
{
1070
     2
1000
-2001160
1002
}
  0
LINE
  5
9D5
330
913
100
AcDbEntity
  8
Pressure_Balance_Rough_Valve-GROHE-35115000
100
AcDbLine
 10
-1.29989545202816
 20
-0.624999999984628
 30
0.0
 11
-1.812499999999986
 21
-0.624999999984628
 31
0.0
1001
REVIT
1002
{
1070
     1
1000
160299
1002
}
1002
{
1070
     2
1000
-2001160
1002
}
  0
LINE
  5
9D6
330
913
100
AcDbEntity
  8
Pressure_Balance_Rough_Valve-GROHE-35115000
100
AcDbLine
 10
-1.176920550564633
 20
-1.492346826814888
 30
0.0
 11
-1.031250000000245
 21
-1.492346826814888
 31
0.0
1001
REVIT
1002
{
1070
     1
1000
160299
1002
}
1002
{
1070
     2
1000
-2001160
1002
}
  0
LINE
  5
9D7
330
913
100
AcDbEntity
  8
Pressure_Balance_Rough_Valve-GROHE-35115000
100
AcDbLine
 10
1.031250000000205
 20
-1.492346826814888
 30
0.0
 11
1.176920550564634
 21
-1.492346826814888
 31
0.0
1001
REVIT
1002
{
1070
     1
1000
160299
1002
}
1002
{
1070
     2
1000
-2001160
1002
}
  0
LINE
  5
9D8
330
913
100
AcDbEntity
  8
Pressure_Balance_Rough_Valve-GROHE-35115000
100
AcDbLine
 10
1.176920550564634
 20
-0.5076531731875919
 30
0.0
 11
1.031250000000217
 21
-0.5076531731875919
 31
0.0
1001
REVIT
1002
{
1070
     1
1000
160299
1002
}
1002
{
1070
     2
1000
-2001160
1002
}
  0
LINE
  5
9D9
330
913
100
AcDbEntity
  8
Pressure_Balance_Rough_Valve-GROHE-35115000
100
AcDbLine
 10
-1.031250000000232
 20
-0.5076531731875919
 30
0.0
 11
-1.176920550564633
 21
-0.5076531731875919
 31
0.0
1001
REVIT
1002
{
1070
     1
1000
160299
1002
}
1002
{
1070
     2
1000
-2001160
1002
}
  0
LINE
  5
9DA
330
913
100
AcDbEntity
  8
Pressure_Balance_Rough_Valve-GROHE-35115000
100
AcDbLine
 10
1.17692055056463
 20
-1.375000000017823
 30
0.0
 11
1.812500000000667
 21
-1.375000000017823
 31
0.0
1001
REVIT
1002
{
1070
     1
1000
160299
1002
}
1002
{
1070
     2
1000
-2001160
1002
}
  0
LINE
  5
9DB
330
913
100
AcDbEntity
  8
Pressure_Balance_Rough_Valve-GROHE-35115000
100
AcDbLine
 10
1.812500000000667
 20
-0.6249999999846568
 30
0.0
 11
1.17692055056463
 21
-0.6249999999846568
 31
0.0
1001
REVIT
1002
{
1070
     1
1000
160299
1002
}
1002
{
1070
     2
1000
-2001160
1002
}
  0
LINE
  5
9DC
330
913
100
AcDbEntity
  8
Pressure_Balance_Rough_Valve-GROHE-35115000
100
AcDbLine
 10
-1.812499999999984
 20
-1.37500000001785
 30
0.0
 11
-1.812499999999984
 21
-0.6249999999846271
 31
0.0
1001
REVIT
1002
{
1070
     1
1000
160299
1002
}
1002
{
1070
     2
1000
-2001160
1002
}
  0
LINE
  5
9DD
330
913
100
AcDbEntity
  8
Pressure_Balance_Rough_Valve-GROHE-35115000
100
AcDbLine
 10
1.812500000000664
 20
-0.6249999999846564
 30
0.0
 11
1.812500000000664
 21
-1.375000000017821
 31
0.0
1001
REVIT
1002
{
1070
     1
1000
160299
1002
}
1002
{
1070
     2
1000
-2001160
1002
}
  0
LINE
  5
9DE
330
913
100
AcDbEntity
  8
Pressure_Balance_Rough_Valve-GROHE-35115000
100
AcDbLine
 10
-1.176920550564633
 20
-1.492346826814887
 30
0.0
 11
-1.176920550564633
 21
-0.718750000000587
 31
0.0
1001
REVIT
1002
{
1070
     1
1000
160299
1002
}
1002
{
1070
     2
1000
-2001160
1002
}
  0
LINE
  5
9DF
330
913
100
AcDbEntity
  8
Pressure_Balance_Rough_Valve-GROHE-35115000
100
AcDbLine
 10
-1.176920550564633
 20
-0.6234729390632237
 30
0.0
 11
-1.176920550564633
 21
-0.507653173187591
 31
0.0
1001
REVIT
1002
{
1070
     1
1000
160299
1002
}
1002
{
1070
     2
1000
-2001160
1002
}
  0
LINE
  5
9E0
330
913
100
AcDbEntity
  8
Pressure_Balance_Rough_Valve-GROHE-35115000
100
AcDbLine
 10
1.176920550564632
 20
-1.492346826814887
 30
0.0
 11
1.176920550564632
 21
-1.367487129300024
 31
0.0
1001
REVIT
1002
{
1070
     1
1000
160299
1002
}
1002
{
1070
     2
1000
-2001160
1002
}
  0
LINE
  5
9E1
330
913
100
AcDbEntity
  8
Pressure_Balance_Rough_Valve-GROHE-35115000
100
AcDbLine
 10
1.176920550564632
 20
-1.273437500001831
 30
0.0
 11
1.176920550564632
 21
-0.507653173187591
 31
0.0
1001
REVIT
1002
{
1070
     1
1000
160299
1002
}
1002
{
1070
     2
1000
-2001160
1002
}
  0
LINE
  5
9E2
330
913
100
AcDbEntity
  8
Pressure_Balance_Rough_Valve-GROHE-35115000
100
AcDbLine
 10
0.3566385896562147
 20
-1.213011335235164
 30
0.0
 11
1.13028112248728
 21
-1.213011335235167
 31
0.0
1001
REVIT
1002
{
1070
     1
1000
188408
1002
}
1002
{
1070
     2
1000
-2001160
1002
}
  0
LINE
  5
9E3
330
913
100
AcDbEntity
  8
Pressure_Balance_Rough_Valve-GROHE-35115000
100
AcDbLine
 10
1.130281122487282
 20
-0.7791761647551013
 30
0.0
 11
0.3529884002817853
 21
-0.7809929182896373
 31
0.0
1001
REVIT
1002
{
1070
     1
1000
188408
1002
}
1002
{
1070
     2
1000
-2001160
1002
}
  0
LINE
  5
9E4
330
913
100
AcDbEntity
  8
Pressure_Balance_Rough_Valve-GROHE-35115000
100
AcDbLine
 10
1.130281122487279
 20
-0.7791761647551004
 30
0.0
 11
1.130281122487279
 21
-1.213011335235165
 31
0.0
1001
REVIT
1002
{
1070
     1
1000
188408
1002
}
1002
{
1070
     2
1000
-2001160
1002
}
  0
LINE
  5
9E5
330
913
100
AcDbEntity
  8
Pressure_Balance_Rough_Valve-GROHE-35115000
100
AcDbLine
 10
-1.129596651779352
 20
-0.454936356004196
 30
0.0
 11
-0.0646378204679552
 21
-0.454936356004211
 31
0.0
1001
REVIT
1002
{
1070
     1
1000
172981
1002
}
1002
{
1070
     2
1000
-2001160
1002
}
  0
LINE
  5
9E6
330
913
100
AcDbEntity
  8
Pressure_Balance_Rough_Valve-GROHE-35115000
100
AcDbLine
 10
0.0646378204679499
 20
-0.4549363560042128
 30
0.0
 11
1.129596651779338
 21
-0.4549363560042278
 31
0.0
1001
REVIT
1002
{
1070
     1
1000
172981
1002
}
1002
{
1070
     2
1000
-2001160
1002
}
  0
CIRCLE
  5
9E7
330
913
100
AcDbEntity
  8
Pressure_Balance_Rough_Valve-GROHE-35115000
100
AcDbCircle
 10
-0.0000000000000062
 20
-0.9999999999975212
 30
0.0
 40
0.4154093313488539
1001
REVIT
1002
{
1070
     1
1000
172988
1002
}
1002
{
1070
     2
1000
-2001160
1002
}
  0
CIRCLE
  5
9E8
330
913
100
AcDbEntity
  8
Pressure_Balance_Rough_Valve-GROHE-35115000
100
AcDbCircle
 10
-0.0000000000000062
 20
-0.9999999999975212
 30
0.0
 40
0.2500000000303518
1001
REVIT
1002
{
1070
     1
1000
172995
1002
}
1002
{
1070
     2
1000
-2001160
1002
}
  0
ARC
  5
9E9
330
913
100
AcDbEntity
  8
Pressure_Balance_Rough_Valve-GROHE-35115000
100
AcDbCircle
 10
-0.0000000000000142
 20
-0.9999999999987252
 30
0.0
 40
0.5000000000390172
100
AcDbArc
 50
26.00596553656829
 51
334.7845877009634
1001
REVIT
1002
{
1070
     1
1000
173002
1002
}
1002
{
1070
     2
1000
-2001160
1002
}
  0
CIRCLE
  5
9EA
330
913
100
AcDbEntity
  8
Pressure_Balance_Rough_Valve-GROHE-35115000
100
AcDbCircle
 10
0.0000000000003393
 20
-0.9999999999975212
 30
0.0
 40
0.3125000000000002
1001
REVIT
1002
{
1070
     1
1000
173032
1002
}
1002
{
1070
     2
1000
-2001160
1002
}
  0
ENDBLK
  5
915
330
913
100
AcDbEntity
  8
0
100
AcDbBlockEnd
  0
ENDSEC
  0
SECTION
  2
ENTITIES
  0
INSERT
  5
823
330
70
100
AcDbEntity
  8
Pressure_Balance_Rough_Valve-GROHE-35115000
100
AcDbBlockReference
  2
Pressure_Balance_Rough_Valve-GROHE-35115000- Top
 10
0.0000000000007253
 20
4.356110348604707
 30
0.0
  0
INSERT
  5
912
330
70
100
AcDbEntity
  8
Pressure_Balance_Rough_Valve-GROHE-35115000
100
AcDbBlockReference
  2
Pressure_Balance_Rough_Valve-GROHE-35115000- Front
 10
0.0000000000002471
 20
-0.6250000000009968
 30
0.0
  0
INSERT
  5
9EB
330
70
100
AcDbEntity
  8
Pressure_Balance_Rough_Valve-GROHE-35115000
100
AcDbBlockReference
  2
Pressure_Balance_Rough_Valve-GROHE-35115000- Left
 10
-6.703195544137162
 20
0.3617395544243554
 30
0.0
  0
ENDSEC
  0
SECTION
  2
OBJECTS
  0
DICTIONARY
  5
C
330
0
100
AcDbDictionary
281
     1
  3
ACAD_CIP_PREVIOUS_PRODUCT_INFO
350
79
  3
ACAD_COLOR
350
63
  3
ACAD_DETAILVIEWSTYLE
350
6A
  3
ACAD_GROUP
350
D
  3
ACAD_IMAGE_VARS
350
7A
  3
ACAD_LAYOUT
350
62
  3
ACAD_MATERIAL
350
10
  3
ACAD_MLEADERSTYLE
350
66
  3
ACAD_MLINESTYLE
350
5F
  3
ACAD_PLOTSETTINGS
350
61
  3
ACAD_PLOTSTYLENAME
350
E
  3
ACAD_SCALELIST
350
42
  3
ACAD_SECTIONVIEWSTYLE
350
68
  3
ACAD_TABLESTYLE
350
64
  3
ACAD_VISUALSTYLE
350
29
  3
ACDB_RECOMPOSE_DATA
350
A04
  3
AcDbVariableDictionary
350
10E
  3
REVIT_DICTIONARY
350
103
  0
DICTIONARY
  5
733
330
2
100
AcDbDictionary
280
     1
281
     1
  3
ACAD_LAYERSTATES
360
734
  0
DICTIONARY
  5
107
330
70
100
AcDbDictionary
280
     1
281
     1
  3
ACAD_SORTENTS
360
108
  0
XRECORD
  5
79
102
{ACAD_REACTORS
330
C
102
}
330
C
100
AcDbXrecord
280
     1
300
ACD
300
2016
300
86445ACD_2016_0F
  0
DICTIONARY
  5
63
102
{ACAD_REACTORS
330
C
102
}
330
C
100
AcDbDictionary
281
     1
  0
DICTIONARY
  5
6A
102
{ACAD_REACTORS
330
C
102
}
330
C
100
AcDbDictionary
281
     1
  3
Imperial24
350
6B
  0
DICTIONARY
  5
D
102
{ACAD_REACTORS
330
C
102
}
330
C
100
AcDbDictionary
281
     1
  0
RASTERVARIABLES
  5
7A
102
{ACAD_REACTORS
330
C
102
}
330
C
100
AcDbRasterVariables
 90
        0
 70
     0
 71
     1
 72
     5
  0
DICTIONARY
  5
62
102
{ACAD_REACTORS
330
C
102
}
330
C
100
AcDbDictionary
281
     1
  3
Layout1
350
6F
  3
Layout2
350
77
  3
Model
350
73
  0
DICTIONARY
  5
10
102
{ACAD_REACTORS
330
C
102
}
330
C
100
AcDbDictionary
281
     1
  3
ByBlock
350
19
  3
ByLayer
350
11
  3
Global
350
21
  0
DICTIONARY
  5
66
102
{ACAD_REACTORS
330
C
102
}
330
C
100
AcDbDictionary
281
     1
  3
Standard
350
67
  0
DICTIONARY
  5
5F
102
{ACAD_REACTORS
330
C
102
}
330
C
100
AcDbDictionary
281
     1
  3
Standard
350
60
  0
DICTIONARY
  5
61
102
{ACAD_REACTORS
330
C
102
}
330
C
100
AcDbDictionary
281
     1
  0
ACDBDICTIONARYWDFLT
  5
E
102
{ACAD_REACTORS
330
C
102
}
330
C
100
AcDbDictionary
281
     1
  3
Normal
350
F
100
AcDbDictionaryWithDefault
340
F
  0
DICTIONARY
  5
42
102
{ACAD_REACTORS
330
C
102
}
330
C
100
AcDbDictionary
281
     1
  3
A0
350
43
  3
A1
350
44
  3
A2
350
45
  3
A3
350
46
  3
A4
350
47
  3
A5
350
48
  3
A6
350
49
  3
A7
350
4A
  3
A8
350
4B
  3
A9
350
4C
  3
B0
350
4D
  3
B1
350
4E
  3
B2
350
4F
  3
B3
350
50
  3
B4
350
51
  3
B5
350
52
  3
B6
350
53
  0
DICTIONARY
  5
68
102
{ACAD_REACTORS
330
C
102
}
330
C
100
AcDbDictionary
281
     1
  3
Imperial24
350
69
  0
DICTIONARY
  5
64
102
{ACAD_REACTORS
330
C
102
}
330
C
100
AcDbDictionary
281
     1
  3
Standard
350
65
  0
DICTIONARY
  5
29
102
{ACAD_REACTORS
330
C
102
}
330
C
100
AcDbDictionary
281
     1
  3
2dWireframe
350
2F
  3
Basic
350
2E
  3
Brighten
350
35
  3
ColorChange
350
39
  3
Conceptual
350
32
  3
Dim
350
34
  3
EdgeColorOff
350
41
  3
Facepattern
350
38
  3
Flat
350
2A
  3
FlatWithEdges
350
2B
  3
Gouraud
350
2C
  3
GouraudWithEdges
350
2D
  3
Hidden
350
31
  3
JitterOff
350
3F
  3
Linepattern
350
37
  3
OverhangOff
350
40
  3
Realistic
350
33
  3
Shaded
350
3E
  3
Shaded with edges
350
3D
  3
Shades of Gray
350
3A
  3
Sketchy
350
3B
  3
Thicken
350
36
  3
Wireframe
350
30
  3
X-Ray
350
3C
  0
XRECORD
  5
A04
102
{ACAD_REACTORS
330
C
102
}
330
C
100
AcDbXrecord
280
     1
 90
        1
330
65
330
69
330
6B
  0
DICTIONARY
  5
10E
102
{ACAD_REACTORS
330
C
102
}
330
C
100
AcDbDictionary
281
     1
  3
CANNOSCALE
350
113
  3
CMLEADERSTYLE
350
110
  3
CTABLESTYLE
350
10F
  3
CVIEWDETAILSTYLE
350
111
  3
CVIEWSECTIONSTYLE
350
112
  0
DICTIONARY
  5
103
102
{ACAD_REACTORS
330
C
102
}
330
C
100
AcDbDictionary
281
     1
  3
DRAWING_TOOL
350
106
  3
REVIT_CATEGORY_MAPPING
350
104
  3
REVIT_SUB_CATEGORY_MAPPING
350
105
  0
DICTIONARY
  5
734
102
{ACAD_REACTORS
330
733
102
}
330
733
100
AcDbDictionary
281
     1
  0
SORTENTSTABLE
  5
108
102
{ACAD_REACTORS
330
107
102
}
330
107
100
AcDbSortentsTable
330
70
  0
ACDBDETAILVIEWSTYLE
  5
6B
102
{ACAD_XDICTIONARY
360
10B
102
}
102
{ACAD_REACTORS
330
6A
102
}
330
6A
100
AcDbModelDocViewStyle
 70
     0
  3
Imperial24
290
     0
100
AcDbDetailViewStyle
 70
     0
 71
     0
 90
        3
 71
     1
340
55
 62
   256
 40
0.24
340
0
 62
   256
 40
0.24
300

 40
0.36
280
     3
 71
     2
340
5D
 90
       25
 62
   256
 71
     3
340
55
 62
   256
 40
0.24
 90
        1
 40
0.75
 90
        1
300
%<\AcVar ViewType \f "%tc1">% %<\AcVar ViewDetailId>%\PSCALE %<\AcVar ViewScale \f "%sn">%
 71
     4
340
5D
 90
       25
 62
   256
340
5D
 90
       25
 62
   256
280
     0
  0
LAYOUT
  5
6F
102
{ACAD_REACTORS
330
62
102
}
330
62
100
AcDbPlotSettings
  1

  2

  4

  6

 40
0.0
 41
0.0
 42
0.0
 43
0.0
 44
0.0
 45
0.0
 46
0.0
 47
0.0
 48
0.0
 49
0.0
140
0.0
141
0.0
142
1.0
143
1.0
 70
   688
 72
     0
 73
     0
 74
     5
  7

 75
    16
147
1.0
 76
     0
 77
     2
 78
   300
148
0.0
149
0.0
100
AcDbLayout
  1
Layout1
 70
     1
 71
     1
 10
0.0
 20
0.0
 11
12.0
 21
9.0
 12
0.0
 22
0.0
 32
0.0
 14
1.000000000000000E+20
 24
1.000000000000000E+20
 34
1.000000000000000E+20
 15
-1.000000000000000E+20
 25
-1.000000000000000E+20
 35
-1.000000000000000E+20
146
0.0
 13
0.0
 23
0.0
 33
0.0
 16
1.0
 26
0.0
 36
0.0
 17
0.0
 27
1.0
 37
0.0
 76
     0
330
6C
  0
LAYOUT
  5
77
102
{ACAD_REACTORS
330
62
102
}
330
62
100
AcDbPlotSettings
  1

  2

  4

  6

 40
0.0
 41
0.0
 42
0.0
 43
0.0
 44
0.0
 45
0.0
 46
0.0
 47
0.0
 48
0.0
 49
0.0
140
0.0
141
0.0
142
1.0
143
1.0
 70
   688
 72
     0
 73
     0
 74
     5
  7

 75
    16
147
1.0
 76
     0
 77
     2
 78
   300
148
0.0
149
0.0
100
AcDbLayout
  1
Layout2
 70
     1
 71
     2
 10
0.0
 20
0.0
 11
12.0
 21
9.0
 12
0.0
 22
0.0
 32
0.0
 14
0.0
 24
0.0
 34
0.0
 15
0.0
 25
0.0
 35
0.0
146
0.0
 13
0.0
 23
0.0
 33
0.0
 16
1.0
 26
0.0
 36
0.0
 17
0.0
 27
1.0
 37
0.0
 76
     0
330
74
  0
LAYOUT
  5
73
102
{ACAD_REACTORS
330
62
102
}
330
62
100
AcDbPlotSettings
  1

  2

  4

  6

 40
0.0
 41
0.0
 42
0.0
 43
0.0
 44
0.0
 45
0.0
 46
0.0
 47
0.0
 48
0.0
 49
0.0
140
0.0
141
0.0
142
1.0
143
1.0
 70
  1712
 72
     0
 73
     0
 74
     0
  7

 75
     0
147
1.0
 76
     0
 77
     2
 78
   300
148
0.0
149
0.0
100
AcDbLayout
  1
Model
 70
     1
 71
     0
 10
0.0
 20
0.0
 11
12.0
 21
9.0
 12
0.0
 22
0.0
 32
0.0
 14
0.0
 24
0.0
 34
0.0
 15
0.0
 25
0.0
 35
0.0
146
0.0
 13
0.0
 23
0.0
 33
0.0
 16
1.0
 26
0.0
 36
0.0
 17
0.0
 27
1.0
 37
0.0
 76
     0
330
70
331
57
  0
MATERIAL
  5
19
102
{ACAD_XDICTIONARY
360
1A
102
}
102
{ACAD_REACTORS
330
10
102
}
330
10
100
AcDbMaterial
  1
ByBlock
 72
     0
 43
0.0208333333333333
 43
0.0
 43
0.0
 43
0.0
 43
0.0
 43
0.0208333333333333
 43
0.0
 43
0.0
 43
0.0
 43
0.0
 43
1.0
 43
0.0
 43
0.0
 43
0.0
 43
0.0
 43
1.0
 77
     0
 47
0.0208333333333333
 47
0.0
 47
0.0
 47
0.0
 47
0.0
 47
0.0208333333333333
 47
0.0
 47
0.0
 47
0.0
 47
0.0
 47
1.0
 47
0.0
 47
0.0
 47
0.0
 47
0.0
 47
1.0
171
     0
 49
0.0208333333333333
 49
0.0
 49
0.0
 49
0.0
 49
0.0
 49
0.0208333333333333
 49
0.0
 49
0.0
 49
0.0
 49
0.0
 49
1.0
 49
0.0
 49
0.0
 49
0.0
 49
0.0
 49
1.0
175
     0
142
0.0208333333333333
142
0.0
142
0.0
142
0.0
142
0.0
142
0.0208333333333333
142
0.0
142
0.0
142
0.0
142
0.0
142
1.0
142
0.0
142
0.0
142
0.0
142
0.0
142
1.0
179
     0
144
0.0208333333333333
144
0.0
144
0.0
144
0.0
144
0.0
144
0.0208333333333333
144
0.0
144
0.0
144
0.0
144
0.0
144
1.0
144
0.0
144
0.0
144
0.0
144
0.0
144
1.0
147
0.0208333333333333
147
0.0
147
0.0
147
0.0
147
0.0
147
0.0208333333333333
147
0.0
147
0.0
147
0.0
147
0.0
147
1.0
147
0.0
147
0.0
147
0.0
147
0.0
147
1.0
  0
MATERIAL
  5
11
102
{ACAD_XDICTIONARY
360
12
102
}
102
{ACAD_REACTORS
330
10
102
}
330
10
100
AcDbMaterial
  1
ByLayer
 72
     0
 43
0.0208333333333333
 43
0.0
 43
0.0
 43
0.0
 43
0.0
 43
0.0208333333333333
 43
0.0
 43
0.0
 43
0.0
 43
0.0
 43
1.0
 43
0.0
 43
0.0
 43
0.0
 43
0.0
 43
1.0
 77
     0
 47
0.0208333333333333
 47
0.0
 47
0.0
 47
0.0
 47
0.0
 47
0.0208333333333333
 47
0.0
 47
0.0
 47
0.0
 47
0.0
 47
1.0
 47
0.0
 47
0.0
 47
0.0
 47
0.0
 47
1.0
171
     0
 49
0.0208333333333333
 49
0.0
 49
0.0
 49
0.0
 49
0.0
 49
0.0208333333333333
 49
0.0
 49
0.0
 49
0.0
 49
0.0
 49
1.0
 49
0.0
 49
0.0
 49
0.0
 49
0.0
 49
1.0
175
     0
142
0.0208333333333333
142
0.0
142
0.0
142
0.0
142
0.0
142
0.0208333333333333
142
0.0
142
0.0
142
0.0
142
0.0
142
1.0
142
0.0
142
0.0
142
0.0
142
0.0
142
1.0
179
     0
144
0.0208333333333333
144
0.0
144
0.0
144
0.0
144
0.0
144
0.0208333333333333
144
0.0
144
0.0
144
0.0
144
0.0
144
1.0
144
0.0
144
0.0
144
0.0
144
0.0
144
1.0
147
0.0208333333333333
147
0.0
147
0.0
147
0.0
147
0.0
147
0.0208333333333333
147
0.0
147
0.0
147
0.0
147
0.0
147
1.0
147
0.0
147
0.0
147
0.0
147
0.0
147
1.0
  0
MATERIAL
  5
21
102
{ACAD_XDICTIONARY
360
22
102
}
102
{ACAD_REACTORS
330
10
102
}
330
10
100
AcDbMaterial
  1
Global
 72
     0
 43
0.0208333333333333
 43
0.0
 43
0.0
 43
0.0
 43
0.0
 43
0.0208333333333333
 43
0.0
 43
0.0
 43
0.0
 43
0.0
 43
1.0
 43
0.0
 43
0.0
 43
0.0
 43
0.0
 43
1.0
 77
     0
 47
0.0208333333333333
 47
0.0
 47
0.0
 47
0.0
 47
0.0
 47
0.0208333333333333
 47
0.0
 47
0.0
 47
0.0
 47
0.0
 47
1.0
 47
0.0
 47
0.0
 47
0.0
 47
0.0
 47
1.0
171
     0
 49
0.0208333333333333
 49
0.0
 49
0.0
 49
0.0
 49
0.0
 49
0.0208333333333333
 49
0.0
 49
0.0
 49
0.0
 49
0.0
 49
1.0
 49
0.0
 49
0.0
 49
0.0
 49
0.0
 49
1.0
175
     0
142
0.0208333333333333
142
0.0
142
0.0
142
0.0
142
0.0
142
0.0208333333333333
142
0.0
142
0.0
142
0.0
142
0.0
142
1.0
142
0.0
142
0.0
142
0.0
142
0.0
142
1.0
179
     0
144
0.0208333333333333
144
0.0
144
0.0
144
0.0
144
0.0
144
0.0208333333333333
144
0.0
144
0.0
144
0.0
144
0.0
144
1.0
144
0.0
144
0.0
144
0.0
144
0.0
144
1.0
147
0.0208333333333333
147
0.0
147
0.0
147
0.0
147
0.0
147
0.0208333333333333
147
0.0
147
0.0
147
0.0
147
0.0
147
1.0
147
0.0
147
0.0
147
0.0
147
0.0
147
1.0
  0
MLEADERSTYLE
  5
67
102
{ACAD_REACTORS
330
66
102
}
330
66
100
AcDbMLeaderStyle
179
     2
170
     2
171
     1
172
     0
 90
        2
 40
0.0
 41
0.0
173
     1
 91
-1056964608
340
5B
 92
       -2
290
     1
 42
0.09
291
     1
 43
0.36
  3
Standard
 44
0.18
300

342
55
174
     1
178
     6
175
     1
176
     0
 93
-1056964608
 45
0.18
292
     0
297
     0
 46
0.18
 94
-1056964608
 47
1.0
 49
1.0
140
1.0
293
     1
141
0.0
294
     1
177
     0
142
1.0
295
     1
296
     0
143
0.125
271
     0
272
     9
273
     9
298
     1
  0
MLINESTYLE
  5
60
102
{ACAD_REACTORS
330
5F
102
}
330
5F
100
AcDbMlineStyle
  2
STANDARD
 70
     0
  3

 62
   256
 51
90.0
 52
90.0
 71
     2
 49
0.5
 62
   256
  6
BYLAYER
 49
-0.5
 62
   256
  6
BYLAYER
  0
ACDBPLACEHOLDER
  5
F
102
{ACAD_REACTORS
330
E
102
}
330
E
  0
SCALE
  5
43
102
{ACAD_REACTORS
330
42
102
}
330
42
100
AcDbScale
 70
     0
300
1:1
140
1.0
141
1.0
290
     1
  0
SCALE
  5
44
102
{ACAD_REACTORS
330
42
102
}
330
42
100
AcDbScale
 70
     0
300
1/128" = 1'-0"
140
0.0078125
141
12.0
290
     0
  0
SCALE
  5
45
102
{ACAD_REACTORS
330
42
102
}
330
42
100
AcDbScale
 70
     0
300
1/64" = 1'-0"
140
0.015625
141
12.0
290
     0
  0
SCALE
  5
46
102
{ACAD_REACTORS
330
42
102
}
330
42
100
AcDbScale
 70
     0
300
1/32" = 1'-0"
140
0.03125
141
12.0
290
     0
  0
SCALE
  5
47
102
{ACAD_REACTORS
330
42
102
}
330
42
100
AcDbScale
 70
     0
300
1/16" = 1'-0"
140
0.0625
141
12.0
290
     0
  0
SCALE
  5
48
102
{ACAD_REACTORS
330
42
102
}
330
42
100
AcDbScale
 70
     0
300
3/32" = 1'-0"
140
0.09375
141
12.0
290
     0
  0
SCALE
  5
49
102
{ACAD_REACTORS
330
42
102
}
330
42
100
AcDbScale
 70
     0
300
1/8" = 1'-0"
140
0.125
141
12.0
290
     0
  0
SCALE
  5
4A
102
{ACAD_REACTORS
330
42
102
}
330
42
100
AcDbScale
 70
     0
300
3/16" = 1'-0"
140
0.1875
141
12.0
290
     0
  0
SCALE
  5
4B
102
{ACAD_REACTORS
330
42
102
}
330
42
100
AcDbScale
 70
     0
300
1/4" = 1'-0"
140
0.25
141
12.0
290
     0
  0
SCALE
  5
4C
102
{ACAD_REACTORS
330
42
102
}
330
42
100
AcDbScale
 70
     0
300
3/8" = 1'-0"
140
0.375
141
12.0
290
     0
  0
SCALE
  5
4D
102
{ACAD_REACTORS
330
42
102
}
330
42
100
AcDbScale
 70
     0
300
1/2" = 1'-0"
140
0.5
141
12.0
290
     0
  0
SCALE
  5
4E
102
{ACAD_REACTORS
330
42
102
}
330
42
100
AcDbScale
 70
     0
300
3/4" = 1'-0"
140
0.75
141
12.0
290
     0
  0
SCALE
  5
4F
102
{ACAD_REACTORS
330
42
102
}
330
42
100
AcDbScale
 70
     0
300
1" = 1'-0"
140
1.0
141
12.0
290
     0
  0
SCALE
  5
50
102
{ACAD_REACTORS
330
42
102
}
330
42
100
AcDbScale
 70
     0
300
1-1/2" = 1'-0"
140
1.5
141
12.0
290
     0
  0
SCALE
  5
51
102
{ACAD_REACTORS
330
42
102
}
330
42
100
AcDbScale
 70
     0
300
3" = 1'-0"
140
3.0
141
12.0
290
     0
  0
SCALE
  5
52
102
{ACAD_REACTORS
330
42
102
}
330
42
100
AcDbScale
 70
     0
300
6" = 1'-0"
140
6.0
141
12.0
290
     0
  0
SCALE
  5
53
102
{ACAD_REACTORS
330
42
102
}
330
42
100
AcDbScale
 70
     0
300
1'-0" = 1'-0"
140
12.0
141
12.0
290
     0
  0
ACDBSECTIONVIEWSTYLE
  5
69
102
{ACAD_XDICTIONARY
360
109
102
}
102
{ACAD_REACTORS
330
68
102
}
330
68
100
AcDbModelDocViewStyle
 70
     0
  3
Imperial24
290
     0
100
AcDbSectionViewStyle
 70
     0
 71
     0
 90
       78
 71
     1
340
55
 62
   256
 40
0.24
340
0
340
0
 62
   256
 40
0.24
300
I, O, Q, S, X, Z
 40
0.48
 90
        3
 40
0.18
 90
        1
 71
     2
340
5D
 90
       25
 62
   256
340
5D
 90
       50
 62
   256
 40
0.24
 40
0.0
 40
0.24
 71
     3
340
55
 62
   256
 40
0.24
 90
        1
 40
0.75
 90
        1
300
%<\AcVar ViewType \f "%tc1">% %<\AcVar ViewSectionStartId>%-%<\AcVar ViewSectionEndId>%\PSCALE %<\AcVar ViewScale \f "%sn">%
 71
     4
 62
   256
 62
   257
300
ANSI31
 40
1.0
 90
        0
290
     0
290
     0
 90
        6
 40
0.0
 40
1.570796326794896
 40
0.2617993877991494
 40
1.308996938995747
 40
-0.2617993877991494
 40
1.832595714594046
  0
TABLESTYLE
  5
65
102
{ACAD_XDICTIONARY
360
A00
102
}
102
{ACAD_REACTORS
330
64
102
}
330
64
100
AcDbTableStyle
280
     0
  3
Standard
 70
     0
 71
     0
 40
0.06
 41
0.06
280
     0
281
     0
  7
Standard
140
0.18
170
     2
 62
     0
 63
     7
283
     0
 90
      512
 91
        0
  1

274
    -2
284
     1
 64
     0
275
    -2
285
     1
 65
     0
276
    -2
286
     1
 66
     0
277
    -2
287
     1
 67
     0
278
    -2
288
     1
 68
     0
279
    -2
289
     1
 69
     0
  7
Standard
140
0.25
170
     5
 62
     0
 63
     7
283
     0
 90
      512
 91
        0
  1

274
    -2
284
     1
 64
     0
275
    -2
285
     1
 65
     0
276
    -2
286
     1
 66
     0
277
    -2
287
     1
 67
     0
278
    -2
288
     1
 68
     0
279
    -2
289
     1
 69
     0
  7
Standard
140
0.18
170
     5
 62
     0
 63
     7
283
     0
 90
      512
 91
        0
  1

274
    -2
284
     1
 64
     0
275
    -2
285
     1
 65
     0
276
    -2
286
     1
 66
     0
277
    -2
287
     1
 67
     0
278
    -2
288
     1
 68
     0
279
    -2
289
     1
 69
     0
  0
VISUALSTYLE
  5
2F
102
{ACAD_REACTORS
330
29
102
}
330
29
100
AcDbVisualStyle
  2
2dWireframe
 70
     4
177
     3
291
     0
 70
    58
 90
        0
176
     1
 90
        2
176
     1
 90
        0
176
     1
 90
        0
176
     1
 40
0.6
176
     1
 40
30.0
176
     1
 62
     7
420
 16777215
176
     1
 90
        1
176
     1
 90
        4
176
     1
 62
     7
176
     1
 62
   257
176
     1
 90
        1
176
     1
 90
        1
176
     1
 40
1.0
176
     1
 90
        0
176
     1
 62
   257
176
     1
 40
1.0
176
     1
 90
        1
176
     1
 90
        6
176
     1
 90
        2
176
     1
 62
     7
176
     1
 90
        5
176
     1
 90
        0
176
     1
 90
        0
176
     1
290
     0
176
     1
 90
        1
176
     1
 40
0.0
176
     1
 90
        0
176
     1
290
     1
176
     1
290
     1
176
     1
290
     0
176
     1
290
     0
176
     1
290
     0
176
     1
290
     0
176
     1
290
     0
176
     1
290
     0
176
     1
290
     0
176
     1
 90
       50
176
     1
 40
0.0
176
     1
 40
1.0
176
     1
 90
        0
176
     1
 62
    18
420
        0
176
     1
 90
       50
176
     1
 90
        3
176
     1
 62
     5
420
      255
176
     1
290
     0
176
     1
 90
       50
176
     1
 90
       50
176
     1
 90
       50
176
     1
290
     0
176
     1
 90
       50
176
     1
 62
   256
176
     0
 40
1.0
176
     0
 90
        2
176
     1
  1
strokes_ogs.tif
176
     1
290
     0
176
     1
 40
1.0
176
     1
 40
1.0
176
     1
  0
VISUALSTYLE
  5
2E
102
{ACAD_REACTORS
330
29
102
}
330
29
100
AcDbVisualStyle
  2
Basic
 70
     7
177
     3
291
     1
 70
    58
 90
        1
176
     1
 90
        0
176
     1
 90
        1
176
     1
 90
        0
176
     1
 40
0.6
176
     1
 40
30.0
176
     1
 62
     7
420
 16777215
176
     1
 90
        0
176
     1
 90
        4
176
     1
 62
     7
176
     1
 62
   257
176
     1
 90
        1
176
     1
 90
        1
176
     1
 40
1.0
176
     1
 90
        8
176
     1
 62
     7
176
     1
 40
1.0
176
     1
 90
        1
176
     1
 90
        6
176
     1
 90
        2
176
     1
 62
     7
176
     1
 90
        5
176
     1
 90
        0
176
     1
 90
        0
176
     1
290
     0
176
     1
 90
        1
176
     1
 40
0.0
176
     1
 90
        0
176
     1
290
     0
176
     1
290
     1
176
     1
290
     1
176
     1
290
     0
176
     1
290
     0
176
     1
290
     0
176
     1
290
     0
176
     1
290
     0
176
     1
290
     0
176
     1
 90
       50
176
     1
 40
0.0
176
     1
 40
1.0
176
     1
 90
        0
176
     1
 62
    18
420
        0
176
     1
 90
       50
176
     1
 90
        3
176
     1
 62
     5
420
      255
176
     1
290
     0
176
     1
 90
       50
176
     1
 90
       50
176
     1
 90
       50
176
     1
290
     0
176
     1
 90
       50
176
     1
 62
   256
176
     0
 40
1.0
176
     0
 90
        2
176
     1
  1
strokes_ogs.tif
176
     1
290
     0
176
     1
 40
1.0
176
     1
 40
1.0
176
     1
  0
VISUALSTYLE
  5
35
102
{ACAD_REACTORS
330
29
102
}
330
29
100
AcDbVisualStyle
  2
Brighten
 70
    12
177
     3
291
     1
 70
    58
 90
        2
176
     1
 90
        2
176
     1
 90
        0
176
     1
 90
        0
176
     1
 40
0.6
176
     1
 40
30.0
176
     1
 62
     7
420
 16777215
176
     1
 90
        1
176
     1
 90
        4
176
     1
 62
     7
176
     1
 62
   257
176
     1
 90
        1
176
     1
 90
        1
176
     1
 40
1.0
176
     1
 90
        8
176
     1
 62
     7
176
     1
 40
1.0
176
     1
 90
        1
176
     1
 90
        6
176
     1
 90
        2
176
     1
 62
     7
176
     1
 90
        5
176
     1
 90
        0
176
     1
 90
        0
176
     1
290
     0
176
     1
 90
        1
176
     1
 40
50.0
176
     1
 90
        0
176
     1
290
     0
176
     1
290
     1
176
     1
290
     1
176
     1
290
     0
176
     1
290
     0
176
     1
290
     0
176
     1
290
     0
176
     1
290
     0
176
     1
290
     0
176
     1
 90
       50
176
     1
 40
0.0
176
     1
 40
1.0
176
     1
 90
        0
176
     1
 62
    18
420
        0
176
     1
 90
       50
176
     1
 90
        3
176
     1
 62
     5
420
      255
176
     1
290
     0
176
     1
 90
       50
176
     1
 90
       50
176
     1
 90
       50
176
     1
290
     0
176
     1
 90
       50
176
     1
 62
   256
176
     0
 40
1.0
176
     0
 90
        2
176
     1
  1
strokes_ogs.tif
176
     1
290
     0
176
     1
 40
1.0
176
     1
 40
1.0
176
     1
  0
VISUALSTYLE
  5
39
102
{ACAD_REACTORS
330
29
102
}
330
29
100
AcDbVisualStyle
  2
ColorChange
 70
    16
177
     3
291
     1
 70
    58
 90
        2
176
     1
 90
        2
176
     1
 90
        3
176
     1
 90
        0
176
     1
 40
0.6
176
     1
 40
30.0
176
     1
 62
     8
420
  8421504
176
     1
 90
        1
176
     1
 90
        4
176
     1
 62
     7
176
     1
 62
   257
176
     1
 90
        1
176
     1
 90
        1
176
     1
 40
1.0
176
     1
 90
        8
176
     1
 62
     8
420
  8421504
176
     1
 40
1.0
176
     1
 90
        1
176
     1
 90
        6
176
     1
 90
        2
176
     1
 62
     7
176
     1
 90
        5
176
     1
 90
        0
176
     1
 90
        0
176
     1
290
     0
176
     1
 90
        1
176
     1
 40
0.0
176
     1
 90
        0
176
     1
290
     0
176
     1
290
     1
176
     1
290
     1
176
     1
290
     0
176
     1
290
     0
176
     1
290
     0
176
     1
290
     0
176
     1
290
     0
176
     1
290
     0
176
     1
 90
       50
176
     1
 40
0.0
176
     1
 40
1.0
176
     1
 90
        0
176
     1
 62
    18
420
        0
176
     1
 90
       50
176
     1
 90
        3
176
     1
 62
     5
420
      255
176
     1
290
     0
176
     1
 90
       50
176
     1
 90
       50
176
     1
 90
       50
176
     1
290
     0
176
     1
 90
       50
176
     1
 62
   256
176
     0
 40
1.0
176
     0
 90
        2
176
     1
  1
strokes_ogs.tif
176
     1
290
     0
176
     1
 40
1.0
176
     1
 40
1.0
176
     1
  0
VISUALSTYLE
  5
32
102
{ACAD_REACTORS
330
29
102
}
330
29
100
AcDbVisualStyle
  2
Conceptual
 70
     9
177
     3
291
     0
 70
    58
 90
        3
176
     1
 90
        2
176
     1
 90
        0
176
     1
 90
        0
176
     1
 40
0.6
176
     1
 40
30.0
176
     1
 62
     7
420
 16777215
176
     1
 90
        2
176
     1
 90
        2
176
     1
 62
     7
176
     1
 62
   257
176
     1
 90
        1
176
     1
 90
        1
176
     1
 40
179.0
176
     1
 90
        8
176
     1
 62
     7
176
     1
 40
1.0
176
     1
 90
        1
176
     1
 90
        6
176
     1
 90
        2
176
     1
 62
     7
176
     1
 90
        3
176
     1
 90
        0
176
     1
 90
        0
176
     1
290
     0
176
     1
 90
        1
176
     1
 40
0.0
176
     1
 90
        0
176
     1
290
     0
176
     1
290
     1
176
     1
290
     1
176
     1
290
     0
176
     1
290
     0
176
     1
290
     0
176
     1
290
     0
176
     1
290
     0
176
     1
290
     0
176
     1
 90
       50
176
     1
 40
0.0
176
     1
 40
1.0
176
     1
 90
        0
176
     1
 62
    18
420
        0
176
     1
 90
       50
176
     1
 90
        3
176
     1
 62
     5
420
      255
176
     1
290
     0
176
     1
 90
       50
176
     1
 90
       50
176
     1
 90
       50
176
     1
290
     0
176
     1
 90
       50
176
     1
 62
   256
176
     0
 40
1.0
176
     0
 90
        2
176
     1
  1
strokes_ogs.tif
176
     1
290
     0
176
     1
 40
1.0
176
     1
 40
1.0
176
     1
  0
VISUALSTYLE
  5
34
102
{ACAD_REACTORS
330
29
102
}
330
29
100
AcDbVisualStyle
  2
Dim
 70
    11
177
     3
291
     1
 70
    58
 90
        2
176
     1
 90
        2
176
     1
 90
        0
176
     1
 90
        0
176
     1
 40
0.6
176
     1
 40
30.0
176
     1
 62
     7
420
 16777215
176
     1
 90
        1
176
     1
 90
        4
176
     1
 62
     7
176
     1
 62
   257
176
     1
 90
        1
176
     1
 90
        1
176
     1
 40
1.0
176
     1
 90
        8
176
     1
 62
     7
176
     1
 40
1.0
176
     1
 90
        1
176
     1
 90
        6
176
     1
 90
        2
176
     1
 62
     7
176
     1
 90
        5
176
     1
 90
        0
176
     1
 90
        0
176
     1
290
     0
176
     1
 90
        1
176
     1
 40
-50.0
176
     1
 90
        0
176
     1
290
     0
176
     1
290
     1
176
     1
290
     1
176
     1
290
     0
176
     1
290
     0
176
     1
290
     0
176
     1
290
     0
176
     1
290
     0
176
     1
290
     0
176
     1
 90
       50
176
     1
 40
0.0
176
     1
 40
1.0
176
     1
 90
        0
176
     1
 62
    18
420
        0
176
     1
 90
       50
176
     1
 90
        3
176
     1
 62
     5
420
      255
176
     1
290
     0
176
     1
 90
       50
176
     1
 90
       50
176
     1
 90
       50
176
     1
290
     0
176
     1
 90
       50
176
     1
 62
   256
176
     0
 40
1.0
176
     0
 90
        2
176
     1
  1
strokes_ogs.tif
176
     1
290
     0
176
     1
 40
1.0
176
     1
 40
1.0
176
     1
  0
VISUALSTYLE
  5
41
102
{ACAD_REACTORS
330
29
102
}
330
29
100
AcDbVisualStyle
  2
EdgeColorOff
 70
    22
177
     3
291
     1
 70
    58
 90
        2
176
     0
 90
        2
176
     0
 90
        0
176
     0
 90
        0
176
     0
 40
0.6
176
     0
 40
30.0
176
     0
 62
     7
420
 16777215
176
     0
 90
        1
176
     0
 90
        4
176
     0
 62
     7
176
     0
 62
   257
176
     0
 90
        1
176
     0
 90
        1
176
     0
 40
1.0
176
     0
 90
        8
176
     2
 62
     7
176
     0
 40
1.0
176
     0
 90
        1
176
     0
 90
        6
176
     0
 90
        2
176
     0
 62
     7
176
     0
 90
        5
176
     0
 90
        0
176
     0
 90
        0
176
     0
290
     0
176
     0
 90
        1
176
     0
 40
0.0
176
     0
 90
        0
176
     0
290
     0
176
     0
290
     1
176
     0
290
     1
176
     0
290
     0
176
     0
290
     0
176
     0
290
     0
176
     0
290
     0
176
     0
290
     0
176
     0
290
     0
176
     0
 90
       50
176
     0
 40
0.0
176
     0
 40
1.0
176
     0
 90
        0
176
     0
 62
    18
420
        0
176
     0
 90
       50
176
     0
 90
        3
176
     0
 62
     5
420
      255
176
     0
290
     0
176
     0
 90
       50
176
     0
 90
       50
176
     0
 90
       50
176
     0
290
     0
176
     0
 90
       50
176
     0
 62
   256
176
     0
 40
1.0
176
     0
 90
        2
176
     0
  1
strokes_ogs.tif
176
     0
290
     0
176
     0
 40
1.0
176
     0
 40
1.0
176
     0
  0
VISUALSTYLE
  5
38
102
{ACAD_REACTORS
330
29
102
}
330
29
100
AcDbVisualStyle
  2
Facepattern
 70
    15
177
     3
291
     1
 70
    58
 90
        2
176
     1
 90
        2
176
     1
 90
        0
176
     1
 90
        0
176
     1
 40
0.6
176
     1
 40
30.0
176
     1
 62
     7
420
 16777215
176
     1
 90
        1
176
     1
 90
        4
176
     1
 62
     7
176
     1
 62
   257
176
     1
 90
        1
176
     1
 90
        1
176
     1
 40
1.0
176
     1
 90
        8
176
     1
 62
     7
176
     1
 40
1.0
176
     1
 90
        1
176
     1
 90
        6
176
     1
 90
        2
176
     1
 62
     7
176
     1
 90
        5
176
     1
 90
        0
176
     1
 90
        0
176
     1
290
     0
176
     1
 90
        1
176
     1
 40
0.0
176
     1
 90
        0
176
     1
290
     0
176
     1
290
     1
176
     1
290
     1
176
     1
290
     0
176
     1
290
     0
176
     1
290
     0
176
     1
290
     0
176
     1
290
     0
176
     1
290
     0
176
     1
 90
       50
176
     1
 40
0.0
176
     1
 40
1.0
176
     1
 90
        0
176
     1
 62
    18
420
        0
176
     1
 90
       50
176
     1
 90
        3
176
     1
 62
     5
420
      255
176
     1
290
     0
176
     1
 90
       50
176
     1
 90
       50
176
     1
 90
       50
176
     1
290
     0
176
     1
 90
       50
176
     1
 62
   256
176
     0
 40
1.0
176
     0
 90
        2
176
     1
  1
strokes_ogs.tif
176
     1
290
     0
176
     1
 40
1.0
176
     1
 40
1.0
176
     1
  0
VISUALSTYLE
  5
2A
102
{ACAD_REACTORS
330
29
102
}
330
29
100
AcDbVisualStyle
  2
Flat
 70
     0
177
     3
291
     1
 70
    58
 90
        2
176
     1
 90
        1
176
     1
 90
        1
176
     1
 90
        2
176
     1
 40
0.6
176
     1
 40
30.0
176
     1
 62
     7
420
 16777215
176
     1
 90
        0
176
     1
 90
        0
176
     1
 62
     7
176
     1
 62
   257
176
     1
 90
        1
176
     1
 90
        1
176
     1
 40
1.0
176
     1
 90
        8
176
     1
 62
     7
176
     1
 40
1.0
176
     1
 90
        1
176
     1
 90
        6
176
     1
 90
        2
176
     1
 62
     7
176
     1
 90
        5
176
     1
 90
        0
176
     1
 90
        0
176
     1
290
     0
176
     1
 90
       13
176
     1
 40
0.0
176
     1
 90
        0
176
     1
290
     0
176
     1
290
     1
176
     1
290
     1
176
     1
290
     0
176
     1
290
     0
176
     1
290
     0
176
     1
290
     0
176
     1
290
     0
176
     1
290
     0
176
     1
 90
       50
176
     1
 40
0.0
176
     1
 40
1.0
176
     1
 90
        0
176
     1
 62
    18
420
        0
176
     1
 90
       50
176
     1
 90
        3
176
     1
 62
     5
420
      255
176
     1
290
     0
176
     1
 90
       50
176
     1
 90
       50
176
     1
 90
       50
176
     1
290
     0
176
     1
 90
       50
176
     1
 62
   256
176
     0
 40
1.0
176
     0
 90
        2
176
     1
  1
strokes_ogs.tif
176
     1
290
     0
176
     1
 40
1.0
176
     1
 40
1.0
176
     1
  0
VISUALSTYLE
  5
2B
102
{ACAD_REACTORS
330
29
102
}
330
29
100
AcDbVisualStyle
  2
FlatWithEdges
 70
     1
177
     3
291
     1
 70
    58
 90
        2
176
     1
 90
        1
176
     1
 90
        1
176
     1
 90
        2
176
     1
 40
0.6
176
     1
 40
30.0
176
     1
 62
     7
420
 16777215
176
     1
 90
        1
176
     1
 90
        0
176
     1
 62
     7
176
     1
 62
   257
176
     1
 90
        1
176
     1
 90
        1
176
     1
 40
1.0
176
     1
 90
        0
176
     1
 62
   257
176
     1
 40
1.0
176
     1
 90
        1
176
     1
 90
        6
176
     1
 90
        2
176
     1
 62
     7
176
     1
 90
        5
176
     1
 90
        0
176
     1
 90
        0
176
     1
290
     0
176
     1
 90
       13
176
     1
 40
0.0
176
     1
 90
        0
176
     1
290
     0
176
     1
290
     1
176
     1
290
     1
176
     1
290
     0
176
     1
290
     0
176
     1
290
     0
176
     1
290
     0
176
     1
290
     0
176
     1
290
     0
176
     1
 90
       50
176
     1
 40
0.0
176
     1
 40
1.0
176
     1
 90
        0
176
     1
 62
    18
420
        0
176
     1
 90
       50
176
     1
 90
        3
176
     1
 62
     5
420
      255
176
     1
290
     0
176
     1
 90
       50
176
     1
 90
       50
176
     1
 90
       50
176
     1
290
     0
176
     1
 90
       50
176
     1
 62
   256
176
     0
 40
1.0
176
     0
 90
        2
176
     1
  1
strokes_ogs.tif
176
     1
290
     0
176
     1
 40
1.0
176
     1
 40
1.0
176
     1
  0
VISUALSTYLE
  5
2C
102
{ACAD_REACTORS
330
29
102
}
330
29
100
AcDbVisualStyle
  2
Gouraud
 70
     2
177
     3
291
     1
 70
    58
 90
        2
176
     1
 90
        2
176
     1
 90
        1
176
     1
 90
        2
176
     1
 40
0.6
176
     1
 40
30.0
176
     1
 62
     7
420
 16777215
176
     1
 90
        0
176
     1
 90
        0
176
     1
 62
     7
176
     1
 62
   257
176
     1
 90
        1
176
     1
 90
        1
176
     1
 40
1.0
176
     1
 90
        0
176
     1
 62
     7
176
     1
 40
1.0
176
     1
 90
        1
176
     1
 90
        6
176
     1
 90
        2
176
     1
 62
     7
176
     1
 90
        5
176
     1
 90
        0
176
     1
 90
        0
176
     1
290
     0
176
     1
 90
       13
176
     1
 40
0.0
176
     1
 90
        0
176
     1
290
     0
176
     1
290
     1
176
     1
290
     1
176
     1
290
     0
176
     1
290
     0
176
     1
290
     0
176
     1
290
     0
176
     1
290
     0
176
     1
290
     0
176
     1
 90
       50
176
     1
 40
0.0
176
     1
 40
1.0
176
     1
 90
        0
176
     1
 62
    18
420
        0
176
     1
 90
       50
176
     1
 90
        3
176
     1
 62
     5
420
      255
176
     1
290
     0
176
     1
 90
       50
176
     1
 90
       50
176
     1
 90
       50
176
     1
290
     0
176
     1
 90
       50
176
     1
 62
   256
176
     0
 40
1.0
176
     0
 90
        2
176
     1
  1
strokes_ogs.tif
176
     1
290
     0
176
     1
 40
1.0
176
     1
 40
1.0
176
     1
  0
VISUALSTYLE
  5
2D
102
{ACAD_REACTORS
330
29
102
}
330
29
100
AcDbVisualStyle
  2
GouraudWithEdges
 70
     3
177
     3
291
     1
 70
    58
 90
        2
176
     1
 90
        2
176
     1
 90
        1
176
     1
 90
        2
176
     1
 40
0.6
176
     1
 40
30.0
176
     1
 62
     7
420
 16777215
176
     1
 90
        1
176
     1
 90
        0
176
     1
 62
     7
176
     1
 62
   257
176
     1
 90
        1
176
     1
 90
        1
176
     1
 40
1.0
176
     1
 90
        0
176
     1
 62
   257
176
     1
 40
1.0
176
     1
 90
        1
176
     1
 90
        6
176
     1
 90
        2
176
     1
 62
     7
176
     1
 90
        5
176
     1
 90
        0
176
     1
 90
        0
176
     1
290
     0
176
     1
 90
       13
176
     1
 40
0.0
176
     1
 90
        0
176
     1
290
     0
176
     1
290
     1
176
     1
290
     1
176
     1
290
     0
176
     1
290
     0
176
     1
290
     0
176
     1
290
     0
176
     1
290
     0
176
     1
290
     0
176
     1
 90
       50
176
     1
 40
0.0
176
     1
 40
1.0
176
     1
 90
        0
176
     1
 62
    18
420
        0
176
     1
 90
       50
176
     1
 90
        3
176
     1
 62
     5
420
      255
176
     1
290
     0
176
     1
 90
       50
176
     1
 90
       50
176
     1
 90
       50
176
     1
290
     0
176
     1
 90
       50
176
     1
 62
   256
176
     0
 40
1.0
176
     0
 90
        2
176
     1
  1
strokes_ogs.tif
176
     1
290
     0
176
     1
 40
1.0
176
     1
 40
1.0
176
     1
  0
VISUALSTYLE
  5
31
102
{ACAD_REACTORS
330
29
102
}
330
29
100
AcDbVisualStyle
  2
Hidden
 70
     6
177
     3
291
     0
 70
    58
 90
        1
176
     1
 90
        2
176
     1
 90
        2
176
     1
 90
        0
176
     1
 40
0.6
176
     1
 40
30.0
176
     1
 62
     7
420
 16777215
176
     1
 90
        2
176
     1
 90
        2
176
     1
 62
     7
176
     1
 62
   257
176
     1
 90
        2
176
     1
 90
        1
176
     1
 40
40.0
176
     1
 90
        0
176
     1
 62
   257
176
     1
 40
1.0
176
     1
 90
        1
176
     1
 90
        6
176
     1
 90
        2
176
     1
 62
     7
176
     1
 90
        3
176
     1
 90
        0
176
     1
 90
        0
176
     1
290
     0
176
     1
 90
        1
176
     1
 40
0.0
176
     1
 90
        0
176
     1
290
     0
176
     1
290
     1
176
     1
290
     1
176
     1
290
     0
176
     1
290
     0
176
     1
290
     0
176
     1
290
     0
176
     1
290
     0
176
     1
290
     0
176
     1
 90
       50
176
     1
 40
0.0
176
     1
 40
1.0
176
     1
 90
        0
176
     1
 62
    18
420
        0
176
     1
 90
       50
176
     1
 90
        3
176
     1
 62
     5
420
      255
176
     1
290
     0
176
     1
 90
       50
176
     1
 90
       50
176
     1
 90
       50
176
     1
290
     0
176
     1
 90
       50
176
     1
 62
   256
176
     0
 40
1.0
176
     0
 90
        2
176
     1
  1
strokes_ogs.tif
176
     1
290
     0
176
     1
 40
1.0
176
     1
 40
1.0
176
     1
  0
VISUALSTYLE
  5
3F
102
{ACAD_REACTORS
330
29
102
}
330
29
100
AcDbVisualStyle
  2
JitterOff
 70
    20
177
     3
291
     1
 70
    58
 90
        2
176
     0
 90
        2
176
     0
 90
        0
176
     0
 90
        0
176
     0
 40
0.6
176
     0
 40
30.0
176
     0
 62
     7
420
 16777215
176
     0
 90
        1
176
     0
 90
        4
176
     0
 62
     7
176
     0
 62
   257
176
     0
 90
        1
176
     0
 90
        1
176
     0
 40
1.0
176
     0
 90
       10
176
     2
 62
     7
176
     0
 40
1.0
176
     0
 90
        1
176
     0
 90
        6
176
     0
 90
        2
176
     0
 62
     7
176
     0
 90
        5
176
     0
 90
        0
176
     0
 90
        0
176
     0
290
     0
176
     0
 90
        1
176
     0
 40
0.0
176
     0
 90
        0
176
     0
290
     0
176
     0
290
     1
176
     0
290
     1
176
     0
290
     0
176
     0
290
     0
176
     0
290
     0
176
     0
290
     0
176
     0
290
     0
176
     0
290
     0
176
     0
 90
       50
176
     0
 40
0.0
176
     0
 40
1.0
176
     0
 90
        0
176
     0
 62
    18
420
        0
176
     0
 90
       50
176
     0
 90
        3
176
     0
 62
     5
420
      255
176
     0
290
     0
176
     0
 90
       50
176
     0
 90
       50
176
     0
 90
       50
176
     0
290
     0
176
     0
 90
       50
176
     0
 62
   256
176
     0
 40
1.0
176
     0
 90
        2
176
     0
  1
strokes_ogs.tif
176
     0
290
     0
176
     0
 40
1.0
176
     0
 40
1.0
176
     0
  0
VISUALSTYLE
  5
37
102
{ACAD_REACTORS
330
29
102
}
330
29
100
AcDbVisualStyle
  2
Linepattern
 70
    14
177
     3
291
     1
 70
    58
 90
        2
176
     1
 90
        2
176
     1
 90
        0
176
     1
 90
        0
176
     1
 40
0.6
176
     1
 40
30.0
176
     1
 62
     7
420
 16777215
176
     1
 90
        1
176
     1
 90
        4
176
     1
 62
     7
176
     1
 62
   257
176
     1
 90
        7
176
     1
 90
        7
176
     1
 40
1.0
176
     1
 90
        8
176
     1
 62
     7
176
     1
 40
1.0
176
     1
 90
        1
176
     1
 90
        6
176
     1
 90
        2
176
     1
 62
     7
176
     1
 90
        5
176
     1
 90
        0
176
     1
 90
        0
176
     1
290
     0
176
     1
 90
        1
176
     1
 40
0.0
176
     1
 90
        0
176
     1
290
     0
176
     1
290
     1
176
     1
290
     1
176
     1
290
     0
176
     1
290
     0
176
     1
290
     0
176
     1
290
     0
176
     1
290
     0
176
     1
290
     0
176
     1
 90
       50
176
     1
 40
0.0
176
     1
 40
1.0
176
     1
 90
        0
176
     1
 62
    18
420
        0
176
     1
 90
       50
176
     1
 90
        3
176
     1
 62
     5
420
      255
176
     1
290
     0
176
     1
 90
       50
176
     1
 90
       50
176
     1
 90
       50
176
     1
290
     0
176
     1
 90
       50
176
     1
 62
   256
176
     0
 40
1.0
176
     0
 90
        2
176
     1
  1
strokes_ogs.tif
176
     1
290
     0
176
     1
 40
1.0
176
     1
 40
1.0
176
     1
  0
VISUALSTYLE
  5
40
102
{ACAD_REACTORS
330
29
102
}
330
29
100
AcDbVisualStyle
  2
OverhangOff
 70
    21
177
     3
291
     1
 70
    58
 90
        2
176
     0
 90
        2
176
     0
 90
        0
176
     0
 90
        0
176
     0
 40
0.6
176
     0
 40
30.0
176
     0
 62
     7
420
 16777215
176
     0
 90
        1
176
     0
 90
        4
176
     0
 62
     7
176
     0
 62
   257
176
     0
 90
        1
176
     0
 90
        1
176
     0
 40
1.0
176
     0
 90
        9
176
     2
 62
     7
176
     0
 40
1.0
176
     0
 90
        1
176
     0
 90
        6
176
     0
 90
        2
176
     0
 62
     7
176
     0
 90
        5
176
     0
 90
        0
176
     0
 90
        0
176
     0
290
     0
176
     0
 90
        1
176
     0
 40
0.0
176
     0
 90
        0
176
     0
290
     0
176
     0
290
     1
176
     0
290
     1
176
     0
290
     0
176
     0
290
     0
176
     0
290
     0
176
     0
290
     0
176
     0
290
     0
176
     0
290
     0
176
     0
 90
       50
176
     0
 40
0.0
176
     0
 40
1.0
176
     0
 90
        0
176
     0
 62
    18
420
        0
176
     0
 90
       50
176
     0
 90
        3
176
     0
 62
     5
420
      255
176
     0
290
     0
176
     0
 90
       50
176
     0
 90
       50
176
     0
 90
       50
176
     0
290
     0
176
     0
 90
       50
176
     0
 62
   256
176
     0
 40
1.0
176
     0
 90
        2
176
     0
  1
strokes_ogs.tif
176
     0
290
     0
176
     0
 40
1.0
176
     0
 40
1.0
176
     0
  0
VISUALSTYLE
  5
33
102
{ACAD_REACTORS
330
29
102
}
330
29
100
AcDbVisualStyle
  2
Realistic
 70
     8
177
     3
291
     0
 70
    58
 90
        2
176
     1
 90
        3
176
     1
 90
        0
176
     1
 90
        2
176
     1
 40
0.6
176
     1
 40
30.0
176
     1
 62
     7
420
 16777215
176
     1
 90
        0
176
     1
 90
        0
176
     1
 62
     7
176
     1
 62
   257
176
     1
 90
        1
176
     1
 90
        1
176
     1
 40
1.0
176
     1
 90
        8
176
     1
 62
   257
176
     1
 40
1.0
176
     1
 90
        1
176
     1
 90
        6
176
     1
 90
        2
176
     1
 62
     7
176
     1
 90
        3
176
     1
 90
        0
176
     1
 90
        0
176
     1
290
     0
176
     1
 90
       13
176
     1
 40
0.0
176
     1
 90
        0
176
     1
290
     0
176
     1
290
     1
176
     1
290
     1
176
     1
290
     0
176
     1
290
     0
176
     1
290
     0
176
     1
290
     0
176
     1
290
     0
176
     1
290
     0
176
     1
 90
       50
176
     1
 40
0.0
176
     1
 40
1.0
176
     1
 90
        0
176
     1
 62
    18
420
        0
176
     1
 90
       50
176
     1
 90
        3
176
     1
 62
     5
420
      255
176
     1
290
     0
176
     1
 90
       50
176
     1
 90
       50
176
     1
 90
       50
176
     1
290
     0
176
     1
 90
       50
176
     1
 62
   256
176
     0
 40
1.0
176
     0
 90
        2
176
     1
  1
strokes_ogs.tif
176
     1
290
     0
176
     1
 40
1.0
176
     1
 40
1.0
176
     1
  0
VISUALSTYLE
  5
3E
102
{ACAD_REACTORS
330
29
102
}
330
29
100
AcDbVisualStyle
  2
Shaded
 70
    27
177
     3
291
     0
 70
    58
 90
        2
176
     1
 90
        2
176
     1
 90
        1
176
     1
 90
        2
176
     1
 40
0.6
176
     1
 40
30.0
176
     1
 62
     7
420
 16777215
176
     1
 90
        0
176
     1
 90
        4
176
     1
 62
     7
176
     1
 62
   257
176
     1
 90
        1
176
     1
 90
        1
176
     1
 40
1.0
176
     1
 90
        8
176
     1
 62
   257
176
     1
 40
1.0
176
     1
 90
        1
176
     1
 90
        6
176
     1
 90
        2
176
     1
 62
     8
420
  7895160
176
     1
 90
        3
176
     1
 90
        0
176
     1
 90
        0
176
     1
290
     0
176
     1
 90
        5
176
     1
 40
0.0
176
     1
 90
        0
176
     1
290
     0
176
     1
290
     1
176
     1
290
     1
176
     1
290
     0
176
     1
290
     0
176
     1
290
     0
176
     1
290
     0
176
     1
290
     0
176
     1
290
     0
176
     1
 90
       50
176
     1
 40
0.0
176
     1
 40
1.0
176
     1
 90
        0
176
     1
 62
    18
420
        0
176
     1
 90
       50
176
     1
 90
        3
176
     1
 62
     5
420
      255
176
     1
290
     0
176
     1
 90
       50
176
     1
 90
       50
176
     1
 90
       50
176
     1
290
     0
176
     1
 90
       50
176
     1
 62
   256
176
     0
 40
1.0
176
     0
 90
        2
176
     1
  1
strokes_ogs.tif
176
     1
290
     0
176
     1
 40
1.0
176
     1
 40
1.0
176
     1
  0
VISUALSTYLE
  5
3D
102
{ACAD_REACTORS
330
29
102
}
330
29
100
AcDbVisualStyle
  2
Shaded with edges
 70
    26
177
     3
291
     0
 70
    58
 90
        2
176
     1
 90
        2
176
     1
 90
        1
176
     1
 90
        2
176
     1
 40
0.6
176
     1
 40
30.0
176
     1
 62
     7
420
 16777215
176
     1
 90
        1
176
     1
 90
       10
176
     1
 62
     7
176
     1
 62
   257
176
     1
 90
        2
176
     1
 90
        1
176
     1
 40
1.0
176
     1
 90
        8
176
     1
 62
   257
176
     1
 40
1.0
176
     1
 90
        1
176
     1
 90
        6
176
     1
 90
        2
176
     1
 62
     7
176
     1
 90
        3
176
     1
 90
        0
176
     1
 90
        0
176
     1
290
     0
176
     1
 90
        5
176
     1
 40
0.0
176
     1
 90
        0
176
     1
290
     0
176
     1
290
     1
176
     1
290
     1
176
     1
290
     0
176
     1
290
     0
176
     1
290
     0
176
     1
290
     0
176
     1
290
     0
176
     1
290
     0
176
     1
 90
       50
176
     1
 40
0.0
176
     1
 40
1.0
176
     1
 90
        0
176
     1
 62
    18
420
        0
176
     1
 90
       50
176
     1
 90
        3
176
     1
 62
     5
420
      255
176
     1
290
     0
176
     1
 90
       50
176
     1
 90
       50
176
     1
 90
       50
176
     1
290
     0
176
     1
 90
       50
176
     1
 62
   256
176
     0
 40
1.0
176
     0
 90
        2
176
     1
  1
strokes_ogs.tif
176
     1
290
     0
176
     1
 40
1.0
176
     1
 40
1.0
176
     1
  0
VISUALSTYLE
  5
3A
102
{ACAD_REACTORS
330
29
102
}
330
29
100
AcDbVisualStyle
  2
Shades of Gray
 70
    23
177
     3
291
     0
 70
    58
 90
        2
176
     1
 90
        2
176
     1
 90
        3
176
     1
 90
        0
176
     1
 40
0.6
176
     1
 40
30.0
176
     1
 62
     7
420
 16777215
176
     1
 90
        2
176
     1
 90
        2
176
     1
 62
     7
176
     1
 62
     7
176
     1
 90
        1
176
     1
 90
        1
176
     1
 40
40.0
176
     1
 90
        8
176
     1
 62
     7
176
     1
 40
1.0
176
     1
 90
        1
176
     1
 90
        6
176
     1
 90
        2
176
     1
 62
     7
176
     1
 90
        3
176
     1
 90
        0
176
     1
 90
        0
176
     1
290
     0
176
     1
 90
        1
176
     1
 40
0.0
176
     1
 90
        0
176
     1
290
     0
176
     1
290
     1
176
     1
290
     1
176
     1
290
     0
176
     1
290
     0
176
     1
290
     0
176
     1
290
     0
176
     1
290
     0
176
     1
290
     0
176
     1
 90
       50
176
     1
 40
0.0
176
     1
 40
1.0
176
     1
 90
        0
176
     1
 62
    18
420
        0
176
     1
 90
       50
176
     1
 90
        3
176
     1
 62
     5
420
      255
176
     1
290
     0
176
     1
 90
       50
176
     1
 90
       50
176
     1
 90
       50
176
     1
290
     0
176
     1
 90
       50
176
     1
 62
   256
176
     0
 40
1.0
176
     0
 90
        2
176
     1
  1
strokes_ogs.tif
176
     1
290
     0
176
     1
 40
1.0
176
     1
 40
1.0
176
     1
  0
VISUALSTYLE
  5
3B
102
{ACAD_REACTORS
330
29
102
}
330
29
100
AcDbVisualStyle
  2
Sketchy
 70
    24
177
     3
291
     0
 70
    58
 90
        1
176
     1
 90
        2
176
     1
 90
        2
176
     1
 90
        0
176
     1
 40
0.6
176
     1
 40
30.0
176
     1
 62
     7
420
 16777215
176
     1
 90
        2
176
     1
 90
        2
176
     1
 62
     7
176
     1
 62
     7
176
     1
 90
        1
176
     1
 90
        1
176
     1
 40
40.0
176
     1
 90
       11
176
     1
 62
     7
176
     1
 40
1.0
176
     1
 90
        1
176
     1
 90
        6
176
     1
 90
        2
176
     1
 62
     7
176
     1
 90
        6
176
     1
 90
        0
176
     1
 90
        0
176
     1
290
     0
176
     1
 90
        1
176
     1
 40
0.0
176
     1
 90
        0
176
     1
290
     0
176
     1
290
     1
176
     1
290
     1
176
     1
290
     0
176
     1
290
     0
176
     1
290
     0
176
     1
290
     0
176
     1
290
     0
176
     1
290
     0
176
     1
 90
       50
176
     1
 40
0.0
176
     1
 40
1.0
176
     1
 90
        0
176
     1
 62
    18
420
        0
176
     1
 90
       50
176
     1
 90
        3
176
     1
 62
     5
420
      255
176
     1
290
     0
176
     1
 90
       50
176
     1
 90
       50
176
     1
 90
       50
176
     1
290
     0
176
     1
 90
       50
176
     1
 62
   256
176
     0
 40
1.0
176
     0
 90
        2
176
     1
  1
strokes_ogs.tif
176
     1
290
     0
176
     1
 40
1.0
176
     1
 40
1.0
176
     1
  0
VISUALSTYLE
  5
36
102
{ACAD_REACTORS
330
29
102
}
330
29
100
AcDbVisualStyle
  2
Thicken
 70
    13
177
     3
291
     1
 70
    58
 90
        2
176
     1
 90
        2
176
     1
 90
        0
176
     1
 90
        0
176
     1
 40
0.6
176
     1
 40
30.0
176
     1
 62
     7
420
 16777215
176
     1
 90
        1
176
     1
 90
        4
176
     1
 62
     7
176
     1
 62
   257
176
     1
 90
        1
176
     1
 90
        1
176
     1
 40
1.0
176
     1
 90
       12
176
     1
 62
     7
176
     1
 40
1.0
176
     1
 90
        1
176
     1
 90
        6
176
     1
 90
        2
176
     1
 62
     7
176
     1
 90
        5
176
     1
 90
        0
176
     1
 90
        0
176
     1
290
     0
176
     1
 90
        1
176
     1
 40
0.0
176
     1
 90
        0
176
     1
290
     0
176
     1
290
     1
176
     1
290
     1
176
     1
290
     0
176
     1
290
     0
176
     1
290
     0
176
     1
290
     0
176
     1
290
     0
176
     1
290
     0
176
     1
 90
       50
176
     1
 40
0.0
176
     1
 40
1.0
176
     1
 90
        0
176
     1
 62
    18
420
        0
176
     1
 90
       50
176
     1
 90
        3
176
     1
 62
     5
420
      255
176
     1
290
     0
176
     1
 90
       50
176
     1
 90
       50
176
     1
 90
       50
176
     1
290
     0
176
     1
 90
       50
176
     1
 62
   256
176
     0
 40
1.0
176
     0
 90
        2
176
     1
  1
strokes_ogs.tif
176
     1
290
     0
176
     1
 40
1.0
176
     1
 40
1.0
176
     1
  0
VISUALSTYLE
  5
30
102
{ACAD_REACTORS
330
29
102
}
330
29
100
AcDbVisualStyle
  2
Wireframe
 70
     5
177
     3
291
     0
 70
    58
 90
        0
176
     1
 90
        2
176
     1
 90
        0
176
     1
 90
        0
176
     1
 40
0.6
176
     1
 40
30.0
176
     1
 62
     7
420
 16777215
176
     1
 90
        1
176
     1
 90
        4
176
     1
 62
     7
176
     1
 62
   257
176
     1
 90
        1
176
     1
 90
        1
176
     1
 40
1.0
176
     1
 90
        0
176
     1
 62
   257
176
     1
 40
1.0
176
     1
 90
        1
176
     1
 90
        6
176
     1
 90
        2
176
     1
 62
     7
176
     1
 90
        3
176
     1
 90
        0
176
     1
 90
        0
176
     1
290
     0
176
     1
 90
        1
176
     1
 40
0.0
176
     1
 90
        0
176
     1
290
     0
176
     1
290
     1
176
     1
290
     1
176
     1
290
     0
176
     1
290
     0
176
     1
290
     0
176
     1
290
     0
176
     1
290
     0
176
     1
290
     0
176
     1
 90
       50
176
     1
 40
0.0
176
     1
 40
1.0
176
     1
 90
        0
176
     1
 62
    18
420
        0
176
     1
 90
       50
176
     1
 90
        3
176
     1
 62
     5
420
      255
176
     1
290
     0
176
     1
 90
       50
176
     1
 90
       50
176
     1
 90
       50
176
     1
290
     0
176
     1
 90
       50
176
     1
 62
   256
176
     0
 40
1.0
176
     0
 90
        2
176
     1
  1
strokes_ogs.tif
176
     1
290
     0
176
     1
 40
1.0
176
     1
 40
1.0
176
     1
  0
VISUALSTYLE
  5
3C
102
{ACAD_REACTORS
330
29
102
}
330
29
100
AcDbVisualStyle
  2
X-Ray
 70
    25
177
     3
291
     0
 70
    58
 90
        2
176
     1
 90
        2
176
     1
 90
        1
176
     1
 90
        1
176
     1
 40
0.5
176
     1
 40
30.0
176
     1
 62
     7
420
 16777215
176
     1
 90
        1
176
     1
 90
        0
176
     1
 62
     7
176
     1
 62
   257
176
     1
 90
        1
176
     1
 90
        1
176
     1
 40
1.0
176
     1
 90
        8
176
     1
 62
     7
176
     1
 40
1.0
176
     1
 90
        1
176
     1
 90
        6
176
     1
 90
        2
176
     1
 62
     7
176
     1
 90
        3
176
     1
 90
        0
176
     1
 90
        0
176
     1
290
     0
176
     1
 90
       13
176
     1
 40
0.0
176
     1
 90
        0
176
     1
290
     0
176
     1
290
     1
176
     1
290
     1
176
     1
290
     0
176
     1
290
     0
176
     1
290
     0
176
     1
290
     0
176
     1
290
     0
176
     1
290
     0
176
     1
 90
       50
176
     1
 40
0.0
176
     1
 40
1.0
176
     1
 90
        0
176
     1
 62
    18
420
        0
176
     1
 90
       50
176
     1
 90
        3
176
     1
 62
     5
420
      255
176
     1
290
     0
176
     1
 90
       50
176
     1
 90
       50
176
     1
 90
       50
176
     1
290
     0
176
     1
 90
       50
176
     1
 62
   256
176
     0
 40
1.0
176
     0
 90
        2
176
     1
  1
strokes_ogs.tif
176
     1
290
     0
176
     1
 40
1.0
176
     1
 40
1.0
176
     1
  0
DICTIONARYVAR
  5
113
102
{ACAD_REACTORS
330
10E
102
}
330
10E
100
DictionaryVariables
280
     0
  1
1:1
  0
DICTIONARYVAR
  5
110
102
{ACAD_REACTORS
330
10E
102
}
330
10E
100
DictionaryVariables
280
     0
  1
STANDARD
  0
DICTIONARYVAR
  5
10F
102
{ACAD_REACTORS
330
10E
102
}
330
10E
100
DictionaryVariables
280
     0
  1
STANDARD
  0
DICTIONARYVAR
  5
111
102
{ACAD_REACTORS
330
10E
102
}
330
10E
100
DictionaryVariables
280
     0
  1
Imperial24
  0
DICTIONARYVAR
  5
112
102
{ACAD_REACTORS
330
10E
102
}
330
10E
100
DictionaryVariables
280
     0
  1
Imperial24
  0
XRECORD
  5
106
102
{ACAD_REACTORS
330
103
102
}
330
103
100
AcDbXrecord
280
     1
  1
BUILDING_ID
  1
Pressure_Balance_Rough_Valve-GROHE-35115000
  1
FLOOR_ID
  1
1884
  0
XRECORD
  5
104
102
{ACAD_REACTORS
330
103
102
}
330
103
100
AcDbXrecord
280
     1
  1
-2000051
  1
Lines
  0
XRECORD
  5
105
102
{ACAD_REACTORS
330
103
102
}
330
103
100
AcDbXrecord
280
     1
  1
-2000287
  1
<Beyond>
  0
DICTIONARY
  5
10B
330
6B
100
AcDbDictionary
280
     1
281
     1
  3
ACAD_XREC_ROUNDTRIP
360
A03
  0
DICTIONARY
  5
1A
330
19
100
AcDbDictionary
280
     1
281
     1
  3
BUMPTILE
360
1C
  3
DIFFUSETILE
360
1B
  3
OPACITYTILE
360
1F
  3
REFLECTIONTILE
360
1E
  3
REFRACTIONTILE
360
20
  3
SPECULARTILE
360
1D
  0
DICTIONARY
  5
12
330
11
100
AcDbDictionary
280
     1
281
     1
  3
BUMPTILE
360
14
  3
DIFFUSETILE
360
13
  3
OPACITYTILE
360
17
  3
REFLECTIONTILE
360
16
  3
REFRACTIONTILE
360
18
  3
SPECULARTILE
360
15
  0
DICTIONARY
  5
22
330
21
100
AcDbDictionary
280
     1
281
     1
  3
BUMPTILE
360
24
  3
DIFFUSETILE
360
23
  3
OPACITYTILE
360
27
  3
REFLECTIONTILE
360
26
  3
REFRACTIONTILE
360
28
  3
SPECULARTILE
360
25
  0
DICTIONARY
  5
109
330
69
100
AcDbDictionary
280
     1
281
     1
  3
ACAD_XREC_ROUNDTRIP
360
A02
  0
DICTIONARY
  5
A00
330
65
100
AcDbDictionary
280
     1
281
     1
  3
ACAD_ROUNDTRIP_2008_TABLESTYLE_CELLSTYLEMAP
360
A01
  0
XRECORD
  5
A03
102
{ACAD_REACTORS
330
10B
102
}
330
10B
100
AcDbXrecord
280
     1
102
DISPLAYNAME
  1
Imperial24
102
FLAGS
 90
        0
  0
XRECORD
  5
1C
102
{ACAD_REACTORS
330
1A
102
}
330
1A
100
AcDbXrecord
280
     1
270
     1
271
     1
  0
XRECORD
  5
1B
102
{ACAD_REACTORS
330
1A
102
}
330
1A
100
AcDbXrecord
280
     1
270
     1
271
     1
  0
XRECORD
  5
1F
102
{ACAD_REACTORS
330
1A
102
}
330
1A
100
AcDbXrecord
280
     1
270
     1
271
     1
  0
XRECORD
  5
1E
102
{ACAD_REACTORS
330
1A
102
}
330
1A
100
AcDbXrecord
280
     1
270
     1
271
     1
  0
XRECORD
  5
20
102
{ACAD_REACTORS
330
1A
102
}
330
1A
100
AcDbXrecord
280
     1
270
     1
271
     1
  0
XRECORD
  5
1D
102
{ACAD_REACTORS
330
1A
102
}
330
1A
100
AcDbXrecord
280
     1
270
     1
271
     1
  0
XRECORD
  5
14
102
{ACAD_REACTORS
330
12
102
}
330
12
100
AcDbXrecord
280
     1
270
     1
271
     1
  0
XRECORD
  5
13
102
{ACAD_REACTORS
330
12
102
}
330
12
100
AcDbXrecord
280
     1
270
     1
271
     1
  0
XRECORD
  5
17
102
{ACAD_REACTORS
330
12
102
}
330
12
100
AcDbXrecord
280
     1
270
     1
271
     1
  0
XRECORD
  5
16
102
{ACAD_REACTORS
330
12
102
}
330
12
100
AcDbXrecord
280
     1
270
     1
271
     1
  0
XRECORD
  5
18
102
{ACAD_REACTORS
330
12
102
}
330
12
100
AcDbXrecord
280
     1
270
     1
271
     1
  0
XRECORD
  5
15
102
{ACAD_REACTORS
330
12
102
}
330
12
100
AcDbXrecord
280
     1
270
     1
271
     1
  0
XRECORD
  5
24
102
{ACAD_REACTORS
330
22
102
}
330
22
100
AcDbXrecord
280
     1
270
     1
271
     1
  0
XRECORD
  5
23
102
{ACAD_REACTORS
330
22
102
}
330
22
100
AcDbXrecord
280
     1
270
     1
271
     1
  0
XRECORD
  5
27
102
{ACAD_REACTORS
330
22
102
}
330
22
100
AcDbXrecord
280
     1
270
     1
271
     1
  0
XRECORD
  5
26
102
{ACAD_REACTORS
330
22
102
}
330
22
100
AcDbXrecord
280
     1
270
     1
271
     1
  0
XRECORD
  5
28
102
{ACAD_REACTORS
330
22
102
}
330
22
100
AcDbXrecord
280
     1
270
     1
271
     1
  0
XRECORD
  5
25
102
{ACAD_REACTORS
330
22
102
}
330
22
100
AcDbXrecord
280
     1
270
     1
271
     1
  0
XRECORD
  5
A02
102
{ACAD_REACTORS
330
109
102
}
330
109
100
AcDbXrecord
280
     1
102
DISPLAYNAME
  1
Imperial24
102
FLAGS
 90
        0
  0
CELLSTYLEMAP
  5
A01
102
{ACAD_REACTORS
330
A00
102
}
330
A00
100
AcDbCellStyleMap
 90
        3
300
CELLSTYLE
  1
TABLEFORMAT_BEGIN
 90
        5
170
     1
 91
        0
 92
    32768
 62
   257
 93
        1
300
CONTENTFORMAT
  1
CONTENTFORMAT_BEGIN
 90
        0
 91
        0
 92
      512
 93
        0
300

 40
0.0
140
1.0
 94
        5
 62
     0
340
55
144
0.25
309
CONTENTFORMAT_END
171
     0
 94
        0
309
TABLEFORMAT_END
  1
CELLSTYLE_BEGIN
 90
        1
 91
        1
300
_TITLE
309
CELLSTYLE_END
300
CELLSTYLE
  1
TABLEFORMAT_BEGIN
 90
        5
170
     1
 91
        0
 92
        0
 62
   257
 93
        1
300
CONTENTFORMAT
  1
CONTENTFORMAT_BEGIN
 90
        0
 91
        0
 92
      512
 93
        0
300

 40
0.0
140
1.0
 94
        5
 62
     0
340
55
144
0.18
309
CONTENTFORMAT_END
171
     0
 94
        0
309
TABLEFORMAT_END
  1
CELLSTYLE_BEGIN
 90
        2
 91
        1
300
_HEADER
309
CELLSTYLE_END
300
CELLSTYLE
  1
TABLEFORMAT_BEGIN
 90
        5
170
     1
 91
        0
 92
        0
 62
   257
 93
        1
300
CONTENTFORMAT
  1
CONTENTFORMAT_BEGIN
 90
        0
 91
        0
 92
      512
 93
        0
300

 40
0.0
140
1.0
 94
        2
 62
     0
340
55
144
0.18
309
CONTENTFORMAT_END
171
     0
 94
        0
309
TABLEFORMAT_END
  1
CELLSTYLE_BEGIN
 90
        3
 91
        2
300
_DATA
309
CELLSTYLE_END
  0
ENDSEC
  0
SECTION
  2
ACDSDATA
 70
     2
 71
     8
  0
ACDSSCHEMA
 90
        0
  1
AcDb_Thumbnail_Schema
  2
AcDbDs::ID
280
    10
 91
        8
  2
Thumbnail_Data
280
    15
 91
        0
101
ACDSRECORD
 95
        0
 90
        1
  2
AcDbDs::TreatedAsObjectData
280
     1
291
     1
101
ACDSRECORD
 95
        0
 90
        2
  2
AcDbDs::Legacy
280
     1
291
     1
101
ACDSRECORD
  1
AcDbDs::ID
 90
        3
  2
AcDs:Indexable
280
     1
291
     1
101
ACDSRECORD
  1
AcDbDs::ID
 90
        4
  2
AcDbDs::HandleAttribute
280
     7
282
     1
  0
ACDSSCHEMA
 90
        1
  1
AcDbDs::TreatedAsObjectDataSchema
  2
AcDbDs::TreatedAsObjectData
280
     1
 91
        0
  0
ACDSSCHEMA
 90
        2
  1
AcDbDs::LegacySchema
  2
AcDbDs::Legacy
280
     1
 91
        0
  0
ACDSSCHEMA
 90
        3
  1
AcDbDs::IndexedPropertySchema
  2
AcDs:Indexable
280
     1
 91
        0
  0
ACDSSCHEMA
 90
        4
  1
AcDbDs::HandleAttributeSchema
  2
AcDbDs::HandleAttribute
280
     7
 91
        1
284
     1
  0
ACDSRECORD
 90
        0
  2
AcDbDs::ID
280
    10
320
73
  2
Thumbnail_Data
280
    15
 94
     1411
310
89504E470D0A1A0A0000000D49484452000001000000007E0803000000FCF33F5100000300504C5445212830000000C8C8C80000000000000000000000000000000000000000000000000000330000660000990000CC0000FF0033000033330033660033990033CC0033FF0066000066330066660066990066CC0066FF0099
310
000099330099660099990099CC0099FF00CC0000CC3300CC6600CC9900CCCC00CCFF00FF0000FF3300FF6600FF9900FFCC00FFFF3300003300333300663300993300CC3300FF3333003333333333663333993333CC3333FF3366003366333366663366993366CC3366FF3399003399333399663399993399CC3399FF33CC00
310
33CC3333CC6633CC9933CCCC33CCFF33FF0033FF3333FF6633FF9933FFCC33FFFF6600006600336600666600996600CC6600FF6633006633336633666633996633CC6633FF6666006666336666666666996666CC6666FF6699006699336699666699996699CC6699FF66CC0066CC3366CC6666CC9966CCCC66CCFF66FF0066
310
FF3366FF6666FF9966FFCC66FFFF9900009900339900669900999900CC9900FF9933009933339933669933999933CC9933FF9966009966339966669966999966CC9966FF9999009999339999669999999999CC9999FF99CC0099CC3399CC6699CC9999CCCC99CCFF99FF0099FF3399FF6699FF9999FFCC99FFFFCC0000CC00
310
33CC0066CC0099CC00CCCC00FFCC3300CC3333CC3366CC3399CC33CCCC33FFCC6600CC6633CC6666CC6699CC66CCCC66FFCC9900CC9933CC9966CC9999CC99CCCC99FFCCCC00CCCC33CCCC66CCCC99CCCCCCCCCCFFCCFF00CCFF33CCFF66CCFF99CCFFCCCCFFFFFF0000FF0033FF0066FF0099FF00CCFF00FFFF3300FF3333
310
FF3366FF3399FF33CCFF33FFFF6600FF6633FF6666FF6699FF66CCFF66FFFF9900FF9933FF9966FF9999FF99CCFF99FFFFCC00FFCC33FFCC66FFCC99FFCCCCFFCCFFFFFF00FFFF33FFFF66FFFF99FFFFCCFFFFFF0000000D0D0D1A1A1A2828283535354343435050505D5D5D6B6B6B787878868686939393A1A1A1AEAEAEBB
310
BBBBC9C9C9D6D6D6E4E4E4F1F1F1FFFFFF000000000000000000000000000000000000000000000000000000000000B21171F60000023E4944415478DAED9CDD72AB300C06FDFEEFFBDDF74CC729FE911DC2615A21EDDEA403ED24DE1821CBA2A500000000000000000000000000007840FF483DFAE625E1F0ED9F130E3F9D
310
022DC922E0E313084040A8E0B713103B0EE82C61873C4CF5EF23F3E112C7C6EBD3D7D761A4E318D5C70275F9E2B3A3DD3B01DA0878726CDC0BA8233F21407105742BC295808280A0026A7C4B2BE07C107CAE009D14B0BB0D3E3A39D4DB44C83A5CE2E785FD8179DC499783798A4208400002920BC85D140600000000C84EFA
310
454080BD2F042000013905FC5FDC5E6C85B5A7420B687785AD9D923C028EADB16402EA9C3F3645BBED41F91DF44DC55CBDBEFD66AFB0D920F62BE0E3133B0152DB1FD7B608A411D0CD9C1A0754920868E35E1B077C0BB83106681EE6CFDD407EC7DFABB87047D85A93D7E5F1BB2F7EF7B1972D325AA707C55B8B8C961A8619
310
A075BAA0B1FB57E61B8D6D7477E4DDB7053FAD4DAC05945140BDD25516028E58E867AD640918B3B7B302A6D4D70C02CE1A250D017D50BC22C00E2A08788A805FBE0424E74170AC6F0C49EF1C04753A084AEE8260F9404019167BDAD67DC63975AC187D2442CB0EDF5DC222F337EC44C8E815F65430BC960A6BB898D7B6A462
310
67167EF2E22BDD7DE310745CECE604D0F6AFE308980DC88A77910568FC070AD6051F50405311ED8AA2AFC7878A6B0117EA214B01F531EA2305B4EA81CE045C9E355AAFFAADD75802E6EAA759F6580808D83DD1651073CDA5C447C6224F3E4A3F7F775BA13F000108C829808785000000000000000000EEE50B94100D3FC4CC
310
6C600000000049454E44AE426082
  0
ENDSEC
  0
EOF
