  0
SECTION
  2
HEADER
  9
$ACADVER
  1
AC1027
  9
$ACADMAINTVER
 70
   105
  9
$DWGCODEPAGE
  3
ANSI_1252
  9
$LASTSAVEDBY
  1
mariapalcon
  9
$REQUIREDVERSIONS
160
                 0
  9
$INSBASE
 10
0.0
 20
0.0
 30
0.0
  9
$EXTMIN
 10
-7.94360086915907
 20
-2.437500000000333
 30
0.0
  9
$EXTMAX
 10
2.437500000000258
 20
4.930411164983233
 30
0.0
  9
$LIMMIN
 10
0.0
 20
0.0
  9
$LIMMAX
 10
12.0
 20
9.0
  9
$ORTHOMODE
 70
     0
  9
$REGENMODE
 70
     1
  9
$FILLMODE
 70
     1
  9
$QTEXTMODE
 70
     0
  9
$MIRRTEXT
 70
     0
  9
$LTSCALE
 40
1.0
  9
$ATTMODE
 70
     1
  9
$TEXTSIZE
 40
0.2
  9
$TRACEWID
 40
0.05
  9
$TEXTSTYLE
  7
Standard
  9
$CLAYER
  8
0
  9
$CELTYPE
  6
ByLayer
  9
$CECOLOR
 62
   256
  9
$CELTSCALE
 40
1.0
  9
$DISPSILH
 70
     0
  9
$DIMSCALE
 40
1.0
  9
$DIMASZ
 40
0.18
  9
$DIMEXO
 40
0.0625
  9
$DIMDLI
 40
0.38
  9
$DIMRND
 40
0.0
  9
$DIMDLE
 40
0.0
  9
$DIMEXE
 40
0.18
  9
$DIMTP
 40
0.0
  9
$DIMTM
 40
0.0
  9
$DIMTXT
 40
0.18
  9
$DIMCEN
 40
0.09
  9
$DIMTSZ
 40
0.0
  9
$DIMTOL
 70
     0
  9
$DIMLIM
 70
     0
  9
$DIMTIH
 70
     1
  9
$DIMTOH
 70
     1
  9
$DIMSE1
 70
     0
  9
$DIMSE2
 70
     0
  9
$DIMTAD
 70
     0
  9
$DIMZIN
 70
     0
  9
$DIMBLK
  1

  9
$DIMASO
 70
     1
  9
$DIMSHO
 70
     1
  9
$DIMPOST
  1

  9
$DIMAPOST
  1

  9
$DIMALT
 70
     0
  9
$DIMALTD
 70
     2
  9
$DIMALTF
 40
25.4
  9
$DIMLFAC
 40
1.0
  9
$DIMTOFL
 70
     0
  9
$DIMTVP
 40
0.0
  9
$DIMTIX
 70
     0
  9
$DIMSOXD
 70
     0
  9
$DIMSAH
 70
     0
  9
$DIMBLK1
  1

  9
$DIMBLK2
  1

  9
$DIMSTYLE
  2
Standard
  9
$DIMCLRD
 70
     0
  9
$DIMCLRE
 70
     0
  9
$DIMCLRT
 70
     0
  9
$DIMTFAC
 40
1.0
  9
$DIMGAP
 40
0.09
  9
$DIMJUST
 70
     0
  9
$DIMSD1
 70
     0
  9
$DIMSD2
 70
     0
  9
$DIMTOLJ
 70
     1
  9
$DIMTZIN
 70
     0
  9
$DIMALTZ
 70
     0
  9
$DIMALTTZ
 70
     0
  9
$DIMUPT
 70
     0
  9
$DIMDEC
 70
     4
  9
$DIMTDEC
 70
     4
  9
$DIMALTU
 70
     4
  9
$DIMALTTD
 70
     2
  9
$DIMTXSTY
  7
Standard
  9
$DIMAUNIT
 70
     0
  9
$DIMADEC
 70
     0
  9
$DIMALTRND
 40
0.0
  9
$DIMAZIN
 70
     0
  9
$DIMDSEP
 70
    46
  9
$DIMATFIT
 70
     3
  9
$DIMFRAC
 70
     0
  9
$DIMLDRBLK
  1

  9
$DIMLUNIT
 70
     4
  9
$DIMLWD
 70
    -2
  9
$DIMLWE
 70
    -2
  9
$DIMTMOVE
 70
     0
  9
$DIMFXL
 40
1.0
  9
$DIMFXLON
 70
     0
  9
$DIMJOGANG
 40
0.7853981633974483
  9
$DIMTFILL
 70
     0
  9
$DIMTFILLCLR
 70
     0
  9
$DIMARCSYM
 70
     0
  9
$DIMLTYPE
  6

  9
$DIMLTEX1
  6

  9
$DIMLTEX2
  6

  9
$DIMTXTDIRECTION
 70
     0
  9
$LUNITS
 70
     4
  9
$LUPREC
 70
     4
  9
$SKETCHINC
 40
0.1
  9
$FILLETRAD
 40
0.0
  9
$AUNITS
 70
     0
  9
$AUPREC
 70
     0
  9
$MENU
  1
.
  9
$ELEVATION
 40
0.0
  9
$PELEVATION
 40
0.0
  9
$THICKNESS
 40
0.0
  9
$LIMCHECK
 70
     0
  9
$CHAMFERA
 40
0.0
  9
$CHAMFERB
 40
0.0
  9
$CHAMFERC
 40
0.0
  9
$CHAMFERD
 40
0.0
  9
$SKPOLY
 70
     0
  9
$TDCREATE
 40
2458932.465731933
  9
$TDUCREATE
 40
2458932.632398600
  9
$TDUPDATE
 40
2458932.480503472
  9
$TDUUPDATE
 40
2458932.647170139
  9
$TDINDWG
 40
0.0127717708
  9
$TDUSRTIMER
 40
0.0127717708
  9
$USRTIMER
 70
     1
  9
$ANGBASE
 50
0.0
  9
$ANGDIR
 70
     0
  9
$PDMODE
 70
     0
  9
$PDSIZE
 40
0.0
  9
$PLINEWID
 40
0.0
  9
$SPLFRAME
 70
     0
  9
$SPLINETYPE
 70
     6
  9
$SPLINESEGS
 70
     8
  9
$HANDSEED
  5
4B0
  9
$SURFTAB1
 70
     6
  9
$SURFTAB2
 70
     6
  9
$SURFTYPE
 70
     6
  9
$SURFU
 70
     6
  9
$SURFV
 70
     6
  9
$UCSBASE
  2

  9
$UCSNAME
  2

  9
$UCSORG
 10
0.0
 20
0.0
 30
0.0
  9
$UCSXDIR
 10
1.0
 20
0.0
 30
0.0
  9
$UCSYDIR
 10
0.0
 20
1.0
 30
0.0
  9
$UCSORTHOREF
  2

  9
$UCSORTHOVIEW
 70
     0
  9
$UCSORGTOP
 10
0.0
 20
0.0
 30
0.0
  9
$UCSORGBOTTOM
 10
0.0
 20
0.0
 30
0.0
  9
$UCSORGLEFT
 10
0.0
 20
0.0
 30
0.0
  9
$UCSORGRIGHT
 10
0.0
 20
0.0
 30
0.0
  9
$UCSORGFRONT
 10
0.0
 20
0.0
 30
0.0
  9
$UCSORGBACK
 10
0.0
 20
0.0
 30
0.0
  9
$PUCSBASE
  2

  9
$PUCSNAME
  2

  9
$PUCSORG
 10
0.0
 20
0.0
 30
0.0
  9
$PUCSXDIR
 10
1.0
 20
0.0
 30
0.0
  9
$PUCSYDIR
 10
0.0
 20
1.0
 30
0.0
  9
$PUCSORTHOREF
  2

  9
$PUCSORTHOVIEW
 70
     0
  9
$PUCSORGTOP
 10
0.0
 20
0.0
 30
0.0
  9
$PUCSORGBOTTOM
 10
0.0
 20
0.0
 30
0.0
  9
$PUCSORGLEFT
 10
0.0
 20
0.0
 30
0.0
  9
$PUCSORGRIGHT
 10
0.0
 20
0.0
 30
0.0
  9
$PUCSORGFRONT
 10
0.0
 20
0.0
 30
0.0
  9
$PUCSORGBACK
 10
0.0
 20
0.0
 30
0.0
  9
$USERI1
 70
     0
  9
$USERI2
 70
     0
  9
$USERI3
 70
     0
  9
$USERI4
 70
     0
  9
$USERI5
 70
     0
  9
$USERR1
 40
0.0
  9
$USERR2
 40
0.0
  9
$USERR3
 40
0.0
  9
$USERR4
 40
0.0
  9
$USERR5
 40
0.0
  9
$WORLDVIEW
 70
     1
  9
$SHADEDGE
 70
     3
  9
$SHADEDIF
 70
    70
  9
$TILEMODE
 70
     1
  9
$MAXACTVP
 70
    64
  9
$PINSBASE
 10
0.0
 20
0.0
 30
0.0
  9
$PLIMCHECK
 70
     0
  9
$PEXTMIN
 10
1.000000000000000E+20
 20
1.000000000000000E+20
 30
1.000000000000000E+20
  9
$PEXTMAX
 10
-1.000000000000000E+20
 20
-1.000000000000000E+20
 30
-1.000000000000000E+20
  9
$PLIMMIN
 10
0.0
 20
0.0
  9
$PLIMMAX
 10
12.0
 20
9.0
  9
$UNITMODE
 70
     0
  9
$VISRETAIN
 70
     1
  9
$PLINEGEN
 70
     0
  9
$PSLTSCALE
 70
     1
  9
$TREEDEPTH
 70
  3020
  9
$CMLSTYLE
  2
Standard
  9
$CMLJUST
 70
     0
  9
$CMLSCALE
 40
1.0
  9
$PROXYGRAPHICS
 70
     1
  9
$MEASUREMENT
 70
     0
  9
$CELWEIGHT
370
    -1
  9
$ENDCAPS
280
     0
  9
$JOINSTYLE
280
     0
  9
$LWDISPLAY
290
     0
  9
$INSUNITS
 70
     1
  9
$HYPERLINKBASE
  1

  9
$STYLESHEET
  1

  9
$XEDIT
290
     1
  9
$CEPSNTYPE
380
     0
  9
$PSTYLEMODE
290
     1
  9
$FINGERPRINTGUID
  2
{B9D29DA5-1C72-4CE5-A70E-B23F5B7B00C2}
  9
$VERSIONGUID
  2
{2C3E2842-4BF9-4412-B656-3971099D52F1}
  9
$EXTNAMES
290
     1
  9
$PSVPSCALE
 40
0.0
  9
$OLESTARTUP
290
     0
  9
$SORTENTS
280
   127
  9
$INDEXCTL
280
     0
  9
$HIDETEXT
280
     1
  9
$XCLIPFRAME
280
     2
  9
$HALOGAP
280
     0
  9
$OBSCOLOR
 70
   257
  9
$OBSLTYPE
280
     0
  9
$INTERSECTIONDISPLAY
280
     0
  9
$INTERSECTIONCOLOR
 70
   257
  9
$DIMASSOC
280
     2
  9
$PROJECTNAME
  1

  9
$CAMERADISPLAY
290
     0
  9
$LENSLENGTH
 40
50.0
  9
$CAMERAHEIGHT
 40
0.0
  9
$STEPSPERSEC
 40
2.0
  9
$STEPSIZE
 40
6.0
  9
$3DDWFPREC
 40
2.0
  9
$PSOLWIDTH
 40
0.25
  9
$PSOLHEIGHT
 40
4.0
  9
$LOFTANG1
 40
1.570796326794896
  9
$LOFTANG2
 40
1.570796326794896
  9
$LOFTMAG1
 40
0.0
  9
$LOFTMAG2
 40
0.0
  9
$LOFTPARAM
 70
     7
  9
$LOFTNORMALS
280
     1
  9
$LATITUDE
 40
0.0
  9
$LONGITUDE
 40
0.0
  9
$NORTHDIRECTION
 40
0.0
  9
$TIMEZONE
 70
     0
  9
$LIGHTGLYPHDISPLAY
280
     1
  9
$TILEMODELIGHTSYNCH
280
     1
  9
$CMATERIAL
347
11
  9
$SOLIDHIST
280
     0
  9
$SHOWHIST
280
     1
  9
$DWFFRAME
280
     2
  9
$DGNFRAME
280
     0
  9
$REALWORLDSCALE
290
     1
  9
$INTERFERECOLOR
 62
     1
  9
$INTERFEREOBJVS
345
33
  9
$INTERFEREVPVS
346
30
  9
$CSHADOW
280
     0
  9
$SHADOWPLANELOCATION
 40
0.0
  0
ENDSEC
  0
SECTION
  2
CLASSES
  0
CLASS
  1
ACDBDICTIONARYWDFLT
  2
AcDbDictionaryWithDefault
  3
ObjectDBX Classes
 90
        0
 91
        1
280
     0
281
     0
  0
CLASS
  1
MATERIAL
  2
AcDbMaterial
  3
ObjectDBX Classes
 90
     1153
 91
        3
280
     0
281
     0
  0
CLASS
  1
VISUALSTYLE
  2
AcDbVisualStyle
  3
ObjectDBX Classes
 90
     4095
 91
       24
280
     0
281
     0
  0
CLASS
  1
SCALE
  2
AcDbScale
  3
ObjectDBX Classes
 90
     1153
 91
       17
280
     0
281
     0
  0
CLASS
  1
TABLESTYLE
  2
AcDbTableStyle
  3
ObjectDBX Classes
 90
     4095
 91
        1
280
     0
281
     0
  0
CLASS
  1
MLEADERSTYLE
  2
AcDbMLeaderStyle
  3
ACDB_MLEADERSTYLE_CLASS
 90
     4095
 91
        1
280
     0
281
     0
  0
CLASS
  1
ACDBSECTIONVIEWSTYLE
  2
AcDbSectionViewStyle
  3
ObjectDBX Classes
 90
     1025
 91
        1
280
     0
281
     0
  0
CLASS
  1
ACDBDETAILVIEWSTYLE
  2
AcDbDetailViewStyle
  3
ObjectDBX Classes
 90
     1025
 91
        1
280
     0
281
     0
  0
CLASS
  1
RASTERVARIABLES
  2
AcDbRasterVariables
  3
ISM
 90
        0
 91
        1
280
     0
281
     0
  0
CLASS
  1
DICTIONARYVAR
  2
AcDbDictionaryVar
  3
ObjectDBX Classes
 90
        0
 91
        5
280
     0
281
     0
  0
CLASS
  1
SORTENTSTABLE
  2
AcDbSortentsTable
  3
ObjectDBX Classes
 90
        0
 91
        1
280
     0
281
     0
  0
CLASS
  1
CELLSTYLEMAP
  2
AcDbCellStyleMap
  3
ObjectDBX Classes
 90
     1152
 91
        1
280
     0
281
     0
  0
ENDSEC
  0
SECTION
  2
TABLES
  0
TABLE
  2
VPORT
  5
8
330
0
100
AcDbSymbolTable
 70
     1
  0
VPORT
  5
57
330
8
100
AcDbSymbolTableRecord
100
AcDbViewportTableRecord
  2
*Active
 70
     0
 10
0.0
 20
0.0
 11
1.0
 21
1.0
 12
-0.6284116616102935
 22
0.8585841483096423
 13
0.0
 23
0.0
 14
1.0
 24
1.0
 15
0.0
 25
0.0
 16
0.0
 26
0.0
 36
1.0
 17
0.0
 27
0.0
 37
0.0
 40
11.71866089342546
 41
2.021505376344086
 42
50.0
 43
0.0
 44
0.0
 50
0.0
 51
0.0
 71
     0
 72
  1000
 73
     1
 74
     1
 75
     0
 76
     0
 77
     0
 78
     0
281
     0
 65
     1
110
0.0
120
0.0
130
0.0
111
1.0
121
0.0
131
0.0
112
0.0
122
1.0
132
0.0
 79
     0
146
0.0
348
2F
 60
     3
 61
     5
292
     1
282
     1
141
0.0
142
0.0
 63
   250
421
  3355443
1001
ACAD_NAV_VCDISPLAY
1070
     3
  0
ENDTAB
  0
TABLE
  2
LTYPE
  5
5
330
0
100
AcDbSymbolTable
 70
     1
  0
LTYPE
  5
5B
330
5
100
AcDbSymbolTableRecord
100
AcDbLinetypeTableRecord
  2
ByBlock
 70
     0
  3

 72
    65
 73
     0
 40
0.0
  0
LTYPE
  5
5C
330
5
100
AcDbSymbolTableRecord
100
AcDbLinetypeTableRecord
  2
ByLayer
 70
     0
  3

 72
    65
 73
     0
 40
0.0
  0
LTYPE
  5
5D
330
5
100
AcDbSymbolTableRecord
100
AcDbLinetypeTableRecord
  2
Continuous
 70
     0
  3
Solid line
 72
    65
 73
     0
 40
0.0
  0
ENDTAB
  0
TABLE
  2
LAYER
  5
2
102
{ACAD_XDICTIONARY
360
353
102
}
330
0
100
AcDbSymbolTable
 70
     2
  0
LAYER
  5
54
330
2
100
AcDbSymbolTableRecord
100
AcDbLayerTableRecord
  2
0
 70
     0
 62
     7
  6
Continuous
370
    -3
390
F
347
21
348
0
  0
LAYER
  5
345
330
2
100
AcDbSymbolTableRecord
100
AcDbLayerTableRecord
  2
Pressure_Balance_Rough_Valve-GROHE-35112000
 70
     0
 62
     7
  6
Continuous
370
    -3
390
F
347
21
348
0
1001
AcAecLayerStandard
1000

1000

1001
AcCmTransparency
1071
        0
  0
ENDTAB
  0
TABLE
  2
STYLE
  5
3
330
0
100
AcDbSymbolTable
 70
     1
  0
STYLE
  5
55
330
3
100
AcDbSymbolTableRecord
100
AcDbTextStyleTableRecord
  2
Standard
 70
     0
 40
0.0
 41
1.0
 50
0.0
 71
     0
 42
0.2
  3
txt
  4

  0
ENDTAB
  0
TABLE
  2
VIEW
  5
6
330
0
100
AcDbSymbolTable
 70
     0
  0
ENDTAB
  0
TABLE
  2
UCS
  5
7
330
0
100
AcDbSymbolTable
 70
     0
  0
ENDTAB
  0
TABLE
  2
APPID
  5
9
330
0
100
AcDbSymbolTable
 70
     6
  0
APPID
  5
56
330
9
100
AcDbSymbolTableRecord
100
AcDbRegAppTableRecord
  2
ACAD
 70
     0
  0
APPID
  5
5E
330
9
100
AcDbSymbolTableRecord
100
AcDbRegAppTableRecord
  2
AcadAnnotative
 70
     0
  0
APPID
  5
78
330
9
100
AcDbSymbolTableRecord
100
AcDbRegAppTableRecord
  2
REVIT
 70
     0
  0
APPID
  5
15F
330
9
100
AcDbSymbolTableRecord
100
AcDbRegAppTableRecord
  2
ACAD_NAV_VCDISPLAY
 70
     0
  0
APPID
  5
346
330
9
100
AcDbSymbolTableRecord
100
AcDbRegAppTableRecord
  2
AcAecLayerStandard
 70
     0
  0
APPID
  5
347
330
9
100
AcDbSymbolTableRecord
100
AcDbRegAppTableRecord
  2
AcCmTransparency
 70
     0
  0
ENDTAB
  0
TABLE
  2
DIMSTYLE
  5
A
330
0
100
AcDbSymbolTable
 70
     1
100
AcDbDimStyleTable
 71
     1
340
58
  0
DIMSTYLE
105
58
330
A
100
AcDbSymbolTableRecord
100
AcDbDimStyleTableRecord
  2
Standard
 70
     0
340
55
  0
ENDTAB
  0
TABLE
  2
BLOCK_RECORD
  5
1
330
0
100
AcDbSymbolTable
 70
     4
  0
BLOCK_RECORD
  5
70
102
{ACAD_XDICTIONARY
360
141
102
}
330
1
100
AcDbSymbolTableRecord
100
AcDbBlockTableRecord
  2
*Model_Space
340
73
 70
     0
280
     1
281
     0
  0
BLOCK_RECORD
  5
6C
330
1
100
AcDbSymbolTableRecord
100
AcDbBlockTableRecord
  2
*Paper_Space
340
6F
 70
     0
280
     1
281
     0
  0
BLOCK_RECORD
  5
74
330
1
100
AcDbSymbolTableRecord
100
AcDbBlockTableRecord
  2
*Paper_Space0
340
77
 70
     0
280
     1
281
     0
  0
BLOCK_RECORD
  5
369
330
1
100
AcDbSymbolTableRecord
100
AcDbBlockTableRecord
  2
Pressure_Balance_Rough_Valve-GROHE-35112000- Front
340
0
310
28000000200000002000000001002000000000000010000001000000010000000000000000000000302821FF302821FF302821FF302821FF302821FF302821FF302821FF302821FF302821FF302821FF302821FF302821FF302821FF302821FF302821FF302821FF302821FF302821FF302821FF302821FF302821FF302821
310
FF302821FF302821FF302821FF302821FF302821FF302821FF302821FF302821FF302821FF302821FF302821FF302821FF302821FF302821FF302821FF302821FF302821FF302821FF302821FF302821FF302821FF302821FF302821FF302821FF302821FF302821FF302821FF302821FF302821FF302821FF302821FF3028
310
21FF302821FF302821FF302821FF302821FF302821FF302821FF302821FF302821FF302821FF302821FF302821FF302821FF302821FF302821FF302821FF302821FF302821FF302821FF302821FF302821FF302821FF302821FF302821FF302821FF302821FF302821FF302821FF302821FF302821FF302821FF302821FF30
310
2821FF302821FF302821FF302821FF302821FF302821FF302821FF302821FF302821FF302821FF302821FF302821FF302821FF302821FF302821FF302821FF302821FF302821FF302821FF302821FF302821FF302821FF302821FF302821FF302821FF302821FF302821FF302821FF302821FF302821FF302821FF302821FF
310
302821FF302821FF302821FF302821FF302821FF302821FF302821FF302821FF302821FF302821FF302821FF302821FF302821FF302821FF302821FF302821FF302821FF302821FF302821FF302821FF302821FF302821FF302821FF302821FF302821FF302821FF302821FF302821FF302821FF302821FF302821FF302821
310
FF302821FF302821FF302821FF302821FF302821FF302821FF302821FF302821FF302821FF302821FF302821FF302821FF302821FF302821FF302821FF302821FF302821FF302821FF302821FF302821FF302821FF302821FF302821FF302821FFFFFFFFFFFFFFFFFFFFFFFFFFFFFFFFFFFFFFFFFFFFFFFFFF302821FF3028
310
21FF302821FF302821FF302821FF302821FF302821FF302821FF302821FF302821FF302821FF302821FF302821FF302821FF302821FF302821FF302821FF302821FF302821FF302821FF302821FF302821FF302821FF302821FF302821FF302821FFFFFFFFFFFFFFFFFFFFFFFFFFFFFFFFFFFFFFFFFFFFFFFFFF302821FF30
310
2821FF302821FF302821FF302821FF302821FF302821FF302821FF302821FF302821FF302821FF302821FF302821FF302821FF302821FF302821FF302821FF302821FF302821FF302821FF302821FF302821FF302821FF302821FF302821FF302821FFFFFFFFFFFFFFFFFFFFFFFFFFFFFFFFFFFFFFFFFFFFFFFFFF302821FF
310
302821FF302821FF302821FF302821FF302821FF302821FF302821FF302821FF302821FF302821FF302821FF302821FF302821FF302821FF302821FF302821FF302821FF302821FF302821FFFFFFFFFFFFFFFFFF302821FF302821FF302821FF302821FFFFFFFFFF302821FF302821FF302821FF302821FFFFFFFFFF302821
310
FF302821FFFFFFFFFFFFFFFFFF302821FF302821FF302821FF302821FF302821FF302821FF302821FF302821FF302821FF302821FF302821FF302821FF302821FF302821FF302821FF302821FFFFFFFFFFFFFFFFFF302821FF302821FF302821FF302821FFFFFFFFFFFFFFFFFFFFFFFFFFFFFFFFFFFFFFFFFFFFFFFFFF3028
310
21FF302821FFFFFFFFFFFFFFFFFF302821FF302821FF302821FF302821FF302821FF302821FF302821FF302821FF302821FF302821FF302821FF302821FF302821FF302821FF302821FF302821FFFFFFFFFFFFFFFFFF302821FF302821FF302821FFFFFFFFFFFFFFFFFFFFFFFFFFFFFFFFFFFFFFFFFFFFFFFFFFFFFFFFFFFF
310
FFFFFF302821FFFFFFFFFFFFFFFFFF302821FF302821FF302821FF302821FF302821FF302821FF302821FF302821FF302821FF302821FF302821FF302821FF302821FF302821FF302821FF302821FFFFFFFFFF302821FFFFFFFFFFFFFFFFFFFFFFFFFFFFFFFFFFFFFFFFFF302821FF302821FF302821FF302821FF302821FF
310
FFFFFFFFFFFFFFFFFFFFFFFF302821FFFFFFFFFF302821FF302821FF302821FF302821FF302821FF302821FF302821FF302821FF302821FF302821FF302821FF302821FF302821FF302821FF302821FFFFFFFFFF302821FFFFFFFFFFFFFFFFFFFFFFFFFF302821FF302821FF302821FF302821FF302821FF302821FF302821
310
FF302821FFFFFFFFFFFFFFFFFF302821FFFFFFFFFF302821FF302821FF302821FF302821FF302821FF302821FF302821FF302821FF302821FF302821FF302821FF302821FF302821FFFFFFFFFFFFFFFFFFFFFFFFFFFFFFFFFFFFFFFFFFFFFFFFFFFFFFFFFF302821FF302821FF302821FF302821FF302821FF302821FF3028
310
21FF302821FF302821FFFFFFFFFFFFFFFFFFFFFFFFFFFFFFFFFFFFFFFFFFFFFFFFFF302821FF302821FF302821FF302821FF302821FF302821FFFFFFFFFFFFFFFFFFFFFFFFFFFFFFFFFFFFFFFFFFFFFFFFFFFFFFFFFFFFFFFFFFFFFFFFFFFFFFFFFF302821FF302821FF302821FF302821FF302821FF302821FF302821FF30
310
2821FF302821FF302821FFFFFFFFFFFFFFFFFFFFFFFFFFFFFFFFFFFFFFFFFFFFFFFFFFFFFFFFFFFFFFFFFFFFFFFFFFFFFFFFFF302821FF302821FFFFFFFFFFFFFFFFFFFFFFFFFF302821FFFFFFFFFFFFFFFFFFFFFFFFFFFFFFFFFFFFFFFFFFFFFFFFFFFFFFFFFFFFFFFFFFFFFFFFFFFFFFFFFFFFFFFFFFFFFFFFFFFFFFFFFF
310
FFFFFFFFFFFFFFFFFFFFFFFFFFFFFFFFFFFFFFFFFFFFFFFFFFFFFFFFFFFFFFFFFFFFFFFF302821FFFFFFFFFFFFFFFFFFFFFFFFFF302821FF302821FFFFFFFFFFFFFFFFFFFFFFFFFF302821FFFFFFFFFFFFFFFFFFFFFFFFFFFFFFFFFFFFFFFFFFFFFFFFFFFFFFFFFFFFFFFFFFFFFFFFFFFFFFFFFFFFFFFFFFFFFFFFFFFFFFFF
310
FFFFFFFFFFFFFFFFFFFFFFFFFFFFFFFFFFFFFFFFFFFFFFFFFFFFFFFFFFFFFFFFFFFFFFFFFF302821FFFFFFFFFFFFFFFFFFFFFFFFFF302821FF302821FFFFFFFFFFFFFFFFFFFFFFFFFFFFFFFFFFFFFFFFFFFFFFFFFFFFFFFFFFFFFFFFFFFFFFFFFFFFFFFFFF302821FF302821FF302821FF302821FF302821FF302821FF3028
310
21FF302821FF302821FF302821FFFFFFFFFFFFFFFFFFFFFFFFFFFFFFFFFFFFFFFFFFFFFFFFFFFFFFFFFFFFFFFFFFFFFFFFFFFFFFFFFF302821FF302821FF302821FF302821FF302821FF302821FFFFFFFFFFFFFFFFFFFFFFFFFFFFFFFFFFFFFFFFFFFFFFFFFFFFFFFFFF302821FF302821FF302821FF302821FF302821FF30
310
2821FF302821FF302821FF302821FFFFFFFFFFFFFFFFFFFFFFFFFFFFFFFFFFFFFFFFFFFFFFFFFF302821FF302821FF302821FF302821FF302821FF302821FF302821FF302821FF302821FF302821FF302821FF302821FF302821FFFFFFFFFF302821FFFFFFFFFFFFFFFFFF302821FF302821FF302821FF302821FF302821FF
310
302821FF302821FF302821FFFFFFFFFFFFFFFFFFFFFFFFFF302821FF302821FFFFFFFFFF302821FF302821FF302821FF302821FF302821FF302821FF302821FF302821FF302821FF302821FF302821FF302821FF302821FF302821FF302821FFFFFFFFFFFFFFFFFFFFFFFFFFFFFFFFFFFFFFFFFF302821FF302821FF302821
310
FF302821FF302821FFFFFFFFFFFFFFFFFF302821FF302821FFFFFFFFFF302821FFFFFFFFFF302821FF302821FF302821FF302821FF302821FF302821FF302821FF302821FF302821FF302821FF302821FF302821FF302821FF302821FF302821FFFFFFFFFFFFFFFFFF302821FFFFFFFFFFFFFFFFFFFFFFFFFFFFFFFFFFFFFF
310
FFFFFFFFFFFFFFFFFFFFFFFFFFFF302821FF302821FF302821FFFFFFFFFFFFFFFFFF302821FF302821FF302821FF302821FF302821FF302821FF302821FF302821FF302821FF302821FF302821FF302821FF302821FF302821FF302821FF302821FFFFFFFFFFFFFFFFFF302821FF302821FFFFFFFFFFFFFFFFFFFFFFFFFFFF
310
FFFFFFFFFFFFFFFFFFFFFF302821FF302821FF302821FF302821FFFFFFFFFFFFFFFFFF302821FF302821FF302821FF302821FF302821FF302821FF302821FF302821FF302821FF302821FF302821FF302821FF302821FF302821FF302821FF302821FFFFFFFFFFFFFFFFFF302821FF302821FFFFFFFFFF302821FF302821FF
310
302821FF302821FFFFFFFFFF302821FF302821FF302821FF302821FFFFFFFFFFFFFFFFFF302821FF302821FF302821FF302821FF302821FF302821FF302821FF302821FF302821FF302821FF302821FF302821FF302821FF302821FF302821FF302821FF302821FF302821FF302821FF302821FFFFFFFFFFFFFFFFFFFFFFFF
310
FFFFFFFFFFFFFFFFFFFFFFFFFF302821FF302821FF302821FF302821FF302821FF302821FF302821FF302821FF302821FF302821FF302821FF302821FF302821FF302821FF302821FF302821FF302821FF302821FF302821FF302821FF302821FF302821FF302821FF302821FF302821FF302821FFFFFFFFFFFFFFFFFFFFFF
310
FFFFFFFFFFFFFFFFFFFFFFFFFFFF302821FF302821FF302821FF302821FF302821FF302821FF302821FF302821FF302821FF302821FF302821FF302821FF302821FF302821FF302821FF302821FF302821FF302821FF302821FF302821FF302821FF302821FF302821FF302821FF302821FF302821FFFFFFFFFFFFFFFFFFFF
310
FFFFFFFFFFFFFFFFFFFFFFFFFFFFFF302821FF302821FF302821FF302821FF302821FF302821FF302821FF302821FF302821FF302821FF302821FF302821FF302821FF302821FF302821FF302821FF302821FF302821FF302821FF302821FF302821FF302821FF302821FF302821FF302821FF302821FF302821FF302821FF
310
302821FF302821FF302821FF302821FF302821FF302821FF302821FF302821FF302821FF302821FF302821FF302821FF302821FF302821FF302821FF302821FF302821FF302821FF302821FF302821FF302821FF302821FF302821FF302821FF302821FF302821FF302821FF302821FF302821FF302821FF302821FF302821
310
FF302821FF302821FF302821FF302821FF302821FF302821FF302821FF302821FF302821FF302821FF302821FF302821FF302821FF302821FF302821FF302821FF302821FF302821FF302821FF302821FF302821FF302821FF302821FF302821FF302821FF302821FF302821FF302821FF302821FF302821FF302821FF3028
310
21FF302821FF302821FF302821FF302821FF302821FF302821FF302821FF302821FF302821FF302821FF302821FF302821FF302821FF302821FF302821FF302821FF302821FF302821FF302821FF302821FF302821FF302821FF302821FF302821FF302821FF302821FF302821FF302821FF302821FF302821FF302821FF30
310
2821FF302821FF302821FF302821FF302821FF302821FF302821FF302821FF302821FF302821FF302821FF302821FF302821FF302821FF302821FF302821FF302821FF302821FF302821FF302821FF302821FF302821FF302821FF302821FF302821FF302821FF302821FF302821FF302821FF302821FF302821FF302821FF
310
302821FF302821FF302821FF302821FF302821FF302821FF302821FF302821FF302821FF302821FF302821FF302821FF302821FF302821FF302821FF302821FF302821FF302821FF
102
{BLKREFS
331
3E6
102
}
 70
     1
280
     1
281
     0
  0
BLOCK_RECORD
  5
3E7
330
1
100
AcDbSymbolTableRecord
100
AcDbBlockTableRecord
  2
Pressure_Balance_Rough_Valve-GROHE-35112000- Left
340
0
310
28000000200000002000000001002000000000000010000001000000010000000000000000000000302821FF302821FF302821FF302821FF302821FF302821FF302821FF302821FF302821FF302821FF302821FF302821FF302821FF302821FF302821FF302821FF302821FF302821FF302821FF302821FF302821FF302821
310
FF302821FF302821FF302821FF302821FF302821FF302821FF302821FF302821FF302821FF302821FF302821FF302821FF302821FF302821FF302821FF302821FF302821FF302821FF302821FF302821FF302821FF302821FF302821FF302821FF302821FF302821FF302821FF302821FF302821FF302821FF302821FF3028
310
21FF302821FF302821FF302821FF302821FF302821FF302821FF302821FF302821FF302821FF302821FF302821FF302821FF302821FF302821FF302821FF302821FF302821FF302821FF302821FF302821FF302821FF302821FF302821FF302821FF302821FF302821FF302821FF302821FF302821FF302821FF302821FF30
310
2821FF302821FF302821FF302821FF302821FF302821FF302821FF302821FF302821FF302821FF302821FF302821FF302821FF302821FF302821FF302821FF302821FF302821FF302821FF302821FF302821FF302821FF302821FF302821FF302821FF302821FF302821FF302821FF302821FF302821FF302821FF302821FF
310
302821FF302821FF302821FF302821FF302821FF302821FF302821FF302821FF302821FF302821FF302821FF302821FF302821FF302821FF302821FF302821FF302821FF302821FF302821FF302821FF302821FF302821FF302821FF302821FF302821FF302821FF302821FF302821FF302821FF302821FF302821FF302821
310
FF302821FF302821FF302821FF302821FF302821FF302821FF302821FF302821FF302821FF302821FF302821FF302821FF302821FF302821FF302821FF302821FF302821FF302821FF302821FF302821FF302821FF302821FF302821FF302821FF302821FF302821FF302821FF302821FF302821FF302821FF302821FF3028
310
21FF302821FF302821FF302821FF302821FF302821FF302821FF302821FF302821FF302821FF302821FF302821FF302821FF302821FF302821FF302821FF302821FF302821FF302821FF302821FF302821FF302821FF302821FF302821FF302821FF302821FF302821FF302821FF302821FF302821FF302821FF302821FF30
310
2821FF302821FF302821FF302821FF302821FF302821FF302821FF302821FF302821FF302821FF302821FF302821FF302821FF302821FF302821FF302821FF302821FF302821FF302821FFFFFFFFFFFFFFFFFFFFFFFFFFFFFFFFFFFFFFFFFFFFFFFFFFFFFFFFFFFFFFFFFFFFFFFFFFFFFFFFFFFFFFFFFFFFFFFFFFFFFFFFFF
310
FFFFFFFFFFFFFFFFFFFFFFFFFFFFFFFFFFFFFFFF302821FF302821FF302821FF302821FF302821FF302821FF302821FF302821FF302821FF302821FF302821FF302821FF302821FF302821FFFFFFFFFF302821FF302821FF302821FF302821FF302821FF302821FF302821FF302821FF302821FF302821FF302821FF302821
310
FF302821FF302821FF302821FF302821FFFFFFFFFF302821FF302821FF302821FF302821FF302821FF302821FF302821FF302821FF302821FF302821FF302821FF302821FF302821FF302821FFFFFFFFFF302821FF302821FF302821FF302821FF302821FF302821FF302821FF302821FF302821FF302821FF302821FF3028
310
21FF302821FF302821FF302821FF302821FFFFFFFFFF302821FF302821FF302821FF302821FF302821FF302821FF302821FF302821FF302821FF302821FF302821FF302821FF302821FFFFFFFFFFFFFFFFFF302821FF302821FF302821FF302821FF302821FF302821FF302821FFFFFFFFFFFFFFFFFF302821FF302821FF30
310
2821FF302821FF302821FF302821FF302821FFFFFFFFFFFFFFFFFF302821FF302821FF302821FF302821FF302821FF302821FF302821FFFFFFFFFFFFFFFFFFFFFFFFFFFFFFFFFFFFFFFFFFFFFFFFFFFFFFFFFF302821FF302821FF302821FF302821FF302821FFFFFFFFFFFFFFFFFFFFFFFFFFFFFFFFFFFFFFFFFFFFFFFFFF
310
FFFFFFFFFFFFFFFFFFFFFFFFFFFFFFFFFFFFFFFFFFFFFFFFFFFFFFFFFFFFFFFFFFFFFFFFFFFFFFFFFFFFFFFFFFFFFFFF302821FF302821FFFFFFFFFFFFFFFFFFFFFFFFFFFFFFFFFF302821FFFFFFFFFFFFFFFFFF302821FF302821FF302821FF302821FFFFFFFFFFFFFFFFFFFFFFFFFFFFFFFFFFFFFFFFFFFFFFFFFFFFFFFF
310
FFFFFFFFFFFFFFFFFFFFFFFFFFFFFFFFFFFFFFFFFFFFFFFFFFFFFFFFFFFFFFFFFFFFFFFFFFFFFFFFFFFFFFFFFFFFFFFFFF302821FF302821FFFFFFFFFFFFFFFFFFFFFFFFFFFFFFFFFF302821FFFFFFFFFFFFFFFFFF302821FF302821FF302821FF302821FFFFFFFFFFFFFFFFFFFFFFFFFFFFFFFFFFFFFFFFFFFFFFFFFFFFFF
310
FFFFFFFFFFFF302821FF302821FF302821FF302821FFFFFFFFFFFFFFFFFF302821FFFFFFFFFFFFFFFFFFFFFFFFFFFFFFFFFF302821FF302821FFFFFFFFFFFFFFFFFFFFFFFFFFFFFFFFFF302821FFFFFFFFFFFFFFFFFF302821FF302821FF302821FF302821FFFFFFFFFFFFFFFFFFFFFFFFFFFFFFFFFFFFFFFFFFFFFFFFFFFF
310
FFFFFFFFFFFFFF302821FF302821FF302821FF302821FFFFFFFFFFFFFFFFFF302821FFFFFFFFFFFFFFFFFFFFFFFFFFFFFFFFFF302821FF302821FFFFFFFFFFFFFFFFFFFFFFFFFFFFFFFFFF302821FFFFFFFFFFFFFFFFFF302821FF302821FF302821FF302821FFFFFFFFFFFFFFFFFFFFFFFFFFFFFFFFFFFFFFFFFFFFFFFFFF
310
FFFFFFFFFFFFFFFF302821FF302821FF302821FF302821FFFFFFFFFFFFFFFFFF302821FFFFFFFFFFFFFFFFFFFFFFFFFFFFFFFFFF302821FF302821FFFFFFFFFFFFFFFFFFFFFFFFFFFFFFFFFFFFFFFFFFFFFFFFFFFFFFFFFFFFFFFFFFFFFFFFFFFFFFFFFFFFFFFFFFFFFFFFFFFFFFFFFFFFFFFFFFFFFFFFFFFFFFFFFFFFFFFF
310
FFFFFFFFFFFFFFFFFF302821FF302821FF302821FF302821FFFFFFFFFFFFFFFFFF302821FFFFFFFFFFFFFFFFFFFFFFFFFFFFFFFFFF302821FF302821FFFFFFFFFFFFFFFFFFFFFFFFFFFFFFFFFFFFFFFFFFFFFFFFFFFFFFFFFFFFFFFFFFFFFFFFFFFFFFFFFFFFFFFFFFFFFFFFFFFFFFFFFFFFFFFFFFFFFFFFFFFFFFFFFFFFFF
310
FFFFFFFFFFFF302821FF302821FF302821FF302821FF302821FFFFFFFFFFFFFFFFFFFFFFFFFFFFFFFFFFFFFFFFFFFFFFFFFFFFFFFFFF302821FF302821FF302821FFFFFFFFFFFFFFFFFFFFFFFFFF302821FFFFFFFFFFFFFFFFFF302821FF302821FF302821FF302821FF302821FF302821FFFFFFFFFFFFFFFFFFFFFFFFFFFF
310
FFFFFF302821FF302821FF302821FF302821FF302821FF302821FFFFFFFFFFFFFFFFFF302821FFFFFFFFFFFFFFFFFFFFFFFFFF302821FF302821FF302821FF302821FF302821FF302821FF302821FF302821FF302821FFFFFFFFFFFFFFFFFFFFFFFFFFFFFFFFFFFFFFFFFFFFFFFFFFFFFFFFFFFFFFFFFFFFFFFFFFFFFFFFFF
310
FFFFFFFFFFFFFFFFFFFFFFFFFFFFFFFFFFFFFFFFFFFFFFFFFFFFFFFFFFFFFFFF302821FF302821FF302821FF302821FF302821FF302821FF302821FF302821FF302821FF302821FF302821FF302821FF302821FF302821FFFFFFFFFF302821FF302821FF302821FF302821FF302821FF302821FF302821FF302821FF302821
310
FF302821FF302821FF302821FF302821FF302821FF302821FF302821FFFFFFFFFF302821FF302821FF302821FF302821FF302821FF302821FF302821FF302821FF302821FF302821FF302821FF302821FF302821FF302821FFFFFFFFFF302821FF302821FF302821FF302821FF302821FF302821FF302821FF302821FF3028
310
21FF302821FF302821FF302821FF302821FF302821FF302821FF302821FFFFFFFFFF302821FF302821FF302821FF302821FF302821FF302821FF302821FF302821FF302821FF302821FF302821FF302821FF302821FF302821FFFFFFFFFFFFFFFFFFFFFFFFFFFFFFFFFFFFFFFFFFFFFFFFFFFFFFFFFFFFFFFFFFFFFFFFFFFF
310
FFFFFFFFFFFFFFFFFFFFFFFFFFFFFFFFFFFFFFFFFFFFFFFFFFFFFFFFFFFFFFFFFFFFFF302821FF302821FF302821FF302821FF302821FF302821FF302821FF302821FF302821FF302821FF302821FF302821FF302821FF302821FF302821FF302821FF302821FF302821FF302821FF302821FF302821FF302821FFFFFFFFFF
310
FFFFFFFF302821FF302821FF302821FF302821FF302821FF302821FF302821FF302821FF302821FF302821FF302821FF302821FF302821FF302821FF302821FF302821FF302821FF302821FF302821FF302821FF302821FF302821FF302821FF302821FF302821FF302821FF302821FF302821FF302821FF302821FFFFFFFF
310
FFFFFFFFFF302821FF302821FF302821FF302821FF302821FF302821FF302821FF302821FF302821FF302821FF302821FF302821FF302821FF302821FF302821FF302821FF302821FF302821FF302821FF302821FF302821FF302821FF302821FF302821FF302821FF302821FF302821FF302821FF302821FF302821FF3028
310
21FF302821FF302821FF302821FF302821FF302821FF302821FF302821FF302821FF302821FF302821FF302821FF302821FF302821FF302821FF302821FF302821FF302821FF302821FF302821FF302821FF302821FF302821FF302821FF302821FF302821FF302821FF302821FF302821FF302821FF302821FF302821FF30
310
2821FF302821FF302821FF302821FF302821FF302821FF302821FF302821FF302821FF302821FF302821FF302821FF302821FF302821FF302821FF302821FF302821FF302821FF302821FF302821FF302821FF302821FF302821FF302821FF302821FF302821FF302821FF302821FF302821FF302821FF302821FF302821FF
310
302821FF302821FF302821FF302821FF302821FF302821FF302821FF302821FF302821FF302821FF302821FF302821FF302821FF302821FF302821FF302821FF302821FF302821FF302821FF302821FF302821FF302821FF302821FF302821FF302821FF302821FF302821FF302821FF302821FF302821FF302821FF302821
310
FF302821FF302821FF302821FF302821FF302821FF302821FF302821FF302821FF302821FF302821FF302821FF302821FF302821FF302821FF302821FF302821FF302821FF302821FF302821FF302821FF302821FF302821FF302821FF302821FF302821FF302821FF302821FF302821FF302821FF302821FF302821FF3028
310
21FF302821FF302821FF302821FF302821FF302821FF302821FF302821FF302821FF302821FF302821FF302821FF302821FF302821FF302821FF302821FF302821FF302821FF302821FF302821FF302821FF302821FF302821FF302821FF302821FF302821FF302821FF302821FF302821FF302821FF302821FF302821FF30
310
2821FF302821FF302821FF302821FF302821FF302821FF302821FF302821FF302821FF302821FF302821FF302821FF302821FF302821FF302821FF302821FF302821FF302821FF302821FF302821FF302821FF302821FF302821FF302821FF302821FF302821FF302821FF302821FF302821FF302821FF302821FF302821FF
310
302821FF302821FF302821FF302821FF302821FF302821FF302821FF302821FF302821FF302821FF302821FF302821FF302821FF302821FF302821FF302821FF302821FF302821FF
102
{BLKREFS
331
443
102
}
 70
     1
280
     1
281
     0
  0
BLOCK_RECORD
  5
444
330
1
100
AcDbSymbolTableRecord
100
AcDbBlockTableRecord
  2
Pressure_Balance_Rough_Valve-GROHE-35112000- Top
340
0
310
28000000200000002000000001002000000000000010000001000000010000000000000000000000302821FF302821FF302821FF302821FF302821FF302821FF302821FF302821FF302821FF302821FF302821FF302821FF302821FF302821FF302821FF302821FF302821FF302821FF302821FF302821FF302821FF302821
310
FF302821FF302821FF302821FF302821FF302821FF302821FF302821FF302821FF302821FF302821FF302821FF302821FF302821FF302821FF302821FF302821FF302821FF302821FF302821FF302821FF302821FF302821FF302821FF302821FF302821FF302821FF302821FF302821FF302821FF302821FF302821FF3028
310
21FF302821FF302821FF302821FF302821FF302821FF302821FF302821FF302821FF302821FF302821FF302821FF302821FF302821FF302821FF302821FF302821FF302821FF302821FF302821FF302821FF302821FF302821FF302821FF302821FF302821FF302821FF302821FF302821FF302821FF302821FF302821FF30
310
2821FF302821FF302821FF302821FF302821FF302821FF302821FF302821FF302821FF302821FF302821FF302821FF302821FF302821FF302821FF302821FF302821FF302821FF302821FF302821FF302821FF302821FF302821FF302821FF302821FF302821FF302821FF302821FF302821FF302821FF302821FF302821FF
310
302821FF302821FF302821FF302821FF302821FF302821FF302821FF302821FF302821FF302821FF302821FF302821FF302821FF302821FF302821FF302821FF302821FF302821FF302821FF302821FF302821FF302821FF302821FF302821FF302821FF302821FF302821FF302821FF302821FF302821FF302821FF302821
310
FF302821FF302821FF302821FF302821FF302821FF302821FF302821FF302821FF302821FF302821FF302821FF302821FF302821FF302821FF302821FF302821FF302821FF302821FF302821FF302821FF302821FF302821FF302821FF302821FF302821FF302821FF302821FF302821FF302821FF302821FF302821FF3028
310
21FF302821FF302821FF302821FF302821FF302821FF302821FF302821FF302821FF302821FF302821FF302821FF302821FF302821FF302821FF302821FF302821FF302821FF302821FF302821FF302821FF302821FF302821FF302821FF302821FF302821FF302821FF302821FF302821FF302821FF302821FF302821FF30
310
2821FF302821FF302821FF302821FF302821FF302821FF302821FF302821FF302821FF302821FF302821FF302821FF302821FF302821FF302821FF302821FF302821FF302821FF302821FF302821FF302821FF302821FF302821FF302821FF302821FF302821FF302821FF302821FF302821FF302821FF302821FF302821FF
310
302821FF302821FF302821FF302821FF302821FF302821FF302821FF302821FF302821FF302821FF302821FF302821FF302821FF302821FF302821FF302821FF302821FF302821FF302821FF302821FF302821FF302821FF302821FF302821FF302821FF302821FF302821FF302821FF302821FF302821FF302821FF302821
310
FF302821FF302821FF302821FF302821FF302821FF302821FF302821FF302821FF302821FF302821FF302821FF302821FF302821FF302821FF302821FF302821FF302821FF302821FF302821FF302821FF302821FF302821FFFFFFFFFFFFFFFFFFFFFFFFFFFFFFFFFFFFFFFFFFFFFFFFFFFFFFFFFFFFFFFFFFFFFFFFFFFFFF
310
FFFFFFFFFFFFFFFFFFFF302821FF302821FF302821FF302821FF302821FF302821FF302821FF302821FF302821FF302821FF302821FF302821FF302821FF302821FF302821FF302821FF302821FF302821FF302821FF302821FFFFFFFFFF302821FF302821FF302821FF302821FF302821FF302821FF302821FF302821FF30
310
2821FF302821FFFFFFFFFF302821FF302821FF302821FF302821FF302821FF302821FF302821FF302821FF302821FF302821FF302821FF302821FF302821FF302821FF302821FF302821FF302821FF302821FF302821FF302821FFFFFFFFFF302821FF302821FF302821FF302821FF302821FF302821FF302821FF302821FF
310
302821FF302821FFFFFFFFFF302821FF302821FF302821FF302821FF302821FF302821FF302821FF302821FF302821FF302821FF302821FF302821FF302821FF302821FF302821FFFFFFFFFFFFFFFFFFFFFFFFFFFFFFFFFFFFFFFFFFFFFFFFFF302821FF302821FF302821FFFFFFFFFFFFFFFFFFFFFFFFFFFFFFFFFF302821
310
FF302821FF302821FFFFFFFFFFFFFFFFFFFFFFFFFFFFFFFFFFFFFFFFFFFFFFFFFF302821FF302821FF302821FF302821FF302821FF302821FFFFFFFFFFFFFFFFFFFFFFFFFFFFFFFFFFFFFFFFFF302821FF302821FF302821FF302821FFFFFFFFFF302821FF302821FFFFFFFFFFFFFFFFFFFFFFFFFFFFFFFFFFFFFFFFFFFFFF
310
FFFF302821FF302821FFFFFFFFFF302821FF302821FF302821FF302821FFFFFFFFFFFFFFFFFFFFFFFFFFFFFFFFFFFFFFFFFF302821FF302821FFFFFFFFFFFFFFFFFFFFFFFFFF302821FFFFFFFFFF302821FF302821FF302821FF302821FFFFFFFFFF302821FF302821FFFFFFFFFFFFFFFFFFFFFFFFFF302821FFFFFFFFFFFF
310
FFFFFF302821FF302821FFFFFFFFFF302821FF302821FF302821FF302821FFFFFFFFFF302821FFFFFFFFFFFFFFFFFFFFFFFFFF302821FF302821FFFFFFFFFFFFFFFFFFFFFFFFFF302821FFFFFFFFFF302821FF302821FF302821FF302821FFFFFFFFFF302821FF302821FFFFFFFFFFFFFFFFFF302821FF302821FFFFFFFFFF
310
FFFFFFFF302821FF302821FFFFFFFFFF302821FF302821FF302821FF302821FFFFFFFFFF302821FFFFFFFFFFFFFFFFFFFFFFFFFF302821FF302821FFFFFFFFFFFFFFFFFFFFFFFFFFFFFFFFFFFFFFFFFF302821FF302821FF302821FF302821FFFFFFFFFF302821FF302821FFFFFFFFFFFFFFFFFFFFFFFFFFFFFFFFFFFFFFFF
310
FFFFFFFFFF302821FF302821FFFFFFFFFF302821FF302821FF302821FF302821FFFFFFFFFFFFFFFFFFFFFFFFFFFFFFFFFFFFFFFFFF302821FF302821FF302821FF302821FF302821FF302821FFFFFFFFFF302821FF302821FF302821FF302821FFFFFFFFFF302821FF302821FF302821FFFFFFFFFFFFFFFFFFFFFFFFFFFFFF
310
FFFFFFFFFFFF302821FF302821FFFFFFFFFF302821FF302821FF302821FF302821FFFFFFFFFF302821FF302821FF302821FF302821FF302821FF302821FF302821FF302821FF302821FF302821FFFFFFFFFFFFFFFFFFFFFFFFFFFFFFFFFFFFFFFFFFFFFFFFFFFFFFFFFFFFFFFFFFFFFFFFFFFFFFFFFFFFFFFFFFFFFFFFFFFF
310
FFFFFFFFFFFFFFFFFFFFFFFFFFFFFFFFFFFFFFFFFFFFFFFFFFFFFFFFFFFFFFFFFFFFFFFFFFFFFF302821FF302821FF302821FF302821FF302821FF302821FF302821FF302821FF302821FF302821FF302821FF302821FF302821FF302821FFFFFFFFFF302821FF302821FF302821FF302821FF302821FF302821FF302821FF
310
302821FF302821FF302821FF302821FF302821FFFFFFFFFF302821FF302821FF302821FF302821FF302821FF302821FF302821FF302821FF302821FF302821FF302821FF302821FF302821FF302821FF302821FF302821FF302821FF302821FFFFFFFFFFFFFFFFFFFFFFFFFFFFFFFFFFFFFFFFFFFFFFFFFFFFFFFFFFFFFFFF
310
FFFFFFFFFFFFFFFFFFFFFFFFFFFFFFFFFFFFFFFFFFFFFFFFFF302821FF302821FF302821FF302821FF302821FF302821FF302821FF302821FF302821FF302821FF302821FF302821FF302821FF302821FF302821FF302821FF302821FF302821FF302821FF302821FF302821FFFFFFFFFFFFFFFFFF302821FF302821FF3028
310
21FF302821FFFFFFFFFFFFFFFFFF302821FF302821FF302821FF302821FF302821FF302821FF302821FF302821FF302821FF302821FF302821FF302821FF302821FF302821FF302821FF302821FF302821FF302821FF302821FF302821FF302821FF302821FF302821FF302821FF302821FF302821FFFFFFFFFFFFFFFFFFFF
310
FFFFFFFFFFFFFF302821FF302821FF302821FF302821FF302821FF302821FF302821FF302821FF302821FF302821FF302821FF302821FF302821FF302821FF302821FF302821FF302821FF302821FF302821FF302821FF302821FF302821FF302821FF302821FF302821FF302821FF302821FF302821FF302821FF302821FF
310
302821FF302821FF302821FF302821FF302821FF302821FF302821FF302821FF302821FF302821FF302821FF302821FF302821FF302821FF302821FF302821FF302821FF302821FF302821FF302821FF302821FF302821FF302821FF302821FF302821FF302821FF302821FF302821FF302821FF302821FF302821FF302821
310
FF302821FF302821FF302821FF302821FF302821FF302821FF302821FF302821FF302821FF302821FF302821FF302821FF302821FF302821FF302821FF302821FF302821FF302821FF302821FF302821FF302821FF302821FF302821FF302821FF302821FF302821FF302821FF302821FF302821FF302821FF302821FF3028
310
21FF302821FF302821FF302821FF302821FF302821FF302821FF302821FF302821FF302821FF302821FF302821FF302821FF302821FF302821FF302821FF302821FF302821FF302821FF302821FF302821FF302821FF302821FF302821FF302821FF302821FF302821FF302821FF302821FF302821FF302821FF302821FF30
310
2821FF302821FF302821FF302821FF302821FF302821FF302821FF302821FF302821FF302821FF302821FF302821FF302821FF302821FF302821FF302821FF302821FF302821FF302821FF302821FF302821FF302821FF302821FF302821FF302821FF302821FF302821FF302821FF302821FF302821FF302821FF302821FF
310
302821FF302821FF302821FF302821FF302821FF302821FF302821FF302821FF302821FF302821FF302821FF302821FF302821FF302821FF302821FF302821FF302821FF302821FF302821FF302821FF302821FF302821FF302821FF302821FF302821FF302821FF302821FF302821FF302821FF302821FF302821FF302821
310
FF302821FF302821FF302821FF302821FF302821FF302821FF302821FF302821FF302821FF302821FF302821FF302821FF302821FF302821FF302821FF302821FF302821FF302821FF302821FF302821FF302821FF302821FF302821FF302821FF302821FF302821FF302821FF302821FF302821FF302821FF302821FF3028
310
21FF302821FF302821FF302821FF302821FF302821FF302821FF302821FF302821FF302821FF302821FF302821FF302821FF302821FF302821FF302821FF302821FF302821FF302821FF302821FF302821FF302821FF302821FF302821FF302821FF302821FF302821FF302821FF302821FF302821FF302821FF302821FF30
310
2821FF302821FF302821FF302821FF302821FF302821FF302821FF302821FF302821FF302821FF302821FF302821FF302821FF302821FF302821FF302821FF302821FF302821FF302821FF302821FF302821FF302821FF302821FF302821FF302821FF302821FF302821FF302821FF302821FF302821FF302821FF302821FF
310
302821FF302821FF302821FF302821FF302821FF302821FF302821FF302821FF302821FF302821FF302821FF302821FF302821FF302821FF302821FF302821FF302821FF302821FF
102
{BLKREFS
331
492
102
}
 70
     1
280
     1
281
     0
  0
ENDTAB
  0
ENDSEC
  0
SECTION
  2
BLOCKS
  0
BLOCK
  5
71
330
70
100
AcDbEntity
  8
0
100
AcDbBlockBegin
  2
*Model_Space
 70
     0
 10
0.0
 20
0.0
 30
0.0
  3
*Model_Space
  1

  0
ENDBLK
  5
72
330
70
100
AcDbEntity
  8
0
100
AcDbBlockEnd
  0
BLOCK
  5
6D
330
6C
100
AcDbEntity
 67
     1
  8
0
100
AcDbBlockBegin
  2
*Paper_Space
 70
     0
 10
0.0
 20
0.0
 30
0.0
  3
*Paper_Space
  1

  0
ENDBLK
  5
6E
330
6C
100
AcDbEntity
 67
     1
  8
0
100
AcDbBlockEnd
  0
BLOCK
  5
75
330
74
100
AcDbEntity
 67
     1
  8
0
100
AcDbBlockBegin
  2
*Paper_Space0
 70
     0
 10
0.0
 20
0.0
 30
0.0
  3
*Paper_Space0
  1

  0
ENDBLK
  5
76
330
74
100
AcDbEntity
 67
     1
  8
0
100
AcDbBlockEnd
  0
BLOCK
  5
36A
330
369
100
AcDbEntity
  8
0
100
AcDbBlockBegin
  2
Pressure_Balance_Rough_Valve-GROHE-35112000- Front
 70
     0
 10
0.0
 20
0.0
 30
0.0
  3
Pressure_Balance_Rough_Valve-GROHE-35112000- Front
  1

  0
LINE
  5
36C
330
369
100
AcDbEntity
  8
Pressure_Balance_Rough_Valve-GROHE-35112000
100
AcDbLine
 10
-0.8857560263557443
 20
0.7010170165456228
 30
0.0
 11
-0.9322716346211365
 21
1.176920550563954
 31
0.0
  0
ARC
  5
36D
330
369
100
AcDbEntity
  8
Pressure_Balance_Rough_Valve-GROHE-35112000
100
AcDbCircle
 10
-1.067852328923111
 20
1.163668666487259
 30
0.0
 40
0.1362267855415659
100
AcDbArc
 50
5.582453287638117
 51
174.4175467123611
  0
LINE
  5
36E
330
369
100
AcDbEntity
  8
Pressure_Balance_Rough_Valve-GROHE-35112000
100
AcDbLine
 10
-1.203433023225086
 20
1.176920550563954
 30
0.0
 11
-1.269596371265631
 21
0.5000000000396872
 31
0.0
  0
LINE
  5
36F
330
369
100
AcDbEntity
  8
Pressure_Balance_Rough_Valve-GROHE-35112000
100
AcDbLine
 10
0.8857560263565169
 20
-0.7010170165433147
 30
0.0
 11
0.9322716346221232
 21
-1.176920550563964
 31
0.0
  0
ARC
  5
370
330
369
100
AcDbEntity
  8
Pressure_Balance_Rough_Valve-GROHE-35112000
100
AcDbCircle
 10
1.067852328924097
 20
-1.163668666487268
 30
0.0
 40
0.1362267855415661
100
AcDbArc
 50
185.582453287638
 51
354.4175467123609
  0
LINE
  5
371
330
369
100
AcDbEntity
  8
Pressure_Balance_Rough_Valve-GROHE-35112000
100
AcDbLine
 10
1.203433023226073
 20
-1.176920550563964
 30
0.0
 11
1.269596371266734
 21
-0.5000000000383294
 31
0.0
  0
LINE
  5
372
330
369
100
AcDbEntity
  8
Pressure_Balance_Rough_Valve-GROHE-35112000
100
AcDbLine
 10
0.9634430861382405
 20
-0.03125
 30
0.0
 11
-0.9634430861382405
 21
-0.03125
 31
0.0
  0
LINE
  5
373
330
369
100
AcDbEntity
  8
Pressure_Balance_Rough_Valve-GROHE-35112000
100
AcDbLine
 10
-0.9634430861382405
 20
0.03125
 30
0.0
 11
0.9634430861382405
 21
0.03125
 31
0.0
  0
LINE
  5
374
330
369
100
AcDbEntity
  8
Pressure_Balance_Rough_Valve-GROHE-35112000
100
AcDbLine
 10
0.2962913294859736
 20
0.0312499999999957
 30
0.0
 11
0.2962913294859736
 21
-0.0312500000000043
 31
0.0
  0
LINE
  5
375
330
369
100
AcDbEntity
  8
Pressure_Balance_Rough_Valve-GROHE-35112000
100
AcDbLine
 10
-0.2962913294865853
 20
0.0312499999999957
 30
0.0
 11
-0.2962913294865853
 21
-0.0312500000000043
 31
0.0
  0
LINE
  5
376
330
369
100
AcDbEntity
  8
Pressure_Balance_Rough_Valve-GROHE-35112000
100
AcDbLine
 10
-1.550781879578472
 20
-0.5006598177433923
 30
0.0
 11
-1.484683023225084
 21
-1.176920550563819
 31
0.0
1001
REVIT
1002
{
1070
     1
1000
122706
1002
}
1002
{
1070
     2
1000
-2000051
1002
}
1002
{
1070
     3
1000
-2000287
1002
}
  0
ARC
  5
377
330
369
100
AcDbEntity
  8
Pressure_Balance_Rough_Valve-GROHE-35112000
100
AcDbCircle
 10
-1.349102328923108
 20
-1.163668666487122
 30
0.0
 40
0.1362267855415661
100
AcDbArc
 50
185.5824532876381
 51
354.4175467123595
1001
REVIT
1002
{
1070
     1
1000
122706
1002
}
1002
{
1070
     2
1000
-2000051
1002
}
1002
{
1070
     3
1000
-2000287
1002
}
  0
LINE
  5
378
330
369
100
AcDbEntity
  8
Pressure_Balance_Rough_Valve-GROHE-35112000
100
AcDbLine
 10
-1.213521634621133
 20
-1.176920550563819
 30
0.0
 11
-1.147422778267748
 21
-0.5006598177433923
 31
0.0
1001
REVIT
1002
{
1070
     1
1000
122706
1002
}
1002
{
1070
     2
1000
-2000051
1002
}
1002
{
1070
     3
1000
-2000287
1002
}
  0
LINE
  5
379
330
369
100
AcDbEntity
  8
Pressure_Balance_Rough_Valve-GROHE-35112000
100
AcDbLine
 10
1.613281868578321
 20
0.5006599302966431
 30
0.0
 11
1.547183023226068
 21
1.1769205505641
 31
0.0
1001
REVIT
1002
{
1070
     1
1000
122706
1002
}
1002
{
1070
     2
1000
-2000051
1002
}
1002
{
1070
     3
1000
-2000287
1002
}
  0
ARC
  5
37A
330
369
100
AcDbEntity
  8
Pressure_Balance_Rough_Valve-GROHE-35112000
100
AcDbCircle
 10
1.411602328924093
 20
1.163668666487406
 30
0.0
 40
0.1362267855415659
100
AcDbArc
 50
5.582453287637932
 51
174.417546712362
1001
REVIT
1002
{
1070
     1
1000
122706
1002
}
1002
{
1070
     2
1000
-2000051
1002
}
1002
{
1070
     3
1000
-2000287
1002
}
  0
LINE
  5
37B
330
369
100
AcDbEntity
  8
Pressure_Balance_Rough_Valve-GROHE-35112000
100
AcDbLine
 10
1.276021634622119
 20
1.176920550564099
 30
0.0
 11
1.209922789269873
 21
0.5006599302966431
 31
0.0
1001
REVIT
1002
{
1070
     1
1000
122706
1002
}
1002
{
1070
     2
1000
-2000051
1002
}
1002
{
1070
     3
1000
-2000287
1002
}
  0
ARC
  5
37C
330
369
100
AcDbEntity
  8
Pressure_Balance_Rough_Valve-GROHE-35112000
100
AcDbCircle
 10
-1.442852328923114
 20
0.0000000000006681
 30
0.0
 40
0.2285958673326126
100
AcDbArc
 50
311.11230873501
 51
228.8876912649828
1001
REVIT
1002
{
1070
     1
1000
130422
1002
}
1002
{
1070
     2
1000
-2000051
1002
}
1002
{
1070
     3
1000
-2000287
1002
}
  0
ARC
  5
37D
330
369
100
AcDbEntity
  8
Pressure_Balance_Rough_Valve-GROHE-35112000
100
AcDbCircle
 10
-1.442852328923114
 20
0.0000000000006682
 30
0.0
 40
0.2285958673326128
100
AcDbArc
 50
228.8876912649828
 51
311.1123012345891
1001
REVIT
1002
{
1070
     1
1000
130422
1002
}
1002
{
1070
     2
1000
-2000051
1002
}
1002
{
1070
     3
1000
-2000287
1002
}
  0
ARC
  5
37E
330
369
100
AcDbEntity
  8
Pressure_Balance_Rough_Valve-GROHE-35112000
100
AcDbCircle
 10
1.442852328924101
 20
0.0000000000006798
 30
0.0
 40
0.2337996174480111
100
AcDbArc
 50
219.998448741992
 51
320.0015695387053
1001
REVIT
1002
{
1070
     1
1000
131792
1002
}
1002
{
1070
     2
1000
-2000051
1002
}
1002
{
1070
     3
1000
-2000287
1002
}
  0
ARC
  5
37F
330
369
100
AcDbEntity
  8
Pressure_Balance_Rough_Valve-GROHE-35112000
100
AcDbCircle
 10
1.442852328924101
 20
0.0000000000006799
 30
0.0
 40
0.2337996174480112
100
AcDbArc
 50
320.0015695387053
 51
219.9984487419921
1001
REVIT
1002
{
1070
     1
1000
131792
1002
}
1002
{
1070
     2
1000
-2000051
1002
}
1002
{
1070
     3
1000
-2000287
1002
}
  0
LINE
  5
380
330
369
100
AcDbEntity
  8
Pressure_Balance_Rough_Valve-GROHE-35112000
100
AcDbLine
 10
1.812500000000022
 20
0.5000000000396872
 30
0.0
 11
1.012910951501705
 21
0.500000000039687
 31
0.0
1001
REVIT
1002
{
1070
     1
1000
158160
1002
}
1002
{
1070
     2
1000
-2000051
1002
}
1002
{
1070
     3
1000
-2000287
1002
}
  0
LINE
  5
381
330
369
100
AcDbEntity
  8
Pressure_Balance_Rough_Valve-GROHE-35112000
100
AcDbLine
 10
-1.012910951501704
 20
0.5000000000396872
 30
0.0
 11
-1.812500000000039
 21
0.5000000000396872
 31
0.0
1001
REVIT
1002
{
1070
     1
1000
158160
1002
}
1002
{
1070
     2
1000
-2000051
1002
}
1002
{
1070
     3
1000
-2000287
1002
}
  0
LINE
  5
382
330
369
100
AcDbEntity
  8
Pressure_Balance_Rough_Valve-GROHE-35112000
100
AcDbLine
 10
-1.812500000000039
 20
-0.5000000000383294
 30
0.0
 11
-1.012910951501717
 21
-0.5000000000383294
 31
0.0
1001
REVIT
1002
{
1070
     1
1000
158160
1002
}
1002
{
1070
     2
1000
-2000051
1002
}
1002
{
1070
     3
1000
-2000287
1002
}
  0
LINE
  5
383
330
369
100
AcDbEntity
  8
Pressure_Balance_Rough_Valve-GROHE-35112000
100
AcDbLine
 10
1.012910951501718
 20
-0.5000000000383292
 30
0.0
 11
1.812500000000022
 21
-0.5000000000383294
 31
0.0
1001
REVIT
1002
{
1070
     1
1000
158160
1002
}
1002
{
1070
     2
1000
-2000051
1002
}
1002
{
1070
     3
1000
-2000287
1002
}
  0
LINE
  5
384
330
369
100
AcDbEntity
  8
Pressure_Balance_Rough_Valve-GROHE-35112000
100
AcDbLine
 10
2.396171860275937
 20
0.2503326026755976
 30
0.0
 11
2.284152804811724
 21
0.2503326026755976
 31
0.0
1001
REVIT
1002
{
1070
     1
1000
158160
1002
}
1002
{
1070
     2
1000
-2000051
1002
}
1002
{
1070
     3
1000
-2000287
1002
}
  0
LINE
  5
385
330
369
100
AcDbEntity
  8
Pressure_Balance_Rough_Valve-GROHE-35112000
100
AcDbLine
 10
2.284152804811724
 20
-0.2503326026742393
 30
0.0
 11
2.396171860275937
 21
-0.2503326026742393
 31
0.0
1001
REVIT
1002
{
1070
     1
1000
158160
1002
}
1002
{
1070
     2
1000
-2000051
1002
}
1002
{
1070
     3
1000
-2000287
1002
}
  0
LINE
  5
386
330
369
100
AcDbEntity
  8
Pressure_Balance_Rough_Valve-GROHE-35112000
100
AcDbLine
 10
2.121566433968186
 20
0.319342141689305
 30
0.0
 11
2.077019561697161
 21
0.319342141689305
 31
0.0
1001
REVIT
1002
{
1070
     1
1000
158160
1002
}
1002
{
1070
     2
1000
-2000051
1002
}
1002
{
1070
     3
1000
-2000287
1002
}
  0
LINE
  5
387
330
369
100
AcDbEntity
  8
Pressure_Balance_Rough_Valve-GROHE-35112000
100
AcDbLine
 10
2.077019561697161
 20
-0.3193421416879466
 30
0.0
 11
2.121566433968186
 21
-0.3193421416879466
 31
0.0
1001
REVIT
1002
{
1070
     1
1000
158160
1002
}
1002
{
1070
     2
1000
-2000051
1002
}
1002
{
1070
     3
1000
-2000287
1002
}
  0
LINE
  5
388
330
369
100
AcDbEntity
  8
Pressure_Balance_Rough_Valve-GROHE-35112000
100
AcDbLine
 10
2.077019561697161
 20
0.2656790623427344
 30
0.0
 11
1.900557686673762
 21
0.2656790623427344
 31
0.0
1001
REVIT
1002
{
1070
     1
1000
158160
1002
}
1002
{
1070
     2
1000
-2000051
1002
}
1002
{
1070
     3
1000
-2000287
1002
}
  0
LINE
  5
389
330
369
100
AcDbEntity
  8
Pressure_Balance_Rough_Valve-GROHE-35112000
100
AcDbLine
 10
1.900557686673762
 20
-0.2656790623413764
 30
0.0
 11
2.077019561697161
 21
-0.2656790623413764
 31
0.0
1001
REVIT
1002
{
1070
     1
1000
158160
1002
}
1002
{
1070
     2
1000
-2000051
1002
}
1002
{
1070
     3
1000
-2000287
1002
}
  0
LINE
  5
38A
330
369
100
AcDbEntity
  8
Pressure_Balance_Rough_Valve-GROHE-35112000
100
AcDbLine
 10
2.437499999999492
 20
0.2955172426312912
 30
0.0
 11
2.396171860275937
 21
0.2955172426312912
 31
0.0
1001
REVIT
1002
{
1070
     1
1000
158160
1002
}
1002
{
1070
     2
1000
-2000051
1002
}
1002
{
1070
     3
1000
-2000287
1002
}
  0
LINE
  5
38B
330
369
100
AcDbEntity
  8
Pressure_Balance_Rough_Valve-GROHE-35112000
100
AcDbLine
 10
2.396171860275937
 20
-0.2955172426299332
 30
0.0
 11
2.437499999999492
 21
-0.2955172426299332
 31
0.0
1001
REVIT
1002
{
1070
     1
1000
158160
1002
}
1002
{
1070
     2
1000
-2000051
1002
}
1002
{
1070
     3
1000
-2000287
1002
}
  0
LINE
  5
38C
330
369
100
AcDbEntity
  8
Pressure_Balance_Rough_Valve-GROHE-35112000
100
AcDbLine
 10
2.284152804811724
 20
0.2861760357560019
 30
0.0
 11
2.121566433968186
 21
0.2861760357560019
 31
0.0
1001
REVIT
1002
{
1070
     1
1000
158160
1002
}
1002
{
1070
     2
1000
-2000051
1002
}
1002
{
1070
     3
1000
-2000287
1002
}
  0
LINE
  5
38D
330
369
100
AcDbEntity
  8
Pressure_Balance_Rough_Valve-GROHE-35112000
100
AcDbLine
 10
2.121566433968186
 20
-0.2861760357546439
 30
0.0
 11
2.284152804811724
 21
-0.2861760357546439
 31
0.0
1001
REVIT
1002
{
1070
     1
1000
158160
1002
}
1002
{
1070
     2
1000
-2000051
1002
}
1002
{
1070
     3
1000
-2000287
1002
}
  0
LINE
  5
38E
330
369
100
AcDbEntity
  8
Pressure_Balance_Rough_Valve-GROHE-35112000
100
AcDbLine
 10
1.900557686673762
 20
0.2972244889018026
 30
0.0
 11
1.812500000000022
 21
0.2972244889018026
 31
0.0
1001
REVIT
1002
{
1070
     1
1000
158160
1002
}
1002
{
1070
     2
1000
-2000051
1002
}
1002
{
1070
     3
1000
-2000287
1002
}
  0
LINE
  5
38F
330
369
100
AcDbEntity
  8
Pressure_Balance_Rough_Valve-GROHE-35112000
100
AcDbLine
 10
1.812500000000022
 20
-0.2972244889004446
 30
0.0
 11
1.900557686673762
 21
-0.2972244889004446
 31
0.0
1001
REVIT
1002
{
1070
     1
1000
158160
1002
}
1002
{
1070
     2
1000
-2000051
1002
}
1002
{
1070
     3
1000
-2000287
1002
}
  0
LINE
  5
390
330
369
100
AcDbEntity
  8
Pressure_Balance_Rough_Valve-GROHE-35112000
100
AcDbLine
 10
-1.812500000000039
 20
0.2972244889018399
 30
0.0
 11
-1.900557686673776
 21
0.2972244889018399
 31
0.0
1001
REVIT
1002
{
1070
     1
1000
158160
1002
}
1002
{
1070
     2
1000
-2000051
1002
}
1002
{
1070
     3
1000
-2000287
1002
}
  0
LINE
  5
391
330
369
100
AcDbEntity
  8
Pressure_Balance_Rough_Valve-GROHE-35112000
100
AcDbLine
 10
-1.900557686673776
 20
-0.2972244889004819
 30
0.0
 11
-1.812500000000039
 21
-0.2972244889004819
 31
0.0
1001
REVIT
1002
{
1070
     1
1000
158160
1002
}
1002
{
1070
     2
1000
-2000051
1002
}
1002
{
1070
     3
1000
-2000287
1002
}
  0
LINE
  5
392
330
369
100
AcDbEntity
  8
Pressure_Balance_Rough_Valve-GROHE-35112000
100
AcDbLine
 10
-1.900557686673776
 20
0.2656790623427344
 30
0.0
 11
-2.077019561697174
 21
0.2656790623427344
 31
0.0
1001
REVIT
1002
{
1070
     1
1000
158160
1002
}
1002
{
1070
     2
1000
-2000051
1002
}
1002
{
1070
     3
1000
-2000287
1002
}
  0
LINE
  5
393
330
369
100
AcDbEntity
  8
Pressure_Balance_Rough_Valve-GROHE-35112000
100
AcDbLine
 10
-2.077019561697174
 20
-0.2656790623413764
 30
0.0
 11
-1.900557686673776
 21
-0.2656790623413764
 31
0.0
1001
REVIT
1002
{
1070
     1
1000
158160
1002
}
1002
{
1070
     2
1000
-2000051
1002
}
1002
{
1070
     3
1000
-2000287
1002
}
  0
LINE
  5
394
330
369
100
AcDbEntity
  8
Pressure_Balance_Rough_Valve-GROHE-35112000
100
AcDbLine
 10
-2.077019561697174
 20
0.3193421416893449
 30
0.0
 11
-2.1215664339682
 21
0.3193421416893449
 31
0.0
1001
REVIT
1002
{
1070
     1
1000
158160
1002
}
1002
{
1070
     2
1000
-2000051
1002
}
1002
{
1070
     3
1000
-2000287
1002
}
  0
LINE
  5
395
330
369
100
AcDbEntity
  8
Pressure_Balance_Rough_Valve-GROHE-35112000
100
AcDbLine
 10
-2.1215664339682
 20
-0.3193421416879869
 30
0.0
 11
-2.077019561697174
 21
-0.3193421416879869
 31
0.0
1001
REVIT
1002
{
1070
     1
1000
158160
1002
}
1002
{
1070
     2
1000
-2000051
1002
}
1002
{
1070
     3
1000
-2000287
1002
}
  0
LINE
  5
396
330
369
100
AcDbEntity
  8
Pressure_Balance_Rough_Valve-GROHE-35112000
100
AcDbLine
 10
-2.1215664339682
 20
0.2861760357560419
 30
0.0
 11
-2.284152804811738
 21
0.2861760357560419
 31
0.0
1001
REVIT
1002
{
1070
     1
1000
158160
1002
}
1002
{
1070
     2
1000
-2000051
1002
}
1002
{
1070
     3
1000
-2000287
1002
}
  0
LINE
  5
397
330
369
100
AcDbEntity
  8
Pressure_Balance_Rough_Valve-GROHE-35112000
100
AcDbLine
 10
-2.284152804811738
 20
-0.2861760357546842
 30
0.0
 11
-2.1215664339682
 21
-0.2861760357546842
 31
0.0
1001
REVIT
1002
{
1070
     1
1000
158160
1002
}
1002
{
1070
     2
1000
-2000051
1002
}
1002
{
1070
     3
1000
-2000287
1002
}
  0
LINE
  5
398
330
369
100
AcDbEntity
  8
Pressure_Balance_Rough_Valve-GROHE-35112000
100
AcDbLine
 10
-2.284152804811738
 20
0.2503326026756476
 30
0.0
 11
-2.396171860275952
 21
0.2503326026756476
 31
0.0
1001
REVIT
1002
{
1070
     1
1000
158160
1002
}
1002
{
1070
     2
1000
-2000051
1002
}
1002
{
1070
     3
1000
-2000287
1002
}
  0
LINE
  5
399
330
369
100
AcDbEntity
  8
Pressure_Balance_Rough_Valve-GROHE-35112000
100
AcDbLine
 10
-2.396171860275952
 20
-0.2503326026742893
 30
0.0
 11
-2.284152804811738
 21
-0.2503326026742893
 31
0.0
1001
REVIT
1002
{
1070
     1
1000
158160
1002
}
1002
{
1070
     2
1000
-2000051
1002
}
1002
{
1070
     3
1000
-2000287
1002
}
  0
LINE
  5
39A
330
369
100
AcDbEntity
  8
Pressure_Balance_Rough_Valve-GROHE-35112000
100
AcDbLine
 10
-2.396171860275952
 20
0.2955172426313411
 30
0.0
 11
-2.437499999999509
 21
0.2955172426313411
 31
0.0
1001
REVIT
1002
{
1070
     1
1000
158160
1002
}
1002
{
1070
     2
1000
-2000051
1002
}
1002
{
1070
     3
1000
-2000287
1002
}
  0
LINE
  5
39B
330
369
100
AcDbEntity
  8
Pressure_Balance_Rough_Valve-GROHE-35112000
100
AcDbLine
 10
-2.437499999999509
 20
-0.2955172426299831
 30
0.0
 11
-2.396171860275952
 21
-0.2955172426299831
 31
0.0
1001
REVIT
1002
{
1070
     1
1000
158160
1002
}
1002
{
1070
     2
1000
-2000051
1002
}
1002
{
1070
     3
1000
-2000287
1002
}
  0
LINE
  5
39C
330
369
100
AcDbEntity
  8
Pressure_Balance_Rough_Valve-GROHE-35112000
100
AcDbLine
 10
1.81250000000002
 20
-0.500000000038328
 30
0.0
 11
1.81250000000002
 21
0.5000000000396874
 31
0.0
1001
REVIT
1002
{
1070
     1
1000
158160
1002
}
1002
{
1070
     2
1000
-2000051
1002
}
1002
{
1070
     3
1000
-2000287
1002
}
  0
LINE
  5
39D
330
369
100
AcDbEntity
  8
Pressure_Balance_Rough_Valve-GROHE-35112000
100
AcDbLine
 10
-1.812500000000037
 20
0.5000000000396874
 30
0.0
 11
-1.812500000000037
 21
-0.500000000038328
 31
0.0
1001
REVIT
1002
{
1070
     1
1000
158160
1002
}
1002
{
1070
     2
1000
-2000051
1002
}
1002
{
1070
     3
1000
-2000287
1002
}
  0
LINE
  5
39E
330
369
100
AcDbEntity
  8
Pressure_Balance_Rough_Valve-GROHE-35112000
100
AcDbLine
 10
-2.437499999999506
 20
-0.2955172426299831
 30
0.0
 11
-2.437499999999506
 21
0.2955172426313411
 31
0.0
1001
REVIT
1002
{
1070
     1
1000
158160
1002
}
1002
{
1070
     2
1000
-2000051
1002
}
1002
{
1070
     3
1000
-2000287
1002
}
  0
LINE
  5
39F
330
369
100
AcDbEntity
  8
Pressure_Balance_Rough_Valve-GROHE-35112000
100
AcDbLine
 10
2.396171860275934
 20
-0.2955172426299332
 30
0.0
 11
2.396171860275934
 21
0.2955172426312912
 31
0.0
1001
REVIT
1002
{
1070
     1
1000
158160
1002
}
1002
{
1070
     2
1000
-2000051
1002
}
1002
{
1070
     3
1000
-2000287
1002
}
  0
LINE
  5
3A0
330
369
100
AcDbEntity
  8
Pressure_Balance_Rough_Valve-GROHE-35112000
100
AcDbLine
 10
2.121566433968185
 20
0.319342141689305
 30
0.0
 11
2.121566433968185
 21
-0.3193421416879467
 31
0.0
1001
REVIT
1002
{
1070
     1
1000
158160
1002
}
1002
{
1070
     2
1000
-2000051
1002
}
1002
{
1070
     3
1000
-2000287
1002
}
  0
LINE
  5
3A1
330
369
100
AcDbEntity
  8
Pressure_Balance_Rough_Valve-GROHE-35112000
100
AcDbLine
 10
2.077019561697158
 20
0.319342141689305
 30
0.0
 11
2.077019561697159
 21
-0.3193421416879467
 31
0.0
1001
REVIT
1002
{
1070
     1
1000
158160
1002
}
1002
{
1070
     2
1000
-2000051
1002
}
1002
{
1070
     3
1000
-2000287
1002
}
  0
LINE
  5
3A2
330
369
100
AcDbEntity
  8
Pressure_Balance_Rough_Valve-GROHE-35112000
100
AcDbLine
 10
2.43749999999949
 20
0.2955172426312912
 30
0.0
 11
2.43749999999949
 21
-0.2955172426299331
 31
0.0
1001
REVIT
1002
{
1070
     1
1000
158160
1002
}
1002
{
1070
     2
1000
-2000051
1002
}
1002
{
1070
     3
1000
-2000287
1002
}
  0
LINE
  5
3A3
330
369
100
AcDbEntity
  8
Pressure_Balance_Rough_Valve-GROHE-35112000
100
AcDbLine
 10
2.284152804811721
 20
0.2861760357560024
 30
0.0
 11
2.284152804811721
 21
-0.2861760357546431
 31
0.0
1001
REVIT
1002
{
1070
     1
1000
158160
1002
}
1002
{
1070
     2
1000
-2000051
1002
}
1002
{
1070
     3
1000
-2000287
1002
}
  0
LINE
  5
3A4
330
369
100
AcDbEntity
  8
Pressure_Balance_Rough_Valve-GROHE-35112000
100
AcDbLine
 10
1.90055768667376
 20
0.2972244889018026
 30
0.0
 11
1.90055768667376
 21
-0.2972244889004445
 31
0.0
1001
REVIT
1002
{
1070
     1
1000
158160
1002
}
1002
{
1070
     2
1000
-2000051
1002
}
1002
{
1070
     3
1000
-2000287
1002
}
  0
LINE
  5
3A5
330
369
100
AcDbEntity
  8
Pressure_Balance_Rough_Valve-GROHE-35112000
100
AcDbLine
 10
-1.900557686673774
 20
0.2972244889018399
 30
0.0
 11
-1.900557686673774
 21
-0.297224488900482
 31
0.0
1001
REVIT
1002
{
1070
     1
1000
158160
1002
}
1002
{
1070
     2
1000
-2000051
1002
}
1002
{
1070
     3
1000
-2000287
1002
}
  0
LINE
  5
3A6
330
369
100
AcDbEntity
  8
Pressure_Balance_Rough_Valve-GROHE-35112000
100
AcDbLine
 10
-2.077019561697172
 20
0.3193421416893449
 30
0.0
 11
-2.077019561697172
 21
-0.3193421416879869
 31
0.0
1001
REVIT
1002
{
1070
     1
1000
158160
1002
}
1002
{
1070
     2
1000
-2000051
1002
}
1002
{
1070
     3
1000
-2000287
1002
}
  0
LINE
  5
3A7
330
369
100
AcDbEntity
  8
Pressure_Balance_Rough_Valve-GROHE-35112000
100
AcDbLine
 10
-2.121566433968198
 20
0.3193421416893449
 30
0.0
 11
-2.121566433968198
 21
-0.3193421416879869
 31
0.0
1001
REVIT
1002
{
1070
     1
1000
158160
1002
}
1002
{
1070
     2
1000
-2000051
1002
}
1002
{
1070
     3
1000
-2000287
1002
}
  0
LINE
  5
3A8
330
369
100
AcDbEntity
  8
Pressure_Balance_Rough_Valve-GROHE-35112000
100
AcDbLine
 10
-2.284152804811736
 20
0.2861760357560424
 30
0.0
 11
-2.284152804811736
 21
-0.2861760357546831
 31
0.0
1001
REVIT
1002
{
1070
     1
1000
158160
1002
}
1002
{
1070
     2
1000
-2000051
1002
}
1002
{
1070
     3
1000
-2000287
1002
}
  0
LINE
  5
3A9
330
369
100
AcDbEntity
  8
Pressure_Balance_Rough_Valve-GROHE-35112000
100
AcDbLine
 10
-2.396171860275949
 20
0.2955172426313411
 30
0.0
 11
-2.396171860275949
 21
-0.2955172426299831
 31
0.0
1001
REVIT
1002
{
1070
     1
1000
158160
1002
}
1002
{
1070
     2
1000
-2000051
1002
}
1002
{
1070
     3
1000
-2000287
1002
}
  0
LINE
  5
3AA
330
369
100
AcDbEntity
  8
Pressure_Balance_Rough_Valve-GROHE-35112000
100
AcDbLine
 10
-0.3750000000161162
 20
1.812500000000652
 30
0.0
 11
-0.3750000000161162
 21
1.740204454769133
 31
0.0
1001
REVIT
1002
{
1070
     1
1000
160299
1002
}
1002
{
1070
     2
1000
-2000051
1002
}
1002
{
1070
     3
1000
-2000287
1002
}
  0
LINE
  5
3AB
330
369
100
AcDbEntity
  8
Pressure_Balance_Rough_Valve-GROHE-35112000
100
AcDbLine
 10
0.3750000000171085
 20
1.740204454769132
 30
0.0
 11
0.3750000000171085
 21
1.812500000000651
 31
0.0
1001
REVIT
1002
{
1070
     1
1000
160299
1002
}
1002
{
1070
     2
1000
-2000051
1002
}
1002
{
1070
     3
1000
-2000287
1002
}
  0
LINE
  5
3AC
330
369
100
AcDbEntity
  8
Pressure_Balance_Rough_Valve-GROHE-35112000
100
AcDbLine
 10
-0.4923468268131536
 20
1.1769205505653
 30
0.0
 11
-0.4923468268131538
 21
1.01294394585866
 31
0.0
1001
REVIT
1002
{
1070
     1
1000
160299
1002
}
1002
{
1070
     2
1000
-2000051
1002
}
1002
{
1070
     3
1000
-2000287
1002
}
  0
LINE
  5
3AD
330
369
100
AcDbEntity
  8
Pressure_Balance_Rough_Valve-GROHE-35112000
100
AcDbLine
 10
-0.4923468268131569
 20
-1.012943945857329
 30
0.0
 11
-0.4923468268131572
 21
-1.176920550563968
 31
0.0
1001
REVIT
1002
{
1070
     1
1000
160299
1002
}
1002
{
1070
     2
1000
-2000051
1002
}
1002
{
1070
     3
1000
-2000287
1002
}
  0
LINE
  5
3AE
330
369
100
AcDbEntity
  8
Pressure_Balance_Rough_Valve-GROHE-35112000
100
AcDbLine
 10
0.4923468268141395
 20
-1.17692055056397
 30
0.0
 11
0.4923468268141402
 21
-1.012943945856761
 31
0.0
1001
REVIT
1002
{
1070
     1
1000
160299
1002
}
1002
{
1070
     2
1000
-2000051
1002
}
1002
{
1070
     3
1000
-2000287
1002
}
  0
LINE
  5
3AF
330
369
100
AcDbEntity
  8
Pressure_Balance_Rough_Valve-GROHE-35112000
100
AcDbLine
 10
0.4923468268141435
 20
1.016652938734998
 30
0.0
 11
0.4923468268141435
 21
1.176920550565299
 31
0.0
1001
REVIT
1002
{
1070
     1
1000
160299
1002
}
1002
{
1070
     2
1000
-2000051
1002
}
1002
{
1070
     3
1000
-2000287
1002
}
  0
LINE
  5
3B0
330
369
100
AcDbEntity
  8
Pressure_Balance_Rough_Valve-GROHE-35112000
100
AcDbLine
 10
-0.3750000000160918
 20
-1.176920550563964
 30
0.0
 11
-0.3750000000160925
 21
-1.493975448465493
 31
0.0
1001
REVIT
1002
{
1070
     1
1000
160299
1002
}
1002
{
1070
     2
1000
-2000051
1002
}
1002
{
1070
     3
1000
-2000287
1002
}
  0
LINE
  5
3B1
330
369
100
AcDbEntity
  8
Pressure_Balance_Rough_Valve-GROHE-35112000
100
AcDbLine
 10
0.3750000000170738
 20
-1.493975448465494
 30
0.0
 11
0.3750000000170745
 21
-1.176920550563965
 31
0.0
1001
REVIT
1002
{
1070
     1
1000
160299
1002
}
1002
{
1070
     2
1000
-2000051
1002
}
1002
{
1070
     3
1000
-2000287
1002
}
  0
LINE
  5
3B2
330
369
100
AcDbEntity
  8
Pressure_Balance_Rough_Valve-GROHE-35112000
100
AcDbLine
 10
-0.4117688685145688
 20
1.740204454769133
 30
0.0
 11
-0.4117688685145688
 21
1.685942261341618
 31
0.0
1001
REVIT
1002
{
1070
     1
1000
160299
1002
}
1002
{
1070
     2
1000
-2000051
1002
}
1002
{
1070
     3
1000
-2000287
1002
}
  0
LINE
  5
3B3
330
369
100
AcDbEntity
  8
Pressure_Balance_Rough_Valve-GROHE-35112000
100
AcDbLine
 10
0.4117688685155605
 20
1.685942261341617
 30
0.0
 11
0.4117688685155605
 21
1.740204454769132
 31
0.0
1001
REVIT
1002
{
1070
     1
1000
160299
1002
}
1002
{
1070
     2
1000
-2000051
1002
}
1002
{
1070
     3
1000
-2000287
1002
}
  0
LINE
  5
3B4
330
369
100
AcDbEntity
  8
Pressure_Balance_Rough_Valve-GROHE-35112000
100
AcDbLine
 10
-0.3750000000161165
 20
1.685942261341618
 30
0.0
 11
-0.3750000000161165
 21
1.644709329581737
 31
0.0
1001
REVIT
1002
{
1070
     1
1000
160299
1002
}
1002
{
1070
     2
1000
-2000051
1002
}
1002
{
1070
     3
1000
-2000287
1002
}
  0
LINE
  5
3B5
330
369
100
AcDbEntity
  8
Pressure_Balance_Rough_Valve-GROHE-35112000
100
AcDbLine
 10
0.3750000000171078
 20
1.644709329581736
 30
0.0
 11
0.3750000000171078
 21
1.685942261341617
 31
0.0
1001
REVIT
1002
{
1070
     1
1000
160299
1002
}
1002
{
1070
     2
1000
-2000051
1002
}
1002
{
1070
     3
1000
-2000287
1002
}
  0
LINE
  5
3B6
330
369
100
AcDbEntity
  8
Pressure_Balance_Rough_Valve-GROHE-35112000
100
AcDbLine
 10
-0.4117688685145692
 20
1.644709329581737
 30
0.0
 11
-0.4117688685145692
 21
1.590447136154222
 31
0.0
1001
REVIT
1002
{
1070
     1
1000
160299
1002
}
1002
{
1070
     2
1000
-2000051
1002
}
1002
{
1070
     3
1000
-2000287
1002
}
  0
LINE
  5
3B7
330
369
100
AcDbEntity
  8
Pressure_Balance_Rough_Valve-GROHE-35112000
100
AcDbLine
 10
0.4117688685155605
 20
1.59044713615422
 30
0.0
 11
0.4117688685155605
 21
1.644709329581736
 31
0.0
1001
REVIT
1002
{
1070
     1
1000
160299
1002
}
1002
{
1070
     2
1000
-2000051
1002
}
1002
{
1070
     3
1000
-2000287
1002
}
  0
LINE
  5
3B8
330
369
100
AcDbEntity
  8
Pressure_Balance_Rough_Valve-GROHE-35112000
100
AcDbLine
 10
-0.3750000000161165
 20
1.590447136154222
 30
0.0
 11
-0.3750000000161165
 21
1.548237641894341
 31
0.0
1001
REVIT
1002
{
1070
     1
1000
160299
1002
}
1002
{
1070
     2
1000
-2000051
1002
}
1002
{
1070
     3
1000
-2000287
1002
}
  0
LINE
  5
3B9
330
369
100
AcDbEntity
  8
Pressure_Balance_Rough_Valve-GROHE-35112000
100
AcDbLine
 10
0.3750000000171078
 20
1.548237641894339
 30
0.0
 11
0.3750000000171078
 21
1.59044713615422
 31
0.0
1001
REVIT
1002
{
1070
     1
1000
160299
1002
}
1002
{
1070
     2
1000
-2000051
1002
}
1002
{
1070
     3
1000
-2000287
1002
}
  0
LINE
  5
3BA
330
369
100
AcDbEntity
  8
Pressure_Balance_Rough_Valve-GROHE-35112000
100
AcDbLine
 10
-0.4117688685145692
 20
1.548237641894341
 30
0.0
 11
-0.4117688685145695
 21
1.493975448466825
 31
0.0
1001
REVIT
1002
{
1070
     1
1000
160299
1002
}
1002
{
1070
     2
1000
-2000051
1002
}
1002
{
1070
     3
1000
-2000287
1002
}
  0
LINE
  5
3BB
330
369
100
AcDbEntity
  8
Pressure_Balance_Rough_Valve-GROHE-35112000
100
AcDbLine
 10
0.4117688685155605
 20
1.493975448466824
 30
0.0
 11
0.4117688685155605
 21
1.548237641894339
 31
0.0
1001
REVIT
1002
{
1070
     1
1000
160299
1002
}
1002
{
1070
     2
1000
-2000051
1002
}
1002
{
1070
     3
1000
-2000287
1002
}
  0
LINE
  5
3BC
330
369
100
AcDbEntity
  8
Pressure_Balance_Rough_Valve-GROHE-35112000
100
AcDbLine
 10
-0.3750000000161168
 20
1.493975448466825
 30
0.0
 11
-0.3750000000161171
 21
1.1769205505653
 31
0.0
1001
REVIT
1002
{
1070
     1
1000
160299
1002
}
1002
{
1070
     2
1000
-2000051
1002
}
1002
{
1070
     3
1000
-2000287
1002
}
  0
LINE
  5
3BD
330
369
100
AcDbEntity
  8
Pressure_Balance_Rough_Valve-GROHE-35112000
100
AcDbLine
 10
0.3750000000171072
 20
1.176920550565299
 30
0.0
 11
0.3750000000171078
 21
1.493975448466824
 31
0.0
1001
REVIT
1002
{
1070
     1
1000
160299
1002
}
1002
{
1070
     2
1000
-2000051
1002
}
1002
{
1070
     3
1000
-2000287
1002
}
  0
LINE
  5
3BE
330
369
100
AcDbEntity
  8
Pressure_Balance_Rough_Valve-GROHE-35112000
100
AcDbLine
 10
-0.4117688685145742
 20
-1.493975448465493
 30
0.0
 11
-0.4117688685145742
 21
-1.548237641893009
 31
0.0
1001
REVIT
1002
{
1070
     1
1000
160299
1002
}
1002
{
1070
     2
1000
-2000051
1002
}
1002
{
1070
     3
1000
-2000287
1002
}
  0
LINE
  5
3BF
330
369
100
AcDbEntity
  8
Pressure_Balance_Rough_Valve-GROHE-35112000
100
AcDbLine
 10
0.4117688685155558
 20
-1.54823764189301
 30
0.0
 11
0.4117688685155558
 21
-1.493975448465494
 31
0.0
1001
REVIT
1002
{
1070
     1
1000
160299
1002
}
1002
{
1070
     2
1000
-2000051
1002
}
1002
{
1070
     3
1000
-2000287
1002
}
  0
LINE
  5
3C0
330
369
100
AcDbEntity
  8
Pressure_Balance_Rough_Valve-GROHE-35112000
100
AcDbLine
 10
-0.3750000000160925
 20
-1.548237641893008
 30
0.0
 11
-0.3750000000160925
 21
-1.59044713615289
 31
0.0
1001
REVIT
1002
{
1070
     1
1000
160299
1002
}
1002
{
1070
     2
1000
-2000051
1002
}
1002
{
1070
     3
1000
-2000287
1002
}
  0
LINE
  5
3C1
330
369
100
AcDbEntity
  8
Pressure_Balance_Rough_Valve-GROHE-35112000
100
AcDbLine
 10
0.3750000000170738
 20
-1.590447136152891
 30
0.0
 11
0.3750000000170738
 21
-1.54823764189301
 31
0.0
1001
REVIT
1002
{
1070
     1
1000
160299
1002
}
1002
{
1070
     2
1000
-2000051
1002
}
1002
{
1070
     3
1000
-2000287
1002
}
  0
LINE
  5
3C2
330
369
100
AcDbEntity
  8
Pressure_Balance_Rough_Valve-GROHE-35112000
100
AcDbLine
 10
-0.4117688685145742
 20
-1.59044713615289
 30
0.0
 11
-0.4117688685145742
 21
-1.644709329580405
 31
0.0
1001
REVIT
1002
{
1070
     1
1000
160299
1002
}
1002
{
1070
     2
1000
-2000051
1002
}
1002
{
1070
     3
1000
-2000287
1002
}
  0
LINE
  5
3C3
330
369
100
AcDbEntity
  8
Pressure_Balance_Rough_Valve-GROHE-35112000
100
AcDbLine
 10
0.4117688685155552
 20
-1.644709329580406
 30
0.0
 11
0.4117688685155552
 21
-1.590447136152891
 31
0.0
1001
REVIT
1002
{
1070
     1
1000
160299
1002
}
1002
{
1070
     2
1000
-2000051
1002
}
1002
{
1070
     3
1000
-2000287
1002
}
  0
LINE
  5
3C4
330
369
100
AcDbEntity
  8
Pressure_Balance_Rough_Valve-GROHE-35112000
100
AcDbLine
 10
-0.3750000000160925
 20
-1.644709329580406
 30
0.0
 11
-0.3750000000160925
 21
-1.685942261340287
 31
0.0
1001
REVIT
1002
{
1070
     1
1000
160299
1002
}
1002
{
1070
     2
1000
-2000051
1002
}
1002
{
1070
     3
1000
-2000287
1002
}
  0
LINE
  5
3C5
330
369
100
AcDbEntity
  8
Pressure_Balance_Rough_Valve-GROHE-35112000
100
AcDbLine
 10
0.3750000000170738
 20
-1.685942261340288
 30
0.0
 11
0.3750000000170738
 21
-1.644709329580407
 31
0.0
1001
REVIT
1002
{
1070
     1
1000
160299
1002
}
1002
{
1070
     2
1000
-2000051
1002
}
1002
{
1070
     3
1000
-2000287
1002
}
  0
LINE
  5
3C6
330
369
100
AcDbEntity
  8
Pressure_Balance_Rough_Valve-GROHE-35112000
100
AcDbLine
 10
-0.4117688685145742
 20
-1.685942261340287
 30
0.0
 11
-0.4117688685145742
 21
-1.740204454767802
 31
0.0
1001
REVIT
1002
{
1070
     1
1000
160299
1002
}
1002
{
1070
     2
1000
-2000051
1002
}
1002
{
1070
     3
1000
-2000287
1002
}
  0
LINE
  5
3C7
330
369
100
AcDbEntity
  8
Pressure_Balance_Rough_Valve-GROHE-35112000
100
AcDbLine
 10
0.4117688685155552
 20
-1.740204454767803
 30
0.0
 11
0.4117688685155552
 21
-1.685942261340288
 31
0.0
1001
REVIT
1002
{
1070
     1
1000
160299
1002
}
1002
{
1070
     2
1000
-2000051
1002
}
1002
{
1070
     3
1000
-2000287
1002
}
  0
LINE
  5
3C8
330
369
100
AcDbEntity
  8
Pressure_Balance_Rough_Valve-GROHE-35112000
100
AcDbLine
 10
-0.3750000000160925
 20
-1.740204454767802
 30
0.0
 11
-0.3750000000160929
 21
-1.812499999999335
 31
0.0
1001
REVIT
1002
{
1070
     1
1000
160299
1002
}
1002
{
1070
     2
1000
-2000051
1002
}
1002
{
1070
     3
1000
-2000287
1002
}
  0
LINE
  5
3C9
330
369
100
AcDbEntity
  8
Pressure_Balance_Rough_Valve-GROHE-35112000
100
AcDbLine
 10
0.3750000000170732
 20
-1.812499999999337
 30
0.0
 11
0.3750000000170738
 21
-1.740204454767803
 31
0.0
1001
REVIT
1002
{
1070
     1
1000
160299
1002
}
1002
{
1070
     2
1000
-2000051
1002
}
1002
{
1070
     3
1000
-2000287
1002
}
  0
LINE
  5
3CA
330
369
100
AcDbEntity
  8
Pressure_Balance_Rough_Valve-GROHE-35112000
100
AcDbLine
 10
-0.3750000000161162
 20
1.812500000000651
 30
0.0
 11
0.3750000000171085
 21
1.81250000000065
 31
0.0
1001
REVIT
1002
{
1070
     1
1000
160299
1002
}
1002
{
1070
     2
1000
-2000051
1002
}
1002
{
1070
     3
1000
-2000287
1002
}
  0
LINE
  5
3CB
330
369
100
AcDbEntity
  8
Pressure_Balance_Rough_Valve-GROHE-35112000
100
AcDbLine
 10
0.3750000000170732
 20
-1.812499999999334
 30
0.0
 11
-0.3750000000160929
 21
-1.812499999999333
 31
0.0
1001
REVIT
1002
{
1070
     1
1000
160299
1002
}
1002
{
1070
     2
1000
-2000051
1002
}
1002
{
1070
     3
1000
-2000287
1002
}
  0
LINE
  5
3CC
330
369
100
AcDbEntity
  8
Pressure_Balance_Rough_Valve-GROHE-35112000
100
AcDbLine
 10
-0.4923468268131529
 20
1.176920550565299
 30
0.0
 11
0.492346826814143
 21
1.176920550565298
 31
0.0
1001
REVIT
1002
{
1070
     1
1000
160299
1002
}
1002
{
1070
     2
1000
-2000051
1002
}
1002
{
1070
     3
1000
-2000287
1002
}
  0
LINE
  5
3CD
330
369
100
AcDbEntity
  8
Pressure_Balance_Rough_Valve-GROHE-35112000
100
AcDbLine
 10
-0.4923468268131567
 20
-1.176920550563966
 30
0.0
 11
0.4923468268141392
 21
-1.176920550563967
 31
0.0
1001
REVIT
1002
{
1070
     1
1000
160299
1002
}
1002
{
1070
     2
1000
-2000051
1002
}
1002
{
1070
     3
1000
-2000287
1002
}
  0
LINE
  5
3CE
330
369
100
AcDbEntity
  8
Pressure_Balance_Rough_Valve-GROHE-35112000
100
AcDbLine
 10
-0.4117688685145688
 20
1.740204454769133
 30
0.0
 11
0.4117688685155605
 21
1.740204454769131
 31
0.0
1001
REVIT
1002
{
1070
     1
1000
160299
1002
}
1002
{
1070
     2
1000
-2000051
1002
}
1002
{
1070
     3
1000
-2000287
1002
}
  0
LINE
  5
3CF
330
369
100
AcDbEntity
  8
Pressure_Balance_Rough_Valve-GROHE-35112000
100
AcDbLine
 10
-0.4117688685145688
 20
1.685942261341617
 30
0.0
 11
0.4117688685155604
 21
1.685942261341616
 31
0.0
1001
REVIT
1002
{
1070
     1
1000
160299
1002
}
1002
{
1070
     2
1000
-2000051
1002
}
1002
{
1070
     3
1000
-2000287
1002
}
  0
LINE
  5
3D0
330
369
100
AcDbEntity
  8
Pressure_Balance_Rough_Valve-GROHE-35112000
100
AcDbLine
 10
-0.4117688685145692
 20
1.644709329581736
 30
0.0
 11
0.4117688685155605
 21
1.644709329581735
 31
0.0
1001
REVIT
1002
{
1070
     1
1000
160299
1002
}
1002
{
1070
     2
1000
-2000051
1002
}
1002
{
1070
     3
1000
-2000287
1002
}
  0
LINE
  5
3D1
330
369
100
AcDbEntity
  8
Pressure_Balance_Rough_Valve-GROHE-35112000
100
AcDbLine
 10
-0.4117688685145692
 20
1.590447136154221
 30
0.0
 11
0.4117688685155605
 21
1.59044713615422
 31
0.0
1001
REVIT
1002
{
1070
     1
1000
160299
1002
}
1002
{
1070
     2
1000
-2000051
1002
}
1002
{
1070
     3
1000
-2000287
1002
}
  0
LINE
  5
3D2
330
369
100
AcDbEntity
  8
Pressure_Balance_Rough_Valve-GROHE-35112000
100
AcDbLine
 10
-0.4117688685145692
 20
1.54823764189434
 30
0.0
 11
0.4117688685155605
 21
1.548237641894338
 31
0.0
1001
REVIT
1002
{
1070
     1
1000
160299
1002
}
1002
{
1070
     2
1000
-2000051
1002
}
1002
{
1070
     3
1000
-2000287
1002
}
  0
LINE
  5
3D3
330
369
100
AcDbEntity
  8
Pressure_Balance_Rough_Valve-GROHE-35112000
100
AcDbLine
 10
-0.4117688685145695
 20
1.493975448466824
 30
0.0
 11
0.4117688685155605
 21
1.493975448466823
 31
0.0
1001
REVIT
1002
{
1070
     1
1000
160299
1002
}
1002
{
1070
     2
1000
-2000051
1002
}
1002
{
1070
     3
1000
-2000287
1002
}
  0
LINE
  5
3D4
330
369
100
AcDbEntity
  8
Pressure_Balance_Rough_Valve-GROHE-35112000
100
AcDbLine
 10
-0.4117688685145743
 20
-1.493975448465491
 30
0.0
 11
0.4117688685155558
 21
-1.493975448465492
 31
0.0
1001
REVIT
1002
{
1070
     1
1000
160299
1002
}
1002
{
1070
     2
1000
-2000051
1002
}
1002
{
1070
     3
1000
-2000287
1002
}
  0
LINE
  5
3D5
330
369
100
AcDbEntity
  8
Pressure_Balance_Rough_Valve-GROHE-35112000
100
AcDbLine
 10
-0.4117688685145742
 20
-1.548237641893007
 30
0.0
 11
0.4117688685155558
 21
-1.548237641893007
 31
0.0
1001
REVIT
1002
{
1070
     1
1000
160299
1002
}
1002
{
1070
     2
1000
-2000051
1002
}
1002
{
1070
     3
1000
-2000287
1002
}
  0
LINE
  5
3D6
330
369
100
AcDbEntity
  8
Pressure_Balance_Rough_Valve-GROHE-35112000
100
AcDbLine
 10
-0.4117688685145743
 20
-1.590447136152888
 30
0.0
 11
0.4117688685155552
 21
-1.590447136152888
 31
0.0
1001
REVIT
1002
{
1070
     1
1000
160299
1002
}
1002
{
1070
     2
1000
-2000051
1002
}
1002
{
1070
     3
1000
-2000287
1002
}
  0
LINE
  5
3D7
330
369
100
AcDbEntity
  8
Pressure_Balance_Rough_Valve-GROHE-35112000
100
AcDbLine
 10
-0.4117688685145742
 20
-1.644709329580402
 30
0.0
 11
0.4117688685155552
 21
-1.644709329580404
 31
0.0
1001
REVIT
1002
{
1070
     1
1000
160299
1002
}
1002
{
1070
     2
1000
-2000051
1002
}
1002
{
1070
     3
1000
-2000287
1002
}
  0
LINE
  5
3D8
330
369
100
AcDbEntity
  8
Pressure_Balance_Rough_Valve-GROHE-35112000
100
AcDbLine
 10
-0.4117688685145742
 20
-1.685942261340284
 30
0.0
 11
0.4117688685155552
 21
-1.685942261340285
 31
0.0
1001
REVIT
1002
{
1070
     1
1000
160299
1002
}
1002
{
1070
     2
1000
-2000051
1002
}
1002
{
1070
     3
1000
-2000287
1002
}
  0
LINE
  5
3D9
330
369
100
AcDbEntity
  8
Pressure_Balance_Rough_Valve-GROHE-35112000
100
AcDbLine
 10
-0.4117688685145743
 20
-1.740204454767799
 30
0.0
 11
0.4117688685155552
 21
-1.740204454767801
 31
0.0
1001
REVIT
1002
{
1070
     1
1000
160299
1002
}
1002
{
1070
     2
1000
-2000051
1002
}
1002
{
1070
     3
1000
-2000287
1002
}
  0
CIRCLE
  5
3DA
330
369
100
AcDbEntity
  8
Pressure_Balance_Rough_Valve-GROHE-35112000
100
AcDbCircle
 10
-1.442852328923114
 20
0.0000000000006682
 30
0.0
 40
0.0646378204679522
  0
CIRCLE
  5
3DB
330
369
100
AcDbEntity
  8
Pressure_Balance_Rough_Valve-GROHE-35112000
100
AcDbCircle
 10
1.442852328924101
 20
0.0000000000006798
 30
0.0
 40
0.0646378204674457
  0
CIRCLE
  5
3DC
330
369
100
AcDbEntity
  8
Pressure_Balance_Rough_Valve-GROHE-35112000
100
AcDbCircle
 10
-1.349102328923108
 20
-1.163668666487122
 30
0.0
 40
0.0651849087048404
  0
CIRCLE
  5
3DD
330
369
100
AcDbEntity
  8
Pressure_Balance_Rough_Valve-GROHE-35112000
100
AcDbCircle
 10
-1.067852328923111
 20
1.163668666487259
 30
0.0
 40
0.0651849087048402
  0
CIRCLE
  5
3DE
330
369
100
AcDbEntity
  8
Pressure_Balance_Rough_Valve-GROHE-35112000
100
AcDbCircle
 10
1.067852328924097
 20
-1.163668666487268
 30
0.0
 40
0.0651849087048405
  0
CIRCLE
  5
3DF
330
369
100
AcDbEntity
  8
Pressure_Balance_Rough_Valve-GROHE-35112000
100
AcDbCircle
 10
1.411602328924093
 20
1.163668666487406
 30
0.0
 40
0.06518490870484
  0
CIRCLE
  5
3E0
330
369
100
AcDbEntity
  8
Pressure_Balance_Rough_Valve-GROHE-35112000
100
AcDbCircle
 10
-1.442852328923114
 20
0.0000000000006682
 30
0.0
 40
0.1133306631455051
  0
CIRCLE
  5
3E1
330
369
100
AcDbEntity
  8
Pressure_Balance_Rough_Valve-GROHE-35112000
100
AcDbCircle
 10
1.442852328924101
 20
0.0000000000006798
 30
0.0
 40
0.1185344132609033
  0
CIRCLE
  5
3E2
330
369
100
AcDbEntity
  8
Pressure_Balance_Rough_Valve-GROHE-35112000
100
AcDbCircle
 10
-1.442852328923114
 20
0.0000000000006682
 30
0.0
 40
0.1570812215897355
  0
CIRCLE
  5
3E3
330
369
100
AcDbEntity
  8
Pressure_Balance_Rough_Valve-GROHE-35112000
100
AcDbCircle
 10
1.442852328924101
 20
0.0000000000006798
 30
0.0
 40
0.1622849717051338
  0
CIRCLE
  5
3E4
330
369
100
AcDbEntity
  8
Pressure_Balance_Rough_Valve-GROHE-35112000
100
AcDbCircle
 10
0.0
 20
0.0000000000006659
 30
0.0
 40
0.968750000000228
  0
CIRCLE
  5
3E5
330
369
100
AcDbEntity
  8
Pressure_Balance_Rough_Valve-GROHE-35112000
100
AcDbCircle
 10
0.0
 20
0.0000000000006659
 30
0.0
 40
1.129596651779346
  0
ENDBLK
  5
36B
330
369
100
AcDbEntity
  8
0
100
AcDbBlockEnd
  0
BLOCK
  5
3E8
330
3E7
100
AcDbEntity
  8
0
100
AcDbBlockBegin
  2
Pressure_Balance_Rough_Valve-GROHE-35112000- Left
 70
     0
 10
0.0
 20
0.0
 30
0.0
  3
Pressure_Balance_Rough_Valve-GROHE-35112000- Left
  1

  0
LINE
  5
3EA
330
3E7
100
AcDbEntity
  8
Pressure_Balance_Rough_Valve-GROHE-35112000
100
AcDbLine
 10
-1.29989545202816
 20
-0.6234729390632238
 30
0.0
 11
-1.29989545202816
 21
-0.7187500000005875
 31
0.0
1001
REVIT
1002
{
1070
     2
1000
-2001160
1002
}
  0
LINE
  5
3EB
330
3E7
100
AcDbEntity
  8
Pressure_Balance_Rough_Valve-GROHE-35112000
100
AcDbLine
 10
0.0312500000006706
 20
0.3073819767161362
 30
0.0
 11
-0.0312499999993294
 21
0.3073819767161371
 31
0.0
1001
REVIT
1002
{
1070
     2
1000
-2001160
1002
}
  0
LINE
  5
3EC
330
3E7
100
AcDbEntity
  8
Pressure_Balance_Rough_Valve-GROHE-35112000
100
AcDbLine
 10
-1.299895452028159
 20
-0.6234729390632232
 30
0.0
 11
-0.3289792887436871
 21
-0.6234729390632264
 31
0.0
1001
REVIT
1002
{
1070
     2
1000
-2001160
1002
}
  0
LINE
  5
3ED
330
3E7
100
AcDbEntity
  8
Pressure_Balance_Rough_Valve-GROHE-35112000
100
AcDbLine
 10
-0.4133986424023162
 20
-0.7187500000005896
 30
0.0
 11
-1.29989545202816
 21
-0.7187500000005867
 31
0.0
1001
REVIT
1002
{
1070
     2
1000
-2001160
1002
}
  0
LINE
  5
3EE
330
3E7
100
AcDbEntity
  8
Pressure_Balance_Rough_Valve-GROHE-35112000
100
AcDbLine
 10
0.0312500000006706
 20
0.3073819767161362
 30
0.0
 11
0.0312500000006653
 21
0.0000000000000111
 31
0.0
1001
REVIT
1002
{
1070
     2
1000
-2001160
1002
}
  0
LINE
  5
3EF
330
3E7
100
AcDbEntity
  8
Pressure_Balance_Rough_Valve-GROHE-35112000
100
AcDbLine
 10
-0.0312499999993348
 20
0.000000000000012
 30
0.0
 11
-0.0312499999993303
 21
0.3073819767161371
 31
0.0
1001
REVIT
1002
{
1070
     2
1000
-2001160
1002
}
  0
LINE
  5
3F0
330
3E7
100
AcDbEntity
  8
Pressure_Balance_Rough_Valve-GROHE-35112000
100
AcDbLine
 10
-0.0312499999993312
 20
0.2649925174906582
 30
0.0
 11
0.0312500000006688
 21
0.2649925174906574
 31
0.0
1001
REVIT
1002
{
1070
     2
1000
-2001160
1002
}
  0
LINE
  5
3F1
330
3E7
100
AcDbEntity
  8
Pressure_Balance_Rough_Valve-GROHE-35112000
100
AcDbLine
 10
1.12959665177934
 20
-0.4549363560042296
 30
0.0
 11
1.129596651779347
 21
-0.0000000000000159
 31
0.0
1001
REVIT
1002
{
1070
     1
1000
114472
1002
}
1002
{
1070
     2
1000
-2001160
1002
}
  0
LINE
  5
3F2
330
3E7
100
AcDbEntity
  8
Pressure_Balance_Rough_Valve-GROHE-35112000
100
AcDbLine
 10
-1.129596651779347
 20
0.0000000000000159
 30
0.0
 11
-1.129596651779352
 21
-0.4549363560041981
 31
0.0
1001
REVIT
1002
{
1070
     1
1000
114472
1002
}
1002
{
1070
     2
1000
-2001160
1002
}
  0
LINE
  5
3F3
330
3E7
100
AcDbEntity
  8
Pressure_Balance_Rough_Valve-GROHE-35112000
100
AcDbLine
 10
1.031250000000198
 20
-2.000000000000022
 30
0.0
 11
1.031250000000206
 21
-1.367487129300025
 31
0.0
1001
REVIT
1002
{
1070
     1
1000
114472
1002
}
1002
{
1070
     2
1000
-2001160
1002
}
  0
LINE
  5
3F4
330
3E7
100
AcDbEntity
  8
Pressure_Balance_Rough_Valve-GROHE-35112000
100
AcDbLine
 10
1.031250000000208
 20
-1.273437500001832
 30
0.0
 11
1.031250000000219
 21
-0.4549363560042092
 31
0.0
1001
REVIT
1002
{
1070
     1
1000
114472
1002
}
1002
{
1070
     2
1000
-2001160
1002
}
  0
LINE
  5
3F5
330
3E7
100
AcDbEntity
  8
Pressure_Balance_Rough_Valve-GROHE-35112000
100
AcDbLine
 10
-1.031250000000231
 20
-0.45493635600418
 30
0.0
 11
-1.031250000000235
 21
-0.6234729390632247
 31
0.0
1001
REVIT
1002
{
1070
     1
1000
114472
1002
}
1002
{
1070
     2
1000
-2001160
1002
}
  0
LINE
  5
3F6
330
3E7
100
AcDbEntity
  8
Pressure_Balance_Rough_Valve-GROHE-35112000
100
AcDbLine
 10
-1.031250000000235
 20
-0.7187500000005881
 30
0.0
 11
-1.031250000000253
 21
-1.999999999999993
 31
0.0
1001
REVIT
1002
{
1070
     1
1000
114472
1002
}
1002
{
1070
     2
1000
-2001160
1002
}
  0
LINE
  5
3F7
330
3E7
100
AcDbEntity
  8
Pressure_Balance_Rough_Valve-GROHE-35112000
100
AcDbLine
 10
1.129596651779345
 20
-0.0000000000000159
 30
0.0
 11
-1.129596651779345
 21
0.0000000000000159
 31
0.0
1001
REVIT
1002
{
1070
     1
1000
114472
1002
}
1002
{
1070
     2
1000
-2001160
1002
}
  0
LINE
  5
3F8
330
3E7
100
AcDbEntity
  8
Pressure_Balance_Rough_Valve-GROHE-35112000
100
AcDbLine
 10
1.031250000000196
 20
-2.00000000000002
 30
0.0
 11
-1.031250000000253
 21
-1.999999999999991
 31
0.0
1001
REVIT
1002
{
1070
     1
1000
114472
1002
}
1002
{
1070
     2
1000
-2001160
1002
}
  0
LINE
  5
3F9
330
3E7
100
AcDbEntity
  8
Pressure_Balance_Rough_Valve-GROHE-35112000
100
AcDbLine
 10
1.299895452029356
 20
-1.367487129300025
 30
0.0
 11
1.299895452029356
 21
-1.273437500001833
 31
0.0
1001
REVIT
1002
{
1070
     1
1000
122706
1002
}
1002
{
1070
     2
1000
-2001160
1002
}
  0
LINE
  5
3FA
330
3E7
100
AcDbEntity
  8
Pressure_Balance_Rough_Valve-GROHE-35112000
100
AcDbLine
 10
0.4150284756578158
 20
-1.273437500001828
 30
0.0
 11
1.299895452029352
 21
-1.273437500001831
 31
0.0
1001
REVIT
1002
{
1070
     1
1000
122706
1002
}
1002
{
1070
     2
1000
-2001160
1002
}
  0
LINE
  5
3FB
330
3E7
100
AcDbEntity
  8
Pressure_Balance_Rough_Valve-GROHE-35112000
100
AcDbLine
 10
1.299895452029352
 20
-1.367487129300024
 30
0.0
 11
0.3353945888339558
 21
-1.367487129300021
 31
0.0
1001
REVIT
1002
{
1070
     1
1000
122706
1002
}
1002
{
1070
     2
1000
-2001160
1002
}
  0
LINE
  5
3FC
330
3E7
100
AcDbEntity
  8
Pressure_Balance_Rough_Valve-GROHE-35112000
100
AcDbLine
 10
0.2285958673326096
 20
-0.5553159217167814
 30
0.0
 11
0.2285958673326105
 21
-0.5325980029992362
 31
0.0
1001
REVIT
1002
{
1070
     1
1000
130422
1002
}
1002
{
1070
     2
1000
-2001160
1002
}
  0
LINE
  5
3FD
330
3E7
100
AcDbEntity
  8
Pressure_Balance_Rough_Valve-GROHE-35112000
100
AcDbLine
 10
-0.2285958673326158
 20
-0.5325980029992362
 30
0.0
 11
-0.2285958673326158
 21
-0.555315921716769
 31
0.0
1001
REVIT
1002
{
1070
     1
1000
130422
1002
}
1002
{
1070
     2
1000
-2001160
1002
}
  0
LINE
  5
3FE
330
3E7
100
AcDbEntity
  8
Pressure_Balance_Rough_Valve-GROHE-35112000
100
AcDbLine
 10
0.1570812215897339
 20
-0.5253153785258055
 30
0.0
 11
0.1570812215897339
 21
-0.4925943551745779
 31
0.0
1001
REVIT
1002
{
1070
     1
1000
130422
1002
}
1002
{
1070
     2
1000
-2001160
1002
}
  0
LINE
  5
3FF
330
3E7
100
AcDbEntity
  8
Pressure_Balance_Rough_Valve-GROHE-35112000
100
AcDbLine
 10
-0.1570812215897375
 20
-0.4925943551745779
 30
0.0
 11
-0.1570812215897375
 21
-0.5253153785257965
 31
0.0
1001
REVIT
1002
{
1070
     1
1000
130422
1002
}
1002
{
1070
     2
1000
-2001160
1002
}
  0
LINE
  5
400
330
3E7
100
AcDbEntity
  8
Pressure_Balance_Rough_Valve-GROHE-35112000
100
AcDbLine
 10
0.1133306631455033
 20
-0.4925943551745779
 30
0.0
 11
0.1133306631455033
 21
-0.4577306289143314
 31
0.0
1001
REVIT
1002
{
1070
     1
1000
130422
1002
}
1002
{
1070
     2
1000
-2001160
1002
}
  0
LINE
  5
401
330
3E7
100
AcDbEntity
  8
Pressure_Balance_Rough_Valve-GROHE-35112000
100
AcDbLine
 10
-0.1133306631455069
 20
-0.4577306289143314
 30
0.0
 11
-0.1133306631455069
 21
-0.4925943551745779
 31
0.0
1001
REVIT
1002
{
1070
     1
1000
130422
1002
}
1002
{
1070
     2
1000
-2001160
1002
}
  0
LINE
  5
402
330
3E7
100
AcDbEntity
  8
Pressure_Balance_Rough_Valve-GROHE-35112000
100
AcDbLine
 10
0.0646378204679499
 20
-0.4577306289143314
 30
0.0
 11
0.0646378204679499
 21
-0.4221833001783934
 31
0.0
1001
REVIT
1002
{
1070
     1
1000
130422
1002
}
1002
{
1070
     2
1000
-2001160
1002
}
  0
LINE
  5
403
330
3E7
100
AcDbEntity
  8
Pressure_Balance_Rough_Valve-GROHE-35112000
100
AcDbLine
 10
-0.0646378204679534
 20
-0.4221833001783934
 30
0.0
 11
-0.0646378204679534
 21
-0.4577306289143314
 31
0.0
1001
REVIT
1002
{
1070
     1
1000
130422
1002
}
1002
{
1070
     2
1000
-2001160
1002
}
  0
LINE
  5
404
330
3E7
100
AcDbEntity
  8
Pressure_Balance_Rough_Valve-GROHE-35112000
100
AcDbLine
 10
0.2285958673326105
 20
-0.5325980029992356
 30
0.0
 11
0.1775820183461736
 21
-0.5325980029992355
 31
0.0
1001
REVIT
1002
{
1070
     1
1000
130422
1002
}
1002
{
1070
     2
1000
-2001160
1002
}
  0
LINE
  5
405
330
3E7
100
AcDbEntity
  8
Pressure_Balance_Rough_Valve-GROHE-35112000
100
AcDbLine
 10
-0.1775820183462038
 20
-0.5325980029992355
 30
0.0
 11
-0.2285958673326158
 21
-0.5325980029992356
 31
0.0
1001
REVIT
1002
{
1070
     1
1000
130422
1002
}
1002
{
1070
     2
1000
-2001160
1002
}
  0
LINE
  5
406
330
3E7
100
AcDbEntity
  8
Pressure_Balance_Rough_Valve-GROHE-35112000
100
AcDbLine
 10
0.1570812215897321
 20
-0.4925943551745772
 30
0.0
 11
-0.1570812215897392
 21
-0.4925943551745772
 31
0.0
1001
REVIT
1002
{
1070
     1
1000
130422
1002
}
1002
{
1070
     2
1000
-2001160
1002
}
  0
LINE
  5
407
330
3E7
100
AcDbEntity
  8
Pressure_Balance_Rough_Valve-GROHE-35112000
100
AcDbLine
 10
0.1133306631455015
 20
-0.4577306289143307
 30
0.0
 11
-0.1133306631455087
 21
-0.4577306289143307
 31
0.0
1001
REVIT
1002
{
1070
     1
1000
130422
1002
}
1002
{
1070
     2
1000
-2001160
1002
}
  0
LINE
  5
408
330
3E7
100
AcDbEntity
  8
Pressure_Balance_Rough_Valve-GROHE-35112000
100
AcDbLine
 10
0.0646378204679481
 20
-0.4221833001783929
 30
0.0
 11
-0.0646378204679552
 21
-0.4221833001783929
 31
0.0
1001
REVIT
1002
{
1070
     1
1000
130422
1002
}
1002
{
1070
     2
1000
-2001160
1002
}
  0
LINE
  5
409
330
3E7
100
AcDbEntity
  8
Pressure_Balance_Rough_Valve-GROHE-35112000
100
AcDbLine
 10
-1.812499999999986
 20
-1.375000000017852
 30
0.0
 11
-1.740204454768467
 21
-1.375000000017852
 31
0.0
1001
REVIT
1002
{
1070
     1
1000
160299
1002
}
1002
{
1070
     2
1000
-2001160
1002
}
  0
LINE
  5
40A
330
3E7
100
AcDbEntity
  8
Pressure_Balance_Rough_Valve-GROHE-35112000
100
AcDbLine
 10
-1.740204454768467
 20
-0.6249999999846275
 30
0.0
 11
-1.812499999999986
 21
-0.6249999999846275
 31
0.0
1001
REVIT
1002
{
1070
     1
1000
160299
1002
}
1002
{
1070
     2
1000
-2001160
1002
}
  0
LINE
  5
40B
330
3E7
100
AcDbEntity
  8
Pressure_Balance_Rough_Valve-GROHE-35112000
100
AcDbLine
 10
-1.176920550564633
 20
-1.492346826814888
 30
0.0
 11
-1.031250000000246
 21
-1.492346826814888
 31
0.0
1001
REVIT
1002
{
1070
     1
1000
160299
1002
}
1002
{
1070
     2
1000
-2001160
1002
}
  0
LINE
  5
40C
330
3E7
100
AcDbEntity
  8
Pressure_Balance_Rough_Valve-GROHE-35112000
100
AcDbLine
 10
1.031250000000205
 20
-1.492346826814888
 30
0.0
 11
1.176920550564633
 21
-1.492346826814888
 31
0.0
1001
REVIT
1002
{
1070
     1
1000
160299
1002
}
1002
{
1070
     2
1000
-2001160
1002
}
  0
LINE
  5
40D
330
3E7
100
AcDbEntity
  8
Pressure_Balance_Rough_Valve-GROHE-35112000
100
AcDbLine
 10
1.176920550564633
 20
-0.5076531731875917
 30
0.0
 11
1.031250000000218
 21
-0.5076531731875917
 31
0.0
1001
REVIT
1002
{
1070
     1
1000
160299
1002
}
1002
{
1070
     2
1000
-2001160
1002
}
  0
LINE
  5
40E
330
3E7
100
AcDbEntity
  8
Pressure_Balance_Rough_Valve-GROHE-35112000
100
AcDbLine
 10
-1.031250000000233
 20
-0.5076531731875917
 30
0.0
 11
-1.176920550564633
 21
-0.5076531731875917
 31
0.0
1001
REVIT
1002
{
1070
     1
1000
160299
1002
}
1002
{
1070
     2
1000
-2001160
1002
}
  0
LINE
  5
40F
330
3E7
100
AcDbEntity
  8
Pressure_Balance_Rough_Valve-GROHE-35112000
100
AcDbLine
 10
1.17692055056463
 20
-1.375000000017823
 30
0.0
 11
1.493975448466158
 21
-1.375000000017823
 31
0.0
1001
REVIT
1002
{
1070
     1
1000
160299
1002
}
1002
{
1070
     2
1000
-2001160
1002
}
  0
LINE
  5
410
330
3E7
100
AcDbEntity
  8
Pressure_Balance_Rough_Valve-GROHE-35112000
100
AcDbLine
 10
1.493975448466158
 20
-0.6249999999846568
 30
0.0
 11
1.17692055056463
 21
-0.6249999999846568
 31
0.0
1001
REVIT
1002
{
1070
     1
1000
160299
1002
}
1002
{
1070
     2
1000
-2001160
1002
}
  0
LINE
  5
411
330
3E7
100
AcDbEntity
  8
Pressure_Balance_Rough_Valve-GROHE-35112000
100
AcDbLine
 10
-1.740204454768467
 20
-1.411768868516305
 30
0.0
 11
-1.685942261340952
 21
-1.411768868516305
 31
0.0
1001
REVIT
1002
{
1070
     1
1000
160299
1002
}
1002
{
1070
     2
1000
-2001160
1002
}
  0
LINE
  5
412
330
3E7
100
AcDbEntity
  8
Pressure_Balance_Rough_Valve-GROHE-35112000
100
AcDbLine
 10
-1.685942261340952
 20
-0.5882311314861749
 30
0.0
 11
-1.740204454768467
 21
-0.5882311314861749
 31
0.0
1001
REVIT
1002
{
1070
     1
1000
160299
1002
}
1002
{
1070
     2
1000
-2001160
1002
}
  0
LINE
  5
413
330
3E7
100
AcDbEntity
  8
Pressure_Balance_Rough_Valve-GROHE-35112000
100
AcDbLine
 10
-1.685942261340952
 20
-1.375000000017852
 30
0.0
 11
-1.644709329581071
 21
-1.375000000017852
 31
0.0
1001
REVIT
1002
{
1070
     1
1000
160299
1002
}
1002
{
1070
     2
1000
-2001160
1002
}
  0
LINE
  5
414
330
3E7
100
AcDbEntity
  8
Pressure_Balance_Rough_Valve-GROHE-35112000
100
AcDbLine
 10
-1.644709329581071
 20
-0.6249999999846275
 30
0.0
 11
-1.685942261340952
 21
-0.6249999999846275
 31
0.0
1001
REVIT
1002
{
1070
     1
1000
160299
1002
}
1002
{
1070
     2
1000
-2001160
1002
}
  0
LINE
  5
415
330
3E7
100
AcDbEntity
  8
Pressure_Balance_Rough_Valve-GROHE-35112000
100
AcDbLine
 10
-1.644709329581071
 20
-1.411768868516305
 30
0.0
 11
-1.590447136153556
 21
-1.411768868516305
 31
0.0
1001
REVIT
1002
{
1070
     1
1000
160299
1002
}
1002
{
1070
     2
1000
-2001160
1002
}
  0
LINE
  5
416
330
3E7
100
AcDbEntity
  8
Pressure_Balance_Rough_Valve-GROHE-35112000
100
AcDbLine
 10
-1.590447136153556
 20
-0.5882311314861749
 30
0.0
 11
-1.644709329581071
 21
-0.5882311314861749
 31
0.0
1001
REVIT
1002
{
1070
     1
1000
160299
1002
}
1002
{
1070
     2
1000
-2001160
1002
}
  0
LINE
  5
417
330
3E7
100
AcDbEntity
  8
Pressure_Balance_Rough_Valve-GROHE-35112000
100
AcDbLine
 10
-1.590447136153556
 20
-1.375000000017852
 30
0.0
 11
-1.548237641893675
 21
-1.375000000017852
 31
0.0
1001
REVIT
1002
{
1070
     1
1000
160299
1002
}
1002
{
1070
     2
1000
-2001160
1002
}
  0
LINE
  5
418
330
3E7
100
AcDbEntity
  8
Pressure_Balance_Rough_Valve-GROHE-35112000
100
AcDbLine
 10
-1.548237641893675
 20
-0.6249999999846275
 30
0.0
 11
-1.590447136153556
 21
-0.6249999999846275
 31
0.0
1001
REVIT
1002
{
1070
     1
1000
160299
1002
}
1002
{
1070
     2
1000
-2001160
1002
}
  0
LINE
  5
419
330
3E7
100
AcDbEntity
  8
Pressure_Balance_Rough_Valve-GROHE-35112000
100
AcDbLine
 10
-1.548237641893675
 20
-1.411768868516305
 30
0.0
 11
-1.49397544846616
 21
-1.411768868516305
 31
0.0
1001
REVIT
1002
{
1070
     1
1000
160299
1002
}
1002
{
1070
     2
1000
-2001160
1002
}
  0
LINE
  5
41A
330
3E7
100
AcDbEntity
  8
Pressure_Balance_Rough_Valve-GROHE-35112000
100
AcDbLine
 10
-1.49397544846616
 20
-0.5882311314861749
 30
0.0
 11
-1.548237641893675
 21
-0.5882311314861749
 31
0.0
1001
REVIT
1002
{
1070
     1
1000
160299
1002
}
1002
{
1070
     2
1000
-2001160
1002
}
  0
LINE
  5
41B
330
3E7
100
AcDbEntity
  8
Pressure_Balance_Rough_Valve-GROHE-35112000
100
AcDbLine
 10
-1.49397544846616
 20
-1.375000000017852
 30
0.0
 11
-1.176920550564633
 21
-1.375000000017852
 31
0.0
1001
REVIT
1002
{
1070
     1
1000
160299
1002
}
1002
{
1070
     2
1000
-2001160
1002
}
  0
LINE
  5
41C
330
3E7
100
AcDbEntity
  8
Pressure_Balance_Rough_Valve-GROHE-35112000
100
AcDbLine
 10
-1.29989545202816
 20
-0.6249999999846275
 30
0.0
 11
-1.49397544846616
 21
-0.6249999999846275
 31
0.0
1001
REVIT
1002
{
1070
     1
1000
160299
1002
}
1002
{
1070
     2
1000
-2001160
1002
}
  0
LINE
  5
41D
330
3E7
100
AcDbEntity
  8
Pressure_Balance_Rough_Valve-GROHE-35112000
100
AcDbLine
 10
1.49397544846616
 20
-1.411768868516305
 30
0.0
 11
1.548237641893675
 21
-1.411768868516305
 31
0.0
1001
REVIT
1002
{
1070
     1
1000
160299
1002
}
1002
{
1070
     2
1000
-2001160
1002
}
  0
LINE
  5
41E
330
3E7
100
AcDbEntity
  8
Pressure_Balance_Rough_Valve-GROHE-35112000
100
AcDbLine
 10
1.548237641893675
 20
-0.5882311314861749
 30
0.0
 11
1.49397544846616
 21
-0.5882311314861749
 31
0.0
1001
REVIT
1002
{
1070
     1
1000
160299
1002
}
1002
{
1070
     2
1000
-2001160
1002
}
  0
LINE
  5
41F
330
3E7
100
AcDbEntity
  8
Pressure_Balance_Rough_Valve-GROHE-35112000
100
AcDbLine
 10
1.548237641893673
 20
-1.375000000017823
 30
0.0
 11
1.590447136153556
 21
-1.375000000017823
 31
0.0
1001
REVIT
1002
{
1070
     1
1000
160299
1002
}
1002
{
1070
     2
1000
-2001160
1002
}
  0
LINE
  5
420
330
3E7
100
AcDbEntity
  8
Pressure_Balance_Rough_Valve-GROHE-35112000
100
AcDbLine
 10
1.590447136153556
 20
-0.6249999999846568
 30
0.0
 11
1.548237641893673
 21
-0.6249999999846568
 31
0.0
1001
REVIT
1002
{
1070
     1
1000
160299
1002
}
1002
{
1070
     2
1000
-2001160
1002
}
  0
LINE
  5
421
330
3E7
100
AcDbEntity
  8
Pressure_Balance_Rough_Valve-GROHE-35112000
100
AcDbLine
 10
1.590447136153556
 20
-1.411768868516305
 30
0.0
 11
1.644709329581071
 21
-1.411768868516305
 31
0.0
1001
REVIT
1002
{
1070
     1
1000
160299
1002
}
1002
{
1070
     2
1000
-2001160
1002
}
  0
LINE
  5
422
330
3E7
100
AcDbEntity
  8
Pressure_Balance_Rough_Valve-GROHE-35112000
100
AcDbLine
 10
1.644709329581071
 20
-0.5882311314861749
 30
0.0
 11
1.590447136153556
 21
-0.5882311314861749
 31
0.0
1001
REVIT
1002
{
1070
     1
1000
160299
1002
}
1002
{
1070
     2
1000
-2001160
1002
}
  0
LINE
  5
423
330
3E7
100
AcDbEntity
  8
Pressure_Balance_Rough_Valve-GROHE-35112000
100
AcDbLine
 10
1.644709329581071
 20
-1.375000000017823
 30
0.0
 11
1.685942261340953
 21
-1.375000000017823
 31
0.0
1001
REVIT
1002
{
1070
     1
1000
160299
1002
}
1002
{
1070
     2
1000
-2001160
1002
}
  0
LINE
  5
424
330
3E7
100
AcDbEntity
  8
Pressure_Balance_Rough_Valve-GROHE-35112000
100
AcDbLine
 10
1.685942261340953
 20
-0.6249999999846568
 30
0.0
 11
1.644709329581071
 21
-0.6249999999846568
 31
0.0
1001
REVIT
1002
{
1070
     1
1000
160299
1002
}
1002
{
1070
     2
1000
-2001160
1002
}
  0
LINE
  5
425
330
3E7
100
AcDbEntity
  8
Pressure_Balance_Rough_Valve-GROHE-35112000
100
AcDbLine
 10
1.685942261340953
 20
-1.411768868516305
 30
0.0
 11
1.740204454768468
 21
-1.411768868516305
 31
0.0
1001
REVIT
1002
{
1070
     1
1000
160299
1002
}
1002
{
1070
     2
1000
-2001160
1002
}
  0
LINE
  5
426
330
3E7
100
AcDbEntity
  8
Pressure_Balance_Rough_Valve-GROHE-35112000
100
AcDbLine
 10
1.740204454768468
 20
-0.5882311314861749
 30
0.0
 11
1.685942261340953
 21
-0.5882311314861749
 31
0.0
1001
REVIT
1002
{
1070
     1
1000
160299
1002
}
1002
{
1070
     2
1000
-2001160
1002
}
  0
LINE
  5
427
330
3E7
100
AcDbEntity
  8
Pressure_Balance_Rough_Valve-GROHE-35112000
100
AcDbLine
 10
1.740204454768468
 20
-1.375000000017823
 30
0.0
 11
1.812500000000001
 21
-1.375000000017823
 31
0.0
1001
REVIT
1002
{
1070
     1
1000
160299
1002
}
1002
{
1070
     2
1000
-2001160
1002
}
  0
LINE
  5
428
330
3E7
100
AcDbEntity
  8
Pressure_Balance_Rough_Valve-GROHE-35112000
100
AcDbLine
 10
1.812500000000001
 20
-0.6249999999846568
 30
0.0
 11
1.740204454768468
 21
-0.6249999999846568
 31
0.0
1001
REVIT
1002
{
1070
     1
1000
160299
1002
}
1002
{
1070
     2
1000
-2001160
1002
}
  0
LINE
  5
429
330
3E7
100
AcDbEntity
  8
Pressure_Balance_Rough_Valve-GROHE-35112000
100
AcDbLine
 10
-1.812499999999986
 20
-1.375000000017851
 30
0.0
 11
-1.812499999999986
 21
-0.6249999999846271
 31
0.0
1001
REVIT
1002
{
1070
     1
1000
160299
1002
}
1002
{
1070
     2
1000
-2001160
1002
}
  0
LINE
  5
42A
330
3E7
100
AcDbEntity
  8
Pressure_Balance_Rough_Valve-GROHE-35112000
100
AcDbLine
 10
1.812499999999999
 20
-0.6249999999846564
 30
0.0
 11
1.812499999999999
 21
-1.375000000017821
 31
0.0
1001
REVIT
1002
{
1070
     1
1000
160299
1002
}
1002
{
1070
     2
1000
-2001160
1002
}
  0
LINE
  5
42B
330
3E7
100
AcDbEntity
  8
Pressure_Balance_Rough_Valve-GROHE-35112000
100
AcDbLine
 10
-1.176920550564633
 20
-1.492346826814887
 30
0.0
 11
-1.176920550564632
 21
-0.7187500000005871
 31
0.0
1001
REVIT
1002
{
1070
     1
1000
160299
1002
}
1002
{
1070
     2
1000
-2001160
1002
}
  0
LINE
  5
42C
330
3E7
100
AcDbEntity
  8
Pressure_Balance_Rough_Valve-GROHE-35112000
100
AcDbLine
 10
-1.176920550564633
 20
-0.6174605730318433
 30
0.0
 11
-1.176920550564633
 21
-0.507653173187591
 31
0.0
1001
REVIT
1002
{
1070
     1
1000
160299
1002
}
1002
{
1070
     2
1000
-2001160
1002
}
  0
LINE
  5
42D
330
3E7
100
AcDbEntity
  8
Pressure_Balance_Rough_Valve-GROHE-35112000
100
AcDbLine
 10
1.176920550564632
 20
-1.492346826814887
 30
0.0
 11
1.176920550564632
 21
-1.372020157419483
 31
0.0
1001
REVIT
1002
{
1070
     1
1000
160299
1002
}
1002
{
1070
     2
1000
-2001160
1002
}
  0
LINE
  5
42E
330
3E7
100
AcDbEntity
  8
Pressure_Balance_Rough_Valve-GROHE-35112000
100
AcDbLine
 10
1.176920550564632
 20
-1.273437500001831
 30
0.0
 11
1.176920550564632
 21
-0.507653173187591
 31
0.0
1001
REVIT
1002
{
1070
     1
1000
160299
1002
}
1002
{
1070
     2
1000
-2001160
1002
}
  0
LINE
  5
42F
330
3E7
100
AcDbEntity
  8
Pressure_Balance_Rough_Valve-GROHE-35112000
100
AcDbLine
 10
-1.740204454768467
 20
-1.411768868516303
 30
0.0
 11
-1.740204454768467
 21
-0.5882311314861745
 31
0.0
1001
REVIT
1002
{
1070
     1
1000
160299
1002
}
1002
{
1070
     2
1000
-2001160
1002
}
  0
LINE
  5
430
330
3E7
100
AcDbEntity
  8
Pressure_Balance_Rough_Valve-GROHE-35112000
100
AcDbLine
 10
-1.685942261340952
 20
-1.411768868516303
 30
0.0
 11
-1.685942261340952
 21
-0.5882311314861745
 31
0.0
1001
REVIT
1002
{
1070
     1
1000
160299
1002
}
1002
{
1070
     2
1000
-2001160
1002
}
  0
LINE
  5
431
330
3E7
100
AcDbEntity
  8
Pressure_Balance_Rough_Valve-GROHE-35112000
100
AcDbLine
 10
-1.644709329581071
 20
-1.411768868516303
 30
0.0
 11
-1.644709329581071
 21
-0.5882311314861745
 31
0.0
1001
REVIT
1002
{
1070
     1
1000
160299
1002
}
1002
{
1070
     2
1000
-2001160
1002
}
  0
LINE
  5
432
330
3E7
100
AcDbEntity
  8
Pressure_Balance_Rough_Valve-GROHE-35112000
100
AcDbLine
 10
-1.590447136153556
 20
-1.411768868516303
 30
0.0
 11
-1.590447136153556
 21
-0.5882311314861745
 31
0.0
1001
REVIT
1002
{
1070
     1
1000
160299
1002
}
1002
{
1070
     2
1000
-2001160
1002
}
  0
LINE
  5
433
330
3E7
100
AcDbEntity
  8
Pressure_Balance_Rough_Valve-GROHE-35112000
100
AcDbLine
 10
-1.548237641893673
 20
-1.411768868516303
 30
0.0
 11
-1.548237641893673
 21
-0.5882311314861745
 31
0.0
1001
REVIT
1002
{
1070
     1
1000
160299
1002
}
1002
{
1070
     2
1000
-2001160
1002
}
  0
LINE
  5
434
330
3E7
100
AcDbEntity
  8
Pressure_Balance_Rough_Valve-GROHE-35112000
100
AcDbLine
 10
-1.493975448466158
 20
-1.411768868516303
 30
0.0
 11
-1.493975448466158
 21
-0.5882311314861745
 31
0.0
1001
REVIT
1002
{
1070
     1
1000
160299
1002
}
1002
{
1070
     2
1000
-2001160
1002
}
  0
LINE
  5
435
330
3E7
100
AcDbEntity
  8
Pressure_Balance_Rough_Valve-GROHE-35112000
100
AcDbLine
 10
1.493975448466157
 20
-1.411768868516303
 30
0.0
 11
1.493975448466157
 21
-0.5882311314861745
 31
0.0
1001
REVIT
1002
{
1070
     1
1000
160299
1002
}
1002
{
1070
     2
1000
-2001160
1002
}
  0
LINE
  5
436
330
3E7
100
AcDbEntity
  8
Pressure_Balance_Rough_Valve-GROHE-35112000
100
AcDbLine
 10
1.548237641893672
 20
-1.411768868516303
 30
0.0
 11
1.548237641893672
 21
-0.5882311314861745
 31
0.0
1001
REVIT
1002
{
1070
     1
1000
160299
1002
}
1002
{
1070
     2
1000
-2001160
1002
}
  0
LINE
  5
437
330
3E7
100
AcDbEntity
  8
Pressure_Balance_Rough_Valve-GROHE-35112000
100
AcDbLine
 10
1.590447136153553
 20
-1.411768868516303
 30
0.0
 11
1.590447136153553
 21
-0.5882311314861745
 31
0.0
1001
REVIT
1002
{
1070
     1
1000
160299
1002
}
1002
{
1070
     2
1000
-2001160
1002
}
  0
LINE
  5
438
330
3E7
100
AcDbEntity
  8
Pressure_Balance_Rough_Valve-GROHE-35112000
100
AcDbLine
 10
1.644709329581068
 20
-1.411768868516303
 30
0.0
 11
1.644709329581068
 21
-0.5882311314861745
 31
0.0
1001
REVIT
1002
{
1070
     1
1000
160299
1002
}
1002
{
1070
     2
1000
-2001160
1002
}
  0
LINE
  5
439
330
3E7
100
AcDbEntity
  8
Pressure_Balance_Rough_Valve-GROHE-35112000
100
AcDbLine
 10
1.68594226134095
 20
-1.411768868516303
 30
0.0
 11
1.68594226134095
 21
-0.5882311314861745
 31
0.0
1001
REVIT
1002
{
1070
     1
1000
160299
1002
}
1002
{
1070
     2
1000
-2001160
1002
}
  0
LINE
  5
43A
330
3E7
100
AcDbEntity
  8
Pressure_Balance_Rough_Valve-GROHE-35112000
100
AcDbLine
 10
1.740204454768465
 20
-1.411768868516303
 30
0.0
 11
1.740204454768465
 21
-0.5882311314861745
 31
0.0
1001
REVIT
1002
{
1070
     1
1000
160299
1002
}
1002
{
1070
     2
1000
-2001160
1002
}
  0
LINE
  5
43B
330
3E7
100
AcDbEntity
  8
Pressure_Balance_Rough_Valve-GROHE-35112000
100
AcDbLine
 10
-1.129596651779352
 20
-0.454936356004196
 30
0.0
 11
-0.0646378204679543
 21
-0.454936356004211
 31
0.0
1001
REVIT
1002
{
1070
     1
1000
172981
1002
}
1002
{
1070
     2
1000
-2001160
1002
}
  0
LINE
  5
43C
330
3E7
100
AcDbEntity
  8
Pressure_Balance_Rough_Valve-GROHE-35112000
100
AcDbLine
 10
0.0646378204679499
 20
-0.4549363560042128
 30
0.0
 11
1.129596651779338
 21
-0.4549363560042278
 31
0.0
1001
REVIT
1002
{
1070
     1
1000
172981
1002
}
1002
{
1070
     2
1000
-2001160
1002
}
  0
CIRCLE
  5
43D
330
3E7
100
AcDbEntity
  8
Pressure_Balance_Rough_Valve-GROHE-35112000
100
AcDbCircle
 10
-0.0000000000000062
 20
-0.9999999999975212
 30
0.0
 40
0.4154093313488539
1001
REVIT
1002
{
1070
     1
1000
172988
1002
}
1002
{
1070
     2
1000
-2001160
1002
}
  0
CIRCLE
  5
43E
330
3E7
100
AcDbEntity
  8
Pressure_Balance_Rough_Valve-GROHE-35112000
100
AcDbCircle
 10
-0.0000000000000062
 20
-0.9999999999975212
 30
0.0
 40
0.2500000000303518
1001
REVIT
1002
{
1070
     1
1000
172995
1002
}
1002
{
1070
     2
1000
-2001160
1002
}
  0
CIRCLE
  5
43F
330
3E7
100
AcDbEntity
  8
Pressure_Balance_Rough_Valve-GROHE-35112000
100
AcDbCircle
 10
-0.0000000000000151
 20
-0.9999999999987252
 30
0.0
 40
0.5000000000390172
1001
REVIT
1002
{
1070
     1
1000
173002
1002
}
1002
{
1070
     2
1000
-2001160
1002
}
  0
CIRCLE
  5
440
330
3E7
100
AcDbEntity
  8
Pressure_Balance_Rough_Valve-GROHE-35112000
100
AcDbCircle
 10
-0.0000000000000151
 20
-0.9999999999987252
 30
0.0
 40
0.0680112646653153
  0
CIRCLE
  5
441
330
3E7
100
AcDbEntity
  8
Pressure_Balance_Rough_Valve-GROHE-35112000
100
AcDbCircle
 10
-0.0000000000000151
 20
-0.9999999999987252
 30
0.0
 40
0.2955172426306616
  0
CIRCLE
  5
442
330
3E7
100
AcDbEntity
  8
Pressure_Balance_Rough_Valve-GROHE-35112000
100
AcDbCircle
 10
-0.0000000000000151
 20
-0.9999999999987252
 30
0.0
 40
0.3193421416886659
  0
ENDBLK
  5
3E9
330
3E7
100
AcDbEntity
  8
0
100
AcDbBlockEnd
  0
BLOCK
  5
445
330
444
100
AcDbEntity
  8
0
100
AcDbBlockBegin
  2
Pressure_Balance_Rough_Valve-GROHE-35112000- Top
 70
     0
 10
0.0
 20
0.0
 30
0.0
  3
Pressure_Balance_Rough_Valve-GROHE-35112000- Top
  1

  0
LINE
  5
447
330
444
100
AcDbEntity
  8
Pressure_Balance_Rough_Valve-GROHE-35112000
100
AcDbLine
 10
0.8645696171286367
 20
-0.0000000000000204
 30
0.0
 11
0.2962913294861961
 21
0.2649925174908629
 31
0.0
1001
REVIT
1002
{
1070
     2
1000
-2001160
1002
}
  0
ARC
  5
448
330
444
100
AcDbEntity
  8
Pressure_Balance_Rough_Valve-GROHE-35112000
100
AcDbCircle
 10
-0.0000000000000027
 20
-0.7493125390811835
 30
0.0
 40
1.056694515797317
100
AcDbArc
 50
73.71624894763025
 51
106.2837510524039
1001
REVIT
1002
{
1070
     2
1000
-2001160
1002
}
  0
LINE
  5
449
330
444
100
AcDbEntity
  8
Pressure_Balance_Rough_Valve-GROHE-35112000
100
AcDbLine
 10
-0.2962913294865846
 20
0.2649925174906551
 30
0.0
 11
-0.8645696171286243
 21
-0.0000000000000027
 31
0.0
1001
REVIT
1002
{
1070
     2
1000
-2001160
1002
}
  0
LINE
  5
44A
330
444
100
AcDbEntity
  8
Pressure_Balance_Rough_Valve-GROHE-35112000
100
AcDbLine
 10
-1.129596651779345
 20
0.0000000000000098
 30
0.0
 11
-1.12959665177935
 21
-0.4549363560042039
 31
0.0
1001
REVIT
1002
{
1070
     1
1000
114472
1002
}
1002
{
1070
     2
1000
-2001160
1002
}
  0
LINE
  5
44B
330
444
100
AcDbEntity
  8
Pressure_Balance_Rough_Valve-GROHE-35112000
100
AcDbLine
 10
1.129596651779342
 20
-0.454936356004227
 30
0.0
 11
1.129596651779347
 21
-0.0000000000000133
 31
0.0
1001
REVIT
1002
{
1070
     1
1000
114472
1002
}
1002
{
1070
     2
1000
-2001160
1002
}
  0
LINE
  5
44C
330
444
100
AcDbEntity
  8
Pressure_Balance_Rough_Valve-GROHE-35112000
100
AcDbLine
 10
-1.031250000000229
 20
-0.4549363560041862
 30
0.0
 11
-1.031250000000245
 21
-1.999999999999999
 31
0.0
1001
REVIT
1002
{
1070
     1
1000
114472
1002
}
1002
{
1070
     2
1000
-2001160
1002
}
  0
LINE
  5
44D
330
444
100
AcDbEntity
  8
Pressure_Balance_Rough_Valve-GROHE-35112000
100
AcDbLine
 10
1.031250000000206
 20
-2.00000000000002
 30
0.0
 11
1.031250000000219
 21
-0.4549363560042066
 31
0.0
1001
REVIT
1002
{
1070
     1
1000
114472
1002
}
1002
{
1070
     2
1000
-2001160
1002
}
  0
LINE
  5
44E
330
444
100
AcDbEntity
  8
Pressure_Balance_Rough_Valve-GROHE-35112000
100
AcDbLine
 10
1.12340860312925
 20
-0.0000000000000115
 30
0.0
 11
-1.12340860312925
 21
0.0000000000000115
 31
0.0
1001
REVIT
1002
{
1070
     1
1000
114472
1002
}
1002
{
1070
     2
1000
-2001160
1002
}
  0
LINE
  5
44F
330
444
100
AcDbEntity
  8
Pressure_Balance_Rough_Valve-GROHE-35112000
100
AcDbLine
 10
1.025600704598735
 20
-2.000000000000016
 30
0.0
 11
-1.025600704598776
 21
-1.999999999999995
 31
0.0
1001
REVIT
1002
{
1070
     1
1000
114472
1002
}
1002
{
1070
     2
1000
-2001160
1002
}
  0
LINE
  5
450
330
444
100
AcDbEntity
  8
Pressure_Balance_Rough_Valve-GROHE-35112000
100
AcDbLine
 10
-1.285771107333379
 20
-0.4999999999597211
 30
0.0
 11
-1.285771107333379
 21
-0.49259435517458
 31
0.0
1001
REVIT
1002
{
1070
     1
1000
130422
1002
}
1002
{
1070
     2
1000
-2001160
1002
}
  0
LINE
  5
451
330
444
100
AcDbEntity
  8
Pressure_Balance_Rough_Valve-GROHE-35112000
100
AcDbLine
 10
-1.59993355051285
 20
-0.49259435517458
 30
0.0
 11
-1.59993355051285
 21
-0.4999999999597211
 31
0.0
1001
REVIT
1002
{
1070
     1
1000
130422
1002
}
1002
{
1070
     2
1000
-2001160
1002
}
  0
LINE
  5
452
330
444
100
AcDbEntity
  8
Pressure_Balance_Rough_Valve-GROHE-35112000
100
AcDbLine
 10
-1.329521665777609
 20
-0.49259435517458
 30
0.0
 11
-1.329521665777609
 21
-0.4577306289143337
 31
0.0
1001
REVIT
1002
{
1070
     1
1000
130422
1002
}
1002
{
1070
     2
1000
-2001160
1002
}
  0
LINE
  5
453
330
444
100
AcDbEntity
  8
Pressure_Balance_Rough_Valve-GROHE-35112000
100
AcDbLine
 10
-1.55618299206862
 20
-0.4577306289143337
 30
0.0
 11
-1.55618299206862
 21
-0.49259435517458
 31
0.0
1001
REVIT
1002
{
1070
     1
1000
130422
1002
}
1002
{
1070
     2
1000
-2001160
1002
}
  0
LINE
  5
454
330
444
100
AcDbEntity
  8
Pressure_Balance_Rough_Valve-GROHE-35112000
100
AcDbLine
 10
-1.378214508455163
 20
-0.4577306289143337
 30
0.0
 11
-1.378214508455163
 21
-0.4221833001783964
 31
0.0
1001
REVIT
1002
{
1070
     1
1000
130422
1002
}
1002
{
1070
     2
1000
-2001160
1002
}
  0
LINE
  5
455
330
444
100
AcDbEntity
  8
Pressure_Balance_Rough_Valve-GROHE-35112000
100
AcDbLine
 10
-1.507490149391067
 20
-0.4221833001783964
 30
0.0
 11
-1.507490149391067
 21
-0.4577306289143337
 31
0.0
1001
REVIT
1002
{
1070
     1
1000
130422
1002
}
1002
{
1070
     2
1000
-2001160
1002
}
  0
LINE
  5
456
330
444
100
AcDbEntity
  8
Pressure_Balance_Rough_Valve-GROHE-35112000
100
AcDbLine
 10
-1.285771107333378
 20
-0.49259435517458
 30
0.0
 11
-1.599933550512848
 21
-0.49259435517458
 31
0.0
1001
REVIT
1002
{
1070
     1
1000
130422
1002
}
1002
{
1070
     2
1000
-2001160
1002
}
  0
LINE
  5
457
330
444
100
AcDbEntity
  8
Pressure_Balance_Rough_Valve-GROHE-35112000
100
AcDbLine
 10
-1.329521665777608
 20
-0.4577306289143337
 30
0.0
 11
-1.556182992068618
 21
-0.4577306289143337
 31
0.0
1001
REVIT
1002
{
1070
     1
1000
130422
1002
}
1002
{
1070
     2
1000
-2001160
1002
}
  0
LINE
  5
458
330
444
100
AcDbEntity
  8
Pressure_Balance_Rough_Valve-GROHE-35112000
100
AcDbLine
 10
-1.378214508455161
 20
-0.4221833001783946
 30
0.0
 11
-1.507490149391065
 21
-0.4221833001783946
 31
0.0
1001
REVIT
1002
{
1070
     1
1000
130422
1002
}
1002
{
1070
     2
1000
-2001160
1002
}
  0
LINE
  5
459
330
444
100
AcDbEntity
  8
Pressure_Balance_Rough_Valve-GROHE-35112000
100
AcDbLine
 10
1.378214508456657
 20
-0.4132545206438323
 30
0.0
 11
1.378214508456657
 21
-0.4488018493797697
 31
0.0
1001
REVIT
1002
{
1070
     1
1000
131792
1002
}
1002
{
1070
     2
1000
-2001160
1002
}
  0
LINE
  5
45A
330
444
100
AcDbEntity
  8
Pressure_Balance_Rough_Valve-GROHE-35112000
100
AcDbLine
 10
1.507490149391548
 20
-0.4488018493797697
 30
0.0
 11
1.507490149391548
 21
-0.4132545206438323
 31
0.0
1001
REVIT
1002
{
1070
     1
1000
131792
1002
}
1002
{
1070
     2
1000
-2001160
1002
}
  0
LINE
  5
45B
330
444
100
AcDbEntity
  8
Pressure_Balance_Rough_Valve-GROHE-35112000
100
AcDbLine
 10
1.324317915663199
 20
-0.4488018493797697
 30
0.0
 11
1.324317915663199
 21
-0.4836655756400159
 31
0.0
1001
REVIT
1002
{
1070
     1
1000
131792
1002
}
1002
{
1070
     2
1000
-2001160
1002
}
  0
LINE
  5
45C
330
444
100
AcDbEntity
  8
Pressure_Balance_Rough_Valve-GROHE-35112000
100
AcDbLine
 10
1.561386742185007
 20
-0.4836655756400159
 30
0.0
 11
1.561386742185007
 21
-0.4488018493797697
 31
0.0
1001
REVIT
1002
{
1070
     1
1000
131792
1002
}
1002
{
1070
     2
1000
-2001160
1002
}
  0
LINE
  5
45D
330
444
100
AcDbEntity
  8
Pressure_Balance_Rough_Valve-GROHE-35112000
100
AcDbLine
 10
1.280567357218968
 20
-0.4836655756400159
 30
0.0
 11
1.280567357218968
 21
-0.499999999959722
 31
0.0
1001
REVIT
1002
{
1070
     1
1000
131792
1002
}
1002
{
1070
     2
1000
-2001160
1002
}
  0
LINE
  5
45E
330
444
100
AcDbEntity
  8
Pressure_Balance_Rough_Valve-GROHE-35112000
100
AcDbLine
 10
1.605137300629237
 20
-0.499999999959722
 30
0.0
 11
1.605137300629237
 21
-0.4836655756400159
 31
0.0
1001
REVIT
1002
{
1070
     1
1000
131792
1002
}
1002
{
1070
     2
1000
-2001160
1002
}
  0
LINE
  5
45F
330
444
100
AcDbEntity
  8
Pressure_Balance_Rough_Valve-GROHE-35112000
100
AcDbLine
 10
1.378214508456655
 20
-0.4132545206438323
 30
0.0
 11
1.507490149391547
 21
-0.4132545206438323
 31
0.0
1001
REVIT
1002
{
1070
     1
1000
131792
1002
}
1002
{
1070
     2
1000
-2001160
1002
}
  0
LINE
  5
460
330
444
100
AcDbEntity
  8
Pressure_Balance_Rough_Valve-GROHE-35112000
100
AcDbLine
 10
1.324317915663198
 20
-0.4488018493797697
 30
0.0
 11
1.561386742185004
 21
-0.4488018493797697
 31
0.0
1001
REVIT
1002
{
1070
     1
1000
131792
1002
}
1002
{
1070
     2
1000
-2001160
1002
}
  0
LINE
  5
461
330
444
100
AcDbEntity
  8
Pressure_Balance_Rough_Valve-GROHE-35112000
100
AcDbLine
 10
1.280567357218967
 20
-0.4836655756400159
 30
0.0
 11
1.605137300629235
 21
-0.4836655756400159
 31
0.0
1001
REVIT
1002
{
1070
     1
1000
131792
1002
}
1002
{
1070
     2
1000
-2001160
1002
}
  0
LINE
  5
462
330
444
100
AcDbEntity
  8
Pressure_Balance_Rough_Valve-GROHE-35112000
100
AcDbLine
 10
1.812500000000022
 20
-0.4999999999597211
 30
0.0
 11
1.031250000000221
 21
-0.4999999999597211
 31
0.0
1001
REVIT
1002
{
1070
     1
1000
158160
1002
}
1002
{
1070
     2
1000
-2001160
1002
}
  0
LINE
  5
463
330
444
100
AcDbEntity
  8
Pressure_Balance_Rough_Valve-GROHE-35112000
100
AcDbLine
 10
-1.03125000000023
 20
-0.4999999999597211
 30
0.0
 11
-1.812500000000038
 21
-0.4999999999597211
 31
0.0
1001
REVIT
1002
{
1070
     1
1000
158160
1002
}
1002
{
1070
     2
1000
-2001160
1002
}
  0
LINE
  5
464
330
444
100
AcDbEntity
  8
Pressure_Balance_Rough_Valve-GROHE-35112000
100
AcDbLine
 10
-1.812500000000038
 20
-1.500000000037736
 30
0.0
 11
-1.03125000000024
 21
-1.500000000037736
 31
0.0
1001
REVIT
1002
{
1070
     1
1000
158160
1002
}
1002
{
1070
     2
1000
-2001160
1002
}
  0
LINE
  5
465
330
444
100
AcDbEntity
  8
Pressure_Balance_Rough_Valve-GROHE-35112000
100
AcDbLine
 10
1.031250000000211
 20
-1.500000000037736
 30
0.0
 11
1.812500000000022
 21
-1.500000000037736
 31
0.0
1001
REVIT
1002
{
1070
     1
1000
158160
1002
}
1002
{
1070
     2
1000
-2001160
1002
}
  0
LINE
  5
466
330
444
100
AcDbEntity
  8
Pressure_Balance_Rough_Valve-GROHE-35112000
100
AcDbLine
 10
2.396171860275937
 20
-0.7496673973238095
 30
0.0
 11
2.284152804811724
 21
-0.7496673973238095
 31
0.0
1001
REVIT
1002
{
1070
     1
1000
158160
1002
}
1002
{
1070
     2
1000
-2001160
1002
}
  0
LINE
  5
467
330
444
100
AcDbEntity
  8
Pressure_Balance_Rough_Valve-GROHE-35112000
100
AcDbLine
 10
2.284152804811724
 20
-1.250332602673647
 30
0.0
 11
2.396171860275937
 21
-1.250332602673647
 31
0.0
1001
REVIT
1002
{
1070
     1
1000
158160
1002
}
1002
{
1070
     2
1000
-2001160
1002
}
  0
LINE
  5
468
330
444
100
AcDbEntity
  8
Pressure_Balance_Rough_Valve-GROHE-35112000
100
AcDbLine
 10
2.121566433968187
 20
-0.6806578583101027
 30
0.0
 11
2.077019561697161
 21
-0.6806578583101027
 31
0.0
1001
REVIT
1002
{
1070
     1
1000
158160
1002
}
1002
{
1070
     2
1000
-2001160
1002
}
  0
LINE
  5
469
330
444
100
AcDbEntity
  8
Pressure_Balance_Rough_Valve-GROHE-35112000
100
AcDbLine
 10
2.077019561697161
 20
-1.319342141687354
 30
0.0
 11
2.121566433968187
 21
-1.319342141687354
 31
0.0
1001
REVIT
1002
{
1070
     1
1000
158160
1002
}
1002
{
1070
     2
1000
-2001160
1002
}
  0
LINE
  5
46A
330
444
100
AcDbEntity
  8
Pressure_Balance_Rough_Valve-GROHE-35112000
100
AcDbLine
 10
2.077019561697161
 20
-0.7343209376566731
 30
0.0
 11
1.900557686673763
 21
-0.7343209376566731
 31
0.0
1001
REVIT
1002
{
1070
     1
1000
158160
1002
}
1002
{
1070
     2
1000
-2001160
1002
}
  0
LINE
  5
46B
330
444
100
AcDbEntity
  8
Pressure_Balance_Rough_Valve-GROHE-35112000
100
AcDbLine
 10
1.900557686673763
 20
-1.265679062340784
 30
0.0
 11
2.077019561697161
 21
-1.265679062340784
 31
0.0
1001
REVIT
1002
{
1070
     1
1000
158160
1002
}
1002
{
1070
     2
1000
-2001160
1002
}
  0
LINE
  5
46C
330
444
100
AcDbEntity
  8
Pressure_Balance_Rough_Valve-GROHE-35112000
100
AcDbLine
 10
2.437499999999492
 20
-0.7044827573681168
 30
0.0
 11
2.396171860275937
 21
-0.7044827573681168
 31
0.0
1001
REVIT
1002
{
1070
     1
1000
158160
1002
}
1002
{
1070
     2
1000
-2001160
1002
}
  0
LINE
  5
46D
330
444
100
AcDbEntity
  8
Pressure_Balance_Rough_Valve-GROHE-35112000
100
AcDbLine
 10
2.396171860275937
 20
-1.29551724262934
 30
0.0
 11
2.437499999999492
 21
-1.29551724262934
 31
0.0
1001
REVIT
1002
{
1070
     1
1000
158160
1002
}
1002
{
1070
     2
1000
-2001160
1002
}
  0
LINE
  5
46E
330
444
100
AcDbEntity
  8
Pressure_Balance_Rough_Valve-GROHE-35112000
100
AcDbLine
 10
2.284152804811724
 20
-0.7138239642434061
 30
0.0
 11
2.121566433968187
 21
-0.7138239642434061
 31
0.0
1001
REVIT
1002
{
1070
     1
1000
158160
1002
}
1002
{
1070
     2
1000
-2001160
1002
}
  0
LINE
  5
46F
330
444
100
AcDbEntity
  8
Pressure_Balance_Rough_Valve-GROHE-35112000
100
AcDbLine
 10
2.121566433968187
 20
-1.286176035754051
 30
0.0
 11
2.284152804811724
 21
-1.286176035754051
 31
0.0
1001
REVIT
1002
{
1070
     1
1000
158160
1002
}
1002
{
1070
     2
1000
-2001160
1002
}
  0
LINE
  5
470
330
444
100
AcDbEntity
  8
Pressure_Balance_Rough_Valve-GROHE-35112000
100
AcDbLine
 10
1.900557686673763
 20
-0.7027755110976046
 30
0.0
 11
1.812500000000022
 21
-0.7027755110976046
 31
0.0
1001
REVIT
1002
{
1070
     1
1000
158160
1002
}
1002
{
1070
     2
1000
-2001160
1002
}
  0
LINE
  5
471
330
444
100
AcDbEntity
  8
Pressure_Balance_Rough_Valve-GROHE-35112000
100
AcDbLine
 10
1.812500000000022
 20
-1.297224488899852
 30
0.0
 11
1.900557686673763
 21
-1.297224488899852
 31
0.0
1001
REVIT
1002
{
1070
     1
1000
158160
1002
}
1002
{
1070
     2
1000
-2001160
1002
}
  0
LINE
  5
472
330
444
100
AcDbEntity
  8
Pressure_Balance_Rough_Valve-GROHE-35112000
100
AcDbLine
 10
-1.812500000000039
 20
-0.7027755110975673
 30
0.0
 11
-1.900557686673775
 21
-0.7027755110975673
 31
0.0
1001
REVIT
1002
{
1070
     1
1000
158160
1002
}
1002
{
1070
     2
1000
-2001160
1002
}
  0
LINE
  5
473
330
444
100
AcDbEntity
  8
Pressure_Balance_Rough_Valve-GROHE-35112000
100
AcDbLine
 10
-1.900557686673775
 20
-1.297224488899889
 30
0.0
 11
-1.812500000000039
 21
-1.297224488899889
 31
0.0
1001
REVIT
1002
{
1070
     1
1000
158160
1002
}
1002
{
1070
     2
1000
-2001160
1002
}
  0
LINE
  5
474
330
444
100
AcDbEntity
  8
Pressure_Balance_Rough_Valve-GROHE-35112000
100
AcDbLine
 10
-1.900557686673775
 20
-0.7343209376566731
 30
0.0
 11
-2.077019561697174
 21
-0.7343209376566731
 31
0.0
1001
REVIT
1002
{
1070
     1
1000
158160
1002
}
1002
{
1070
     2
1000
-2001160
1002
}
  0
LINE
  5
475
330
444
100
AcDbEntity
  8
Pressure_Balance_Rough_Valve-GROHE-35112000
100
AcDbLine
 10
-2.077019561697174
 20
-1.265679062340784
 30
0.0
 11
-1.900557686673775
 21
-1.265679062340784
 31
0.0
1001
REVIT
1002
{
1070
     1
1000
158160
1002
}
1002
{
1070
     2
1000
-2001160
1002
}
  0
LINE
  5
476
330
444
100
AcDbEntity
  8
Pressure_Balance_Rough_Valve-GROHE-35112000
100
AcDbLine
 10
-2.077019561697174
 20
-0.6806578583100627
 30
0.0
 11
-2.1215664339682
 21
-0.6806578583100627
 31
0.0
1001
REVIT
1002
{
1070
     1
1000
158160
1002
}
1002
{
1070
     2
1000
-2001160
1002
}
  0
LINE
  5
477
330
444
100
AcDbEntity
  8
Pressure_Balance_Rough_Valve-GROHE-35112000
100
AcDbLine
 10
-2.1215664339682
 20
-1.319342141687394
 30
0.0
 11
-2.077019561697174
 21
-1.319342141687394
 31
0.0
1001
REVIT
1002
{
1070
     1
1000
158160
1002
}
1002
{
1070
     2
1000
-2001160
1002
}
  0
LINE
  5
478
330
444
100
AcDbEntity
  8
Pressure_Balance_Rough_Valve-GROHE-35112000
100
AcDbLine
 10
-2.1215664339682
 20
-0.7138239642433653
 30
0.0
 11
-2.284152804811737
 21
-0.7138239642433653
 31
0.0
1001
REVIT
1002
{
1070
     1
1000
158160
1002
}
1002
{
1070
     2
1000
-2001160
1002
}
  0
LINE
  5
479
330
444
100
AcDbEntity
  8
Pressure_Balance_Rough_Valve-GROHE-35112000
100
AcDbLine
 10
-2.284152804811737
 20
-1.286176035754091
 30
0.0
 11
-2.1215664339682
 21
-1.286176035754091
 31
0.0
1001
REVIT
1002
{
1070
     1
1000
158160
1002
}
1002
{
1070
     2
1000
-2001160
1002
}
  0
LINE
  5
47A
330
444
100
AcDbEntity
  8
Pressure_Balance_Rough_Valve-GROHE-35112000
100
AcDbLine
 10
-2.284152804811737
 20
-0.7496673973237598
 30
0.0
 11
-2.396171860275951
 21
-0.7496673973237598
 31
0.0
1001
REVIT
1002
{
1070
     1
1000
158160
1002
}
1002
{
1070
     2
1000
-2001160
1002
}
  0
LINE
  5
47B
330
444
100
AcDbEntity
  8
Pressure_Balance_Rough_Valve-GROHE-35112000
100
AcDbLine
 10
-2.396171860275951
 20
-1.250332602673696
 30
0.0
 11
-2.284152804811737
 21
-1.250332602673696
 31
0.0
1001
REVIT
1002
{
1070
     1
1000
158160
1002
}
1002
{
1070
     2
1000
-2001160
1002
}
  0
LINE
  5
47C
330
444
100
AcDbEntity
  8
Pressure_Balance_Rough_Valve-GROHE-35112000
100
AcDbLine
 10
-2.396171860275951
 20
-0.7044827573680661
 30
0.0
 11
-2.437499999999508
 21
-0.7044827573680661
 31
0.0
1001
REVIT
1002
{
1070
     1
1000
158160
1002
}
1002
{
1070
     2
1000
-2001160
1002
}
  0
LINE
  5
47D
330
444
100
AcDbEntity
  8
Pressure_Balance_Rough_Valve-GROHE-35112000
100
AcDbLine
 10
-2.437499999999508
 20
-1.295517242629391
 30
0.0
 11
-2.396171860275951
 21
-1.295517242629391
 31
0.0
1001
REVIT
1002
{
1070
     1
1000
158160
1002
}
1002
{
1070
     2
1000
-2001160
1002
}
  0
LINE
  5
47E
330
444
100
AcDbEntity
  8
Pressure_Balance_Rough_Valve-GROHE-35112000
100
AcDbLine
 10
-1.812500000000036
 20
-0.4999999999597194
 30
0.0
 11
-1.812500000000036
 21
-1.500000000037734
 31
0.0
1001
REVIT
1002
{
1070
     1
1000
158160
1002
}
1002
{
1070
     2
1000
-2001160
1002
}
  0
LINE
  5
47F
330
444
100
AcDbEntity
  8
Pressure_Balance_Rough_Valve-GROHE-35112000
100
AcDbLine
 10
-2.437499999999506
 20
-1.295517242629389
 30
0.0
 11
-2.437499999999506
 21
-0.7044827573680652
 31
0.0
1001
REVIT
1002
{
1070
     1
1000
158160
1002
}
1002
{
1070
     2
1000
-2001160
1002
}
  0
LINE
  5
480
330
444
100
AcDbEntity
  8
Pressure_Balance_Rough_Valve-GROHE-35112000
100
AcDbLine
 10
2.396171860275935
 20
-1.295517242629339
 30
0.0
 11
2.396171860275935
 21
-0.7044827573681159
 31
0.0
1001
REVIT
1002
{
1070
     1
1000
158160
1002
}
1002
{
1070
     2
1000
-2001160
1002
}
  0
LINE
  5
481
330
444
100
AcDbEntity
  8
Pressure_Balance_Rough_Valve-GROHE-35112000
100
AcDbLine
 10
2.121566433968185
 20
-0.6806578583101018
 30
0.0
 11
2.121566433968185
 21
-1.319342141687352
 31
0.0
1001
REVIT
1002
{
1070
     1
1000
158160
1002
}
1002
{
1070
     2
1000
-2001160
1002
}
  0
LINE
  5
482
330
444
100
AcDbEntity
  8
Pressure_Balance_Rough_Valve-GROHE-35112000
100
AcDbLine
 10
2.077019561697159
 20
-0.6806578583101018
 30
0.0
 11
2.077019561697159
 21
-1.319342141687352
 31
0.0
1001
REVIT
1002
{
1070
     1
1000
158160
1002
}
1002
{
1070
     2
1000
-2001160
1002
}
  0
LINE
  5
483
330
444
100
AcDbEntity
  8
Pressure_Balance_Rough_Valve-GROHE-35112000
100
AcDbLine
 10
2.437499999999491
 20
-0.7044827573681159
 30
0.0
 11
2.437499999999491
 21
-1.295517242629339
 31
0.0
1001
REVIT
1002
{
1070
     1
1000
158160
1002
}
1002
{
1070
     2
1000
-2001160
1002
}
  0
LINE
  5
484
330
444
100
AcDbEntity
  8
Pressure_Balance_Rough_Valve-GROHE-35112000
100
AcDbLine
 10
2.284152804811722
 20
-0.7138239642434044
 30
0.0
 11
2.284152804811722
 21
-1.28617603575405
 31
0.0
1001
REVIT
1002
{
1070
     1
1000
158160
1002
}
1002
{
1070
     2
1000
-2001160
1002
}
  0
LINE
  5
485
330
444
100
AcDbEntity
  8
Pressure_Balance_Rough_Valve-GROHE-35112000
100
AcDbLine
 10
1.90055768667376
 20
-0.7027755110976038
 30
0.0
 11
1.90055768667376
 21
-1.29722448889985
 31
0.0
1001
REVIT
1002
{
1070
     1
1000
158160
1002
}
1002
{
1070
     2
1000
-2001160
1002
}
  0
LINE
  5
486
330
444
100
AcDbEntity
  8
Pressure_Balance_Rough_Valve-GROHE-35112000
100
AcDbLine
 10
-1.900557686673773
 20
-0.7027755110975665
 30
0.0
 11
-1.900557686673773
 21
-1.297224488899888
 31
0.0
1001
REVIT
1002
{
1070
     1
1000
158160
1002
}
1002
{
1070
     2
1000
-2001160
1002
}
  0
LINE
  5
487
330
444
100
AcDbEntity
  8
Pressure_Balance_Rough_Valve-GROHE-35112000
100
AcDbLine
 10
-2.077019561697172
 20
-0.6806578583100618
 30
0.0
 11
-2.077019561697172
 21
-1.319342141687392
 31
0.0
1001
REVIT
1002
{
1070
     1
1000
158160
1002
}
1002
{
1070
     2
1000
-2001160
1002
}
  0
LINE
  5
488
330
444
100
AcDbEntity
  8
Pressure_Balance_Rough_Valve-GROHE-35112000
100
AcDbLine
 10
-2.121566433968197
 20
-0.6806578583100618
 30
0.0
 11
-2.121566433968197
 21
-1.319342141687392
 31
0.0
1001
REVIT
1002
{
1070
     1
1000
158160
1002
}
1002
{
1070
     2
1000
-2001160
1002
}
  0
LINE
  5
489
330
444
100
AcDbEntity
  8
Pressure_Balance_Rough_Valve-GROHE-35112000
100
AcDbLine
 10
-2.284152804811735
 20
-0.7138239642433653
 30
0.0
 11
-2.284152804811735
 21
-1.28617603575409
 31
0.0
1001
REVIT
1002
{
1070
     1
1000
158160
1002
}
1002
{
1070
     2
1000
-2001160
1002
}
  0
LINE
  5
48A
330
444
100
AcDbEntity
  8
Pressure_Balance_Rough_Valve-GROHE-35112000
100
AcDbLine
 10
-2.396171860275948
 20
-0.7044827573680652
 30
0.0
 11
-2.396171860275948
 21
-1.295517242629389
 31
0.0
1001
REVIT
1002
{
1070
     1
1000
158160
1002
}
1002
{
1070
     2
1000
-2001160
1002
}
  0
LINE
  5
48B
330
444
100
AcDbEntity
  8
Pressure_Balance_Rough_Valve-GROHE-35112000
100
AcDbLine
 10
1.129596651779341
 20
-0.4549363560042075
 30
0.0
 11
-1.129596651779349
 21
-0.4549363560041844
 31
0.0
1001
REVIT
1002
{
1070
     1
1000
154016
1002
}
1002
{
1070
     2
1000
-2001160
1002
}
  0
CIRCLE
  5
48C
330
444
100
AcDbEntity
  8
Pressure_Balance_Rough_Valve-GROHE-35112000
100
AcDbCircle
 10
0.00000000000049
 20
-0.9999999999999783
 30
0.0
 40
0.3125000000165312
1001
REVIT
1002
{
1070
     1
1000
169644
1002
}
1002
{
1070
     2
1000
-2001160
1002
}
  0
CIRCLE
  5
48D
330
444
100
AcDbEntity
  8
Pressure_Balance_Rough_Valve-GROHE-35112000
100
AcDbCircle
 10
0.00000000000049
 20
-0.9999999999999783
 30
0.0
 40
0.2500000000165314
1001
REVIT
1002
{
1070
     1
1000
169662
1002
}
1002
{
1070
     2
1000
-2001160
1002
}
  0
CIRCLE
  5
48E
330
444
100
AcDbEntity
  8
Pressure_Balance_Rough_Valve-GROHE-35112000
100
AcDbCircle
 10
0.00000000000049
 20
-0.9999999999999783
 30
0.0
 40
0.3750000000165317
1001
REVIT
1002
{
1070
     1
1000
169811
1002
}
1002
{
1070
     2
1000
-2001160
1002
}
  0
LINE
  5
48F
330
444
100
AcDbEntity
  8
Pressure_Balance_Rough_Valve-GROHE-35112000
100
AcDbLine
 10
1.812500000000022
 20
-0.4999999999598046
 30
0.0
 11
1.812500000000022
 21
-1.500000000037922
 31
0.0
1001
REVIT
1002
{
1070
     1
1000
180419
1002
}
1002
{
1070
     2
1000
-2001160
1002
}
  0
CIRCLE
  5
490
330
444
100
AcDbEntity
  8
Pressure_Balance_Rough_Valve-GROHE-35112000
100
AcDbCircle
 10
0.0000000000004909
 20
-1.000000000001241
 30
0.0
 40
0.4117688685150649
  0
CIRCLE
  5
491
330
444
100
AcDbEntity
  8
Pressure_Balance_Rough_Valve-GROHE-35112000
100
AcDbCircle
 10
0.0000000000004918
 20
-1.000000000001241
 30
0.0
 40
0.4923468268136485
  0
ENDBLK
  5
446
330
444
100
AcDbEntity
  8
0
100
AcDbBlockEnd
  0
ENDSEC
  0
SECTION
  2
ENTITIES
  0
INSERT
  5
3E6
330
70
100
AcDbEntity
  8
0
100
AcDbBlockReference
  2
Pressure_Balance_Rough_Valve-GROHE-35112000- Front
 10
0.0000000000002466
 20
-0.6250000000009968
 30
0.0
  0
INSERT
  5
443
330
70
100
AcDbEntity
  8
0
100
AcDbBlockReference
  2
Pressure_Balance_Rough_Valve-GROHE-35112000- Left
 10
-6.131100869159083
 20
0.3750000000009209
 30
0.0
  0
INSERT
  5
492
330
70
100
AcDbEntity
  8
0
100
AcDbBlockReference
  2
Pressure_Balance_Rough_Valve-GROHE-35112000- Top
 10
0.0000000000007652
 20
4.6230291882671
 30
0.0
  0
ENDSEC
  0
SECTION
  2
OBJECTS
  0
DICTIONARY
  5
C
330
0
100
AcDbDictionary
281
     1
  3
ACAD_CIP_PREVIOUS_PRODUCT_INFO
350
79
  3
ACAD_COLOR
350
63
  3
ACAD_DETAILVIEWSTYLE
350
6A
  3
ACAD_GROUP
350
D
  3
ACAD_IMAGE_VARS
350
7A
  3
ACAD_LAYOUT
350
62
  3
ACAD_MATERIAL
350
10
  3
ACAD_MLEADERSTYLE
350
66
  3
ACAD_MLINESTYLE
350
5F
  3
ACAD_PLOTSETTINGS
350
61
  3
ACAD_PLOTSTYLENAME
350
E
  3
ACAD_SCALELIST
350
42
  3
ACAD_SECTIONVIEWSTYLE
350
68
  3
ACAD_TABLESTYLE
350
64
  3
ACAD_VISUALSTYLE
350
29
  3
ACDB_RECOMPOSE_DATA
350
4AF
  3
AcDbVariableDictionary
350
148
  3
REVIT_DICTIONARY
350
13D
  0
DICTIONARY
  5
353
330
2
100
AcDbDictionary
280
     1
281
     1
  3
ACAD_LAYERSTATES
360
354
  0
DICTIONARY
  5
141
330
70
100
AcDbDictionary
280
     1
281
     1
  3
ACAD_SORTENTS
360
142
  0
XRECORD
  5
79
102
{ACAD_REACTORS
330
C
102
}
330
C
100
AcDbXrecord
280
     1
300
ACD
300
2016
300
86445ACD_2016_0F
  0
DICTIONARY
  5
63
102
{ACAD_REACTORS
330
C
102
}
330
C
100
AcDbDictionary
281
     1
  0
DICTIONARY
  5
6A
102
{ACAD_REACTORS
330
C
102
}
330
C
100
AcDbDictionary
281
     1
  3
Imperial24
350
6B
  0
DICTIONARY
  5
D
102
{ACAD_REACTORS
330
C
102
}
330
C
100
AcDbDictionary
281
     1
  0
RASTERVARIABLES
  5
7A
102
{ACAD_REACTORS
330
C
102
}
330
C
100
AcDbRasterVariables
 90
        0
 70
     0
 71
     1
 72
     5
  0
DICTIONARY
  5
62
102
{ACAD_REACTORS
330
C
102
}
330
C
100
AcDbDictionary
281
     1
  3
Layout1
350
6F
  3
Layout2
350
77
  3
Model
350
73
  0
DICTIONARY
  5
10
102
{ACAD_REACTORS
330
C
102
}
330
C
100
AcDbDictionary
281
     1
  3
ByBlock
350
19
  3
ByLayer
350
11
  3
Global
350
21
  0
DICTIONARY
  5
66
102
{ACAD_REACTORS
330
C
102
}
330
C
100
AcDbDictionary
281
     1
  3
Standard
350
67
  0
DICTIONARY
  5
5F
102
{ACAD_REACTORS
330
C
102
}
330
C
100
AcDbDictionary
281
     1
  3
Standard
350
60
  0
DICTIONARY
  5
61
102
{ACAD_REACTORS
330
C
102
}
330
C
100
AcDbDictionary
281
     1
  0
ACDBDICTIONARYWDFLT
  5
E
102
{ACAD_REACTORS
330
C
102
}
330
C
100
AcDbDictionary
281
     1
  3
Normal
350
F
100
AcDbDictionaryWithDefault
340
F
  0
DICTIONARY
  5
42
102
{ACAD_REACTORS
330
C
102
}
330
C
100
AcDbDictionary
281
     1
  3
A0
350
43
  3
A1
350
44
  3
A2
350
45
  3
A3
350
46
  3
A4
350
47
  3
A5
350
48
  3
A6
350
49
  3
A7
350
4A
  3
A8
350
4B
  3
A9
350
4C
  3
B0
350
4D
  3
B1
350
4E
  3
B2
350
4F
  3
B3
350
50
  3
B4
350
51
  3
B5
350
52
  3
B6
350
53
  0
DICTIONARY
  5
68
102
{ACAD_REACTORS
330
C
102
}
330
C
100
AcDbDictionary
281
     1
  3
Imperial24
350
69
  0
DICTIONARY
  5
64
102
{ACAD_REACTORS
330
C
102
}
330
C
100
AcDbDictionary
281
     1
  3
Standard
350
65
  0
DICTIONARY
  5
29
102
{ACAD_REACTORS
330
C
102
}
330
C
100
AcDbDictionary
281
     1
  3
2dWireframe
350
2F
  3
Basic
350
2E
  3
Brighten
350
35
  3
ColorChange
350
39
  3
Conceptual
350
32
  3
Dim
350
34
  3
EdgeColorOff
350
41
  3
Facepattern
350
38
  3
Flat
350
2A
  3
FlatWithEdges
350
2B
  3
Gouraud
350
2C
  3
GouraudWithEdges
350
2D
  3
Hidden
350
31
  3
JitterOff
350
3F
  3
Linepattern
350
37
  3
OverhangOff
350
40
  3
Realistic
350
33
  3
Shaded
350
3E
  3
Shaded with edges
350
3D
  3
Shades of Gray
350
3A
  3
Sketchy
350
3B
  3
Thicken
350
36
  3
Wireframe
350
30
  3
X-Ray
350
3C
  0
XRECORD
  5
4AF
102
{ACAD_REACTORS
330
C
102
}
330
C
100
AcDbXrecord
280
     1
 90
        1
330
65
330
69
330
6B
  0
DICTIONARY
  5
148
102
{ACAD_REACTORS
330
C
102
}
330
C
100
AcDbDictionary
281
     1
  3
CANNOSCALE
350
14D
  3
CMLEADERSTYLE
350
14A
  3
CTABLESTYLE
350
149
  3
CVIEWDETAILSTYLE
350
14B
  3
CVIEWSECTIONSTYLE
350
14C
  0
DICTIONARY
  5
13D
102
{ACAD_REACTORS
330
C
102
}
330
C
100
AcDbDictionary
281
     1
  3
DRAWING_TOOL
350
140
  3
REVIT_CATEGORY_MAPPING
350
13E
  3
REVIT_SUB_CATEGORY_MAPPING
350
13F
  0
DICTIONARY
  5
354
102
{ACAD_REACTORS
330
353
102
}
330
353
100
AcDbDictionary
281
     1
  0
SORTENTSTABLE
  5
142
102
{ACAD_REACTORS
330
141
102
}
330
141
100
AcDbSortentsTable
330
70
  0
ACDBDETAILVIEWSTYLE
  5
6B
102
{ACAD_XDICTIONARY
360
145
102
}
102
{ACAD_REACTORS
330
6A
102
}
330
6A
100
AcDbModelDocViewStyle
 70
     0
  3
Imperial24
290
     0
100
AcDbDetailViewStyle
 70
     0
 71
     0
 90
        3
 71
     1
340
55
 62
   256
 40
0.24
340
0
 62
   256
 40
0.24
300

 40
0.36
280
     3
 71
     2
340
5D
 90
       25
 62
   256
 71
     3
340
55
 62
   256
 40
0.24
 90
        1
 40
0.75
 90
        1
300
%<\AcVar ViewType \f "%tc1">% %<\AcVar ViewDetailId>%\PSCALE %<\AcVar ViewScale \f "%sn">%
 71
     4
340
5D
 90
       25
 62
   256
340
5D
 90
       25
 62
   256
280
     0
  0
LAYOUT
  5
6F
102
{ACAD_REACTORS
330
62
102
}
330
62
100
AcDbPlotSettings
  1

  2

  4

  6

 40
0.0
 41
0.0
 42
0.0
 43
0.0
 44
0.0
 45
0.0
 46
0.0
 47
0.0
 48
0.0
 49
0.0
140
0.0
141
0.0
142
1.0
143
1.0
 70
   688
 72
     0
 73
     0
 74
     5
  7

 75
    16
147
1.0
 76
     0
 77
     2
 78
   300
148
0.0
149
0.0
100
AcDbLayout
  1
Layout1
 70
     1
 71
     1
 10
0.0
 20
0.0
 11
12.0
 21
9.0
 12
0.0
 22
0.0
 32
0.0
 14
1.000000000000000E+20
 24
1.000000000000000E+20
 34
1.000000000000000E+20
 15
-1.000000000000000E+20
 25
-1.000000000000000E+20
 35
-1.000000000000000E+20
146
0.0
 13
0.0
 23
0.0
 33
0.0
 16
1.0
 26
0.0
 36
0.0
 17
0.0
 27
1.0
 37
0.0
 76
     0
330
6C
  0
LAYOUT
  5
77
102
{ACAD_REACTORS
330
62
102
}
330
62
100
AcDbPlotSettings
  1

  2

  4

  6

 40
0.0
 41
0.0
 42
0.0
 43
0.0
 44
0.0
 45
0.0
 46
0.0
 47
0.0
 48
0.0
 49
0.0
140
0.0
141
0.0
142
1.0
143
1.0
 70
   688
 72
     0
 73
     0
 74
     5
  7

 75
    16
147
1.0
 76
     0
 77
     2
 78
   300
148
0.0
149
0.0
100
AcDbLayout
  1
Layout2
 70
     1
 71
     2
 10
0.0
 20
0.0
 11
12.0
 21
9.0
 12
0.0
 22
0.0
 32
0.0
 14
0.0
 24
0.0
 34
0.0
 15
0.0
 25
0.0
 35
0.0
146
0.0
 13
0.0
 23
0.0
 33
0.0
 16
1.0
 26
0.0
 36
0.0
 17
0.0
 27
1.0
 37
0.0
 76
     0
330
74
  0
LAYOUT
  5
73
102
{ACAD_REACTORS
330
62
102
}
330
62
100
AcDbPlotSettings
  1

  2

  4

  6

 40
0.0
 41
0.0
 42
0.0
 43
0.0
 44
0.0
 45
0.0
 46
0.0
 47
0.0
 48
0.0
 49
0.0
140
0.0
141
0.0
142
1.0
143
1.0
 70
  1712
 72
     0
 73
     0
 74
     0
  7

 75
     0
147
1.0
 76
     0
 77
     2
 78
   300
148
0.0
149
0.0
100
AcDbLayout
  1
Model
 70
     1
 71
     0
 10
0.0
 20
0.0
 11
12.0
 21
9.0
 12
0.0
 22
0.0
 32
0.0
 14
0.0
 24
0.0
 34
0.0
 15
0.0
 25
0.0
 35
0.0
146
0.0
 13
0.0
 23
0.0
 33
0.0
 16
1.0
 26
0.0
 36
0.0
 17
0.0
 27
1.0
 37
0.0
 76
     0
330
70
331
57
  0
MATERIAL
  5
19
102
{ACAD_XDICTIONARY
360
1A
102
}
102
{ACAD_REACTORS
330
10
102
}
330
10
100
AcDbMaterial
  1
ByBlock
 72
     0
 43
0.0208333333333333
 43
0.0
 43
0.0
 43
0.0
 43
0.0
 43
0.0208333333333333
 43
0.0
 43
0.0
 43
0.0
 43
0.0
 43
1.0
 43
0.0
 43
0.0
 43
0.0
 43
0.0
 43
1.0
 77
     0
 47
0.0208333333333333
 47
0.0
 47
0.0
 47
0.0
 47
0.0
 47
0.0208333333333333
 47
0.0
 47
0.0
 47
0.0
 47
0.0
 47
1.0
 47
0.0
 47
0.0
 47
0.0
 47
0.0
 47
1.0
171
     0
 49
0.0208333333333333
 49
0.0
 49
0.0
 49
0.0
 49
0.0
 49
0.0208333333333333
 49
0.0
 49
0.0
 49
0.0
 49
0.0
 49
1.0
 49
0.0
 49
0.0
 49
0.0
 49
0.0
 49
1.0
175
     0
142
0.0208333333333333
142
0.0
142
0.0
142
0.0
142
0.0
142
0.0208333333333333
142
0.0
142
0.0
142
0.0
142
0.0
142
1.0
142
0.0
142
0.0
142
0.0
142
0.0
142
1.0
179
     0
144
0.0208333333333333
144
0.0
144
0.0
144
0.0
144
0.0
144
0.0208333333333333
144
0.0
144
0.0
144
0.0
144
0.0
144
1.0
144
0.0
144
0.0
144
0.0
144
0.0
144
1.0
147
0.0208333333333333
147
0.0
147
0.0
147
0.0
147
0.0
147
0.0208333333333333
147
0.0
147
0.0
147
0.0
147
0.0
147
1.0
147
0.0
147
0.0
147
0.0
147
0.0
147
1.0
  0
MATERIAL
  5
11
102
{ACAD_XDICTIONARY
360
12
102
}
102
{ACAD_REACTORS
330
10
102
}
330
10
100
AcDbMaterial
  1
ByLayer
 72
     0
 43
0.0208333333333333
 43
0.0
 43
0.0
 43
0.0
 43
0.0
 43
0.0208333333333333
 43
0.0
 43
0.0
 43
0.0
 43
0.0
 43
1.0
 43
0.0
 43
0.0
 43
0.0
 43
0.0
 43
1.0
 77
     0
 47
0.0208333333333333
 47
0.0
 47
0.0
 47
0.0
 47
0.0
 47
0.0208333333333333
 47
0.0
 47
0.0
 47
0.0
 47
0.0
 47
1.0
 47
0.0
 47
0.0
 47
0.0
 47
0.0
 47
1.0
171
     0
 49
0.0208333333333333
 49
0.0
 49
0.0
 49
0.0
 49
0.0
 49
0.0208333333333333
 49
0.0
 49
0.0
 49
0.0
 49
0.0
 49
1.0
 49
0.0
 49
0.0
 49
0.0
 49
0.0
 49
1.0
175
     0
142
0.0208333333333333
142
0.0
142
0.0
142
0.0
142
0.0
142
0.0208333333333333
142
0.0
142
0.0
142
0.0
142
0.0
142
1.0
142
0.0
142
0.0
142
0.0
142
0.0
142
1.0
179
     0
144
0.0208333333333333
144
0.0
144
0.0
144
0.0
144
0.0
144
0.0208333333333333
144
0.0
144
0.0
144
0.0
144
0.0
144
1.0
144
0.0
144
0.0
144
0.0
144
0.0
144
1.0
147
0.0208333333333333
147
0.0
147
0.0
147
0.0
147
0.0
147
0.0208333333333333
147
0.0
147
0.0
147
0.0
147
0.0
147
1.0
147
0.0
147
0.0
147
0.0
147
0.0
147
1.0
  0
MATERIAL
  5
21
102
{ACAD_XDICTIONARY
360
22
102
}
102
{ACAD_REACTORS
330
10
102
}
330
10
100
AcDbMaterial
  1
Global
 72
     0
 43
0.0208333333333333
 43
0.0
 43
0.0
 43
0.0
 43
0.0
 43
0.0208333333333333
 43
0.0
 43
0.0
 43
0.0
 43
0.0
 43
1.0
 43
0.0
 43
0.0
 43
0.0
 43
0.0
 43
1.0
 77
     0
 47
0.0208333333333333
 47
0.0
 47
0.0
 47
0.0
 47
0.0
 47
0.0208333333333333
 47
0.0
 47
0.0
 47
0.0
 47
0.0
 47
1.0
 47
0.0
 47
0.0
 47
0.0
 47
0.0
 47
1.0
171
     0
 49
0.0208333333333333
 49
0.0
 49
0.0
 49
0.0
 49
0.0
 49
0.0208333333333333
 49
0.0
 49
0.0
 49
0.0
 49
0.0
 49
1.0
 49
0.0
 49
0.0
 49
0.0
 49
0.0
 49
1.0
175
     0
142
0.0208333333333333
142
0.0
142
0.0
142
0.0
142
0.0
142
0.0208333333333333
142
0.0
142
0.0
142
0.0
142
0.0
142
1.0
142
0.0
142
0.0
142
0.0
142
0.0
142
1.0
179
     0
144
0.0208333333333333
144
0.0
144
0.0
144
0.0
144
0.0
144
0.0208333333333333
144
0.0
144
0.0
144
0.0
144
0.0
144
1.0
144
0.0
144
0.0
144
0.0
144
0.0
144
1.0
147
0.0208333333333333
147
0.0
147
0.0
147
0.0
147
0.0
147
0.0208333333333333
147
0.0
147
0.0
147
0.0
147
0.0
147
1.0
147
0.0
147
0.0
147
0.0
147
0.0
147
1.0
  0
MLEADERSTYLE
  5
67
102
{ACAD_REACTORS
330
66
102
}
330
66
100
AcDbMLeaderStyle
179
     2
170
     2
171
     1
172
     0
 90
        2
 40
0.0
 41
0.0
173
     1
 91
-1056964608
340
5B
 92
       -2
290
     1
 42
0.09
291
     1
 43
0.36
  3
Standard
 44
0.18
300

342
55
174
     1
178
     6
175
     1
176
     0
 93
-1056964608
 45
0.18
292
     0
297
     0
 46
0.18
 94
-1056964608
 47
1.0
 49
1.0
140
1.0
293
     1
141
0.0
294
     1
177
     0
142
1.0
295
     1
296
     0
143
0.125
271
     0
272
     9
273
     9
298
     1
  0
MLINESTYLE
  5
60
102
{ACAD_REACTORS
330
5F
102
}
330
5F
100
AcDbMlineStyle
  2
STANDARD
 70
     0
  3

 62
   256
 51
90.0
 52
90.0
 71
     2
 49
0.5
 62
   256
  6
BYLAYER
 49
-0.5
 62
   256
  6
BYLAYER
  0
ACDBPLACEHOLDER
  5
F
102
{ACAD_REACTORS
330
E
102
}
330
E
  0
SCALE
  5
43
102
{ACAD_REACTORS
330
42
102
}
330
42
100
AcDbScale
 70
     0
300
1:1
140
1.0
141
1.0
290
     1
  0
SCALE
  5
44
102
{ACAD_REACTORS
330
42
102
}
330
42
100
AcDbScale
 70
     0
300
1/128" = 1'-0"
140
0.0078125
141
12.0
290
     0
  0
SCALE
  5
45
102
{ACAD_REACTORS
330
42
102
}
330
42
100
AcDbScale
 70
     0
300
1/64" = 1'-0"
140
0.015625
141
12.0
290
     0
  0
SCALE
  5
46
102
{ACAD_REACTORS
330
42
102
}
330
42
100
AcDbScale
 70
     0
300
1/32" = 1'-0"
140
0.03125
141
12.0
290
     0
  0
SCALE
  5
47
102
{ACAD_REACTORS
330
42
102
}
330
42
100
AcDbScale
 70
     0
300
1/16" = 1'-0"
140
0.0625
141
12.0
290
     0
  0
SCALE
  5
48
102
{ACAD_REACTORS
330
42
102
}
330
42
100
AcDbScale
 70
     0
300
3/32" = 1'-0"
140
0.09375
141
12.0
290
     0
  0
SCALE
  5
49
102
{ACAD_REACTORS
330
42
102
}
330
42
100
AcDbScale
 70
     0
300
1/8" = 1'-0"
140
0.125
141
12.0
290
     0
  0
SCALE
  5
4A
102
{ACAD_REACTORS
330
42
102
}
330
42
100
AcDbScale
 70
     0
300
3/16" = 1'-0"
140
0.1875
141
12.0
290
     0
  0
SCALE
  5
4B
102
{ACAD_REACTORS
330
42
102
}
330
42
100
AcDbScale
 70
     0
300
1/4" = 1'-0"
140
0.25
141
12.0
290
     0
  0
SCALE
  5
4C
102
{ACAD_REACTORS
330
42
102
}
330
42
100
AcDbScale
 70
     0
300
3/8" = 1'-0"
140
0.375
141
12.0
290
     0
  0
SCALE
  5
4D
102
{ACAD_REACTORS
330
42
102
}
330
42
100
AcDbScale
 70
     0
300
1/2" = 1'-0"
140
0.5
141
12.0
290
     0
  0
SCALE
  5
4E
102
{ACAD_REACTORS
330
42
102
}
330
42
100
AcDbScale
 70
     0
300
3/4" = 1'-0"
140
0.75
141
12.0
290
     0
  0
SCALE
  5
4F
102
{ACAD_REACTORS
330
42
102
}
330
42
100
AcDbScale
 70
     0
300
1" = 1'-0"
140
1.0
141
12.0
290
     0
  0
SCALE
  5
50
102
{ACAD_REACTORS
330
42
102
}
330
42
100
AcDbScale
 70
     0
300
1-1/2" = 1'-0"
140
1.5
141
12.0
290
     0
  0
SCALE
  5
51
102
{ACAD_REACTORS
330
42
102
}
330
42
100
AcDbScale
 70
     0
300
3" = 1'-0"
140
3.0
141
12.0
290
     0
  0
SCALE
  5
52
102
{ACAD_REACTORS
330
42
102
}
330
42
100
AcDbScale
 70
     0
300
6" = 1'-0"
140
6.0
141
12.0
290
     0
  0
SCALE
  5
53
102
{ACAD_REACTORS
330
42
102
}
330
42
100
AcDbScale
 70
     0
300
1'-0" = 1'-0"
140
12.0
141
12.0
290
     0
  0
ACDBSECTIONVIEWSTYLE
  5
69
102
{ACAD_XDICTIONARY
360
143
102
}
102
{ACAD_REACTORS
330
68
102
}
330
68
100
AcDbModelDocViewStyle
 70
     0
  3
Imperial24
290
     0
100
AcDbSectionViewStyle
 70
     0
 71
     0
 90
       78
 71
     1
340
55
 62
   256
 40
0.24
340
0
340
0
 62
   256
 40
0.24
300
I, O, Q, S, X, Z
 40
0.48
 90
        3
 40
0.18
 90
        1
 71
     2
340
5D
 90
       25
 62
   256
340
5D
 90
       50
 62
   256
 40
0.24
 40
0.0
 40
0.24
 71
     3
340
55
 62
   256
 40
0.24
 90
        1
 40
0.75
 90
        1
300
%<\AcVar ViewType \f "%tc1">% %<\AcVar ViewSectionStartId>%-%<\AcVar ViewSectionEndId>%\PSCALE %<\AcVar ViewScale \f "%sn">%
 71
     4
 62
   256
 62
   257
300
ANSI31
 40
1.0
 90
        0
290
     0
290
     0
 90
        6
 40
0.0
 40
1.570796326794896
 40
0.2617993877991494
 40
1.308996938995747
 40
-0.2617993877991494
 40
1.832595714594046
  0
TABLESTYLE
  5
65
102
{ACAD_XDICTIONARY
360
4AB
102
}
102
{ACAD_REACTORS
330
64
102
}
330
64
100
AcDbTableStyle
280
     0
  3
Standard
 70
     0
 71
     0
 40
0.06
 41
0.06
280
     0
281
     0
  7
Standard
140
0.18
170
     2
 62
     0
 63
     7
283
     0
 90
      512
 91
        0
  1

274
    -2
284
     1
 64
     0
275
    -2
285
     1
 65
     0
276
    -2
286
     1
 66
     0
277
    -2
287
     1
 67
     0
278
    -2
288
     1
 68
     0
279
    -2
289
     1
 69
     0
  7
Standard
140
0.25
170
     5
 62
     0
 63
     7
283
     0
 90
      512
 91
        0
  1

274
    -2
284
     1
 64
     0
275
    -2
285
     1
 65
     0
276
    -2
286
     1
 66
     0
277
    -2
287
     1
 67
     0
278
    -2
288
     1
 68
     0
279
    -2
289
     1
 69
     0
  7
Standard
140
0.18
170
     5
 62
     0
 63
     7
283
     0
 90
      512
 91
        0
  1

274
    -2
284
     1
 64
     0
275
    -2
285
     1
 65
     0
276
    -2
286
     1
 66
     0
277
    -2
287
     1
 67
     0
278
    -2
288
     1
 68
     0
279
    -2
289
     1
 69
     0
  0
VISUALSTYLE
  5
2F
102
{ACAD_REACTORS
330
29
102
}
330
29
100
AcDbVisualStyle
  2
2dWireframe
 70
     4
177
     3
291
     0
 70
    58
 90
        0
176
     1
 90
        2
176
     1
 90
        0
176
     1
 90
        0
176
     1
 40
0.6
176
     1
 40
30.0
176
     1
 62
     7
420
 16777215
176
     1
 90
        1
176
     1
 90
        4
176
     1
 62
     7
176
     1
 62
   257
176
     1
 90
        1
176
     1
 90
        1
176
     1
 40
1.0
176
     1
 90
        0
176
     1
 62
   257
176
     1
 40
1.0
176
     1
 90
        1
176
     1
 90
        6
176
     1
 90
        2
176
     1
 62
     7
176
     1
 90
        5
176
     1
 90
        0
176
     1
 90
        0
176
     1
290
     0
176
     1
 90
        1
176
     1
 40
0.0
176
     1
 90
        0
176
     1
290
     1
176
     1
290
     1
176
     1
290
     0
176
     1
290
     0
176
     1
290
     0
176
     1
290
     0
176
     1
290
     0
176
     1
290
     0
176
     1
290
     0
176
     1
 90
       50
176
     1
 40
0.0
176
     1
 40
1.0
176
     1
 90
        0
176
     1
 62
    18
420
        0
176
     1
 90
       50
176
     1
 90
        3
176
     1
 62
     5
420
      255
176
     1
290
     0
176
     1
 90
       50
176
     1
 90
       50
176
     1
 90
       50
176
     1
290
     0
176
     1
 90
       50
176
     1
 62
   256
176
     0
 40
1.0
176
     0
 90
        2
176
     1
  1
strokes_ogs.tif
176
     1
290
     0
176
     1
 40
1.0
176
     1
 40
1.0
176
     1
  0
VISUALSTYLE
  5
2E
102
{ACAD_REACTORS
330
29
102
}
330
29
100
AcDbVisualStyle
  2
Basic
 70
     7
177
     3
291
     1
 70
    58
 90
        1
176
     1
 90
        0
176
     1
 90
        1
176
     1
 90
        0
176
     1
 40
0.6
176
     1
 40
30.0
176
     1
 62
     7
420
 16777215
176
     1
 90
        0
176
     1
 90
        4
176
     1
 62
     7
176
     1
 62
   257
176
     1
 90
        1
176
     1
 90
        1
176
     1
 40
1.0
176
     1
 90
        8
176
     1
 62
     7
176
     1
 40
1.0
176
     1
 90
        1
176
     1
 90
        6
176
     1
 90
        2
176
     1
 62
     7
176
     1
 90
        5
176
     1
 90
        0
176
     1
 90
        0
176
     1
290
     0
176
     1
 90
        1
176
     1
 40
0.0
176
     1
 90
        0
176
     1
290
     0
176
     1
290
     1
176
     1
290
     1
176
     1
290
     0
176
     1
290
     0
176
     1
290
     0
176
     1
290
     0
176
     1
290
     0
176
     1
290
     0
176
     1
 90
       50
176
     1
 40
0.0
176
     1
 40
1.0
176
     1
 90
        0
176
     1
 62
    18
420
        0
176
     1
 90
       50
176
     1
 90
        3
176
     1
 62
     5
420
      255
176
     1
290
     0
176
     1
 90
       50
176
     1
 90
       50
176
     1
 90
       50
176
     1
290
     0
176
     1
 90
       50
176
     1
 62
   256
176
     0
 40
1.0
176
     0
 90
        2
176
     1
  1
strokes_ogs.tif
176
     1
290
     0
176
     1
 40
1.0
176
     1
 40
1.0
176
     1
  0
VISUALSTYLE
  5
35
102
{ACAD_REACTORS
330
29
102
}
330
29
100
AcDbVisualStyle
  2
Brighten
 70
    12
177
     3
291
     1
 70
    58
 90
        2
176
     1
 90
        2
176
     1
 90
        0
176
     1
 90
        0
176
     1
 40
0.6
176
     1
 40
30.0
176
     1
 62
     7
420
 16777215
176
     1
 90
        1
176
     1
 90
        4
176
     1
 62
     7
176
     1
 62
   257
176
     1
 90
        1
176
     1
 90
        1
176
     1
 40
1.0
176
     1
 90
        8
176
     1
 62
     7
176
     1
 40
1.0
176
     1
 90
        1
176
     1
 90
        6
176
     1
 90
        2
176
     1
 62
     7
176
     1
 90
        5
176
     1
 90
        0
176
     1
 90
        0
176
     1
290
     0
176
     1
 90
        1
176
     1
 40
50.0
176
     1
 90
        0
176
     1
290
     0
176
     1
290
     1
176
     1
290
     1
176
     1
290
     0
176
     1
290
     0
176
     1
290
     0
176
     1
290
     0
176
     1
290
     0
176
     1
290
     0
176
     1
 90
       50
176
     1
 40
0.0
176
     1
 40
1.0
176
     1
 90
        0
176
     1
 62
    18
420
        0
176
     1
 90
       50
176
     1
 90
        3
176
     1
 62
     5
420
      255
176
     1
290
     0
176
     1
 90
       50
176
     1
 90
       50
176
     1
 90
       50
176
     1
290
     0
176
     1
 90
       50
176
     1
 62
   256
176
     0
 40
1.0
176
     0
 90
        2
176
     1
  1
strokes_ogs.tif
176
     1
290
     0
176
     1
 40
1.0
176
     1
 40
1.0
176
     1
  0
VISUALSTYLE
  5
39
102
{ACAD_REACTORS
330
29
102
}
330
29
100
AcDbVisualStyle
  2
ColorChange
 70
    16
177
     3
291
     1
 70
    58
 90
        2
176
     1
 90
        2
176
     1
 90
        3
176
     1
 90
        0
176
     1
 40
0.6
176
     1
 40
30.0
176
     1
 62
     8
420
  8421504
176
     1
 90
        1
176
     1
 90
        4
176
     1
 62
     7
176
     1
 62
   257
176
     1
 90
        1
176
     1
 90
        1
176
     1
 40
1.0
176
     1
 90
        8
176
     1
 62
     8
420
  8421504
176
     1
 40
1.0
176
     1
 90
        1
176
     1
 90
        6
176
     1
 90
        2
176
     1
 62
     7
176
     1
 90
        5
176
     1
 90
        0
176
     1
 90
        0
176
     1
290
     0
176
     1
 90
        1
176
     1
 40
0.0
176
     1
 90
        0
176
     1
290
     0
176
     1
290
     1
176
     1
290
     1
176
     1
290
     0
176
     1
290
     0
176
     1
290
     0
176
     1
290
     0
176
     1
290
     0
176
     1
290
     0
176
     1
 90
       50
176
     1
 40
0.0
176
     1
 40
1.0
176
     1
 90
        0
176
     1
 62
    18
420
        0
176
     1
 90
       50
176
     1
 90
        3
176
     1
 62
     5
420
      255
176
     1
290
     0
176
     1
 90
       50
176
     1
 90
       50
176
     1
 90
       50
176
     1
290
     0
176
     1
 90
       50
176
     1
 62
   256
176
     0
 40
1.0
176
     0
 90
        2
176
     1
  1
strokes_ogs.tif
176
     1
290
     0
176
     1
 40
1.0
176
     1
 40
1.0
176
     1
  0
VISUALSTYLE
  5
32
102
{ACAD_REACTORS
330
29
102
}
330
29
100
AcDbVisualStyle
  2
Conceptual
 70
     9
177
     3
291
     0
 70
    58
 90
        3
176
     1
 90
        2
176
     1
 90
        0
176
     1
 90
        0
176
     1
 40
0.6
176
     1
 40
30.0
176
     1
 62
     7
420
 16777215
176
     1
 90
        2
176
     1
 90
        2
176
     1
 62
     7
176
     1
 62
   257
176
     1
 90
        1
176
     1
 90
        1
176
     1
 40
179.0
176
     1
 90
        8
176
     1
 62
     7
176
     1
 40
1.0
176
     1
 90
        1
176
     1
 90
        6
176
     1
 90
        2
176
     1
 62
     7
176
     1
 90
        3
176
     1
 90
        0
176
     1
 90
        0
176
     1
290
     0
176
     1
 90
        1
176
     1
 40
0.0
176
     1
 90
        0
176
     1
290
     0
176
     1
290
     1
176
     1
290
     1
176
     1
290
     0
176
     1
290
     0
176
     1
290
     0
176
     1
290
     0
176
     1
290
     0
176
     1
290
     0
176
     1
 90
       50
176
     1
 40
0.0
176
     1
 40
1.0
176
     1
 90
        0
176
     1
 62
    18
420
        0
176
     1
 90
       50
176
     1
 90
        3
176
     1
 62
     5
420
      255
176
     1
290
     0
176
     1
 90
       50
176
     1
 90
       50
176
     1
 90
       50
176
     1
290
     0
176
     1
 90
       50
176
     1
 62
   256
176
     0
 40
1.0
176
     0
 90
        2
176
     1
  1
strokes_ogs.tif
176
     1
290
     0
176
     1
 40
1.0
176
     1
 40
1.0
176
     1
  0
VISUALSTYLE
  5
34
102
{ACAD_REACTORS
330
29
102
}
330
29
100
AcDbVisualStyle
  2
Dim
 70
    11
177
     3
291
     1
 70
    58
 90
        2
176
     1
 90
        2
176
     1
 90
        0
176
     1
 90
        0
176
     1
 40
0.6
176
     1
 40
30.0
176
     1
 62
     7
420
 16777215
176
     1
 90
        1
176
     1
 90
        4
176
     1
 62
     7
176
     1
 62
   257
176
     1
 90
        1
176
     1
 90
        1
176
     1
 40
1.0
176
     1
 90
        8
176
     1
 62
     7
176
     1
 40
1.0
176
     1
 90
        1
176
     1
 90
        6
176
     1
 90
        2
176
     1
 62
     7
176
     1
 90
        5
176
     1
 90
        0
176
     1
 90
        0
176
     1
290
     0
176
     1
 90
        1
176
     1
 40
-50.0
176
     1
 90
        0
176
     1
290
     0
176
     1
290
     1
176
     1
290
     1
176
     1
290
     0
176
     1
290
     0
176
     1
290
     0
176
     1
290
     0
176
     1
290
     0
176
     1
290
     0
176
     1
 90
       50
176
     1
 40
0.0
176
     1
 40
1.0
176
     1
 90
        0
176
     1
 62
    18
420
        0
176
     1
 90
       50
176
     1
 90
        3
176
     1
 62
     5
420
      255
176
     1
290
     0
176
     1
 90
       50
176
     1
 90
       50
176
     1
 90
       50
176
     1
290
     0
176
     1
 90
       50
176
     1
 62
   256
176
     0
 40
1.0
176
     0
 90
        2
176
     1
  1
strokes_ogs.tif
176
     1
290
     0
176
     1
 40
1.0
176
     1
 40
1.0
176
     1
  0
VISUALSTYLE
  5
41
102
{ACAD_REACTORS
330
29
102
}
330
29
100
AcDbVisualStyle
  2
EdgeColorOff
 70
    22
177
     3
291
     1
 70
    58
 90
        2
176
     0
 90
        2
176
     0
 90
        0
176
     0
 90
        0
176
     0
 40
0.6
176
     0
 40
30.0
176
     0
 62
     7
420
 16777215
176
     0
 90
        1
176
     0
 90
        4
176
     0
 62
     7
176
     0
 62
   257
176
     0
 90
        1
176
     0
 90
        1
176
     0
 40
1.0
176
     0
 90
        8
176
     2
 62
     7
176
     0
 40
1.0
176
     0
 90
        1
176
     0
 90
        6
176
     0
 90
        2
176
     0
 62
     7
176
     0
 90
        5
176
     0
 90
        0
176
     0
 90
        0
176
     0
290
     0
176
     0
 90
        1
176
     0
 40
0.0
176
     0
 90
        0
176
     0
290
     0
176
     0
290
     1
176
     0
290
     1
176
     0
290
     0
176
     0
290
     0
176
     0
290
     0
176
     0
290
     0
176
     0
290
     0
176
     0
290
     0
176
     0
 90
       50
176
     0
 40
0.0
176
     0
 40
1.0
176
     0
 90
        0
176
     0
 62
    18
420
        0
176
     0
 90
       50
176
     0
 90
        3
176
     0
 62
     5
420
      255
176
     0
290
     0
176
     0
 90
       50
176
     0
 90
       50
176
     0
 90
       50
176
     0
290
     0
176
     0
 90
       50
176
     0
 62
   256
176
     0
 40
1.0
176
     0
 90
        2
176
     0
  1
strokes_ogs.tif
176
     0
290
     0
176
     0
 40
1.0
176
     0
 40
1.0
176
     0
  0
VISUALSTYLE
  5
38
102
{ACAD_REACTORS
330
29
102
}
330
29
100
AcDbVisualStyle
  2
Facepattern
 70
    15
177
     3
291
     1
 70
    58
 90
        2
176
     1
 90
        2
176
     1
 90
        0
176
     1
 90
        0
176
     1
 40
0.6
176
     1
 40
30.0
176
     1
 62
     7
420
 16777215
176
     1
 90
        1
176
     1
 90
        4
176
     1
 62
     7
176
     1
 62
   257
176
     1
 90
        1
176
     1
 90
        1
176
     1
 40
1.0
176
     1
 90
        8
176
     1
 62
     7
176
     1
 40
1.0
176
     1
 90
        1
176
     1
 90
        6
176
     1
 90
        2
176
     1
 62
     7
176
     1
 90
        5
176
     1
 90
        0
176
     1
 90
        0
176
     1
290
     0
176
     1
 90
        1
176
     1
 40
0.0
176
     1
 90
        0
176
     1
290
     0
176
     1
290
     1
176
     1
290
     1
176
     1
290
     0
176
     1
290
     0
176
     1
290
     0
176
     1
290
     0
176
     1
290
     0
176
     1
290
     0
176
     1
 90
       50
176
     1
 40
0.0
176
     1
 40
1.0
176
     1
 90
        0
176
     1
 62
    18
420
        0
176
     1
 90
       50
176
     1
 90
        3
176
     1
 62
     5
420
      255
176
     1
290
     0
176
     1
 90
       50
176
     1
 90
       50
176
     1
 90
       50
176
     1
290
     0
176
     1
 90
       50
176
     1
 62
   256
176
     0
 40
1.0
176
     0
 90
        2
176
     1
  1
strokes_ogs.tif
176
     1
290
     0
176
     1
 40
1.0
176
     1
 40
1.0
176
     1
  0
VISUALSTYLE
  5
2A
102
{ACAD_REACTORS
330
29
102
}
330
29
100
AcDbVisualStyle
  2
Flat
 70
     0
177
     3
291
     1
 70
    58
 90
        2
176
     1
 90
        1
176
     1
 90
        1
176
     1
 90
        2
176
     1
 40
0.6
176
     1
 40
30.0
176
     1
 62
     7
420
 16777215
176
     1
 90
        0
176
     1
 90
        0
176
     1
 62
     7
176
     1
 62
   257
176
     1
 90
        1
176
     1
 90
        1
176
     1
 40
1.0
176
     1
 90
        8
176
     1
 62
     7
176
     1
 40
1.0
176
     1
 90
        1
176
     1
 90
        6
176
     1
 90
        2
176
     1
 62
     7
176
     1
 90
        5
176
     1
 90
        0
176
     1
 90
        0
176
     1
290
     0
176
     1
 90
       13
176
     1
 40
0.0
176
     1
 90
        0
176
     1
290
     0
176
     1
290
     1
176
     1
290
     1
176
     1
290
     0
176
     1
290
     0
176
     1
290
     0
176
     1
290
     0
176
     1
290
     0
176
     1
290
     0
176
     1
 90
       50
176
     1
 40
0.0
176
     1
 40
1.0
176
     1
 90
        0
176
     1
 62
    18
420
        0
176
     1
 90
       50
176
     1
 90
        3
176
     1
 62
     5
420
      255
176
     1
290
     0
176
     1
 90
       50
176
     1
 90
       50
176
     1
 90
       50
176
     1
290
     0
176
     1
 90
       50
176
     1
 62
   256
176
     0
 40
1.0
176
     0
 90
        2
176
     1
  1
strokes_ogs.tif
176
     1
290
     0
176
     1
 40
1.0
176
     1
 40
1.0
176
     1
  0
VISUALSTYLE
  5
2B
102
{ACAD_REACTORS
330
29
102
}
330
29
100
AcDbVisualStyle
  2
FlatWithEdges
 70
     1
177
     3
291
     1
 70
    58
 90
        2
176
     1
 90
        1
176
     1
 90
        1
176
     1
 90
        2
176
     1
 40
0.6
176
     1
 40
30.0
176
     1
 62
     7
420
 16777215
176
     1
 90
        1
176
     1
 90
        0
176
     1
 62
     7
176
     1
 62
   257
176
     1
 90
        1
176
     1
 90
        1
176
     1
 40
1.0
176
     1
 90
        0
176
     1
 62
   257
176
     1
 40
1.0
176
     1
 90
        1
176
     1
 90
        6
176
     1
 90
        2
176
     1
 62
     7
176
     1
 90
        5
176
     1
 90
        0
176
     1
 90
        0
176
     1
290
     0
176
     1
 90
       13
176
     1
 40
0.0
176
     1
 90
        0
176
     1
290
     0
176
     1
290
     1
176
     1
290
     1
176
     1
290
     0
176
     1
290
     0
176
     1
290
     0
176
     1
290
     0
176
     1
290
     0
176
     1
290
     0
176
     1
 90
       50
176
     1
 40
0.0
176
     1
 40
1.0
176
     1
 90
        0
176
     1
 62
    18
420
        0
176
     1
 90
       50
176
     1
 90
        3
176
     1
 62
     5
420
      255
176
     1
290
     0
176
     1
 90
       50
176
     1
 90
       50
176
     1
 90
       50
176
     1
290
     0
176
     1
 90
       50
176
     1
 62
   256
176
     0
 40
1.0
176
     0
 90
        2
176
     1
  1
strokes_ogs.tif
176
     1
290
     0
176
     1
 40
1.0
176
     1
 40
1.0
176
     1
  0
VISUALSTYLE
  5
2C
102
{ACAD_REACTORS
330
29
102
}
330
29
100
AcDbVisualStyle
  2
Gouraud
 70
     2
177
     3
291
     1
 70
    58
 90
        2
176
     1
 90
        2
176
     1
 90
        1
176
     1
 90
        2
176
     1
 40
0.6
176
     1
 40
30.0
176
     1
 62
     7
420
 16777215
176
     1
 90
        0
176
     1
 90
        0
176
     1
 62
     7
176
     1
 62
   257
176
     1
 90
        1
176
     1
 90
        1
176
     1
 40
1.0
176
     1
 90
        0
176
     1
 62
     7
176
     1
 40
1.0
176
     1
 90
        1
176
     1
 90
        6
176
     1
 90
        2
176
     1
 62
     7
176
     1
 90
        5
176
     1
 90
        0
176
     1
 90
        0
176
     1
290
     0
176
     1
 90
       13
176
     1
 40
0.0
176
     1
 90
        0
176
     1
290
     0
176
     1
290
     1
176
     1
290
     1
176
     1
290
     0
176
     1
290
     0
176
     1
290
     0
176
     1
290
     0
176
     1
290
     0
176
     1
290
     0
176
     1
 90
       50
176
     1
 40
0.0
176
     1
 40
1.0
176
     1
 90
        0
176
     1
 62
    18
420
        0
176
     1
 90
       50
176
     1
 90
        3
176
     1
 62
     5
420
      255
176
     1
290
     0
176
     1
 90
       50
176
     1
 90
       50
176
     1
 90
       50
176
     1
290
     0
176
     1
 90
       50
176
     1
 62
   256
176
     0
 40
1.0
176
     0
 90
        2
176
     1
  1
strokes_ogs.tif
176
     1
290
     0
176
     1
 40
1.0
176
     1
 40
1.0
176
     1
  0
VISUALSTYLE
  5
2D
102
{ACAD_REACTORS
330
29
102
}
330
29
100
AcDbVisualStyle
  2
GouraudWithEdges
 70
     3
177
     3
291
     1
 70
    58
 90
        2
176
     1
 90
        2
176
     1
 90
        1
176
     1
 90
        2
176
     1
 40
0.6
176
     1
 40
30.0
176
     1
 62
     7
420
 16777215
176
     1
 90
        1
176
     1
 90
        0
176
     1
 62
     7
176
     1
 62
   257
176
     1
 90
        1
176
     1
 90
        1
176
     1
 40
1.0
176
     1
 90
        0
176
     1
 62
   257
176
     1
 40
1.0
176
     1
 90
        1
176
     1
 90
        6
176
     1
 90
        2
176
     1
 62
     7
176
     1
 90
        5
176
     1
 90
        0
176
     1
 90
        0
176
     1
290
     0
176
     1
 90
       13
176
     1
 40
0.0
176
     1
 90
        0
176
     1
290
     0
176
     1
290
     1
176
     1
290
     1
176
     1
290
     0
176
     1
290
     0
176
     1
290
     0
176
     1
290
     0
176
     1
290
     0
176
     1
290
     0
176
     1
 90
       50
176
     1
 40
0.0
176
     1
 40
1.0
176
     1
 90
        0
176
     1
 62
    18
420
        0
176
     1
 90
       50
176
     1
 90
        3
176
     1
 62
     5
420
      255
176
     1
290
     0
176
     1
 90
       50
176
     1
 90
       50
176
     1
 90
       50
176
     1
290
     0
176
     1
 90
       50
176
     1
 62
   256
176
     0
 40
1.0
176
     0
 90
        2
176
     1
  1
strokes_ogs.tif
176
     1
290
     0
176
     1
 40
1.0
176
     1
 40
1.0
176
     1
  0
VISUALSTYLE
  5
31
102
{ACAD_REACTORS
330
29
102
}
330
29
100
AcDbVisualStyle
  2
Hidden
 70
     6
177
     3
291
     0
 70
    58
 90
        1
176
     1
 90
        2
176
     1
 90
        2
176
     1
 90
        0
176
     1
 40
0.6
176
     1
 40
30.0
176
     1
 62
     7
420
 16777215
176
     1
 90
        2
176
     1
 90
        2
176
     1
 62
     7
176
     1
 62
   257
176
     1
 90
        2
176
     1
 90
        1
176
     1
 40
40.0
176
     1
 90
        0
176
     1
 62
   257
176
     1
 40
1.0
176
     1
 90
        1
176
     1
 90
        6
176
     1
 90
        2
176
     1
 62
     7
176
     1
 90
        3
176
     1
 90
        0
176
     1
 90
        0
176
     1
290
     0
176
     1
 90
        1
176
     1
 40
0.0
176
     1
 90
        0
176
     1
290
     0
176
     1
290
     1
176
     1
290
     1
176
     1
290
     0
176
     1
290
     0
176
     1
290
     0
176
     1
290
     0
176
     1
290
     0
176
     1
290
     0
176
     1
 90
       50
176
     1
 40
0.0
176
     1
 40
1.0
176
     1
 90
        0
176
     1
 62
    18
420
        0
176
     1
 90
       50
176
     1
 90
        3
176
     1
 62
     5
420
      255
176
     1
290
     0
176
     1
 90
       50
176
     1
 90
       50
176
     1
 90
       50
176
     1
290
     0
176
     1
 90
       50
176
     1
 62
   256
176
     0
 40
1.0
176
     0
 90
        2
176
     1
  1
strokes_ogs.tif
176
     1
290
     0
176
     1
 40
1.0
176
     1
 40
1.0
176
     1
  0
VISUALSTYLE
  5
3F
102
{ACAD_REACTORS
330
29
102
}
330
29
100
AcDbVisualStyle
  2
JitterOff
 70
    20
177
     3
291
     1
 70
    58
 90
        2
176
     0
 90
        2
176
     0
 90
        0
176
     0
 90
        0
176
     0
 40
0.6
176
     0
 40
30.0
176
     0
 62
     7
420
 16777215
176
     0
 90
        1
176
     0
 90
        4
176
     0
 62
     7
176
     0
 62
   257
176
     0
 90
        1
176
     0
 90
        1
176
     0
 40
1.0
176
     0
 90
       10
176
     2
 62
     7
176
     0
 40
1.0
176
     0
 90
        1
176
     0
 90
        6
176
     0
 90
        2
176
     0
 62
     7
176
     0
 90
        5
176
     0
 90
        0
176
     0
 90
        0
176
     0
290
     0
176
     0
 90
        1
176
     0
 40
0.0
176
     0
 90
        0
176
     0
290
     0
176
     0
290
     1
176
     0
290
     1
176
     0
290
     0
176
     0
290
     0
176
     0
290
     0
176
     0
290
     0
176
     0
290
     0
176
     0
290
     0
176
     0
 90
       50
176
     0
 40
0.0
176
     0
 40
1.0
176
     0
 90
        0
176
     0
 62
    18
420
        0
176
     0
 90
       50
176
     0
 90
        3
176
     0
 62
     5
420
      255
176
     0
290
     0
176
     0
 90
       50
176
     0
 90
       50
176
     0
 90
       50
176
     0
290
     0
176
     0
 90
       50
176
     0
 62
   256
176
     0
 40
1.0
176
     0
 90
        2
176
     0
  1
strokes_ogs.tif
176
     0
290
     0
176
     0
 40
1.0
176
     0
 40
1.0
176
     0
  0
VISUALSTYLE
  5
37
102
{ACAD_REACTORS
330
29
102
}
330
29
100
AcDbVisualStyle
  2
Linepattern
 70
    14
177
     3
291
     1
 70
    58
 90
        2
176
     1
 90
        2
176
     1
 90
        0
176
     1
 90
        0
176
     1
 40
0.6
176
     1
 40
30.0
176
     1
 62
     7
420
 16777215
176
     1
 90
        1
176
     1
 90
        4
176
     1
 62
     7
176
     1
 62
   257
176
     1
 90
        7
176
     1
 90
        7
176
     1
 40
1.0
176
     1
 90
        8
176
     1
 62
     7
176
     1
 40
1.0
176
     1
 90
        1
176
     1
 90
        6
176
     1
 90
        2
176
     1
 62
     7
176
     1
 90
        5
176
     1
 90
        0
176
     1
 90
        0
176
     1
290
     0
176
     1
 90
        1
176
     1
 40
0.0
176
     1
 90
        0
176
     1
290
     0
176
     1
290
     1
176
     1
290
     1
176
     1
290
     0
176
     1
290
     0
176
     1
290
     0
176
     1
290
     0
176
     1
290
     0
176
     1
290
     0
176
     1
 90
       50
176
     1
 40
0.0
176
     1
 40
1.0
176
     1
 90
        0
176
     1
 62
    18
420
        0
176
     1
 90
       50
176
     1
 90
        3
176
     1
 62
     5
420
      255
176
     1
290
     0
176
     1
 90
       50
176
     1
 90
       50
176
     1
 90
       50
176
     1
290
     0
176
     1
 90
       50
176
     1
 62
   256
176
     0
 40
1.0
176
     0
 90
        2
176
     1
  1
strokes_ogs.tif
176
     1
290
     0
176
     1
 40
1.0
176
     1
 40
1.0
176
     1
  0
VISUALSTYLE
  5
40
102
{ACAD_REACTORS
330
29
102
}
330
29
100
AcDbVisualStyle
  2
OverhangOff
 70
    21
177
     3
291
     1
 70
    58
 90
        2
176
     0
 90
        2
176
     0
 90
        0
176
     0
 90
        0
176
     0
 40
0.6
176
     0
 40
30.0
176
     0
 62
     7
420
 16777215
176
     0
 90
        1
176
     0
 90
        4
176
     0
 62
     7
176
     0
 62
   257
176
     0
 90
        1
176
     0
 90
        1
176
     0
 40
1.0
176
     0
 90
        9
176
     2
 62
     7
176
     0
 40
1.0
176
     0
 90
        1
176
     0
 90
        6
176
     0
 90
        2
176
     0
 62
     7
176
     0
 90
        5
176
     0
 90
        0
176
     0
 90
        0
176
     0
290
     0
176
     0
 90
        1
176
     0
 40
0.0
176
     0
 90
        0
176
     0
290
     0
176
     0
290
     1
176
     0
290
     1
176
     0
290
     0
176
     0
290
     0
176
     0
290
     0
176
     0
290
     0
176
     0
290
     0
176
     0
290
     0
176
     0
 90
       50
176
     0
 40
0.0
176
     0
 40
1.0
176
     0
 90
        0
176
     0
 62
    18
420
        0
176
     0
 90
       50
176
     0
 90
        3
176
     0
 62
     5
420
      255
176
     0
290
     0
176
     0
 90
       50
176
     0
 90
       50
176
     0
 90
       50
176
     0
290
     0
176
     0
 90
       50
176
     0
 62
   256
176
     0
 40
1.0
176
     0
 90
        2
176
     0
  1
strokes_ogs.tif
176
     0
290
     0
176
     0
 40
1.0
176
     0
 40
1.0
176
     0
  0
VISUALSTYLE
  5
33
102
{ACAD_REACTORS
330
29
102
}
330
29
100
AcDbVisualStyle
  2
Realistic
 70
     8
177
     3
291
     0
 70
    58
 90
        2
176
     1
 90
        3
176
     1
 90
        0
176
     1
 90
        2
176
     1
 40
0.6
176
     1
 40
30.0
176
     1
 62
     7
420
 16777215
176
     1
 90
        0
176
     1
 90
        0
176
     1
 62
     7
176
     1
 62
   257
176
     1
 90
        1
176
     1
 90
        1
176
     1
 40
1.0
176
     1
 90
        8
176
     1
 62
   257
176
     1
 40
1.0
176
     1
 90
        1
176
     1
 90
        6
176
     1
 90
        2
176
     1
 62
     7
176
     1
 90
        3
176
     1
 90
        0
176
     1
 90
        0
176
     1
290
     0
176
     1
 90
       13
176
     1
 40
0.0
176
     1
 90
        0
176
     1
290
     0
176
     1
290
     1
176
     1
290
     1
176
     1
290
     0
176
     1
290
     0
176
     1
290
     0
176
     1
290
     0
176
     1
290
     0
176
     1
290
     0
176
     1
 90
       50
176
     1
 40
0.0
176
     1
 40
1.0
176
     1
 90
        0
176
     1
 62
    18
420
        0
176
     1
 90
       50
176
     1
 90
        3
176
     1
 62
     5
420
      255
176
     1
290
     0
176
     1
 90
       50
176
     1
 90
       50
176
     1
 90
       50
176
     1
290
     0
176
     1
 90
       50
176
     1
 62
   256
176
     0
 40
1.0
176
     0
 90
        2
176
     1
  1
strokes_ogs.tif
176
     1
290
     0
176
     1
 40
1.0
176
     1
 40
1.0
176
     1
  0
VISUALSTYLE
  5
3E
102
{ACAD_REACTORS
330
29
102
}
330
29
100
AcDbVisualStyle
  2
Shaded
 70
    27
177
     3
291
     0
 70
    58
 90
        2
176
     1
 90
        2
176
     1
 90
        1
176
     1
 90
        2
176
     1
 40
0.6
176
     1
 40
30.0
176
     1
 62
     7
420
 16777215
176
     1
 90
        0
176
     1
 90
        4
176
     1
 62
     7
176
     1
 62
   257
176
     1
 90
        1
176
     1
 90
        1
176
     1
 40
1.0
176
     1
 90
        8
176
     1
 62
   257
176
     1
 40
1.0
176
     1
 90
        1
176
     1
 90
        6
176
     1
 90
        2
176
     1
 62
     8
420
  7895160
176
     1
 90
        3
176
     1
 90
        0
176
     1
 90
        0
176
     1
290
     0
176
     1
 90
        5
176
     1
 40
0.0
176
     1
 90
        0
176
     1
290
     0
176
     1
290
     1
176
     1
290
     1
176
     1
290
     0
176
     1
290
     0
176
     1
290
     0
176
     1
290
     0
176
     1
290
     0
176
     1
290
     0
176
     1
 90
       50
176
     1
 40
0.0
176
     1
 40
1.0
176
     1
 90
        0
176
     1
 62
    18
420
        0
176
     1
 90
       50
176
     1
 90
        3
176
     1
 62
     5
420
      255
176
     1
290
     0
176
     1
 90
       50
176
     1
 90
       50
176
     1
 90
       50
176
     1
290
     0
176
     1
 90
       50
176
     1
 62
   256
176
     0
 40
1.0
176
     0
 90
        2
176
     1
  1
strokes_ogs.tif
176
     1
290
     0
176
     1
 40
1.0
176
     1
 40
1.0
176
     1
  0
VISUALSTYLE
  5
3D
102
{ACAD_REACTORS
330
29
102
}
330
29
100
AcDbVisualStyle
  2
Shaded with edges
 70
    26
177
     3
291
     0
 70
    58
 90
        2
176
     1
 90
        2
176
     1
 90
        1
176
     1
 90
        2
176
     1
 40
0.6
176
     1
 40
30.0
176
     1
 62
     7
420
 16777215
176
     1
 90
        1
176
     1
 90
       10
176
     1
 62
     7
176
     1
 62
   257
176
     1
 90
        2
176
     1
 90
        1
176
     1
 40
1.0
176
     1
 90
        8
176
     1
 62
   257
176
     1
 40
1.0
176
     1
 90
        1
176
     1
 90
        6
176
     1
 90
        2
176
     1
 62
     7
176
     1
 90
        3
176
     1
 90
        0
176
     1
 90
        0
176
     1
290
     0
176
     1
 90
        5
176
     1
 40
0.0
176
     1
 90
        0
176
     1
290
     0
176
     1
290
     1
176
     1
290
     1
176
     1
290
     0
176
     1
290
     0
176
     1
290
     0
176
     1
290
     0
176
     1
290
     0
176
     1
290
     0
176
     1
 90
       50
176
     1
 40
0.0
176
     1
 40
1.0
176
     1
 90
        0
176
     1
 62
    18
420
        0
176
     1
 90
       50
176
     1
 90
        3
176
     1
 62
     5
420
      255
176
     1
290
     0
176
     1
 90
       50
176
     1
 90
       50
176
     1
 90
       50
176
     1
290
     0
176
     1
 90
       50
176
     1
 62
   256
176
     0
 40
1.0
176
     0
 90
        2
176
     1
  1
strokes_ogs.tif
176
     1
290
     0
176
     1
 40
1.0
176
     1
 40
1.0
176
     1
  0
VISUALSTYLE
  5
3A
102
{ACAD_REACTORS
330
29
102
}
330
29
100
AcDbVisualStyle
  2
Shades of Gray
 70
    23
177
     3
291
     0
 70
    58
 90
        2
176
     1
 90
        2
176
     1
 90
        3
176
     1
 90
        0
176
     1
 40
0.6
176
     1
 40
30.0
176
     1
 62
     7
420
 16777215
176
     1
 90
        2
176
     1
 90
        2
176
     1
 62
     7
176
     1
 62
     7
176
     1
 90
        1
176
     1
 90
        1
176
     1
 40
40.0
176
     1
 90
        8
176
     1
 62
     7
176
     1
 40
1.0
176
     1
 90
        1
176
     1
 90
        6
176
     1
 90
        2
176
     1
 62
     7
176
     1
 90
        3
176
     1
 90
        0
176
     1
 90
        0
176
     1
290
     0
176
     1
 90
        1
176
     1
 40
0.0
176
     1
 90
        0
176
     1
290
     0
176
     1
290
     1
176
     1
290
     1
176
     1
290
     0
176
     1
290
     0
176
     1
290
     0
176
     1
290
     0
176
     1
290
     0
176
     1
290
     0
176
     1
 90
       50
176
     1
 40
0.0
176
     1
 40
1.0
176
     1
 90
        0
176
     1
 62
    18
420
        0
176
     1
 90
       50
176
     1
 90
        3
176
     1
 62
     5
420
      255
176
     1
290
     0
176
     1
 90
       50
176
     1
 90
       50
176
     1
 90
       50
176
     1
290
     0
176
     1
 90
       50
176
     1
 62
   256
176
     0
 40
1.0
176
     0
 90
        2
176
     1
  1
strokes_ogs.tif
176
     1
290
     0
176
     1
 40
1.0
176
     1
 40
1.0
176
     1
  0
VISUALSTYLE
  5
3B
102
{ACAD_REACTORS
330
29
102
}
330
29
100
AcDbVisualStyle
  2
Sketchy
 70
    24
177
     3
291
     0
 70
    58
 90
        1
176
     1
 90
        2
176
     1
 90
        2
176
     1
 90
        0
176
     1
 40
0.6
176
     1
 40
30.0
176
     1
 62
     7
420
 16777215
176
     1
 90
        2
176
     1
 90
        2
176
     1
 62
     7
176
     1
 62
     7
176
     1
 90
        1
176
     1
 90
        1
176
     1
 40
40.0
176
     1
 90
       11
176
     1
 62
     7
176
     1
 40
1.0
176
     1
 90
        1
176
     1
 90
        6
176
     1
 90
        2
176
     1
 62
     7
176
     1
 90
        6
176
     1
 90
        0
176
     1
 90
        0
176
     1
290
     0
176
     1
 90
        1
176
     1
 40
0.0
176
     1
 90
        0
176
     1
290
     0
176
     1
290
     1
176
     1
290
     1
176
     1
290
     0
176
     1
290
     0
176
     1
290
     0
176
     1
290
     0
176
     1
290
     0
176
     1
290
     0
176
     1
 90
       50
176
     1
 40
0.0
176
     1
 40
1.0
176
     1
 90
        0
176
     1
 62
    18
420
        0
176
     1
 90
       50
176
     1
 90
        3
176
     1
 62
     5
420
      255
176
     1
290
     0
176
     1
 90
       50
176
     1
 90
       50
176
     1
 90
       50
176
     1
290
     0
176
     1
 90
       50
176
     1
 62
   256
176
     0
 40
1.0
176
     0
 90
        2
176
     1
  1
strokes_ogs.tif
176
     1
290
     0
176
     1
 40
1.0
176
     1
 40
1.0
176
     1
  0
VISUALSTYLE
  5
36
102
{ACAD_REACTORS
330
29
102
}
330
29
100
AcDbVisualStyle
  2
Thicken
 70
    13
177
     3
291
     1
 70
    58
 90
        2
176
     1
 90
        2
176
     1
 90
        0
176
     1
 90
        0
176
     1
 40
0.6
176
     1
 40
30.0
176
     1
 62
     7
420
 16777215
176
     1
 90
        1
176
     1
 90
        4
176
     1
 62
     7
176
     1
 62
   257
176
     1
 90
        1
176
     1
 90
        1
176
     1
 40
1.0
176
     1
 90
       12
176
     1
 62
     7
176
     1
 40
1.0
176
     1
 90
        1
176
     1
 90
        6
176
     1
 90
        2
176
     1
 62
     7
176
     1
 90
        5
176
     1
 90
        0
176
     1
 90
        0
176
     1
290
     0
176
     1
 90
        1
176
     1
 40
0.0
176
     1
 90
        0
176
     1
290
     0
176
     1
290
     1
176
     1
290
     1
176
     1
290
     0
176
     1
290
     0
176
     1
290
     0
176
     1
290
     0
176
     1
290
     0
176
     1
290
     0
176
     1
 90
       50
176
     1
 40
0.0
176
     1
 40
1.0
176
     1
 90
        0
176
     1
 62
    18
420
        0
176
     1
 90
       50
176
     1
 90
        3
176
     1
 62
     5
420
      255
176
     1
290
     0
176
     1
 90
       50
176
     1
 90
       50
176
     1
 90
       50
176
     1
290
     0
176
     1
 90
       50
176
     1
 62
   256
176
     0
 40
1.0
176
     0
 90
        2
176
     1
  1
strokes_ogs.tif
176
     1
290
     0
176
     1
 40
1.0
176
     1
 40
1.0
176
     1
  0
VISUALSTYLE
  5
30
102
{ACAD_REACTORS
330
29
102
}
330
29
100
AcDbVisualStyle
  2
Wireframe
 70
     5
177
     3
291
     0
 70
    58
 90
        0
176
     1
 90
        2
176
     1
 90
        0
176
     1
 90
        0
176
     1
 40
0.6
176
     1
 40
30.0
176
     1
 62
     7
420
 16777215
176
     1
 90
        1
176
     1
 90
        4
176
     1
 62
     7
176
     1
 62
   257
176
     1
 90
        1
176
     1
 90
        1
176
     1
 40
1.0
176
     1
 90
        0
176
     1
 62
   257
176
     1
 40
1.0
176
     1
 90
        1
176
     1
 90
        6
176
     1
 90
        2
176
     1
 62
     7
176
     1
 90
        3
176
     1
 90
        0
176
     1
 90
        0
176
     1
290
     0
176
     1
 90
        1
176
     1
 40
0.0
176
     1
 90
        0
176
     1
290
     0
176
     1
290
     1
176
     1
290
     1
176
     1
290
     0
176
     1
290
     0
176
     1
290
     0
176
     1
290
     0
176
     1
290
     0
176
     1
290
     0
176
     1
 90
       50
176
     1
 40
0.0
176
     1
 40
1.0
176
     1
 90
        0
176
     1
 62
    18
420
        0
176
     1
 90
       50
176
     1
 90
        3
176
     1
 62
     5
420
      255
176
     1
290
     0
176
     1
 90
       50
176
     1
 90
       50
176
     1
 90
       50
176
     1
290
     0
176
     1
 90
       50
176
     1
 62
   256
176
     0
 40
1.0
176
     0
 90
        2
176
     1
  1
strokes_ogs.tif
176
     1
290
     0
176
     1
 40
1.0
176
     1
 40
1.0
176
     1
  0
VISUALSTYLE
  5
3C
102
{ACAD_REACTORS
330
29
102
}
330
29
100
AcDbVisualStyle
  2
X-Ray
 70
    25
177
     3
291
     0
 70
    58
 90
        2
176
     1
 90
        2
176
     1
 90
        1
176
     1
 90
        1
176
     1
 40
0.5
176
     1
 40
30.0
176
     1
 62
     7
420
 16777215
176
     1
 90
        1
176
     1
 90
        0
176
     1
 62
     7
176
     1
 62
   257
176
     1
 90
        1
176
     1
 90
        1
176
     1
 40
1.0
176
     1
 90
        8
176
     1
 62
     7
176
     1
 40
1.0
176
     1
 90
        1
176
     1
 90
        6
176
     1
 90
        2
176
     1
 62
     7
176
     1
 90
        3
176
     1
 90
        0
176
     1
 90
        0
176
     1
290
     0
176
     1
 90
       13
176
     1
 40
0.0
176
     1
 90
        0
176
     1
290
     0
176
     1
290
     1
176
     1
290
     1
176
     1
290
     0
176
     1
290
     0
176
     1
290
     0
176
     1
290
     0
176
     1
290
     0
176
     1
290
     0
176
     1
 90
       50
176
     1
 40
0.0
176
     1
 40
1.0
176
     1
 90
        0
176
     1
 62
    18
420
        0
176
     1
 90
       50
176
     1
 90
        3
176
     1
 62
     5
420
      255
176
     1
290
     0
176
     1
 90
       50
176
     1
 90
       50
176
     1
 90
       50
176
     1
290
     0
176
     1
 90
       50
176
     1
 62
   256
176
     0
 40
1.0
176
     0
 90
        2
176
     1
  1
strokes_ogs.tif
176
     1
290
     0
176
     1
 40
1.0
176
     1
 40
1.0
176
     1
  0
DICTIONARYVAR
  5
14D
102
{ACAD_REACTORS
330
148
102
}
330
148
100
DictionaryVariables
280
     0
  1
1:1
  0
DICTIONARYVAR
  5
14A
102
{ACAD_REACTORS
330
148
102
}
330
148
100
DictionaryVariables
280
     0
  1
STANDARD
  0
DICTIONARYVAR
  5
149
102
{ACAD_REACTORS
330
148
102
}
330
148
100
DictionaryVariables
280
     0
  1
STANDARD
  0
DICTIONARYVAR
  5
14B
102
{ACAD_REACTORS
330
148
102
}
330
148
100
DictionaryVariables
280
     0
  1
Imperial24
  0
DICTIONARYVAR
  5
14C
102
{ACAD_REACTORS
330
148
102
}
330
148
100
DictionaryVariables
280
     0
  1
Imperial24
  0
XRECORD
  5
140
102
{ACAD_REACTORS
330
13D
102
}
330
13D
100
AcDbXrecord
280
     1
  1
BUILDING_ID
  1
Pressure_Balance_Rough_Valve-GROHE-35112000
  1
FLOOR_ID
  1
1884
  0
XRECORD
  5
13E
102
{ACAD_REACTORS
330
13D
102
}
330
13D
100
AcDbXrecord
280
     1
  1
-2000051
  1
Lines
  0
XRECORD
  5
13F
102
{ACAD_REACTORS
330
13D
102
}
330
13D
100
AcDbXrecord
280
     1
  1
-2000287
  1
<Beyond>
  0
DICTIONARY
  5
145
330
6B
100
AcDbDictionary
280
     1
281
     1
  3
ACAD_XREC_ROUNDTRIP
360
4AE
  0
DICTIONARY
  5
1A
330
19
100
AcDbDictionary
280
     1
281
     1
  3
BUMPTILE
360
1C
  3
DIFFUSETILE
360
1B
  3
OPACITYTILE
360
1F
  3
REFLECTIONTILE
360
1E
  3
REFRACTIONTILE
360
20
  3
SPECULARTILE
360
1D
  0
DICTIONARY
  5
12
330
11
100
AcDbDictionary
280
     1
281
     1
  3
BUMPTILE
360
14
  3
DIFFUSETILE
360
13
  3
OPACITYTILE
360
17
  3
REFLECTIONTILE
360
16
  3
REFRACTIONTILE
360
18
  3
SPECULARTILE
360
15
  0
DICTIONARY
  5
22
330
21
100
AcDbDictionary
280
     1
281
     1
  3
BUMPTILE
360
24
  3
DIFFUSETILE
360
23
  3
OPACITYTILE
360
27
  3
REFLECTIONTILE
360
26
  3
REFRACTIONTILE
360
28
  3
SPECULARTILE
360
25
  0
DICTIONARY
  5
143
330
69
100
AcDbDictionary
280
     1
281
     1
  3
ACAD_XREC_ROUNDTRIP
360
4AD
  0
DICTIONARY
  5
4AB
330
65
100
AcDbDictionary
280
     1
281
     1
  3
ACAD_ROUNDTRIP_2008_TABLESTYLE_CELLSTYLEMAP
360
4AC
  0
XRECORD
  5
4AE
102
{ACAD_REACTORS
330
145
102
}
330
145
100
AcDbXrecord
280
     1
102
DISPLAYNAME
  1
Imperial24
102
FLAGS
 90
        0
  0
XRECORD
  5
1C
102
{ACAD_REACTORS
330
1A
102
}
330
1A
100
AcDbXrecord
280
     1
270
     1
271
     1
  0
XRECORD
  5
1B
102
{ACAD_REACTORS
330
1A
102
}
330
1A
100
AcDbXrecord
280
     1
270
     1
271
     1
  0
XRECORD
  5
1F
102
{ACAD_REACTORS
330
1A
102
}
330
1A
100
AcDbXrecord
280
     1
270
     1
271
     1
  0
XRECORD
  5
1E
102
{ACAD_REACTORS
330
1A
102
}
330
1A
100
AcDbXrecord
280
     1
270
     1
271
     1
  0
XRECORD
  5
20
102
{ACAD_REACTORS
330
1A
102
}
330
1A
100
AcDbXrecord
280
     1
270
     1
271
     1
  0
XRECORD
  5
1D
102
{ACAD_REACTORS
330
1A
102
}
330
1A
100
AcDbXrecord
280
     1
270
     1
271
     1
  0
XRECORD
  5
14
102
{ACAD_REACTORS
330
12
102
}
330
12
100
AcDbXrecord
280
     1
270
     1
271
     1
  0
XRECORD
  5
13
102
{ACAD_REACTORS
330
12
102
}
330
12
100
AcDbXrecord
280
     1
270
     1
271
     1
  0
XRECORD
  5
17
102
{ACAD_REACTORS
330
12
102
}
330
12
100
AcDbXrecord
280
     1
270
     1
271
     1
  0
XRECORD
  5
16
102
{ACAD_REACTORS
330
12
102
}
330
12
100
AcDbXrecord
280
     1
270
     1
271
     1
  0
XRECORD
  5
18
102
{ACAD_REACTORS
330
12
102
}
330
12
100
AcDbXrecord
280
     1
270
     1
271
     1
  0
XRECORD
  5
15
102
{ACAD_REACTORS
330
12
102
}
330
12
100
AcDbXrecord
280
     1
270
     1
271
     1
  0
XRECORD
  5
24
102
{ACAD_REACTORS
330
22
102
}
330
22
100
AcDbXrecord
280
     1
270
     1
271
     1
  0
XRECORD
  5
23
102
{ACAD_REACTORS
330
22
102
}
330
22
100
AcDbXrecord
280
     1
270
     1
271
     1
  0
XRECORD
  5
27
102
{ACAD_REACTORS
330
22
102
}
330
22
100
AcDbXrecord
280
     1
270
     1
271
     1
  0
XRECORD
  5
26
102
{ACAD_REACTORS
330
22
102
}
330
22
100
AcDbXrecord
280
     1
270
     1
271
     1
  0
XRECORD
  5
28
102
{ACAD_REACTORS
330
22
102
}
330
22
100
AcDbXrecord
280
     1
270
     1
271
     1
  0
XRECORD
  5
25
102
{ACAD_REACTORS
330
22
102
}
330
22
100
AcDbXrecord
280
     1
270
     1
271
     1
  0
XRECORD
  5
4AD
102
{ACAD_REACTORS
330
143
102
}
330
143
100
AcDbXrecord
280
     1
102
DISPLAYNAME
  1
Imperial24
102
FLAGS
 90
        0
  0
CELLSTYLEMAP
  5
4AC
102
{ACAD_REACTORS
330
4AB
102
}
330
4AB
100
AcDbCellStyleMap
 90
        3
300
CELLSTYLE
  1
TABLEFORMAT_BEGIN
 90
        5
170
     1
 91
        0
 92
    32768
 62
   257
 93
        1
300
CONTENTFORMAT
  1
CONTENTFORMAT_BEGIN
 90
        0
 91
        0
 92
      512
 93
        0
300

 40
0.0
140
1.0
 94
        5
 62
     0
340
55
144
0.25
309
CONTENTFORMAT_END
171
     0
 94
        0
309
TABLEFORMAT_END
  1
CELLSTYLE_BEGIN
 90
        1
 91
        1
300
_TITLE
309
CELLSTYLE_END
300
CELLSTYLE
  1
TABLEFORMAT_BEGIN
 90
        5
170
     1
 91
        0
 92
        0
 62
   257
 93
        1
300
CONTENTFORMAT
  1
CONTENTFORMAT_BEGIN
 90
        0
 91
        0
 92
      512
 93
        0
300

 40
0.0
140
1.0
 94
        5
 62
     0
340
55
144
0.18
309
CONTENTFORMAT_END
171
     0
 94
        0
309
TABLEFORMAT_END
  1
CELLSTYLE_BEGIN
 90
        2
 91
        1
300
_HEADER
309
CELLSTYLE_END
300
CELLSTYLE
  1
TABLEFORMAT_BEGIN
 90
        5
170
     1
 91
        0
 92
        0
 62
   257
 93
        1
300
CONTENTFORMAT
  1
CONTENTFORMAT_BEGIN
 90
        0
 91
        0
 92
      512
 93
        0
300

 40
0.0
140
1.0
 94
        2
 62
     0
340
55
144
0.18
309
CONTENTFORMAT_END
171
     0
 94
        0
309
TABLEFORMAT_END
  1
CELLSTYLE_BEGIN
 90
        3
 91
        2
300
_DATA
309
CELLSTYLE_END
  0
ENDSEC
  0
SECTION
  2
ACDSDATA
 70
     2
 71
     8
  0
ACDSSCHEMA
 90
        0
  1
AcDb_Thumbnail_Schema
  2
AcDbDs::ID
280
    10
 91
        8
  2
Thumbnail_Data
280
    15
 91
        0
101
ACDSRECORD
 95
        0
 90
        1
  2
AcDbDs::TreatedAsObjectData
280
     1
291
     1
101
ACDSRECORD
 95
        0
 90
        2
  2
AcDbDs::Legacy
280
     1
291
     1
101
ACDSRECORD
  1
AcDbDs::ID
 90
        3
  2
AcDs:Indexable
280
     1
291
     1
101
ACDSRECORD
  1
AcDbDs::ID
 90
        4
  2
AcDbDs::HandleAttribute
280
     7
282
     1
  0
ACDSSCHEMA
 90
        1
  1
AcDbDs::TreatedAsObjectDataSchema
  2
AcDbDs::TreatedAsObjectData
280
     1
 91
        0
  0
ACDSSCHEMA
 90
        2
  1
AcDbDs::LegacySchema
  2
AcDbDs::Legacy
280
     1
 91
        0
  0
ACDSSCHEMA
 90
        3
  1
AcDbDs::IndexedPropertySchema
  2
AcDs:Indexable
280
     1
 91
        0
  0
ACDSSCHEMA
 90
        4
  1
AcDbDs::HandleAttributeSchema
  2
AcDbDs::HandleAttribute
280
     7
 91
        1
284
     1
  0
ACDSRECORD
 90
        0
  2
AcDbDs::ID
280
    10
320
73
  2
Thumbnail_Data
280
    15
 94
     1310
310
89504E470D0A1A0A0000000D49484452000001000000007E0803000000FCF33F5100000300504C5445212830000000C8C8C80000000000000000000000000000000000000000000000000000330000660000990000CC0000FF0033000033330033660033990033CC0033FF0066000066330066660066990066CC0066FF0099
310
000099330099660099990099CC0099FF00CC0000CC3300CC6600CC9900CCCC00CCFF00FF0000FF3300FF6600FF9900FFCC00FFFF3300003300333300663300993300CC3300FF3333003333333333663333993333CC3333FF3366003366333366663366993366CC3366FF3399003399333399663399993399CC3399FF33CC00
310
33CC3333CC6633CC9933CCCC33CCFF33FF0033FF3333FF6633FF9933FFCC33FFFF6600006600336600666600996600CC6600FF6633006633336633666633996633CC6633FF6666006666336666666666996666CC6666FF6699006699336699666699996699CC6699FF66CC0066CC3366CC6666CC9966CCCC66CCFF66FF0066
310
FF3366FF6666FF9966FFCC66FFFF9900009900339900669900999900CC9900FF9933009933339933669933999933CC9933FF9966009966339966669966999966CC9966FF9999009999339999669999999999CC9999FF99CC0099CC3399CC6699CC9999CCCC99CCFF99FF0099FF3399FF6699FF9999FFCC99FFFFCC0000CC00
310
33CC0066CC0099CC00CCCC00FFCC3300CC3333CC3366CC3399CC33CCCC33FFCC6600CC6633CC6666CC6699CC66CCCC66FFCC9900CC9933CC9966CC9999CC99CCCC99FFCCCC00CCCC33CCCC66CCCC99CCCCCCCCCCFFCCFF00CCFF33CCFF66CCFF99CCFFCCCCFFFFFF0000FF0033FF0066FF0099FF00CCFF00FFFF3300FF3333
310
FF3366FF3399FF33CCFF33FFFF6600FF6633FF6666FF6699FF66CCFF66FFFF9900FF9933FF9966FF9999FF99CCFF99FFFFCC00FFCC33FFCC66FFCC99FFCCCCFFCCFFFFFF00FFFF33FFFF66FFFF99FFFFCCFFFFFF0000000D0D0D1A1A1A2828283535354343435050505D5D5D6B6B6B787878868686939393A1A1A1AEAEAEBB
310
BBBBC9C9C9D6D6D6E4E4E4F1F1F1FFFFFF000000000000000000000000000000000000000000000000000000000000B21171F6000001D94944415478DAED9BD98E85201005F9FFFF3DEF938CC826E2C22463D3552F7A171329B606DB1000000000000000000000E0BFD08ED7E2F74E3D16DFA1029DE047C0A3AF118080C5BA
310
FF600C587D20380C779D0F4B2B50735297582BF784A66ED56B106D4B58ACEE7FBB782540A702E2DF3D08C807BF02022DC0B3003F6380F759C07D1C40247863D9E3694F040108F02EC0F7962000000000000078C6FD3AD8FD4E0002DC0B688E466BF1FD454701061BC39B3B4ECFC59D0BE8EC075B113099EAAAADD2D353E1E2
310
F1A091F16032D151295F20E707BA135094BAF8E043C0D6FCABD123668FC8CA9C382D406D556F5FD811303508AAD7D4A5A21518287F65E2F61C369225138BC361CD2B5C156034DB1D7385BE2A209C19501CDE756E2E464EDDC13E5EFEED2CB1EDBE54E4F9A5C385809827584FFBDD3EF0E93CC1838050BCE5705BC0E8758978
310
8600435DE095804117B023203C1D04D3EFDDFFEC7E82450197AF3D29E86AD197A7C18FCF0245DAF7D380701432957A88046DAE8674F7CA5E47518C90AC6C844D0A086D30B44F286E04D406729CBCBE807DD95F0C1F69EA33F48060623B40C50B3339FA57B025603A94682CD63F20607501C7FD114F02BA1B444EE1F1380210
310
C0DB4200000000000000000000000000007FCF0F26ECB42F117955740000000049454E44AE426082
  0
ENDSEC
  0
EOF
