  0
SECTION
  2
HEADER
  9
$ACADVER
  1
AC1015
  9
$ACADMAINTVER
 70
     6
  9
$DWGCODEPAGE
  3
ANSI_1252
  9
$INSBASE
 10
0.0
 20
0.0
 30
0.0
  9
$EXTMIN
 10
0.0
 20
0.0
 30
0.0
  9
$EXTMAX
 10
1682.0
 20
2378.0
 30
0.0
  9
$LIMMIN
 10
0.0
 20
0.0
  9
$LIMMAX
 10
1682.0
 20
2378.0
  9
$ORTHOMODE
 70
     0
  9
$REGENMODE
 70
     1
  9
$FILLMODE
 70
     1
  9
$QTEXTMODE
 70
     0
  9
$MIRRTEXT
 70
     1
  9
$LTSCALE
 40
1.0
  9
$ATTMODE
 70
     1
  9
$TEXTSIZE
 40
2.5
  9
$TRACEWID
 40
1.0
  9
$TEXTSTYLE
  7
Standard
  9
$CLAYER
  8
0
  9
$CELTYPE
  6
ByLayer
  9
$CECOLOR
 62
   256
  9
$CELTSCALE
 40
1.0
  9
$DISPSILH
 70
     0
  9
$DIMSCALE
 40
1.0
  9
$DIMASZ
 40
2.5
  9
$DIMEXO
 40
0.625
  9
$DIMDLI
 40
3.75
  9
$DIMRND
 40
0.0
  9
$DIMDLE
 40
0.0
  9
$DIMEXE
 40
1.25
  9
$DIMTP
 40
0.0
  9
$DIMTM
 40
0.0
  9
$DIMTXT
 40
2.5
  9
$DIMCEN
 40
2.5
  9
$DIMTSZ
 40
0.0
  9
$DIMTOL
 70
     0
  9
$DIMLIM
 70
     0
  9
$DIMTIH
 70
     0
  9
$DIMTOH
 70
     0
  9
$DIMSE1
 70
     0
  9
$DIMSE2
 70
     0
  9
$DIMTAD
 70
     1
  9
$DIMZIN
 70
     8
  9
$DIMBLK
  1

  9
$DIMASO
 70
     1
  9
$DIMSHO
 70
     1
  9
$DIMPOST
  1

  9
$DIMAPOST
  1

  9
$DIMALT
 70
     0
  9
$DIMALTD
 70
     3
  9
$DIMALTF
 40
0.0393700787
  9
$DIMLFAC
 40
1.0
  9
$DIMTOFL
 70
     1
  9
$DIMTVP
 40
0.0
  9
$DIMTIX
 70
     0
  9
$DIMSOXD
 70
     0
  9
$DIMSAH
 70
     0
  9
$DIMBLK1
  1

  9
$DIMBLK2
  1

  9
$DIMSTYLE
  2
ISO-25
  9
$DIMCLRD
 70
     0
  9
$DIMCLRE
 70
     0
  9
$DIMCLRT
 70
     0
  9
$DIMTFAC
 40
1.0
  9
$DIMGAP
 40
0.625
  9
$DIMJUST
 70
     0
  9
$DIMSD1
 70
     0
  9
$DIMSD2
 70
     0
  9
$DIMTOLJ
 70
     0
  9
$DIMTZIN
 70
     8
  9
$DIMALTZ
 70
     0
  9
$DIMALTTZ
 70
     0
  9
$DIMUPT
 70
     0
  9
$DIMDEC
 70
     2
  9
$DIMTDEC
 70
     2
  9
$DIMALTU
 70
     2
  9
$DIMALTTD
 70
     3
  9
$DIMTXSTY
  7
Standard
  9
$DIMAUNIT
 70
     0
  9
$DIMADEC
 70
     0
  9
$DIMALTRND
 40
0.0
  9
$DIMAZIN
 70
     0
  9
$DIMDSEP
 70
    44
  9
$DIMATFIT
 70
     3
  9
$DIMFRAC
 70
     0
  9
$DIMLDRBLK
  1

  9
$DIMLUNIT
 70
     2
  9
$DIMLWD
 70
    -2
  9
$DIMLWE
 70
    -2
  9
$DIMTMOVE
 70
     0
  9
$LUNITS
 70
     2
  9
$LUPREC
 70
     4
  9
$SKETCHINC
 40
1.0
  9
$FILLETRAD
 40
10.0
  9
$AUNITS
 70
     0
  9
$AUPREC
 70
     0
  9
$MENU
  1
.
  9
$ELEVATION
 40
0.0
  9
$PELEVATION
 40
0.0
  9
$THICKNESS
 40
0.0
  9
$LIMCHECK
 70
     0
  9
$CHAMFERA
 40
10.0
  9
$CHAMFERB
 40
10.0
  9
$CHAMFERC
 40
20.0
  9
$CHAMFERD
 40
0.0
  9
$SKPOLY
 70
     0
  9
$TDCREATE
 40
2455455.575802581
  9
$TDUCREATE
 40
2455455.492469248
  9
$TDUPDATE
 40
2455455.575802593
  9
$TDUUPDATE
 40
2455455.492469259
  9
$TDINDWG
 40
0.0000000116
  9
$TDUSRTIMER
 40
0.0000000116
  9
$USRTIMER
 70
     1
  9
$ANGBASE
 50
0.0
  9
$ANGDIR
 70
     0
  9
$PDMODE
 70
     0
  9
$PDSIZE
 40
0.0
  9
$PLINEWID
 40
0.0
  9
$SPLFRAME
 70
     0
  9
$SPLINETYPE
 70
     6
  9
$SPLINESEGS
 70
     8
  9
$HANDSEED
  5
19F
  9
$SURFTAB1
 70
     6
  9
$SURFTAB2
 70
     6
  9
$SURFTYPE
 70
     6
  9
$SURFU
 70
     6
  9
$SURFV
 70
     6
  9
$UCSBASE
  2

  9
$UCSNAME
  2

  9
$UCSORG
 10
0.0
 20
0.0
 30
0.0
  9
$UCSXDIR
 10
1.0
 20
0.0
 30
0.0
  9
$UCSYDIR
 10
0.0
 20
1.0
 30
0.0
  9
$UCSORTHOREF
  2

  9
$UCSORTHOVIEW
 70
     0
  9
$UCSORGTOP
 10
0.0
 20
0.0
 30
0.0
  9
$UCSORGBOTTOM
 10
0.0
 20
0.0
 30
0.0
  9
$UCSORGLEFT
 10
0.0
 20
0.0
 30
0.0
  9
$UCSORGRIGHT
 10
0.0
 20
0.0
 30
0.0
  9
$UCSORGFRONT
 10
0.0
 20
0.0
 30
0.0
  9
$UCSORGBACK
 10
0.0
 20
0.0
 30
0.0
  9
$PUCSBASE
  2

  9
$PUCSNAME
  2

  9
$PUCSORG
 10
0.0
 20
0.0
 30
0.0
  9
$PUCSXDIR
 10
1.0
 20
0.0
 30
0.0
  9
$PUCSYDIR
 10
0.0
 20
1.0
 30
0.0
  9
$PUCSORTHOREF
  2

  9
$PUCSORTHOVIEW
 70
     0
  9
$PUCSORGTOP
 10
0.0
 20
0.0
 30
0.0
  9
$PUCSORGBOTTOM
 10
0.0
 20
0.0
 30
0.0
  9
$PUCSORGLEFT
 10
0.0
 20
0.0
 30
0.0
  9
$PUCSORGRIGHT
 10
0.0
 20
0.0
 30
0.0
  9
$PUCSORGFRONT
 10
0.0
 20
0.0
 30
0.0
  9
$PUCSORGBACK
 10
0.0
 20
0.0
 30
0.0
  9
$USERI1
 70
     0
  9
$USERI2
 70
     0
  9
$USERI3
 70
     0
  9
$USERI4
 70
     0
  9
$USERI5
 70
     0
  9
$USERR1
 40
0.0
  9
$USERR2
 40
0.0
  9
$USERR3
 40
0.0
  9
$USERR4
 40
0.0
  9
$USERR5
 40
0.0
  9
$WORLDVIEW
 70
     1
  9
$SHADEDGE
 70
     3
  9
$SHADEDIF
 70
    70
  9
$TILEMODE
 70
     1
  9
$MAXACTVP
 70
    64
  9
$PINSBASE
 10
0.0
 20
0.0
 30
0.0
  9
$PLIMCHECK
 70
     0
  9
$PEXTMIN
 10
0.0
 20
0.0
 30
0.0
  9
$PEXTMAX
 10
1682.0
 20
2378.0
 30
0.0
  9
$PLIMMIN
 10
0.0
 20
0.0
  9
$PLIMMAX
 10
1682.0
 20
2378.0
  9
$UNITMODE
 70
     0
  9
$VISRETAIN
 70
     1
  9
$PLINEGEN
 70
     0
  9
$PSLTSCALE
 70
     1
  9
$TREEDEPTH
 70
  3020
  9
$CMLSTYLE
  2
Standard
  9
$CMLJUST
 70
     0
  9
$CMLSCALE
 40
20.0
  9
$PROXYGRAPHICS
 70
     1
  9
$MEASUREMENT
 70
     1
  9
$CELWEIGHT
370
    -1
  9
$ENDCAPS
280
     0
  9
$JOINSTYLE
280
     0
  9
$LWDISPLAY
290
     0
  9
$INSUNITS
 70
     4
  9
$HYPERLINKBASE
  1

  9
$STYLESHEET
  1

  9
$XEDIT
290
     1
  9
$CEPSNTYPE
380
     0
  9
$PSTYLEMODE
290
     1
  9
$FINGERPRINTGUID
  2
{5A66E2DA-0C4E-4FD2-8AE7-6052FDC707C0}
  9
$VERSIONGUID
  2
{FAEB1C32-E019-11D5-929B-00C0DF256EC4}
  9
$EXTNAMES
290
     1
  9
$PSVPSCALE
 40
0.0
  9
$OLESTARTUP
290
     0
  0
ENDSEC
  0
SECTION
  2
CLASSES
  0
CLASS
  1
ACDBDICTIONARYWDFLT
  2
AcDbDictionaryWithDefault
  3
ObjectDBX Classes
 90
        0
280
     0
281
     0
  0
CLASS
  1
VISUALSTYLE
  2
AcDbVisualStyle
  3
ObjectDBX Classes
 90
     4095
280
     0
281
     0
  0
CLASS
  1
SCALE
  2
AcDbScale
  3
ObjectDBX Classes
 90
     1153
280
     0
281
     0
  0
CLASS
  1
DICTIONARYVAR
  2
AcDbDictionaryVar
  3
ObjectDBX Classes
 90
        0
280
     0
281
     0
  0
CLASS
  1
ACDBPLACEHOLDER
  2
AcDbPlaceHolder
  3
ObjectDBX Classes
 90
        0
280
     0
281
     0
  0
CLASS
  1
LAYOUT
  2
AcDbLayout
  3
ObjectDBX Classes
 90
        0
280
     0
281
     0
  0
ENDSEC
  0
SECTION
  2
TABLES
  0
TABLE
  2
VPORT
  5
8
330
0
100
AcDbSymbolTable
 70
     1
  0
VPORT
  5
29
330
8
100
AcDbSymbolTableRecord
100
AcDbViewportTableRecord
  2
*Active
 70
     0
 10
0.0
 20
0.0
 11
1.0
 21
1.0
 12
344.1869158879
 22
148.5
 13
0.0
 23
0.0
 14
10.0
 24
10.0
 15
10.0
 25
10.0
 16
0.0
 26
0.0
 36
1.0
 17
0.0
 27
0.0
 37
0.0
 40
297.0
 41
1.9729729729
 42
50.0
 43
0.0
 44
0.0
 50
0.0
 51
0.0
 71
     0
 72
   100
 73
     1
 74
     3
 75
     0
 76
     0
 77
     0
 78
     0
281
     0
 65
     1
110
0.0
120
0.0
130
0.0
111
1.0
121
0.0
131
0.0
112
0.0
122
1.0
132
0.0
 79
     0
146
0.0
  0
ENDTAB
  0
TABLE
  2
LTYPE
  5
5
330
0
100
AcDbSymbolTable
 70
     2
  0
LTYPE
  5
14
330
5
100
AcDbSymbolTableRecord
100
AcDbLinetypeTableRecord
  2
ByBlock
 70
     0
  3

 72
    65
 73
     0
 40
0.0
  0
LTYPE
  5
15
330
5
100
AcDbSymbolTableRecord
100
AcDbLinetypeTableRecord
  2
ByLayer
 70
     0
  3

 72
    65
 73
     0
 40
0.0
  0
LTYPE
  5
16
330
5
100
AcDbSymbolTableRecord
100
AcDbLinetypeTableRecord
  2
Continuous
 70
     0
  3
Solid line
 72
    65
 73
     0
 40
0.0
  0
LTYPE
  5
60
330
5
100
AcDbSymbolTableRecord
100
AcDbLinetypeTableRecord
  2
CENTER2
 70
     0
  3
Center (.5x) ___ _ ___ _ ___ _ ___ _ ___ _ ___
 72
    65
 73
     4
 40
28.575
 49
19.05
 74
     4
 75
     0
340
0
 46
0.0
 50
0.0
 44
0.0
 45
0.0
 49
-3.175
 74
     4
 75
     0
340
0
 46
0.0
 50
0.0
 44
0.0
 45
0.0
 49
3.175
 74
     4
 75
     0
340
0
 46
0.0
 50
0.0
 44
0.0
 45
0.0
 49
-3.175
 74
     4
 75
     0
340
0
 46
0.0
 50
0.0
 44
0.0
 45
0.0
  0
ENDTAB
  0
TABLE
  2
LAYER
  5
2
330
0
100
AcDbSymbolTable
 70
    10
  0
LAYER
  5
10
330
2
100
AcDbSymbolTableRecord
100
AcDbLayerTableRecord
  2
0
 70
     0
 62
     7
  6
Continuous
370
    -3
390
F
  0
LAYER
  5
5D
330
2
100
AcDbSymbolTableRecord
100
AcDbLayerTableRecord
  2
Default
 70
     0
 62
     7
  6
Continuous
370
    -3
390
F
  0
LAYER
  5
77
330
2
100
AcDbSymbolTableRecord
100
AcDbLayerTableRecord
  2
14802200_0104255
 70
     0
 62
     7
  6
Continuous
370
    -3
390
F
  0
LAYER
  5
B0
330
2
100
AcDbSymbolTableRecord
100
AcDbLayerTableRecord
  2
05531K31_USA_REG
 70
     0
 62
     7
  6
Continuous
370
    -3
390
F
  0
LAYER
  5
B4
330
2
100
AcDbSymbolTableRecord
100
AcDbLayerTableRecord
  2
14802700_0104256
 70
     0
 62
     7
  6
Continuous
370
    -3
390
F
  0
LAYER
  5
BB
330
2
100
AcDbSymbolTableRecord
100
AcDbLayerTableRecord
  2
02350037_REGLER_
 70
     0
 62
     7
  6
Continuous
370
    -3
390
F
  0
LAYER
  5
CB
330
2
100
AcDbSymbolTableRecord
100
AcDbLayerTableRecord
  2
T14080066__DESVI
 70
     0
 62
     7
  6
Continuous
370
    -3
390
F
  0
LAYER
  5
CE
330
2
100
AcDbSymbolTableRecord
100
AcDbLayerTableRecord
  2
14802500_0104256
 70
     0
 62
     7
  6
Continuous
370
    -3
390
F
  0
LAYER
  5
D6
330
2
100
AcDbSymbolTableRecord
100
AcDbLayerTableRecord
  2
14803500_0104258
 70
     0
 62
     7
  6
Continuous
370
    -3
390
F
  0
LAYER
  5
163
330
2
100
AcDbSymbolTableRecord
100
AcDbLayerTableRecord
  2
05695031_DICHTUN
 70
     0
 62
     7
  6
Continuous
370
    -3
390
F
  0
ENDTAB
  0
TABLE
  2
STYLE
  5
3
330
0
100
AcDbSymbolTable
 70
     2
  0
STYLE
  5
11
330
3
100
AcDbSymbolTableRecord
100
AcDbTextStyleTableRecord
  2
Standard
 70
     0
 40
0.0
 41
1.0
 50
0.0
 71
     0
 42
2.5
  3
txt
  4

  0
STYLE
  5
18E
330
3
100
AcDbSymbolTableRecord
100
AcDbTextStyleTableRecord
  2
SEACAD_seiso_ttf
 70
     0
 40
0.0
 41
1.0
 50
0.0
 71
     0
 42
0.2
  3
seiso.ttf
  4

  0
ENDTAB
  0
TABLE
  2
VIEW
  5
6
330
0
100
AcDbSymbolTable
 70
     0
  0
ENDTAB
  0
TABLE
  2
UCS
  5
7
330
0
100
AcDbSymbolTable
 70
     0
  0
ENDTAB
  0
TABLE
  2
APPID
  5
9
330
0
100
AcDbSymbolTable
 70
     1
  0
APPID
  5
12
330
9
100
AcDbSymbolTableRecord
100
AcDbRegAppTableRecord
  2
ACAD
 70
     0
  0
ENDTAB
  0
TABLE
  2
DIMSTYLE
  5
A
330
0
100
AcDbSymbolTable
 70
     1
100
AcDbDimStyleTable
  0
DIMSTYLE
105
27
330
A
100
AcDbSymbolTableRecord
100
AcDbDimStyleTableRecord
  2
ISO-25
 70
     0
 41
2.5
 42
0.625
 43
3.75
 44
1.25
 73
     0
 74
     0
 77
     1
 78
     8
140
2.5
141
2.5
143
0.0393700787
147
0.625
171
     3
172
     1
271
     2
272
     2
274
     3
278
    44
283
     0
284
     8
340
11
  0
ENDTAB
  0
TABLE
  2
BLOCK_RECORD
  5
1
330
0
100
AcDbSymbolTable
 70
     7
  0
BLOCK_RECORD
  5
1F
330
1
100
AcDbSymbolTableRecord
100
AcDbBlockTableRecord
  2
*Model_Space
340
22
  0
BLOCK_RECORD
  5
1B
330
1
100
AcDbSymbolTableRecord
100
AcDbBlockTableRecord
  2
*Paper_Space
340
1E
  0
BLOCK_RECORD
  5
5E
330
1
100
AcDbSymbolTableRecord
100
AcDbBlockTableRecord
  2
SEANNOT_GROUP
340
0
102
{BLKREFS
331
5F
102
}
  0
BLOCK_RECORD
  5
65
330
1
100
AcDbSymbolTableRecord
100
AcDbBlockTableRecord
  2
SEANNOT_GROUP1
340
0
102
{BLKREFS
331
66
102
}
  0
BLOCK_RECORD
  5
6B
330
1
100
AcDbSymbolTableRecord
100
AcDbBlockTableRecord
  2
SEANNOT_GROUP2
340
0
102
{BLKREFS
331
6C
102
}
  0
BLOCK_RECORD
  5
75
330
1
100
AcDbSymbolTableRecord
100
AcDbBlockTableRecord
  2
SE
340
0
102
{BLKREFS
331
76
102
}
  0
BLOCK_RECORD
  5
E2
330
1
100
AcDbSymbolTableRecord
100
AcDbBlockTableRecord
  2
SE1
340
0
102
{BLKREFS
331
E3
102
}
  0
BLOCK_RECORD
  5
169
330
1
100
AcDbSymbolTableRecord
100
AcDbBlockTableRecord
  2
SE2
340
0
102
{BLKREFS
331
16A
102
}
  0
ENDTAB
  0
ENDSEC
  0
SECTION
  2
BLOCKS
  0
BLOCK
  5
20
330
1F
100
AcDbEntity
  8
0
100
AcDbBlockBegin
  2
*Model_Space
 70
     0
 10
0.0
 20
0.0
 30
0.0
  3
*Model_Space
  1

  0
ENDBLK
  5
21
330
1F
100
AcDbEntity
  8
0
100
AcDbBlockEnd
  0
BLOCK
  5
1C
330
1B
100
AcDbEntity
 67
     1
  8
0
100
AcDbBlockBegin
  2
*Paper_Space
 70
     0
 10
0.0
 20
0.0
 30
0.0
  3
*Paper_Space
  1

  0
ENDBLK
  5
1D
330
1B
100
AcDbEntity
 67
     1
  8
0
100
AcDbBlockEnd
  0
BLOCK
  5
63
330
5E
100
AcDbEntity
  8
0
100
AcDbBlockBegin
  2
SEANNOT_GROUP
 70
     0
 10
0.0
 20
0.0
 30
0.0
  3
SEANNOT_GROUP
  1

  0
LINE
  5
61
330
5E
100
AcDbEntity
  8
Default
  6
CENTER2
 62
     7
100
AcDbLine
 10
215.8162712968
 20
390.9076410825
 30
0.0
 11
175.8162721908
 21
390.9076410825
 31
0.0
  0
LINE
  5
62
330
5E
100
AcDbEntity
  8
Default
  6
CENTER2
 62
     7
100
AcDbLine
 10
195.8162717438
 20
410.9076406354
 30
0.0
 11
195.8162717438
 21
370.9076415295
 31
0.0
  0
ENDBLK
  5
64
330
5E
100
AcDbEntity
  8
0
100
AcDbBlockEnd
  0
BLOCK
  5
69
330
65
100
AcDbEntity
  8
0
100
AcDbBlockBegin
  2
SEANNOT_GROUP1
 70
     0
 10
0.0
 20
0.0
 30
0.0
  3
SEANNOT_GROUP1
  1

  0
LINE
  5
67
330
65
100
AcDbEntity
  8
Default
  6
CENTER2
 62
     7
100
AcDbLine
 10
118.2911440285
 20
293.224615548
 30
0.0
 11
78.2911449226
 21
293.224615548
 31
0.0
  0
LINE
  5
68
330
65
100
AcDbEntity
  8
Default
  6
CENTER2
 62
     7
100
AcDbLine
 10
98.2911444756
 20
313.224615101
 30
0.0
 11
98.2911444756
 21
273.224615995
 31
0.0
  0
ENDBLK
  5
6A
330
65
100
AcDbEntity
  8
0
100
AcDbBlockEnd
  0
BLOCK
  5
73
330
6B
100
AcDbEntity
  8
0
100
AcDbBlockBegin
  2
SEANNOT_GROUP2
 70
     0
 10
0.0
 20
0.0
 30
0.0
  3
SEANNOT_GROUP2
  1

  0
LINE
  5
6D
330
6B
100
AcDbEntity
  8
Default
  6
CENTER2
 62
     7
100
AcDbLine
 10
117.7197310008
 20
391.2086848181
 30
0.0
 11
77.7197318949
 21
391.2086848181
 31
0.0
  0
LINE
  5
6E
330
6B
100
AcDbEntity
  8
Default
  6
CENTER2
 62
     7
100
AcDbLine
 10
97.7197314479
 20
411.2086843711
 30
0.0
 11
97.7197314479
 21
371.2086852652
 31
0.0
  0
LINE
  5
6F
330
6B
100
AcDbEntity
  8
Default
  6
CENTER2
 62
     7
100
AcDbLine
 10
122.7197308891
 20
391.2086848181
 30
0.0
 11
136.7663720824
 21
391.2086848181
 31
0.0
  0
LINE
  5
70
330
6B
100
AcDbEntity
  8
Default
  6
CENTER2
 62
     7
100
AcDbLine
 10
97.7197314479
 20
416.2086842593
 30
0.0
 11
97.7197314479
 21
430.2553254527
 31
0.0
  0
LINE
  5
71
330
6B
100
AcDbEntity
  8
Default
  6
CENTER2
 62
     7
100
AcDbLine
 10
72.7197320067
 20
391.2086848181
 30
0.0
 11
58.6730908133
 21
391.2086848181
 31
0.0
  0
LINE
  5
72
330
6B
100
AcDbEntity
  8
Default
  6
CENTER2
 62
     7
100
AcDbLine
 10
97.7197314479
 20
366.2086853769
 30
0.0
 11
97.7197314479
 21
352.1620441836
 31
0.0
  0
ENDBLK
  5
74
330
6B
100
AcDbEntity
  8
0
100
AcDbBlockEnd
  0
BLOCK
  5
E0
330
75
100
AcDbEntity
  8
0
100
AcDbBlockBegin
  2
SE
 70
     0
 10
0.0
 20
0.0
 30
0.0
  3
SE
  1

  0
SPLINE
  5
78
330
75
100
AcDbEntity
  8
14802200_0104255
  6
Continuous
 62
     7
100
AcDbSpline
210
0.0
220
0.0
230
1.0
 70
     8
 71
     3
 72
    14
 73
    10
 74
     0
 42
0.0000000010539835
 43
0.0000000001
 40
0.0
 40
0.0
 40
0.0
 40
0.0
 40
0.25
 40
0.25
 40
0.5
 40
0.5
 40
0.75
 40
0.75
 40
1.0
 40
1.0
 40
1.0
 40
1.0
 10
98.19464473728749
 20
360.0430031167795
 30
0.0
 10
99.30567474303028
 20
360.0396993048516
 30
0.0
 10
100.3681262513239
 20
360.2847142007239
 30
0.0
 10
101.8198907493167
 20
360.9837889536221
 30
0.0
 10
102.2300542547251
 20
361.4263216139377
 30
0.0
 10
102.2584585104619
 20
362.2214929303237
 30
0.0
 10
101.8723866307411
 20
362.569395551776
 30
0.0
 10
100.3785539941174
 20
363.0393553508808
 30
0.0
 10
99.3052591347431
 20
363.1571357509394
 30
0.0
 10
98.1946447372875
 20
363.160567497267
 30
0.0
  0
SPLINE
  5
79
330
75
100
AcDbEntity
  8
14802200_0104255
  6
Continuous
 62
     7
100
AcDbSpline
210
0.0
220
0.0
230
1.0
 70
     8
 71
     3
 72
    14
 73
    10
 74
     0
 42
0.0000000010539716
 43
0.0000000001
 40
0.0
 40
0.0
 40
0.0
 40
0.0
 40
0.25
 40
0.25
 40
0.5
 40
0.5
 40
0.75
 40
0.75
 40
1.0
 40
1.0
 40
1.0
 40
1.0
 10
98.1946447372875
 20
363.160567497267
 30
0.0
 10
97.08407483613948
 20
363.1571358884309
 30
0.0
 10
96.00430177304787
 20
363.0370714833977
 30
0.0
 10
94.52605430381072
 20
362.5725339469297
 30
0.0
 10
94.13021767447354
 20
362.2210883059529
 30
0.0
 10
94.15991899567285
 20
361.4247956541901
 30
0.0
 10
94.56370032247683
 20
360.9862184969345
 30
0.0
 10
96.02962208829541
 20
360.2809559922795
 30
0.0
 10
97.08250936031814
 20
360.0396960178669
 30
0.0
 10
98.19464473728749
 20
360.0430031167795
 30
0.0
  0
ARC
  5
7A
330
75
100
AcDbEntity
  8
14802200_0104255
  6
Continuous
 62
     7
100
AcDbCircle
 10
98.5852387993
 20
391.2406191951
 30
0.0
 40
35.46924737876181
100
AcDbArc
 50
147.2446977176
 51
151.2824307705
  0
ARC
  5
7B
330
75
100
AcDbEntity
  8
14802200_0104255
  6
Continuous
 62
     7
100
AcDbCircle
 10
97.8009837173
 20
391.2405407783
 30
0.0
 40
35.47155074400845
100
AcDbArc
 50
28.7129255952
 51
32.7464818511
  0
LINE
  5
7C
330
75
100
AcDbEntity
  8
14802200_0104255
  6
Continuous
 62
     7
100
AcDbLine
 10
98.1946445858
 20
355.9215123587
 30
0.0
 11
98.1946446181
 21
355.9748966426
 31
0.0
  0
SPLINE
  5
7D
330
75
100
AcDbEntity
  8
14802200_0104255
  6
Continuous
 62
     7
100
AcDbSpline
210
0.0
220
0.0
230
1.0
 70
     8
 71
     3
 72
     9
 73
     5
 74
     0
 42
0.0000000001869365
 43
0.0000000001
 40
0.0
 40
0.0
 40
0.0
 40
0.0
 40
0.4843806268875794
 40
0.5894266558589802
 40
0.5894266558589802
 40
0.5894266558589802
 40
0.5894266558589802
 10
125.0231758846882
 20
368.4988793221593
 30
0.0
 10
124.2439434842818
 20
378.2545897581119
 30
0.0
 10
123.2403531489391
 20
390.05495419653
 30
0.0
 10
118.7109844735207
 20
397.3364444243155
 30
0.0
 10
117.898217561995
 20
398.3839458161001
 30
0.0
  0
LINE
  5
7E
330
75
100
AcDbEntity
  8
14802200_0104255
  6
Continuous
 62
     7
100
AcDbLine
 10
98.1946447373
 20
360.0430031168
 30
0.0
 11
98.1946447373
 21
355.9747469154
 31
0.0
  0
LINE
  5
7F
330
75
100
AcDbEntity
  8
14802200_0104255
  6
Continuous
 62
     7
100
AcDbLine
 10
98.1946490326
 20
382.4998874966
 30
0.0
 11
98.1946447373
 21
363.1605674973
 31
0.0
  0
SPLINE
  5
80
330
75
100
AcDbEntity
  8
14802200_0104255
  6
Continuous
 62
     7
100
AcDbSpline
210
0.0
220
0.0
230
1.0
 70
     8
 71
     3
 72
     9
 73
     5
 74
     0
 42
0.0000000001869354
 43
0.0000000001
 40
0.0
 40
0.0
 40
0.0
 40
0.0
 40
0.4843805722017605
 40
0.5894134979865882
 40
0.5894134979865882
 40
0.5894134979865882
 40
0.5894134979865882
 10
71.36611358988651
 20
368.4988793221593
 30
0.0
 10
72.14534598634887
 20
378.2545897117059
 30
0.0
 10
73.14891402714204
 20
390.0546920979003
 30
0.0
 10
77.67810380960803
 20
397.3361209804914
 30
0.0
 10
78.49076804621238
 20
398.3835541783678
 30
0.0
  0
ARC
  5
81
330
75
100
AcDbEntity
  8
14802200_0104255
  6
Continuous
 62
     7
100
AcDbCircle
 10
205.1317413648
 20
400.4434289543
 30
0.0
 40
125.68525395597
100
AcDbArc
 50
173.1077396998
 51
182.4470671589
  0
SPLINE
  5
82
330
75
100
AcDbEntity
  8
14802200_0104255
  6
Continuous
 62
     7
100
AcDbSpline
210
0.0
220
0.0
230
1.0
 70
     8
 71
     3
 72
    17
 73
    13
 74
     0
 42
0.0000000005607179
 43
0.0000000001
 40
0.2782862859987504
 40
0.2782862859987504
 40
0.2782862859987504
 40
0.2782862859987504
 40
0.3352874760606583
 40
0.4403877388168114
 40
0.5897366003974746
 40
0.7390887291229747
 40
0.7825550686773363
 40
0.8260573554687434
 40
0.8695745233794709
 40
0.9130363445494274
 40
0.9564766628611476
 40
1.0
 40
1.0
 40
1.0
 40
1.0
 10
76.81306076280624
 20
421.9098557727569
 30
0.0
 10
77.07843820791597
 20
422.227296039178
 30
0.0
 10
77.8147955419414
 20
423.0274205524094
 30
0.0
 10
79.11731263614399
 20
423.9302380602959
 30
0.0
 10
80.40219533556468
 20
423.9183548209132
 30
0.0
 10
80.86646518735714
 20
422.6848890152273
 30
0.0
 10
80.75140037480217
 20
421.280126939264
 30
0.0
 10
80.62733757985661
 20
420.3792743369803
 30
0.0
 10
80.51224283214806
 20
419.3524579908948
 30
0.0
 10
80.43630512187461
 20
418.1931032246688
 30
0.0
 10
80.3835880623427
 20
416.9237227976948
 30
0.0
 10
80.36435446440619
 20
415.9921439233025
 30
0.0
 10
80.35474418626876
 20
415.5260029087261
 30
0.0
  0
SPLINE
  5
83
330
75
100
AcDbEntity
  8
14802200_0104255
  6
Continuous
 62
     7
100
AcDbSpline
210
0.0
220
0.0
230
1.0
 70
     8
 71
     3
 72
     8
 73
     4
 74
     0
 42
0.0000000263429762
 43
0.0000000001
 40
0.3525362309769998
 40
0.3525362309769998
 40
0.3525362309769998
 40
0.3525362309769998
 40
0.3551705286000842
 40
0.3551705286000842
 40
0.3551705286000842
 40
0.3551705286000842
 10
78.81214688322159
 20
393.1661354153666
 30
0.0
 10
78.81214129474667
 20
393.1660595542626
 30
0.0
 10
78.81214737141242
 20
393.1659827764873
 30
0.0
 10
78.81216519147246
 20
393.1659050704462
 30
0.0
  0
SPLINE
  5
84
330
75
100
AcDbEntity
  8
14802200_0104255
  6
Continuous
 62
     7
100
AcDbSpline
210
0.0
220
0.0
230
1.0
 70
     8
 71
     3
 72
     8
 73
     4
 74
     0
 42
0.0000000008826142
 43
0.0000000001
 40
0.507811556878599
 40
0.507811556878599
 40
0.507811556878599
 40
0.507811556878599
 40
0.5087140596934708
 40
0.5087140596934708
 40
0.5087140596934708
 40
0.5087140596934708
 10
81.24442130520083
 20
424.9513519847978
 30
0.0
 10
81.24108741627667
 20
424.9506675994766
 30
0.0
 10
81.23775005641389
 20
424.9499751278476
 30
0.0
 10
81.23440923513101
 20
424.9492745654407
 30
0.0
  0
ARC
  5
85
330
75
100
AcDbEntity
  8
14802200_0104255
  6
Continuous
 62
     7
100
AcDbCircle
 10
98.2077913774
 20
330.7311251321
 30
0.0
 40
88.5112459507211
100
AcDbArc
 50
90.0085101841
 51
100.1520415889
  0
LINE
  5
86
330
75
100
AcDbEntity
  8
14802200_0104255
  6
Continuous
 62
     7
100
AcDbLine
 10
98.1946447373
 20
423.0539396794
 30
0.0
 11
98.1946447373
 21
419.2423701064
 31
0.0
  0
SPLINE
  5
87
330
75
100
AcDbEntity
  8
14802200_0104255
  6
Continuous
 62
     7
100
AcDbSpline
210
0.0
220
0.0
230
1.0
 70
     8
 71
     3
 72
     8
 73
     4
 74
     0
 42
0.0000000008898266
 43
0.0000000001
 40
0.5078087309106378
 40
0.5078087309106378
 40
0.5078087309106378
 40
0.5078087309106378
 40
0.508419707201672
 40
0.508419707201672
 40
0.508419707201672
 40
0.508419707201672
 10
115.1446606168907
 20
424.9521485867918
 30
0.0
 10
115.1469013155735
 20
424.9516938222843
 30
0.0
 10
115.1491436528612
 20
424.9512352640534
 30
0.0
 10
115.1513876285728
 20
424.9507729081371
 30
0.0
  0
ARC
  5
88
330
75
100
AcDbEntity
  8
14802200_0104255
  6
Continuous
 62
     7
100
AcDbCircle
 10
98.1637076926
 20
330.5310095373
 30
0.0
 40
88.71136596360054
100
AcDbArc
 50
79.859429456
 51
89.9800187709
  0
ARC
  5
89
330
75
100
AcDbEntity
  8
14802200_0104255
  6
Continuous
 62
     7
100
AcDbCircle
 10
-8.1678217876
 20
400.4657309792
 30
0.0
 40
125.1121088378561
100
AcDbArc
 50
357.531493048
 51
6.9137000933
  0
SPLINE
  5
8A
330
75
100
AcDbEntity
  8
14802200_0104255
  6
Continuous
 62
     7
100
AcDbSpline
210
0.0
220
0.0
230
1.0
 70
     8
 71
     3
 72
    15
 73
    11
 74
     0
 42
0.0000000005609948
 43
0.0000000001
 40
0.2775615634718244
 40
0.2775615634718244
 40
0.2775615634718244
 40
0.2775615634718244
 40
0.3363046095896115
 40
0.4923064476350021
 40
0.648290915572828
 40
0.7381018182921885
 40
0.8279152037493046
 40
0.9177238093297438
 40
0.958905057099347
 40
1.0
 40
1.0
 40
1.0
 40
1.0
 10
119.5863695759464
 20
421.8976202992567
 30
0.0
 10
119.3128113393994
 20
422.2256590691637
 30
0.0
 10
118.3382410705147
 20
423.2847999334872
 30
0.0
 10
116.8284382454
 20
424.1223907222202
 30
0.0
 10
115.7958541667912
 20
423.5931641730859
 30
0.0
 10
115.5093898381804
 20
422.143772917566
 30
0.0
 10
115.7762070874758
 20
420.4091568924077
 30
0.0
 10
115.9428418081815
 20
418.5360587586204
 30
0.0
 10
116.0068067642655
 20
416.8504979212914
 30
0.0
 10
116.0252980477137
 20
415.9672416706835
 30
0.0
 10
116.0345452883059
 20
415.5260029087261
 30
0.0
  0
ARC
  5
8B
330
75
100
AcDbEntity
  8
14802200_0104255
  6
Continuous
 62
     7
100
AcDbCircle
 10
32.2735522657
 20
390.2882762539
 30
0.0
 40
48.04556577981171
100
AcDbArc
 50
2.3420902619
 51
2.4730869528
  0
ARC
  5
8C
330
75
100
AcDbEntity
  8
14802200_0104255
  6
Continuous
 62
     7
100
AcDbCircle
 10
83.0961578097
 20
415.1303634939
 30
0.0
 40
2.769815734198316
100
AcDbArc
 50
100.1778056058
 51
171.7878039405
  0
ARC
  5
8D
330
75
100
AcDbEntity
  8
14802200_0104255
  6
Continuous
 62
     7
100
AcDbCircle
 10
98.2386547139
 20
324.8631778828
 30
0.0
 40
93.00054891141527
100
AcDbArc
 50
90.027113668
 51
99.7334464683
  0
LINE
  5
8E
330
75
100
AcDbEntity
  8
14802200_0104255
  6
Continuous
 62
     7
100
AcDbLine
 10
98.1946447373
 20
419.2423701064
 30
0.0
 11
98.1946447373
 21
417.863716381
 31
0.0
  0
ARC
  5
8F
330
75
100
AcDbEntity
  8
14802200_0104255
  6
Continuous
 62
     7
100
AcDbCircle
 10
98.1450250891
 20
324.7974782025
 30
0.0
 40
93.06625140614233
100
AcDbArc
 50
80.2699879572
 51
89.9694519064
  0
ARC
  5
90
330
75
100
AcDbEntity
  8
14802200_0104255
  6
Continuous
 62
     7
100
AcDbCircle
 10
159.5565671057
 20
390.584615582
 30
0.0
 40
43.47823264959047
100
AcDbArc
 50
177.6578225976
 51
177.8025752678
  0
ARC
  5
91
330
75
100
AcDbEntity
  8
14802200_0104255
  6
Continuous
 62
     7
100
AcDbCircle
 10
113.3051016552
 20
415.1419297237
 30
0.0
 40
2.756333571535997
100
AcDbArc
 50
8.0097756242
 51
80.0246148295
  0
LINE
  5
92
330
75
100
AcDbEntity
  8
14802200_0104255
  6
Continuous
 62
     7
100
AcDbLine
 10
80.2789829007
 20
392.2516969034
 30
0.0
 11
79.8133261319
 21
392.2516969034
 31
0.0
  0
LINE
  5
93
330
75
100
AcDbEntity
  8
14802200_0104255
  6
Continuous
 62
     7
100
AcDbLine
 10
98.1946447372
 20
392.2516969033
 30
0.0
 11
116.1103065739
 21
392.2516969033
 31
0.0
  0
LINE
  5
94
330
75
100
AcDbEntity
  8
14802200_0104255
  6
Continuous
 62
     7
100
AcDbLine
 10
80.2789829007
 20
392.2516969033
 30
0.0
 11
98.1946447372
 21
392.2516969033
 31
0.0
  0
LINE
  5
95
330
75
100
AcDbEntity
  8
14802200_0104255
  6
Continuous
 62
     7
100
AcDbLine
 10
98.1946447373
 20
394.5209224353
 30
0.0
 11
98.1946447372
 21
392.2516969033
 31
0.0
  0
ARC
  5
96
330
75
100
AcDbEntity
  8
14802200_0104255
  6
Continuous
 62
     7
100
AcDbCircle
 10
82.7598738851
 20
414.7436070608
 30
0.0
 40
1.798050206333546
100
AcDbArc
 50
97.8099992037
 51
171.1549548099
  0
ARC
  5
97
330
75
100
AcDbEntity
  8
14802200_0104255
  6
Continuous
 62
     7
100
AcDbCircle
 10
209.7292564996
 20
399.3974904101
 30
0.0
 40
129.6904418743313
100
AcDbArc
 50
173.0813135712
 51
182.1395519886
  0
LINE
  5
98
330
75
100
AcDbEntity
  8
14802200_0104255
  6
Continuous
 62
     7
100
AcDbLine
 10
98.1946447373
 20
417.863716381
 30
0.0
 11
98.1946447373
 21
394.5209224353
 31
0.0
  0
ARC
  5
99
330
75
100
AcDbEntity
  8
14802200_0104255
  6
Continuous
 62
     7
100
AcDbCircle
 10
113.6286504483
 20
414.7428279711
 30
0.0
 40
1.798926161445869
100
AcDbArc
 50
8.865816941
 51
82.1692290454
  0
ARC
  5
9A
330
75
100
AcDbEntity
  8
14802200_0104255
  6
Continuous
 62
     7
100
AcDbCircle
 10
-12.7127977343
 20
399.4236621929
 30
0.0
 40
129.0646964123585
100
AcDbArc
 50
357.8384432577
 51
6.9406911824
  0
ARC
  5
9B
330
75
100
AcDbEntity
  8
14802200_0104255
  6
Continuous
 62
     7
100
AcDbCircle
 10
80.2804188619
 20
393.2494877239
 30
0.0
 40
0.9977918539144548
100
AcDbArc
 50
259.2843924424
 51
269.91754338
  0
ARC
  5
9C
330
75
100
AcDbEntity
  8
14802200_0104255
  6
Continuous
 62
     7
100
AcDbCircle
 10
116.1041153064
 20
393.2546836202
 30
0.0
 40
1.003005825557825
100
AcDbArc
 50
270.3536726684
 51
280.927571488
  0
SPLINE
  5
9D
330
75
100
AcDbEntity
  8
14802200_0104255
  6
Continuous
 62
     7
100
AcDbSpline
210
0.0
220
0.0
230
1.0
 70
     8
 71
     3
 72
    16
 73
    12
 74
     0
 42
0.0000000006556848
 43
0.0000000001
 40
0.0
 40
0.0
 40
0.0
 40
0.0
 40
0.1249999999999997
 40
0.1249999999999997
 40
0.2499999999999994
 40
0.2499999999999994
 40
0.3749999999999992
 40
0.3749999999999992
 40
0.4999999999999989
 40
0.4999999999999989
 40
0.5587996609331578
 40
0.5587996609331578
 40
0.5587996609331578
 40
0.5587996609331578
 10
98.19464473728121
 20
423.0539396794115
 30
0.0
 10
97.11690278188237
 20
423.0553572481566
 30
0.0
 10
96.05407438206271
 20
423.0576683066412
 30
0.0
 10
94.07816943011832
 20
423.0728161643991
 30
0.0
 10
93.17070503473737
 20
423.0862097550813
 30
0.0
 10
91.66747519628728
 20
423.1429205797894
 30
0.0
 10
91.06095429885318
 20
423.1874491499008
 30
0.0
 10
90.25269251597084
 20
423.3190463089493
 30
0.0
 10
90.04232502596722
 20
423.407688875449
 30
0.0
 10
90.04576499350888
 20
423.5650858663435
 30
0.0
 10
90.0932686614896
 20
423.6196387684885
 30
0.0
 10
90.18577801596948
 20
423.6770448067041
 30
0.0
  0
SPLINE
  5
9E
330
75
100
AcDbEntity
  8
14802200_0104255
  6
Continuous
 62
     7
100
AcDbSpline
210
0.0
220
0.0
230
1.0
 70
     8
 71
     3
 72
    16
 73
    12
 74
     0
 42
0.0000000006556848
 43
0.0000000001
 40
0.0
 40
0.0
 40
0.0
 40
0.0
 40
0.1250000000000003
 40
0.1250000000000003
 40
0.2500000000000006
 40
0.2500000000000006
 40
0.3750000000000008
 40
0.3750000000000008
 40
0.5000000000000011
 40
0.5000000000000011
 40
0.5587996609330272
 40
0.5587996609330272
 40
0.5587996609330272
 40
0.5587996609330272
 10
98.19464473728121
 20
423.0539396794115
 30
0.0
 10
99.27238669269056
 20
423.0553572481563
 30
0.0
 10
100.3352150925107
 20
423.0576683066411
 30
0.0
 10
102.3111200444555
 20
423.072816164399
 30
0.0
 10
103.2185844398368
 20
423.0862097550811
 30
0.0
 10
104.7218142782872
 20
423.1429205797892
 30
0.0
 10
105.3283351757214
 20
423.1874491499006
 30
0.0
 10
106.1365969586039
 20
423.3190463089492
 30
0.0
 10
106.3469644486074
 20
423.4076888754489
 30
0.0
 10
106.3435244810655
 20
423.5650858663434
 30
0.0
 10
106.2960208130849
 20
423.6196387684883
 30
0.0
 10
106.2035114586053
 20
423.6770448067038
 30
0.0
  0
ARC
  5
9F
330
75
100
AcDbEntity
  8
14802200_0104255
  6
Continuous
 62
     7
100
AcDbCircle
 10
98.6699621009
 20
391.2088753888
 30
0.0
 40
35.54707297530269
100
AcDbArc
 50
151.3039444546
 51
219.8452363473
  0
ARC
  5
A0
330
75
100
AcDbEntity
  8
14802200_0104255
  6
Continuous
 62
     7
100
AcDbCircle
 10
97.7197314479
 20
391.2086848181
 30
0.0
 40
35.54664063455414
100
AcDbArc
 50
320.1545821895
 51
28.6942908298
  0
ARC
  5
A1
330
75
100
AcDbEntity
  8
14802200_0104255
  6
Continuous
 62
     7
100
AcDbCircle
 10
98.2876697881
 20
390.7307596307
 30
0.0
 40
34.80444144472013
100
AcDbArc
 50
269.8468811451
 51
320.1607731462
  0
ARC
  5
A2
330
75
100
AcDbEntity
  8
14802200_0104255
  6
Continuous
 62
     7
100
AcDbCircle
 10
98.1016196549
 20
390.7307596017
 30
0.0
 40
34.80444140183142
100
AcDbArc
 50
219.8392268505
 51
270.1531179365
  0
ARC
  5
A3
330
75
100
AcDbEntity
  8
14802200_0104255
  6
Continuous
 62
     7
100
AcDbCircle
 10
161.4517100732
 20
353.9421115468
 30
0.0
 40
108.5506033187103
100
AcDbArc
 50
141.2356253376
 51
148.6417075028
  0
SPLINE
  5
A4
330
75
100
AcDbEntity
  8
14802200_0104255
  6
Continuous
 62
     7
100
AcDbSpline
210
0.0
220
0.0
230
1.0
 70
     8
 71
     3
 72
    47
 73
    43
 74
     0
 42
0.0000000003410262
 43
0.0000000001
 40
0.4525392734137952
 40
0.4525392734137952
 40
0.4525392734137952
 40
0.4525392734137952
 40
0.4645958020768749
 40
0.4829836348696521
 40
0.500440572749229
 40
0.516544635435299
 40
0.5312955647277765
 40
0.5474097762328499
 40
0.5655471954388639
 40
0.5857185261512281
 40
0.6104336040977795
 40
0.6318972001693137
 40
0.6490580873304463
 40
0.6621117083597781
 40
0.6747338941554417
 40
0.6884918331518831
 40
0.7048105884952605
 40
0.7246036438763555
 40
0.7379681619054164
 40
0.7506738204392421
 40
0.7627896358830486
 40
0.7743817607035061
 40
0.7868169287414825
 40
0.8016798903016525
 40
0.8168552297961964
 40
0.8295329475864003
 40
0.8401790798123661
 40
0.8495700257459693
 40
0.861006544183473
 40
0.8762620988441737
 40
0.8883541819761599
 40
0.898050070397122
 40
0.9057922079236947
 40
0.9145482424373605
 40
0.924879090396025
 40
0.9360564042120094
 40
0.9455378464383054
 40
0.9531026743175822
 40
0.9641229366937984
 40
0.9779691689150238
 40
0.9938147649471751
 40
1.0
 40
1.0
 40
1.0
 40
1.0
 10
78.47810047865237
 20
409.2057574120448
 30
0.0
 10
78.47802283757906
 20
409.2057070171153
 30
0.0
 10
78.47809730919704
 20
409.1989931354922
 30
0.0
 10
78.478441900453
 20
409.1720590031721
 30
0.0
 10
78.47919421334463
 20
409.1160144035131
 30
0.0
 10
78.48002066963818
 20
409.0350800726787
 30
0.0
 10
78.48072464856956
 20
408.9225642416129
 30
0.0
 10
78.4809808209544
 20
408.7632774272805
 30
0.0
 10
78.48021206213411
 20
408.5525555474035
 30
0.0
 10
78.47786285121411
 20
408.2748460769279
 30
0.0
 10
78.4737364835171
 20
407.9522016313532
 30
0.0
 10
78.46853839281184
 20
407.6196815097048
 30
0.0
 10
78.46353080410262
 20
407.322953120815
 30
0.0
 10
78.45844207972121
 20
407.0315672175369
 30
0.0
 10
78.45309257492804
 20
406.7301613099308
 30
0.0
 10
78.44710557706905
 20
406.3916284676445
 30
0.0
 10
78.43959801247428
 20
405.9534464523069
 30
0.0
 10
78.43223956661117
 20
405.4885591896164
 30
0.0
 10
78.42585310903735
 20
405.0296394206356
 30
0.0
 10
78.4209503805138
 20
404.6224457726673
 30
0.0
 10
78.4168893551619
 20
404.2115403443072
 30
0.0
 10
78.41367518641037
 20
403.7837981941771
 30
0.0
 10
78.41133385795507
 20
403.2933520748852
 30
0.0
 10
78.41065168351821
 20
402.7318821503757
 30
0.0
 10
78.41245453448853
 20
402.1524200499177
 30
0.0
 10
78.41650680867009
 20
401.611743535721
 30
0.0
 10
78.42200844122806
 20
401.1332610272487
 30
0.0
 10
78.42922999470336
 20
400.6571381089712
 30
0.0
 10
78.44011494808127
 20
400.0909427525619
 30
0.0
 10
78.45530722736808
 20
399.4758550719778
 30
0.0
 10
78.47342021510896
 20
398.882621086603
 30
0.0
 10
78.49028597593322
 20
398.4043261371341
 30
0.0
 10
78.50727095973282
 20
397.9704917749272
 30
0.0
 10
78.52651268540963
 20
397.5221287997931
 30
0.0
 10
78.55056454679759
 20
397.0137897440937
 30
0.0
 10
78.57789999155193
 20
396.4913959810631
 30
0.0
 10
78.60518611684306
 20
396.0142672415957
 30
0.0
 10
78.63432860950998
 20
395.5384087780743
 30
0.0
 10
78.67089051556731
 20
394.98133506877
 30
0.0
 10
78.72125496012596
 20
394.2819127638207
 30
0.0
 10
78.77117665879881
 20
393.641389738083
 30
0.0
 10
78.80268103177208
 20
393.2826588563909
 30
0.0
 10
78.81309106504301
 20
393.1644395661069
 30
0.0
  0
ARC
  5
A5
330
75
100
AcDbEntity
  8
14802200_0104255
  6
Continuous
 62
     7
100
AcDbCircle
 10
97.9475263961
 20
344.5347403309
 30
0.0
 40
82.11900431416106
100
AcDbArc
 50
95.4184263251
 51
101.738166576
  0
ARC
  5
A6
330
75
100
AcDbEntity
  8
14802200_0104255
  6
Continuous
 62
     7
100
AcDbCircle
 10
98.441978356
 20
344.5393741847
 30
0.0
 40
82.11437123539831
100
AcDbArc
 50
78.3376090749
 51
84.5814178849
  0
ARC
  5
A7
330
75
100
AcDbEntity
  8
14802200_0104255
  6
Continuous
 62
     7
100
AcDbCircle
 10
33.9288084315
 20
353.2392198272
 30
0.0
 40
109.7779291194666
100
AcDbArc
 50
31.3955274579
 51
38.7045697895
  0
SPLINE
  5
A8
330
75
100
AcDbEntity
  8
14802200_0104255
  6
Continuous
 62
     7
100
AcDbSpline
210
0.0
220
0.0
230
1.0
 70
     8
 71
     3
 72
    45
 73
    41
 74
     0
 42
0.0000000003410197
 43
0.0000000001
 40
0.0
 40
0.0
 40
0.0
 40
0.0
 40
0.0155621495592753
 40
0.0283415460096817
 40
0.0391232392233283
 40
0.0480684591691759
 40
0.0589003134337662
 40
0.073019229426883
 40
0.0864895580893114
 40
0.0973144706951404
 40
0.1085124385218453
 40
0.1237283841501189
 40
0.1389840852965818
 40
0.1504207135489808
 40
0.1598117496556321
 40
0.1704579841071039
 40
0.1831358236303558
 40
0.1983113088404264
 40
0.2131744131166298
 40
0.2256097005586602
 40
0.2372019366881641
 40
0.2493178684695602
 40
0.2620236490047242
 40
0.2753882953615739
 40
0.2973295218313158
 40
0.3149114367404046
 40
0.3299304748600028
 40
0.343696547674869
 40
0.3537708151384708
 40
0.3659605965626348
 40
0.3802808176085838
 40
0.3967440498868083
 40
0.4142757533107436
 40
0.4395946938662124
 40
0.4616232149992012
 40
0.4807125936168459
 40
0.5007533381596625
 40
0.5179825585802614
 40
0.5360280466277846
 40
0.5474503450701921
 40
0.5474503450701921
 40
0.5474503450701921
 40
0.5474503450701921
 10
117.5734731966939
 20
393.164666947889
 30
0.0
 10
117.600162020099
 20
393.4622359836362
 30
0.0
 10
117.6408315117797
 20
393.9173695522471
 30
0.0
 10
117.6918072967292
 20
394.6082590131775
 30
0.0
 10
117.7307545591092
 20
395.1666848882628
 30
0.0
 10
117.7645080388373
 20
395.6896193416157
 30
0.0
 10
117.7988712600186
 20
396.2632228991286
 30
0.0
 10
117.8338792429072
 20
396.9116848843877
 30
0.0
 10
117.8645601201883
 20
397.5568259749226
 30
0.0
 10
117.8894488515914
 20
398.1502182214153
 30
0.0
 10
117.9119449129586
 20
398.7588675243559
 30
0.0
 10
117.9327513330705
 20
399.4261309036908
 30
0.0
 10
117.9491759604968
 20
400.0909789091378
 30
0.0
 10
117.9600592115257
 20
400.6571313425924
 30
0.0
 10
117.9672811086946
 20
401.1332629283679
 30
0.0
 10
117.9727826403251
 20
401.6117428845737
 30
0.0
 10
117.9768349487347
 20
402.1524202983178
 30
0.0
 10
117.9786377900987
 20
402.7318819900536
 30
0.0
 10
117.9779556118055
 20
403.2933524129186
 30
0.0
 10
117.9756143040142
 20
403.7837972271144
 30
0.0
 10
117.9724000629387
 20
404.2115437542446
 30
0.0
 10
117.9683393208003
 20
404.6224320930563
 30
0.0
 10
117.963435454856
 20
405.0296943605724
 30
0.0
 10
117.9567553723143
 20
405.5097766797977
 30
0.0
 10
117.9488256724521
 20
406.0065230807635
 30
0.0
 10
117.940715151583
 20
406.4755523275397
 30
0.0
 10
117.9342756962065
 20
406.8381069586286
 30
0.0
 10
117.9291489429133
 20
407.128239743918
 30
0.0
 10
117.9251742647068
 20
407.3578229553876
 30
0.0
 10
117.9215955593938
 20
407.5701762697697
 30
0.0
 10
117.9178837328462
 20
407.8017335074462
 30
0.0
 10
117.9143159223054
 20
408.0464763287981
 30
0.0
 10
117.9108574211715
 20
408.3314518397033
 30
0.0
 10
117.9086268161
 20
408.6132565401595
 30
0.0
 10
117.9082766651237
 20
408.8569922398066
 30
0.0
 10
117.9091129213005
 20
409.0213691331543
 30
0.0
 10
117.9100955165269
 20
409.1161866945055
 30
0.0
 10
117.9108755002028
 20
409.1741344542705
 30
0.0
 10
117.9112001360335
 20
409.1995063743186
 30
0.0
 10
117.9112606149046
 20
409.2056817014064
 30
0.0
 10
117.9111884515595
 20
409.2057478924602
 30
0.0
  0
ARC
  5
A9
330
75
100
AcDbEntity
  8
14802200_0104255
  6
Continuous
 62
     7
100
AcDbCircle
 10
80.0969810421
 20
392.4565118022
 30
0.0
 40
0.1876390702477082
100
AcDbArc
 50
269.3365305469
 51
331.1225032366
  0
ARC
  5
AA
330
75
100
AcDbEntity
  8
14802200_0104255
  6
Continuous
 62
     7
100
AcDbCircle
 10
83.2949244603
 20
417.213435231
 30
0.0
 40
8.00469639644738
100
AcDbArc
 50
104.9601330087
 51
143.61416595
  0
ARC
  5
AB
330
75
100
AcDbEntity
  8
14802200_0104255
  6
Continuous
 62
     7
100
AcDbCircle
 10
116.2922424938
 20
392.4562644577
 30
0.0
 40
0.1873925184617899
100
AcDbArc
 50
208.8956255203
 51
270.6845047549
  0
ARC
  5
AC
330
75
100
AcDbEntity
  8
14802200_0104255
  6
Continuous
 62
     7
100
AcDbCircle
 10
113.0802113552
 20
417.1808036169
 30
0.0
 40
8.039557034523428
100
AcDbArc
 50
35.5702053288
 51
75.0571158051
  0
SPLINE
  5
AD
330
75
100
AcDbEntity
  8
14802200_0104255
  6
Continuous
 62
     7
100
AcDbSpline
210
0.0
220
0.0
230
1.0
 70
     8
 71
     3
 72
    27
 73
    23
 74
     0
 42
0.0000000030719556
 43
0.0000000001
 40
0.0
 40
0.0
 40
0.0
 40
0.0
 40
0.0198206668524093
 40
0.0360131776150112
 40
0.0418968303848593
 40
0.046007869985439
 40
0.0474956476585788
 40
0.0481715472792777
 40
0.048852927793752
 40
0.0495857027961606
 40
0.0504112923410907
 40
0.0524606168451528
 40
0.0586907682118158
 40
0.0683914540185179
 40
0.0903508334045011
 40
0.121068161814445
 40
0.1599504311589922
 40
0.2063787248326428
 40
0.2708591539314963
 40
0.3441301569738832
 40
0.4250780371001395
 40
0.5124577176117276
 40
0.5124577176117276
 40
0.5124577176117276
 40
0.5124577176117276
 10
78.81146866656314
 20
393.1744504303358
 30
0.0
 10
78.8152262363638
 20
393.137784295413
 30
0.0
 10
78.8231164825263
 20
393.0785222070808
 30
0.0
 10
78.84721635770063
 20
392.9932064343394
 30
0.0
 10
78.87542628686222
 20
392.9209959133049
 30
0.0
 10
78.89450312173368
 20
392.878218764581
 30
0.0
 10
78.91161994017264
 20
392.843999899361
 30
0.0
 10
78.92050224564082
 20
392.8270799718659
 30
0.0
 10
78.92708794915143
 20
392.814883684812
 30
0.0
 10
78.93372226876099
 20
392.8029312514328
 30
0.0
 10
78.9432901386537
 20
392.7861486957366
 30
0.0
 10
78.96265997056325
 20
392.7536800577439
 30
0.0
 10
78.9870788296867
 20
392.7164802321894
 30
0.0
 10
79.0236404450004
 20
392.6657011446854
 30
0.0
 10
79.06539323375455
 20
392.6167136941083
 30
0.0
 10
79.11758079575736
 20
392.5663868208968
 30
0.0
 10
79.17930349321684
 20
392.5205815135729
 30
0.0
 10
79.26149653864105
 20
392.4751783144974
 30
0.0
 10
79.37389180314503
 20
392.4324400401121
 30
0.0
 10
79.53484612300252
 20
392.3926906405788
 30
0.0
 10
79.75376620587652
 20
392.357438075398
 30
0.0
 10
79.9399026982306
 20
392.337409998967
 30
0.0
 10
80.0462896391402
 20
392.3279718038211
 30
0.0
  0
SPLINE
  5
AE
330
75
100
AcDbEntity
  8
14802200_0104255
  6
Continuous
 62
     7
100
AcDbSpline
210
0.0
220
0.0
230
1.0
 70
     8
 71
     3
 72
     8
 73
     4
 74
     0
 42
0.0000000024792254
 43
0.0000000001
 40
0.5537583026595027
 40
0.5537583026595027
 40
0.5537583026595027
 40
0.5537583026595027
 40
0.5683823674020051
 40
0.5683823674020051
 40
0.5683823674020051
 40
0.5683823674020051
 10
80.20366352971708
 20
392.3152229020121
 30
0.0
 10
80.22300514816517
 20
392.3137920541466
 30
0.0
 10
80.24261732775199
 20
392.3123870358075
 30
0.0
 10
80.26249903494228
 20
392.3110074887679
 30
0.0
  0
SPLINE
  5
AF
330
75
100
AcDbEntity
  8
14802200_0104255
  6
Continuous
 62
     7
100
AcDbSpline
210
0.0
220
0.0
230
1.0
 70
     8
 71
     3
 72
    27
 73
    23
 74
     0
 42
0.0000000051620457
 43
0.0000000001
 40
0.0
 40
0.0
 40
0.0
 40
0.0
 40
0.136339208575519
 40
0.2697976192063564
 40
0.3972867863196989
 40
0.5157027651099567
 40
0.6018295045995664
 40
0.6786148080152706
 40
0.744521522117778
 40
0.7981515290768071
 40
0.839610131154401
 40
0.8761774337140854
 40
0.8982813761656571
 40
0.9050086281760312
 40
0.9075935933084676
 40
0.9098413910064321
 40
0.9119399276767535
 40
0.9140836756566639
 40
0.9190474062398238
 40
0.9331180367249503
 40
0.9524577583670497
 40
1.0
 40
1.0
 40
1.0
 40
1.0
 10
116.1103059219981
 20
392.251696903301
 30
0.0
 10
116.194833661941
 20
392.2523014111219
 30
0.0
 10
116.3347292253468
 20
392.2536845106445
 30
0.0
 10
116.5279769336653
 20
392.2643678984629
 30
0.0
 10
116.6882193555906
 20
392.2816666335538
 30
0.0
 10
116.8150032561909
 20
392.3048811283581
 30
0.0
 10
116.9150716533869
 20
392.3326815875793
 30
0.0
 10
116.994258314248
 20
392.3630957279121
 30
0.0
 10
117.0633737554521
 20
392.3983157196957
 30
0.0
 10
117.125868460854
 20
392.4388583466161
 30
0.0
 10
117.1866711624919
 20
392.4864736439293
 30
0.0
 10
117.2469758751092
 20
392.5424498136267
 30
0.0
 10
117.3036826389555
 20
392.6023268921213
 30
0.0
 10
117.3507115064394
 20
392.6594192604556
 30
0.0
 10
117.3735495192626
 20
392.6890226882342
 30
0.0
 10
117.3891804702668
 20
392.7100785272794
 30
0.0
 10
117.4046236080562
 20
392.7317374655049
 30
0.0
 10
117.4254159275667
 20
392.7621576367831
 30
0.0
 10
117.4638318791222
 20
392.8227117631695
 30
0.0
 10
117.5031263584948
 20
392.8972468908958
 30
0.0
 10
117.556359931096
 20
393.0242962191712
 30
0.0
 10
117.5694300593376
 20
393.1070669209299
 30
0.0
 10
117.5778208080116
 20
393.1744504303358
 30
0.0
  0
LINE
  5
B1
330
75
100
AcDbEntity
  8
05531K31_USA_REG
  6
Continuous
 62
     7
100
AcDbLine
 10
88.6946447373
 20
383.0016969033
 30
0.0
 11
107.6946447373
 21
383.0016969033
 31
0.0
  0
LINE
  5
B2
330
75
100
AcDbEntity
  8
05531K31_USA_REG
  6
Continuous
 62
     7
100
AcDbLine
 10
107.6946447373
 20
383.0016969033
 30
0.0
 11
107.6946447373
 21
385.4934838568
 31
0.0
  0
LINE
  5
B3
330
75
100
AcDbEntity
  8
05531K31_USA_REG
  6
Continuous
 62
     7
100
AcDbLine
 10
88.6946447373
 20
385.4934838568
 30
0.0
 11
88.6946447373
 21
383.0016969033
 31
0.0
  0
LINE
  5
B5
330
75
100
AcDbEntity
  8
14802700_0104256
  6
Continuous
 62
     7
100
AcDbLine
 10
114.870555517
 20
385.4934838568
 30
0.0
 11
81.5187339576
 21
385.4934838568
 31
0.0
  0
LINE
  5
B6
330
75
100
AcDbEntity
  8
14802700_0104256
  6
Continuous
 62
     7
100
AcDbLine
 10
80.2130758411
 20
392.2516969033
 30
0.0
 11
116.4241317112
 21
392.2516969033
 31
0.0
  0
ARC
  5
B7
330
75
100
AcDbEntity
  8
14802700_0104256
  6
Continuous
 62
     7
100
AcDbCircle
 10
81.5187339576
 20
386.4934838568
 30
0.0
 40
1.000000000000016
100
AcDbArc
 50
196.4294938409
 51
270.0
  0
ARC
  5
B8
330
75
100
AcDbEntity
  8
14802700_0104256
  6
Continuous
 62
     7
100
AcDbCircle
 10
114.870555517
 20
386.4934838568
 30
0.0
 40
1.0
100
AcDbArc
 50
270.0
 51
343.5705061591
  0
ARC
  5
B9
330
75
100
AcDbEntity
  8
14802700_0104256
  6
Continuous
 62
     7
100
AcDbCircle
 10
96.0815387492
 20
390.7876973953
 30
0.0
 40
16.18273866309179
100
AcDbArc
 50
174.8095415055
 51
196.4294938409
  0
ARC
  5
BA
330
75
100
AcDbEntity
  8
14802700_0104256
  6
Continuous
 62
     7
100
AcDbCircle
 10
100.3077507254
 20
390.7876973953
 30
0.0
 40
16.1827386630918
100
AcDbArc
 50
343.5705061591
 51
5.1904584945
  0
LINE
  5
BC
330
75
100
AcDbEntity
  8
02350037_REGLER_
  6
Continuous
 62
     7
100
AcDbLine
 10
105.5246316361
 20
382.5016969033
 30
0.0
 11
103.5336438072
 21
382.5016969033
 31
0.0
  0
LINE
  5
BD
330
75
100
AcDbEntity
  8
02350037_REGLER_
  6
Continuous
 62
     7
100
AcDbLine
 10
103.5336438072
 20
382.5016969033
 30
0.0
 11
101.0164701425
 21
382.5016969033
 31
0.0
  0
LINE
  5
BE
330
75
100
AcDbEntity
  8
02350037_REGLER_
  6
Continuous
 62
     7
100
AcDbLine
 10
101.0164701425
 20
382.5016969033
 30
0.0
 11
98.5174055659
 21
382.5016969033
 31
0.0
  0
LINE
  5
BF
330
75
100
AcDbEntity
  8
02350037_REGLER_
  6
Continuous
 62
     7
100
AcDbLine
 10
98.5174055659
 20
382.5016969033
 30
0.0
 11
98.3668859745
 21
382.5016969033
 31
0.0
  0
LINE
  5
C0
330
75
100
AcDbEntity
  8
02350037_REGLER_
  6
Continuous
 62
     7
100
AcDbLine
 10
98.3668859745
 20
382.5016969033
 30
0.0
 11
96.846736915
 21
382.5016969033
 31
0.0
  0
LINE
  5
C1
330
75
100
AcDbEntity
  8
02350037_REGLER_
  6
Continuous
 62
     7
100
AcDbLine
 10
96.846736915
 20
382.5016969033
 30
0.0
 11
95.15802858
 21
382.5016969033
 31
0.0
  0
LINE
  5
C2
330
75
100
AcDbEntity
  8
02350037_REGLER_
  6
Continuous
 62
     7
100
AcDbLine
 10
95.15802858
 20
382.5016969033
 30
0.0
 11
92.7818602512
 21
382.5016969033
 31
0.0
  0
LINE
  5
C3
330
75
100
AcDbEntity
  8
02350037_REGLER_
  6
Continuous
 62
     7
100
AcDbLine
 10
92.7818602512
 20
382.5016969033
 30
0.0
 11
91.6669638336
 21
382.5016969033
 31
0.0
  0
LINE
  5
C4
330
75
100
AcDbEntity
  8
02350037_REGLER_
  6
Continuous
 62
     7
100
AcDbLine
 10
91.6669638336
 20
382.5016969033
 30
0.0
 11
90.19594122
 21
382.5016969033
 31
0.0
  0
LINE
  5
C5
330
75
100
AcDbEntity
  8
02350037_REGLER_
  6
Continuous
 62
     7
100
AcDbLine
 10
90.1824667742
 20
382.5016969033
 30
0.0
 11
90.19594122
 21
382.5016969033
 31
0.0
  0
LINE
  5
C6
330
75
100
AcDbEntity
  8
02350037_REGLER_
  6
Continuous
 62
     7
100
AcDbLine
 10
90.19594122
 20
383.0016969033
 30
0.0
 11
90.19594122
 21
382.5016969033
 31
0.0
  0
LINE
  5
C7
330
75
100
AcDbEntity
  8
02350037_REGLER_
  6
Continuous
 62
     7
100
AcDbLine
 10
90.1824667742
 20
382.5016969033
 30
0.0
 11
90.1824667742
 21
383.0016969033
 31
0.0
  0
LINE
  5
C8
330
75
100
AcDbEntity
  8
02350037_REGLER_
  6
Continuous
 62
     7
100
AcDbLine
 10
92.7818602512
 20
383.0016969033
 30
0.0
 11
92.7818602512
 21
382.5016969033
 31
0.0
  0
LINE
  5
C9
330
75
100
AcDbEntity
  8
02350037_REGLER_
  6
Continuous
 62
     7
100
AcDbLine
 10
101.0164701425
 20
382.5016969033
 30
0.0
 11
101.0164701425
 21
383.0016969033
 31
0.0
  0
LINE
  5
CA
330
75
100
AcDbEntity
  8
02350037_REGLER_
  6
Continuous
 62
     7
100
AcDbLine
 10
105.5246316361
 20
382.5016969033
 30
0.0
 11
105.5246316361
 21
383.0016969033
 31
0.0
  0
LINE
  5
CC
330
75
100
AcDbEntity
  8
T14080066__DESVI
  6
Continuous
 62
     7
100
AcDbLine
 10
106.1946447373
 20
423.3764470101
 30
0.0
 11
106.1946447373
 21
440.9536969033
 31
0.0
  0
LINE
  5
CD
330
75
100
AcDbEntity
  8
T14080066__DESVI
  6
Continuous
 62
     7
100
AcDbLine
 10
90.1946447373
 20
440.9536969033
 30
0.0
 11
90.1946447373
 21
423.3764470101
 31
0.0
  0
LINE
  5
CF
330
75
100
AcDbEntity
  8
14802500_0104256
  6
Continuous
 62
     7
100
AcDbLine
 10
107.2439659837
 20
440.9536969033
 30
0.0
 11
89.1453234909
 21
440.9536969033
 31
0.0
  0
ARC
  5
D0
330
75
100
AcDbEntity
  8
14802500_0104256
  6
Continuous
 62
     7
100
AcDbCircle
 10
84.6252957036
 20
460.0922338786
 30
0.0
 40
0.2000000000000057
100
AcDbArc
 50
90.0
 51
188.1835244951
  0
ARC
  5
D1
330
75
100
AcDbEntity
  8
14802500_0104256
  6
Continuous
 62
     7
100
AcDbCircle
 10
111.7639937709
 20
460.0922338786
 30
0.0
 40
0.1999999999999872
100
AcDbArc
 50
351.8164755049
 51
90.0
  0
ARC
  5
D2
330
75
100
AcDbEntity
  8
14802500_0104256
  6
Continuous
 62
     7
100
AcDbCircle
 10
-46.3033171011
 20
482.8236868729
 30
0.0
 40
159.893436689056
100
AcDbArc
 50
345.0950458603
 51
351.8164755049
  0
ARC
  5
D3
330
75
100
AcDbEntity
  8
14802500_0104256
  6
Continuous
 62
     7
100
AcDbCircle
 10
242.6926065757
 20
482.8236868729
 30
0.0
 40
159.893436689056
100
AcDbArc
 50
188.1835244951
 51
194.9049541397
  0
ARC
  5
D4
330
75
100
AcDbEntity
  8
14802500_0104256
  6
Continuous
 62
     7
100
AcDbCircle
 10
89.1453234909
 20
441.9536969033
 30
0.0
 40
0.9999999999999996
100
AcDbArc
 50
194.9049541397
 51
270.0
  0
ARC
  5
D5
330
75
100
AcDbEntity
  8
14802500_0104256
  6
Continuous
 62
     7
100
AcDbCircle
 10
107.2439659837
 20
441.9536969033
 30
0.0
 40
1.000000000000001
100
AcDbArc
 50
270.0
 51
345.0950458603
  0
LINE
  5
D7
330
75
100
AcDbEntity
  8
14803500_0104258
  6
Continuous
 62
     7
100
AcDbLine
 10
111.7946447373
 20
460.2922338786
 30
0.0
 11
84.5946447373
 21
460.2922338786
 31
0.0
  0
ARC
  5
D8
330
75
100
AcDbEntity
  8
14803500_0104258
  6
Continuous
 62
     7
100
AcDbCircle
 10
84.5946447373
 20
460.4922338786
 30
0.0
 40
0.1999999999999988
100
AcDbArc
 50
180.0
 51
270.0
  0
ARC
  5
D9
330
75
100
AcDbEntity
  8
14803500_0104258
  6
Continuous
 62
     7
100
AcDbCircle
 10
111.7946447373
 20
460.4922338786
 30
0.0
 40
0.2000000000000057
100
AcDbArc
 50
270.0
 51
0.0
  0
LINE
  5
DA
330
75
100
AcDbEntity
  8
14803500_0104258
  6
Continuous
 62
     7
100
AcDbLine
 10
84.3946447373
 20
463.2436130785
 30
0.0
 11
84.3946447373
 21
460.4922338786
 31
0.0
  0
LINE
  5
DB
330
75
100
AcDbEntity
  8
14803500_0104258
  6
Continuous
 62
     7
100
AcDbLine
 10
111.9946447373
 20
460.4922338786
 30
0.0
 11
111.9946447373
 21
463.2436130785
 31
0.0
  0
ARC
  5
DC
330
75
100
AcDbEntity
  8
14803500_0104258
  6
Continuous
 62
     7
100
AcDbCircle
 10
84.8946447373
 20
463.2436130785
 30
0.0
 40
0.5000000000000056
100
AcDbArc
 50
105.6700277769
 51
180.0
  0
ARC
  5
DD
330
75
100
AcDbEntity
  8
14803500_0104258
  6
Continuous
 62
     7
100
AcDbCircle
 10
111.4946447373
 20
463.2436130785
 30
0.0
 40
0.5000000000000004
100
AcDbArc
 50
0.0
 51
74.3299722231
  0
ARC
  5
DE
330
75
100
AcDbEntity
  8
14803500_0104258
  6
Continuous
 62
     7
100
AcDbCircle
 10
98.1946447373
 20
415.8321642507
 30
0.0
 40
49.74160314160839
100
AcDbArc
 50
89.9997946721
 51
105.6700277769
  0
ARC
  5
DF
330
75
100
AcDbEntity
  8
14803500_0104258
  6
Continuous
 62
     7
100
AcDbCircle
 10
98.1946447373
 20
415.8321642507
 30
0.0
 40
49.74160314160837
100
AcDbArc
 50
74.3299722231
 51
89.9997946721
  0
ENDBLK
  5
E1
330
75
100
AcDbEntity
  8
0
100
AcDbBlockEnd
  0
BLOCK
  5
167
330
E2
100
AcDbEntity
  8
0
100
AcDbBlockBegin
  2
SE1
 70
     0
 10
0.0
 20
0.0
 30
0.0
  3
SE1
  1

  0
LINE
  5
E4
330
E2
100
AcDbEntity
  8
14802200_0104255
  6
Continuous
 62
     7
100
AcDbLine
 10
198.8162717439
 20
414.6648808072
 30
0.0
 11
198.8162717439
 21
369.1000952673
 31
0.0
  0
LINE
  5
E5
330
E2
100
AcDbEntity
  8
14802200_0104255
  6
Continuous
 62
     7
100
AcDbLine
 10
198.8162717438
 20
415.0706063329
 30
0.0
 11
198.8162717438
 21
414.6649146352
 31
0.0
  0
LINE
  5
E6
330
E2
100
AcDbEntity
  8
14802200_0104255
  6
Continuous
 62
     7
100
AcDbLine
 10
198.8162717438
 20
421.2812632841
 30
0.0
 11
198.8162717438
 21
421.1819519203
 31
0.0
  0
LINE
  5
E7
330
E2
100
AcDbEntity
  8
14802200_0104255
  6
Continuous
 62
     7
100
AcDbLine
 10
198.8162717439
 20
369.1000952673
 30
0.0
 11
198.8162717439
 21
356.9076463054
 31
0.0
  0
ARC
  5
E8
330
E2
100
AcDbEntity
  8
14802200_0104255
  6
Continuous
 62
     7
100
AcDbCircle
 10
229.6810008661
 20
322.9805120322
 30
0.0
 40
41.61003752902595
100
AcDbArc
 50
117.0357447844
 51
117.0373547272
  0
ARC
  5
E9
330
E2
100
AcDbEntity
  8
14802200_0104255
  6
Continuous
 62
     7
100
AcDbCircle
 10
229.6810008661
 20
322.9805120322
 30
0.0
 40
41.61003752902595
100
AcDbArc
 50
105.0645283817
 51
105.0661928157
  0
ARC
  5
EA
330
E2
100
AcDbEntity
  8
14802200_0104255
  6
Continuous
 62
     7
100
AcDbCircle
 10
229.6813881294
 20
322.9795058518
 30
0.0
 40
41.61110978315128
100
AcDbArc
 50
105.0663739252
 51
117.0356250842
  0
ARC
  5
EB
330
E2
100
AcDbEntity
  8
14802200_0104255
  6
Continuous
 62
     7
100
AcDbCircle
 10
-29109.5006153053
 20
182.6287463539
 30
0.0
 40
29310.20276280661
100
AcDbArc
 50
0.3633426088
 51
0.454917378
  0
ARC
  5
EC
330
E2
100
AcDbEntity
  8
14802200_0104255
  6
Continuous
 62
     7
100
AcDbCircle
 10
199.7460189086
 20
415.0129495307
 30
0.0
 40
0.931533527652495
100
AcDbArc
 50
165.1319567924
 51
176.451108856
  0
SPLINE
  5
ED
330
E2
100
AcDbEntity
  8
14802200_0104255
  6
Continuous
 62
     7
100
AcDbSpline
210
0.0
220
0.0
230
1.0
 70
     8
 71
     3
 72
    36
 73
    32
 74
     0
 42
0.0000000015760192
 43
0.0000000001
 40
0.0
 40
0.0
 40
0.0
 40
0.0
 40
0.04997194550272
 40
0.0999445838128055
 40
0.1499176717319864
 40
0.1998908911059872
 40
0.2498639274725449
 40
0.2998365508691083
 40
0.3498086985474606
 40
0.3997805593925837
 40
0.4283621043396753
 40
0.4569437363599478
 40
0.4855254648031077
 40
0.5141072907838576
 40
0.5426892108449131
 40
0.5712712206152114
 40
0.5998533184642934
 40
0.6284354927295005
 40
0.6570176678587742
 40
0.6855997620943737
 40
0.7141817122548955
 40
0.7427634773977865
 40
0.7713450424799293
 40
0.7999264220175191
 40
0.8285076637450313
 40
0.8570888522729226
 40
0.8856701127435269
 40
0.9142516144844476
 40
0.942833574658518
 40
0.9714162619091904
 40
1.0
 40
1.0
 40
1.0
 40
1.0
 10
199.7732005874331
 20
422.2805739126076
 30
0.0
 10
199.7687501371687
 20
422.2781150668158
 30
0.0
 10
199.759873758943
 20
422.2726790233472
 30
0.0
 10
199.7508102225262
 20
422.2228939711792
 30
0.0
 10
199.7442360663821
 20
422.142842410622
 30
0.0
 10
199.7400013017841
 20
422.0296951586504
 30
0.0
 10
199.7375243980352
 20
421.8844303662723
 30
0.0
 10
199.7363395829433
 20
421.707007111686
 30
0.0
 10
199.7359500327664
 20
421.4976575175937
 30
0.0
 10
199.7358789063978
 20
421.2909372926027
 30
0.0
 10
199.73571589651
 20
421.1008775436908
 30
0.0
 10
199.7355294023683
 20
420.9384642992389
 30
0.0
 10
199.7352911994637
 20
420.765789851194
 30
0.0
 10
199.7350056240236
 20
420.5828918009173
 30
0.0
 10
199.7346770070896
 20
420.3898079433119
 30
0.0
 10
199.7343096851427
 20
420.1865757785908
 30
0.0
 10
199.7339079794324
 20
419.9732326918246
 30
0.0
 10
199.733476270837
 20
419.7498161339262
 30
0.0
 10
199.7330170592073
 20
419.5163635962965
 30
0.0
 10
199.7325327780881
 20
419.2729127774668
 30
0.0
 10
199.7320258792879
 20
419.0195014106011
 30
0.0
 10
199.731498810299
 20
418.7561672468365
 30
0.0
 10
199.7309540206285
 20
418.4829479208248
 30
0.0
 10
199.7303939601308
 20
418.1998814697893
 30
0.0
 10
199.7298210805333
 20
417.9070044111616
 30
0.0
 10
199.7292378321858
 20
417.6043589321193
 30
0.0
 10
199.7286466767201
 20
417.2919660727548
 30
0.0
 10
199.7280500408484
 20
416.9699258233085
 30
0.0
 10
199.7274504896961
 20
416.6380435646187
 30
0.0
 10
199.7268500808385
 20
416.2972242657644
 30
0.0
 10
199.726451886779
 20
416.0619261668945
 30
0.0
 10
199.7262537562128
 20
415.9442733476117
 30
0.0
  0
ARC
  5
EE
330
E2
100
AcDbEntity
  8
14802200_0104255
  6
Continuous
 62
     7
100
AcDbCircle
 10
199.8176193417
 20
421.2802115266
 30
0.0
 40
1.001348055913636
100
AcDbArc
 50
92.5424152131
 51
179.9451974011
  0
ARC
  5
EF
330
E2
100
AcDbEntity
  8
14802200_0104255
  6
Continuous
 62
     7
100
AcDbCircle
 10
-8309.5241749871
 20
319.2800831319
 30
0.0
 40
8509.779307319119
100
AcDbArc
 50
0.247079518
 51
0.2483641452
  0
SPLINE
  5
F0
330
E2
100
AcDbEntity
  8
14802200_0104255
  6
Continuous
 62
     7
100
AcDbSpline
210
0.0
220
0.0
230
1.0
 70
     8
 71
     3
 72
    16
 73
    12
 74
     0
 42
0.0000000112562288
 43
0.0000000001
 40
0.0
 40
0.0
 40
0.0
 40
0.0
 40
0.134889463104193
 40
0.2697757876416349
 40
0.4863455192206571
 40
0.6623493665024944
 40
0.8075017414422114
 40
0.8692001298464542
 40
0.93090018371635
 40
0.9654461735940791
 40
1.0
 40
1.0
 40
1.0
 40
1.0
 10
199.2806634180135
 20
356.171892083307
 30
0.0
 10
199.250800334158
 20
356.1983678564659
 30
0.0
 10
199.191074861292
 20
356.2513187867535
 30
0.0
 10
199.0936483180368
 20
356.3573776159377
 30
0.0
 10
198.9987377492402
 20
356.4815656453774
 30
0.0
 10
198.9161362294581
 20
356.6177192190658
 30
0.0
 10
198.8669718893948
 20
356.7199376851341
 30
0.0
 10
198.8389746830521
 20
356.7943107527871
 30
0.0
 10
198.8258938241553
 20
356.8391813607709
 30
0.0
 10
198.8179758753703
 20
356.877138556204
 30
0.0
 10
198.8168398306929
 20
356.8975675174326
 30
0.0
 10
198.8162717438907
 20
356.9077831564613
 30
0.0
  0
ARC
  5
F1
330
E2
100
AcDbEntity
  8
14802200_0104255
  6
Continuous
 62
     7
100
AcDbCircle
 10
199.8861549609
 20
356.7906705178
 30
0.0
 40
0.8657405844065992
100
AcDbArc
 50
225.6218015152
 51
289.561194523
  0
ARC
  5
F2
330
E2
100
AcDbEntity
  8
14802200_0104255
  6
Continuous
 62
     7
100
AcDbCircle
 10
-7724.022515772
 20
322.2356953599
 30
0.0
 40
7924.270358426857
100
AcDbArc
 50
0.2453597883
 51
0.3345040144
  0
ARC
  5
F3
330
E2
100
AcDbEntity
  8
14802200_0104255
  6
Continuous
 62
     7
100
AcDbCircle
 10
-7724.022515772
 20
322.2356953599
 30
0.0
 40
7924.270358426857
100
AcDbArc
 50
0.2439583192
 51
0.2453597883
  0
LINE
  5
F4
330
E2
100
AcDbEntity
  8
14802200_0104255
  6
Continuous
 62
     7
100
AcDbLine
 10
210.7662717439
 20
360.0430031168
 30
0.0
 11
200.1760740557
 21
355.9747469154
 31
0.0
  0
SPLINE
  5
F5
330
E2
100
AcDbEntity
  8
14802200_0104255
  6
Continuous
 62
     7
100
AcDbSpline
210
0.0
220
0.0
230
1.0
 70
     8
 71
     3
 72
     8
 73
     4
 74
     0
 42
0.00000000009093
 43
0.0000000001
 40
0.0
 40
0.0
 40
0.0
 40
0.0
 40
0.0008286732936323
 40
0.0008286732936323
 40
0.0008286732936323
 40
0.0008286732936323
 10
323.0642119787402
 20
392.0909088862711
 30
0.0
 10
323.0355318824507
 20
392.1009217418218
 30
0.0
 10
323.0068517762654
 20
392.1109345694694
 30
0.0
 10
322.9781708289555
 20
392.1209447615877
 30
0.0
  0
SPLINE
  5
F6
330
E2
100
AcDbEntity
  8
14802200_0104255
  6
Continuous
 62
     7
100
AcDbSpline
210
0.0
220
0.0
230
1.0
 70
     8
 71
     3
 72
     8
 73
     4
 74
     0
 42
0.0000000000909522
 43
0.0000000001
 40
0.459499951781876
 40
0.459499951781876
 40
0.459499951781876
 40
0.459499951781876
 40
0.5102435193676718
 40
0.5102435193676718
 40
0.5102435193676718
 40
0.5102435193676718
 10
274.1857155732587
 20
384.8684832665006
 30
0.0
 10
272.4561088028071
 20
384.1851083980827
 30
0.0
 10
270.7293871680515
 20
383.4944802918938
 30
0.0
 10
269.0031920470592
 20
382.8025266852455
 30
0.0
  0
SPLINE
  5
F7
330
E2
100
AcDbEntity
  8
14802200_0104255
  6
Continuous
 62
     7
100
AcDbSpline
210
0.0
220
0.0
230
1.0
 70
     8
 71
     3
 72
     8
 73
     4
 74
     0
 42
0.0000000000909524
 43
0.0000000001
 40
0.9818945481633463
 40
0.9818945481633463
 40
0.9818945481633463
 40
0.9818945481633463
 40
1.0
 40
1.0
 40
1.0
 40
1.0
 10
220.7234232619531
 20
363.8772846820807
 30
0.0
 10
220.1043776150266
 20
363.6383663904824
 30
0.0
 10
219.4853246794256
 20
363.3994669438748
 30
0.0
 10
218.8662717438241
 20
363.160567497267
 30
0.0
  0
SPLINE
  5
F8
330
E2
100
AcDbEntity
  8
14802200_0104255
  6
Continuous
 62
     7
100
AcDbSpline
210
0.0
220
0.0
230
1.0
 70
     8
 71
     3
 72
    10
 73
     6
 74
     0
 42
0.0000000000676635
 43
0.0000000001
 40
0.0
 40
0.0
 40
0.0
 40
0.0
 40
0.4843805722017605
 40
0.9608800883321773
 40
1.0
 40
1.0
 40
1.0
 40
1.0
 10
200.1127954939713
 20
368.4988793221593
 30
0.0
 10
222.3040414013285
 20
378.2545897117059
 30
0.0
 10
266.3581990086846
 20
397.4914810654109
 30
0.0
 10
315.7400487363187
 20
405.013570901265
 30
0.0
 10
336.6317426195141
 20
393.7771128443376
 30
0.0
 10
338.2035297476167
 20
392.8899295553432
 30
0.0
  0
ARC
  5
F9
330
E2
100
AcDbEntity
  8
14802200_0104255
  6
Continuous
 62
     7
100
AcDbCircle
 10
366.6275158502
 20
399.8222258632
 30
0.0
 40
6.671646534100468
100
AcDbArc
 50
266.974970321
 51
314.664564699
  0
ARC
  5
FA
330
E2
100
AcDbEntity
  8
14802200_0104255
  6
Continuous
 62
     7
100
AcDbCircle
 10
314.2344884421
 20
447.0929666102
 30
0.0
 40
77.22761793949094
100
AcDbArc
 50
317.659169751
 51
335.8735219324
  0
SPLINE
  5
FB
330
E2
100
AcDbEntity
  8
14802200_0104255
  6
Continuous
 62
     7
100
AcDbSpline
210
0.0
220
0.0
230
1.0
 70
     8
 71
     3
 72
    20
 73
    16
 74
     0
 42
0.0000000000537744
 43
0.0000000001
 40
0.0
 40
0.0
 40
0.0
 40
0.0
 40
0.0625385200149626
 40
0.1250868256845461
 40
0.2301876223704331
 40
0.3352874760606583
 40
0.4403877388168114
 40
0.5897366003974746
 40
0.7390887291229747
 40
0.7825550686773363
 40
0.8260573554687434
 40
0.8695745233794709
 40
0.9130363445494274
 40
0.9564766628611476
 40
1.0
 40
1.0
 40
1.0
 40
1.0
 10
199.7782871364278
 20
415.3436270950392
 30
0.0
 10
203.6031583254017
 20
415.9170388399128
 30
0.0
 10
211.2526462840811
 20
417.0638741780686
 30
0.0
 10
225.3481280546457
 20
419.0639061682833
 30
0.0
 10
242.0957339878829
 20
421.1410933816347
 30
0.0
 10
261.538286886261
 20
422.8879944108322
 30
0.0
 10
283.7864697013393
 20
423.9302380602959
 30
0.0
 10
308.8320550851748
 20
423.9183548209132
 30
0.0
 10
330.0488254082863
 20
422.6848890152273
 30
0.0
 10
344.6498416211975
 20
421.280126939264
 30
0.0
 10
352.6981197661763
 20
420.3792743369803
 30
0.0
 10
360.7311825408911
 20
419.3524579908948
 30
0.0
 10
368.7426986900879
 20
418.1931032246688
 30
0.0
 10
376.7381436626201
 20
416.9237227976948
 30
0.0
 10
382.0549413486861
 20
415.9921439233025
 30
0.0
 10
384.7159170263334
 20
415.5260029087261
 30
0.0
  0
ARC
  5
FC
330
E2
100
AcDbEntity
  8
14802200_0104255
  6
Continuous
 62
     7
100
AcDbCircle
 10
360.2218061166
 20
-437.0627704156
 30
0.0
 40
830.2447161430051
100
AcDbArc
 50
89.5822308227
 51
91.5196751154
  0
ARC
  5
FD
330
E2
100
AcDbEntity
  8
14802200_0104255
  6
Continuous
 62
     7
100
AcDbCircle
 10
335.430568326
 20
547.7612189306
 30
0.0
 40
139.4447327733916
100
AcDbArc
 50
291.316744773
 51
292.8316771316
  0
ARC
  5
FE
330
E2
100
AcDbEntity
  8
14802200_0104255
  6
Continuous
 62
     7
100
AcDbCircle
 10
270.556436897
 20
-330.2274894902
 30
0.0
 40
758.8556893813414
100
AcDbArc
 50
82.9536344838
 51
83.0510712713
  0
ARC
  5
FF
330
E2
100
AcDbEntity
  8
14802200_0104255
  6
Continuous
 62
     7
100
AcDbCircle
 10
270.556436897
 20
-330.2274894902
 30
0.0
 40
758.8556893813414
100
AcDbArc
 50
80.9792423422
 51
81.1887848497
  0
ARC
  5
100
330
E2
100
AcDbEntity
  8
14802200_0104255
  6
Continuous
 62
     7
100
AcDbCircle
 10
287.8264770645
 20
-483.1859473682
 30
0.0
 40
909.7378746972893
100
AcDbArc
 50
94.6999313685
 51
95.5543381379
  0
ARC
  5
101
330
E2
100
AcDbEntity
  8
14802200_0104255
  6
Continuous
 62
     7
100
AcDbCircle
 10
287.8264770645
 20
-483.1859473682
 30
0.0
 40
909.7378746972893
100
AcDbArc
 50
86.329516419
 51
86.4678102485
  0
ARC
  5
102
330
E2
100
AcDbEntity
  8
14802200_0104255
  6
Continuous
 62
     7
100
AcDbCircle
 10
323.4085656726
 20
393.0264357088
 30
0.0
 40
0.9968901153673926
100
AcDbArc
 50
249.7920793167
 51
273.4312016841
  0
ARC
  5
103
330
E2
100
AcDbEntity
  8
14802200_0104255
  6
Continuous
 62
     7
100
AcDbCircle
 10
330.9065230232
 20
266.6034440352
 30
0.0
 40
125.6482528682648
100
AcDbArc
 50
93.3174904252
 51
93.3938565686
  0
LINE
  5
104
330
E2
100
AcDbEntity
  8
14802200_0104255
  6
Continuous
 62
     7
100
AcDbLine
 10
338.6056231594
 20
392.2516969034
 30
0.0
 11
330.9065186062
 21
392.2516969035
 31
0.0
  0
ARC
  5
105
330
E2
100
AcDbEntity
  8
14802200_0104255
  6
Continuous
 62
     7
100
AcDbCircle
 10
366.4829519081
 20
399.725934339
 30
0.0
 40
7.479876094488625
100
AcDbArc
 50
270.9849009894
 51
316.2719966545
  0
ARC
  5
106
330
E2
100
AcDbEntity
  8
14802200_0104255
  6
Continuous
 62
     7
100
AcDbCircle
 10
390.0314810324
 20
413.9084790987
 30
0.0
 40
5.556222095859289
100
AcDbArc
 50
134.7182502326
 51
163.0750177564
  0
ARC
  5
107
330
E2
100
AcDbEntity
  8
14802200_0104255
  6
Continuous
 62
     7
100
AcDbCircle
 10
325.063757408
 20
582.1711212527
 30
0.0
 40
176.7867368994026
100
AcDbArc
 50
290.449112084
 51
291.6567658562
  0
ARC
  5
108
330
E2
100
AcDbEntity
  8
14802200_0104255
  6
Continuous
 62
     7
100
AcDbCircle
 10
389.3861744489
 20
418.2542880328
 30
0.0
 40
0.9998543845511239
100
AcDbArc
 50
67.225261099
 51
81.1990986568
  0
ARC
  5
109
330
E2
100
AcDbEntity
  8
14802200_0104255
  6
Continuous
 62
     7
100
AcDbCircle
 10
389.3861744489
 20
418.2542880328
 30
0.0
 40
0.9998543845511239
100
AcDbArc
 50
337.0063857662
 51
350.9649658477
  0
LINE
  5
10A
330
E2
100
AcDbEntity
  8
14802200_0104255
  6
Continuous
 62
     7
100
AcDbLine
 10
338.6056231594
 20
392.2516969034
 30
0.0
 11
366.1925708761
 21
392.2516969033
 31
0.0
  0
LINE
  5
10B
330
E2
100
AcDbEntity
  8
14802200_0104255
  6
Continuous
 62
     7
100
AcDbLine
 10
372.2363152854
 20
392.2516969033
 30
0.0
 11
372.341348257
 21
392.2516969033
 31
0.0
  0
ARC
  5
10C
330
E2
100
AcDbEntity
  8
14802200_0104255
  6
Continuous
 62
     7
100
AcDbCircle
 10
378.0631724287
 20
927.9059104789
 30
0.0
 40
533.3859689144703
100
AcDbArc
 50
269.8786130716
 51
269.8900940899
  0
ARC
  5
10D
330
E2
100
AcDbEntity
  8
14802200_0104255
  6
Continuous
 62
     7
100
AcDbCircle
 10
372.3408100691
 20
398.2524548161
 30
0.0
 40
6.000757921751372
100
AcDbArc
 50
270.0031221035
 51
321.5491171822
  0
SPLINE
  5
10E
330
E2
100
AcDbEntity
  8
14802200_0104255
  6
Continuous
 62
     7
100
AcDbSpline
210
0.0
220
0.0
230
1.0
 70
     8
 71
     3
 72
    16
 73
    12
 74
     0
 42
0.0000000049711594
 43
0.0000000001
 40
0.0
 40
0.0
 40
0.0
 40
0.0
 40
0.1249999692126458
 40
0.2499999736102822
 40
0.3749999780098505
 40
0.4999999824094187
 40
0.624999986807055
 40
0.7499999912046914
 40
0.8124999934035094
 40
0.8749999956023277
 40
1.0
 40
1.0
 40
1.0
 40
1.0
 10
385.5471274592984
 20
415.0200801532303
 30
0.0
 10
385.5968479174991
 20
415.1183775900823
 30
0.0
 10
385.6998933823026
 20
415.3082237630437
 30
0.0
 10
385.8617554673449
 20
415.5701046436447
 30
0.0
 10
386.0303333868378
 20
415.8100553839083
 30
0.0
 10
386.2011508011629
 20
416.0228422291809
 30
0.0
 10
386.3681494111819
 20
416.2022321290133
 30
0.0
 10
386.5058179955344
 20
416.3261090450359
 30
0.0
 10
386.6102753169613
 20
416.4055592632952
 30
0.0
 10
386.7112714659934
 20
416.4724294873641
 30
0.0
 10
386.7828806266722
 20
416.5079754144123
 30
0.0
 10
386.8286814025705
 20
416.5249788059371
 30
0.0
  0
ARC
  5
10F
330
E2
100
AcDbEntity
  8
14802200_0104255
  6
Continuous
 62
     7
100
AcDbCircle
 10
314.7120873179
 20
447.5082076315
 30
0.0
 40
77.92997715176577
100
AcDbArc
 50
317.1963160816
 51
335.3616861528
  0
ARC
  5
110
330
E2
100
AcDbEntity
  8
14802200_0104255
  6
Continuous
 62
     7
100
AcDbCircle
 10
304.0562072248
 20
451.4409177974
 30
0.0
 40
92.55569553828984
100
AcDbArc
 50
335.8524362944
 51
338.7290783605
  0
ARC
  5
111
330
E2
100
AcDbEntity
  8
14802200_0104255
  6
Continuous
 62
     7
100
AcDbCircle
 10
304.0562072248
 20
451.4409177974
 30
0.0
 40
92.55569553828984
100
AcDbArc
 50
322.0494593575
 51
322.7234735019
  0
SPLINE
  5
112
330
E2
100
AcDbEntity
  8
14802200_0104255
  6
Continuous
 62
     7
100
AcDbSpline
210
0.0
220
0.0
230
1.0
 70
     8
 71
     3
 72
     8
 73
     4
 74
     0
 42
0.000000048553554
 43
0.0000000001
 40
0.8774728852316829
 40
0.8774728852316829
 40
0.8774728852316829
 40
0.8774728852316829
 40
1.0
 40
1.0
 40
1.0
 40
1.0
 10
366.2077881158626
 20
392.2688132743606
 30
0.0
 10
366.202836084116
 20
392.2575563373186
 30
0.0
 10
366.1977470038121
 20
392.2516963697338
 30
0.0
 10
366.1925708761239
 20
392.2516969032964
 30
0.0
  0
ARC
  5
113
330
E2
100
AcDbEntity
  8
14802200_0104255
  6
Continuous
 62
     7
100
AcDbCircle
 10
363.6052889631
 20
517.652464293
 30
0.0
 40
94.60663836510344
100
AcDbArc
 50
259.3165405258
 51
269.2492559184
  0
ARC
  5
114
330
E2
100
AcDbEntity
  8
14802200_0104255
  6
Continuous
 62
     7
100
AcDbCircle
 10
199.8311549009
 20
421.175260585
 30
0.0
 40
1.012479176737649
100
AcDbArc
 50
92.6356463643
 51
157.4818972115
  0
SPLINE
  5
115
330
E2
100
AcDbEntity
  8
14802200_0104255
  6
Continuous
 62
     7
100
AcDbSpline
210
0.0
220
0.0
230
1.0
 70
     8
 71
     3
 72
     8
 73
     4
 74
     0
 42
0.0000000443702563
 43
0.0000000001
 40
0.3278343532510769
 40
0.3278343532510769
 40
0.3278343532510769
 40
0.3278343532510769
 40
1.0
 40
1.0
 40
1.0
 40
1.0
 10
198.8264493299417
 20
421.2087522509742
 30
0.0
 10
198.8381865528923
 20
421.2084200132056
 30
0.0
 10
198.861290261934
 20
421.1659351439131
 30
0.0
 10
198.8957604570668
 20
421.0812976430967
 30
0.0
  0
SPLINE
  5
116
330
E2
100
AcDbEntity
  8
14802200_0104255
  6
Continuous
 62
     7
100
AcDbSpline
210
0.0
220
0.0
230
1.0
 70
     8
 71
     3
 72
     8
 73
     4
 74
     0
 42
0.0000000393113456
 43
0.0000000001
 40
0.4841251681630664
 40
0.4841251681630664
 40
0.4841251681630664
 40
0.4841251681630664
 40
1.0
 40
1.0
 40
1.0
 40
1.0
 10
198.8986164906663
 20
421.5833184567754
 30
0.0
 10
198.8746115631958
 20
421.5936092340267
 30
0.0
 10
198.8553183962136
 20
421.5644483757389
 30
0.0
 10
198.8407369897198
 20
421.495835881912
 30
0.0
  0
SPLINE
  5
117
330
E2
100
AcDbEntity
  8
14802200_0104255
  6
Continuous
 62
     7
100
AcDbSpline
210
0.0
220
0.0
230
1.0
 70
     8
 71
     3
 72
    12
 73
     8
 74
     0
 42
0.0000000017049697
 43
0.0000000001
 40
0.0
 40
0.0
 40
0.0
 40
0.0
 40
0.1990294642457058
 40
0.3994740873995956
 40
0.5997570401571126
 40
0.7995106132198825
 40
1.0
 40
1.0
 40
1.0
 40
1.0
 10
198.8384369999305
 20
421.1193139737937
 30
0.0
 10
198.8383896978415
 20
420.9216890932381
 30
0.0
 10
198.8383090600525
 20
420.5747275962213
 30
0.0
 10
198.8381580018972
 20
419.6494882463337
 30
0.0
 10
198.8379994128208
 20
418.482301728439
 30
0.0
 10
198.8378252311217
 20
417.0042517369637
 30
0.0
 10
198.8377161879329
 20
415.9107677380834
 30
0.0
 10
198.8376511465782
 20
415.2541070742548
 30
0.0
  0
ARC
  5
118
330
E2
100
AcDbEntity
  8
14802200_0104255
  6
Continuous
 62
     7
100
AcDbCircle
 10
199.807230972
 20
357.1182941404
 30
0.0
 40
1.016002913921547
100
AcDbArc
 50
208.4281398908
 51
292.0708897457
  0
SPLINE
  5
119
330
E2
100
AcDbEntity
  8
14802200_0104255
  6
Continuous
 62
     7
100
AcDbSpline
210
0.0
220
0.0
230
1.0
 70
     8
 71
     3
 72
    23
 73
    19
 74
     0
 42
0.0000000001827318
 43
0.0000000001
 40
0.0
 40
0.0
 40
0.0
 40
0.0
 40
0.0070211181508811
 40
0.1070193595759567
 40
0.2065082743401714
 40
0.3048783376843809
 40
0.4015852172460902
 40
0.4761123004917642
 40
0.549184338760478
 40
0.620720299698278
 40
0.6907305447594142
 40
0.7428288707906426
 40
0.7942253760394323
 40
0.8450750698413381
 40
0.8955877625534441
 40
0.9460308271249368
 40
0.9967293279172968
 40
1.0
 40
1.0
 40
1.0
 40
1.0
 10
270.3074020308216
 20
383.3220304068457
 30
0.0
 10
270.4382626696947
 20
383.3740453779118
 30
0.0
 10
272.155793050215
 20
384.0564917284153
 30
0.0
 10
275.7713930504183
 20
385.5061401596235
 30
0.0
 10
280.7932308027083
 20
387.4390392519922
 30
0.0
 10
285.8577073338033
 20
389.2682854505204
 30
0.0
 10
290.5309289676202
 20
390.7866654371192
 30
0.0
 10
294.8198146920778
 20
391.9963669809025
 30
0.0
 10
298.709345386321
 20
392.9163766911697
 30
0.0
 10
302.5606888469727
 20
393.6205638123869
 30
0.0
 10
306.0689430759658
 20
394.0426996942763
 30
0.0
 10
309.2288860253195
 20
394.2222448762693
 30
0.0
 10
312.0455800635247
 20
394.2123137608883
 30
0.0
 10
314.823976864259
 20
394.0161472705524
 30
0.0
 10
317.5747074805269
 20
393.6244884767
 30
0.0
 10
320.244273733999
 20
393.0084402465519
 30
0.0
 10
322.1439049647713
 20
392.4634292103845
 30
0.0
 10
323.0055294013483
 20
392.1073073520027
 30
0.0
 10
323.0661441318773
 20
392.0822275716408
 30
0.0
  0
ARC
  5
11A
330
E2
100
AcDbEntity
  8
14802200_0104255
  6
Continuous
 62
     7
100
AcDbCircle
 10
-1181.5937581982
 20
4012.5148498596
 30
0.0
 40
3908.843499021424
100
AcDbArc
 50
290.9944683981
 51
291.8044584783
  0
LINE
  5
11B
330
E2
100
AcDbEntity
  8
14802200_0104255
  6
Continuous
 62
     7
100
AcDbLine
 10
200.1770935239
 20
355.9753511485
 30
0.0
 11
210.7690933068
 21
360.0465103999
 31
0.0
  0
ARC
  5
11C
330
E2
100
AcDbEntity
  8
14802200_0104255
  6
Continuous
 62
     7
100
AcDbCircle
 10
288.1756323184
 20
-435.6892614624
 30
0.0
 40
862.3074450578023
100
AcDbArc
 50
86.1502649476
 51
95.1960172163
  0
ARC
  5
11D
330
E2
100
AcDbEntity
  8
14802200_0104255
  6
Continuous
 62
     7
100
AcDbCircle
 10
277.717662922
 20
-281.6138963289
 30
0.0
 40
709.7177352674088
100
AcDbArc
 50
80.9351262098
 51
83.1507511001
  0
ARC
  5
11E
330
E2
100
AcDbEntity
  8
14802200_0104255
  6
Continuous
 62
     7
100
AcDbCircle
 10
287.4598618507
 20
-465.6458693302
 30
0.0
 40
892.2454574648269
100
AcDbArc
 50
94.9759878815
 51
95.6399888528
  0
LINE
  5
11F
330
E2
100
AcDbEntity
  8
14802200_0104255
  6
Continuous
 62
     7
100
AcDbLine
 10
323.2322749557
 20
392.1070244677
 30
0.0
 11
323.633964246
 21
392.064859574
 31
0.0
  0
SPLINE
  5
120
330
E2
100
AcDbEntity
  8
14802200_0104255
  6
Continuous
 62
     7
100
AcDbSpline
210
0.0
220
0.0
230
1.0
 70
     8
 71
     3
 72
     8
 73
     4
 74
     0
 42
0.0000000934575864
 43
0.0000000001
 40
0.8307783797276262
 40
0.8307783797276262
 40
0.8307783797276262
 40
0.8307783797276262
 40
1.0
 40
1.0
 40
1.0
 40
1.0
 10
323.346820736266
 20
392.0340449769294
 30
0.0
 10
323.3485778471655
 20
392.0325972975687
 30
0.0
 10
323.3557004288733
 20
392.0316008103362
 30
0.0
 10
323.3642836547182
 20
392.0306281238689
 30
0.0
  0
LINE
  5
121
330
E2
100
AcDbEntity
  8
14802200_0104255
  6
Continuous
 62
     7
100
AcDbLine
 10
323.2322749633
 20
392.1070244683
 30
0.0
 11
323.6339642619
 21
392.064859575
 31
0.0
  0
ARC
  5
122
330
E2
100
AcDbEntity
  8
14802200_0104255
  6
Continuous
 62
     7
100
AcDbCircle
 10
322.6910476166
 20
404.8668200866
 30
0.0
 40
12.86043297501456
100
AcDbArc
 50
274.2198697603
 51
277.1081283624
  0
SPLINE
  5
123
330
E2
100
AcDbEntity
  8
14802200_0104255
  6
Continuous
 62
     7
100
AcDbSpline
210
0.0
220
0.0
230
1.0
 70
     8
 71
     3
 72
     8
 73
     4
 74
     0
 42
0.0000000934575886
 43
0.0000000001
 40
0.8307783859529941
 40
0.8307783859529941
 40
0.8307783859529941
 40
0.8307783859529941
 40
1.0
 40
1.0
 40
1.0
 40
1.0
 10
323.3468207373998
 20
392.03404497683
 30
0.0
 10
323.3485778481839
 20
392.0325972975261
 30
0.0
 10
323.3557004294512
 20
392.0316008103164
 30
0.0
 10
323.3642836547562
 20
392.0306281238716
 30
0.0
  0
ARC
  5
124
330
E2
100
AcDbEntity
  8
14802200_0104255
  6
Continuous
 62
     7
100
AcDbCircle
 10
331.2236813696
 20
264.8670905102
 30
0.0
 40
127.406464447804
100
AcDbArc
 50
90.1661759711
 51
93.2384381526
  0
LINE
  5
125
330
E2
100
AcDbEntity
  8
14802200_0104255
  6
Continuous
 62
     7
100
AcDbLine
 10
366.2078126097
 20
392.2688753169
 30
0.0
 11
366.6270300961
 21
392.2611219117
 31
0.0
  0
ARC
  5
126
330
E2
100
AcDbEntity
  8
14802200_0104255
  6
Continuous
 62
     7
100
AcDbCircle
 10
389.3864112054
 20
418.2544076192
 30
0.0
 40
0.9997904924103508
100
AcDbArc
 50
336.0553986815
 51
82.1290346852
  0
SPLINE
  5
127
330
E2
100
AcDbEntity
  8
14802200_0104255
  6
Continuous
 62
     7
100
AcDbSpline
210
0.0
220
0.0
230
1.0
 70
     8
 71
     3
 72
     8
 73
     4
 74
     0
 42
0.0000000260688059
 43
0.0000000001
 40
0.0
 40
0.0
 40
0.0
 40
0.0
 40
0.8392992147847567
 40
0.8392992147847567
 40
0.8392992147847567
 40
0.8392992147847567
 10
372.6944783454412
 20
392.2626890028629
 30
0.0
 10
372.8902020716657
 20
392.2731806100748
 30
0.0
 10
372.9858709780328
 20
392.2924373077096
 30
0.0
 10
372.9814850645427
 20
392.3204590957672
 30
0.0
  0
SPLINE
  5
128
330
E2
100
AcDbEntity
  8
14802200_0104255
  6
Continuous
 62
     7
100
AcDbSpline
210
0.0
220
0.0
230
1.0
 70
     8
 71
     3
 72
    13
 73
     9
 74
     0
 42
0.000000001753804
 43
0.0000000001
 40
0.0
 40
0.0
 40
0.0
 40
0.0
 40
0.1457915209694786
 40
0.3162339989452004
 40
0.4864534348860962
 40
0.6577640894789587
 40
0.8295313903179128
 40
1.0
 40
1.0
 40
1.0
 40
1.0
 10
366.6122713278756
 20
392.2615748293219
 30
0.0
 10
367.0827730229436
 20
392.2615656374633
 30
0.0
 10
367.939188925813
 20
392.2615495868152
 30
0.0
 10
369.172240179586
 20
392.2615603784611
 30
0.0
 10
370.258261709112
 20
392.2615924000416
 30
0.0
 10
371.15007003697
 20
392.2616424676602
 30
0.0
 10
371.8665647227143
 20
392.2617057649778
 30
0.0
 10
372.1514205771673
 20
392.2617490856839
 30
0.0
 10
372.3141628980453
 20
392.2617749653357
 30
0.0
  0
ARC
  5
129
330
E2
100
AcDbEntity
  8
14802200_0104255
  6
Continuous
 62
     7
100
AcDbCircle
 10
372.2433831365
 20
398.2390568414
 30
0.0
 40
5.984943287600508
100
AcDbArc
 50
276.296576187
 51
321.9332150475
  0
SPLINE
  5
12A
330
E2
100
AcDbEntity
  8
14802200_0104255
  6
Continuous
 62
     7
100
AcDbSpline
210
0.0
220
0.0
230
1.0
 70
     8
 71
     3
 72
     8
 73
     4
 74
     0
 42
0.0000001264799054
 43
0.0000000001
 40
0.0
 40
0.0
 40
0.0
 40
0.0
 40
0.0477256508290806
 40
0.0477256508290806
 40
0.0477256508290806
 40
0.0477256508290806
 10
372.4275131598297
 20
392.2902466752947
 30
0.0
 10
372.4279231192201
 20
392.2889875272563
 30
0.0
 10
372.4281634183572
 20
392.2877598807289
 30
0.0
 10
372.428234057241
 20
392.2865637357125
 30
0.0
  0
ARC
  5
12B
330
E2
100
AcDbEntity
  8
14802200_0104255
  6
Continuous
 62
     7
100
AcDbCircle
 10
304.1657947179
 20
451.4972813566
 30
0.0
 40
92.47178102622463
100
AcDbArc
 50
321.9786309514
 51
338.6704316137
  0
LINE
  5
12C
330
E2
100
AcDbEntity
  8
05531K31_USA_REG
  6
Continuous
 62
     7
100
AcDbLine
 10
344.7162717438
 20
383.0016969033
 30
0.0
 11
363.7162717438
 21
383.0016969033
 31
0.0
  0
LINE
  5
12D
330
E2
100
AcDbEntity
  8
05531K31_USA_REG
  6
Continuous
 62
     7
100
AcDbLine
 10
363.7162717438
 20
383.0016969033
 30
0.0
 11
363.7162717438
 21
385.4934838568
 31
0.0
  0
LINE
  5
12E
330
E2
100
AcDbEntity
  8
05531K31_USA_REG
  6
Continuous
 62
     7
100
AcDbLine
 10
344.7162717438
 20
385.4934838568
 30
0.0
 11
344.7162717438
 21
383.0016969033
 31
0.0
  0
LINE
  5
12F
330
E2
100
AcDbEntity
  8
14802700_0104256
  6
Continuous
 62
     7
100
AcDbLine
 10
337.5403609641
 20
385.4934838568
 30
0.0
 11
370.8921825235
 21
385.4934838568
 31
0.0
  0
LINE
  5
130
330
E2
100
AcDbEntity
  8
14802700_0104256
  6
Continuous
 62
     7
100
AcDbLine
 10
372.4457587177
 20
392.2516969033
 30
0.0
 11
338.6589808169
 21
392.2516969033
 31
0.0
  0
ARC
  5
131
330
E2
100
AcDbEntity
  8
14802700_0104256
  6
Continuous
 62
     7
100
AcDbCircle
 10
337.5403609641
 20
386.4934838568
 30
0.0
 40
1.000000000000005
100
AcDbArc
 50
196.4294938409
 51
270.0
  0
ARC
  5
132
330
E2
100
AcDbEntity
  8
14802700_0104256
  6
Continuous
 62
     7
100
AcDbCircle
 10
370.8921825235
 20
386.4934838568
 30
0.0
 40
1.0
100
AcDbArc
 50
270.0
 51
343.5705061591
  0
ARC
  5
133
330
E2
100
AcDbEntity
  8
14802700_0104256
  6
Continuous
 62
     7
100
AcDbCircle
 10
352.1031657557
 20
390.7876973953
 30
0.0
 40
16.18273866309179
100
AcDbArc
 50
174.8095415055
 51
196.4294938409
  0
ARC
  5
134
330
E2
100
AcDbEntity
  8
14802700_0104256
  6
Continuous
 62
     7
100
AcDbCircle
 10
356.3293777319
 20
390.7876973953
 30
0.0
 40
16.1827386630918
100
AcDbArc
 50
343.5705061591
 51
5.1904584945
  0
LINE
  5
135
330
E2
100
AcDbEntity
  8
02350037_REGLER_
  6
Continuous
 62
     7
100
AcDbLine
 10
352.9522675076
 20
382.5016969033
 30
0.0
 11
352.2769417008
 21
382.5016969033
 31
0.0
  0
LINE
  5
136
330
E2
100
AcDbEntity
  8
02350037_REGLER_
  6
Continuous
 62
     7
100
AcDbLine
 10
352.2769417008
 20
382.5016969033
 30
0.0
 11
349.8502778432
 21
382.5016969033
 31
0.0
  0
LINE
  5
137
330
E2
100
AcDbEntity
  8
02350037_REGLER_
  6
Continuous
 62
     7
100
AcDbLine
 10
349.8502778432
 20
382.5016969033
 30
0.0
 11
347.6230887976
 21
382.5016969033
 31
0.0
  0
LINE
  5
138
330
E2
100
AcDbEntity
  8
02350037_REGLER_
  6
Continuous
 62
     7
100
AcDbLine
 10
347.6230887976
 20
382.5016969033
 30
0.0
 11
347.4597865901
 21
382.5016969033
 31
0.0
  0
LINE
  5
139
330
E2
100
AcDbEntity
  8
02350037_REGLER_
  6
Continuous
 62
     7
100
AcDbLine
 10
346.2099349911
 20
382.5016969033
 30
0.0
 11
347.4597865901
 21
382.5016969033
 31
0.0
  0
LINE
  5
13A
330
E2
100
AcDbEntity
  8
02350037_REGLER_
  6
Continuous
 62
     7
100
AcDbLine
 10
360.6673190075
 20
382.5016969033
 30
0.0
 11
361.8689694112
 21
382.5016969033
 31
0.0
  0
LINE
  5
13B
330
E2
100
AcDbEntity
  8
02350037_REGLER_
  6
Continuous
 62
     7
100
AcDbLine
 10
360.6760609234
 20
382.5016969033
 30
0.0
 11
358.4796963443
 21
382.5016969033
 31
0.0
  0
LINE
  5
13C
330
E2
100
AcDbEntity
  8
02350037_REGLER_
  6
Continuous
 62
     7
100
AcDbLine
 10
358.4796963443
 20
382.5016969033
 30
0.0
 11
355.9372896129
 21
382.5016969033
 31
0.0
  0
LINE
  5
13D
330
E2
100
AcDbEntity
  8
02350037_REGLER_
  6
Continuous
 62
     7
100
AcDbLine
 10
355.9372896129
 20
382.5016969033
 30
0.0
 11
355.4483513006
 21
382.5016969033
 31
0.0
  0
LINE
  5
13E
330
E2
100
AcDbEntity
  8
02350037_REGLER_
  6
Continuous
 62
     7
100
AcDbLine
 10
355.4483513006
 20
382.5016969033
 30
0.0
 11
354.5713855014
 21
382.5016969033
 31
0.0
  0
LINE
  5
13F
330
E2
100
AcDbEntity
  8
02350037_REGLER_
  6
Continuous
 62
     7
100
AcDbLine
 10
353.8715151997
 20
382.5016969033
 30
0.0
 11
353.9834184714
 21
382.5016969033
 31
0.0
  0
LINE
  5
140
330
E2
100
AcDbEntity
  8
02350037_REGLER_
  6
Continuous
 62
     7
100
AcDbLine
 10
354.00234269
 20
382.5016969033
 30
0.0
 11
353.9834184714
 21
382.5016969033
 31
0.0
  0
LINE
  5
141
330
E2
100
AcDbEntity
  8
02350037_REGLER_
  6
Continuous
 62
     7
100
AcDbLine
 10
354.00234269
 20
382.5016969033
 30
0.0
 11
354.2316162823
 21
382.5016969033
 31
0.0
  0
LINE
  5
142
330
E2
100
AcDbEntity
  8
02350037_REGLER_
  6
Continuous
 62
     7
100
AcDbLine
 10
354.2591616471
 20
382.5016969033
 30
0.0
 11
354.2316162823
 21
382.5016969033
 31
0.0
  0
LINE
  5
143
330
E2
100
AcDbEntity
  8
02350037_REGLER_
  6
Continuous
 62
     7
100
AcDbLine
 10
354.2591616471
 20
382.5016969033
 30
0.0
 11
354.5652868919
 21
382.5016969033
 31
0.0
  0
LINE
  5
144
330
E2
100
AcDbEntity
  8
02350037_REGLER_
  6
Continuous
 62
     7
100
AcDbLine
 10
354.5652868919
 20
383.0016969033
 30
0.0
 11
354.5652868919
 21
382.5016969033
 31
0.0
  0
LINE
  5
145
330
E2
100
AcDbEntity
  8
02350037_REGLER_
  6
Continuous
 62
     7
100
AcDbLine
 10
353.8715151997
 20
382.5016969033
 30
0.0
 11
352.9483513006
 21
382.5016969033
 31
0.0
  0
LINE
  5
146
330
E2
100
AcDbEntity
  8
02350037_REGLER_
  6
Continuous
 62
     7
100
AcDbLine
 10
354.5652868919
 20
382.5016969033
 30
0.0
 11
354.5713855014
 21
382.5016969033
 31
0.0
  0
LINE
  5
147
330
E2
100
AcDbEntity
  8
02350037_REGLER_
  6
Continuous
 62
     7
100
AcDbLine
 10
354.5713855014
 20
383.0016969033
 30
0.0
 11
354.5713855014
 21
382.5016969033
 31
0.0
  0
LINE
  5
148
330
E2
100
AcDbEntity
  8
02350037_REGLER_
  6
Continuous
 62
     7
100
AcDbLine
 10
353.8715151997
 20
382.5016969033
 30
0.0
 11
353.8715151997
 21
383.0016969033
 31
0.0
  0
LINE
  5
149
330
E2
100
AcDbEntity
  8
02350037_REGLER_
  6
Continuous
 62
     7
100
AcDbLine
 10
360.6760609234
 20
382.5016969033
 30
0.0
 11
360.6760609234
 21
383.0016969033
 31
0.0
  0
LINE
  5
14A
330
E2
100
AcDbEntity
  8
02350037_REGLER_
  6
Continuous
 62
     7
100
AcDbLine
 10
361.8689694112
 20
382.5016969033
 30
0.0
 11
361.8689694112
 21
383.0016969033
 31
0.0
  0
LINE
  5
14B
330
E2
100
AcDbEntity
  8
02350037_REGLER_
  6
Continuous
 62
     7
100
AcDbLine
 10
346.2099349911
 20
383.0016969033
 30
0.0
 11
346.2099349911
 21
382.5016969033
 31
0.0
  0
LINE
  5
14C
330
E2
100
AcDbEntity
  8
02350037_REGLER_
  6
Continuous
 62
     7
100
AcDbLine
 10
347.6230887976
 20
383.0016969033
 30
0.0
 11
347.6230887976
 21
382.5016969033
 31
0.0
  0
LINE
  5
14D
330
E2
100
AcDbEntity
  8
02350037_REGLER_
  6
Continuous
 62
     7
100
AcDbLine
 10
352.9483513006
 20
383.0016969033
 30
0.0
 11
352.9483513006
 21
382.5016969033
 31
0.0
  0
LINE
  5
14E
330
E2
100
AcDbEntity
  8
02350037_REGLER_
  6
Continuous
 62
     7
100
AcDbLine
 10
354.00234269
 20
382.5016969033
 30
0.0
 11
354.00234269
 21
383.0016969033
 31
0.0
  0
LINE
  5
14F
330
E2
100
AcDbEntity
  8
02350037_REGLER_
  6
Continuous
 62
     7
100
AcDbLine
 10
354.2316162823
 20
383.0016969033
 30
0.0
 11
354.2316162823
 21
382.5016969033
 31
0.0
  0
LINE
  5
150
330
E2
100
AcDbEntity
  8
02350037_REGLER_
  6
Continuous
 62
     7
100
AcDbLine
 10
355.4483513006
 20
382.5016969033
 30
0.0
 11
355.4483513006
 21
383.0016969033
 31
0.0
  0
LINE
  5
151
330
E2
100
AcDbEntity
  8
T14080066__DESVI
  6
Continuous
 62
     7
100
AcDbLine
 10
362.2162717438
 20
423.0572643925
 30
0.0
 11
362.2162717438
 21
440.9536969033
 31
0.0
  0
LINE
  5
152
330
E2
100
AcDbEntity
  8
T14080066__DESVI
  6
Continuous
 62
     7
100
AcDbLine
 10
346.2162717438
 20
440.9536969033
 30
0.0
 11
346.2162717438
 21
424.6593680667
 31
0.0
  0
LINE
  5
153
330
E2
100
AcDbEntity
  8
14802500_0104256
  6
Continuous
 62
     7
100
AcDbLine
 10
345.1669504974
 20
440.9536969033
 30
0.0
 11
363.2655929903
 21
440.9536969033
 31
0.0
  0
ARC
  5
154
330
E2
100
AcDbEntity
  8
14802500_0104256
  6
Continuous
 62
     7
100
AcDbCircle
 10
340.6469227102
 20
460.0922338786
 30
0.0
 40
0.2000000000000057
100
AcDbArc
 50
90.0
 51
188.1835244951
  0
ARC
  5
155
330
E2
100
AcDbEntity
  8
14802500_0104256
  6
Continuous
 62
     7
100
AcDbCircle
 10
367.7856207775
 20
460.0922338786
 30
0.0
 40
0.19999999999997
100
AcDbArc
 50
351.8164755049
 51
90.0
  0
ARC
  5
156
330
E2
100
AcDbEntity
  8
14802500_0104256
  6
Continuous
 62
     7
100
AcDbCircle
 10
209.7183099054
 20
482.8236868729
 30
0.0
 40
159.893436689056
100
AcDbArc
 50
345.0950458603
 51
351.8164755049
  0
ARC
  5
157
330
E2
100
AcDbEntity
  8
14802500_0104256
  6
Continuous
 62
     7
100
AcDbCircle
 10
498.7142335823
 20
482.8236868729
 30
0.0
 40
159.893436689056
100
AcDbArc
 50
188.1835244951
 51
194.9049541397
  0
ARC
  5
158
330
E2
100
AcDbEntity
  8
14802500_0104256
  6
Continuous
 62
     7
100
AcDbCircle
 10
345.1669504974
 20
441.9536969033
 30
0.0
 40
0.9999999999999981
100
AcDbArc
 50
194.9049541397
 51
270.0
  0
ARC
  5
159
330
E2
100
AcDbEntity
  8
14802500_0104256
  6
Continuous
 62
     7
100
AcDbCircle
 10
363.2655929903
 20
441.9536969033
 30
0.0
 40
1.000000000000001
100
AcDbArc
 50
270.0
 51
345.0950458603
  0
LINE
  5
15A
330
E2
100
AcDbEntity
  8
14803500_0104258
  6
Continuous
 62
     7
100
AcDbLine
 10
340.6162717438
 20
460.2922338786
 30
0.0
 11
367.8162717438
 21
460.2922338786
 31
0.0
  0
ARC
  5
15B
330
E2
100
AcDbEntity
  8
14803500_0104258
  6
Continuous
 62
     7
100
AcDbCircle
 10
340.6162717438
 20
460.4922338786
 30
0.0
 40
0.2000000000000057
100
AcDbArc
 50
180.0
 51
270.0
  0
ARC
  5
15C
330
E2
100
AcDbEntity
  8
14803500_0104258
  6
Continuous
 62
     7
100
AcDbCircle
 10
367.8162717438
 20
460.4922338786
 30
0.0
 40
0.2000000000000057
100
AcDbArc
 50
270.0
 51
0.0
  0
LINE
  5
15D
330
E2
100
AcDbEntity
  8
14803500_0104258
  6
Continuous
 62
     7
100
AcDbLine
 10
340.4162717438
 20
463.2436130785
 30
0.0
 11
340.4162717438
 21
460.4922338786
 31
0.0
  0
LINE
  5
15E
330
E2
100
AcDbEntity
  8
14803500_0104258
  6
Continuous
 62
     7
100
AcDbLine
 10
368.0162717438
 20
460.4922338786
 30
0.0
 11
368.0162717438
 21
463.2436130785
 31
0.0
  0
ARC
  5
15F
330
E2
100
AcDbEntity
  8
14803500_0104258
  6
Continuous
 62
     7
100
AcDbCircle
 10
340.9162717438
 20
463.2436130785
 30
0.0
 40
0.5000000000000009
100
AcDbArc
 50
105.6700277769
 51
180.0
  0
ARC
  5
160
330
E2
100
AcDbEntity
  8
14803500_0104258
  6
Continuous
 62
     7
100
AcDbCircle
 10
367.5162717438
 20
463.2436130785
 30
0.0
 40
0.5000000000000004
100
AcDbArc
 50
0.0
 51
74.3299722231
  0
ARC
  5
161
330
E2
100
AcDbEntity
  8
14803500_0104258
  6
Continuous
 62
     7
100
AcDbCircle
 10
354.2162717438
 20
415.8321642507
 30
0.0
 40
49.74160314160839
100
AcDbArc
 50
90.0006550594
 51
105.6700277769
  0
ARC
  5
162
330
E2
100
AcDbEntity
  8
14803500_0104258
  6
Continuous
 62
     7
100
AcDbCircle
 10
354.2162717438
 20
415.8321642507
 30
0.0
 40
49.74160314160838
100
AcDbArc
 50
74.3299722231
 51
90.0006550594
  0
LINE
  5
164
330
E2
100
AcDbEntity
  8
05695031_DICHTUN
  6
Continuous
 62
     7
100
AcDbLine
 10
195.8162717438
 20
418.4076410825
 30
0.0
 11
195.8162717438
 21
363.4076410825
 31
0.0
  0
LINE
  5
165
330
E2
100
AcDbEntity
  8
05695031_DICHTUN
  6
Continuous
 62
     7
100
AcDbLine
 10
195.8162717438
 20
363.4076410825
 30
0.0
 11
198.8162717438
 21
363.4076410825
 31
0.0
  0
LINE
  5
166
330
E2
100
AcDbEntity
  8
05695031_DICHTUN
  6
Continuous
 62
     7
100
AcDbLine
 10
198.8379941311
 20
418.4076410825
 30
0.0
 11
195.8162717438
 21
418.4076410825
 31
0.0
  0
ENDBLK
  5
168
330
E2
100
AcDbEntity
  8
0
100
AcDbBlockEnd
  0
BLOCK
  5
18C
330
169
100
AcDbEntity
  8
0
100
AcDbBlockBegin
  2
SE2
 70
     0
 10
0.0
 20
0.0
 30
0.0
  3
SE2
  1

  0
LINE
  5
16B
330
169
100
AcDbEntity
  8
14802200_0104255
  6
Continuous
 62
     7
100
AcDbLine
 10
73.2972300992
 20
290.224615548
 30
0.0
 11
64.1176361709
 21
290.2246155479
 31
0.0
  0
LINE
  5
16C
330
169
100
AcDbEntity
  8
14802200_0104255
  6
Continuous
 62
     7
100
AcDbLine
 10
73.8171512169
 20
290.224615548
 30
0.0
 11
73.297257171
 21
290.224615548
 31
0.0
  0
LINE
  5
16D
330
169
100
AcDbEntity
  8
14802200_0104255
  6
Continuous
 62
     7
100
AcDbLine
 10
98.1946447374
 20
290.224615548
 30
0.0
 11
73.8171483823
 21
290.2246155478
 31
0.0
  0
LINE
  5
16E
330
169
100
AcDbEntity
  8
14802200_0104255
  6
Continuous
 62
     7
100
AcDbLine
 10
122.5721410923
 20
290.2246155478
 30
0.0
 11
98.1946447374
 21
290.224615548
 31
0.0
  0
LINE
  5
16F
330
169
100
AcDbEntity
  8
14802200_0104255
  6
Continuous
 62
     7
100
AcDbLine
 10
123.0919205787
 20
290.224615548
 30
0.0
 11
122.5721382576
 21
290.224615548
 31
0.0
  0
LINE
  5
170
330
169
100
AcDbEntity
  8
14802200_0104255
  6
Continuous
 62
     7
100
AcDbLine
 10
132.2716533037
 20
290.2246155479
 30
0.0
 11
123.0920321419
 21
290.224615548
 31
0.0
  0
ARC
  5
171
330
169
100
AcDbEntity
  8
14802200_0104255
  6
Continuous
 62
     7
100
AcDbCircle
 10
81.9564834482
 20
-1728.0739863765
 30
0.0
 40
2017.407024829375
100
AcDbArc
 50
89.5388198099
 51
90.2447417892
  0
LINE
  5
172
330
169
100
AcDbEntity
  8
14802200_0104255
  6
Continuous
 62
     7
100
AcDbLine
 10
98.1946447374
 20
290.224615548
 30
0.0
 11
98.1946447372
 21
289.2676867044
 31
0.0
  0
ARC
  5
173
330
169
100
AcDbEntity
  8
14802200_0104255
  6
Continuous
 62
     7
100
AcDbCircle
 10
113.8898513445
 20
-1440.611367849
 30
0.0
 40
1729.950254456199
100
AcDbArc
 50
89.6966075953
 51
90.5198308057
  0
ARC
  5
174
330
169
100
AcDbEntity
  8
14802200_0104255
  6
Continuous
 62
     7
100
AcDbCircle
 10
122.8645626494
 20
113.5657524643
 30
0.0
 40
43.50260591518069
100
AcDbArc
 50
185.1644464596
 51
192.2641525104
  0
SPLINE
  5
175
330
169
100
AcDbEntity
  8
14802200_0104255
  6
Continuous
 62
     7
100
AcDbSpline
210
0.0
220
0.0
230
1.0
 70
     8
 71
     3
 72
    20
 73
    16
 74
     0
 42
0.0000000000539852
 43
0.0000000001
 40
0.0
 40
0.0
 40
0.0
 40
0.0
 40
0.0625385200149626
 40
0.1250868256845461
 40
0.2301876223704331
 40
0.3352874760606583
 40
0.4403877388168114
 40
0.5897366003974746
 40
0.7390887291229747
 40
0.7825550686773363
 40
0.8260573554687434
 40
0.8695745233794709
 40
0.9130363445494274
 40
0.9564766628611476
 40
1.0
 40
1.0
 40
1.0
 40
1.0
 10
72.5638529831305
 20
289.2626001553768
 30
0.0
 10
72.89948148993759
 20
285.437728966403
 30
0.0
 10
73.5707586638308
 20
277.7882410077235
 30
0.0
 10
74.77736317476281
 20
263.6927592371589
 30
0.0
 10
76.14764130524173
 20
246.9451533039217
 30
0.0
 10
77.61364200737157
 20
227.5026004055436
 30
0.0
 10
79.11731263614399
 20
205.2544175904653
 30
0.0
 10
80.40219533556468
 20
180.2088322066298
 30
0.0
 10
80.86646518735714
 20
158.9920618835183
 30
0.0
 10
80.75140037480217
 20
144.3910456706071
 30
0.0
 10
80.62733757985661
 20
136.3427675256283
 30
0.0
 10
80.51224283214806
 20
128.3097047509135
 30
0.0
 10
80.43630512187461
 20
120.2981886017167
 30
0.0
 10
80.3835880623427
 20
112.3027436291845
 30
0.0
 10
80.36435446440619
 20
106.9859459431185
 30
0.0
 10
80.35474418626876
 20
104.3249702654712
 30
0.0
  0
LINE
  5
176
330
169
100
AcDbEntity
  8
14802200_0104255
  6
Continuous
 62
     7
100
AcDbLine
 10
98.1946447373
 20
121.0373923057
 30
0.0
 11
98.1946447373
 21
99.5017337398
 31
0.0
  0
LINE
  5
177
330
169
100
AcDbEntity
  8
14802200_0104255
  6
Continuous
 62
     7
100
AcDbLine
 10
98.1946447372
 20
289.2676867044
 30
0.0
 11
98.1946447373
 21
148.5952801715
 31
0.0
  0
ARC
  5
178
330
169
100
AcDbEntity
  8
14802200_0104255
  6
Continuous
 62
     7
100
AcDbCircle
 10
73.7699239276
 20
113.551228555
 30
0.0
 40
43.25993597761943
100
AcDbArc
 50
347.6856611785
 51
354.7911618075
  0
SPLINE
  5
179
330
169
100
AcDbEntity
  8
14802200_0104255
  6
Continuous
 62
     7
100
AcDbSpline
210
0.0
220
0.0
230
1.0
 70
     8
 71
     3
 72
    18
 73
    14
 74
     0
 42
0.0000000000539851
 43
0.0000000001
 40
0.0
 40
0.0
 40
0.0
 40
0.0
 40
0.0840882845623528
 40
0.1681433383896864
 40
0.2522323950815378
 40
0.3363046095896115
 40
0.4923064476350021
 40
0.648290915572828
 40
0.7381018182921885
 40
0.8279152037493046
 40
0.9177238093297438
 40
0.958905057099347
 40
1.0
 40
1.0
 40
1.0
 40
1.0
 10
123.8254364914442
 20
289.2626001553769
 30
0.0
 10
123.3738826892205
 20
284.120345622871
 30
0.0
 10
122.4709956961677
 20
273.8378575547105
 30
0.0
 10
121.1717041010073
 20
258.3772222387232
 30
0.0
 10
119.9303423064683
 20
242.8706120381831
 30
0.0
 10
118.4413946238461
 20
222.8743436499217
 30
0.0
 10
116.8284382454
 20
198.3437677249017
 30
0.0
 10
115.7958541667912
 20
173.4126980806577
 30
0.0
 10
115.5093898381804
 20
152.6276478039412
 30
0.0
 10
115.7762070874758
 20
135.9922853706159
 30
0.0
 10
115.9428418081815
 20
122.41461654737
 30
0.0
 10
116.0068067642655
 20
111.8671092515632
 30
0.0
 10
116.0252980477137
 20
106.8372355165665
 30
0.0
 10
116.0345452883059
 20
104.3249702654712
 30
0.0
  0
LINE
  5
17A
330
169
100
AcDbEntity
  8
14802200_0104255
  6
Continuous
 62
     7
100
AcDbLine
 10
98.1946447373
 20
99.5017337398
 30
0.0
 11
98.1946447013
 21
98.6557251562
 31
0.0
  0
SPLINE
  5
17B
330
169
100
AcDbEntity
  8
14802200_0104255
  6
Continuous
 62
     7
100
AcDbSpline
210
0.0
220
0.0
230
1.0
 70
     8
 71
     3
 72
    25
 73
    21
 74
     0
 42
0.0000000036765385
 43
0.0000000001
 40
0.0
 40
0.0
 40
0.0
 40
0.0
 40
0.0502210382473017
 40
0.1006171135280074
 40
0.1510653352129692
 40
0.2014972369350735
 40
0.2518882187585191
 40
0.3022447936019619
 40
0.352590685008099
 40
0.4029530036313722
 40
0.4533497123748079
 40
0.5037793677460372
 40
0.5542137876090851
 40
0.6046190490338862
 40
0.654987464739687
 40
0.7053341067449127
 40
0.7556861614024887
 40
0.8371465383654209
 40
0.9186778353853499
 40
1.0
 40
1.0
 40
1.0
 40
1.0
 10
113.782567754739
 20
102.9188812273288
 30
0.0
 10
113.8409044024694
 20
102.9379031017563
 30
0.0
 10
113.9578075038845
 20
102.976014495046
 30
0.0
 10
114.1293304707891
 20
103.0366315925774
 30
0.0
 10
114.2972368130163
 20
103.0997975444479
 30
0.0
 10
114.460285447677
 20
103.1655532455769
 30
0.0
 10
114.6177256238355
 20
103.2336023640062
 30
0.0
 10
114.7689122301986
 20
103.3037021914737
 30
0.0
 10
114.9134032141554
 20
103.3755617352002
 30
0.0
 10
115.0509233704205
 20
103.4488725382752
 30
0.0
 10
115.1813572286541
 20
103.5233059149173
 30
0.0
 10
115.3047353249216
 20
103.5985140156005
 30
0.0
 10
115.4212154891942
 20
103.6741617899373
 30
0.0
 10
115.5298038317389
 20
103.7500771432516
 30
0.0
 10
115.629603930968
 20
103.8260357084221
 30
0.0
 10
115.7198249837938
 20
103.9017896145997
 30
0.0
 10
115.8164137917082
 20
103.9925629970785
 30
0.0
 10
115.9094551748002
 20
104.0973422740476
 30
0.0
 10
115.9892729715576
 20
104.2142432217459
 30
0.0
 10
116.0194779131335
 20
104.2881188910274
 30
0.0
 10
116.0345452883059
 20
104.3249702654712
 30
0.0
  0
ARC
  5
17C
330
169
100
AcDbEntity
  8
14802200_0104255
  6
Continuous
 62
     7
100
AcDbCircle
 10
64.1823570171
 20
289.1581090374
 30
0.0
 40
1.068468494983553
100
AcDbArc
 50
93.4727301533
 51
184.1665357551
  0
ARC
  5
17D
330
169
100
AcDbEntity
  8
14802200_0104255
  6
Continuous
 62
     7
100
AcDbCircle
 10
132.2069324575
 20
289.1581090374
 30
0.0
 40
1.068468494983605
100
AcDbArc
 50
355.8334642449
 51
86.5272698467
  0
SPLINE
  5
17E
330
169
100
AcDbEntity
  8
14802200_0104255
  6
Continuous
 62
     7
100
AcDbSpline
210
0.0
220
0.0
230
1.0
 70
     8
 71
     3
 72
    97
 73
    93
 74
     0
 42
0.000000000055434
 43
0.0000000001
 40
0.0
 40
0.0
 40
0.0
 40
0.0
 40
0.0290190154270131
 40
0.0638939181714821
 40
0.0977632883945538
 40
0.1306136452662023
 40
0.1624298898241857
 40
0.1931968596534112
 40
0.2229002952390078
 40
0.2491831639255713
 40
0.2745528214446972
 40
0.2990016029495233
 40
0.3225171844113084
 40
0.3450361224242705
 40
0.366539968706981
 40
0.3861156153454562
 40
0.4047457491045245
 40
0.4224071154754
 40
0.4390821086924345
 40
0.4547582622346212
 40
0.4694274256293766
 40
0.4830850226719327
 40
0.4957294012625365
 40
0.5049427784788505
 40
0.51349740246828
 40
0.5213941256925602
 40
0.5286347343505692
 40
0.5352210789556752
 40
0.5411550183532029
 40
0.5464533641884193
 40
0.5516370802061047
 40
0.5556873891951252
 40
0.5608034720949878
 40
0.5669819544836368
 40
0.574171504109233
 40
0.5818898792662357
 40
0.5900096758467107
 40
0.5985281089647875
 40
0.6111172413646573
 40
0.6244707370188303
 40
0.6385761427480141
 40
0.6534190157845374
 40
0.6689829294426496
 40
0.6867739945329542
 40
0.7038278432483842
 40
0.7201098450880542
 40
0.7356397835750759
 40
0.7504418800774214
 40
0.7584423985173092
 40
0.7662316476149504
 40
0.7738167858138831
 40
0.7812040530198127
 40
0.788276237164993
 40
0.7944171275547349
 40
0.7995435321653704
 40
0.8030353547905279
 40
0.8058282990619842
 40
0.8079337425609987
 40
0.8104245080224056
 40
0.8140168797988265
 40
0.8187106657346507
 40
0.8231704379045486
 40
0.8283084658764858
 40
0.8339029067712511
 40
0.839572600790773
 40
0.8453128371496839
 40
0.851126129713024
 40
0.8629842025444148
 40
0.8751763851526164
 40
0.8877294424560589
 40
0.895306381672625
 40
0.9029076245044481
 40
0.9098017477913315
 40
0.9158573104636184
 40
0.9214542325319639
 40
0.9260744684452141
 40
0.9297253408152943
 40
0.9325682008721004
 40
0.9359751989327466
 40
0.940252719032579
 40
0.9446548077589471
 40
0.9493090847493949
 40
0.954250403960063
 40
0.9594923341872342
 40
0.9651892049622733
 40
0.9705225441637725
 40
0.9763984330510791
 40
0.9825141672642119
 40
0.988168568783657
 40
0.9933544295666988
 40
0.9981636387169605
 40
1.0
 40
1.0
 40
1.0
 40
1.0
 10
63.11598882829527
 20
289.0770488756826
 30
0.0
 10
63.39197737425574
 20
287.1839371277011
 30
0.0
 10
63.90480295275512
 20
283.6637625116677
 30
0.0
 10
64.75590934788593
 20
277.7621237284956
 30
0.0
 10
65.60656111967118
 20
271.7997908645893
 30
0.0
 10
66.42751318482894
 20
265.9804517535324
 30
0.0
 10
67.21289833807708
 20
260.3550435747457
 30
0.0
 10
67.96662899305777
 20
254.9090256831078
 30
0.0
 10
68.67112730263356
 20
249.784184586259
 30
0.0
 10
69.32980055095022
 20
244.9705954928363
 30
0.0
 10
69.9451593944329
 20
240.4601606451493
 30
0.0
 10
70.53809783329166
 20
236.1052095315017
 30
0.0
 10
71.10829244046418
 20
231.9116393187105
 30
0.0
 10
71.65476270053226
 20
227.8815016801143
 30
0.0
 10
72.16892337304641
 20
224.0758321378191
 30
0.0
 10
72.65085220762943
 20
220.4936923195766
 30
0.0
 10
73.09936065929735
 20
217.1343068381236
 30
0.0
 10
73.52005081321103
 20
213.9425957960378
 30
0.0
 10
73.91133856453744
 20
210.9231457489675
 30
0.0
 10
74.27228569830987
 20
208.0795785783401
 30
0.0
 10
74.60258943739173
 20
205.4146910259833
 30
0.0
 10
74.90249123218096
 20
202.9304851948567
 30
0.0
 10
75.15544148118504
 20
200.7753624780598
 30
0.0
 10
75.36656625298562
 20
198.9286831222436
 30
0.0
 10
75.54094086201454
 20
197.3677051685551
 30
0.0
 10
75.6984901637939
 20
195.9250175190961
 30
0.0
 10
75.83996512692808
 20
194.6007609979656
 30
0.0
 10
75.96609752144384
 20
193.3950873154256
 30
0.0
 10
76.07769165206528
 20
192.3070901913177
 30
0.0
 10
76.17868437956136
 20
191.3042170568282
 30
0.0
 10
76.26659443851155
 20
190.4157199413463
 30
0.0
 10
76.3521299594918
 20
189.5372894253826
 30
0.0
 10
76.44220288445533
 20
188.5971189438285
 30
0.0
 10
76.54857854240797
 20
187.4637312713704
 30
0.0
 10
76.66699635162882
 20
186.1698538528593
 30
0.0
 10
76.79273011586
 20
184.7555170418818
 30
0.0
 10
76.92160839658361
 20
183.2584983087999
 30
0.0
 10
77.07098313177966
 20
181.4611909399893
 30
0.0
 10
77.23907396300001
 20
179.3412046974055
 30
0.0
 10
77.42262398484813
 20
176.8774047790519
 30
0.0
 10
77.60290292839501
 20
174.2758914434089
 30
0.0
 10
77.77695653455494
 20
171.5406900691181
 30
0.0
 10
77.94684306121327
 20
168.583006381731
 30
0.0
 10
78.10217512208469
 20
165.496052615035
 30
0.0
 10
78.23487630535455
 20
162.3781710634302
 30
0.0
 10
78.33737554007296
 20
159.4149195906779
 30
0.0
 10
78.41131636464561
 20
156.6095399443839
 30
0.0
 10
78.45164307566985
 20
154.3252128934567
 30
0.0
 10
78.47059847539005
 20
152.5204792930789
 30
0.0
 10
78.4789887494024
 20
151.1517935211039
 30
0.0
 10
78.4820481668821
 20
149.8296272163254
 30
0.0
 10
78.48087049715943
 20
148.5596643852419
 30
0.0
 10
78.47664782644304
 20
147.3837736857462
 30
0.0
 10
78.47076820843724
 20
146.3401619088921
 30
0.0
 10
78.46492261561916
 20
145.5027970903467
 30
0.0
 10
78.45991865276804
 20
144.8574440856512
 30
0.0
 10
78.45604121418542
 20
144.3833073305911
 30
0.0
 10
78.45254379306499
 20
143.9696649642197
 30
0.0
 10
78.44854558063435
 20
143.502563958501
 30
0.0
 10
78.4432557459224
 20
142.881028354055
 30
0.0
 10
78.43721010116344
 20
142.1426297449812
 30
0.0
 10
78.43101404871341
 20
141.3120016436424
 30
0.0
 10
78.42539282312991
 20
140.4271435649086
 30
0.0
 10
78.42094245414951
 20
139.4689619462653
 30
0.0
 10
78.41873870224326
 20
138.4700544621719
 30
0.0
 10
78.4195853873768
 20
137.4531321362684
 30
0.0
 10
78.42578617894355
 20
136.0635738659253
 30
0.0
 10
78.44531987806114
 20
134.2768948975587
 30
0.0
 10
78.49261609561553
 20
132.0659787826116
 30
0.0
 10
78.55368876804795
 20
130.0992616922239
 30
0.0
 10
78.61811674952328
 20
128.404786154154
 30
0.0
 10
78.67594717473825
 20
127.0527334054521
 30
0.0
 10
78.7351095264013
 20
125.7909502584098
 30
0.0
 10
78.7923387038817
 20
124.6500537661925
 30
0.0
 10
78.84520586323444
 20
123.6474209385413
 30
0.0
 10
78.89184157144372
 20
122.7929133932389
 30
0.0
 10
78.92995517268886
 20
122.1086974259396
 30
0.0
 10
78.9636757685416
 20
121.5082789807592
 30
0.0
 10
78.9985303698208
 20
120.8891748599235
 30
0.0
 10
79.03784948276699
 20
120.1928670656486
 30
0.0
 10
79.08177757921894
 20
119.4160037196683
 30
0.0
 10
79.12818303849005
 20
118.5927782076926
 30
0.0
 10
79.17700493595962
 20
117.7207529959555
 30
0.0
 10
79.22861133423731
 20
116.7889296020279
 30
0.0
 10
79.28065130887008
 20
115.8346955302771
 30
0.0
 10
79.33372980235
 20
114.8425373921428
 30
0.0
 10
79.38692920842236
 20
113.8252491340334
 30
0.0
 10
79.43963087003591
 20
112.7891917654522
 30
0.0
 10
79.4890046414054
 20
111.7888216526022
 30
0.0
 10
79.53286607352267
 20
110.872315026438
 30
0.0
 10
79.56633778521825
 20
110.1540000166463
 30
0.0
 10
79.58301203216475
 20
109.7847900325194
 30
0.0
 10
79.58841235695233
 20
109.6650929397044
 30
0.0
  0
SPLINE
  5
17F
330
169
100
AcDbEntity
  8
14802200_0104255
  6
Continuous
 62
     7
100
AcDbSpline
210
0.0
220
0.0
230
1.0
 70
     8
 71
     3
 72
    78
 73
    74
 74
     0
 42
0.0000000000554363
 43
0.0000000001
 40
0.0
 40
0.0
 40
0.0
 40
0.0
 40
0.0060874020391875
 40
0.0134102087863149
 40
0.0207385347377554
 40
0.0290179579260583
 40
0.0370240171897161
 40
0.0447924220458747
 40
0.052330015853599
 40
0.0607961000679955
 40
0.0709619341758703
 40
0.0794113995459279
 40
0.0879745245632177
 40
0.098880706782733
 40
0.110613611136204
 40
0.1223754683638221
 40
0.1355891610207924
 40
0.1499087840476681
 40
0.1625827459770652
 40
0.1733046717864506
 40
0.181149116815712
 40
0.1871989625760802
 40
0.1919126310777643
 40
0.1964464995504593
 40
0.2011809809270774
 40
0.2089615299093096
 40
0.218267324621746
 40
0.2294696507952268
 40
0.2425325239623967
 40
0.2573886335410349
 40
0.2731288014417999
 40
0.2888570449256293
 40
0.3089517907604905
 40
0.3363997093987578
 40
0.3637772452876098
 40
0.383442227320489
 40
0.3974943653339864
 40
0.410314348467202
 40
0.4216022656400292
 40
0.4301512851686368
 40
0.4360996449244485
 40
0.4412081232325576
 40
0.4456246783173709
 40
0.4487002894874096
 40
0.4506039070833747
 40
0.4533523534994948
 40
0.4575594900109805
 40
0.4631333396398365
 40
0.4702652083491601
 40
0.4787129510285866
 40
0.4885560892778421
 40
0.5039850163344812
 40
0.5226356446192585
 40
0.5405198897791317
 40
0.55740889264044
 40
0.5732130336619539
 40
0.5880637400242782
 40
0.6019511126812296
 40
0.6153636440152543
 40
0.6301019392080273
 40
0.6467375402335329
 40
0.6653357305077499
 40
0.6853675693024592
 40
0.7063945640831994
 40
0.7292666988820966
 40
0.7536710032467182
 40
0.781491509448957
 40
0.8111180337353439
 40
0.8426564260179533
 40
0.8760285252125536
 40
0.916261469562193
 40
0.960436093407636
 40
1.0
 40
1.0
 40
1.0
 40
1.0
 10
116.8013846675307
 20
109.6730026528127
 30
0.0
 10
116.8193036828505
 20
110.0700802970137
 30
0.0
 10
116.8527726440982
 20
110.8001543619004
 30
0.0
 10
116.9133249499385
 20
112.0605400389006
 30
0.0
 10
116.9806058332396
 20
113.4024455648369
 30
0.0
 10
117.0471037806747
 20
114.6911669299892
 30
0.0
 10
117.1177272181553
 20
116.0317067592198
 30
0.0
 10
117.1978199307155
 20
117.4664372387683
 30
0.0
 10
117.2791478725074
 20
118.9139991958846
 30
0.0
 10
117.3664691434055
 20
120.4587396447706
 30
0.0
 10
117.4555287064134
 20
122.0355517224957
 30
0.0
 10
117.5483812683135
 20
123.7133242114452
 30
0.0
 10
117.6383074003106
 20
125.433593239545
 30
0.0
 10
117.7290487783008
 20
127.348810544292
 30
0.0
 10
117.8141121376767
 20
129.4479540694721
 30
0.0
 10
117.8860429275898
 20
131.674990420446
 30
0.0
 10
117.9403342089903
 20
134.0425821154055
 30
0.0
 10
117.9675007723493
 20
136.4471669172095
 30
0.0
 10
117.9714917135047
 20
138.6855454958285
 30
0.0
 10
117.9640460466152
 20
140.5264564877855
 30
0.0
 10
117.9537914927198
 20
141.9646023735569
 30
0.0
 10
117.9447717398839
 20
143.0419683244865
 30
0.0
 10
117.9372357953304
 20
143.9070071620121
 30
0.0
 10
117.9306619694473
 20
144.6911845711747
 30
0.0
 10
117.9232747367603
 20
145.6387655820601
 30
0.0
 10
117.9151579539301
 20
146.8773912505116
 30
0.0
 10
117.9080985806383
 20
148.5032309336789
 30
0.0
 10
117.9068091063646
 20
150.4543019089331
 30
0.0
 10
117.9177414563954
 20
152.7500908480937
 30
0.0
 10
117.9513110865579
 20
155.3372256034356
 30
0.0
 10
118.0139676714099
 20
158.1091786802655
 30
0.0
 10
118.1106541602808
 20
161.2204390692579
 30
0.0
 10
118.2645020476759
 20
165.0661967352356
 30
0.0
 10
118.4967893999102
 20
169.6514701655595
 30
0.0
 10
118.7803109790363
 20
174.2304119382609
 30
0.0
 10
119.047355745052
 20
177.9911466835007
 30
0.0
 10
119.2688632090193
 20
180.8553284544791
 30
0.0
 10
119.4620962937092
 20
183.2026637695263
 30
0.0
 10
119.6361073244791
 20
185.2100506620921
 30
0.0
 10
119.7789612701551
 20
186.7937454097789
 30
0.0
 10
119.8905426305639
 20
187.9969382945109
 30
0.0
 10
119.9803564595073
 20
188.9458126133067
 30
0.0
 10
120.0546898590852
 20
189.7177727863324
 30
0.0
 10
120.1108058765586
 20
190.2928940161926
 30
0.0
 10
120.1573385414001
 20
190.7656978779689
 30
0.0
 10
120.2111111017796
 20
191.3077269448363
 30
0.0
 10
120.2880315185471
 20
192.0740526529935
 30
0.0
 10
120.3934859183658
 20
193.1078828479575
 30
0.0
 10
120.5279643777338
 20
194.399858990756
 30
0.0
 10
120.6932949619574
 20
195.9509268744808
 30
0.0
 10
120.9181560216144
 20
198.0053266662929
 30
0.0
 10
121.2207103983609
 20
200.6765551479897
 30
0.0
 10
121.5928401986275
 20
203.8288693379208
 30
0.0
 10
121.9892047634658
 20
207.060583237166
 30
0.0
 10
122.3750784541141
 20
210.1121259840263
 30
0.0
 10
122.7455664538665
 20
212.9735925416971
 30
0.0
 10
123.0980914849215
 20
215.6495737133899
 30
0.0
 10
123.4352475168603
 20
218.1770360640396
 30
0.0
 10
123.7739329044881
 20
220.6994725798666
 30
0.0
 10
124.1360637395695
 20
223.3885928103054
 30
0.0
 10
124.5403168725986
 20
226.3864515995018
 30
0.0
 10
124.9875671249633
 20
229.6993315367775
 30
0.0
 10
125.4699242781078
 20
233.2684347152997
 30
0.0
 10
125.9870506991918
 20
237.0892411827093
 30
0.0
 10
126.5388729513842
 20
241.1582068835006
 30
0.0
 10
127.147569525287
 20
245.6320059591366
 30
0.0
 10
127.809992928765
 20
250.4792244808231
 30
0.0
 10
128.5380800830679
 20
255.7710184008273
 30
0.0
 10
129.3075344837976
 20
261.3196299734109
 30
0.0
 10
130.1874310082392
 20
267.5989005668518
 30
0.0
 10
131.1501143799995
 20
274.3912659140827
 30
0.0
 10
132.2426559470629
 20
281.9968188841337
 30
0.0
 10
132.898699864298
 20
286.507380095856
 30
0.0
 10
133.2732961355353
 20
289.0772349749901
 30
0.0
  0
ARC
  5
180
330
169
100
AcDbEntity
  8
14802200_0104255
  6
Continuous
 62
     7
100
AcDbCircle
 10
98.2528194237
 20
136.071377979
 30
0.0
 40
37.41209936929825
100
AcDbArc
 50
244.9733700484
 51
269.9109996341
  0
ARC
  5
181
330
169
100
AcDbEntity
  8
14802200_0104255
  6
Continuous
 62
     7
100
AcDbCircle
 10
98.1364699805
 20
136.0713781833
 30
0.0
 40
37.41209958416676
100
AcDbArc
 50
270.0889999639
 51
295.0266299169
  0
SPLINE
  5
182
330
169
100
AcDbEntity
  8
14802200_0104255
  6
Continuous
 62
     7
100
AcDbSpline
210
0.0
220
0.0
230
1.0
 70
     8
 71
     3
 72
    14
 73
    10
 74
     0
 42
0.0000000035010202
 43
0.0000000001
 40
0.0
 40
0.0
 40
0.0
 40
0.0
 40
0.2195901013285321
 40
0.336145573524086
 40
0.4583925356045433
 40
0.5854579536003809
 40
0.7181161258074495
 40
0.8557014818276295
 40
1.0
 40
1.0
 40
1.0
 40
1.0
 10
80.38835739554334
 20
104.0585915365109
 30
0.0
 10
80.45404456431898
 20
103.8863844739805
 30
0.0
 10
80.54284037012438
 20
103.6637359495514
 30
0.0
 10
80.7837677293505
 20
103.3473537661238
 30
0.0
 10
81.01140177895842
 20
103.1046649232588
 30
0.0
 10
81.29237777709974
 20
102.8580937017719
 30
0.0
 10
81.62136635502004
 20
102.6170406222498
 30
0.0
 10
82.00834976732169
 20
102.3773991446721
 30
0.0
 10
82.26787137989403
 20
102.2490188601885
 30
0.0
 10
82.42560309754174
 20
102.1720711671974
 30
0.0
  0
SPLINE
  5
183
330
169
100
AcDbEntity
  8
14802200_0104255
  6
Continuous
 62
     7
100
AcDbSpline
210
0.0
220
0.0
230
1.0
 70
     8
 71
     3
 72
    14
 73
    10
 74
     0
 42
0.0000000035010067
 43
0.0000000001
 40
0.0
 40
0.0
 40
0.0
 40
0.0
 40
0.1439252704217559
 40
0.2812287054706437
 40
0.4137169561701929
 40
0.5407084923001566
 40
0.6630022967333722
 40
0.779721160491166
 40
1.0
 40
1.0
 40
1.0
 40
1.0
 10
113.963686377033
 20
102.1720711671974
 30
0.0
 10
114.1210076535828
 20
102.2488026370822
 30
0.0
 10
114.3799160481475
 20
102.3768493522453
 30
0.0
 10
114.7662350571627
 20
102.615901464559
 30
0.0
 10
115.0949944843593
 20
102.8565478753713
 30
0.0
 10
115.3761244235325
 20
103.1029564068877
 30
0.0
 10
115.6041581157047
 20
103.3457360324343
 30
0.0
 10
115.8459481539469
 20
103.6627635985167
 30
0.0
 10
115.9350153126011
 20
103.8859084648684
 30
0.0
 10
116.0009320790314
 20
104.0585915365109
 30
0.0
  0
ARC
  5
184
330
169
100
AcDbEntity
  8
14802200_0104255
  6
Continuous
 62
     7
100
AcDbCircle
 10
91.033378202
 20
110.4984868595
 30
0.0
 40
25.78515042195143
100
AcDbArc
 50
345.5616643179
 51
353.334527853
  0
ARC
  5
185
330
169
100
AcDbEntity
  8
14802200_0104255
  6
Continuous
 62
     7
100
AcDbCircle
 10
91.033378202
 20
110.4984868595
 30
0.0
 40
25.78515042195143
100
AcDbArc
 50
357.4721711172
 51
358.1215458089
  0
ARC
  5
186
330
169
100
AcDbEntity
  8
14802200_0104255
  6
Continuous
 62
     7
100
AcDbCircle
 10
105.4109772193
 20
110.5060595391
 30
0.0
 40
25.8403661437478
100
AcDbArc
 50
181.878041699
 51
182.5119778678
  0
ARC
  5
187
330
169
100
AcDbEntity
  8
14802200_0104255
  6
Continuous
 62
     7
100
AcDbCircle
 10
105.4109772193
 20
110.5060595391
 30
0.0
 40
25.8403661437478
100
AcDbArc
 50
186.6159416159
 51
194.4241526966
  0
CIRCLE
  5
188
330
169
100
AcDbEntity
  8
14803500_0104258
  6
Continuous
 62
     7
100
AcDbCircle
 10
98.1946447373
 20
134.824615548
 30
0.0
 40
13.8
  0
LINE
  5
189
330
169
100
AcDbEntity
  8
05695031_DICHTUN
  6
Continuous
 62
     7
100
AcDbLine
 10
70.7911444756
 20
293.224615548
 30
0.0
 11
125.7911444756
 21
293.224615548
 31
0.0
  0
LINE
  5
18A
330
169
100
AcDbEntity
  8
05695031_DICHTUN
  6
Continuous
 62
     7
100
AcDbLine
 10
70.7911444756
 20
293.224615548
 30
0.0
 11
70.7911444756
 21
290.224615548
 31
0.0
  0
LINE
  5
18B
330
169
100
AcDbEntity
  8
05695031_DICHTUN
  6
Continuous
 62
     7
100
AcDbLine
 10
125.7911444756
 20
290.224615548
 30
0.0
 11
125.7911444756
 21
293.224615548
 31
0.0
  0
ENDBLK
  5
18D
330
169
100
AcDbEntity
  8
0
100
AcDbBlockEnd
  0
ENDSEC
  0
SECTION
  2
ENTITIES
  0
INSERT
  5
5F
330
1F
100
AcDbEntity
  8
Default
100
AcDbBlockReference
  2
SEANNOT_GROUP
 10
0.0
 20
0.0
 30
0.0
  0
INSERT
  5
66
330
1F
100
AcDbEntity
  8
Default
100
AcDbBlockReference
  2
SEANNOT_GROUP1
 10
0.0
 20
0.0
 30
0.0
  0
INSERT
  5
6C
330
1F
100
AcDbEntity
  8
Default
100
AcDbBlockReference
  2
SEANNOT_GROUP2
 10
0.0
 20
0.0
 30
0.0
  0
INSERT
  5
76
330
1F
100
AcDbEntity
  8
Default
100
AcDbBlockReference
  2
SE
 10
0.0
 20
0.0
 30
0.0
  0
INSERT
  5
E3
330
1F
100
AcDbEntity
  8
Default
100
AcDbBlockReference
  2
SE1
 10
0.0
 20
0.0
 30
0.0
  0
INSERT
  5
16A
330
1F
100
AcDbEntity
  8
Default
100
AcDbBlockReference
  2
SE2
 10
0.0
 20
0.0
 30
0.0
  0
TEXT
  5
18F
330
1F
100
AcDbEntity
  8
Default
  6
Continuous
 62
     7
100
AcDbText
 10
5.9362635081
 20
53.4225120485
 30
0.0
 40
10.0
  1
Grohe AG^J
  7
SEACAD_seiso_ttf
 11
5.9362635081
 21
63.4225120485
 31
0.0
100
AcDbText
 73
     3
  0
TEXT
  5
190
330
1F
100
AcDbEntity
  8
Default
  6
Continuous
 62
     7
100
AcDbText
 10
5.9362635081
 20
37.0588756849
 30
0.0
 40
10.0
  1
 
  7
SEACAD_seiso_ttf
 11
5.9362635081
 21
47.0588756849
 31
0.0
100
AcDbText
 73
     3
  0
TEXT
  5
191
330
1F
100
AcDbEntity
  8
Default
  6
Continuous
 62
     7
100
AcDbText
 10
5.9362635081
 20
20.6952393213
 30
0.0
 40
10.0
  1
ecn: 
  7
SEACAD_seiso_ttf
 11
5.9362635081
 21
30.6952393213
 31
0.0
100
AcDbText
 73
     3
  0
TEXT
  5
192
330
1F
100
AcDbEntity
  8
Default
  6
Continuous
 62
     7
100
AcDbText
 10
5.9362635081
 20
4.3316029576
 30
0.0
 40
10.0
  1
unit: mm
  7
SEACAD_seiso_ttf
 11
5.9362635081
 21
14.3316029576
 31
0.0
100
AcDbText
 73
     3
  0
LINE
  5
193
330
1F
100
AcDbEntity
  8
Default
  6
Continuous
 62
     7
100
AcDbLine
 10
0.0
 20
0.0
 30
0.0
 11
100.0
 21
0.0
 31
0.0
  0
LINE
  5
194
330
1F
100
AcDbEntity
  8
Default
  6
Continuous
 62
     7
100
AcDbLine
 10
0.0
 20
0.0
 30
0.0
 11
0.0
 21
100.0
 31
0.0
  0
TEXT
  5
195
330
1F
100
AcDbEntity
  8
Default
  6
Continuous
 62
     7
100
AcDbText
 10
24.3923665681
 20
-18.2375342018
 30
0.0
 40
10.0
  1
100 mm
  7
SEACAD_seiso_ttf
 11
24.3923665681
 21
-8.2375342018
 31
0.0
100
AcDbText
 73
     3
  0
TEXT
  5
196
330
1F
100
AcDbEntity
  8
Default
  6
Continuous
 62
     7
100
AcDbText
 10
-7.6150308803
 20
24.6231930421
 30
0.0
 40
10.0
  1
100 mm
 50
90.0
  7
SEACAD_seiso_ttf
 11
-17.6150308803
 21
24.6231930421
 31
0.0
100
AcDbText
 73
     3
  0
TEXT
  5
197
330
1F
100
AcDbEntity
  8
Default
  6
Continuous
 62
     7
100
AcDbText
 10
28.4878128572
 20
20.0907663715
 30
0.0
 40
10.0
  1
201794
  7
SEACAD_seiso_ttf
 11
28.4878128572
 21
30.0907663715
 31
0.0
100
AcDbText
 73
     3
  0
TEXT
  5
198
330
1F
100
AcDbEntity
  8
Default
  6
Continuous
 62
     7
100
AcDbText
 10
5.9012241913
 20
36.7242780188
 30
0.0
 40
10.0
  1
13190000
  7
SEACAD_seiso_ttf
 11
5.9012241913
 21
46.7242780188
 31
0.0
100
AcDbText
 73
     3
  0
ENDSEC
  0
SECTION
  2
OBJECTS
  0
DICTIONARY
  5
C
330
0
100
AcDbDictionary
281
     1
  3
ACAD_GROUP
350
D
  3
ACAD_LAYOUT
350
1A
  3
ACAD_MLEADERSTYLE
350
19C
  3
ACAD_MLINESTYLE
350
17
  3
ACAD_PLOTSETTINGS
350
19
  3
ACAD_PLOTSTYLENAME
350
E
  3
ACAD_SCALELIST
350
3B
  3
ACAD_TABLESTYLE
350
19B
  3
ACAD_VISUALSTYLE
350
2A
  3
AcDbVariableDictionary
350
199
  0
DICTIONARY
  5
D
102
{ACAD_REACTORS
330
C
102
}
330
C
100
AcDbDictionary
281
     1
  0
DICTIONARY
  5
1A
102
{ACAD_REACTORS
330
C
102
}
330
C
100
AcDbDictionary
281
     1
  3
Layout1
350
1E
  3
Model
350
22
  0
DICTIONARY
  5
19C
102
{ACAD_REACTORS
330
C
102
}
330
C
100
AcDbDictionary
281
     1
  0
DICTIONARY
  5
17
102
{ACAD_REACTORS
330
C
102
}
330
C
100
AcDbDictionary
281
     1
  3
Standard
350
18
  0
DICTIONARY
  5
19
102
{ACAD_REACTORS
330
C
102
}
330
C
100
AcDbDictionary
281
     1
  0
ACDBDICTIONARYWDFLT
  5
E
102
{ACAD_REACTORS
330
C
102
}
330
C
100
AcDbDictionary
281
     1
  3
Normal
350
F
100
AcDbDictionaryWithDefault
340
F
  0
DICTIONARY
  5
3B
102
{ACAD_REACTORS
330
C
102
}
330
C
100
AcDbDictionary
281
     1
  3
A0
350
3C
  3
A1
350
3D
  3
A2
350
3E
  3
A3
350
3F
  3
A4
350
40
  3
A5
350
41
  3
A6
350
42
  3
A7
350
43
  3
A8
350
44
  3
A9
350
45
  3
B0
350
46
  3
B1
350
47
  3
B2
350
48
  3
B3
350
49
  3
B4
350
4A
  3
B5
350
4B
  3
B6
350
4C
  3
B7
350
4D
  3
B8
350
4E
  3
B9
350
4F
  3
C0
350
50
  3
C1
350
51
  3
C2
350
52
  3
C3
350
53
  3
C4
350
54
  3
C5
350
55
  3
C6
350
56
  3
C7
350
57
  3
C8
350
58
  3
C9
350
59
  3
D0
350
5A
  3
D1
350
5B
  3
D2
350
5C
  0
DICTIONARY
  5
19B
102
{ACAD_REACTORS
330
C
102
}
330
C
100
AcDbDictionary
281
     1
  0
DICTIONARY
  5
2A
102
{ACAD_REACTORS
330
C
102
}
330
C
100
AcDbDictionary
281
     1
  3
2dWireframe
350
2F
  3
3D Hidden
350
31
  3
3dWireframe
350
30
  3
Basic
350
32
  3
Brighten
350
36
  3
ColorChange
350
3A
  3
Conceptual
350
34
  3
Dim
350
35
  3
Facepattern
350
39
  3
Flat
350
2B
  3
FlatWithEdges
350
2C
  3
Gouraud
350
2D
  3
GouraudWithEdges
350
2E
  3
Linepattern
350
38
  3
Realistic
350
33
  3
Thicken
350
37
  0
DICTIONARY
  5
199
102
{ACAD_REACTORS
330
C
102
}
330
C
100
AcDbDictionary
281
     1
  3
CANNOSCALE
350
19A
  3
PSOLHEIGHT
350
19E
  3
PSOLWIDTH
350
19D
  0
LAYOUT
  5
1E
102
{ACAD_REACTORS
330
1A
102
}
330
1A
100
AcDbPlotSettings
  1

  2
none_device
  4

  6

 40
0.0
 41
0.0
 42
0.0
 43
0.0
 44
0.0
 45
0.0
 46
0.0
 47
0.0
 48
0.0
 49
0.0
140
0.0
141
0.0
142
1.0
143
1.0
 70
   688
 72
     0
 73
     0
 74
     5
  7

 75
    16
147
1.0
148
0.0
149
0.0
100
AcDbLayout
  1
Layout1
 70
     1
 71
     1
 10
0.0
 20
0.0
 11
1682.0
 21
2378.0
 12
0.0
 22
0.0
 32
0.0
 14
0.0
 24
0.0
 34
0.0
 15
1682.0
 25
2378.0
 35
0.0
146
0.0
 13
0.0
 23
0.0
 33
0.0
 16
1.0
 26
0.0
 36
0.0
 17
0.0
 27
1.0
 37
0.0
 76
     0
330
1B
  0
LAYOUT
  5
22
102
{ACAD_REACTORS
330
1A
102
}
330
1A
100
AcDbPlotSettings
  1

  2
none_device
  4

  6

 40
0.0
 41
0.0
 42
0.0
 43
0.0
 44
0.0
 45
0.0
 46
0.0
 47
0.0
 48
0.0
 49
0.0
140
0.0
141
0.0
142
1.0
143
1.0
 70
  1712
 72
     0
 73
     0
 74
     0
  7

 75
     0
147
1.0
148
0.0
149
0.0
100
AcDbLayout
  1
Model
 70
     1
 71
     0
 10
0.0
 20
0.0
 11
1682.0
 21
2378.0
 12
0.0
 22
0.0
 32
0.0
 14
0.0
 24
0.0
 34
0.0
 15
1682.0
 25
2378.0
 35
0.0
146
0.0
 13
0.0
 23
0.0
 33
0.0
 16
1.0
 26
0.0
 36
0.0
 17
0.0
 27
1.0
 37
0.0
 76
     0
330
1F
331
29
  0
MLINESTYLE
  5
18
102
{ACAD_REACTORS
330
17
102
}
330
17
100
AcDbMlineStyle
  2
Standard
 70
     0
  3

 62
   256
 51
90.0
 52
90.0
 71
     2
 49
0.5
 62
   256
  6
BYLAYER
 49
-0.5
 62
   256
  6
BYLAYER
  0
ACDBPLACEHOLDER
  5
F
102
{ACAD_REACTORS
330
E
102
}
330
E
  0
SCALE
  5
3C
102
{ACAD_REACTORS
330
3B
102
}
330
3B
100
AcDbScale
 70
     0
300
1:1
140
1.0
141
1.0
290
     1
  0
SCALE
  5
3D
102
{ACAD_REACTORS
330
3B
102
}
330
3B
100
AcDbScale
 70
     0
300
1:2
140
1.0
141
2.0
290
     0
  0
SCALE
  5
3E
102
{ACAD_REACTORS
330
3B
102
}
330
3B
100
AcDbScale
 70
     0
300
1:4
140
1.0
141
4.0
290
     0
  0
SCALE
  5
3F
102
{ACAD_REACTORS
330
3B
102
}
330
3B
100
AcDbScale
 70
     0
300
1:5
140
1.0
141
5.0
290
     0
  0
SCALE
  5
40
102
{ACAD_REACTORS
330
3B
102
}
330
3B
100
AcDbScale
 70
     0
300
1:8
140
1.0
141
8.0
290
     0
  0
SCALE
  5
41
102
{ACAD_REACTORS
330
3B
102
}
330
3B
100
AcDbScale
 70
     0
300
1:10
140
1.0
141
10.0
290
     0
  0
SCALE
  5
42
102
{ACAD_REACTORS
330
3B
102
}
330
3B
100
AcDbScale
 70
     0
300
1:16
140
1.0
141
16.0
290
     0
  0
SCALE
  5
43
102
{ACAD_REACTORS
330
3B
102
}
330
3B
100
AcDbScale
 70
     0
300
1:20
140
1.0
141
20.0
290
     0
  0
SCALE
  5
44
102
{ACAD_REACTORS
330
3B
102
}
330
3B
100
AcDbScale
 70
     0
300
1:30
140
1.0
141
30.0
290
     0
  0
SCALE
  5
45
102
{ACAD_REACTORS
330
3B
102
}
330
3B
100
AcDbScale
 70
     0
300
1:40
140
1.0
141
40.0
290
     0
  0
SCALE
  5
46
102
{ACAD_REACTORS
330
3B
102
}
330
3B
100
AcDbScale
 70
     0
300
1:50
140
1.0
141
50.0
290
     0
  0
SCALE
  5
47
102
{ACAD_REACTORS
330
3B
102
}
330
3B
100
AcDbScale
 70
     0
300
1:100
140
1.0
141
100.0
290
     0
  0
SCALE
  5
48
102
{ACAD_REACTORS
330
3B
102
}
330
3B
100
AcDbScale
 70
     0
300
2:1
140
2.0
141
1.0
290
     0
  0
SCALE
  5
49
102
{ACAD_REACTORS
330
3B
102
}
330
3B
100
AcDbScale
 70
     0
300
4:1
140
4.0
141
1.0
290
     0
  0
SCALE
  5
4A
102
{ACAD_REACTORS
330
3B
102
}
330
3B
100
AcDbScale
 70
     0
300
8:1
140
8.0
141
1.0
290
     0
  0
SCALE
  5
4B
102
{ACAD_REACTORS
330
3B
102
}
330
3B
100
AcDbScale
 70
     0
300
10:1
140
10.0
141
1.0
290
     0
  0
SCALE
  5
4C
102
{ACAD_REACTORS
330
3B
102
}
330
3B
100
AcDbScale
 70
     0
300
100:1
140
100.0
141
1.0
290
     0
  0
SCALE
  5
4D
102
{ACAD_REACTORS
330
3B
102
}
330
3B
100
AcDbScale
 70
     0
300
1/128" = 1'-0"
140
0.0078125
141
12.0
290
     0
  0
SCALE
  5
4E
102
{ACAD_REACTORS
330
3B
102
}
330
3B
100
AcDbScale
 70
     0
300
1/64" = 1'-0"
140
0.015625
141
12.0
290
     0
  0
SCALE
  5
4F
102
{ACAD_REACTORS
330
3B
102
}
330
3B
100
AcDbScale
 70
     0
300
1/32" = 1'-0"
140
0.03125
141
12.0
290
     0
  0
SCALE
  5
50
102
{ACAD_REACTORS
330
3B
102
}
330
3B
100
AcDbScale
 70
     0
300
1/16" = 1'-0"
140
0.0625
141
12.0
290
     0
  0
SCALE
  5
51
102
{ACAD_REACTORS
330
3B
102
}
330
3B
100
AcDbScale
 70
     0
300
3/32" = 1'-0"
140
0.09375
141
12.0
290
     0
  0
SCALE
  5
52
102
{ACAD_REACTORS
330
3B
102
}
330
3B
100
AcDbScale
 70
     0
300
1/8" = 1'-0"
140
0.125
141
12.0
290
     0
  0
SCALE
  5
53
102
{ACAD_REACTORS
330
3B
102
}
330
3B
100
AcDbScale
 70
     0
300
3/16" = 1'-0"
140
0.1875
141
12.0
290
     0
  0
SCALE
  5
54
102
{ACAD_REACTORS
330
3B
102
}
330
3B
100
AcDbScale
 70
     0
300
1/4" = 1'-0"
140
0.25
141
12.0
290
     0
  0
SCALE
  5
55
102
{ACAD_REACTORS
330
3B
102
}
330
3B
100
AcDbScale
 70
     0
300
3/8" = 1'-0"
140
0.375
141
12.0
290
     0
  0
SCALE
  5
56
102
{ACAD_REACTORS
330
3B
102
}
330
3B
100
AcDbScale
 70
     0
300
1/2" = 1'-0"
140
0.5
141
12.0
290
     0
  0
SCALE
  5
57
102
{ACAD_REACTORS
330
3B
102
}
330
3B
100
AcDbScale
 70
     0
300
3/4" = 1'-0"
140
0.75
141
12.0
290
     0
  0
SCALE
  5
58
102
{ACAD_REACTORS
330
3B
102
}
330
3B
100
AcDbScale
 70
     0
300
1" = 1'-0"
140
1.0
141
12.0
290
     0
  0
SCALE
  5
59
102
{ACAD_REACTORS
330
3B
102
}
330
3B
100
AcDbScale
 70
     0
300
1-1/2" = 1'-0"
140
1.5
141
12.0
290
     0
  0
SCALE
  5
5A
102
{ACAD_REACTORS
330
3B
102
}
330
3B
100
AcDbScale
 70
     0
300
3" = 1'-0"
140
3.0
141
12.0
290
     0
  0
SCALE
  5
5B
102
{ACAD_REACTORS
330
3B
102
}
330
3B
100
AcDbScale
 70
     0
300
6" = 1'-0"
140
6.0
141
12.0
290
     0
  0
SCALE
  5
5C
102
{ACAD_REACTORS
330
3B
102
}
330
3B
100
AcDbScale
 70
     0
300
1'-0" = 1'-0"
140
12.0
141
12.0
290
     0
  0
VISUALSTYLE
  5
2F
102
{ACAD_REACTORS
330
2A
102
}
330
2A
100
AcDbVisualStyle
  2
2dWireframe
 70
     4
 71
     0
 72
     2
 73
     0
 90
        0
 40
-0.6
 41
-30.0
 62
     5
 63
     7
 74
     1
 91
        4
 64
     7
 65
   257
 75
     1
175
     1
 42
1.0
 92
        0
 66
   257
 43
1.0
 76
     1
 77
     6
 78
     2
 67
     7
 79
     5
170
     0
171
     0
290
     0
174
     0
 93
        1
 44
0.0
173
     0
291
     0
 45
0.0
1001
ACAD
1000
AcDbSavedByObjectVersion
1070
     0
  0
VISUALSTYLE
  5
31
102
{ACAD_REACTORS
330
2A
102
}
330
2A
100
AcDbVisualStyle
  2
3D Hidden
 70
     6
 71
     1
 72
     2
 73
     2
 90
        0
 40
-0.6
 41
-30.0
 62
     5
 63
     7
 74
     2
 91
        2
 64
     7
 65
   257
 75
     2
175
     1
 42
40.0
 92
        0
 66
   257
 43
1.0
 76
     1
 77
     6
 78
     2
 67
     7
 79
     3
170
     0
171
     0
290
     0
174
     0
 93
        1
 44
0.0
173
     0
291
     0
 45
0.0
1001
ACAD
1000
AcDbSavedByObjectVersion
1070
     0
  0
VISUALSTYLE
  5
30
102
{ACAD_REACTORS
330
2A
102
}
330
2A
100
AcDbVisualStyle
  2
3dWireframe
 70
     5
 71
     0
 72
     2
 73
     0
 90
        0
 40
-0.6
 41
-30.0
 62
     5
 63
     7
 74
     1
 91
        4
 64
     7
 65
   257
 75
     1
175
     1
 42
1.0
 92
        0
 66
   257
 43
1.0
 76
     1
 77
     6
 78
     2
 67
     7
 79
     5
170
     0
171
     0
290
     0
174
     0
 93
        1
 44
0.0
173
     0
291
     0
 45
0.0
1001
ACAD
1000
AcDbSavedByObjectVersion
1070
     0
  0
VISUALSTYLE
  5
32
102
{ACAD_REACTORS
330
2A
102
}
330
2A
100
AcDbVisualStyle
  2
Basic
 70
     7
 71
     1
 72
     0
 73
     1
 90
        0
 40
-0.6
 41
-30.0
 62
     5
 63
     7
 74
     0
 91
        4
 64
     7
 65
   257
 75
     1
175
     1
 42
1.0
 92
        8
 66
     7
 43
1.0
 76
     1
 77
     6
 78
     2
 67
     7
 79
     5
170
     0
171
     0
290
     0
174
     0
 93
        1
 44
0.0
173
     0
291
     1
 45
0.0
1001
ACAD
1000
AcDbSavedByObjectVersion
1070
     0
  0
VISUALSTYLE
  5
36
102
{ACAD_REACTORS
330
2A
102
}
330
2A
100
AcDbVisualStyle
  2
Brighten
 70
    12
 71
     2
 72
     2
 73
     0
 90
        0
 40
-0.6
 41
-30.0
 62
     5
 63
     7
 74
     1
 91
        4
 64
     7
 65
   257
 75
     1
175
     1
 42
1.0
 92
        8
 66
     7
 43
1.0
 76
     1
 77
     6
 78
     2
 67
     7
 79
     5
170
     0
171
     0
290
     0
174
     0
 93
        1
 44
50.0
173
     0
291
     1
 45
0.0
1001
ACAD
1000
AcDbSavedByObjectVersion
1070
     0
  0
VISUALSTYLE
  5
3A
102
{ACAD_REACTORS
330
2A
102
}
330
2A
100
AcDbVisualStyle
  2
ColorChange
 70
    16
 71
     2
 72
     2
 73
     3
 90
        0
 40
-0.6
 41
-30.0
 62
     5
 63
     8
 74
     1
 91
        4
 64
     7
 65
   257
 75
     1
175
     1
 42
1.0
 92
        8
 66
     8
 43
1.0
 76
     1
 77
     6
 78
     2
 67
     7
 79
     5
170
     0
171
     0
290
     0
174
     0
 93
        1
 44
0.0
173
     0
291
     1
 45
0.0
1001
ACAD
1000
AcDbSavedByObjectVersion
1070
     0
  0
VISUALSTYLE
  5
34
102
{ACAD_REACTORS
330
2A
102
}
330
2A
100
AcDbVisualStyle
  2
Conceptual
 70
     9
 71
     3
 72
     2
 73
     0
 90
        0
 40
-0.6
 41
-30.0
 62
     5
 63
     7
 74
     2
 91
        2
 64
     7
 65
   257
 75
     1
175
     1
 42
40.0
 92
        8
 66
     7
 43
1.0
 76
     1
 77
     6
 78
     2
 67
     7
 79
     3
170
     0
171
     0
290
     0
174
     0
 93
        1
 44
0.0
173
     0
291
     0
 45
0.0
1001
ACAD
1000
AcDbSavedByObjectVersion
1070
     0
  0
VISUALSTYLE
  5
35
102
{ACAD_REACTORS
330
2A
102
}
330
2A
100
AcDbVisualStyle
  2
Dim
 70
    11
 71
     2
 72
     2
 73
     0
 90
        0
 40
-0.6
 41
-30.0
 62
     5
 63
     7
 74
     1
 91
        4
 64
     7
 65
   257
 75
     1
175
     1
 42
1.0
 92
        8
 66
     7
 43
1.0
 76
     1
 77
     6
 78
     2
 67
     7
 79
     5
170
     0
171
     0
290
     0
174
     0
 93
        1
 44
-50.0
173
     0
291
     1
 45
0.0
1001
ACAD
1000
AcDbSavedByObjectVersion
1070
     0
  0
VISUALSTYLE
  5
39
102
{ACAD_REACTORS
330
2A
102
}
330
2A
100
AcDbVisualStyle
  2
Facepattern
 70
    15
 71
     2
 72
     2
 73
     0
 90
        0
 40
-0.6
 41
-30.0
 62
     5
 63
     7
 74
     1
 91
        4
 64
     7
 65
   257
 75
     1
175
     1
 42
1.0
 92
        8
 66
     7
 43
1.0
 76
     1
 77
     6
 78
     2
 67
     7
 79
     5
170
     0
171
     0
290
     0
174
     0
 93
        1
 44
0.0
173
     0
291
     1
 45
0.0
1001
ACAD
1000
AcDbSavedByObjectVersion
1070
     0
  0
VISUALSTYLE
  5
2B
102
{ACAD_REACTORS
330
2A
102
}
330
2A
100
AcDbVisualStyle
  2
Flat
 70
     0
 71
     2
 72
     1
 73
     1
 90
        2
 40
-0.6
 41
30.0
 62
     5
 63
     7
 74
     0
 91
        4
 64
     7
 65
   257
 75
     1
175
     1
 42
1.0
 92
        8
 66
     7
 43
1.0
 76
     1
 77
     6
 78
     2
 67
     7
 79
     5
170
     0
171
     0
290
     0
174
     0
 93
       13
 44
0.0
173
     0
291
     1
 45
0.0
1001
ACAD
1000
AcDbSavedByObjectVersion
1070
     0
  0
VISUALSTYLE
  5
2C
102
{ACAD_REACTORS
330
2A
102
}
330
2A
100
AcDbVisualStyle
  2
FlatWithEdges
 70
     1
 71
     2
 72
     1
 73
     1
 90
        2
 40
-0.6
 41
30.0
 62
     5
 63
     7
 74
     1
 91
        4
 64
     7
 65
   257
 75
     1
175
     1
 42
1.0
 92
        0
 66
   257
 43
1.0
 76
     1
 77
     6
 78
     2
 67
     7
 79
     5
170
     0
171
     0
290
     0
174
     0
 93
       13
 44
0.0
173
     0
291
     1
 45
0.0
1001
ACAD
1000
AcDbSavedByObjectVersion
1070
     0
  0
VISUALSTYLE
  5
2D
102
{ACAD_REACTORS
330
2A
102
}
330
2A
100
AcDbVisualStyle
  2
Gouraud
 70
     2
 71
     2
 72
     2
 73
     1
 90
        2
 40
-0.6
 41
30.0
 62
     5
 63
     7
 74
     0
 91
        4
 64
     7
 65
   257
 75
     1
175
     1
 42
1.0
 92
        0
 66
     7
 43
1.0
 76
     1
 77
     6
 78
     2
 67
     7
 79
     5
170
     0
171
     0
290
     0
174
     0
 93
       13
 44
0.0
173
     0
291
     1
 45
0.0
1001
ACAD
1000
AcDbSavedByObjectVersion
1070
     0
  0
VISUALSTYLE
  5
2E
102
{ACAD_REACTORS
330
2A
102
}
330
2A
100
AcDbVisualStyle
  2
GouraudWithEdges
 70
     3
 71
     2
 72
     2
 73
     1
 90
        2
 40
-0.6
 41
30.0
 62
     5
 63
     7
 74
     1
 91
        4
 64
     7
 65
   257
 75
     1
175
     1
 42
1.0
 92
        0
 66
   257
 43
1.0
 76
     1
 77
     6
 78
     2
 67
     7
 79
     5
170
     0
171
     0
290
     0
174
     0
 93
       13
 44
0.0
173
     0
291
     1
 45
0.0
1001
ACAD
1000
AcDbSavedByObjectVersion
1070
     0
  0
VISUALSTYLE
  5
38
102
{ACAD_REACTORS
330
2A
102
}
330
2A
100
AcDbVisualStyle
  2
Linepattern
 70
    14
 71
     2
 72
     2
 73
     0
 90
        0
 40
-0.6
 41
-30.0
 62
     5
 63
     7
 74
     1
 91
        4
 64
     7
 65
   257
 75
     7
175
     7
 42
1.0
 92
        8
 66
     7
 43
1.0
 76
     1
 77
     6
 78
     2
 67
     7
 79
     5
170
     0
171
     0
290
     0
174
     0
 93
        1
 44
0.0
173
     0
291
     1
 45
0.0
1001
ACAD
1000
AcDbSavedByObjectVersion
1070
     0
  0
VISUALSTYLE
  5
33
102
{ACAD_REACTORS
330
2A
102
}
330
2A
100
AcDbVisualStyle
  2
Realistic
 70
     8
 71
     2
 72
     2
 73
     0
 90
        0
 40
-0.6
 41
-30.0
 62
     5
 63
     7
 74
     1
 91
        0
 64
     7
 65
   257
 75
     1
175
     1
 42
1.0
 92
        8
 66
     8
 43
1.0
 76
     1
 77
     6
 78
     2
 67
     7
 79
     5
170
     0
171
     0
290
     0
174
     0
 93
       13
 44
0.0
173
     0
291
     0
 45
0.0
1001
ACAD
1000
AcDbSavedByObjectVersion
1070
     0
  0
VISUALSTYLE
  5
37
102
{ACAD_REACTORS
330
2A
102
}
330
2A
100
AcDbVisualStyle
  2
Thicken
 70
    13
 71
     2
 72
     2
 73
     0
 90
        0
 40
-0.6
 41
-30.0
 62
     5
 63
     7
 74
     1
 91
        4
 64
     7
 65
   257
 75
     1
175
     1
 42
1.0
 92
       12
 66
     7
 43
1.0
 76
     1
 77
     6
 78
     2
 67
     7
 79
     5
170
     0
171
     0
290
     0
174
     0
 93
        1
 44
0.0
173
     0
291
     1
 45
0.0
1001
ACAD
1000
AcDbSavedByObjectVersion
1070
     0
  0
DICTIONARYVAR
  5
19A
102
{ACAD_REACTORS
330
199
102
}
330
199
100
DictionaryVariables
280
     0
  1
1:1
  0
DICTIONARYVAR
  5
19E
102
{ACAD_REACTORS
330
199
102
}
330
199
100
DictionaryVariables
280
     0
  1
80.000000
  0
DICTIONARYVAR
  5
19D
102
{ACAD_REACTORS
330
199
102
}
330
199
100
DictionaryVariables
280
     0
  1
5.000000
  0
ENDSEC
  0
EOF
