  0
SECTION
  2
HEADER
  9
$ACADVER
  1
AC1015
  9
$ACADMAINTVER
 70
     6
  9
$DWGCODEPAGE
  3
ANSI_1252
  9
$INSBASE
 10
0.0
 20
0.0
 30
0.0
  9
$EXTMIN
 10
0.0
 20
0.0
 30
0.0
  9
$EXTMAX
 10
3000.0
 20
4500.0
 30
0.0
  9
$LIMMIN
 10
0.0
 20
0.0
  9
$LIMMAX
 10
3000.0
 20
4500.0
  9
$ORTHOMODE
 70
     0
  9
$REGENMODE
 70
     1
  9
$FILLMODE
 70
     1
  9
$QTEXTMODE
 70
     0
  9
$MIRRTEXT
 70
     1
  9
$LTSCALE
 40
1.0
  9
$ATTMODE
 70
     1
  9
$TEXTSIZE
 40
2.5
  9
$TRACEWID
 40
1.0
  9
$TEXTSTYLE
  7
Standard
  9
$CLAYER
  8
0
  9
$CELTYPE
  6
ByLayer
  9
$CECOLOR
 62
   256
  9
$CELTSCALE
 40
1.0
  9
$DISPSILH
 70
     0
  9
$DIMSCALE
 40
1.0
  9
$DIMASZ
 40
2.5
  9
$DIMEXO
 40
0.625
  9
$DIMDLI
 40
3.75
  9
$DIMRND
 40
0.0
  9
$DIMDLE
 40
0.0
  9
$DIMEXE
 40
1.25
  9
$DIMTP
 40
0.0
  9
$DIMTM
 40
0.0
  9
$DIMTXT
 40
2.5
  9
$DIMCEN
 40
2.5
  9
$DIMTSZ
 40
0.0
  9
$DIMTOL
 70
     0
  9
$DIMLIM
 70
     0
  9
$DIMTIH
 70
     0
  9
$DIMTOH
 70
     0
  9
$DIMSE1
 70
     0
  9
$DIMSE2
 70
     0
  9
$DIMTAD
 70
     1
  9
$DIMZIN
 70
     8
  9
$DIMBLK
  1

  9
$DIMASO
 70
     1
  9
$DIMSHO
 70
     1
  9
$DIMPOST
  1

  9
$DIMAPOST
  1

  9
$DIMALT
 70
     0
  9
$DIMALTD
 70
     3
  9
$DIMALTF
 40
0.0393700787
  9
$DIMLFAC
 40
1.0
  9
$DIMTOFL
 70
     1
  9
$DIMTVP
 40
0.0
  9
$DIMTIX
 70
     0
  9
$DIMSOXD
 70
     0
  9
$DIMSAH
 70
     0
  9
$DIMBLK1
  1

  9
$DIMBLK2
  1

  9
$DIMSTYLE
  2
ISO-25
  9
$DIMCLRD
 70
     0
  9
$DIMCLRE
 70
     0
  9
$DIMCLRT
 70
     0
  9
$DIMTFAC
 40
1.0
  9
$DIMGAP
 40
0.625
  9
$DIMJUST
 70
     0
  9
$DIMSD1
 70
     0
  9
$DIMSD2
 70
     0
  9
$DIMTOLJ
 70
     0
  9
$DIMTZIN
 70
     8
  9
$DIMALTZ
 70
     0
  9
$DIMALTTZ
 70
     0
  9
$DIMUPT
 70
     0
  9
$DIMDEC
 70
     2
  9
$DIMTDEC
 70
     2
  9
$DIMALTU
 70
     2
  9
$DIMALTTD
 70
     3
  9
$DIMTXSTY
  7
Standard
  9
$DIMAUNIT
 70
     0
  9
$DIMADEC
 70
     0
  9
$DIMALTRND
 40
0.0
  9
$DIMAZIN
 70
     0
  9
$DIMDSEP
 70
    44
  9
$DIMATFIT
 70
     3
  9
$DIMFRAC
 70
     0
  9
$DIMLDRBLK
  1

  9
$DIMLUNIT
 70
     2
  9
$DIMLWD
 70
    -2
  9
$DIMLWE
 70
    -2
  9
$DIMTMOVE
 70
     0
  9
$LUNITS
 70
     2
  9
$LUPREC
 70
     4
  9
$SKETCHINC
 40
1.0
  9
$FILLETRAD
 40
10.0
  9
$AUNITS
 70
     0
  9
$AUPREC
 70
     0
  9
$MENU
  1
.
  9
$ELEVATION
 40
0.0
  9
$PELEVATION
 40
0.0
  9
$THICKNESS
 40
0.0
  9
$LIMCHECK
 70
     0
  9
$CHAMFERA
 40
10.0
  9
$CHAMFERB
 40
10.0
  9
$CHAMFERC
 40
20.0
  9
$CHAMFERD
 40
0.0
  9
$SKPOLY
 70
     0
  9
$TDCREATE
 40
2456563.295968808
  9
$TDUCREATE
 40
2456563.212635475
  9
$TDUPDATE
 40
2456563.295968819
  9
$TDUUPDATE
 40
2456563.212635486
  9
$TDINDWG
 40
0.0000000116
  9
$TDUSRTIMER
 40
0.0000000116
  9
$USRTIMER
 70
     1
  9
$ANGBASE
 50
0.0
  9
$ANGDIR
 70
     0
  9
$PDMODE
 70
     0
  9
$PDSIZE
 40
0.0
  9
$PLINEWID
 40
0.0
  9
$SPLFRAME
 70
     0
  9
$SPLINETYPE
 70
     6
  9
$SPLINESEGS
 70
     8
  9
$HANDSEED
  5
264
  9
$SURFTAB1
 70
     6
  9
$SURFTAB2
 70
     6
  9
$SURFTYPE
 70
     6
  9
$SURFU
 70
     6
  9
$SURFV
 70
     6
  9
$UCSBASE
  2

  9
$UCSNAME
  2

  9
$UCSORG
 10
0.0
 20
0.0
 30
0.0
  9
$UCSXDIR
 10
1.0
 20
0.0
 30
0.0
  9
$UCSYDIR
 10
0.0
 20
1.0
 30
0.0
  9
$UCSORTHOREF
  2

  9
$UCSORTHOVIEW
 70
     0
  9
$UCSORGTOP
 10
0.0
 20
0.0
 30
0.0
  9
$UCSORGBOTTOM
 10
0.0
 20
0.0
 30
0.0
  9
$UCSORGLEFT
 10
0.0
 20
0.0
 30
0.0
  9
$UCSORGRIGHT
 10
0.0
 20
0.0
 30
0.0
  9
$UCSORGFRONT
 10
0.0
 20
0.0
 30
0.0
  9
$UCSORGBACK
 10
0.0
 20
0.0
 30
0.0
  9
$PUCSBASE
  2

  9
$PUCSNAME
  2

  9
$PUCSORG
 10
0.0
 20
0.0
 30
0.0
  9
$PUCSXDIR
 10
1.0
 20
0.0
 30
0.0
  9
$PUCSYDIR
 10
0.0
 20
1.0
 30
0.0
  9
$PUCSORTHOREF
  2

  9
$PUCSORTHOVIEW
 70
     0
  9
$PUCSORGTOP
 10
0.0
 20
0.0
 30
0.0
  9
$PUCSORGBOTTOM
 10
0.0
 20
0.0
 30
0.0
  9
$PUCSORGLEFT
 10
0.0
 20
0.0
 30
0.0
  9
$PUCSORGRIGHT
 10
0.0
 20
0.0
 30
0.0
  9
$PUCSORGFRONT
 10
0.0
 20
0.0
 30
0.0
  9
$PUCSORGBACK
 10
0.0
 20
0.0
 30
0.0
  9
$USERI1
 70
     0
  9
$USERI2
 70
     0
  9
$USERI3
 70
     0
  9
$USERI4
 70
     0
  9
$USERI5
 70
     0
  9
$USERR1
 40
0.0
  9
$USERR2
 40
0.0
  9
$USERR3
 40
0.0
  9
$USERR4
 40
0.0
  9
$USERR5
 40
0.0
  9
$WORLDVIEW
 70
     1
  9
$SHADEDGE
 70
     3
  9
$SHADEDIF
 70
    70
  9
$TILEMODE
 70
     1
  9
$MAXACTVP
 70
    64
  9
$PINSBASE
 10
0.0
 20
0.0
 30
0.0
  9
$PLIMCHECK
 70
     0
  9
$PEXTMIN
 10
0.0
 20
0.0
 30
0.0
  9
$PEXTMAX
 10
3000.0
 20
4500.0
 30
0.0
  9
$PLIMMIN
 10
0.0
 20
0.0
  9
$PLIMMAX
 10
3000.0
 20
4500.0
  9
$UNITMODE
 70
     0
  9
$VISRETAIN
 70
     1
  9
$PLINEGEN
 70
     0
  9
$PSLTSCALE
 70
     1
  9
$TREEDEPTH
 70
  3020
  9
$CMLSTYLE
  2
Standard
  9
$CMLJUST
 70
     0
  9
$CMLSCALE
 40
20.0
  9
$PROXYGRAPHICS
 70
     1
  9
$MEASUREMENT
 70
     1
  9
$CELWEIGHT
370
    -1
  9
$ENDCAPS
280
     0
  9
$JOINSTYLE
280
     0
  9
$LWDISPLAY
290
     0
  9
$INSUNITS
 70
     4
  9
$HYPERLINKBASE
  1

  9
$STYLESHEET
  1

  9
$XEDIT
290
     1
  9
$CEPSNTYPE
380
     0
  9
$PSTYLEMODE
290
     1
  9
$FINGERPRINTGUID
  2
{FF006316-6DA7-4761-94BC-C5098C5E1524}
  9
$VERSIONGUID
  2
{FAEB1C32-E019-11D5-929B-00C0DF256EC4}
  9
$EXTNAMES
290
     1
  9
$PSVPSCALE
 40
0.0
  9
$OLESTARTUP
290
     0
  0
ENDSEC
  0
SECTION
  2
CLASSES
  0
CLASS
  1
ACDBDICTIONARYWDFLT
  2
AcDbDictionaryWithDefault
  3
ObjectDBX Classes
 90
        0
280
     0
281
     0
  0
CLASS
  1
VISUALSTYLE
  2
AcDbVisualStyle
  3
ObjectDBX Classes
 90
     4095
280
     0
281
     0
  0
CLASS
  1
SCALE
  2
AcDbScale
  3
ObjectDBX Classes
 90
     1153
280
     0
281
     0
  0
CLASS
  1
DICTIONARYVAR
  2
AcDbDictionaryVar
  3
ObjectDBX Classes
 90
        0
280
     0
281
     0
  0
CLASS
  1
ACDBPLACEHOLDER
  2
AcDbPlaceHolder
  3
ObjectDBX Classes
 90
        0
280
     0
281
     0
  0
CLASS
  1
LAYOUT
  2
AcDbLayout
  3
ObjectDBX Classes
 90
        0
280
     0
281
     0
  0
ENDSEC
  0
SECTION
  2
TABLES
  0
TABLE
  2
VPORT
  5
8
330
0
100
AcDbSymbolTable
 70
     1
  0
VPORT
  5
29
330
8
100
AcDbSymbolTableRecord
100
AcDbViewportTableRecord
  2
*Active
 70
     0
 10
0.0
 20
0.0
 11
1.0
 21
1.0
 12
344.1869158879
 22
148.5
 13
0.0
 23
0.0
 14
10.0
 24
10.0
 15
10.0
 25
10.0
 16
0.0
 26
0.0
 36
1.0
 17
0.0
 27
0.0
 37
0.0
 40
297.0
 41
1.9729729729
 42
50.0
 43
0.0
 44
0.0
 50
0.0
 51
0.0
 71
     0
 72
   100
 73
     1
 74
     3
 75
     0
 76
     0
 77
     0
 78
     0
281
     0
 65
     1
110
0.0
120
0.0
130
0.0
111
1.0
121
0.0
131
0.0
112
0.0
122
1.0
132
0.0
 79
     0
146
0.0
  0
ENDTAB
  0
TABLE
  2
LTYPE
  5
5
330
0
100
AcDbSymbolTable
 70
     2
  0
LTYPE
  5
14
330
5
100
AcDbSymbolTableRecord
100
AcDbLinetypeTableRecord
  2
ByBlock
 70
     0
  3

 72
    65
 73
     0
 40
0.0
  0
LTYPE
  5
15
330
5
100
AcDbSymbolTableRecord
100
AcDbLinetypeTableRecord
  2
ByLayer
 70
     0
  3

 72
    65
 73
     0
 40
0.0
  0
LTYPE
  5
16
330
5
100
AcDbSymbolTableRecord
100
AcDbLinetypeTableRecord
  2
Continuous
 70
     0
  3
Solid line
 72
    65
 73
     0
 40
0.0
  0
LTYPE
  5
60
330
5
100
AcDbSymbolTableRecord
100
AcDbLinetypeTableRecord
  2
CENTER2
 70
     0
  3
Center (.5x) ___ _ ___ _ ___ _ ___ _ ___ _ ___
 72
    65
 73
     4
 40
28.575
 49
19.05
 74
     4
 75
     0
340
0
 46
0.0
 50
0.0
 44
0.0
 45
0.0
 49
-3.175
 74
     4
 75
     0
340
0
 46
0.0
 50
0.0
 44
0.0
 45
0.0
 49
3.175
 74
     4
 75
     0
340
0
 46
0.0
 50
0.0
 44
0.0
 45
0.0
 49
-3.175
 74
     4
 75
     0
340
0
 46
0.0
 50
0.0
 44
0.0
 45
0.0
  0
ENDTAB
  0
TABLE
  2
LAYER
  5
2
330
0
100
AcDbSymbolTable
 70
     5
  0
LAYER
  5
10
330
2
100
AcDbSymbolTableRecord
100
AcDbLayerTableRecord
  2
0
 70
     0
 62
     7
  6
Continuous
370
    -3
390
F
  0
LAYER
  5
5D
330
2
100
AcDbSymbolTableRecord
100
AcDbLayerTableRecord
  2
Default
 70
     0
 62
     7
  6
Continuous
370
    -3
390
F
  0
LAYER
  5
85
330
2
100
AcDbSymbolTableRecord
100
AcDbLayerTableRecord
  2
DV1_Default
 70
     0
 62
     7
  6
Continuous
370
    -3
390
F
  0
LAYER
  5
133
330
2
100
AcDbSymbolTableRecord
100
AcDbLayerTableRecord
  2
DV2_Default
 70
     0
 62
     7
  6
Continuous
370
    -3
390
F
  0
LAYER
  5
1D9
330
2
100
AcDbSymbolTableRecord
100
AcDbLayerTableRecord
  2
DV3_Default
 70
     0
 62
     7
  6
Continuous
370
    -3
390
F
  0
ENDTAB
  0
TABLE
  2
STYLE
  5
3
330
0
100
AcDbSymbolTable
 70
     2
  0
STYLE
  5
11
330
3
100
AcDbSymbolTableRecord
100
AcDbTextStyleTableRecord
  2
Standard
 70
     0
 40
0.0
 41
1.0
 50
0.0
 71
     0
 42
2.5
  3
txt
  4

  0
STYLE
  5
253
330
3
100
AcDbSymbolTableRecord
100
AcDbTextStyleTableRecord
  2
SEACAD_seiso_ttf
 70
     0
 40
0.0
 41
1.0
 50
0.0
 71
     0
 42
0.2
  3
seiso.ttf
  4

  0
ENDTAB
  0
TABLE
  2
VIEW
  5
6
330
0
100
AcDbSymbolTable
 70
     0
  0
ENDTAB
  0
TABLE
  2
UCS
  5
7
330
0
100
AcDbSymbolTable
 70
     0
  0
ENDTAB
  0
TABLE
  2
APPID
  5
9
330
0
100
AcDbSymbolTable
 70
     1
  0
APPID
  5
12
330
9
100
AcDbSymbolTableRecord
100
AcDbRegAppTableRecord
  2
ACAD
 70
     0
  0
ENDTAB
  0
TABLE
  2
DIMSTYLE
  5
A
330
0
100
AcDbSymbolTable
 70
     1
100
AcDbDimStyleTable
  0
DIMSTYLE
105
27
330
A
100
AcDbSymbolTableRecord
100
AcDbDimStyleTableRecord
  2
ISO-25
 70
     0
 41
2.5
 42
0.625
 43
3.75
 44
1.25
 73
     0
 74
     0
 77
     1
 78
     8
140
2.5
141
2.5
143
0.0393700787
147
0.625
171
     3
172
     1
271
     2
272
     2
274
     3
278
    44
283
     0
284
     8
340
11
  0
ENDTAB
  0
TABLE
  2
BLOCK_RECORD
  5
1
330
0
100
AcDbSymbolTable
 70
    10
  0
BLOCK_RECORD
  5
1F
330
1
100
AcDbSymbolTableRecord
100
AcDbBlockTableRecord
  2
*Model_Space
340
22
  0
BLOCK_RECORD
  5
1B
330
1
100
AcDbSymbolTableRecord
100
AcDbBlockTableRecord
  2
*Paper_Space
340
1E
  0
BLOCK_RECORD
  5
5E
330
1
100
AcDbSymbolTableRecord
100
AcDbBlockTableRecord
  2
SEANNOT_GROUP
340
0
102
{BLKREFS
331
5F
102
}
  0
BLOCK_RECORD
  5
65
330
1
100
AcDbSymbolTableRecord
100
AcDbBlockTableRecord
  2
SEANNOT_GROUP1
340
0
102
{BLKREFS
331
66
102
}
  0
BLOCK_RECORD
  5
6B
330
1
100
AcDbSymbolTableRecord
100
AcDbBlockTableRecord
  2
SEANNOT_GROUP2
340
0
102
{BLKREFS
331
6C
102
}
  0
BLOCK_RECORD
  5
71
330
1
100
AcDbSymbolTableRecord
100
AcDbBlockTableRecord
  2
SEANNOT_GROUP3
340
0
102
{BLKREFS
331
72
102
}
  0
BLOCK_RECORD
  5
77
330
1
100
AcDbSymbolTableRecord
100
AcDbBlockTableRecord
  2
SEANNOT_GROUP4
340
0
102
{BLKREFS
331
78
102
}
  0
BLOCK_RECORD
  5
7D
330
1
100
AcDbSymbolTableRecord
100
AcDbBlockTableRecord
  2
SEANNOT_GROUP5
340
0
102
{BLKREFS
331
7E
102
}
  0
BLOCK_RECORD
  5
83
330
1
100
AcDbSymbolTableRecord
100
AcDbBlockTableRecord
  2
SE
340
0
102
{BLKREFS
331
84
102
}
  0
BLOCK_RECORD
  5
131
330
1
100
AcDbSymbolTableRecord
100
AcDbBlockTableRecord
  2
SE1
340
0
102
{BLKREFS
331
132
102
}
  0
BLOCK_RECORD
  5
1D7
330
1
100
AcDbSymbolTableRecord
100
AcDbBlockTableRecord
  2
SE2
340
0
102
{BLKREFS
331
1D8
102
}
  0
ENDTAB
  0
ENDSEC
  0
SECTION
  2
BLOCKS
  0
BLOCK
  5
20
330
1F
100
AcDbEntity
  8
0
100
AcDbBlockBegin
  2
*Model_Space
 70
     0
 10
0.0
 20
0.0
 30
0.0
  3
*Model_Space
  1

  0
ENDBLK
  5
21
330
1F
100
AcDbEntity
  8
0
100
AcDbBlockEnd
  0
BLOCK
  5
1C
330
1B
100
AcDbEntity
 67
     1
  8
0
100
AcDbBlockBegin
  2
*Paper_Space
 70
     0
 10
0.0
 20
0.0
 30
0.0
  3
*Paper_Space
  1

  0
ENDBLK
  5
1D
330
1B
100
AcDbEntity
 67
     1
  8
0
100
AcDbBlockEnd
  0
BLOCK
  5
63
330
5E
100
AcDbEntity
  8
0
100
AcDbBlockBegin
  2
SEANNOT_GROUP
 70
     0
 10
0.0
 20
0.0
 30
0.0
  3
SEANNOT_GROUP
  1

  0
LINE
  5
61
330
5E
100
AcDbEntity
  8
Default
  6
CENTER2
 62
     7
100
AcDbLine
 10
66.3500524769
 20
244.368963407
 30
0.0
 11
26.3500533709
 21
244.368963407
 31
0.0
  0
LINE
  5
62
330
5E
100
AcDbEntity
  8
Default
  6
CENTER2
 62
     7
100
AcDbLine
 10
46.3500529239
 20
264.3689629599
 30
0.0
 11
46.3500529239
 21
224.368963854
 31
0.0
  0
ENDBLK
  5
64
330
5E
100
AcDbEntity
  8
0
100
AcDbBlockEnd
  0
BLOCK
  5
69
330
65
100
AcDbEntity
  8
0
100
AcDbBlockBegin
  2
SEANNOT_GROUP1
 70
     0
 10
0.0
 20
0.0
 30
0.0
  3
SEANNOT_GROUP1
  1

  0
LINE
  5
67
330
65
100
AcDbEntity
  8
Default
  6
CENTER2
 62
     7
100
AcDbLine
 10
205.5394434885
 20
383.6021738181
 30
0.0
 11
165.5394443825
 21
383.6021738181
 31
0.0
  0
LINE
  5
68
330
65
100
AcDbEntity
  8
Default
  6
CENTER2
 62
     7
100
AcDbLine
 10
185.5394439355
 20
403.6021733711
 30
0.0
 11
185.5394439355
 21
363.6021742652
 31
0.0
  0
ENDBLK
  5
6A
330
65
100
AcDbEntity
  8
0
100
AcDbBlockEnd
  0
BLOCK
  5
6F
330
6B
100
AcDbEntity
  8
0
100
AcDbBlockBegin
  2
SEANNOT_GROUP2
 70
     0
 10
0.0
 20
0.0
 30
0.0
  3
SEANNOT_GROUP2
  1

  0
LINE
  5
6D
330
6B
100
AcDbEntity
  8
Default
  6
CENTER2
 62
     7
100
AcDbLine
 10
327.5611438036
 20
353.273800724
 30
0.0
 11
287.5611446977
 21
353.273800724
 31
0.0
  0
LINE
  5
6E
330
6B
100
AcDbEntity
  8
Default
  6
CENTER2
 62
     7
100
AcDbLine
 10
307.5611442506
 20
373.2738002769
 30
0.0
 11
307.5611442506
 21
333.273801171
 31
0.0
  0
ENDBLK
  5
70
330
6B
100
AcDbEntity
  8
0
100
AcDbBlockEnd
  0
BLOCK
  5
75
330
71
100
AcDbEntity
  8
0
100
AcDbBlockBegin
  2
SEANNOT_GROUP3
 70
     0
 10
0.0
 20
0.0
 30
0.0
  3
SEANNOT_GROUP3
  1

  0
LINE
  5
73
330
71
100
AcDbEntity
  8
Default
  6
CENTER2
 62
     7
100
AcDbLine
 10
66.3500246763
 20
383.6021738181
 30
0.0
 11
26.3500255704
 21
383.6021738181
 31
0.0
  0
LINE
  5
74
330
71
100
AcDbEntity
  8
Default
  6
CENTER2
 62
     7
100
AcDbLine
 10
46.3500251234
 20
403.6021733711
 30
0.0
 11
46.3500251234
 21
363.6021742652
 31
0.0
  0
ENDBLK
  5
76
330
71
100
AcDbEntity
  8
0
100
AcDbBlockEnd
  0
BLOCK
  5
7B
330
77
100
AcDbEntity
  8
0
100
AcDbBlockBegin
  2
SEANNOT_GROUP4
 70
     0
 10
0.0
 20
0.0
 30
0.0
  3
SEANNOT_GROUP4
  1

  0
LINE
  5
79
330
77
100
AcDbEntity
  8
Default
  6
CENTER2
 62
     7
100
AcDbLine
 10
66.3500525021
 20
349.9737360037
 30
0.0
 11
26.3500533962
 21
349.9737360037
 31
0.0
  0
LINE
  5
7A
330
77
100
AcDbEntity
  8
Default
  6
CENTER2
 62
     7
100
AcDbLine
 10
46.3500529491
 20
369.9737355566
 30
0.0
 11
46.3500529491
 21
329.9737364507
 31
0.0
  0
ENDBLK
  5
7C
330
77
100
AcDbEntity
  8
0
100
AcDbBlockEnd
  0
BLOCK
  5
81
330
7D
100
AcDbEntity
  8
0
100
AcDbBlockBegin
  2
SEANNOT_GROUP5
 70
     0
 10
0.0
 20
0.0
 30
0.0
  3
SEANNOT_GROUP5
  1

  0
LINE
  5
7F
330
7D
100
AcDbEntity
  8
Default
  6
CENTER2
 62
     7
100
AcDbLine
 10
66.3276890264
 20
122.3351022567
 30
0.0
 11
26.3276899205
 21
122.3351022567
 31
0.0
  0
LINE
  5
80
330
7D
100
AcDbEntity
  8
Default
  6
CENTER2
 62
     7
100
AcDbLine
 10
46.3276894734
 20
142.3351018097
 30
0.0
 11
46.3276894734
 21
102.3351027038
 31
0.0
  0
ENDBLK
  5
82
330
7D
100
AcDbEntity
  8
0
100
AcDbBlockEnd
  0
BLOCK
  5
12F
330
83
100
AcDbEntity
  8
0
100
AcDbBlockBegin
  2
SE
 70
     0
 10
0.0
 20
0.0
 30
0.0
  3
SE
  1

  0
ARC
  5
86
330
83
100
AcDbEntity
  8
DV1_Default
  6
Continuous
 62
     7
100
AcDbCircle
 10
-655.1082746618
 20
235.3883633902
 30
0.0
 40
701.459208407105
100
AcDbArc
 50
359.9122389762
 51
359.9134317677
  0
SPLINE
  5
87
330
83
100
AcDbEntity
  8
DV1_Default
  6
Continuous
 62
     7
100
AcDbSpline
210
0.0
220
0.0
230
1.0
 70
     8
 71
     3
 72
    24
 73
    20
 74
     0
 42
0.0000000005809246
 43
0.0000000001
 40
0.0
 40
0.0
 40
0.0
 40
0.0
 40
0.0003777735965395
 40
0.0628875040134334
 40
0.1253110382802418
 40
0.1876321283859061
 40
0.2498969091326246
 40
0.3741766411875626
 40
0.4368281309126284
 40
0.5000060952536766
 40
0.5634613032088696
 40
0.5950741098050067
 40
0.6264707105105695
 40
0.7507312191974482
 40
0.8129615299690811
 40
0.8753432427997723
 40
0.9376910872101726
 40
0.9713814773779347
 40
1.0
 40
1.0
 40
1.0
 40
1.0
 10
29.1364298206665
 20
234.3139254990618
 30
0.0
 10
29.13642792996628
 20
234.3139254967485
 30
0.0
 10
29.13628139477918
 20
234.3139259230296
 30
0.0
 10
29.19178890357115
 20
234.3141967946264
 30
0.0
 10
29.43912865521467
 20
234.3149354364459
 30
0.0
 10
29.8486188177061
 20
234.3155487656088
 30
0.0
 10
30.60384238577254
 20
234.3158412106154
 30
0.0
 10
31.6680800460893
 20
234.3152169676434
 30
0.0
 10
33.01073521597991
 20
234.3141974911562
 30
0.0
 10
34.15695019921222
 20
234.3138056548113
 30
0.0
 10
35.21633784797628
 20
234.314076937617
 30
0.0
 10
36.11553633533268
 20
234.3145740416835
 30
0.0
 10
37.49636691337681
 20
234.3153474053954
 30
0.0
 10
39.24352609695644
 20
234.3158440691718
 30
0.0
 10
41.35808814151686
 20
234.315543990807
 30
0.0
 10
42.99535902754234
 20
234.3149134969025
 30
0.0
 10
44.40986249943558
 20
234.3143241829182
 30
0.0
 10
45.53069618650908
 20
234.3139829416278
 30
0.0
 10
46.09217789973595
 20
234.313943583716
 30
0.0
 10
46.35006680185914
 20
234.3139256069696
 30
0.0
  0
LINE
  5
88
330
83
100
AcDbEntity
  8
DV1_Default
  6
Continuous
 62
     7
100
AcDbLine
 10
46.3500668019
 20
234.313925607
 30
0.0
 11
46.3500819775
 21
234.7552824149
 31
0.0
  0
SPLINE
  5
89
330
83
100
AcDbEntity
  8
DV1_Default
  6
Continuous
 62
     7
100
AcDbSpline
210
0.0
220
0.0
230
1.0
 70
     8
 71
     3
 72
    17
 73
    13
 74
     0
 42
0.0000000003211802
 43
0.0000000001
 40
0.0
 40
0.0
 40
0.0
 40
0.0
 40
0.00033824840694
 40
0.3010598841823508
 40
0.4985471330221596
 40
0.5611558102235182
 40
0.6238260192385529
 40
0.7492097561558714
 40
0.8067488557539729
 40
0.874736170785094
 40
0.9562401008179947
 40
0.9999999999999999
 40
0.9999999999999999
 40
0.9999999999999999
 40
0.9999999999999999
 10
15.21497212570977
 20
237.1806216496454
 30
0.0
 10
15.21497243396745
 20
237.1806216343514
 30
0.0
 10
15.21663420927507
 20
237.1806079464786
 30
0.0
 10
17.26481838417615
 20
237.1804738419603
 30
0.0
 10
22.66867404802377
 20
237.1808045670938
 30
0.0
 10
26.56649067638422
 20
237.180543669508
 30
0.0
 10
29.85000347960504
 20
237.1807330209766
 30
0.0
 10
33.39822107097711
 20
237.1806938200197
 30
0.0
 10
37.22924556922965
 20
237.1807425098488
 30
0.0
 10
40.48877241294636
 20
237.1807644982767
 30
0.0
 10
43.60595003000046
 20
237.1808038764129
 30
0.0
 10
45.63967455239648
 20
237.1807927582283
 30
0.0
 10
46.3501396612935
 20
237.1807888516835
 30
0.0
  0
LINE
  5
8A
330
83
100
AcDbEntity
  8
DV1_Default
  6
Continuous
 62
     7
100
AcDbLine
 10
46.3501370425
 20
238.1952695214
 30
0.0
 11
46.3501338208
 21
237.1807888639
 31
0.0
  0
LINE
  5
8B
330
83
100
AcDbEntity
  8
DV1_Default
  6
Continuous
 62
     7
100
AcDbLine
 10
14.0443587289
 20
238.1952694827
 30
0.0
 11
46.3501309703
 21
238.1952695047
 31
0.0
  0
SPLINE
  5
8C
330
83
100
AcDbEntity
  8
DV1_Default
  6
Continuous
 62
     7
100
AcDbSpline
210
0.0
220
0.0
230
1.0
 70
    12
 71
     3
 72
     8
 73
     4
 74
     0
 42
0.0000000028490283
 43
0.0000000001
 40
0.0
 40
0.0
 40
0.0
 40
0.0
 40
1.0
 40
1.0
 40
1.0
 40
1.0
 10
46.35013097028313
 20
238.1952695046726
 30
0.0
 41
1.0
 10
46.35013209566352
 20
239.9549881380815
 30
0.0
 41
1.0
 10
46.35007421108096
 20
241.1249776695625
 30
0.0
 41
1.0
 10
46.35007719675589
 20
241.7052382045425
 30
0.0
 41
1.0
  0
SPLINE
  5
8D
330
83
100
AcDbEntity
  8
DV1_Default
  6
Continuous
 62
     7
100
AcDbSpline
210
0.0
220
0.0
230
1.0
 70
     8
 71
     3
 72
    20
 73
    16
 74
     0
 42
0.000000000269751
 43
0.0000000001
 40
0.0
 40
0.0
 40
0.0
 40
0.0
 40
0.0000493241041337
 40
0.0632201125705068
 40
0.1496620794566949
 40
0.2847748310659902
 40
0.355002436661301
 40
0.4288249804656322
 40
0.571228701050675
 40
0.6829607200278895
 40
0.7832553592358623
 40
0.8240447814784078
 40
0.8989019620749351
 40
0.953514221814656
 40
1.0
 40
1.0
 40
1.0
 40
1.0
 10
9.279394995746557
 20
241.7052641584252
 30
0.0
 10
9.279394768896061
 20
241.7052641934262
 30
0.0
 10
9.279151764447324
 20
241.7053096938784
 30
0.0
 10
9.423482605480157
 20
241.7073560168804
 30
0.0
 10
10.3459753154359
 20
241.7133183664087
 30
0.0
 10
12.25479890638348
 20
241.715505198752
 30
0.0
 10
14.86649856560846
 20
241.711994700046
 30
0.0
 10
18.07793124372014
 20
241.7052654910823
 30
0.0
 10
22.61737397306882
 20
241.7055832509849
 30
0.0
 10
28.37266025234123
 20
241.7145746024717
 30
0.0
 10
32.87164878682727
 20
241.7151974962274
 30
0.0
 10
36.86381440902046
 20
241.7124702768228
 30
0.0
 10
40.09520780975834
 20
241.7097102974701
 30
0.0
 10
43.48765870760987
 20
241.7067821202927
 30
0.0
 10
45.44847596115346
 20
241.7057245053225
 30
0.0
 10
46.35007719675589
 20
241.7052382045425
 30
0.0
  0
SPLINE
  5
8E
330
83
100
AcDbEntity
  8
DV1_Default
  6
Continuous
 62
     7
100
AcDbSpline
210
0.0
220
0.0
230
1.0
 70
     8
 71
     3
 72
    20
 73
    16
 74
     0
 42
0.0000000002697547
 43
0.0000000001
 40
0.0
 40
0.0
 40
0.0
 40
0.0
 40
0.0308028566209735
 40
0.061622201552061
 40
0.0924649336819259
 40
0.1233347110809666
 40
0.1854262486490243
 40
0.2493448328997163
 40
0.3736801077018684
 40
0.4987621715029334
 40
0.6239597587611319
 40
0.7495933153455466
 40
0.875116947596853
 40
0.9999690987877247
 40
1.0
 40
1.0
 40
1.0
 40
1.0
 10
46.35007719675589
 20
241.7052382045425
 30
0.0
 10
46.94728269257756
 20
241.7055266062183
 30
0.0
 10
48.14201335942314
 20
241.7061035639538
 30
0.0
 10
49.9304426826265
 20
241.7073234867024
 30
0.0
 10
51.71164335269693
 20
241.7087419632334
 30
0.0
 10
54.07794498326361
 20
241.7111223163848
 30
0.0
 10
57.03516732229089
 20
241.7134507103616
 30
0.0
 10
61.61558761426775
 20
241.7155083444276
 30
0.0
 10
67.01480635523238
 20
241.7111339074797
 30
0.0
 10
72.67725763013915
 20
241.7023995280532
 30
0.0
 10
77.33905783848886
 20
241.7111275167186
 30
0.0
 10
80.8084757916753
 20
241.7162280799469
 30
0.0
 10
82.94102520653199
 20
241.7113924035899
 30
0.0
 10
83.42038507402994
 20
241.7051723987127
 30
0.0
 10
83.42071159705894
 20
241.7052643102123
 30
0.0
 10
83.42071166323686
 20
241.7052643331505
 30
0.0
  0
LINE
  5
8F
330
83
100
AcDbEntity
  8
DV1_Default
  6
Continuous
 62
     7
100
AcDbLine
 10
78.6557471189
 20
238.1952694827
 30
0.0
 11
46.3501309703
 21
238.1952695162
 31
0.0
  0
SPLINE
  5
90
330
83
100
AcDbEntity
  8
DV1_Default
  6
Continuous
 62
     7
100
AcDbSpline
210
0.0
220
0.0
230
1.0
 70
     8
 71
     3
 72
    20
 73
    16
 74
     0
 42
0.0000000003211617
 43
0.0000000001
 40
0.0
 40
0.0
 40
0.0
 40
0.0
 40
0.0247789276068947
 40
0.066436822944309
 40
0.1249752299164346
 40
0.1934287062009891
 40
0.2501768023694556
 40
0.3752363279176543
 40
0.4377444917259726
 40
0.5001912661622885
 40
0.5626378215546486
 40
0.625145461395343
 40
0.750203510402219
 40
0.8752607242858167
 40
1.0
 40
1.0
 40
1.0
 40
1.0
 10
46.3501396612935
 20
237.1807888516835
 30
0.0
 10
46.75345556270681
 20
237.1807914916574
 30
0.0
 10
47.83481903242234
 20
237.1807985372231
 30
0.0
 10
49.86476273166195
 20
237.1807923350344
 30
0.0
 10
52.5805803095447
 20
237.1807619949364
 30
0.0
 10
55.48119120692652
 20
237.1807443572373
 30
0.0
 10
59.3112268225124
 20
237.1806867267848
 30
0.0
 10
62.85030683808229
 20
237.1807752441911
 30
0.0
 10
66.1336009346065
 20
237.1804766058494
 30
0.0
 10
68.40315554028
 20
237.1808388137548
 30
0.0
 10
70.4490628569231
 20
237.180545237914
 30
0.0
 10
72.86143672207245
 20
237.1805997632978
 30
0.0
 10
75.26193815782253
 20
237.1805961272254
 30
0.0
 10
77.06158212795019
 20
237.1806191009127
 30
0.0
 10
77.48611522524118
 20
237.1806160134107
 30
0.0
 10
77.4851300975129
 20
237.180619973283
 30
0.0
  0
SPLINE
  5
91
330
83
100
AcDbEntity
  8
DV1_Default
  6
Continuous
 62
     7
100
AcDbSpline
210
0.0
220
0.0
230
1.0
 70
     8
 71
     3
 72
    23
 73
    19
 74
     0
 42
0.0000000005809286
 43
0.0000000001
 40
0.0
 40
0.0
 40
0.0
 40
0.0
 40
0.0320695206392511
 40
0.0712126120610617
 40
0.1424908369457489
 40
0.2845616842148168
 40
0.3556246764626105
 40
0.3913864891651911
 40
0.4274247566187074
 40
0.4998965880839167
 40
0.5720532081144745
 40
0.6257346600955819
 40
0.6790998323708676
 40
0.7856873191827904
 40
0.8924578947158547
 40
0.9460100495025949
 40
0.9996142190153436
 40
1.0
 40
1.0
 40
1.0
 40
1.0
 10
46.35006680185914
 20
234.3139256069696
 30
0.0
 10
46.6390207409604
 20
234.3139491318826
 30
0.0
 10
47.28066315901224
 20
234.3140015934925
 30
0.0
 10
48.56104461709365
 20
234.3144244227868
 30
0.0
 10
50.80787101602987
 20
234.3154162821716
 30
0.0
 10
53.25127896822486
 20
234.3158969001696
 30
0.0
 10
55.21914430107176
 20
234.3152940994631
 30
0.0
 10
56.29099561534901
 20
234.3147468278203
 30
0.0
 10
57.33057747393282
 20
234.3141409007695
 30
0.0
 10
58.54830282369064
 20
234.3137641978074
 30
0.0
 10
59.74030553982873
 20
234.3142352015043
 30
0.0
 10
60.69287079945151
 20
234.314950098524
 30
0.0
 10
61.69319777272914
 20
234.315654489206
 30
0.0
 10
62.67808102091685
 20
234.3158460314997
 30
0.0
 10
63.28070663871551
 20
234.3149278534007
 30
0.0
 10
63.52287885074657
 20
234.3141199335194
 30
0.0
 10
63.56377941222058
 20
234.3139240187997
 30
0.0
 10
63.56367826136677
 20
234.3139255232
 30
0.0
 10
63.5636764851042
 20
234.3139255390299
 30
0.0
  0
LINE
  5
92
330
83
100
AcDbEntity
  8
DV1_Default
  6
Continuous
 62
     7
100
AcDbLine
 10
86.3501058478
 20
244.3689689863
 30
0.0
 11
46.3500529239
 21
244.368963407
 31
0.0
  0
LINE
  5
93
330
83
100
AcDbEntity
  8
DV1_Default
  6
Continuous
 62
     7
100
AcDbLine
 10
6.35
 20
244.3689689863
 30
0.0
 11
46.3500529239
 21
244.368963407
 31
0.0
  0
ARC
  5
94
330
83
100
AcDbEntity
  8
DV1_Default
  6
Continuous
 62
     7
100
AcDbCircle
 10
27.7489588735
 20
-16720.7678500893
 30
0.0
 40
16962.50535329316
100
AcDbArc
 50
89.9371693995
 51
90.0627802292
  0
LINE
  5
95
330
83
100
AcDbEntity
  8
DV1_Default
  6
Continuous
 62
     7
100
AcDbLine
 10
46.3500529239
 20
241.7273042151
 30
0.0
 11
46.3500529239
 21
244.368963407
 31
0.0
  0
ARC
  5
96
330
83
100
AcDbEntity
  8
DV1_Default
  6
Continuous
 62
     7
100
AcDbCircle
 10
64.9511469748
 20
-16720.7678551642
 30
0.0
 40
16962.50535836808
100
AcDbArc
 50
89.9372197708
 51
90.0628306005
  0
LINE
  5
97
330
83
100
AcDbEntity
  8
DV1_Default
  6
Continuous
 62
     7
100
AcDbLine
 10
46.3500771968
 20
241.7052382045
 30
0.0
 11
46.3500529239
 21
241.7273042151
 31
0.0
  0
SPLINE
  5
98
330
83
100
AcDbEntity
  8
DV1_Default
  6
Continuous
 62
     7
100
AcDbSpline
210
0.0
220
0.0
230
1.0
 70
     8
 71
     3
 72
    10
 73
     6
 74
     0
 42
0.0000000616135468
 43
0.0000000001
 40
0.0
 40
0.0
 40
0.0
 40
0.0
 40
0.6610994926975615
 40
0.6610994926975615
 40
1.0
 40
1.0
 40
1.0
 40
1.0
 10
39.70820644194887
 20
236.1192199747618
 30
0.0
 10
39.74171590905159
 20
236.1122328383527
 30
0.0
 10
39.77663631629866
 20
236.1056053157877
 30
0.0
 10
39.83066336626216
 20
236.0961234542631
 30
0.0
 10
39.84915881147106
 20
236.093005454799
 30
0.0
 10
39.86783413702685
 20
236.0899798148488
 30
0.0
  0
LINE
  5
99
330
83
100
AcDbEntity
  8
DV1_Default
  6
Continuous
 62
     7
100
AcDbLine
 10
40.6185848188
 20
235.5046578229
 30
0.0
 11
40.6185848188
 21
235.6062533578
 31
0.0
  0
LINE
  5
9A
330
83
100
AcDbEntity
  8
DV1_Default
  6
Continuous
 62
     7
100
AcDbLine
 10
39.8748452388
 20
235.8437884105
 30
0.0
 11
39.8748452388
 21
236.13057332
 31
0.0
  0
LINE
  5
9B
330
83
100
AcDbEntity
  8
DV1_Default
  6
Continuous
 62
     7
100
AcDbLine
 10
40.768908194
 20
236.0017061414
 30
0.0
 11
40.768908194
 21
236.1151778749
 31
0.0
  0
ARC
  5
9C
330
83
100
AcDbEntity
  8
DV1_Default
  6
Continuous
 62
     7
100
AcDbCircle
 10
40.0691310384
 20
226.1186025418
 30
0.0
 40
10.02301965212557
100
AcDbArc
 50
80.6366210084
 51
86.8575167178
  0
SPLINE
  5
9D
330
83
100
AcDbEntity
  8
DV1_Default
  6
Continuous
 62
     7
100
AcDbSpline
210
0.0
220
0.0
230
1.0
 70
     8
 71
     3
 72
    20
 73
    16
 74
     0
 42
0.0000000065957008
 43
0.0000000001
 40
0.0
 40
0.0
 40
0.0
 40
0.0
 40
0.125
 40
0.125
 40
0.2499999999999999
 40
0.2499999999999999
 40
0.3749999999999999
 40
0.3749999999999999
 40
0.4999999999999999
 40
0.4999999999999999
 40
0.6249999999999999
 40
0.6249999999999999
 40
0.7499999999999998
 40
0.7499999999999998
 40
1.0
 40
1.0
 40
1.0
 40
1.0
 10
39.19120278171476
 20
235.8879502023012
 30
0.0
 10
39.19133707490921
 20
235.9097647974706
 30
0.0
 10
39.19777152174988
 20
235.9311782429942
 30
0.0
 10
39.22812811214684
 20
235.9726974557697
 30
0.0
 10
39.25276628709126
 20
235.9930126099404
 30
0.0
 10
39.32154011245177
 20
236.0300368404781
 30
0.0
 10
39.36606798901967
 20
236.0467780611022
 30
0.0
 10
39.46545191905142
 20
236.0785781739127
 30
0.0
 10
39.52128679437703
 20
236.0938017447386
 30
0.0
 10
39.65392234168536
 20
236.117016176714
 30
0.0
 10
39.73196954992888
 20
236.1252341688686
 30
0.0
 10
39.89573744034698
 20
236.1367496566127
 30
0.0
 10
39.98126867457284
 20
236.140102658682
 30
0.0
 10
40.24726198325078
 20
236.1439963024615
 30
0.0
 10
40.43304418928234
 20
236.1382020632876
 30
0.0
 10
40.61858481881756
 20
236.1265505577864
 30
0.0
  0
SPLINE
  5
9E
330
83
100
AcDbEntity
  8
DV1_Default
  6
Continuous
 62
     7
100
AcDbSpline
210
0.0
220
0.0
230
1.0
 70
     8
 71
     3
 72
    20
 73
    16
 74
     0
 42
0.0000000064998714
 43
0.0000000001
 40
0.0
 40
0.0
 40
0.0
 40
0.0
 40
0.2500000000000002
 40
0.2500000000000002
 40
0.3750000000000001
 40
0.3750000000000001
 40
0.5000000000000001
 40
0.5000000000000001
 40
0.6250000000000001
 40
0.6250000000000001
 40
0.75
 40
0.75
 40
0.875
 40
0.875
 40
1.0
 40
1.0
 40
1.0
 40
1.0
 10
40.61858481881756
 20
235.5046578228908
 30
0.0
 10
40.43139795276148
 20
235.5133087281259
 30
0.0
 10
40.2480896276462
 20
235.527464512141
 30
0.0
 10
39.98089172499312
 20
235.5597017322136
 30
0.0
 10
39.89403153822428
 20
235.5722411988774
 30
0.0
 10
39.73073737639663
 20
235.6006505265636
 30
0.0
 10
39.65241234350469
 20
235.6169047508246
 30
0.0
 10
39.52043205442207
 20
235.6528482112865
 30
0.0
 10
39.46577752430283
 20
235.6726573048642
 30
0.0
 10
39.36608592399133
 20
235.713645903824
 30
0.0
 10
39.32163824335731
 20
235.7345313003388
 30
0.0
 10
39.25323833959752
 20
235.7774384927664
 30
0.0
 10
39.22858425634325
 20
235.7996640453181
 30
0.0
 10
39.19781378240792
 20
235.8439861347745
 30
0.0
 10
39.19132527795523
 20
235.8659963458273
 30
0.0
 10
39.19120278171476
 20
235.8879502023012
 30
0.0
  0
ARC
  5
9F
330
83
100
AcDbEntity
  8
DV1_Default
  6
Continuous
 62
     7
100
AcDbCircle
 10
41.1215948431
 20
244.7384998319
 30
0.0
 40
9.247532499624988
100
AcDbArc
 50
266.8819160987
 51
274.1015889034
  0
LINE
  5
A0
330
83
100
AcDbEntity
  8
DV1_Default
  6
Continuous
 62
     7
100
AcDbLine
 10
41.7830255755
 20
235.7444270009
 30
0.0
 11
41.7830255755
 21
235.5146521143
 31
0.0
  0
LINE
  5
A1
330
83
100
AcDbEntity
  8
DV1_Default
  6
Continuous
 62
     7
100
AcDbLine
 10
41.1219237265
 20
235.7749183424
 30
0.0
 11
41.7830255755
 21
235.7444270009
 31
0.0
  0
LINE
  5
A2
330
83
100
AcDbEntity
  8
DV1_Default
  6
Continuous
 62
     7
100
AcDbLine
 10
41.1219237265
 20
235.6076216031
 30
0.0
 11
41.1219237265
 21
235.7749183424
 31
0.0
  0
ARC
  5
A3
330
83
100
AcDbEntity
  8
DV1_Default
  6
Continuous
 62
     7
100
AcDbCircle
 10
40.839918438
 20
240.4792983974
 30
0.0
 40
4.879832145718077
100
AcDbArc
 50
266.8269443328
 51
273.312966407
  0
SPLINE
  5
A4
330
83
100
AcDbEntity
  8
DV1_Default
  6
Continuous
 62
     7
100
AcDbSpline
210
0.0
220
0.0
230
1.0
 70
     8
 71
     3
 72
    16
 73
    12
 74
     0
 42
0.0000000128483272
 43
0.0000000001
 40
0.0
 40
0.0
 40
0.0
 40
0.0
 40
0.2500000000000032
 40
0.2500000000000032
 40
0.5000000000000063
 40
0.5000000000000063
 40
0.625000000000005
 40
0.625000000000005
 40
0.7500000000000037
 40
0.7500000000000037
 40
1.0
 40
1.0
 40
1.0
 40
1.0
 10
39.87484523876426
 20
235.8437884104788
 30
0.0
 10
39.87495903643173
 20
235.819157991809
 30
0.0
 10
39.88422270744883
 20
235.79463208024
 30
0.0
 10
39.93439840522155
 20
235.7455702302265
 30
0.0
 10
39.9754926936805
 20
235.7207068256522
 30
0.0
 10
40.05722574284375
 20
235.6856686323166
 30
0.0
 10
40.09088418157193
 20
235.6743700741106
 30
0.0
 10
40.16937489993413
 20
235.6544551183425
 30
0.0
 10
40.21414941185128
 20
235.6453735078707
 30
0.0
 10
40.35606475417291
 20
235.6220849931958
 30
0.0
 10
40.46283608085833
 20
235.6118168490407
 30
0.0
 10
40.56981014099729
 20
235.6069474988437
 30
0.0
  0
SPLINE
  5
A5
330
83
100
AcDbEntity
  8
DV1_Default
  6
Continuous
 62
     7
100
AcDbSpline
210
0.0
220
0.0
230
1.0
 70
     8
 71
     3
 72
    18
 73
    14
 74
     0
 42
0.0000000104582821
 43
0.0000000001
 40
0.0
 40
0.0
 40
0.0
 40
0.0
 40
0.2499999999999997
 40
0.2499999999999997
 40
0.3749999999999997
 40
0.3749999999999997
 40
0.4999999999999998
 40
0.4999999999999998
 40
0.6249999999999998
 40
0.6249999999999998
 40
0.7499999999999999
 40
0.7499999999999999
 40
1.0
 40
1.0
 40
1.0
 40
1.0
 10
40.76890819398369
 20
236.0017061414454
 30
0.0
 10
40.65019276652049
 20
236.0089001459606
 30
0.0
 10
40.53360984777251
 20
236.0120849942116
 30
0.0
 10
40.36312486667558
 20
236.0084679923219
 30
0.0
 10
40.30845067097561
 20
236.005861488963
 30
0.0
 10
40.20523906501317
 20
235.9975494683475
 30
0.0
 10
40.15643079260447
 20
235.9916953215777
 30
0.0
 10
40.07513331953853
 20
235.9759611992533
 30
0.0
 10
40.04139580859022
 20
235.966027115655
 30
0.0
 10
39.98013298621996
 20
235.9453102603383
 30
0.0
 10
39.953171407153
 20
235.9344181505262
 30
0.0
 10
39.89126805008036
 20
235.8988695660198
 30
0.0
 10
39.87501010418917
 20
235.8715076810439
 30
0.0
 10
39.87484523876426
 20
235.8437884104788
 30
0.0
  0
ARC
  5
A6
330
83
100
AcDbEntity
  8
DV1_Default
  6
Continuous
 62
     7
100
AcDbCircle
 10
40.4439478988
 20
229.5532587967
 30
0.0
 40
6.456630107941534
100
AcDbArc
 50
78.7838745345
 51
87.1151014397
  0
LINE
  5
A7
330
83
100
AcDbEntity
  8
DV1_Default
  6
Continuous
 62
     7
100
AcDbLine
 10
41.6998297714
 20
236.0080789986
 30
0.0
 11
41.6998297714
 21
235.8865701797
 31
0.0
  0
LINE
  5
A8
330
83
100
AcDbEntity
  8
DV1_Default
  6
Continuous
 62
     7
100
AcDbLine
 10
42.3201708277
 20
235.9572911754
 30
0.0
 11
42.9775164162
 21
235.9352638077
 31
0.0
  0
LINE
  5
A9
330
83
100
AcDbEntity
  8
DV1_Default
  6
Continuous
 62
     7
100
AcDbLine
 10
43.7815403605
 20
235.9705842342
 30
0.0
 11
43.9691691896
 21
235.9094230251
 31
0.0
  0
LINE
  5
AA
330
83
100
AcDbEntity
  8
DV1_Default
  6
Continuous
 62
     7
100
AcDbLine
 10
43.9691691896
 20
235.3981845139
 30
0.0
 11
43.9691691896
 21
235.6129000756
 31
0.0
  0
LINE
  5
AB
330
83
100
AcDbEntity
  8
DV1_Default
  6
Continuous
 62
     7
100
AcDbLine
 10
43.9551881601
 20
235.6168311622
 30
0.0
 11
43.9551881601
 21
235.9563101881
 31
0.0
  0
LINE
  5
AC
330
83
100
AcDbEntity
  8
DV1_Default
  6
Continuous
 62
     7
100
AcDbLine
 10
42.9775164162
 20
235.8835525826
 30
0.0
 11
42.9775164162
 21
236.0041213888
 31
0.0
  0
LINE
  5
AD
330
83
100
AcDbEntity
  8
DV1_Default
  6
Continuous
 62
     7
100
AcDbLine
 10
43.4033550995
 20
235.8705388921
 30
0.0
 11
43.4033550995
 21
235.9897837616
 31
0.0
  0
LINE
  5
AE
330
83
100
AcDbEntity
  8
DV1_Default
  6
Continuous
 62
     7
100
AcDbLine
 10
43.7815403605
 20
235.7648570265
 30
0.0
 11
43.7815403605
 21
235.9696350958
 31
0.0
  0
LINE
  5
AF
330
83
100
AcDbEntity
  8
DV1_Default
  6
Continuous
 62
     7
100
AcDbLine
 10
43.0601541473
 20
235.6919296123
 30
0.0
 11
43.4378095969
 21
235.6809070272
 31
0.0
  0
LINE
  5
B0
330
83
100
AcDbEntity
  8
DV1_Default
  6
Continuous
 62
     7
100
AcDbLine
 10
43.9691691896
 20
235.3981845139
 30
0.0
 11
43.0601541473
 21
235.6919296123
 31
0.0
  0
LINE
  5
B1
330
83
100
AcDbEntity
  8
DV1_Default
  6
Continuous
 62
     7
100
AcDbLine
 10
44.784289806
 20
235.3837102464
 30
0.0
 11
43.9691691896
 21
235.3981845139
 31
0.0
  0
LINE
  5
B2
330
83
100
AcDbEntity
  8
DV1_Default
  6
Continuous
 62
     7
100
AcDbLine
 10
43.9551881601
 20
235.6168311622
 30
0.0
 11
44.784289806
 21
235.3837102464
 31
0.0
  0
SPLINE
  5
B3
330
83
100
AcDbEntity
  8
DV1_Default
  6
Continuous
 62
     7
100
AcDbSpline
210
0.0
220
0.0
230
1.0
 70
     8
 71
     3
 72
    14
 73
    10
 74
     0
 42
0.0000000191601213
 43
0.0000000001
 40
0.0
 40
0.0
 40
0.0
 40
0.0
 40
0.25
 40
0.25
 40
0.5
 40
0.5
 40
0.75
 40
0.75
 40
1.0
 40
1.0
 40
1.0
 40
1.0
 10
44.4236241603511
 20
235.772993996402
 30
0.0
 10
44.42350546394141
 20
235.754929238966
 30
0.0
 10
44.41566354651879
 20
235.737405114919
 30
0.0
 10
44.37601812484034
 20
235.7038561552394
 30
0.0
 10
44.34327597521041
 20
235.6883835844224
 30
0.0
 10
44.26108940523401
 20
235.6606729050166
 30
0.0
 10
44.21413559626086
 20
235.6474912134228
 30
0.0
 10
44.09677405373198
 20
235.628112312499
 30
0.0
 10
44.0272392180636
 20
235.6214589648726
 30
0.0
 10
43.95518816006484
 20
235.6168311621952
 30
0.0
  0
SPLINE
  5
B4
330
83
100
AcDbEntity
  8
DV1_Default
  6
Continuous
 62
     7
100
AcDbSpline
210
0.0
220
0.0
230
1.0
 70
     8
 71
     3
 72
    16
 73
    12
 74
     0
 42
0.0000000103297022
 43
0.0000000001
 40
0.0
 40
0.0
 40
0.0
 40
0.0
 40
0.2500000000000015
 40
0.2500000000000015
 40
0.500000000000003
 40
0.500000000000003
 40
0.6250000000000038
 40
0.6250000000000038
 40
0.7500000000000044
 40
0.7500000000000044
 40
1.0
 40
1.0
 40
1.0
 40
1.0
 10
43.52073822926246
 20
235.98583157117
 30
0.0
 10
43.63541332012006
 20
235.9833170587847
 30
0.0
 10
43.74795014549108
 20
235.9775915970248
 30
0.0
 10
43.96732366245439
 20
235.9575053244977
 30
0.0
 10
44.07586759098801
 20
235.9434100604568
 30
0.0
 10
44.2054933606477
 20
235.9134799674936
 30
0.0
 10
44.2413162279548
 20
235.9020982256462
 30
0.0
 10
44.30628513120027
 20
235.8781515258661
 30
0.0
 10
44.33595459682051
 20
235.865823924085
 30
0.0
 10
44.40493336780031
 20
235.8272735866706
 30
0.0
 10
44.42344807741124
 20
235.7997990973208
 30
0.0
 10
44.4236241603511
 20
235.772993996402
 30
0.0
  0
LINE
  5
B5
330
83
100
AcDbEntity
  8
DV1_Default
  6
Continuous
 62
     7
100
AcDbLine
 10
42.3201708277
 20
236.026253657
 30
0.0
 11
43.5207382293
 21
235.9858315712
 31
0.0
  0
LINE
  5
B6
330
83
100
AcDbEntity
  8
DV1_Default
  6
Continuous
 62
     7
100
AcDbLine
 10
42.3201708277
 20
235.4456366472
 30
0.0
 11
42.3201708277
 21
236.026253657
 31
0.0
  0
LINE
  5
B7
330
83
100
AcDbEntity
  8
DV1_Default
  6
Continuous
 62
     7
100
AcDbLine
 10
42.9775164162
 20
235.4238006474
 30
0.0
 11
42.3201708277
 21
235.4456366472
 31
0.0
  0
LINE
  5
B8
330
83
100
AcDbEntity
  8
DV1_Default
  6
Continuous
 62
     7
100
AcDbLine
 10
42.9775164162
 20
235.8835525826
 30
0.0
 11
42.9775164162
 21
235.4238006474
 31
0.0
  0
LINE
  5
B9
330
83
100
AcDbEntity
  8
DV1_Default
  6
Continuous
 62
     7
100
AcDbLine
 10
43.4033550995
 20
235.8705388921
 30
0.0
 11
42.9775164162
 21
235.8835525826
 31
0.0
  0
SPLINE
  5
BA
330
83
100
AcDbEntity
  8
DV1_Default
  6
Continuous
 62
     7
100
AcDbSpline
210
0.0
220
0.0
230
1.0
 70
     8
 71
     3
 72
    14
 73
    10
 74
     0
 42
0.0000000241687882
 43
0.0000000001
 40
0.0
 40
0.0
 40
0.0
 40
0.0
 40
0.25
 40
0.25
 40
0.5
 40
0.5
 40
0.75
 40
0.75
 40
1.0
 40
1.0
 40
1.0
 40
1.0
 10
43.78154036052307
 20
235.7648570265294
 30
0.0
 10
43.78147358367202
 20
235.7771227816188
 30
0.0
 10
43.77560544730493
 20
235.7893581115037
 30
0.0
 10
43.74348123181692
 20
235.8136188302174
 30
0.0
 10
43.71923458875261
 20
235.8255395065972
 30
0.0
 10
43.65277008594431
 20
235.8467396512666
 30
0.0
 10
43.60692074606501
 20
235.8547484424778
 30
0.0
 10
43.50927263853846
 20
235.8661247664946
 30
0.0
 10
43.4562170175498
 20
235.8693966315141
 30
0.0
 10
43.40335509953706
 20
235.870538892136
 30
0.0
  0
SPLINE
  5
BB
330
83
100
AcDbEntity
  8
DV1_Default
  6
Continuous
 62
     7
100
AcDbSpline
210
0.0
220
0.0
230
1.0
 70
     8
 71
     3
 72
    14
 73
    10
 74
     0
 42
0.000000026696777
 43
0.0000000001
 40
0.0
 40
0.0
 40
0.0
 40
0.0
 40
0.25
 40
0.25
 40
0.5
 40
0.5
 40
0.75
 40
0.75
 40
1.0
 40
1.0
 40
1.0
 40
1.0
 10
43.43780959688213
 20
235.6809070272192
 30
0.0
 10
43.48754616562237
 20
235.6800621139697
 30
0.0
 10
43.53638867860742
 20
235.6811866014824
 30
0.0
 10
43.62663705617295
 20
235.6882047079269
 30
0.0
 10
43.66758935234888
 20
235.6941579019182
 30
0.0
 10
43.7250026100233
 20
235.7110253104457
 30
0.0
 10
43.74751468917302
 20
235.7207730772749
 30
0.0
 10
43.77596745475555
 20
235.741765182939
 30
0.0
 10
43.78147721727603
 20
235.7532618015094
 30
0.0
 10
43.78154036052307
 20
235.7648570265294
 30
0.0
  0
LINE
  5
BC
330
83
100
AcDbEntity
  8
DV1_Default
  6
Continuous
 62
     7
100
AcDbLine
 10
46.350107622
 20
235.4554051445
 30
0.0
 11
46.3501192569
 21
235.8542946195
 31
0.0
  0
LINE
  5
BD
330
83
100
AcDbEntity
  8
DV1_Default
  6
Continuous
 62
     7
100
AcDbLine
 10
46.3501223525
 20
235.9779846521
 30
0.0
 11
46.3501396613
 21
237.1807888517
 31
0.0
  0
SPLINE
  5
BE
330
83
100
AcDbEntity
  8
DV1_Default
  6
Continuous
 62
     7
100
AcDbSpline
210
0.0
220
0.0
230
1.0
 70
     8
 71
     3
 72
    14
 73
    10
 74
     0
 42
0.0000000030555151
 43
0.0000000001
 40
0.0
 40
0.0
 40
0.0
 40
0.0
 40
0.25
 40
0.25
 40
0.5
 40
0.5
 40
0.75
 40
0.75
 40
1.0
 40
1.0
 40
1.0
 40
1.0
 10
46.35010419611671
 20
235.3516586901621
 30
0.0
 10
46.72884368218559
 20
235.351721337938
 30
0.0
 10
47.11117990385471
 20
235.3806242818004
 30
0.0
 10
47.68455492705922
 20
235.490374882663
 30
0.0
 10
47.86907028672912
 20
235.5727503600195
 30
0.0
 10
47.87007635486877
 20
235.7459498831973
 30
0.0
 10
47.68682547442048
 20
235.8310338854591
 30
0.0
 10
47.1135488645014
 20
235.9465149660423
 30
0.0
 10
46.73367038491605
 20
235.9778482025375
 30
0.0
 10
46.35012235246995
 20
235.9779846520554
 30
0.0
  0
SPLINE
  5
BF
330
83
100
AcDbEntity
  8
DV1_Default
  6
Continuous
 62
     7
100
AcDbSpline
210
0.0
220
0.0
230
1.0
 70
     8
 71
     3
 72
    14
 73
    10
 74
     0
 42
0.0000000030486714
 43
0.0000000001
 40
0.0
 40
0.0
 40
0.0
 40
0.0
 40
0.25
 40
0.25
 40
0.5
 40
0.5
 40
0.75
 40
0.75
 40
1.0
 40
1.0
 40
1.0
 40
1.0
 10
46.35012235246995
 20
235.9779846520554
 30
0.0
 10
45.96955172662852
 20
235.9781200423425
 30
0.0
 10
45.58877649765962
 20
235.9474157280416
 30
0.0
 10
45.01177987067465
 20
235.8321178513237
 30
0.0
 10
44.8278361654066
 20
235.7470583594059
 30
0.0
 10
44.82597675516629
 20
235.5743088305468
 30
0.0
 10
45.00877237438949
 20
235.4913429725527
 30
0.0
 10
45.58556535152568
 20
235.3805456600197
 30
0.0
 10
45.96788378242152
 20
235.3515953476086
 30
0.0
 10
46.35010419611671
 20
235.3516586901621
 30
0.0
  0
SPLINE
  5
C0
330
83
100
AcDbEntity
  8
DV1_Default
  6
Continuous
 62
     7
100
AcDbSpline
210
0.0
220
0.0
230
1.0
 70
     8
 71
     3
 72
    38
 73
    34
 74
     0
 42
0.0000000054266739
 43
0.0000000001
 40
0.0
 40
0.0
 40
0.0
 40
0.0
 40
0.0147772027368394
 40
0.0147772027368394
 40
0.0147772027368394
 40
0.1179201363320613
 40
0.1179201363320613
 40
0.1179201363320613
 40
0.2212307894481144
 40
0.2212307894481144
 40
0.2212307894481144
 40
0.3264303804920313
 40
0.3264303804920313
 40
0.3264303804920313
 40
0.4344195846290091
 40
0.4344195846290091
 40
0.4344195846290091
 40
0.5449045017567408
 40
0.5449045017567408
 40
0.5449045017567408
 40
0.6564619450905346
 40
0.6564619450905346
 40
0.6564619450905346
 40
0.7671552774217538
 40
0.7671552774217538
 40
0.7671552774217538
 40
0.8754854084006025
 40
0.8754854084006025
 40
0.8754854084006025
 40
0.9810960036260656
 40
0.9810960036260656
 40
0.9810960036260656
 40
1.0
 40
1.0
 40
1.0
 40
1.0
 10
46.35011925693903
 20
235.8542946195024
 30
0.0
 10
46.3637009271745
 20
235.8543014525274
 30
0.0
 10
46.37728731876127
 20
235.8542315412873
 30
0.0
 10
46.39085427262358
 20
235.8540849876433
 30
0.0
 10
46.48457128568415
 20
235.8530726329244
 30
0.0
 10
46.5788026335735
 20
235.8482795768985
 30
0.0
 10
46.66581874798811
 20
235.8401570851751
 30
0.0
 10
46.75300256854075
 20
235.8320189389752
 30
0.0
 10
46.83529957905218
 20
235.8203286194806
 30
0.0
 10
46.90632957725183
 20
235.8061272848205
 30
0.0
 10
46.97865716339722
 20
235.7916665177918
 30
0.0
 10
47.04124896268186
 20
235.7742251097094
 30
0.0
 10
47.0894873109831
 20
235.755276500164
 30
0.0
 10
47.13898994575107
 20
235.7358312635272
 30
0.0
 10
47.17471786393627
 20
235.7142826061194
 30
0.0
 10
47.19408531287068
 20
235.6923934353288
 30
0.0
 10
47.21389122679514
 20
235.6700087095952
 30
0.0
 10
47.21712388792596
 20
235.6466586348183
 30
0.0
 10
47.20352304901204
 20
235.6242503191331
 30
0.0
 10
47.18979611502471
 20
235.6016342531592
 30
0.0
 10
47.1585122480987
 20
235.5793463702057
 30
0.0
 10
47.11204622902295
 20
235.5592531083929
 30
0.0
 10
47.06594937335932
 20
235.539319483606
 30
0.0
 10
47.00356480386321
 20
235.5209805473971
 30
0.0
 10
46.92995168320347
 20
235.5058247453933
 30
0.0
 10
46.85790010142178
 20
235.4909904400717
 30
0.0
 10
46.77301133973118
 20
235.4787841300801
 30
0.0
 10
46.6824734536947
 20
235.4702852679077
 30
0.0
 10
46.59417265240263
 20
235.4619964026298
 30
0.0
 10
46.49800007636369
 20
235.4570000286891
 30
0.0
 10
46.40216336431522
 20
235.4557364009653
 30
0.0
 10
46.38483538736774
 20
235.4555079278509
 30
0.0
 10
46.36746676142769
 20
235.4553973982787
 30
0.0
 10
46.35010762199539
 20
235.4554051445268
 30
0.0
  0
SPLINE
  5
C1
330
83
100
AcDbEntity
  8
DV1_Default
  6
Continuous
 62
     7
100
AcDbSpline
210
0.0
220
0.0
230
1.0
 70
     8
 71
     3
 72
    38
 73
    34
 74
     0
 42
0.0000000054475698
 43
0.0000000001
 40
0.0
 40
0.0
 40
0.0
 40
0.0
 40
0.0269422890206923
 40
0.0269422890206923
 40
0.0269422890206923
 40
0.1305508181156533
 40
0.1305508181156533
 40
0.1305508181156533
 40
0.2345133519923667
 40
0.2345133519923667
 40
0.2345133519923667
 40
0.3402739086121152
 40
0.3402739086121152
 40
0.3402739086121152
 40
0.4486205246555373
 40
0.4486205246555373
 40
0.4486205246555373
 40
0.5593471800510236
 40
0.5593471800510236
 40
0.5593471800510236
 40
0.6711805850196434
 40
0.6711805850196434
 40
0.6711805850196434
 40
0.7821928945745916
 40
0.7821928945745916
 40
0.7821928945745916
 40
0.8907211571675319
 40
0.8907211571675319
 40
0.8907211571675319
 40
0.9962945827632641
 40
0.9962945827632641
 40
0.9962945827632641
 40
1.0
 40
1.0
 40
1.0
 40
1.0
 10
46.35010762199539
 20
235.4554051445268
 30
0.0
 10
46.32547394719723
 20
235.4554161369247
 30
0.0
 10
46.30081873324453
 20
235.4556655593493
 30
0.0
 10
46.27628514083267
 20
235.4561519090243
 30
0.0
 10
46.18265945736488
 20
235.4580079283124
 30
0.0
 10
46.08923199539676
 20
235.4634377110234
 30
0.0
 10
46.00363272833734
 20
235.4719831702731
 30
0.0
 10
45.91772115029597
 20
235.4805598078362
 30
0.0
 10
45.83737093463857
 20
235.4925017502917
 30
0.0
 10
45.76882177445903
 20
235.5068394897207
 30
0.0
 10
45.69908888202852
 20
235.5214248185369
 30
0.0
 10
45.63968782994179
 20
235.5388760925655
 30
0.0
 10
45.59501297268957
 20
235.5578139577422
 30
0.0
 10
45.54925790262883
 20
235.5772097297996
 30
0.0
 10
45.51770713696155
 20
235.5986843034786
 30
0.0
 10
45.50262060715592
 20
235.6205427644832
 30
0.0
 10
45.4872092178713
 20
235.6428719055146
 30
0.0
 10
45.48855921911019
 20
235.6662108848158
 30
0.0
 10
45.50654758830231
 20
235.6886566105925
 30
0.0
 10
45.52470790099427
 20
235.7113168859265
 30
0.0
 10
45.56035743808388
 20
235.7336978369585
 30
0.0
 10
45.6107554175147
 20
235.7538568914884
 30
0.0
 10
45.66077165950099
 20
235.77386325208
 30
0.0
 10
45.72677518613015
 20
235.7922448214274
 30
0.0
 10
45.8033946022047
 20
235.8072897275157
 30
0.0
 10
45.87830909980926
 20
235.8219998576479
 30
0.0
 10
45.96554240425323
 20
235.8339326857144
 30
0.0
 10
46.05767213549412
 20
235.8419224957114
 30
0.0
 10
46.14733412167649
 20
235.8496982942936
 30
0.0
 10
46.24417228279916
 20
235.8539550944299
 30
0.0
 10
46.3398983408762
 20
235.854274919361
 30
0.0
 10
46.34330507778369
 20
235.8542863014174
 30
0.0
 10
46.34671217648259
 20
235.8542928549743
 30
0.0
 10
46.35011925693903
 20
235.8542946195024
 30
0.0
  0
LINE
  5
C2
330
83
100
AcDbEntity
  8
DV1_Default
  6
Continuous
 62
     7
100
AcDbLine
 10
50.1156563083
 20
235.9479645856
 30
0.0
 11
50.7596510737
 21
235.9718031937
 31
0.0
  0
LINE
  5
C3
330
83
100
AcDbEntity
  8
DV1_Default
  6
Continuous
 62
     7
100
AcDbLine
 10
48.3343517193
 20
235.9015705851
 30
0.0
 11
48.9743111877
 21
235.9149437602
 31
0.0
  0
LINE
  5
C4
330
83
100
AcDbEntity
  8
DV1_Default
  6
Continuous
 62
     7
100
AcDbLine
 10
48.9743111877
 20
235.6356141596
 30
0.0
 11
48.9743111877
 21
235.7481548892
 31
0.0
  0
LINE
  5
C5
330
83
100
AcDbEntity
  8
DV1_Default
  6
Continuous
 62
     7
100
AcDbLine
 10
50.1156563083
 20
235.6697263423
 30
0.0
 11
50.1156563083
 21
235.7829350122
 31
0.0
  0
LINE
  5
C6
330
83
100
AcDbEntity
  8
DV1_Default
  6
Continuous
 62
     7
100
AcDbLine
 10
48.9743111877
 20
235.4036572404
 30
0.0
 11
48.3343517193
 21
235.3904003718
 31
0.0
  0
LINE
  5
C7
330
83
100
AcDbEntity
  8
DV1_Default
  6
Continuous
 62
     7
100
AcDbLine
 10
48.9743111877
 20
235.6356141596
 30
0.0
 11
48.9743111877
 21
235.4036572404
 31
0.0
  0
LINE
  5
C8
330
83
100
AcDbEntity
  8
DV1_Default
  6
Continuous
 62
     7
100
AcDbLine
 10
50.1156563083
 20
235.6697263423
 30
0.0
 11
48.9743111877
 21
235.6356141596
 31
0.0
  0
LINE
  5
C9
330
83
100
AcDbEntity
  8
DV1_Default
  6
Continuous
 62
     7
100
AcDbLine
 10
50.1156563083
 20
235.4363910697
 30
0.0
 11
50.1156563083
 21
235.6697263423
 31
0.0
  0
LINE
  5
CA
330
83
100
AcDbEntity
  8
DV1_Default
  6
Continuous
 62
     7
100
AcDbLine
 10
50.7596510737
 20
235.4600226548
 30
0.0
 11
50.1156563083
 21
235.4363910697
 31
0.0
  0
LINE
  5
CB
330
83
100
AcDbEntity
  8
DV1_Default
  6
Continuous
 62
     7
100
AcDbLine
 10
50.7596510737
 20
236.0419694314
 30
0.0
 11
50.7596510737
 21
235.4600226548
 31
0.0
  0
LINE
  5
CC
330
83
100
AcDbEntity
  8
DV1_Default
  6
Continuous
 62
     7
100
AcDbLine
 10
50.1156563083
 20
236.0161477755
 30
0.0
 11
50.7596510737
 21
236.0419694314
 31
0.0
  0
LINE
  5
CD
330
83
100
AcDbEntity
  8
DV1_Default
  6
Continuous
 62
     7
100
AcDbLine
 10
50.1156563083
 20
235.7899708943
 30
0.0
 11
50.1156563083
 21
236.0161477755
 31
0.0
  0
LINE
  5
CE
330
83
100
AcDbEntity
  8
DV1_Default
  6
Continuous
 62
     7
100
AcDbLine
 10
48.9743111877
 20
235.7552276637
 30
0.0
 11
50.1156563083
 21
235.7899708943
 31
0.0
  0
LINE
  5
CF
330
83
100
AcDbEntity
  8
DV1_Default
  6
Continuous
 62
     7
100
AcDbLine
 10
48.9743111877
 20
235.9803338066
 30
0.0
 11
48.9743111877
 21
235.7552276637
 31
0.0
  0
LINE
  5
D0
330
83
100
AcDbEntity
  8
DV1_Default
  6
Continuous
 62
     7
100
AcDbLine
 10
48.3343517193
 20
235.9658157561
 30
0.0
 11
48.9743111877
 21
235.9803338066
 31
0.0
  0
LINE
  5
D1
330
83
100
AcDbEntity
  8
DV1_Default
  6
Continuous
 62
     7
100
AcDbLine
 10
48.3343517193
 20
235.3904003718
 30
0.0
 11
48.3343517193
 21
235.9658157561
 31
0.0
  0
LINE
  5
D2
330
83
100
AcDbEntity
  8
DV1_Default
  6
Continuous
 62
     7
100
AcDbLine
 10
52.0991121055
 20
236.0371822451
 30
0.0
 11
51.4591526372
 21
236.0019858278
 31
0.0
  0
LINE
  5
D3
330
83
100
AcDbEntity
  8
DV1_Default
  6
Continuous
 62
     7
100
AcDbLine
 10
53.3147453268
 20
235.5911132081
 30
0.0
 11
53.3147453268
 21
235.6965736942
 31
0.0
  0
LINE
  5
D4
330
83
100
AcDbEntity
  8
DV1_Default
  6
Continuous
 62
     7
100
AcDbLine
 10
51.4591526372
 20
235.4899433765
 30
0.0
 11
53.3147453268
 21
235.5911132081
 31
0.0
  0
LINE
  5
D5
330
83
100
AcDbEntity
  8
DV1_Default
  6
Continuous
 62
     7
100
AcDbLine
 10
51.4591526372
 20
236.0746207543
 30
0.0
 11
51.4591526372
 21
235.4899433765
 31
0.0
  0
LINE
  5
D6
330
83
100
AcDbEntity
  8
DV1_Default
  6
Continuous
 62
     7
100
AcDbLine
 10
53.1494698646
 20
236.1734761918
 30
0.0
 11
51.4591526372
 21
236.0746207543
 31
0.0
  0
LINE
  5
D7
330
83
100
AcDbEntity
  8
DV1_Default
  6
Continuous
 62
     7
100
AcDbLine
 10
53.1494698646
 20
236.0521285488
 30
0.0
 11
53.1494698646
 21
236.1734761918
 31
0.0
  0
LINE
  5
D8
330
83
100
AcDbEntity
  8
DV1_Default
  6
Continuous
 62
     7
100
AcDbLine
 10
52.0991121055
 20
235.9882917027
 30
0.0
 11
52.0991121055
 21
236.1120477368
 31
0.0
  0
LINE
  5
D9
330
83
100
AcDbEntity
  8
DV1_Default
  6
Continuous
 62
     7
100
AcDbLine
 10
52.0991121055
 20
235.9882917027
 30
0.0
 11
53.1494698646
 21
236.0521285488
 31
0.0
  0
LINE
  5
DA
330
83
100
AcDbEntity
  8
DV1_Default
  6
Continuous
 62
     7
100
AcDbLine
 10
52.0991121055
 20
235.8743749535
 30
0.0
 11
52.0991121055
 21
235.9882917027
 31
0.0
  0
LINE
  5
DB
330
83
100
AcDbEntity
  8
DV1_Default
  6
Continuous
 62
     7
100
AcDbLine
 10
52.9804381418
 20
235.9264284065
 30
0.0
 11
52.0991121055
 21
235.8743749535
 31
0.0
  0
LINE
  5
DC
330
83
100
AcDbEntity
  8
DV1_Default
  6
Continuous
 62
     7
100
AcDbLine
 10
52.9804381418
 20
235.816319448
 30
0.0
 11
52.9804381418
 21
235.9264284065
 31
0.0
  0
LINE
  5
DD
330
83
100
AcDbEntity
  8
DV1_Default
  6
Continuous
 62
     7
100
AcDbLine
 10
52.0991121055
 20
235.7650588703
 30
0.0
 11
52.0991121055
 21
235.8725872995
 31
0.0
  0
LINE
  5
DE
330
83
100
AcDbEntity
  8
DV1_Default
  6
Continuous
 62
     7
100
AcDbLine
 10
52.0991121055
 20
235.7650588703
 30
0.0
 11
52.9804381418
 21
235.816319448
 31
0.0
  0
LINE
  5
DF
330
83
100
AcDbEntity
  8
DV1_Default
  6
Continuous
 62
     7
100
AcDbLine
 10
52.0991121055
 20
235.6254481865
 30
0.0
 11
52.0991121055
 21
235.7650588703
 31
0.0
  0
LINE
  5
E0
330
83
100
AcDbEntity
  8
DV1_Default
  6
Continuous
 62
     7
100
AcDbLine
 10
53.3147453268
 20
235.6965736942
 30
0.0
 11
52.0991121055
 21
235.6254481865
 31
0.0
  0
LINE
  5
E1
330
83
100
AcDbEntity
  8
DV1_Default
  6
Continuous
 62
     7
100
AcDbLine
 10
46.3500963856
 20
235.1303448569
 30
0.0
 11
46.3501041961
 21
235.3516586902
 31
0.0
  0
LINE
  5
E2
330
83
100
AcDbEntity
  8
DV1_Default
  6
Continuous
 62
     7
100
AcDbLine
 10
52.7220932765
 20
235.2527127851
 30
0.0
 11
52.7220932765
 21
235.3089949906
 31
0.0
  0
LINE
  5
E3
330
83
100
AcDbEntity
  8
DV1_Default
  6
Continuous
 62
     7
100
AcDbLine
 10
52.7220932765
 20
235.2527127851
 30
0.0
 11
52.9359640174
 21
235.3236482025
 31
0.0
  0
LINE
  5
E4
330
83
100
AcDbEntity
  8
DV1_Default
  6
Continuous
 62
     7
100
AcDbLine
 10
46.3543946104
 20
235.0790161249
 30
0.0
 11
46.3543946104
 21
235.1303964431
 31
0.0
  0
ARC
  5
E5
330
83
100
AcDbEntity
  8
DV1_Default
  6
Continuous
 62
     7
100
AcDbCircle
 10
51.1470361063
 20
176.1877373142
 30
0.0
 40
59.0859723831914
100
AcDbArc
 50
88.4724831292
 51
94.6525448582
  0
LINE
  5
E6
330
83
100
AcDbEntity
  8
DV1_Default
  6
Continuous
 62
     7
100
AcDbLine
 10
39.7728252034
 20
235.323154886
 30
0.0
 11
39.9866959444
 21
235.2522426085
 31
0.0
  0
SPLINE
  5
E7
330
83
100
AcDbEntity
  8
DV1_Default
  6
Continuous
 62
     7
100
AcDbSpline
210
0.0
220
0.0
230
1.0
 70
     8
 71
     3
 72
    12
 73
     8
 74
     0
 42
0.0000000015144647
 43
0.0000000001
 40
0.0
 40
0.0
 40
0.0
 40
0.0
 40
0.2499999999999999
 40
0.2499999999999999
 40
0.4999999999999998
 40
0.4999999999999998
 40
1.0
 40
1.0
 40
1.0
 40
1.0
 10
52.93596401743986
 20
235.3236482025439
 30
0.0
 10
52.37543596662445
 20
235.2728264572204
 30
0.0
 10
51.81160387733796
 20
235.2684889332379
 30
0.0
 10
50.73230708763679
 20
235.2919978250487
 30
0.0
 10
50.20288384026144
 20
235.3169680446476
 30
0.0
 10
48.50473328842592
 20
235.2992154286407
 30
0.0
 10
47.47886632367583
 20
235.1299391178875
 30
0.0
 10
46.35009638561124
 20
235.1303448569208
 30
0.0
  0
SPLINE
  5
E8
330
83
100
AcDbEntity
  8
DV1_Default
  6
Continuous
 62
     7
100
AcDbSpline
210
0.0
220
0.0
230
1.0
 70
     8
 71
     3
 72
    14
 73
    10
 74
     0
 42
0.0000000015180267
 43
0.0000000001
 40
0.0
 40
0.0
 40
0.0
 40
0.0
 40
0.2500000000000001
 40
0.2500000000000001
 40
0.5000000000000001
 40
0.5000000000000001
 40
0.7500000000000001
 40
0.7500000000000001
 40
1.0
 40
1.0
 40
1.0
 40
1.0
 10
46.35009638561124
 20
235.1303448569208
 30
0.0
 10
45.79013421017772
 20
235.1305461366528
 30
0.0
 10
45.24372399672918
 20
235.1731307721392
 30
0.0
 10
44.17195782644961
 20
235.2594673984406
 30
0.0
 10
43.61117259281028
 20
235.3059346491454
 30
0.0
 10
42.49348693503769
 20
235.316047467112
 30
0.0
 10
41.96786979604209
 20
235.2914185618679
 30
0.0
 10
40.89761206388563
 20
235.2681531806623
 30
0.0
 10
40.33080654022199
 20
235.2726099708332
 30
0.0
 10
39.77282520343992
 20
235.3231548859582
 30
0.0
  0
ARC
  5
E9
330
83
100
AcDbEntity
  8
DV1_Default
  6
Continuous
 62
     7
100
AcDbCircle
 10
41.5580709639
 20
176.0084496888
 30
0.0
 40
59.26462873393034
100
AcDbArc
 50
85.3621106612
 51
91.5193499245
  0
LINE
  5
EA
330
83
100
AcDbEntity
  8
DV1_Default
  6
Continuous
 62
     7
100
AcDbLine
 10
46.3500944834
 20
235.0790238316
 30
0.0
 11
46.3543946104
 21
235.0790161249
 31
0.0
  0
LINE
  5
EB
330
83
100
AcDbEntity
  8
DV1_Default
  6
Continuous
 62
     7
100
AcDbLine
 10
39.9866959444
 20
235.2522426085
 30
0.0
 11
39.9866959444
 21
235.3102883543
 31
0.0
  0
LINE
  5
EC
330
83
100
AcDbEntity
  8
DV1_Default
  6
Continuous
 62
     7
100
AcDbLine
 10
46.3500898025
 20
234.9555837765
 30
0.0
 11
46.3500944834
 21
235.0790238316
 31
0.0
  0
LINE
  5
ED
330
83
100
AcDbEntity
  8
DV1_Default
  6
Continuous
 62
     7
100
AcDbLine
 10
46.3543946104
 20
234.9089262656
 30
0.0
 11
46.3543946104
 21
234.955674195
 31
0.0
  0
LINE
  5
EE
330
83
100
AcDbEntity
  8
DV1_Default
  6
Continuous
 62
     7
100
AcDbLine
 10
51.6809866504
 20
235.0459609779
 30
0.0
 11
51.6809866504
 21
235.0985725195
 31
0.0
  0
LINE
  5
EF
330
83
100
AcDbEntity
  8
DV1_Default
  6
Continuous
 62
     7
100
AcDbLine
 10
41.0278025704
 20
235.0455865588
 30
0.0
 11
41.0278025704
 21
235.09735521
 31
0.0
  0
LINE
  5
F0
330
83
100
AcDbEntity
  8
DV1_Default
  6
Continuous
 62
     7
100
AcDbLine
 10
46.3543946104
 20
234.9089262656
 30
0.0
 11
46.3500879969
 21
234.9089332702
 31
0.0
  0
ARC
  5
F1
330
83
100
AcDbEntity
  8
DV1_Default
  6
Continuous
 62
     7
100
AcDbCircle
 10
42.7770769605
 20
199.4623920534
 30
0.0
 40
35.62616583493046
100
AcDbArc
 50
84.24402818
 51
92.8144020981
  0
ARC
  5
F2
330
83
100
AcDbEntity
  8
DV1_Default
  6
Continuous
 62
     7
100
AcDbCircle
 10
49.9340296705
 20
199.3589922429
 30
0.0
 40
35.72970187645533
100
AcDbArc
 50
87.1974805269
 51
95.7499121416
  0
LINE
  5
F3
330
83
100
AcDbEntity
  8
DV1_Default
  6
Continuous
 62
     7
100
AcDbLine
 10
51.9231044704
 20
235.0946965923
 30
0.0
 11
51.6809866504
 21
235.0459609779
 31
0.0
  0
ARC
  5
F4
330
83
100
AcDbEntity
  8
DV1_Default
  6
Continuous
 62
     7
100
AcDbCircle
 10
42.6495957712
 20
198.189007632
 30
0.0
 40
36.95233115053866
100
AcDbArc
 50
84.2526311492
 51
92.8912809938
  0
ARC
  5
F5
330
83
100
AcDbEntity
  8
DV1_Default
  6
Continuous
 62
     7
100
AcDbCircle
 10
50.055471599
 20
198.2140036547
 30
0.0
 40
36.92795098706691
100
AcDbArc
 50
87.1010264891
 51
95.7587981638
  0
LINE
  5
F6
330
83
100
AcDbEntity
  8
DV1_Default
  6
Continuous
 62
     7
100
AcDbLine
 10
41.0278025704
 20
235.0455865588
 30
0.0
 11
40.7856847504
 21
235.0943001138
 31
0.0
  0
LINE
  5
F7
330
83
100
AcDbEntity
  8
DV1_Default
  6
Continuous
 62
     7
100
AcDbLine
 10
46.3500836328
 20
234.7972624472
 30
0.0
 11
46.3500879969
 21
234.9089332702
 31
0.0
  0
LINE
  5
F8
330
83
100
AcDbEntity
  8
DV1_Default
  6
Continuous
 62
     7
100
AcDbLine
 10
46.3543946104
 20
234.7552761151
 30
0.0
 11
46.3543946104
 21
234.7973463503
 31
0.0
  0
LINE
  5
F9
330
83
100
AcDbEntity
  8
DV1_Default
  6
Continuous
 62
     7
100
AcDbLine
 10
50.4804857929
 20
234.8977425241
 30
0.0
 11
50.4804857929
 21
234.9433935799
 31
0.0
  0
LINE
  5
FA
330
83
100
AcDbEntity
  8
DV1_Default
  6
Continuous
 62
     7
100
AcDbLine
 10
42.2283034279
 20
234.8974643723
 30
0.0
 11
42.2283034279
 21
234.9433188957
 31
0.0
  0
LINE
  5
FB
330
83
100
AcDbEntity
  8
DV1_Default
  6
Continuous
 62
     7
100
AcDbLine
 10
46.3543946104
 20
234.7552761151
 30
0.0
 11
46.3500819775
 21
234.7552824149
 31
0.0
  0
SPLINE
  5
FC
330
83
100
AcDbEntity
  8
DV1_Default
  6
Continuous
 62
     7
100
AcDbSpline
210
0.0
220
0.0
230
1.0
 70
     8
 71
     3
 72
    16
 73
    12
 74
     0
 42
0.0000000024236432
 43
0.0000000001
 40
0.0
 40
0.0
 40
0.0
 40
0.0
 40
0.2499999999999998
 40
0.2499999999999998
 40
0.4999999999999996
 40
0.4999999999999996
 40
0.6249999999999997
 40
0.6249999999999997
 40
0.7499999999999998
 40
0.7499999999999998
 40
1.0
 40
1.0
 40
1.0
 40
1.0
 10
46.35008197754536
 20
234.7552824149437
 30
0.0
 10
45.98657514791744
 20
234.7558707927468
 30
0.0
 10
45.6441037529671
 20
234.7702017655176
 30
0.0
 10
44.9686390318773
 20
234.807642831724
 30
0.0
 10
44.63620079577908
 20
234.8312788844257
 30
0.0
 10
44.12873467055599
 20
234.8634925960875
 30
0.0
 10
43.95819364075201
 20
234.8736776118557
 30
0.0
 10
43.61120253383646
 20
234.8906648866574
 30
0.0
 10
43.43207455552921
 20
234.8974782255481
 30
0.0
 10
42.90425881443222
 20
234.9081442063464
 30
0.0
 10
42.56473240957818
 20
234.903718606144
 30
0.0
 10
42.22830342793996
 20
234.8974643723396
 30
0.0
  0
SPLINE
  5
FD
330
83
100
AcDbEntity
  8
DV1_Default
  6
Continuous
 62
     7
100
AcDbSpline
210
0.0
220
0.0
230
1.0
 70
     8
 71
     3
 72
    16
 73
    12
 74
     0
 42
0.0000000024211046
 43
0.0000000001
 40
0.0
 40
0.0
 40
0.0
 40
0.0
 40
0.2500000000000003
 40
0.2500000000000003
 40
0.3750000000000006
 40
0.3750000000000006
 40
0.5000000000000008
 40
0.5000000000000008
 40
0.7500000000000004
 40
0.7500000000000004
 40
1.0
 40
1.0
 40
1.0
 40
1.0
 10
50.4804857929398
 20
234.8977425240871
 30
0.0
 10
50.14270854716692
 20
234.9040003087753
 30
0.0
 10
49.80156581930646
 20
234.9084509559883
 30
0.0
 10
49.26919250588568
 20
234.8974564981749
 30
0.0
 10
49.09137711217234
 20
234.8905866878241
 30
0.0
 10
48.74536870766749
 20
234.8735420452481
 30
0.0
 10
48.57508392873138
 20
234.8633391794003
 30
0.0
 10
48.06806589361122
 20
234.8310810013849
 30
0.0
 10
47.73571735617363
 20
234.8074446771276
 30
0.0
 10
47.06045476746964
 20
234.7700581231553
 30
0.0
 10
46.71802545381539
 20
234.7557737303932
 30
0.0
 10
46.35439461043984
 20
234.7552761151241
 30
0.0
  0
LINE
  5
FE
330
83
100
AcDbEntity
  8
DV1_Default
  6
Continuous
 62
     7
100
AcDbLine
 10
50.8234860379
 20
234.9372468651
 30
0.0
 11
50.4804857929
 21
234.8977425241
 31
0.0
  0
SPLINE
  5
FF
330
83
100
AcDbEntity
  8
DV1_Default
  6
Continuous
 62
     7
100
AcDbSpline
210
0.0
220
0.0
230
1.0
 70
     8
 71
     3
 72
    20
 73
    16
 74
     0
 42
0.0000000022375298
 43
0.0000000001
 40
0.0
 40
0.0
 40
0.0
 40
0.0
 40
0.2499999999999997
 40
0.2499999999999997
 40
0.3124999999999996
 40
0.3124999999999996
 40
0.3749999999999995
 40
0.3749999999999995
 40
0.4999999999999996
 40
0.4999999999999996
 40
0.75
 40
0.75
 40
0.875
 40
0.875
 40
1.0
 40
1.0
 40
1.0
 40
1.0
 10
41.88530317475834
 20
234.9369419763226
 30
0.0
 10
42.25125126062704
 20
234.9446556529979
 30
0.0
 10
42.61824336164737
 20
234.9533123430373
 30
0.0
 10
43.0983560546568
 20
234.9499884929777
 30
0.0
 10
43.19640537008528
 20
234.9485597672374
 30
0.0
 10
43.39039573602281
 20
234.9438212998352
 30
0.0
 10
43.48603455897267
 20
234.9405425451345
 30
0.0
 10
43.76989115432498
 20
234.9287408121583
 30
0.0
 10
43.95508238265358
 20
234.9182790057709
 30
0.0
 10
44.504686184361
 20
234.8838791668886
 30
0.0
 10
44.86288447260034
 20
234.85701323924
 30
0.0
 10
45.40832882509757
 20
234.8248392049956
 30
0.0
 10
45.59155565995241
 20
234.8154137983359
 30
0.0
 10
45.96531376475608
 20
234.801654757697
 30
0.0
 10
46.15818168800094
 20
234.7973192133089
 30
0.0
 10
46.35008363277466
 20
234.797262447205
 30
0.0
  0
SPLINE
  5
100
330
83
100
AcDbEntity
  8
DV1_Default
  6
Continuous
 62
     7
100
AcDbSpline
210
0.0
220
0.0
230
1.0
 70
     8
 71
     3
 72
    16
 73
    12
 74
     0
 42
0.000000002233136
 43
0.0000000001
 40
0.0
 40
0.0
 40
0.0
 40
0.0
 40
0.2500000000000001
 40
0.2500000000000001
 40
0.5000000000000002
 40
0.5000000000000002
 40
0.6250000000000002
 40
0.6250000000000002
 40
0.7500000000000003
 40
0.7500000000000003
 40
1.0
 40
1.0
 40
1.0
 40
1.0
 10
46.35008363277466
 20
234.797262447205
 30
0.0
 10
46.73150200333447
 20
234.7971496206485
 30
0.0
 10
47.11136142426785
 20
234.8137764592105
 30
0.0
 10
47.84537016341551
 20
234.8570418192655
 30
0.0
 10
48.20634412645664
 20
234.8841936429505
 30
0.0
 10
48.76099427813802
 20
234.9188759782747
 30
0.0
 10
48.94791949070947
 20
234.9294006336632
 30
0.0
 10
49.33009540406228
 20
234.9450987542922
 30
0.0
 10
49.52710905512816
 20
234.9497319342275
 30
0.0
 10
50.09627441614514
 20
234.9533993726286
 30
0.0
 10
50.46038181887685
 20
234.9448773327835
 30
0.0
 10
50.82348603793991
 20
234.9372468651287
 30
0.0
  0
LINE
  5
101
330
83
100
AcDbEntity
  8
DV1_Default
  6
Continuous
 62
     7
100
AcDbLine
 10
42.2283034279
 20
234.8974643723
 30
0.0
 11
41.8853031748
 21
234.9369419763
 31
0.0
  0
ARC
  5
102
330
83
100
AcDbEntity
  8
DV1_Default
  6
Continuous
 62
     7
100
AcDbCircle
 10
15.8374134649
 20
239.0812972273
 30
0.0
 40
1.999997594129277
100
AcDbArc
 50
206.0301982989
 51
252.1350650391
  0
ARC
  5
103
330
83
100
AcDbEntity
  8
DV1_Default
  6
Continuous
 62
     7
100
AcDbCircle
 10
8.0412100933
 20
235.0288972545
 30
0.0
 40
6.787027147633911
100
AcDbArc
 50
27.8094812486
 51
79.4948565685
  0
ARC
  5
104
330
83
100
AcDbEntity
  8
DV1_Default
  6
Continuous
 62
     7
100
AcDbCircle
 10
84.6588796909
 20
235.0289122871
 30
0.0
 40
6.787005925513441
100
AcDbArc
 50
100.5053414538
 51
152.1905677303
  0
ARC
  5
105
330
83
100
AcDbEntity
  8
DV1_Default
  6
Continuous
 62
     7
100
AcDbCircle
 10
76.8627014482
 20
239.0812973411
 30
0.0
 40
1.999997546187443
100
AcDbArc
 50
287.862986188
 51
333.7036271634
  0
SPLINE
  5
106
330
83
100
AcDbEntity
  8
DV1_Default
  6
Continuous
 62
     7
100
AcDbSpline
210
0.0
220
0.0
230
1.0
 70
     8
 71
     3
 72
    16
 73
    12
 74
     0
 42
0.0000000023882003
 43
0.0000000001
 40
0.0
 40
0.0
 40
0.0
 40
0.0
 40
0.1719076532644198
 40
0.3003317067272164
 40
0.3940468098364358
 40
0.4608398373891602
 40
0.5438400417839978
 40
0.6570665214487633
 40
0.8052871281509634
 40
0.8958552055145592
 40
1.0
 40
1.0
 40
1.0
 40
1.0
 10
6.350000000000001
 20
244.3689689862925
 30
0.0
 10
6.417097589207471
 20
244.114595536307
 30
0.0
 10
6.521127346626416
 20
243.7416017451557
 30
0.0
 10
6.764928611625219
 20
243.2371566359753
 30
0.0
 10
6.987793036022406
 20
242.9033231231257
 30
0.0
 10
7.206868190890815
 20
242.6438749727672
 30
0.0
 10
7.472945608043492
 20
242.3915962809274
 30
0.0
 10
7.868397050146692
 20
242.1155848034911
 30
0.0
 10
8.316126440271681
 20
241.9160768007342
 30
0.0
 10
8.784181537814927
 20
241.7848993182899
 30
0.0
 10
9.032434693859088
 20
241.7466977082485
 30
0.0
 10
9.19016877793636
 20
241.7238862477537
 30
0.0
  0
SPLINE
  5
107
330
83
100
AcDbEntity
  8
DV1_Default
  6
Continuous
 62
     7
100
AcDbSpline
210
0.0
220
0.0
230
1.0
 70
     8
 71
     3
 72
    16
 73
    12
 74
     0
 42
0.0000000023885851
 43
0.0000000001
 40
0.0
 40
0.0
 40
0.0
 40
0.0
 40
0.1675299831589357
 40
0.2925340875200719
 40
0.3833378613354876
 40
0.4488808925270031
 40
0.5332566695616217
 40
0.6481718487795751
 40
0.7446043357634117
 40
0.8603946582037929
 40
1.0
 40
1.0
 40
1.0
 40
1.0
 10
83.50993706989253
 20
241.7238862477536
 30
0.0
 10
83.76321141437268
 20
241.7637246950098
 30
0.0
 10
84.13531494304844
 20
241.8280370474395
 30
0.0
 10
84.6437731956723
 20
242.0258182236783
 30
0.0
 10
84.98325651162527
 20
242.2197194441759
 30
0.0
 10
85.25354103254453
 20
242.4188628517668
 30
0.0
 10
85.52409303868846
 20
242.6701489755612
 30
0.0
 10
85.78234738281645
 20
242.9937311519037
 30
0.0
 10
86.0125170806341
 20
243.3852600791489
 30
0.0
 10
86.21080332395411
 20
243.8442493254396
 30
0.0
 10
86.29668952515658
 20
244.1621017541981
 30
0.0
 10
86.35010584783048
 20
244.3689689862928
 30
0.0
  0
LINE
  5
108
330
83
100
AcDbEntity
  8
DV1_Default
  6
Continuous
 62
     7
100
AcDbLine
 10
83.4196607363
 20
241.704999528
 30
0.0
 11
83.53769379
 21
241.7246580405
 31
0.0
  0
LINE
  5
109
330
83
100
AcDbEntity
  8
DV1_Default
  6
Continuous
 62
     7
100
AcDbLine
 10
9.1623507069
 20
241.7246682586
 30
0.0
 11
9.2804451116
 21
241.704999528
 31
0.0
  0
ARC
  5
10A
330
83
100
AcDbEntity
  8
DV1_Default
  6
Continuous
 62
     7
100
AcDbCircle
 10
58.3841476278
 20
294.7048851601
 30
0.0
 40
60.61017774121503
100
AcDbArc
 50
274.9016335447
 51
288.3684241109
  0
ARC
  5
10B
330
83
100
AcDbEntity
  8
DV1_Default
  6
Continuous
 62
     7
100
AcDbCircle
 10
34.3160683476
 20
294.7057877557
 30
0.0
 40
60.61108306842607
100
AcDbArc
 50
251.6313130344
 51
265.0982216089
  0
LINE
  5
10C
330
83
100
AcDbEntity
  8
DV1_Default
  6
Continuous
 62
     7
100
AcDbLine
 10
45.4918989672
 20
235.9155372315
 30
0.0
 11
45.4918989672
 21
235.6519284627
 31
0.0
  0
LINE
  5
10D
330
83
100
AcDbEntity
  8
DV1_Default
  6
Continuous
 62
     7
100
AcDbLine
 10
47.2118593822
 20
235.6519033276
 30
0.0
 11
47.2118593822
 21
235.9176388423
 31
0.0
  0
ELLIPSE
  5
10E
330
83
100
AcDbEntity
  8
DV1_Default
  6
Continuous
 62
     7
100
AcDbEllipse
 10
46.3270045812
 20
134.4922279665
 30
0.0
 11
0.0007756900213665104
 21
-0.4999993864401864
 31
0.0
210
0.0
220
0.0
230
1.0
 40
0.0003596399
 41
1.806918200273924
 42
3.142668729303208
  0
ARC
  5
10F
330
83
100
AcDbEntity
  8
DV1_Default
  6
Continuous
 62
     7
100
AcDbCircle
 10
46.3303289912
 20
122.3191409883
 30
0.0
 40
12.29005459888387
100
AcDbArc
 50
0.0744108641
 51
90.0155288414
  0
ARC
  5
110
330
83
100
AcDbEntity
  8
DV1_Default
  6
Continuous
 62
     7
100
AcDbCircle
 10
58.8275740533
 20
670.7995732647
 30
0.0
 40
548.4645101463832
100
AcDbArc
 50
269.9783546009
 51
270.018321007
  0
ARC
  5
111
330
83
100
AcDbEntity
  8
DV1_Default
  6
Continuous
 62
     7
100
AcDbCircle
 10
46.328747639
 20
122.3525818425
 30
0.0
 40
12.29163801505988
100
AcDbArc
 50
270.208754918
 51
359.9185212887
  0
ARC
  5
112
330
83
100
AcDbEntity
  8
DV1_Default
  6
Continuous
 62
     7
100
AcDbCircle
 10
46.362748823
 20
122.3516208079
 30
0.0
 40
12.29060012599409
100
AcDbArc
 50
180.07700548
 51
270.0502668659
  0
ARC
  5
113
330
83
100
AcDbEntity
  8
DV1_Default
  6
Continuous
 62
     7
100
AcDbCircle
 10
33.8644632663
 20
-430.9910407459
 30
0.0
 40
553.3261819829531
100
AcDbArc
 50
89.9784934541
 51
90.0181914634
  0
ARC
  5
114
330
83
100
AcDbEntity
  8
DV1_Default
  6
Continuous
 62
     7
100
AcDbCircle
 10
46.3587846349
 20
122.3226050602
 30
0.0
 40
12.28663119305672
100
AcDbArc
 50
90.1482294533
 51
179.9417222897
  0
ARC
  5
115
330
83
100
AcDbEntity
  8
DV1_Default
  6
Continuous
 62
     7
100
AcDbCircle
 10
46.3388614406
 20
122.3330095862
 30
0.0
 40
12.65922399524508
100
AcDbArc
 50
0.0086950178
 51
90.0571751949
  0
ARC
  5
116
330
83
100
AcDbEntity
  8
DV1_Default
  6
Continuous
 62
     7
100
AcDbCircle
 10
46.3450351242
 20
122.3350405001
 30
0.0
 40
12.65217937922196
100
AcDbArc
 50
270.131857838
 51
0.0013570274
  0
ARC
  5
117
330
83
100
AcDbEntity
  8
DV1_Default
  6
Continuous
 62
     7
100
AcDbCircle
 10
46.352876866
 20
122.3372005845
 30
0.0
 40
12.65922395430492
100
AcDbArc
 50
180.0087291604
 51
270.0965748733
  0
ARC
  5
118
330
83
100
AcDbEntity
  8
DV1_Default
  6
Continuous
 62
     7
100
AcDbCircle
 10
46.3466970978
 20
122.3351670654
 30
0.0
 40
12.65217250808365
100
AcDbArc
 50
90.0924228502
 51
180.0013602294
  0
ARC
  5
119
330
83
100
AcDbEntity
  8
DV1_Default
  6
Continuous
 62
     7
100
AcDbCircle
 10
46.3462704899
 20
122.3458642138
 30
0.0
 40
15.99586325569187
100
AcDbArc
 50
180.0014392647
 51
181.3387874068
  0
ARC
  5
11A
330
83
100
AcDbEntity
  8
DV1_Default
  6
Continuous
 62
     7
100
AcDbCircle
 10
46.3462704899
 20
122.3458642138
 30
0.0
 40
15.99586325569187
100
AcDbArc
 50
195.3344171502
 51
236.9898140204
  0
ARC
  5
11B
330
83
100
AcDbEntity
  8
DV1_Default
  6
Continuous
 62
     7
100
AcDbCircle
 10
46.3512548026
 20
122.3495068469
 30
0.0
 40
15.99950549038273
100
AcDbArc
 50
358.6390515329
 51
359.979094136
  0
ARC
  5
11C
330
83
100
AcDbEntity
  8
DV1_Default
  6
Continuous
 62
     7
100
AcDbCircle
 10
46.3512548026
 20
122.3495068469
 30
0.0
 40
15.99950549038273
100
AcDbArc
 50
301.3254893997
 51
344.673753112
  0
ARC
  5
11D
330
83
100
AcDbEntity
  8
DV1_Default
  6
Continuous
 62
     7
100
AcDbCircle
 10
1484.0492643609
 20
125.8627926272
 30
0.0
 40
1421.702860561305
100
AcDbArc
 50
180.135058871
 51
180.1418236837
  0
SPLINE
  5
11E
330
83
100
AcDbEntity
  8
DV1_Default
  6
Continuous
 62
     7
100
AcDbSpline
210
0.0
220
0.0
230
1.0
 70
     8
 71
     3
 72
    10
 73
     6
 74
     0
 42
0.0000000095989858
 43
0.0000000001
 40
0.0
 40
0.0
 40
0.0
 40
0.0
 40
0.6802021431416592
 40
0.6802021431416592
 40
1.0
 40
1.0
 40
1.0
 40
1.0
 10
62.34850687561169
 20
126.4541740075052
 30
0.0
 10
62.34863087976762
 20
126.2179090339117
 30
0.0
 10
62.34899071798783
 20
125.9818927970049
 30
0.0
 10
62.3501048029742
 20
125.6355041410905
 30
0.0
 10
62.35109834464825
 20
125.5241983431807
 30
0.0
 10
62.3518477994912
 20
125.4124063212401
 30
0.0
  0
ARC
  5
11F
330
83
100
AcDbEntity
  8
DV1_Default
  6
Continuous
 62
     7
100
AcDbCircle
 10
-1350.3265206668
 20
125.6295740066
 30
0.0
 40
1380.68080743641
100
AcDbArc
 50
359.8637141511
 51
359.8706348612
  0
SPLINE
  5
120
330
83
100
AcDbEntity
  8
DV1_Default
  6
Continuous
 62
     7
100
AcDbSpline
210
0.0
220
0.0
230
1.0
 70
     8
 71
     3
 72
    10
 73
     6
 74
     0
 42
0.0000000030155448
 43
0.0000000001
 40
0.0
 40
0.0
 40
0.0
 40
0.0
 40
0.8948996307957601
 40
0.8948996307957601
 40
1.0
 40
1.0
 40
1.0
 40
1.0
 10
30.35084437326591
 20
128.7127037919695
 30
0.0
 10
30.35100061722062
 20
127.7226877913029
 30
0.0
 10
30.35261879349414
 20
126.7328554267451
 30
0.0
 10
30.35011426724848
 20
125.629898275737
 30
0.0
 10
30.3491026032463
 20
125.5134698756175
 30
0.0
 10
30.34836319666342
 20
125.3965643553304
 30
0.0
  0
SPLINE
  5
121
330
83
100
AcDbEntity
  8
DV1_Default
  6
Continuous
 62
     7
100
AcDbSpline
210
0.0
220
0.0
230
1.0
 70
     8
 71
     3
 72
    15
 73
    11
 74
     0
 42
0.0000000007334727
 43
0.0000000001
 40
0.0
 40
0.0
 40
0.0
 40
0.0
 40
0.0583574352988163
 40
0.118309977795942
 40
0.2421905830430539
 40
0.3701706574184346
 40
0.5001869386357385
 40
0.6731428996787727
 40
0.8411594823084702
 40
1.0
 40
1.0
 40
1.0
 40
1.0
 10
30.34941670827776
 20
142.3464756847457
 30
0.0
 10
30.34981423688482
 20
142.0550020024257
 30
0.0
 10
30.34990552411882
 20
141.4660258863512
 30
0.0
 10
30.35014958597248
 20
140.2637317651205
 30
0.0
 10
30.35048135939777
 20
138.72813441144
 30
0.0
 10
30.35089355694425
 20
136.8853525833817
 30
0.0
 10
30.351239271227
 20
134.8565540065034
 30
0.0
 10
30.35122602658928
 20
132.720064532689
 30
0.0
 10
30.35088617078409
 20
130.5671872621359
 30
0.0
 10
30.35085840320093
 20
129.3196615936176
 30
0.0
 10
30.35084437326591
 20
128.7127037919695
 30
0.0
  0
SPLINE
  5
122
330
83
100
AcDbEntity
  8
DV1_Default
  6
Continuous
 62
     7
100
AcDbSpline
210
0.0
220
0.0
230
1.0
 70
     8
 71
     3
 72
    14
 73
    10
 74
     0
 42
0.0000000008832496
 43
0.0000000001
 40
0.0
 40
0.0
 40
0.0
 40
0.0
 40
0.0583874450977472
 40
0.0583874450977472
 40
0.3722582967318315
 40
0.3722582967318315
 40
0.6861291483659158
 40
0.6861291483659158
 40
1.0
 40
1.0
 40
1.0
 40
1.0
 10
62.34917086805162
 20
131.0237423748557
 30
0.0
 10
62.34915512083502
 20
131.2167491535225
 30
0.0
 10
62.34913611207403
 20
131.4134685221375
 30
0.0
 10
62.34898868516969
 20
132.6905894056067
 30
0.0
 10
62.34887639604251
 20
133.8632564902212
 30
0.0
 10
62.34916463066162
 20
136.2795555927013
 30
0.0
 10
62.34953684272407
 20
137.5255271709066
 30
0.0
 10
62.35011751995389
 20
139.9867195994147
 30
0.0
 10
62.35021903441807
 20
141.201536104477
 30
0.0
 10
62.35005248857591
 20
142.3455697935696
 30
0.0
  0
LINE
  5
123
330
83
100
AcDbEntity
  8
DV1_Default
  6
Continuous
 62
     7
100
AcDbLine
 10
62.3500517962
 20
234.3555066372
 30
0.0
 11
62.3500517127
 21
142.3455697951
 31
0.0
  0
ARC
  5
124
330
83
100
AcDbEntity
  8
DV1_Default
  6
Continuous
 62
     7
100
AcDbCircle
 10
45.8015734095
 20
122.4161124063
 30
0.0
 40
16.5474086111256
100
AcDbArc
 50
344.9532671372
 51
357.8871495381
  0
ARC
  5
125
330
83
100
AcDbEntity
  8
DV1_Default
  6
Continuous
 62
     7
100
AcDbCircle
 10
46.5541257856
 20
121.8205684702
 30
0.0
 40
15.42974220928886
100
AcDbArc
 50
269.2421543567
 51
303.4511720916
  0
SPLINE
  5
126
330
83
100
AcDbEntity
  8
DV1_Default
  6
Continuous
 62
     7
100
AcDbSpline
210
0.0
220
0.0
230
1.0
 70
     8
 71
     3
 72
     8
 73
     4
 74
     0
 42
0.0000000369898303
 43
0.0000000001
 40
0.0
 40
0.0
 40
0.0
 40
0.0
 40
1.0
 40
1.0
 40
1.0
 40
1.0
 10
62.32780056503071
 20
121.7067167863854
 30
0.0
 10
62.33502463424364
 20
121.7058928963235
 30
0.0
 10
62.34096565016782
 20
121.7932216049899
 30
0.0
 10
62.34562361280324
 20
121.9687029123846
 30
0.0
  0
ARC
  5
127
330
83
100
AcDbEntity
  8
DV1_Default
  6
Continuous
 62
     7
100
AcDbCircle
 10
42.0682918872
 20
124.1191374814
 30
0.0
 40
20.36028792642278
100
AcDbArc
 50
355.2547435874
 51
1.5247514609
  0
SPLINE
  5
128
330
83
100
AcDbEntity
  8
DV1_Default
  6
Continuous
 62
     7
100
AcDbSpline
210
0.0
220
0.0
230
1.0
 70
     8
 71
     3
 72
    17
 73
    13
 74
     0
 42
0.0000000024858239
 43
0.0000000001
 40
0.0
 40
0.0
 40
0.0
 40
0.0
 40
0.0660715736552221
 40
0.1796537893922537
 40
0.2883898081909792
 40
0.3974403775242149
 40
0.6183778713671332
 40
0.7277166183626289
 40
0.832363394973253
 40
0.9334049197830865
 40
0.9827553397249739
 40
1.0
 40
1.0
 40
1.0
 40
1.0
 10
30.3495033260767
 20
125.1357385091743
 30
0.0
 10
30.34959897747854
 20
124.9898068998094
 30
0.0
 10
30.3504473893507
 20
124.6196350056507
 30
0.0
 10
30.35787437189122
 20
124.0144273651309
 30
0.0
 10
30.37075599794231
 20
123.4603095174479
 30
0.0
 10
30.3939636441417
 20
122.771017168859
 30
0.0
 10
30.42630475284778
 20
122.1436846910737
 30
0.0
 10
30.46221993452975
 20
121.6189727002565
 30
0.0
 10
30.48475195143677
 20
121.336973842082
 30
0.0
 10
30.49805826658201
 20
121.1896336208392
 30
0.0
 10
30.50394295133432
 20
121.1285009422941
 30
0.0
 10
30.50512820299993
 20
121.1180012782598
 30
0.0
 10
30.50525938708796
 20
121.1174378040362
 30
0.0
  0
SPLINE
  5
129
330
83
100
AcDbEntity
  8
DV1_Default
  6
Continuous
 62
     7
100
AcDbSpline
210
0.0
220
0.0
230
1.0
 70
     8
 71
     3
 72
    12
 73
     8
 74
     0
 42
0.0000000046078069
 43
0.0000000001
 40
0.0
 40
0.0
 40
0.0
 40
0.0
 40
0.0815640202903651
 40
0.2703205718813037
 40
0.4862680894718263
 40
0.7294572008110771
 40
1.0
 40
1.0
 40
1.0
 40
1.0
 10
30.35195304331351
 20
124.6065040807159
 30
0.0
 10
30.35198585862434
 20
124.5240358366856
 30
0.0
 10
30.35209087810093
 20
124.2573694928707
 30
0.0
 10
30.35229142736544
 20
123.8101644744186
 30
0.0
 10
30.35254051890909
 20
123.2948540426186
 30
0.0
 10
30.35281173965883
 20
122.7987717659334
 30
0.0
 10
30.35293587008776
 20
122.5736402251061
 30
0.0
 10
30.35301292274372
 20
122.4362745125448
 30
0.0
  0
SPLINE
  5
12A
330
83
100
AcDbEntity
  8
DV1_Default
  6
Continuous
 62
     7
100
AcDbSpline
210
0.0
220
0.0
230
1.0
 70
     8
 71
     3
 72
     8
 73
     4
 74
     0
 42
0.0000000368259488
 43
0.0000000001
 40
0.0
 40
0.0
 40
0.0
 40
0.0
 40
1.0
 40
1.0
 40
1.0
 40
1.0
 10
30.35440035241467
 20
121.9712976263794
 30
0.0
 10
30.35907177379935
 20
121.7950412160815
 30
0.0
 10
30.36503676774704
 20
121.7073180710078
 30
0.0
 10
30.37229533425776
 20
121.7081281911585
 30
0.0
  0
ARC
  5
12B
330
83
100
AcDbEntity
  8
DV1_Default
  6
Continuous
 62
     7
100
AcDbCircle
 10
46.145941482
 20
121.8203038661
 30
0.0
 40
15.42947529443591
100
AcDbArc
 50
236.5496149391
 51
270.7579781322
  0
ARC
  5
12C
330
83
100
AcDbEntity
  8
DV1_Default
  6
Continuous
 62
     7
100
AcDbCircle
 10
46.8971888524
 20
122.4159407876
 30
0.0
 40
16.54605148659864
100
AcDbArc
 50
182.1088642454
 51
195.0651490804
  0
ARC
  5
12D
330
83
100
AcDbEntity
  8
DV1_Default
  6
Continuous
 62
     7
100
AcDbCircle
 10
2030.2204844676
 20
129.0303588514
 30
0.0
 40
1967.87235079422
100
AcDbArc
 50
179.9418761669
 51
180.0750071987
  0
LINE
  5
12E
330
83
100
AcDbEntity
  8
DV1_Default
  6
Continuous
 62
     7
100
AcDbLine
 10
30.3500529227
 20
234.3555056707
 30
0.0
 11
30.3500529227
 21
142.3456199766
 31
0.0
  0
ENDBLK
  5
130
330
83
100
AcDbEntity
  8
0
100
AcDbBlockEnd
  0
BLOCK
  5
1D5
330
131
100
AcDbEntity
  8
0
100
AcDbBlockBegin
  2
SE1
 70
     0
 10
0.0
 20
0.0
 30
0.0
  3
SE1
  1

  0
ARC
  5
134
330
131
100
AcDbEntity
  8
DV2_Default
  6
Continuous
 62
     7
100
AcDbCircle
 10
194.5979981788
 20
400.7320165892
 30
0.0
 40
0.9999995345439301
100
AcDbArc
 50
0.3583601183
 51
4.8060482858
  0
ARC
  5
135
330
131
100
AcDbEntity
  8
DV2_Default
  6
Continuous
 62
     7
100
AcDbCircle
 10
13359.2543612099
 20
383.6021713598
 30
0.0
 40
13163.67113428022
100
AcDbArc
 50
179.9253613696
 51
180.0749234949
  0
SPLINE
  5
136
330
131
100
AcDbEntity
  8
DV2_Default
  6
Continuous
 62
     7
100
AcDbSpline
210
0.0
220
0.0
230
1.0
 70
    12
 71
     3
 72
     8
 73
     4
 74
     0
 42
0.0000000007003463
 43
0.0000000001
 40
0.0
 40
0.0
 40
0.0
 40
0.0
 40
1.0
 40
1.0
 40
1.0
 40
1.0
 10
192.7276184799027
 20
352.4665663117032
 30
0.0
 41
1.0
 10
194.2486805285377
 20
357.1071257568831
 30
0.0
 41
1.0
 10
195.2043015591927
 20
361.7477863366431
 30
0.0
 41
1.0
 10
195.5944817290518
 20
366.3885480515231
 30
0.0
 41
1.0
  0
ARC
  5
137
330
131
100
AcDbEntity
  8
DV2_Default
  6
Continuous
 62
     7
100
AcDbCircle
 10
137.4732466125
 20
395.9223153581
 30
0.0
 40
58.3268733955785
100
AcDbArc
 50
4.8126351014
 51
8.5419306985
  0
SPLINE
  5
138
330
131
100
AcDbEntity
  8
DV2_Default
  6
Continuous
 62
     7
100
AcDbSpline
210
0.0
220
0.0
230
1.0
 70
     8
 71
     3
 72
    29
 73
    25
 74
     0
 42
0.0000000001605878
 43
0.0000000001
 40
0.0
 40
0.0
 40
0.0
 40
0.0
 40
0.0124875673351496
 40
0.033346403425341
 40
0.0625773896006478
 40
0.0968674615769184
 40
0.1252680367393227
 40
0.1878875664587346
 40
0.2191865168087607
 40
0.250454727406014
 40
0.2817228279032159
 40
0.313021514953209
 40
0.3756403040986493
 40
0.4382586755474937
 40
0.5007458549267182
 40
0.6509331787238267
 40
0.7495628676413733
 40
0.7808310856766449
 40
0.8121300341194596
 40
0.874749565456927
 40
0.9034859194610267
 40
0.9374403533358837
 40
0.9781452966267948
 40
1.0
 40
1.0
 40
1.0
 40
1.0
 10
192.7276184799027
 20
352.4665663117032
 30
0.0
 10
192.7276157839712
 20
352.4715901299975
 30
0.0
 10
192.7276086398131
 20
352.485005556884
 30
0.0
 10
192.7276150938903
 20
352.643509164778
 30
0.0
 10
192.7276453884549
 20
353.0651542452953
 30
0.0
 10
192.7276628881776
 20
353.8180343832303
 30
0.0
 10
192.7277209933976
 20
355.2137794220791
 30
0.0
 10
192.7276300523256
 20
357.0908431736635
 30
0.0
 10
192.7279343334177
 20
359.5030832359183
 30
0.0
 10
192.7275605477185
 20
361.5491624611259
 30
0.0
 10
192.7278669746906
 20
363.8186722524733
 30
0.0
 10
192.7278046531736
 20
367.1025255342565
 30
0.0
 10
192.7278115858677
 20
371.6270308989963
 30
0.0
 10
192.7277918372534
 20
377.4972341461461
 30
0.0
 10
192.7277658311903
 20
386.4456086498688
 30
0.0
 10
192.727933500491
 20
396.6882249730315
 30
0.0
 10
192.7276027753575
 20
404.1868261868734
 30
0.0
 10
192.7278636729433
 20
407.7012429197131
 30
0.0
 10
192.7276743214746
 20
410.1136777640519
 30
0.0
 10
192.7277135224316
 20
411.9951894695803
 30
0.0
 10
192.7276648326025
 20
413.3904878994982
 30
0.0
 10
192.7276428441746
 20
414.2300639401744
 30
0.0
 10
192.7276034660384
 20
414.6780367426659
 30
0.0
 10
192.727614584223
 20
414.7223135710526
 30
0.0
 10
192.7276184907678
 20
414.7377813280431
 30
0.0
  0
ARC
  5
139
330
131
100
AcDbEntity
  8
DV2_Default
  6
Continuous
 62
     7
100
AcDbCircle
 10
190.8271069532
 20
353.0895077349
 30
0.0
 40
1.999999998278389
100
AcDbArc
 50
296.296435743
 51
341.8521154174
  0
ARC
  5
13A
330
131
100
AcDbEntity
  8
DV2_Default
  6
Continuous
 62
     7
100
AcDbCircle
 10
190.8271069521
 20
414.1148399658
 30
0.0
 40
1.999999999564275
100
AcDbArc
 50
18.1478828163
 51
63.7035634084
  0
LINE
  5
13B
330
131
100
AcDbEntity
  8
DV2_Default
  6
Continuous
 62
     7
100
AcDbLine
 10
191.7131378262
 20
351.296479691
 30
0.0
 11
191.7131378378
 21
415.9078679685
 31
0.0
  0
ARC
  5
13C
330
131
100
AcDbEntity
  8
DV2_Default
  6
Continuous
 62
     7
100
AcDbCircle
 10
194.9306556344
 20
421.9532232124
 30
0.0
 40
6.848265531976049
100
AcDbArc
 50
190.7766423791
 51
241.9767644864
  0
ARC
  5
13D
330
131
100
AcDbEntity
  8
DV2_Default
  6
Continuous
 62
     7
100
AcDbCircle
 10
9417.2859150878
 20
383.6021738162
 30
0.0
 40
9229.157196495737
100
AcDbArc
 50
179.769927767
 51
180.2301393295
  0
SPLINE
  5
13E
330
131
100
AcDbEntity
  8
DV2_Default
  6
Continuous
 62
     7
100
AcDbSpline
210
0.0
220
0.0
230
1.0
 70
    12
 71
     3
 72
     8
 73
     4
 74
     0
 42
0.0000000015836818
 43
0.0000000001
 40
0.0
 40
0.0
 40
0.0
 40
0.0
 40
1.0
 40
1.0
 40
1.0
 40
1.0
 10
188.2031691378937
 20
346.5316189514531
 30
0.0
 41
1.0
 10
188.7834296834378
 20
348.8386217539631
 30
0.0
 41
1.0
 10
189.9534192238377
 20
350.4269087124432
 30
0.0
 41
1.0
 10
191.7131378262217
 20
351.2964796910431
 30
0.0
 41
1.0
  0
SPLINE
  5
13F
330
131
100
AcDbEntity
  8
DV2_Default
  6
Continuous
 62
     7
100
AcDbSpline
210
0.0
220
0.0
230
1.0
 70
     8
 71
     3
 72
     8
 73
     4
 74
     0
 42
0.0000096464437483
 43
0.0000000001
 40
0.0
 40
0.0
 40
0.0
 40
0.0
 40
1.0
 40
1.0
 40
1.0
 40
1.0
 10
192.7276182182665
 20
352.4676029631306
 30
0.0
 10
192.7276183054288
 20
352.4672571934892
 30
0.0
 10
192.727618392657
 20
352.4669117525991
 30
0.0
 10
192.7276184799027
 20
352.4665663117032
 30
0.0
  0
ARC
  5
140
330
131
100
AcDbEntity
  8
DV2_Default
  6
Continuous
 62
     7
100
AcDbCircle
 10
13354.492299207
 20
383.6021713607
 30
0.0
 40
13158.90907635025
100
AcDbArc
 50
179.9250493698
 51
179.9253325521
  0
ARC
  5
141
330
131
100
AcDbEntity
  8
DV2_Default
  6
Continuous
 62
     7
100
AcDbCircle
 10
13354.492299207
 20
383.6021713607
 30
0.0
 40
13158.90907635025
100
AcDbArc
 50
180.0746375568
 51
180.0748853373
  0
LINE
  5
142
330
131
100
AcDbEntity
  8
DV2_Default
  6
Continuous
 62
     7
100
AcDbLine
 10
185.5394439355
 20
423.6022507606
 30
0.0
 11
185.5394439355
 21
343.6020968757
 31
0.0
  0
SPLINE
  5
143
330
131
100
AcDbEntity
  8
DV2_Default
  6
Continuous
 62
     7
100
AcDbSpline
210
0.0
220
0.0
230
1.0
 70
     8
 71
     3
 72
     8
 73
     4
 74
     0
 42
0.0000000022630777
 43
0.0000000001
 40
0.0
 40
0.0
 40
0.0
 40
0.0
 40
1.0
 40
1.0
 40
1.0
 40
1.0
 10
185.5394439354948
 20
343.6020968756631
 30
0.0
 10
187.1065418370055
 20
343.9661472919916
 30
0.0
 10
187.9870967607323
 20
344.9037821086538
 30
0.0
 10
188.1811031273427
 20
346.4150253442231
 30
0.0
  0
ARC
  5
144
330
131
100
AcDbEntity
  8
DV2_Default
  6
Continuous
 62
     7
100
AcDbCircle
 10
12664.1887937248
 20
383.6021738182
 30
0.0
 40
12476.06311221045
100
AcDbArc
 50
179.8292788365
 51
180.1707806217
  0
SPLINE
  5
145
330
131
100
AcDbEntity
  8
DV2_Default
  6
Continuous
 62
     7
100
AcDbSpline
210
0.0
220
0.0
230
1.0
 70
     8
 71
     3
 72
     8
 73
     4
 74
     0
 42
0.0000000022630777
 43
0.0000000001
 40
0.0
 40
0.0
 40
0.0
 40
0.0
 40
1.0
 40
1.0
 40
1.0
 40
1.0
 10
188.1811031273427
 20
420.7893222920831
 30
0.0
 10
187.9870967607304
 20
422.3005655276551
 30
0.0
 10
187.1065418370033
 20
423.2382003443183
 30
0.0
 10
185.5394439354944
 20
423.6022507606331
 30
0.0
  0
ARC
  5
146
330
131
100
AcDbEntity
  8
DV2_Default
  6
Continuous
 62
     7
100
AcDbCircle
 10
189.1729634812
 20
346.2876949326
 30
0.0
 40
0.9999999976637937
100
AcDbArc
 50
165.8817444558
 51
172.6846458771
  0
LINE
  5
147
330
131
100
AcDbEntity
  8
DV2_Default
  6
Continuous
 62
     7
100
AcDbLine
 10
193.9003283438
 20
410.3151546458
 30
0.0
 11
193.7899234027
 21
410.3151546458
 31
0.0
  0
LINE
  5
148
330
131
100
AcDbEntity
  8
DV2_Default
  6
Continuous
 62
     7
100
AcDbLine
 10
194.4037495196
 20
407.9414772241
 30
0.0
 11
194.3800043113
 21
407.9414772241
 31
0.0
  0
LINE
  5
149
330
131
100
AcDbEntity
  8
DV2_Default
  6
Continuous
 62
     7
100
AcDbLine
 10
194.3937552282
 20
408.2377849973
 30
0.0
 11
194.2836268324
 21
408.2377849973
 31
0.0
  0
LINE
  5
14A
330
131
100
AcDbEntity
  8
DV2_Default
  6
Continuous
 62
     7
100
AcDbLine
 10
194.064618932
 20
409.2519753338
 30
0.0
 11
194.0204894852
 21
409.2519753338
 31
0.0
  0
SPLINE
  5
14B
330
131
100
AcDbEntity
  8
DV2_Default
  6
Continuous
 62
     7
100
AcDbSpline
210
0.0
220
0.0
230
1.0
 70
     8
 71
     3
 72
    10
 73
     6
 74
     0
 42
0.0000000355349451
 43
0.0000000001
 40
0.0
 40
0.0
 40
0.0
 40
0.0
 40
0.5
 40
0.5
 40
1.0
 40
1.0
 40
1.0
 40
1.0
 10
193.7818567846649
 20
410.5624734433974
 30
0.0
 10
193.7924942843387
 20
410.5624734433974
 30
0.0
 10
193.8078886997355
 20
410.5412849582773
 30
0.0
 10
193.8475693681834
 20
410.4586190668173
 30
0.0
 10
193.8720911943524
 20
410.3963610515094
 30
0.0
 10
193.9003283438414
 20
410.3151546458066
 30
0.0
  0
SPLINE
  5
14C
330
131
100
AcDbEntity
  8
DV2_Default
  6
Continuous
 62
     7
100
AcDbSpline
210
0.0
220
0.0
230
1.0
 70
     8
 71
     3
 72
    20
 73
    16
 74
     0
 42
0.0000000074198175
 43
0.0000000001
 40
0.0
 40
0.0
 40
0.0
 40
0.0
 40
0.1279098686563578
 40
0.1279098686563578
 40
0.2558197373127155
 40
0.2558197373127155
 40
0.3837296059690732
 40
0.3837296059690732
 40
0.511639474625431
 40
0.511639474625431
 40
0.6395493432817888
 40
0.6395493432817888
 40
0.7674592119381465
 40
0.7674592119381465
 40
1.0
 40
1.0
 40
1.0
 40
1.0
 10
194.0204571401501
 20
409.2521077050534
 30
0.0
 10
193.9986425449807
 20
409.3429748448618
 30
0.0
 10
193.9772290994571
 20
409.4330817886629
 30
0.0
 10
193.9357098866816
 20
409.6112310844276
 30
0.0
 10
193.9153947325109
 20
409.7003033091793
 30
0.0
 10
193.8783705019732
 20
409.8678245876757
 30
0.0
 10
193.8616292813491
 20
409.9465468578693
 30
0.0
 10
193.8298291685385
 20
410.0988339786184
 30
0.0
 10
193.8146055977127
 20
410.173269327105
 30
0.0
 10
193.7913911657372
 20
410.2981532837738
 30
0.0
 10
193.7831731735826
 20
410.3498352594277
 30
0.0
 10
193.7716576858386
 20
410.4350636601249
 30
0.0
 10
193.7683046837693
 20
410.4687888929985
 30
0.0
 10
193.7646472478157
 20
410.542305253479
 30
0.0
 10
193.7692202306788
 20
410.5631489824145
 30
0.0
 10
193.7788234244641
 20
410.563107936435
 30
0.0
  0
SPLINE
  5
14D
330
131
100
AcDbEntity
  8
DV2_Default
  6
Continuous
 62
     7
100
AcDbSpline
210
0.0
220
0.0
230
1.0
 70
     8
 71
     3
 72
    20
 73
    16
 74
     0
 42
0.0000000072770472
 43
0.0000000001
 40
0.0
 40
0.0
 40
0.0
 40
0.0
 40
0.2327943408221038
 40
0.2327943408221038
 40
0.3606619506850865
 40
0.3606619506850865
 40
0.4885295605480692
 40
0.4885295605480692
 40
0.6163971704110519
 40
0.6163971704110519
 40
0.7442647802740345
 40
0.7442647802740345
 40
0.8721323901370173
 40
0.8721323901370173
 40
1.0
 40
1.0
 40
1.0
 40
1.0
 10
194.4012871994477
 20
407.9408286800858
 30
0.0
 10
194.3924998773685
 20
407.9406694991116
 30
0.0
 10
194.3790149244013
 20
407.9613586176597
 30
0.0
 10
194.3487056102377
 20
408.0352710747975
 30
0.0
 10
194.3361661435739
 20
408.0696450554878
 30
0.0
 10
194.3077568158877
 20
408.1548887532792
 30
0.0
 10
194.2915025916267
 20
408.2069830063338
 30
0.0
 10
194.2555591311648
 20
408.3317265196764
 30
0.0
 10
194.2357500375871
 20
408.404641202903
 30
0.0
 10
194.1947614386273
 20
408.5573529656804
 30
0.0
 10
194.1738760421125
 20
408.6360387821582
 30
0.0
 10
194.1309688496849
 20
408.8023471628429
 30
0.0
 10
194.1087432971332
 20
408.8906284569921
 30
0.0
 10
194.0644212076768
 20
409.0700462434218
 30
0.0
 10
194.042410996624
 20
409.160733311453
 30
0.0
 10
194.0204571401501
 20
409.2521077050534
 30
0.0
  0
SPLINE
  5
14E
330
131
100
AcDbEntity
  8
DV2_Default
  6
Continuous
 62
     7
100
AcDbSpline
210
0.0
220
0.0
230
1.0
 70
     8
 71
     3
 72
    10
 73
     6
 74
     0
 42
0.000000032404749
 43
0.0000000001
 40
0.0
 40
0.0
 40
0.0
 40
0.0
 40
0.5
 40
0.5
 40
1.0
 40
1.0
 40
1.0
 40
1.0
 10
194.393755228186
 20
408.2377849973179
 30
0.0
 10
194.4075406160695
 20
408.1405384417021
 30
0.0
 10
194.4151802901917
 20
408.0672350395023
 30
0.0
 10
194.4186180633781
 20
407.9673431471174
 30
0.0
 10
194.4142426361655
 20
407.9414772241107
 30
0.0
 10
194.4037495195605
 20
407.9414772241107
 30
0.0
  0
LINE
  5
14F
330
131
100
AcDbEntity
  8
DV2_Default
  6
Continuous
 62
     7
100
AcDbLine
 10
194.1639803415
 20
409.2519753338
 30
0.0
 11
194.3937552282
 21
408.2377849973
 31
0.0
  0
LINE
  5
150
330
131
100
AcDbEntity
  8
DV2_Default
  6
Continuous
 62
     7
100
AcDbLine
 10
194.133489
 20
409.2519753338
 30
0.0
 11
194.1639803415
 21
409.2519753338
 31
0.0
  0
LINE
  5
151
330
131
100
AcDbEntity
  8
DV2_Default
  6
Continuous
 62
     7
100
AcDbLine
 10
194.3007857393
 20
408.5250055968
 30
0.0
 11
194.133489
 21
409.2519753338
 31
0.0
  0
SPLINE
  5
152
330
131
100
AcDbEntity
  8
DV2_Default
  6
Continuous
 62
     7
100
AcDbSpline
210
0.0
220
0.0
230
1.0
 70
     8
 71
     3
 72
     8
 73
     4
 74
     0
 42
0.0000000721337048
 43
0.0000000001
 40
0.0
 40
0.0
 40
0.0
 40
0.0
 40
1.0
 40
1.0
 40
1.0
 40
1.0
 10
194.3014598436076
 20
408.3972928804868
 30
0.0
 10
194.3116219424327
 20
408.3972020254209
 30
0.0
 10
194.3113921143144
 20
408.4407252979252
 30
0.0
 10
194.300785739343
 20
408.5250055968333
 30
0.0
  0
SPLINE
  5
153
330
131
100
AcDbEntity
  8
DV2_Default
  6
Continuous
 62
     7
100
AcDbSpline
210
0.0
220
0.0
230
1.0
 70
     8
 71
     3
 72
    16
 73
    12
 74
     0
 42
0.0000000111625427
 43
0.0000000001
 40
0.0
 40
0.0
 40
0.0
 40
0.0
 40
0.2499999999999998
 40
0.2499999999999998
 40
0.4999999999999997
 40
0.4999999999999997
 40
0.625
 40
0.625
 40
0.7500000000000003
 40
0.7500000000000003
 40
1.0
 40
1.0
 40
1.0
 40
1.0
 10
194.0646189319725
 20
409.251975333754
 30
0.0
 10
194.0892493506423
 20
409.1488237502949
 30
0.0
 10
194.1137752622112
 20
409.0473274972055
 30
0.0
 10
194.1628371122247
 20
408.8501519691553
 30
0.0
 10
194.1877005167991
 20
408.7530606300162
 30
0.0
 10
194.2227387101346
 20
408.6206016549887
 30
0.0
 10
194.2340372683406
 20
408.5794514385309
 30
0.0
 10
194.2539522241088
 20
408.5112929381431
 30
0.0
 10
194.2630338345806
 20
408.4822175286611
 30
0.0
 10
194.2863223492554
 20
408.413804717295
 30
0.0
 10
194.2965904934106
 20
408.3937535144469
 30
0.0
 10
194.3014598436076
 20
408.3972928804868
 30
0.0
  0
SPLINE
  5
154
330
131
100
AcDbEntity
  8
DV2_Default
  6
Continuous
 62
     7
100
AcDbSpline
210
0.0
220
0.0
230
1.0
 70
     8
 71
     3
 72
    18
 73
    14
 74
     0
 42
0.0000000113204564
 43
0.0000000001
 40
0.0
 40
0.0
 40
0.0
 40
0.0
 40
0.2499999999999997
 40
0.2499999999999997
 40
0.3749999999999997
 40
0.3749999999999997
 40
0.4999999999999998
 40
0.4999999999999998
 40
0.6249999999999998
 40
0.6249999999999998
 40
0.7499999999999999
 40
0.7499999999999999
 40
1.0
 40
1.0
 40
1.0
 40
1.0
 10
193.9067012010059
 20
410.1066579278558
 30
0.0
 10
193.8995071964907
 20
410.1097110125412
 30
0.0
 10
193.8963223482397
 20
410.096491557926
 30
0.0
 10
193.8999393501294
 20
410.0431457359005
 30
0.0
 10
193.9025458534882
 20
410.0200878471624
 30
0.0
 10
193.9108578741038
 20
409.9626366137476
 30
0.0
 10
193.9167120208736
 20
409.9275813795545
 30
0.0
 10
193.9324461431979
 20
409.8447728835567
 30
0.0
 10
193.9423802267963
 20
409.7964946136227
 30
0.0
 10
193.963097082113
 20
409.6974645046276
 30
0.0
 10
193.9739891919251
 20
409.6464228084014
 30
0.0
 10
194.0095377764315
 20
409.4854258652957
 30
0.0
 10
194.0368996614074
 20
409.3681380868496
 30
0.0
 10
194.0646189319725
 20
409.251975333754
 30
0.0
  0
SPLINE
  5
155
330
131
100
AcDbEntity
  8
DV2_Default
  6
Continuous
 62
     7
100
AcDbSpline
210
0.0
220
0.0
230
1.0
 70
     8
 71
     3
 72
    10
 73
     6
 74
     0
 42
0.0000000325071144
 43
0.0000000001
 40
0.0
 40
0.0
 40
0.0
 40
0.0
 40
0.5
 40
0.5
 40
1.0
 40
1.0
 40
1.0
 40
1.0
 10
194.0218371627905
 20
409.828260666452
 30
0.0
 10
193.993577370426
 20
409.9184498644195
 30
0.0
 10
193.9695808814443
 20
409.9872884921557
 30
0.0
 10
193.9304003889712
 20
410.0821102904508
 30
0.0
 10
193.9157157972914
 20
410.1066507640699
 30
0.0
 10
193.9067012010059
 20
410.1066579278558
 30
0.0
  0
LINE
  5
156
330
131
100
AcDbEntity
  8
DV2_Default
  6
Continuous
 62
     7
100
AcDbLine
 10
193.9003283438
 20
410.3151546458
 30
0.0
 11
194.0218371628
 21
409.8282606665
 31
0.0
  0
LINE
  5
157
330
131
100
AcDbEntity
  8
DV2_Default
  6
Continuous
 62
     7
100
AcDbLine
 10
194.2164777301
 20
409.2293914579
 30
0.0
 11
194.2275003152
 21
409.2293914579
 31
0.0
  0
LINE
  5
158
330
131
100
AcDbEntity
  8
DV2_Default
  6
Continuous
 62
     7
100
AcDbLine
 10
194.5102228285
 20
408.0141541681
 30
0.0
 11
194.2164777301
 21
409.2293914579
 31
0.0
  0
LINE
  5
159
330
131
100
AcDbEntity
  8
DV2_Default
  6
Continuous
 62
     7
100
AcDbLine
 10
194.5144510104
 20
408.0141541681
 30
0.0
 11
194.5102228285
 21
408.0141541681
 31
0.0
  0
LINE
  5
15A
330
131
100
AcDbEntity
  8
DV2_Default
  6
Continuous
 62
     7
100
AcDbLine
 10
194.2915761803
 20
409.0074307763
 30
0.0
 11
194.524697096
 21
408.0141541681
 31
0.0
  0
ARC
  5
15B
330
131
100
AcDbEntity
  8
DV2_Default
  6
Continuous
 62
     7
100
AcDbCircle
 10
180.4272212095
 20
406.3155776157
 30
0.0
 40
14.12325784630814
100
AcDbArc
 50
10.9876371606
 51
13.9250899195
  0
ARC
  5
15C
330
131
100
AcDbEntity
  8
DV2_Default
  6
Continuous
 62
     7
100
AcDbCircle
 10
188.030869698
 20
408.4601521622
 30
0.0
 40
6.23205817269119
100
AcDbArc
 50
11.6103420129
 51
19.0098108284
  0
LINE
  5
15D
330
131
100
AcDbEntity
  8
DV2_Default
  6
Continuous
 62
     7
100
AcDbLine
 10
193.8821536854
 20
410.4897964994
 30
0.0
 11
193.9225757713
 21
410.4897964994
 31
0.0
  0
LINE
  5
15E
330
131
100
AcDbEntity
  8
DV2_Default
  6
Continuous
 62
     7
100
AcDbLine
 10
194.4627706952
 20
408.0141541681
 30
0.0
 11
193.8821536854
 21
410.4897964994
 31
0.0
  0
LINE
  5
15F
330
131
100
AcDbEntity
  8
DV2_Default
  6
Continuous
 62
     7
100
AcDbLine
 10
194.4846066951
 20
408.0141541681
 30
0.0
 11
194.4627706952
 21
408.0141541681
 31
0.0
  0
LINE
  5
160
330
131
100
AcDbEntity
  8
DV2_Default
  6
Continuous
 62
     7
100
AcDbLine
 10
194.0248547599
 20
410.0165539885
 30
0.0
 11
194.4846066951
 21
408.0141541681
 31
0.0
  0
LINE
  5
161
330
131
100
AcDbEntity
  8
DV2_Default
  6
Continuous
 62
     7
100
AcDbLine
 10
194.0378684503
 20
410.0165539885
 30
0.0
 11
194.0248547599
 21
410.0165539885
 31
0.0
  0
ARC
  5
162
330
131
100
AcDbEntity
  8
DV2_Default
  6
Continuous
 62
     7
100
AcDbCircle
 10
190.8777796689
 20
408.9593876796
 30
0.0
 40
3.332479889562044
100
AcDbArc
 50
11.4834930444
 51
18.4985358849
  0
ARC
  5
163
330
131
100
AcDbEntity
  8
DV2_Default
  6
Continuous
 62
     7
100
AcDbCircle
 10
190.2619938666
 20
408.588943701
 30
0.0
 40
4.016891176409433
100
AcDbArc
 50
9.1743157023
 51
14.9150309184
  0
ARC
  5
164
330
131
100
AcDbEntity
  8
DV2_Default
  6
Continuous
 62
     7
100
AcDbCircle
 10
134.0564270013
 20
395.3010629314
 30
0.0
 40
61.80111863272305
100
AcDbArc
 50
12.238635753
 51
13.8755835763
  0
ARC
  5
165
330
131
100
AcDbEntity
  8
DV2_Default
  6
Continuous
 62
     7
100
AcDbCircle
 10
131.3593253561
 20
394.6004976103
 30
0.0
 40
64.5877511436118
100
AcDbArc
 50
14.3553823431
 51
18.1666414006
  0
ARC
  5
166
330
131
100
AcDbEntity
  8
DV2_Default
  6
Continuous
 62
     7
100
AcDbCircle
 10
0.5762428321
 20
364.3418189938
 30
0.0
 40
198.8138893831523
100
AcDbArc
 50
12.6597082087
 51
13.4585397526
  0
ARC
  5
167
330
131
100
AcDbEntity
  8
DV2_Default
  6
Continuous
 62
     7
100
AcDbCircle
 10
63.0433843067
 20
378.8318379543
 30
0.0
 40
134.6954948279742
100
AcDbArc
 50
12.6815867477
 51
13.419255333
  0
ARC
  5
168
330
131
100
AcDbEntity
  8
DV2_Default
  6
Continuous
 62
     7
100
AcDbCircle
 10
135.2874381524
 20
395.5656979228
 30
0.0
 40
60.54196218493392
100
AcDbArc
 50
10.693282027
 51
11.7686835793
  0
LINE
  5
169
330
131
100
AcDbEntity
  8
DV2_Default
  6
Continuous
 62
     7
100
AcDbLine
 10
194.5852524565
 20
406.8403671023
 30
0.0
 11
194.6561647339
 21
406.5380296701
 31
0.0
  0
SPLINE
  5
16A
330
131
100
AcDbEntity
  8
DV2_Default
  6
Continuous
 62
     7
100
AcDbSpline
210
0.0
220
0.0
230
1.0
 70
     8
 71
     3
 72
    10
 73
     6
 74
     0
 42
0.0000000185311533
 43
0.0000000001
 40
0.0
 40
0.0
 40
0.0
 40
0.0
 40
0.7877350940715787
 40
0.7877350940715787
 40
1.0
 40
1.0
 40
1.0
 40
1.0
 10
194.7780624855305
 20
406.7993438874813
 30
0.0
 10
194.7778612057985
 20
406.800411026645
 30
0.0
 10
194.7352765703121
 20
407.004348283626
 30
0.0
 10
194.6804760244489
 20
407.2343068556083
 30
0.0
 10
194.6686042561176
 20
407.2822699318105
 30
0.0
 10
194.6573677275171
 20
407.3252260121609
 30
0.0
  0
SPLINE
  5
16B
330
131
100
AcDbEntity
  8
DV2_Default
  6
Continuous
 62
     7
100
AcDbSpline
210
0.0
220
0.0
230
1.0
 70
     8
 71
     3
 72
    12
 73
     8
 74
     0
 42
0.0000000148317732
 43
0.0000000001
 40
0.0
 40
0.0
 40
0.0
 40
0.0
 40
0.0840393548070357
 40
0.0840393548070357
 40
0.6696932305782848
 40
0.6696932305782848
 40
1.0
 40
1.0
 40
1.0
 40
1.0
 10
194.6020190165604
 20
407.4916898746097
 30
0.0
 10
194.5997201418725
 20
407.4924384925314
 30
0.0
 10
194.5981418619482
 20
407.4891983554791
 30
0.0
 10
194.5923598753393
 20
407.4265888985729
 30
0.0
 10
194.6169887805834
 20
407.2104411129051
 30
0.0
 10
194.6351822686327
 20
406.9390684069133
 30
0.0
 10
194.6366251290929
 20
406.8587798315633
 30
0.0
 10
194.6275682100578
 20
406.8244538655854
 30
0.0
  0
SPLINE
  5
16C
330
131
100
AcDbEntity
  8
DV2_Default
  6
Continuous
 62
     7
100
AcDbSpline
210
0.0
220
0.0
230
1.0
 70
     8
 71
     3
 72
     8
 73
     4
 74
     0
 42
0.0000001936719622
 43
0.0000000001
 40
0.0
 40
0.0
 40
0.0
 40
0.0
 40
1.0
 40
1.0
 40
1.0
 40
1.0
 10
194.6168247875611
 20
406.8068513414435
 30
0.0
 10
194.609296438443
 20
406.8044032536522
 30
0.0
 10
194.5989723127262
 20
406.8145201954521
 30
0.0
 10
194.5852524564931
 20
406.8403671023274
 30
0.0
  0
SPLINE
  5
16D
330
131
100
AcDbEntity
  8
DV2_Default
  6
Continuous
 62
     7
100
AcDbSpline
210
0.0
220
0.0
230
1.0
 70
     8
 71
     3
 72
     8
 73
     4
 74
     0
 42
0.0000004492459758
 43
0.0000000001
 40
0.0
 40
0.0
 40
0.0
 40
0.0
 40
1.0
 40
1.0
 40
1.0
 40
1.0
 10
194.6561647339093
 20
406.5380296701155
 30
0.0
 10
194.662670340053
 20
406.528826454741
 30
0.0
 10
194.6680174669021
 20
406.5249886239848
 30
0.0
 10
194.672358299206
 20
406.5257509679059
 30
0.0
  0
SPLINE
  5
16E
330
131
100
AcDbEntity
  8
DV2_Default
  6
Continuous
 62
     7
100
AcDbSpline
210
0.0
220
0.0
230
1.0
 70
     8
 71
     3
 72
    10
 73
     6
 74
     0
 42
0.0000000145454864
 43
0.0000000001
 40
0.0
 40
0.0
 40
0.0
 40
0.0
 40
0.950293467537837
 40
0.950293467537837
 40
1.0
 40
1.0
 40
1.0
 40
1.0
 10
194.6826590317068
 20
406.5416188014496
 30
0.0
 10
194.7083487727921
 20
406.639754574555
 30
0.0
 10
194.6402285656727
 20
407.158921297712
 30
0.0
 10
194.6551373135615
 20
407.2165337890753
 30
0.0
 10
194.6561614154845
 20
407.2178134635361
 30
0.0
 10
194.6574405520177
 20
407.2176466083992
 30
0.0
  0
SPLINE
  5
16F
330
131
100
AcDbEntity
  8
DV2_Default
  6
Continuous
 62
     7
100
AcDbSpline
210
0.0
220
0.0
230
1.0
 70
     8
 71
     3
 72
    10
 73
     6
 74
     0
 42
0.0000000148009533
 43
0.0000000001
 40
0.0
 40
0.0
 40
0.0
 40
0.0
 40
0.3943954009247306
 40
0.3943954009247306
 40
0.9999999999999999
 40
0.9999999999999999
 40
0.9999999999999999
 40
0.9999999999999999
 10
194.6748919563676
 20
407.1813676181547
 30
0.0
 10
194.6938109774726
 20
407.1252744648892
 30
0.0
 10
194.7221912351736
 20
407.0120218247707
 30
0.0
 10
194.7890983693589
 20
406.7225366677068
 30
0.0
 10
194.8282822646764
 20
406.5300068862605
 30
0.0
 10
194.8293835108722
 20
406.5240205627658
 30
0.0
  0
ARC
  5
170
330
131
100
AcDbEntity
  8
DV2_Default
  6
Continuous
 62
     7
100
AcDbCircle
 10
135.9512952593
 20
395.6905025359
 30
0.0
 40
59.86647132581256
100
AcDbArc
 50
9.7513293586
 51
10.425761264
  0
SPLINE
  5
171
330
131
100
AcDbEntity
  8
DV2_Default
  6
Continuous
 62
     7
100
AcDbSpline
210
0.0
220
0.0
230
1.0
 70
     8
 71
     3
 72
    12
 73
     8
 74
     0
 42
0.0000000196015376
 43
0.0000000001
 40
0.0
 40
0.0
 40
0.0
 40
0.0
 40
0.3375801689502747
 40
0.3375801689502747
 40
0.6751603379005494
 40
0.6751603379005494
 40
1.0
 40
1.0
 40
1.0
 40
1.0
 10
194.9994740722448
 20
405.5549054223399
 30
0.0
 10
194.9990504291956
 20
405.5574421584167
 30
0.0
 10
194.9920936844497
 20
405.5952354062322
 30
0.0
 10
194.9715165652093
 20
405.7026634326743
 30
0.0
 10
194.9578020619529
 20
405.7727441339267
 30
0.0
 10
194.9284515689045
 20
405.9159811470918
 30
0.0
 10
194.912733912018
 20
405.9897395528091
 30
0.0
 10
194.8978521990991
 20
406.0548046829371
 30
0.0
  0
SPLINE
  5
172
330
131
100
AcDbEntity
  8
DV2_Default
  6
Continuous
 62
     7
100
AcDbSpline
210
0.0
220
0.0
230
1.0
 70
     8
 71
     3
 72
    14
 73
    10
 74
     0
 42
0.000000017780376
 43
0.0000000001
 40
0.0
 40
0.0
 40
0.0
 40
0.0
 40
0.1305226711558708
 40
0.1305226711558708
 40
0.420348447437247
 40
0.420348447437247
 40
0.7101742237186235
 40
0.7101742237186235
 40
1.0
 40
1.0
 40
1.0
 40
1.0
 10
194.8411500274827
 20
406.2489232348074
 30
0.0
 10
194.8385481859444
 20
406.2489449473715
 30
0.0
 10
194.8371241976057
 20
406.2419011102839
 30
0.0
 10
194.8353458152027
 20
406.201950284854
 30
0.0
 10
194.8383526611121
 20
406.1483220403613
 30
0.0
 10
194.8471197270934
 20
406.0194164917144
 30
0.0
 10
194.851292834599
 20
405.9526801534212
 30
0.0
 10
194.8579876794762
 20
405.8213860687442
 30
0.0
 10
194.8607119187554
 20
405.7557365002065
 30
0.0
 10
194.862820783653
 20
405.6900844371237
 30
0.0
  0
SPLINE
  5
173
330
131
100
AcDbEntity
  8
DV2_Default
  6
Continuous
 62
     7
100
AcDbSpline
210
0.0
220
0.0
230
1.0
 70
     8
 71
     3
 72
    14
 73
    10
 74
     0
 42
0.0000000160244209
 43
0.0000000001
 40
0.0
 40
0.0
 40
0.0
 40
0.0
 40
0.5670736237794911
 40
0.5670736237794911
 40
0.8506104356692357
 40
0.8506104356692357
 40
0.9923788416141077
 40
0.9923788416141077
 40
1.0
 40
1.0
 40
1.0
 40
1.0
 10
194.8141072286346
 20
405.9036532175277
 30
0.0
 10
194.8104565246991
 20
406.0429162549282
 30
0.0
 10
194.8039540626877
 20
406.1821693399104
 30
0.0
 10
194.7898009443542
 20
406.3910336137255
 30
0.0
 10
194.7849226097501
 20
406.4576922854421
 30
0.0
 10
194.7852979915454
 20
406.5123076946807
 30
0.0
 10
194.7866561702386
 20
406.5231719760937
 30
0.0
 10
194.7897232736948
 20
406.5242685613982
 30
0.0
 10
194.7898842659692
 20
406.5242965094229
 30
0.0
 10
194.7900497003276
 20
406.5242969096433
 30
0.0
  0
SPLINE
  5
174
330
131
100
AcDbEntity
  8
DV2_Default
  6
Continuous
 62
     7
100
AcDbSpline
210
0.0
220
0.0
230
1.0
 70
     8
 71
     3
 72
    12
 73
     8
 74
     0
 42
0.0000000195142381
 43
0.0000000001
 40
0.0
 40
0.0
 40
0.0
 40
0.0
 40
0.3183797114471237
 40
0.3183797114471237
 40
0.6591898557235621
 40
0.6591898557235621
 40
1.0
 40
1.0
 40
1.0
 40
1.0
 10
194.8478451575624
 20
406.3317659771229
 30
0.0
 10
194.8630789509878
 20
406.2669717611691
 30
0.0
 10
194.8792006281149
 20
406.1934092015233
 30
0.0
 10
194.909814694285
 20
406.0482485864906
 30
0.0
 10
194.9243352069172
 20
405.9761091019808
 30
0.0
 10
194.9457679744716
 20
405.8674515357536
 30
0.0
 10
194.9527463067773
 20
405.8306786801467
 30
0.0
 10
194.9528235659894
 20
405.8302286896642
 30
0.0
  0
LINE
  5
175
330
131
100
AcDbEntity
  8
DV2_Default
  6
Continuous
 62
     7
100
AcDbLine
 10
194.8628207837
 20
405.6900844371
 30
0.0
 11
194.8141072286
 21
405.9036532175
 31
0.0
  0
ARC
  5
176
330
131
100
AcDbEntity
  8
DV2_Default
  6
Continuous
 62
     7
100
AcDbCircle
 10
136.443070105
 20
395.7739461382
 30
0.0
 40
59.36766468450242
100
AcDbArc
 50
8.804644258
 51
9.4828453609
  0
LINE
  5
177
330
131
100
AcDbEntity
  8
DV2_Default
  6
Continuous
 62
     7
100
AcDbLine
 10
195.1531312273
 20
404.5857478216
 30
0.0
 11
195.1531249275
 21
404.5857902769
 31
0.0
  0
SPLINE
  5
178
330
131
100
AcDbEntity
  8
DV2_Default
  6
Continuous
 62
     7
100
AcDbSpline
210
0.0
220
0.0
230
1.0
 70
     8
 71
     3
 72
    14
 73
    10
 74
     0
 42
0.0000000141790235
 43
0.0000000001
 40
0.0
 40
0.0
 40
0.0
 40
0.0
 40
0.3539580776665962
 40
0.3539580776665962
 40
0.7079161553331926
 40
0.7079161553331926
 40
0.884895194166491
 40
0.884895194166491
 40
1.0
 40
1.0
 40
1.0
 40
1.0
 10
195.1531249275076
 20
404.5857902768936
 30
0.0
 10
195.1525365497045
 20
404.5897116074244
 30
0.0
 10
195.1382055769337
 20
404.6757686850726
 30
0.0
 10
195.1007645107273
 20
404.8844188579669
 30
0.0
 10
195.0771284580256
 20
405.0099006687681
 30
0.0
 10
195.0449147463638
 20
405.1605521338558
 30
0.0
 10
195.0347297305956
 20
405.2045281752974
 30
0.0
 10
195.0207119447402
 20
405.2553516417221
 30
0.0
 10
195.0158985672715
 20
405.2696713773157
 30
0.0
 10
195.0122300140267
 20
405.2760554201544
 30
0.0
  0
SPLINE
  5
179
330
131
100
AcDbEntity
  8
DV2_Default
  6
Continuous
 62
     7
100
AcDbSpline
210
0.0
220
0.0
230
1.0
 70
     8
 71
     3
 72
    10
 73
     6
 74
     0
 42
0.0000000493071968
 43
0.0000000001
 40
0.0
 40
0.0
 40
0.0
 40
0.0
 40
0.0510719793483117
 40
0.0510719793483117
 40
1.0
 40
1.0
 40
1.0
 40
1.0
 10
195.0086331721229
 20
405.2797708799563
 30
0.0
 10
195.0081769403687
 20
405.2797991762344
 30
0.0
 10
195.0077564904065
 20
405.2795874087226
 30
0.0
 10
195.0002631361048
 20
405.2705427921399
 30
0.0
 10
195.0046887363073
 20
405.1852417848567
 30
0.0
 10
195.0109429701117
 20
405.0807076175471
 30
0.0
  0
SPLINE
  5
17A
330
131
100
AcDbEntity
  8
DV2_Default
  6
Continuous
 62
     7
100
AcDbSpline
210
0.0
220
0.0
230
1.0
 70
     8
 71
     3
 72
    10
 73
     6
 74
     0
 42
0.0000000325036402
 43
0.0000000001
 40
0.0
 40
0.0
 40
0.0
 40
0.0
 40
0.8009182027510632
 40
0.8009182027510632
 40
1.0
 40
1.0
 40
1.0
 40
1.0
 10
194.9714653661287
 20
405.2506689144631
 30
0.0
 10
194.9637516894533
 20
405.3741674939465
 30
0.0
 10
194.9550949994141
 20
405.4930737840554
 30
0.0
 10
194.9584150388869
 20
405.5488564410289
 30
0.0
 10
194.9598312208666
 20
405.5551708623588
 30
0.0
 10
194.9621761589119
 20
405.5551824534435
 30
0.0
  0
SPLINE
  5
17B
330
131
100
AcDbEntity
  8
DV2_Default
  6
Continuous
 62
     7
100
AcDbSpline
210
0.0
220
0.0
230
1.0
 70
     8
 71
     3
 72
    14
 73
    10
 74
     0
 42
0.0000000145182698
 43
0.0000000001
 40
0.0
 40
0.0
 40
0.0
 40
0.0
 40
0.1943026338441937
 40
0.1943026338441937
 40
0.5971513169220974
 40
0.5971513169220974
 40
0.7985756584610488
 40
0.7985756584610488
 40
1.0
 40
1.0
 40
1.0
 40
1.0
 10
194.9726429078439
 20
405.5354395297505
 30
0.0
 10
194.980407577098
 20
405.5129830400801
 30
0.0
 10
194.990533758712
 20
405.4735065341653
 30
0.0
 10
195.0245281755627
 20
405.3257955557723
 30
0.0
 10
195.0513941032113
 20
405.1892223587365
 30
0.0
 10
195.0835681374557
 20
405.0166654484022
 30
0.0
 10
195.0929935441154
 20
404.9643230298136
 30
0.0
 10
195.1067525847543
 20
404.8867178442766
 30
0.0
 10
195.1110881291424
 20
404.8614802887525
 30
0.0
 10
195.1111448952463
 20
404.861113491076
 30
0.0
  0
LINE
  5
17C
330
131
100
AcDbEntity
  8
DV2_Default
  6
Continuous
 62
     7
100
AcDbLine
 10
195.0109429701
 20
405.0807076175
 30
0.0
 11
194.9714653661
 21
405.2506689145
 31
0.0
  0
ARC
  5
17D
330
131
100
AcDbEntity
  8
DV2_Default
  6
Continuous
 62
     7
100
AcDbCircle
 10
190.9423777785
 20
400.6058221975
 30
0.0
 40
4.653397691870071
100
AcDbArc
 50
1.6735031029
 51
1.8956122645
  0
ARC
  5
17E
330
131
100
AcDbEntity
  8
DV2_Default
  6
Continuous
 62
     7
100
AcDbCircle
 10
190.8340032302
 20
413.9880147289
 30
0.0
 40
1.994038646407331
100
AcDbArc
 50
17.9741621178
 51
64.106808627
  0
ARC
  5
17F
330
131
100
AcDbEntity
  8
DV2_Default
  6
Continuous
 62
     7
100
AcDbCircle
 10
194.8560209227
 20
421.7698856859
 30
0.0
 40
6.765758675487771
100
AcDbArc
 50
190.5609347789
 51
242.3203329716
  0
LINE
  5
180
330
131
100
AcDbEntity
  8
DV2_Default
  6
Continuous
 62
     7
100
AcDbLine
 10
188.2034078145
 20
420.668000847
 30
0.0
 11
188.1857834824
 21
420.7738095557
 31
0.0
  0
LINE
  5
181
330
131
100
AcDbEntity
  8
DV2_Default
  6
Continuous
 62
     7
100
AcDbLine
 10
188.2034078145
 20
420.6680010374
 30
0.0
 11
188.1845233119
 21
420.781375254
 31
0.0
  0
LINE
  5
182
330
131
100
AcDbEntity
  8
DV2_Default
  6
Continuous
 62
     7
100
AcDbLine
 10
194.2387281512
 20
408.3968778532
 30
0.0
 11
194.2995627641
 21
408.3968778532
 31
0.0
  0
LINE
  5
183
330
131
100
AcDbEntity
  8
DV2_Default
  6
Continuous
 62
     7
100
AcDbLine
 10
193.9060231679
 20
410.1070729366
 30
0.0
 11
193.8285307365
 21
410.1070729366
 31
0.0
  0
LINE
  5
184
330
131
100
AcDbEntity
  8
DV2_Default
  6
Continuous
 62
     7
100
AcDbLine
 10
194.0239945329
 20
410.0167451662
 30
0.0
 11
193.9930992962
 21
410.0167451662
 31
0.0
  0
ARC
  5
185
330
131
100
AcDbEntity
  8
DV2_Default
  6
Continuous
 62
     7
100
AcDbCircle
 10
150.2454019971
 20
397.1934304096
 30
0.0
 40
45.48573929754895
100
AcDbArc
 50
4.4746990143
 51
4.5536340425
  0
ARC
  5
186
330
131
100
AcDbEntity
  8
DV2_Default
  6
Continuous
 62
     7
100
AcDbCircle
 10
145.0153937819
 20
398.5881746281
 30
0.0
 40
50.32886578714763
100
AcDbArc
 50
13.6543836411
 51
18.5599437652
  0
ARC
  5
187
330
131
100
AcDbEntity
  8
DV2_Default
  6
Continuous
 62
     7
100
AcDbCircle
 10
188.732702451
 20
406.4644843021
 30
0.0
 40
5.977320041367908
100
AcDbArc
 50
8.2112949526
 51
15.0066512883
  0
LINE
  5
188
330
131
100
AcDbEntity
  8
DV2_Default
  6
Continuous
 62
     7
100
AcDbLine
 10
194.7896122851
 20
406.5168816893
 30
0.0
 11
194.6972864865
 21
407.042061264
 31
0.0
  0
LINE
  5
189
330
131
100
AcDbEntity
  8
DV2_Default
  6
Continuous
 62
     7
100
AcDbLine
 10
194.9599159386
 20
405.5481383734
 30
0.0
 11
194.8726662258
 21
406.0444434989
 31
0.0
  0
ARC
  5
18A
330
131
100
AcDbEntity
  8
DV2_Default
  6
Continuous
 62
     7
100
AcDbCircle
 10
150.364702461
 20
397.2112544123
 30
0.0
 40
45.36515358617934
100
AcDbArc
 50
4.4732571363
 51
9.9540918481
  0
LINE
  5
18B
330
131
100
AcDbEntity
  8
DV2_Default
  6
Continuous
 62
     7
100
AcDbLine
 10
194.6583678605
 20
407.2180432439
 30
0.0
 11
194.6143577755
 21
407.2180432439
 31
0.0
  0
LINE
  5
18C
330
131
100
AcDbEntity
  8
DV2_Default
  6
Continuous
 62
     7
100
AcDbLine
 10
194.8428191621
 20
406.2489280335
 30
0.0
 11
194.7990728283
 21
406.2489280335
 31
0.0
  0
LINE
  5
18D
330
131
100
AcDbEntity
  8
DV2_Default
  6
Continuous
 62
     7
100
AcDbLine
 10
195.0104190698
 20
405.2798128231
 30
0.0
 11
194.9696997907
 21
405.2798128231
 31
0.0
  0
ARC
  5
18E
330
131
100
AcDbEntity
  8
DV2_Default
  6
Continuous
 62
     7
100
AcDbCircle
 10
306.8611434779
 20
-1349.471718271
 30
0.0
 40
1755.97013633199
100
AcDbArc
 50
89.7418674594
 51
89.7419618847
  0
ARC
  5
18F
330
131
100
AcDbEntity
  8
DV2_Default
  6
Continuous
 62
     7
100
AcDbCircle
 10
306.9040781734
 20
-3599.0686964356
 30
0.0
 40
4007.108346004192
100
AcDbArc
 50
89.8705625523
 51
89.8727496596
  0
ARC
  5
190
330
131
100
AcDbEntity
  8
DV2_Default
  6
Continuous
 62
     7
100
AcDbCircle
 10
315.5375808363
 20
451.4476018268
 30
0.0
 40
43.42019911571998
100
AcDbArc
 50
270.3554696726
 51
270.5528888367
  0
ARC
  5
191
330
131
100
AcDbEntity
  8
DV2_Default
  6
Continuous
 62
     7
100
AcDbCircle
 10
315.5375808363
 20
451.4476018268
 30
0.0
 40
43.42019911571998
100
AcDbArc
 50
269.9678023188
 51
270.3554696726
  0
ARC
  5
192
330
131
100
AcDbEntity
  8
DV2_Default
  6
Continuous
 62
     7
100
AcDbCircle
 10
314.4639343017
 20
382.3667001083
 30
0.0
 40
24.11586778947738
100
AcDbArc
 50
89.2710914816
 51
90.1466845099
  0
ARC
  5
193
330
131
100
AcDbEntity
  8
DV2_Default
  6
Continuous
 62
     7
100
AcDbCircle
 10
314.4639343017
 20
382.3667001083
 30
0.0
 40
24.11586778947738
100
AcDbArc
 50
89.2675298411
 51
89.2710914816
  0
ELLIPSE
  5
194
330
131
100
AcDbEntity
  8
DV2_Default
  6
Continuous
 62
     7
100
AcDbEllipse
 10
314.2108919768
 20
406.9399896751
 30
0.0
 11
0.0
 21
0.4999931960054445
 31
0.0
210
0.0
220
0.0
230
1.0
 40
1.0
 41
3.12649170514673
 42
3.537644071351044
  0
ARC
  5
195
330
131
100
AcDbEntity
  8
DV2_Default
  6
Continuous
 62
     7
100
AcDbCircle
 10
300.5733043627
 20
406.9393866297
 30
0.0
 40
0.4999997068970205
100
AcDbArc
 50
246.5505715189
 51
269.5072656526
  0
ARC
  5
196
330
131
100
AcDbEntity
  8
DV2_Default
  6
Continuous
 62
     7
100
AcDbCircle
 10
308.0199353311
 20
4591.8761641793
 30
0.0
 40
4183.855464783179
100
AcDbArc
 50
269.8791147039
 51
270.1026162502
  0
ARC
  5
197
330
131
100
AcDbEntity
  8
DV2_Default
  6
Continuous
 62
     7
100
AcDbCircle
 10
308.0199353311
 20
4591.8761641793
 30
0.0
 40
4183.855464783179
100
AcDbArc
 50
269.8790786251
 51
269.8791147039
  0
LINE
  5
198
330
131
100
AcDbEntity
  8
DV2_Default
  6
Continuous
 62
     7
100
AcDbLine
 10
299.1899373297
 20
408.0300058788
 30
0.0
 11
299.1943111257
 21
408.0301022577
 31
0.0
  0
ARC
  5
199
330
131
100
AcDbEntity
  8
DV2_Default
  6
Continuous
 62
     7
100
AcDbCircle
 10
307.0776956406
 20
2816.5499721615
 30
0.0
 40
2410.078613306846
100
AcDbArc
 50
269.8406380696
 51
270.1741285637
  0
LINE
  5
19A
330
131
100
AcDbEntity
  8
DV2_Default
  6
Continuous
 62
     7
100
AcDbLine
 10
317.6079196865
 20
419.4638836771
 30
0.0
 11
315.9565874634
 21
408.0294214065
 31
0.0
  0
LINE
  5
19B
330
131
100
AcDbEntity
  8
DV2_Default
  6
Continuous
 62
     7
100
AcDbLine
 10
297.5386894676
 20
419.4638836735
 30
0.0
 11
299.1899373298
 21
408.0300058789
 31
0.0
  0
ARC
  5
19C
330
131
100
AcDbEntity
  8
DV2_Default
  6
Continuous
 62
     7
100
AcDbCircle
 10
328.1887337283
 20
418.7263924811
 30
0.0
 40
10.60648472193282
100
AcDbArc
 50
139.7657646378
 51
176.0128867815
  0
ARC
  5
19D
330
131
100
AcDbEntity
  8
DV2_Default
  6
Continuous
 62
     7
100
AcDbCircle
 10
286.9578975526
 20
418.7263991743
 30
0.0
 40
10.60646220566494
100
AcDbArc
 50
3.9870854521
 51
40.2343980113
  0
ARC
  5
19E
330
131
100
AcDbEntity
  8
DV2_Default
  6
Continuous
 62
     7
100
AcDbCircle
 10
295.416180444
 20
425.9230031308
 30
0.0
 40
0.5000004649971574
100
AcDbArc
 50
103.5289279236
 51
223.7438256804
  0
ARC
  5
19F
330
131
100
AcDbEntity
  8
DV2_Default
  6
Continuous
 62
     7
100
AcDbCircle
 10
319.7304124324
 20
425.9229863597
 30
0.0
 40
0.5000006018795118
100
AcDbArc
 50
69.0156574765
 51
76.4709325887
  0
ARC
  5
1A0
330
131
100
AcDbEntity
  8
DV2_Default
  6
Continuous
 62
     7
100
AcDbCircle
 10
312.9814219441
 20
-1574.0028385176
 30
0.0
 40
2000.423734191487
100
AcDbArc
 50
89.8033460136
 51
89.803377005
  0
ARC
  5
1A1
330
131
100
AcDbEntity
  8
DV2_Default
  6
Continuous
 62
     7
100
AcDbCircle
 10
312.9814219441
 20
-1574.0028385176
 30
0.0
 40
2000.423734191487
100
AcDbArc
 50
89.803377005
 51
90.1548985064
  0
ARC
  5
1A2
330
131
100
AcDbEntity
  8
DV2_Default
  6
Continuous
 62
     7
100
AcDbCircle
 10
312.7429070468
 20
-2930.6158117617
 30
0.0
 40
3356.201126131567
100
AcDbArc
 50
89.8745452338
 51
90.0882541653
  0
ARC
  5
1A3
330
131
100
AcDbEntity
  8
DV2_Default
  6
Continuous
 62
     7
100
AcDbCircle
 10
302.4648191742
 20
-3132.2527647137
 30
0.0
 40
3557.837765047321
100
AcDbArc
 50
89.9177330265
 51
90.118196412
  0
ARC
  5
1A4
330
131
100
AcDbEntity
  8
DV2_Default
  6
Continuous
 62
     7
100
AcDbCircle
 10
302.4774846254
 20
-2441.8105120967
 30
0.0
 40
2868.228624106413
100
AcDbArc
 50
89.8982057578
 51
90.1433934309
  0
ARC
  5
1A5
330
131
100
AcDbEntity
  8
DV2_Default
  6
Continuous
 62
     7
100
AcDbCircle
 10
313.9750925024
 20
408.3153236657
 30
0.0
 40
1.999484813354029
100
AcDbArc
 50
292.965901924
 51
352.140635738
  0
ARC
  5
1A6
330
131
100
AcDbEntity
  8
DV2_Default
  6
Continuous
 62
     7
100
AcDbCircle
 10
314.3280263753
 20
408.5833572533
 30
0.0
 40
2.146793661915253
100
AcDbArc
 50
266.7635611637
 51
281.6735863871
  0
ARC
  5
1A7
330
131
100
AcDbEntity
  8
DV2_Default
  6
Continuous
 62
     7
100
AcDbCircle
 10
307.3465062237
 20
-2049.1883348476
 30
0.0
 40
2455.641975802079
100
AcDbArc
 50
89.8329721358
 51
89.8364278864
  0
SPLINE
  5
1A8
330
131
100
AcDbEntity
  8
DV2_Default
  6
Continuous
 62
     7
100
AcDbSpline
210
0.0
220
0.0
230
1.0
 70
     8
 71
     3
 72
    12
 73
     8
 74
     0
 42
0.0000000484327562
 43
0.0000000001
 40
0.0
 40
0.0
 40
0.0
 40
0.0
 40
0.0139230267458568
 40
0.0969066284831523
 40
0.2788578069729118
 40
0.4992790024896558
 40
1.0
 40
1.0
 40
1.0
 40
1.0
 10
300.7623039912396
 20
406.4765047206424
 30
0.0
 10
300.7597732739896
 20
406.4754653420593
 30
0.0
 10
300.7422815445451
 20
406.4684522320272
 30
0.0
 10
300.6946634135692
 20
406.4527621973702
 30
0.0
 10
300.6339093692592
 20
406.4418543883176
 30
0.0
 10
300.5733580075469
 20
406.4386376983107
 30
0.0
 10
300.5626957368817
 20
406.4406952188498
 30
0.0
 10
300.563568274711
 20
406.4419557712789
 30
0.0
  0
SPLINE
  5
1A9
330
131
100
AcDbEntity
  8
DV2_Default
  6
Continuous
 62
     7
100
AcDbSpline
210
0.0
220
0.0
230
1.0
 70
     8
 71
     3
 72
     9
 73
     5
 74
     0
 42
0.0000001839668205
 43
0.0000000001
 40
0.0
 40
0.0
 40
0.0
 40
0.0
 40
0.6023067643910502
 40
1.0
 40
1.0
 40
1.0
 40
1.0
 10
300.586730173745
 20
406.4444974413323
 30
0.0
 10
300.5947955340133
 20
406.4447599974834
 30
0.0
 10
300.611325197956
 20
406.445016287358
 30
0.0
 10
300.632173775741
 20
406.4451040298056
 30
0.0
 10
300.6410813413975
 20
406.4451212020226
 30
0.0
  0
ARC
  5
1AA
330
131
100
AcDbEntity
  8
DV2_Default
  6
Continuous
 62
     7
100
AcDbCircle
 10
301.1726169193
 20
408.3156436626
 30
0.0
 40
2.000269556746435
100
AcDbArc
 50
187.8743410366
 51
246.9042555018
  0
ARC
  5
1AB
330
131
100
AcDbEntity
  8
DV2_Default
  6
Continuous
 62
     7
100
AcDbCircle
 10
300.5736476451
 20
406.9410477104
 30
0.0
 40
0.5016608736966581
100
AcDbArc
 50
245.5689978374
 51
272.303558732
  0
ARC
  5
1AC
330
131
100
AcDbEntity
  8
DV2_Default
  6
Continuous
 62
     7
100
AcDbCircle
 10
307.6396436015
 20
2871.2098155635
 30
0.0
 40
2464.778662186119
100
AcDbArc
 50
269.8450232378
 51
270.1525746926
  0
ARC
  5
1AD
330
131
100
AcDbEntity
  8
DV2_Default
  6
Continuous
 62
     7
100
AcDbCircle
 10
300.8007638074
 20
415.277865487
 30
0.0
 40
8.839369622621552
100
AcDbArc
 50
268.8039696849
 51
268.8227123581
  0
ARC
  5
1AE
330
131
100
AcDbEntity
  8
DV2_Default
  6
Continuous
 62
     7
100
AcDbCircle
 10
295.3157422185
 20
425.8407862764
 30
0.0
 40
0.3709025304683844
100
AcDbArc
 50
224.3702654485
 51
226.1464136529
  0
ARC
  5
1AF
330
131
100
AcDbEntity
  8
DV2_Default
  6
Continuous
 62
     7
100
AcDbCircle
 10
319.730437074
 20
425.9229963819
 30
0.0
 40
0.5000040676384181
100
AcDbArc
 50
315.4996860277
 51
77.1153664924
  0
ARC
  5
1B0
330
131
100
AcDbEntity
  8
DV2_Default
  6
Continuous
 62
     7
100
AcDbCircle
 10
326.731869582
 20
419.0944523479
 30
0.0
 40
9.315902503924898
100
AcDbArc
 50
135.6564194831
 51
178.0429684732
  0
ARC
  5
1B1
330
131
100
AcDbEntity
  8
DV2_Default
  6
Continuous
 62
     7
100
AcDbCircle
 10
288.4649788987
 20
419.1104319052
 30
0.0
 40
9.270584656607229
100
AcDbArc
 50
1.8677980657
 51
44.4794075362
  0
SPLINE
  5
1B2
330
131
100
AcDbEntity
  8
DV2_Default
  6
Continuous
 62
     7
100
AcDbSpline
210
0.0
220
0.0
230
1.0
 70
     8
 71
     3
 72
    13
 73
     9
 74
     0
 42
0.0000000008097463
 43
0.0000000001
 40
0.0
 40
0.0
 40
0.0
 40
0.0
 40
0.2281687088456201
 40
0.4374785559346513
 40
0.6281665460750178
 40
0.7651350334772137
 40
0.8909987569619692
 40
1.0
 40
1.0
 40
1.0
 40
1.0
 10
307.573305085733
 20
427.4863203434631
 30
0.0
 10
306.5403720246766
 20
427.4806180291739
 30
0.0
 10
304.8733348302686
 20
427.4664578497195
 30
0.0
 10
302.2419120019363
 20
427.3528474667925
 30
0.0
 10
300.0453460385456
 20
427.1785910459029
 30
0.0
 10
298.2001406082836
 20
426.9573132343889
 30
0.0
 10
296.6573234317226
 20
426.7121353031899
 30
0.0
 10
295.7808867149033
 20
426.5160946332097
 30
0.0
 10
295.2995917285027
 20
426.4071892489831
 30
0.0
  0
SPLINE
  5
1B3
330
131
100
AcDbEntity
  8
DV2_Default
  6
Continuous
 62
     7
100
AcDbSpline
210
0.0
220
0.0
230
1.0
 70
     8
 71
     3
 72
    13
 73
     9
 74
     0
 42
0.0000000008098707
 43
0.0000000001
 40
0.0
 40
0.0
 40
0.0
 40
0.0
 40
0.14207960526363
 40
0.3080481500177459
 40
0.492191330475433
 40
0.6498592742820948
 40
0.8190937503105452
 40
1.0
 40
1.0
 40
1.0
 40
1.0
 10
319.844774300176
 20
426.4071034086458
 30
0.0
 10
319.2168523094626
 20
426.5459571784284
 30
0.0
 10
318.0657911923401
 20
426.7971491248132
 30
0.0
 10
316.0174838430423
 20
427.0820883919989
 30
0.0
 10
313.9465632299259
 20
427.2783162279457
 30
0.0
 10
311.8541843795907
 20
427.402865540913
 30
0.0
 10
309.726421959349
 20
427.4737495536644
 30
0.0
 10
308.3921280065944
 20
427.4826098059716
 30
0.0
 10
307.573305085733
 20
427.4863203434631
 30
0.0
  0
LINE
  5
1B4
330
131
100
AcDbEntity
  8
DV2_Default
  6
Continuous
 62
     7
100
AcDbLine
 10
315.8068469408
 20
408.0261695856
 30
0.0
 11
317.428225453
 21
419.4611634587
 31
0.0
  0
LINE
  5
1B5
330
131
100
AcDbEntity
  8
DV2_Default
  6
Continuous
 62
     7
100
AcDbLine
 10
297.7237118378
 20
419.4613021198
 30
0.0
 11
299.3466462042
 21
408.0265576486
 31
0.0
  0
LINE
  5
1B6
330
131
100
AcDbEntity
  8
DV2_Default
  6
Continuous
 62
     7
100
AcDbLine
 10
309.9711810483
 20
404.4732550814
 30
0.0
 11
305.1754284241
 21
404.4732550814
 31
0.0
  0
LINE
  5
1B7
330
131
100
AcDbEntity
  8
DV2_Default
  6
Continuous
 62
     7
100
AcDbLine
 10
305.1753887969
 20
406.4346632554
 30
0.0
 11
305.1753887969
 21
404.4732550814
 31
0.0
  0
LINE
  5
1B8
330
131
100
AcDbEntity
  8
DV2_Default
  6
Continuous
 62
     7
100
AcDbLine
 10
309.9712203202
 20
404.4732550814
 30
0.0
 11
309.9712203202
 21
406.434729869
 31
0.0
  0
LINE
  5
1B9
330
131
100
AcDbEntity
  8
DV2_Default
  6
Continuous
 62
     7
100
AcDbLine
 10
313.5733045586
 20
394.8797368115
 30
0.0
 11
313.5733045586
 21
406.4375054104
 31
0.0
  0
LINE
  5
1BA
330
131
100
AcDbEntity
  8
DV2_Default
  6
Continuous
 62
     7
100
AcDbLine
 10
301.5733045586
 20
406.4375180427
 30
0.0
 11
301.5733045586
 21
398.5135448795
 31
0.0
  0
SPLINE
  5
1BB
330
131
100
AcDbEntity
  8
DV2_Default
  6
Continuous
 62
     7
100
AcDbSpline
210
0.0
220
0.0
230
1.0
 70
     8
 71
     2
 72
    24
 73
    21
 74
     0
 42
0.0000000006370471
 43
0.0000000001
 40
0.0
 40
0.0
 40
0.0
 40
0.0625075154918818
 40
0.0625075154918818
 40
0.1562567639426936
 40
0.1562567639426936
 40
0.2500060123935055
 40
0.2500060123935055
 40
0.3437552608443172
 40
0.3437552608443172
 40
0.4375045092951291
 40
0.4375045092951291
 40
0.5312537577459409
 40
0.5312537577459409
 40
0.6250030061967526
 40
0.6250030061967526
 40
0.7187522546475645
 40
0.7187522546475645
 40
0.8125015030983763
 40
0.8125015030983763
 40
0.9999999999999999
 40
0.9999999999999999
 40
0.9999999999999999
 10
323.2584554144978
 20
352.9728985198447
 30
0.0
 10
323.2584921880691
 20
352.9728985187879
 30
0.0
 10
323.1828079909686
 20
352.9729006936798
 30
0.0
 10
323.0694023346109
 20
352.972903952551
 30
0.0
 10
322.7879657116384
 20
352.9729120400283
 30
0.0
 10
322.5067920985408
 20
352.9729201199477
 30
0.0
 10
322.0635217503715
 20
352.9729328579448
 30
0.0
 10
321.6206656498997
 20
352.972945584038
 30
0.0
 10
321.0251553223143
 20
352.9729626968652
 30
0.0
 10
320.4302015144233
 20
352.9729797937
 30
0.0
 10
319.6953398988414
 20
352.9730009109825
 30
0.0
 10
318.9611650301818
 20
352.9730220085304
 30
0.0
 10
318.102856811904
 20
352.9730466732247
 30
0.0
 10
317.2453507045919
 20
352.9730713148692
 30
0.0
 10
316.2821723367036
 20
352.9730989931548
 30
0.0
 10
315.3198940836237
 20
352.9731266455744
 30
0.0
 10
314.2726917345525
 20
352.9731567384074
 30
0.0
 10
313.2264680228803
 20
352.9731868031179
 30
0.0
 10
312.1179064007524
 20
352.9732186591958
 30
0.0
 10
309.890215196127
 20
352.9732826750371
 30
0.0
 10
307.5611018718532
 20
352.9735688759313
 30
0.0
  0
SPLINE
  5
1BC
330
131
100
AcDbEntity
  8
DV2_Default
  6
Continuous
 62
     7
100
AcDbSpline
210
0.0
220
0.0
230
1.0
 70
     8
 71
     2
 72
    20
 73
    17
 74
     0
 42
0.0000000006368656
 43
0.0000000001
 40
0.0
 40
0.0
 40
0.0
 40
0.125
 40
0.125
 40
0.25
 40
0.25
 40
0.375
 40
0.375
 40
0.5
 40
0.5
 40
0.625
 40
0.625
 40
0.75
 40
0.75
 40
0.875
 40
0.875
 40
1.0
 40
1.0
 40
1.0
 10
307.5611018718532
 20
352.9735688759313
 30
0.0
 10
306.0145914831008
 20
352.9733940465376
 30
0.0
 10
304.4977563509656
 20
352.9734376349294
 30
0.0
 10
302.9814554323713
 20
352.9734812079698
 30
0.0
 10
301.5520928158612
 20
352.9735222827158
 30
0.0
 10
300.123746509676
 20
352.9735633282567
 30
0.0
 10
298.8373490041843
 20
352.973600294699
 30
0.0
 10
297.551866157431
 20
352.9736372348573
 30
0.0
 10
296.4578857781847
 20
352.9736686719228
 30
0.0
 10
295.3646832447861
 20
352.9737000866357
 30
0.0
 10
294.5051750597763
 20
352.9737247858129
 30
0.0
 10
293.6462780052998
 20
352.9737494674282
 30
0.0
 10
293.0542834439804
 20
352.9737664792249
 30
0.0
 10
292.4627098045584
 20
352.9737834789258
 30
0.0
 10
292.1609864700594
 20
352.9737921493704
 30
0.0
 10
291.8594776678943
 20
352.97380081365
 30
0.0
 10
291.8596286005073
 20
352.9735689185852
 30
0.0
  0
LINE
  5
1BD
330
131
100
AcDbEntity
  8
DV2_Default
  6
Continuous
 62
     7
100
AcDbLine
 10
307.5611018719
 20
352.9735688759
 30
0.0
 11
307.5611440836
 21
353.2735688752
 31
0.0
  0
LINE
  5
1BE
330
131
100
AcDbEntity
  8
DV2_Default
  6
Continuous
 62
     7
100
AcDbLine
 10
307.5611439166
 20
353.2733370276
 30
0.0
 11
291.5596301165
 21
353.2733370275
 31
0.0
  0
ARC
  5
1BF
330
131
100
AcDbEntity
  8
DV2_Default
  6
Continuous
 62
     7
100
AcDbCircle
 10
291.8596306377
 20
353.2738007239
 30
0.0
 40
0.2999999999804953
100
AcDbArc
 50
180.04427963
 51
269.9996112198
  0
LINE
  5
1C0
330
131
100
AcDbEntity
  8
DV2_Default
  6
Continuous
 62
     7
100
AcDbLine
 10
307.5611442506
 20
353.273800724
 30
0.0
 11
323.5584059868
 21
353.2738007229
 31
0.0
  0
LINE
  5
1C1
330
131
100
AcDbEntity
  8
DV2_Default
  6
Continuous
 62
     7
100
AcDbLine
 10
291.5596303787
 20
353.4736370588
 30
0.0
 11
291.5596304697
 21
353.2735688759
 31
0.0
  0
LINE
  5
1C2
330
131
100
AcDbEntity
  8
DV2_Default
  6
Continuous
 62
     7
100
AcDbLine
 10
323.5584059415
 20
353.4730586213
 30
0.0
 11
323.5584059415
 21
363.609538435
 31
0.0
  0
ARC
  5
1C3
330
131
100
AcDbEntity
  8
DV2_Default
  6
Continuous
 62
     7
100
AcDbCircle
 10
298.6413866201
 20
377.4683646524
 30
0.0
 40
23.84499331513694
100
AcDbArc
 50
8.4515316958
 51
43.8080464429
  0
ARC
  5
1C4
330
131
100
AcDbEntity
  8
DV2_Default
  6
Continuous
 62
     7
100
AcDbCircle
 10
238.4472607641
 20
365.8181534649
 30
0.0
 40
85.1397968842856
100
AcDbArc
 50
358.5135210389
 51
10.2532124274
  0
SPLINE
  5
1C5
330
131
100
AcDbEntity
  8
DV2_Default
  6
Continuous
 62
     7
100
AcDbSpline
210
0.0
220
0.0
230
1.0
 70
     8
 71
     3
 72
     8
 73
     4
 74
     0
 42
0.0000010359504642
 43
0.0000000001
 40
0.0
 40
0.0
 40
0.0
 40
0.0
 40
1.0
 40
1.0
 40
1.0
 40
1.0
 10
287.5628401291048
 20
399.5925862947929
 30
0.0
 10
287.5628452271531
 20
399.5990032248158
 30
0.0
 10
287.5628508177812
 20
399.6022061752479
 30
0.0
 10
287.5628569485827
 20
399.602173664418
 30
0.0
  0
ARC
  5
1C6
330
131
100
AcDbEntity
  8
DV2_Default
  6
Continuous
 62
     7
100
AcDbCircle
 10
307.4072477067
 20
384.9064908633
 30
0.0
 40
12.38980041455184
100
AcDbArc
 50
47.0482567386
 51
50.9524811959
  0
ARC
  5
1C7
330
131
100
AcDbEntity
  8
DV2_Default
  6
Continuous
 62
     7
100
AcDbCircle
 10
315.0218149823
 20
394.295119363
 30
0.0
 40
0.3014609853328645
100
AcDbArc
 50
50.7907904245
 51
82.0910400222
  0
LINE
  5
1C8
330
131
100
AcDbEntity
  8
DV2_Default
  6
Continuous
 62
     7
100
AcDbLine
 10
287.5622177094
 20
367.613470374
 30
0.0
 11
195.5734902889
 21
367.6134703748
 31
0.0
  0
ARC
  5
1C9
330
131
100
AcDbEntity
  8
DV2_Default
  6
Continuous
 62
     7
100
AcDbCircle
 10
287.5639924651
 20
363.6101979147
 30
0.0
 40
4.010216716060895
100
AcDbArc
 50
359.9836141678
 51
90.0253603743
  0
ARC
  5
1CA
330
131
100
AcDbEntity
  8
DV2_Default
  6
Continuous
 62
     7
100
AcDbCircle
 10
323.2584059873
 20
353.273800724
 30
0.0
 40
0.3000000000000017
100
AcDbArc
 50
270.0
 51
359.9999997882
  0
LINE
  5
1CB
330
131
100
AcDbEntity
  8
DV2_Default
  6
Continuous
 62
     7
100
AcDbLine
 10
323.5584059877
 20
353.2738007229
 30
0.0
 11
323.5584059877
 21
353.4656203209
 31
0.0
  0
LINE
  5
1CC
330
131
100
AcDbEntity
  8
DV2_Default
  6
Continuous
 62
     7
100
AcDbLine
 10
291.5596299756
 20
363.6087908383
 30
0.0
 11
291.5596299756
 21
353.4809623835
 31
0.0
  0
ARC
  5
1CD
330
131
100
AcDbEntity
  8
DV2_Default
  6
Continuous
 62
     7
100
AcDbCircle
 10
289.760780911
 20
274.5031899539
 30
0.0
 40
125.1085040225115
100
AcDbArc
 50
85.2181439673
 51
91.0066495691
  0
ARC
  5
1CE
330
131
100
AcDbEntity
  8
DV2_Default
  6
Continuous
 62
     7
100
AcDbCircle
 10
309.2383745037
 20
387.0319040777
 30
0.0
 40
9.474677122707249
100
AcDbArc
 50
46.3945034394
 51
52.7671221747
  0
ARC
  5
1CF
330
131
100
AcDbEntity
  8
DV2_Default
  6
Continuous
 62
     7
100
AcDbCircle
 10
314.670509664
 20
393.4692258221
 30
0.0
 40
1.180607692187819
100
AcDbArc
 50
64.1720182838
 51
82.9660308549
  0
ARC
  5
1D0
330
131
100
AcDbEntity
  8
DV2_Default
  6
Continuous
 62
     7
100
AcDbCircle
 10
319.6672144268
 20
435.6703940007
 30
0.0
 40
41.32453891156231
100
AcDbArc
 50
242.1509879713
 51
263.442519629
  0
LINE
  5
1D1
330
131
100
AcDbEntity
  8
DV2_Default
  6
Continuous
 62
     7
100
AcDbLine
 10
300.3627387757
 20
399.1319931587
 30
0.0
 11
300.1901107768
 21
399.1762297713
 31
0.0
  0
ARC
  5
1D2
330
131
100
AcDbEntity
  8
DV2_Default
  6
Continuous
 62
     7
100
AcDbCircle
 10
314.6705482352
 20
393.4693128609
 30
0.0
 40
1.180508451040816
100
AcDbArc
 50
73.7407480188
 51
74.9679337835
  0
ARC
  5
1D3
330
131
100
AcDbEntity
  8
DV2_Default
  6
Continuous
 62
     7
100
AcDbCircle
 10
289.7607095808
 20
274.4969096369
 30
0.0
 40
125.114790967033
100
AcDbArc
 50
88.5625227498
 51
91.0065434486
  0
LINE
  5
1D4
330
131
100
AcDbEntity
  8
DV2_Default
  6
Continuous
 62
     7
100
AcDbLine
 10
287.5627873659
 20
399.6021738194
 30
0.0
 11
195.5728260244
 21
399.6021738194
 31
0.0
  0
ENDBLK
  5
1D6
330
131
100
AcDbEntity
  8
0
100
AcDbBlockEnd
  0
BLOCK
  5
251
330
1D7
100
AcDbEntity
  8
0
100
AcDbBlockBegin
  2
SE2
 70
     0
 10
0.0
 20
0.0
 30
0.0
  3
SE2
  1

  0
ARC
  5
1DA
330
1D7
100
AcDbEntity
  8
DV3_Default
  6
Continuous
 62
     7
100
AcDbCircle
 10
46.3497854845
 20
383.6021738185
 30
0.0
 40
17.21362576908319
100
AcDbArc
 50
110.397318922
 51
201.6260836809
  0
ARC
  5
1DB
330
1D7
100
AcDbEntity
  8
DV3_Default
  6
Continuous
 62
     7
100
AcDbCircle
 10
46.3574760809
 20
383.6021738096
 30
0.0
 40
31.13560838278177
100
AcDbArc
 50
107.120573142
 51
239.0285753536
  0
SPLINE
  5
1DC
330
1D7
100
AcDbEntity
  8
DV3_Default
  6
Continuous
 62
     7
100
AcDbSpline
210
0.0
220
0.0
230
1.0
 70
     8
 71
     3
 72
     8
 73
     4
 74
     0
 42
0.0000000148397538
 43
0.0000000001
 40
0.0
 40
0.0
 40
0.0
 40
0.0
 40
1.0
 40
1.0
 40
1.0
 40
1.0
 10
36.84556422813294
 20
352.760791500047
 30
0.0
 10
36.63110157694165
 20
352.8275148155407
 30
0.0
 10
36.41730206028616
 20
352.8964259397733
 30
0.0
 10
36.20421189547916
 20
352.9675057289061
 30
0.0
  0
SPLINE
  5
1DD
330
1D7
100
AcDbEntity
  8
DV3_Default
  6
Continuous
 62
     7
100
AcDbSpline
210
0.0
220
0.0
230
1.0
 70
     8
 71
     3
 72
    11
 73
     7
 74
     0
 42
0.0000000001263744
 43
0.0000000001
 40
0.0
 40
0.0
 40
0.0
 40
0.0
 40
0.1144390489083475
 40
0.4515728559824335
 40
0.7887066630565197
 40
1.0
 40
1.0
 40
1.0
 40
1.0
 10
30.34042145786731
 20
355.5767168894999
 30
0.0
 10
27.84210405834917
 20
356.9925349510572
 30
0.0
 10
18.72611209688448
 20
363.8610488343066
 30
0.0
 10
10.54907039206866
 20
383.602173818153
 30
0.0
 10
19.73026432438764
 20
405.7675367283156
 30
0.0
 10
31.95652434781031
 20
412.9541727034294
 30
0.0
 10
37.02932429438432
 20
414.5001423272328
 30
0.0
  0
ARC
  5
1DE
330
1D7
100
AcDbEntity
  8
DV3_Default
  6
Continuous
 62
     7
100
AcDbCircle
 10
46.351166017
 20
383.6021738178
 30
0.0
 40
37.07055488301062
100
AcDbArc
 50
105.668882667
 51
269.9982796174
  0
LINE
  5
1DF
330
1D7
100
AcDbEntity
  8
DV3_Default
  6
Continuous
 62
     7
100
AcDbLine
 10
46.3500529239
 20
346.5316189515
 30
0.0
 11
46.3500529239
 21
349.9833585622
 31
0.0
  0
ARC
  5
1E0
330
1D7
100
AcDbEntity
  8
DV3_Default
  6
Continuous
 62
     7
100
AcDbCircle
 10
46.3489398258
 20
383.6021738185
 30
0.0
 40
37.0705548837396
100
AcDbArc
 50
270.0017203903
 51
74.3301790808
  0
SPLINE
  5
1E1
330
1D7
100
AcDbEntity
  8
DV3_Default
  6
Continuous
 62
     7
100
AcDbSpline
210
0.0
220
0.0
230
1.0
 70
     8
 71
     3
 72
    11
 73
     7
 74
     0
 42
0.0000000001263793
 43
0.0000000001
 40
0.0
 40
0.0
 40
0.0
 40
0.0
 40
0.2113014199248982
 40
0.5484481175316515
 40
0.8855948151384048
 40
1.0
 40
1.0
 40
1.0
 40
1.0
 10
55.67078126229211
 20
414.5001424159701
 30
0.0
 10
60.74358131977576
 20
412.9541728093842
 30
0.0
 10
72.96984148152784
 20
405.7675368295077
 30
0.0
 10
82.15103545575312
 20
383.6021738181533
 30
0.0
 10
73.97439019193817
 20
363.8620059275416
 30
0.0
 10
64.85954560361975
 20
356.9936982053869
 30
0.0
 10
62.3621886623153
 20
355.5781362267926
 30
0.0
  0
SPLINE
  5
1E2
330
1D7
100
AcDbEntity
  8
DV3_Default
  6
Continuous
 62
     7
100
AcDbSpline
210
0.0
220
0.0
230
1.0
 70
     8
 71
     3
 72
     8
 73
     4
 74
     0
 42
0.0000000148397823
 43
0.0000000001
 40
0.0
 40
0.0
 40
0.0
 40
0.0
 40
1.0
 40
1.0
 40
1.0
 40
1.0
 10
56.49589265910203
 20
352.9675052975247
 30
0.0
 10
56.28280290009634
 20
352.8964256534856
 30
0.0
 10
56.06900379205648
 20
352.8275146660669
 30
0.0
 10
55.85454155202924
 20
352.7607914789976
 30
0.0
  0
ARC
  5
1E3
330
1D7
100
AcDbEntity
  8
DV3_Default
  6
Continuous
 62
     7
100
AcDbCircle
 10
46.3426461594
 20
383.6021738303
 30
0.0
 40
31.135608399535
100
AcDbArc
 50
300.9699083472
 51
72.8806801787
  0
ARC
  5
1E4
330
1D7
100
AcDbEntity
  8
DV3_Default
  6
Continuous
 62
     7
100
AcDbCircle
 10
46.3503207311
 20
383.6021738183
 30
0.0
 40
17.21362576887304
100
AcDbArc
 50
338.4073868373
 51
69.5953990443
  0
ARC
  5
1E5
330
1D7
100
AcDbEntity
  8
DV3_Default
  6
Continuous
 62
     7
100
AcDbCircle
 10
46.3500251234
 20
383.6021738181
 30
0.0
 40
40.00007694249466
100
AcDbArc
 50
270.0000398213
 51
74.5821665818
  0
ARC
  5
1E6
330
1D7
100
AcDbEntity
  8
DV3_Default
  6
Continuous
 62
     7
100
AcDbCircle
 10
46.3500807245
 20
383.6021738181
 30
0.0
 40
40.00007694249466
100
AcDbArc
 50
105.4176656029
 51
269.9999601788
  0
LINE
  5
1E7
330
1D7
100
AcDbEntity
  8
DV3_Default
  6
Continuous
 62
     7
100
AcDbLine
 10
46.3500529239
 20
343.6020968757
 30
0.0
 11
46.3500529239
 21
346.4150253442
 31
0.0
  0
ARC
  5
1E8
330
1D7
100
AcDbEntity
  8
DV3_Default
  6
Continuous
 62
     7
100
AcDbCircle
 10
46.3506403797
 20
383.6021738182
 30
0.0
 40
37.1871484785701
100
AcDbArc
 50
105.6380810026
 51
269.9990948825
  0
ARC
  5
1E9
330
1D7
100
AcDbEntity
  8
DV3_Default
  6
Continuous
 62
     7
100
AcDbCircle
 10
46.3494654681
 20
383.6021738182
 30
0.0
 40
37.1871484785701
100
AcDbArc
 50
270.0009051175
 51
74.3666772954
  0
LINE
  5
1EA
330
1D7
100
AcDbEntity
  8
DV3_Default
  6
Continuous
 62
     7
100
AcDbLine
 10
46.3500529239
 20
346.4150253442
 30
0.0
 11
46.3500529239
 21
346.5316189515
 31
0.0
  0
LINE
  5
1EB
330
1D7
100
AcDbEntity
  8
DV3_Default
  6
Continuous
 62
     7
100
AcDbLine
 10
51.9231044704
 20
405.9036532175
 30
0.0
 11
51.8500529491
 21
405.8392154809
 31
0.0
  0
SPLINE
  5
1EC
330
1D7
100
AcDbEntity
  8
DV3_Default
  6
Continuous
 62
     7
100
AcDbSpline
210
0.0
220
0.0
230
1.0
 70
    24
 71
     3
 72
     8
 73
     4
 74
     0
 42
0.0000001489276218
 43
0.0000000001
 40
0.0
 40
0.0
 40
0.0
 40
0.0
 40
1.0
 40
1.0
 40
1.0
 40
1.0
 10
40.78568475043985
 20
405.9036532175277
 30
0.0
 10
40.80714163625345
 20
405.9100226651368
 30
0.0
 10
40.82859845193358
 20
405.9163920919268
 30
0.0
 10
40.85005519738891
 20
405.9227614978707
 30
0.0
  0
SPLINE
  5
1ED
330
1D7
100
AcDbEntity
  8
DV3_Default
  6
Continuous
 62
     7
100
AcDbSpline
210
0.0
220
0.0
230
1.0
 70
    24
 71
     3
 72
     8
 73
     4
 74
     0
 42
0.0000001302804202
 43
0.0000000001
 40
0.0
 40
0.0
 40
0.0
 40
0.0
 40
1.0
 40
1.0
 40
1.0
 40
1.0
 10
51.8495205998955
 20
405.9254964902363
 30
0.0
 10
51.87404847478142
 20
405.9182154236638
 30
0.0
 10
51.89857643166983
 20
405.910934332749
 30
0.0
 10
51.92310447043986
 20
405.9036532175277
 30
0.0
  0
LINE
  5
1EE
330
1D7
100
AcDbEntity
  8
DV3_Default
  6
Continuous
 62
     7
100
AcDbLine
 10
40.8500529491
 20
405.8468749197
 30
0.0
 11
40.7856847504
 21
405.9036532175
 31
0.0
  0
ARC
  5
1EF
330
1D7
100
AcDbEntity
  8
DV3_Default
  6
Continuous
 62
     7
100
AcDbCircle
 10
46.3461320589
 20
383.6009774594
 30
0.0
 40
16.11804395827678
100
AcDbArc
 50
111.8262914354
 51
187.1100254622
  0
ARC
  5
1F0
330
1D7
100
AcDbEntity
  8
DV3_Default
  6
Continuous
 62
     7
100
AcDbCircle
 10
46.3539776628
 20
383.6033720649
 30
0.0
 40
16.11803155350265
100
AcDbArc
 50
352.6659168119
 51
68.1538041675
  0
LINE
  5
1F1
330
1D7
100
AcDbEntity
  8
DV3_Default
  6
Continuous
 62
     7
100
AcDbLine
 10
36.8500529491
 20
350.6737360037
 30
0.0
 11
36.8500529491
 21
349.9737360037
 31
0.0
  0
LINE
  5
1F2
330
1D7
100
AcDbEntity
  8
DV3_Default
  6
Continuous
 62
     7
100
AcDbLine
 10
36.8500529491
 20
352.4737360037
 30
0.0
 11
36.8500529491
 21
350.6737360037
 31
0.0
  0
LINE
  5
1F3
330
1D7
100
AcDbEntity
  8
DV3_Default
  6
Continuous
 62
     7
100
AcDbLine
 10
36.8500529491
 20
352.4737360037
 30
0.0
 11
36.8500529491
 21
352.9737360037
 31
0.0
  0
LINE
  5
1F4
330
1D7
100
AcDbEntity
  8
DV3_Default
  6
Continuous
 62
     7
100
AcDbLine
 10
55.8500529491
 20
352.9737360037
 30
0.0
 11
55.8500529491
 21
352.4737360037
 31
0.0
  0
LINE
  5
1F5
330
1D7
100
AcDbEntity
  8
DV3_Default
  6
Continuous
 62
     7
100
AcDbLine
 10
55.8500529491
 20
352.4737360037
 30
0.0
 11
36.8500529491
 21
352.4737360037
 31
0.0
  0
LINE
  5
1F6
330
1D7
100
AcDbEntity
  8
DV3_Default
  6
Continuous
 62
     7
100
AcDbLine
 10
36.8500529491
 20
350.6737360037
 30
0.0
 11
55.8500529491
 21
350.6737360037
 31
0.0
  0
LINE
  5
1F7
330
1D7
100
AcDbEntity
  8
DV3_Default
  6
Continuous
 62
     7
100
AcDbLine
 10
55.8500529491
 20
352.4737360037
 30
0.0
 11
55.8500529491
 21
350.6737360037
 31
0.0
  0
LINE
  5
1F8
330
1D7
100
AcDbEntity
  8
DV3_Default
  6
Continuous
 62
     7
100
AcDbLine
 10
55.8500529491
 20
349.9737360037
 30
0.0
 11
55.8500529491
 21
350.6737360037
 31
0.0
  0
LINE
  5
1F9
330
1D7
100
AcDbEntity
  8
DV3_Default
  6
Continuous
 62
     7
100
AcDbLine
 10
36.8500529491
 20
349.9737360037
 30
0.0
 11
55.8500529491
 21
349.9737360037
 31
0.0
  0
SPLINE
  5
1FA
330
1D7
100
AcDbEntity
  8
DV3_Default
  6
Continuous
 62
     7
100
AcDbSpline
210
0.0
220
0.0
230
1.0
 70
     8
 71
     3
 72
    22
 73
    18
 74
     0
 42
0.0000000013892832
 43
0.0000000001
 40
0.0
 40
0.0
 40
0.0
 40
0.0
 40
0.0362576540839159
 40
0.0803623455319499
 40
0.1577530779694796
 40
0.2505044249067719
 40
0.342461261729878
 40
0.4082705566835484
 40
0.4848099896005326
 40
0.576505328066891
 40
0.6290802241012744
 40
0.6856361088540507
 40
0.7523870318544943
 40
0.8014500140634412
 40
0.9048740489587318
 40
0.9914107523481646
 40
1.0
 40
1.0
 40
1.0
 40
1.0
 10
46.35064095288742
 20
406.4805972837031
 30
0.0
 10
46.4869375660355
 20
406.4808405404189
 30
0.0
 10
46.78902869045235
 20
406.4813803407883
 30
0.0
 10
47.37994935390877
 20
406.4834172737879
 30
0.0
 10
48.17350309846075
 20
406.4866108128072
 30
0.0
 10
49.11227570109015
 20
406.4890611870536
 30
0.0
 10
49.95675851815646
 20
406.4886298211982
 30
0.0
 10
50.68978606167963
 20
406.4871202651552
 30
0.0
 10
51.36344776446482
 20
406.4857809538995
 30
0.0
 10
51.92512164381635
 20
406.4876071497422
 30
0.0
 10
52.36848660768393
 20
406.4898427245132
 30
0.0
 10
52.71042357676208
 20
406.4925129012566
 30
0.0
 10
52.98963602465969
 20
406.4935893805179
 30
0.0
 10
53.2743111458981
 20
406.4926621236244
 30
0.0
 10
53.48237485517885
 20
406.4907020298505
 30
0.0
 10
53.5447807620377
 20
406.488968015022
 30
0.0
 10
53.54840964758618
 20
406.4888684523833
 30
0.0
 10
53.54852315566643
 20
406.4888651477816
 30
0.0
  0
SPLINE
  5
1FB
330
1D7
100
AcDbEntity
  8
DV3_Default
  6
Continuous
 62
     7
100
AcDbSpline
210
0.0
220
0.0
230
1.0
 70
     8
 71
     3
 72
     8
 73
     4
 74
     0
 42
0.00001
 43
0.0000000001
 40
0.0
 40
0.0
 40
0.0
 40
0.0
 40
0.9999999999999999
 40
0.9999999999999999
 40
0.9999999999999999
 40
0.9999999999999999
 10
53.54852315566643
 20
406.4888651477816
 30
0.0
 10
53.54858155734237
 20
406.4888634475126
 30
0.0
 10
53.54858326618657
 20
406.4888632522785
 30
0.0
 10
53.54852828495564
 20
406.4888645244554
 30
0.0
  0
SPLINE
  5
1FC
330
1D7
100
AcDbEntity
  8
DV3_Default
  6
Continuous
 62
     7
100
AcDbSpline
210
0.0
220
0.0
230
1.0
 70
     8
 71
     3
 72
    18
 73
    14
 74
     0
 42
0.0000000011964881
 43
0.0000000001
 40
0.0
 40
0.0
 40
0.0
 40
0.0
 40
0.1025321062456079
 40
0.1025321062456079
 40
0.3268990796842058
 40
0.3268990796842058
 40
0.4390825664035048
 40
0.4390825664035048
 40
0.5512660531228037
 40
0.5512660531228037
 40
0.7756330265614018
 40
0.7756330265614018
 40
1.0
 40
1.0
 40
1.0
 40
1.0
 10
54.73251377415697
 20
408.0387743142629
 30
0.0
 10
54.73283200732165
 20
408.0387421012967
 30
0.0
 10
54.69621960938656
 20
408.0386907216309
 30
0.0
 10
54.46202758879237
 20
408.0385335990358
 30
0.0
 10
54.13108256389441
 20
408.0382678665656
 30
0.0
 10
53.41933535536141
 20
408.0374142469903
 30
0.0
 10
53.14742469443044
 20
408.0370611121824
 30
0.0
 10
52.52174059980124
 20
408.0362472948875
 30
0.0
 10
52.16519274052785
 20
408.0357826437308
 30
0.0
 10
51.03437742485364
 20
408.0345622690198
 30
0.0
 10
50.17756471488349
 20
408.0337980955019
 30
0.0
 10
48.35021850938446
 20
408.0318472121335
 30
0.0
 10
47.36479809544021
 20
408.0306206573318
 30
0.0
 10
46.37536379937374
 20
408.0294242812731
 30
0.0
  0
ARC
  5
1FD
330
1D7
100
AcDbEntity
  8
DV3_Default
  6
Continuous
 62
     7
100
AcDbCircle
 10
45.4140600096
 20
-104.0732893503
 30
0.0
 40
512.103615896037
100
AcDbArc
 50
89.8924462147
 51
90.1933862295
  0
ARC
  5
1FE
330
1D7
100
AcDbEntity
  8
DV3_Default
  6
Continuous
 62
     7
100
AcDbCircle
 10
45.5641738696
 20
838.7428824639
 30
0.0
 40
432.2630006369999
100
AcDbArc
 50
269.801007055
 51
270.10424503
  0
ELLIPSE
  5
1FF
330
1D7
100
AcDbEntity
  8
DV3_Default
  6
Continuous
 62
     7
100
AcDbEllipse
 10
44.1268954155
 20
406.9399896751
 30
0.0
 11
0.0
 21
0.4619560619980403
 31
0.0
210
0.0
220
0.0
230
1.0
 40
1.0
 41
3.002594852763775
 42
3.145859549487094
  0
LINE
  5
200
330
1D7
100
AcDbEntity
  8
DV3_Default
  6
Continuous
 62
     7
100
AcDbLine
 10
46.3506935687
 20
406.4393249503
 30
0.0
 11
46.3506407662
 21
406.4805971286
 31
0.0
  0
SPLINE
  5
201
330
1D7
100
AcDbEntity
  8
DV3_Default
  6
Continuous
 62
     7
100
AcDbSpline
210
0.0
220
0.0
230
1.0
 70
     8
 71
     3
 72
    16
 73
    12
 74
     0
 42
0.0000000017495259
 43
0.0000000001
 40
0.0
 40
0.0
 40
0.0
 40
0.0
 40
0.2821074889852587
 40
0.2821074889852587
 40
0.423161233477888
 40
0.423161233477888
 40
0.5642149779705173
 40
0.5642149779705173
 40
0.8463224669557756
 40
0.8463224669557756
 40
1.0
 40
1.0
 40
1.0
 40
1.0
 10
43.68559763028241
 20
408.0274095670131
 30
0.0
 10
42.75463510772055
 20
408.0264978358874
 30
0.0
 10
41.88830931424065
 20
408.0255448236804
 30
0.0
 10
40.72957008854434
 20
408.0241336130367
 30
0.0
 10
40.36084670322708
 20
408.0236604230126
 30
0.0
 10
39.71308248251611
 20
408.0229675557961
 30
0.0
 10
39.4276004302578
 20
408.0227112407851
 30
0.0
 10
38.67396571254825
 20
408.0220413905594
 30
0.0
 10
38.31926789962093
 20
408.0217012959299
 30
0.0
 10
38.0226109401211
 20
408.0212613848834
 30
0.0
 10
37.96986876509726
 20
408.0211518902324
 30
0.0
 10
37.96977040032643
 20
408.0211254170371
 30
0.0
  0
SPLINE
  5
202
330
1D7
100
AcDbEntity
  8
DV3_Default
  6
Continuous
 62
     7
100
AcDbSpline
210
0.0
220
0.0
230
1.0
 70
     8
 71
     3
 72
    19
 73
    15
 74
     0
 42
0.0000000020357256
 43
0.0000000001
 40
0.0
 40
0.0
 40
0.0
 40
0.0
 40
0.0536587025489514
 40
0.1175294790729106
 40
0.1828950613536886
 40
0.3030696852005099
 40
0.4019058053450169
 40
0.4845321874143897
 40
0.5552364177792004
 40
0.6705266594225142
 40
0.7835129962484795
 40
0.8959106836739679
 40
0.9451249413055383
 40
0.9999999999999999
 40
0.9999999999999999
 40
0.9999999999999999
 40
0.9999999999999999
 10
39.15070387352723
 20
406.4724239689868
 30
0.0
 10
39.15149267571164
 20
406.4724483649841
 30
0.0
 10
39.16476825777318
 20
406.4727795951085
 30
0.0
 10
39.22491576767854
 20
406.4741275806892
 30
0.0
 10
39.36512632259984
 20
406.4764782748366
 30
0.0
 10
39.62168499885873
 20
406.4780022446533
 30
0.0
 10
40.00844039181288
 20
406.4777023555786
 30
0.0
 10
40.40669149529388
 20
406.4762243198766
 30
0.0
 10
40.89353877210264
 20
406.474453201111
 30
0.0
 10
41.51411202956487
 20
406.4749540813195
 30
0.0
 10
42.31643114032971
 20
406.478181668695
 30
0.0
 10
43.0280140090909
 20
406.4815779963986
 30
0.0
 10
43.61633796236256
 20
406.4824580490434
 30
0.0
 10
43.908739980468
 20
406.4824781750433
 30
0.0
 10
44.0628920074334
 20
406.4824888671131
 30
0.0
  0
ARC
  5
203
330
1D7
100
AcDbEntity
  8
DV3_Default
  6
Continuous
 62
     7
100
AcDbCircle
 10
51.6177399437
 20
-2685.7910185092
 30
0.0
 40
3111.372706626555
100
AcDbArc
 50
89.8665506616
 51
90.096567328
  0
SPLINE
  5
204
330
1D7
100
AcDbEntity
  8
DV3_Default
  6
Continuous
 62
     7
100
AcDbSpline
210
0.0
220
0.0
230
1.0
 70
    12
 71
     3
 72
     8
 73
     4
 74
     0
 42
0.0000000076879018
 43
0.0000000001
 40
0.0
 40
0.0
 40
0.0
 40
0.0
 40
1.0
 40
1.0
 40
1.0
 40
1.0
 10
58.8645259620064
 20
425.5732487589631
 30
0.0
 41
1.333392812166749
 10
59.16406325381927
 20
425.8868749233004
 30
0.0
 41
0.8884408859028683
 10
59.0417249637845
 20
426.302839899774
 30
0.0
 41
0.8888694750419682
 10
58.62037322548641
 20
426.4046458944532
 30
0.0
 41
1.334678579584051
  0
ARC
  5
205
330
1D7
100
AcDbEntity
  8
DV3_Default
  6
Continuous
 62
     7
100
AcDbCircle
 10
52.138091547
 20
-557.4796473436
 30
0.0
 40
983.9056471310504
100
AcDbArc
 50
89.6225145472
 51
90.3356895491
  0
ARC
  5
206
330
1D7
100
AcDbEntity
  8
DV3_Default
  6
Continuous
 62
     7
100
AcDbCircle
 10
38.9002308522
 20
-3211.3753943873
 30
0.0
 40
3637.792183569547
100
AcDbArc
 50
89.8822942945
 51
90.0760428749
  0
SPLINE
  5
207
330
1D7
100
AcDbEntity
  8
DV3_Default
  6
Continuous
 62
     7
100
AcDbSpline
210
0.0
220
0.0
230
1.0
 70
    12
 71
     3
 72
     8
 73
     4
 74
     0
 42
0.0000000076686236
 43
0.0000000001
 40
0.0
 40
0.0
 40
0.0
 40
0.0
 40
1.0
 40
1.0
 40
1.0
 40
1.0
 10
33.82784234703641
 20
425.5813329034631
 30
0.0
 41
1.335280233612191
 10
33.52703678905465
 20
425.8951316195938
 30
0.0
 41
0.8881743636901243
 10
33.64949522510604
 20
426.3121973366534
 30
0.0
 41
0.8882399317434445
 10
34.07215979748641
 20
426.4135852773932
 30
0.0
 41
1.335476937772152
  0
ARC
  5
208
330
1D7
100
AcDbEntity
  8
DV3_Default
  6
Continuous
 62
     7
100
AcDbCircle
 10
39.2018534618
 20
-2349.6389193862
 30
0.0
 40
2775.225455474613
100
AcDbArc
 50
89.8519321936
 51
90.1109489493
  0
SPLINE
  5
209
330
1D7
100
AcDbEntity
  8
DV3_Default
  6
Continuous
 62
     7
100
AcDbSpline
210
0.0
220
0.0
230
1.0
 70
    12
 71
     3
 72
     8
 73
     4
 74
     0
 42
0.0000000008093447
 43
0.0000000001
 40
0.0
 40
0.0
 40
0.0
 40
0.0
 40
1.0
 40
1.0
 40
1.0
 40
1.0
 10
34.07215979748641
 20
426.4135852773932
 30
0.0
 41
1.0
 10
37.05527130503241
 20
427.1287398420031
 30
0.0
 41
1.0
 10
41.1404473489544
 20
427.4863203434731
 30
0.0
 41
1.0
 10
46.32768947344193
 20
427.4863203434631
 30
0.0
 41
1.0
  0
SPLINE
  5
20A
330
1D7
100
AcDbEntity
  8
DV3_Default
  6
Continuous
 62
     7
100
AcDbSpline
210
0.0
220
0.0
230
1.0
 70
    12
 71
     3
 72
     8
 73
     4
 74
     0
 42
0.0000000008068194
 43
0.0000000001
 40
0.0
 40
0.0
 40
0.0
 40
0.0
 40
1.0
 40
1.0
 40
1.0
 40
1.0
 10
58.62037322548641
 20
426.4046458944532
 30
0.0
 41
1.0
 10
55.63406082985541
 20
427.1257600348831
 30
0.0
 41
1.0
 10
51.5365001007274
 20
427.4863203434531
 30
0.0
 41
1.0
 10
46.32768947344193
 20
427.4863203434631
 30
0.0
 41
1.0
  0
ARC
  5
20B
330
1D7
100
AcDbEntity
  8
DV3_Default
  6
Continuous
 62
     7
100
AcDbCircle
 10
52.7551955827
 20
408.3248196412
 30
0.0
 40
2.00003207536786
100
AcDbArc
 50
293.0271864313
 51
352.1214449724
  0
SPLINE
  5
20C
330
1D7
100
AcDbEntity
  8
DV3_Default
  6
Continuous
 62
     7
100
AcDbSpline
210
0.0
220
0.0
230
1.0
 70
     8
 71
     3
 72
     8
 73
     4
 74
     0
 42
0.0000000044476216
 43
0.0000000001
 40
0.0
 40
0.0
 40
0.0
 40
0.0
 40
1.0
 40
1.0
 40
1.0
 40
1.0
 10
44.11587934814643
 20
406.4400184759232
 30
0.0
 10
44.84491962933426
 20
406.4395144754462
 30
0.0
 10
45.59438379668236
 20
406.439299554559
 30
0.0
 10
46.36427185019073
 20
406.4393737132614
 30
0.0
  0
ARC
  5
20D
330
1D7
100
AcDbEntity
  8
DV3_Default
  6
Continuous
 62
     7
100
AcDbCircle
 10
50.4143379774
 20
-21.1810729477
 30
0.0
 40
427.6397351041709
100
AcDbArc
 50
89.6197128566
 51
90.5444610529
  0
ARC
  5
20E
330
1D7
100
AcDbEntity
  8
DV3_Default
  6
Continuous
 62
     7
100
AcDbCircle
 10
53.2941030669
 20
407.2326710119
 30
0.0
 40
0.7853952572928341
100
AcDbArc
 50
265.6240387432
 51
289.5251175679
  0
ARC
  5
20F
330
1D7
100
AcDbEntity
  8
DV3_Default
  6
Continuous
 62
     7
100
AcDbCircle
 10
39.9475697927
 20
408.3068042354
 30
0.0
 40
2.000035683107941
100
AcDbArc
 50
187.8734203975
 51
246.9911565162
  0
ARC
  5
210
330
1D7
100
AcDbEntity
  8
DV3_Default
  6
Continuous
 62
     7
100
AcDbCircle
 10
39.4096906435
 20
407.2394870247
 30
0.0
 40
0.8089258184563011
100
AcDbArc
 50
250.7429661727
 51
274.5411517929
  0
ARC
  5
211
330
1D7
100
AcDbEntity
  8
DV3_Default
  6
Continuous
 62
     7
100
AcDbCircle
 10
43.3177123293
 20
-16.3228784675
 30
0.0
 40
422.7732730510019
100
AcDbArc
 50
90.3363066016
 51
90.5232381261
  0
ARC
  5
212
330
1D7
100
AcDbEntity
  8
DV3_Default
  6
Continuous
 62
     7
100
AcDbCircle
 10
41.2117849434
 20
860.1545950089
 30
0.0
 40
453.7240797650973
100
AcDbArc
 50
269.7721808676
 51
270.3687567663
  0
LINE
  5
213
330
1D7
100
AcDbEntity
  8
DV3_Default
  6
Continuous
 62
     7
100
AcDbLine
 10
54.734428629
 20
408.036742096
 30
0.0
 11
56.3846649144
 21
419.4636675152
 31
0.0
  0
ARC
  5
214
330
1D7
100
AcDbEntity
  8
DV3_Default
  6
Continuous
 62
     7
100
AcDbCircle
 10
67.2839807425
 20
418.5868580501
 30
0.0
 40
10.93784272985178
100
AcDbArc
 50
140.1137048607
 51
175.670461241
  0
ARC
  5
215
330
1D7
100
AcDbEntity
  8
DV3_Default
  6
Continuous
 62
     7
100
AcDbCircle
 10
25.42483301
 20
418.5895102617
 30
0.0
 40
10.92896410860589
100
AcDbArc
 50
4.318767532
 51
39.9406777237
  0
LINE
  5
216
330
1D7
100
AcDbEntity
  8
DV3_Default
  6
Continuous
 62
     7
100
AcDbLine
 10
36.3154494182
 20
419.4636031095
 30
0.0
 11
37.9682216188
 21
408.0191200688
 31
0.0
  0
LINE
  5
217
330
1D7
100
AcDbEntity
  8
DV3_Default
  6
Continuous
 62
     7
100
AcDbLine
 10
40.8500358273
 20
404.4732550814
 30
0.0
 11
40.3500529491
 21
404.4732550814
 31
0.0
  0
LINE
  5
218
330
1D7
100
AcDbEntity
  8
DV3_Default
  6
Continuous
 62
     7
100
AcDbLine
 10
51.8500700709
 20
404.4732550814
 30
0.0
 11
52.3500529491
 21
404.4732550814
 31
0.0
  0
LINE
  5
219
330
1D7
100
AcDbEntity
  8
DV3_Default
  6
Continuous
 62
     7
100
AcDbLine
 10
51.8500529491
 20
406.4470221787
 30
0.0
 11
51.8500529491
 21
404.4732550814
 31
0.0
  0
LINE
  5
21A
330
1D7
100
AcDbEntity
  8
DV3_Default
  6
Continuous
 62
     7
100
AcDbLine
 10
40.8500529491
 20
404.4732550814
 30
0.0
 11
40.8500529491
 21
406.4346906445
 31
0.0
  0
LINE
  5
21B
330
1D7
100
AcDbEntity
  8
DV3_Default
  6
Continuous
 62
     7
100
AcDbLine
 10
52.3500529491
 20
395.1833438549
 30
0.0
 11
52.3500529491
 21
404.4732550814
 31
0.0
  0
LINE
  5
21C
330
1D7
100
AcDbEntity
  8
DV3_Default
  6
Continuous
 62
     7
100
AcDbLine
 10
40.3500529491
 20
404.4732550814
 30
0.0
 11
40.3500529491
 21
395.1842697
 31
0.0
  0
ARC
  5
21D
330
1D7
100
AcDbEntity
  8
DV3_Default
  6
Continuous
 62
     7
100
AcDbCircle
 10
46.3500529239
 20
383.6021738182
 30
0.0
 40
16.0
100
AcDbArc
 50
0.0
 51
6.7017637566
  0
ARC
  5
21E
330
1D7
100
AcDbEntity
  8
DV3_Default
  6
Continuous
 62
     7
100
AcDbCircle
 10
46.3500529239
 20
383.6021738182
 30
0.0
 40
16.0
100
AcDbArc
 50
181.6701069543
 51
182.5251845482
  0
ARC
  5
21F
330
1D7
100
AcDbEntity
  8
DV3_Default
  6
Continuous
 62
     7
100
AcDbCircle
 10
46.3500529239
 20
383.6021738182
 30
0.0
 40
16.0
100
AcDbArc
 50
358.3520067453
 51
358.9120770189
  0
ELLIPSE
  5
220
330
1D7
100
AcDbEntity
  8
DV3_Default
  6
Continuous
 62
     7
100
AcDbEllipse
 10
46.3500529491
 20
352.9733492675
 30
0.0
 11
-14.45847126699
 21
0.0
 31
0.0
210
0.0
220
0.0
230
1.0
 40
0.0000287364
 41
3.14162141527057
 42
3.993999439095305
  0
ELLIPSE
  5
221
330
1D7
100
AcDbEntity
  8
DV3_Default
  6
Continuous
 62
     7
100
AcDbEllipse
 10
46.3500529491
 20
352.9733492675
 30
0.0
 11
-14.45847126699
 21
0.0
 31
0.0
210
0.0
220
0.0
230
1.0
 40
0.0000287364
 41
5.431052565604398
 42
6.28315654552197
  0
SPLINE
  5
222
330
1D7
100
AcDbEntity
  8
DV3_Default
  6
Continuous
 62
     7
100
AcDbSpline
210
0.0
220
0.0
230
1.0
 70
     8
 71
     2
 72
    44
 73
    41
 74
     0
 42
0.0000000003184563
 43
0.0000000001
 40
0.0
 40
0.0
 40
0.0
 40
0.0625877356348719
 40
0.0625877356348719
 40
0.1094583488531283
 40
0.1094583488531283
 40
0.1563289620713847
 40
0.1563289620713847
 40
0.2031995752896411
 40
0.2031995752896411
 40
0.2500701885078975
 40
0.2500701885078975
 40
0.2969408017261539
 40
0.2969408017261539
 40
0.3438114149444103
 40
0.3438114149444103
 40
0.3906820281626667
 40
0.3906820281626667
 40
0.4375526413809231
 40
0.4375526413809231
 40
0.4844232545991796
 40
0.4844232545991796
 40
0.5312938678174359
 40
0.5312938678174359
 40
0.5781644810356924
 40
0.5781644810356924
 40
0.6250350942539488
 40
0.6250350942539488
 40
0.6719057074722051
 40
0.6719057074722051
 40
0.7187763206904616
 40
0.7187763206904616
 40
0.765646933908718
 40
0.765646933908718
 40
0.8125175471269743
 40
0.8125175471269743
 40
0.8593881603452308
 40
0.8593881603452308
 40
0.9062587735634872
 40
0.9062587735634872
 40
1.0
 40
1.0
 40
1.0
 10
62.04892591102205
 20
352.9733496651169
 30
0.0
 10
62.04964627091117
 20
352.9733054208176
 30
0.0
 10
61.74611968953926
 20
352.9732615932636
 30
0.0
 10
61.52020992528931
 20
352.9732289731472
 30
0.0
 10
61.12983385893641
 20
352.9731976292047
 30
0.0
 10
60.73982260900997
 20
352.9731663145538
 30
0.0
 10
60.19364050581151
 20
352.9731369556779
 30
0.0
 10
59.64796882383783
 20
352.9731076242387
 30
0.0
 10
58.95780175917233
 20
352.9730808858467
 30
0.0
 10
58.26827967345355
 20
352.9730541724425
 30
0.0
 10
57.44906500409022
 20
352.9730306332361
 30
0.0
 10
56.63061591201983
 20
352.9730071160279
 30
0.0
 10
55.7000839852945
 20
352.9729872854688
 30
0.0
 10
54.77042166465794
 20
352.9729674734418
 30
0.0
 10
53.74871207881778
 20
352.9729517807247
 30
0.0
 10
52.7279573069526
 20
352.9729361026727
 30
0.0
 10
51.637183027486
 20
352.9729248874366
 30
0.0
 10
50.54742810490446
 20
352.9729136826815
 30
0.0
 10
49.41119687167969
 20
352.972907187659
 30
0.0
 10
48.27602747607685
 20
352.9729006987062
 30
0.0
 10
47.11893085866084
 20
352.9728990644697
 30
0.0
 10
45.96291557802518
 20
352.9728974317604
 30
0.0
 10
44.80999673745644
 20
352.9729006936798
 30
0.0
 10
43.65815532945648
 20
352.972903952551
 30
0.0
 10
42.53436700667289
 20
352.9729120400283
 30
0.0
 10
41.41162889342858
 20
352.9729201199477
 30
0.0
 10
40.34129335457013
 20
352.9729328579448
 30
0.0
 10
39.27195807217865
 20
352.972945584038
 30
0.0
 10
38.27824069970817
 20
352.9729626968652
 30
0.0
 10
37.28545198164191
 20
352.9729797937
 30
0.0
 10
36.38985990283405
 20
352.9730009109825
 30
0.0
 10
35.49510477766593
 20
352.9730220085304
 30
0.0
 10
34.71702138371141
 20
352.9730466732247
 30
0.0
 10
33.93966512857391
 20
352.9730713148692
 30
0.0
 10
33.29593055842287
 20
352.9730989931548
 30
0.0
 10
32.65279757468471
 20
352.9731266455744
 30
0.0
 10
32.15734424182687
 20
352.9731567384074
 30
0.0
 10
31.66235392279001
 20
352.9731868031179
 30
0.0
 10
31.32590497465116
 20
352.9732186591958
 30
0.0
 10
30.64979969767456
 20
352.9732826750371
 30
0.0
 10
30.65066330142451
 20
352.9735688759313
 30
0.0
  0
ARC
  5
223
330
1D7
100
AcDbEntity
  8
DV3_Default
  6
Continuous
 62
     7
100
AcDbCircle
 10
30.6532338653
 20
353.2761376452
 30
0.0
 40
0.3025796885835415
100
AcDbArc
 50
180.4864221026
 51
269.5132381946
  0
LINE
  5
224
330
1D7
100
AcDbEntity
  8
DV3_Default
  6
Continuous
 62
     7
100
AcDbLine
 10
62.3481838161
 20
353.2738007251
 30
0.0
 11
30.3494081248
 21
353.2738007228
 31
0.0
  0
LINE
  5
225
330
1D7
100
AcDbEntity
  8
DV3_Default
  6
Continuous
 62
     7
100
AcDbLine
 10
46.3500409272
 20
353.273800724
 30
0.0
 11
46.3500410616
 21
363.609538435
 31
0.0
  0
LINE
  5
226
330
1D7
100
AcDbEntity
  8
DV3_Default
  6
Continuous
 62
     7
100
AcDbLine
 10
30.3519220376
 20
353.2735688741
 30
0.0
 11
30.3519223774
 21
363.609313066
 31
0.0
  0
SPLINE
  5
227
330
1D7
100
AcDbEntity
  8
DV3_Default
  6
Continuous
 62
     7
100
AcDbSpline
210
0.0
220
0.0
230
1.0
 70
     8
 71
     3
 72
    26
 73
    22
 74
     0
 42
0.0000000011269974
 43
0.0000000001
 40
0.0
 40
0.0
 40
0.0
 40
0.0
 40
0.0497159516029765
 40
0.0995238947936912
 40
0.149291287460031
 40
0.1990198450455389
 40
0.2487124918434633
 40
0.2983728431823386
 40
0.3480049927993972
 40
0.3976135877130276
 40
0.4472032875039474
 40
0.4967783148460698
 40
0.5463413864574668
 40
0.5958947900364077
 40
0.645440843596208
 40
0.6949821020186432
 40
0.7445211245772512
 40
0.7940604222212232
 40
0.8436024454600513
 40
0.8931496212117845
 40
1.0
 40
1.0
 40
1.0
 40
1.0
 10
62.35075534277763
 20
363.6094955199704
 30
0.0
 10
62.35027861518539
 20
363.7630632216619
 30
0.0
 10
62.35022698053056
 20
364.0680010461372
 30
0.0
 10
62.35010340599615
 20
364.5251835382538
 30
0.0
 10
62.34999056686111
 20
364.9819269364673
 30
0.0
 10
62.34991796600468
 20
365.4376128769032
 30
0.0
 10
62.34987155228877
 20
365.8920313366754
 30
0.0
 10
62.34983527670837
 20
366.3449754893475
 30
0.0
 10
62.34979361984625
 20
366.7962399298905
 30
0.0
 10
62.34975022832906
 20
367.2456311276812
 30
0.0
 10
62.34970879215437
 20
367.6929573939361
 30
0.0
 10
62.34967299074651
 20
368.1380218494299
 30
0.0
 10
62.34964051985276
 20
368.5806227667438
 30
0.0
 10
62.34960907413787
 20
369.0205533579338
 30
0.0
 10
62.34957634852532
 20
369.4576066438611
 30
0.0
 10
62.34954298881009
 20
369.8915803306318
 30
0.0
 10
62.34950964091718
 20
370.3222739576336
 30
0.0
 10
62.3494769509727
 20
370.7494851265575
 30
0.0
 10
62.3494450342114
 20
371.1730204741478
 30
0.0
 10
62.34940204870247
 20
371.7544117608386
 30
0.0
 10
62.34937107308416
 20
372.1891661215903
 30
0.0
 10
62.34935137023308
 20
372.482629859622
 30
0.0
  0
SPLINE
  5
228
330
1D7
100
AcDbEntity
  8
DV3_Default
  6
Continuous
 62
     7
100
AcDbSpline
210
0.0
220
0.0
230
1.0
 70
     8
 71
     3
 72
    10
 73
     6
 74
     0
 42
0.0000000055805157
 43
0.0000000001
 40
0.0
 40
0.0
 40
0.0
 40
0.0
 40
0.3463868751589474
 40
0.6879744236137211
 40
1.0
 40
1.0
 40
1.0
 40
1.0
 10
62.34920603466425
 20
376.4554381728471
 30
0.0
 10
62.34920694970056
 20
376.6742555628671
 30
0.0
 10
62.34921246305408
 20
377.1009415039836
 30
0.0
 10
62.34923118258055
 20
377.6991570122624
 30
0.0
 10
62.34925251142493
 20
378.0707529110265
 30
0.0
 10
62.34926171221591
 20
378.2473872713051
 30
0.0
  0
SPLINE
  5
229
330
1D7
100
AcDbEntity
  8
DV3_Default
  6
Continuous
 62
     7
100
AcDbSpline
210
0.0
220
0.0
230
1.0
 70
     8
 71
     3
 72
     8
 73
     4
 74
     0
 42
0.0000000189334164
 43
0.0000000001
 40
0.0
 40
0.0
 40
0.0
 40
0.0
 40
1.0
 40
1.0
 40
1.0
 40
1.0
 10
62.34926171221591
 20
378.2473872713051
 30
0.0
 10
62.34944608476301
 20
378.4233380435255
 30
0.0
 10
62.34949551061755
 20
378.5994119100911
 30
0.0
 10
62.34946413341957
 20
378.7755538630488
 30
0.0
  0
SPLINE
  5
22A
330
1D7
100
AcDbEntity
  8
DV3_Default
  6
Continuous
 62
     7
100
AcDbSpline
210
0.0
220
0.0
230
1.0
 70
     8
 71
     3
 72
     8
 73
     4
 74
     0
 42
0.000000050162423
 43
0.0000000001
 40
0.0
 40
0.0
 40
0.0
 40
0.0
 40
1.0
 40
1.0
 40
1.0
 40
1.0
 10
62.34848421602872
 20
380.2690682861802
 30
0.0
 10
62.34846318205123
 20
380.3355325185269
 30
0.0
 10
62.34845243225608
 20
380.4019843070301
 30
0.0
 10
62.34845487820213
 20
380.4684206936531
 30
0.0
  0
SPLINE
  5
22B
330
1D7
100
AcDbEntity
  8
DV3_Default
  6
Continuous
 62
     7
100
AcDbSpline
210
0.0
220
0.0
230
1.0
 70
     8
 71
     3
 72
    14
 73
    10
 74
     0
 42
0.0000000008640709
 43
0.0000000001
 40
0.0
 40
0.0
 40
0.0
 40
0.0
 40
0.0917386749320502
 40
0.0917386749320502
 40
0.243115562443376
 40
0.243115562443376
 40
0.3944924499547017
 40
0.3944924499547017
 40
1.0
 40
1.0
 40
1.0
 40
1.0
 10
62.34845487820213
 20
380.4684206936531
 30
0.0
 10
62.34846671929681
 20
380.7900465706538
 30
0.0
 10
62.34878782038934
 20
381.1113114838085
 30
0.0
 10
62.35133376151383
 20
381.96084578855
 30
0.0
 10
62.36553492526558
 20
382.5010984116045
 30
0.0
 10
62.26390159294934
 20
383.5956374956981
 30
0.0
 10
62.16109654425828
 20
384.1392647182744
 30
0.0
 10
61.39171067456562
 20
386.820948645419
 30
0.0
 10
59.93227104796565
 20
388.832794242162
 30
0.0
 10
57.84879598812591
 20
390.4088239235821
 30
0.0
  0
ARC
  5
22C
330
1D7
100
AcDbEntity
  8
DV3_Default
  6
Continuous
 62
     7
100
AcDbCircle
 10
46.6671541709
 20
374.6757783157
 30
0.0
 40
19.30175737667911
100
AcDbArc
 50
54.5981894317
 51
90.941321001
  0
LINE
  5
22D
330
1D7
100
AcDbEntity
  8
DV3_Default
  6
Continuous
 62
     7
100
AcDbLine
 10
46.3500611726
 20
380.9729281468
 30
0.0
 11
46.350056954
 21
393.9749308148
 31
0.0
  0
LINE
  5
22E
330
1D7
100
AcDbEntity
  8
DV3_Default
  6
Continuous
 62
     7
100
AcDbLine
 10
46.3500409295
 20
363.609538435
 30
0.0
 11
46.3500611726
 21
380.9729281468
 31
0.0
  0
SPLINE
  5
22F
330
1D7
100
AcDbEntity
  8
DV3_Default
  6
Continuous
 62
     7
100
AcDbSpline
210
0.0
220
0.0
230
1.0
 70
     8
 71
     3
 72
    14
 73
    10
 74
     0
 42
0.0000000006831157
 43
0.0000000001
 40
0.0
 40
0.0
 40
0.0
 40
0.0
 40
0.25
 40
0.25
 40
0.5
 40
0.5
 40
0.75
 40
0.75
 40
1.0
 40
1.0
 40
1.0
 40
1.0
 10
30.35040723924776
 20
363.6093130659555
 30
0.0
 10
30.34921454108707
 20
364.9778041391432
 30
0.0
 10
30.34950347315369
 20
366.3462876099529
 30
0.0
 10
30.35000321846714
 20
369.0259201365664
 30
0.0
 10
30.35021401694603
 20
370.3369900068446
 30
0.0
 10
30.35054863622954
 20
372.8467226481935
 30
0.0
 10
30.35067244714584
 20
374.0453112544313
 30
0.0
 10
30.35082788569299
 20
376.2797300156365
 30
0.0
 10
30.3508595087305
 20
377.3154941415412
 30
0.0
 10
30.35084437326591
 20
378.2481214626922
 30
0.0
  0
ARC
  5
230
330
1D7
100
AcDbEntity
  8
DV3_Default
  6
Continuous
 62
     7
100
AcDbCircle
 10
46.0285471385
 20
374.6910420946
 30
0.0
 40
19.28656871335999
100
AcDbArc
 50
89.0448270469
 51
125.4269923099
  0
SPLINE
  5
231
330
1D7
100
AcDbEntity
  8
DV3_Default
  6
Continuous
 62
     7
100
AcDbSpline
210
0.0
220
0.0
230
1.0
 70
     8
 71
     3
 72
     8
 73
     4
 74
     0
 42
0.0000000340245692
 43
0.0000000001
 40
0.0
 40
0.0
 40
0.0
 40
0.0
 40
1.0
 40
1.0
 40
1.0
 40
1.0
 10
30.3515549562226
 20
380.1709442859615
 30
0.0
 10
30.35155335004898
 20
380.2689293853602
 30
0.0
 10
30.35153682791369
 20
380.3668985643739
 30
0.0
 10
30.35150120111931
 20
380.4648495419788
 30
0.0
  0
SPLINE
  5
232
330
1D7
100
AcDbEntity
  8
DV3_Default
  6
Continuous
 62
     7
100
AcDbSpline
210
0.0
220
0.0
230
1.0
 70
     8
 71
     3
 72
    14
 73
    10
 74
     0
 42
0.0000000008640756
 43
0.0000000001
 40
0.0
 40
0.0
 40
0.0
 40
0.0
 40
0.0920504467861465
 40
0.0920504467861465
 40
0.2433753723217894
 40
0.2433753723217894
 40
0.3947002978574324
 40
0.3947002978574324
 40
1.0
 40
1.0
 40
1.0
 40
1.0
 10
30.35150120111931
 20
380.4648495419788
 30
0.0
 10
30.35138384347617
 20
380.7875082620159
 30
0.0
 10
30.35105918141583
 20
381.1099694787954
 30
0.0
 10
30.3492568440753
 20
381.9617981321778
 30
0.0
 10
30.33457069923754
 20
382.5013034283403
 30
0.0
 10
30.43559121508675
 20
383.5950761319361
 30
0.0
 10
30.53859349019471
 20
384.1387144371117
 30
0.0
 10
31.30882691977054
 20
386.8190757395217
 30
0.0
 10
32.76608060723223
 20
388.8306332182679
 30
0.0
 10
34.84879599854592
 20
390.4067952481282
 30
0.0
  0
ARC
  5
233
330
1D7
100
AcDbEntity
  8
DV3_Default
  6
Continuous
 62
     7
100
AcDbCircle
 10
46.3506155474
 20
383.600974717
 30
0.0
 40
16.00119904438884
100
AcDbArc
 50
176.7298939308
 51
180.0091776036
  0
ARC
  5
234
330
1D7
100
AcDbEntity
  8
DV3_Default
  6
Continuous
 62
     7
100
AcDbCircle
 10
46.3506155474
 20
383.600974717
 30
0.0
 40
16.00119904438884
100
AcDbArc
 50
112.0330683594
 51
172.619633871
  0
ARC
  5
235
330
1D7
100
AcDbEntity
  8
DV3_Default
  6
Continuous
 62
     7
100
AcDbCircle
 10
-1962.7936613494
 20
380.3914184707
 30
0.0
 40
1993.145658102946
100
AcDbArc
 50
0.0752249572
 51
0.0915558892
  0
LINE
  5
236
330
1D7
100
AcDbEntity
  8
DV3_Default
  6
Continuous
 62
     7
100
AcDbLine
 10
46.3500421945
 20
394.5287042635
 30
0.0
 11
46.350056954
 21
393.9749308148
 31
0.0
  0
SPLINE
  5
237
330
1D7
100
AcDbEntity
  8
DV3_Default
  6
Continuous
 62
     7
100
AcDbSpline
210
0.0
220
0.0
230
1.0
 70
     8
 71
     3
 72
    19
 73
    15
 74
     0
 42
0.0000000009900272
 43
0.0000000001
 40
0.0
 40
0.0
 40
0.0
 40
0.0
 40
0.0459963399095636
 40
0.0919253477235194
 40
0.1843704601139169
 40
0.277968040739403
 40
0.3721830466055839
 40
0.4667283300758583
 40
0.5613301684984826
 40
0.6559441410112477
 40
0.7503151617218112
 40
0.8443581229930996
 40
0.938157996782995
 40
1.0
 40
1.0
 40
1.0
 40
1.0
 10
46.35004219448879
 20
394.5287042635111
 30
0.0
 10
46.09544661027634
 20
394.5301438837994
 30
0.0
 10
45.58662813313391
 20
394.5330100706503
 30
0.0
 10
44.57725958623672
 20
394.5646050171551
 30
0.0
 10
43.34507992111224
 20
394.6403113859321
 30
0.0
 10
41.98562808194631
 20
394.7852225877539
 30
0.0
 10
40.80136962678242
 20
394.9750082148075
 30
0.0
 10
39.84846829260079
 20
395.2073201541403
 30
0.0
 10
39.16874251914415
 20
395.4894516444045
 30
0.0
 10
38.79123970533313
 20
395.8337647039262
 30
0.0
 10
38.72386567649109
 20
396.2447669757046
 30
0.0
 10
38.95921985948503
 20
396.7166804012571
 30
0.0
 10
39.4173043647715
 20
397.1717638978472
 30
0.0
 10
39.82161975981526
 20
397.461460860883
 30
0.0
 10
39.9998929503427
 20
397.575785385837
 30
0.0
  0
SPLINE
  5
238
330
1D7
100
AcDbEntity
  8
DV3_Default
  6
Continuous
 62
     7
100
AcDbSpline
210
0.0
220
0.0
230
1.0
 70
     8
 71
     3
 72
     9
 73
     5
 74
     0
 42
0.0000000253321705
 43
0.0000000001
 40
0.0
 40
0.0
 40
0.0
 40
0.0
 40
0.8468793938585709
 40
1.0
 40
1.0
 40
1.0
 40
1.0
 10
39.9998929503427
 20
397.575785385837
 30
0.0
 10
40.09007037657417
 20
397.6336151211157
 30
0.0
 10
40.2018773644704
 20
397.7016644437938
 30
0.0
 10
40.31976891846613
 20
397.7691220079095
 30
0.0
 10
40.3379622687255
 20
397.7794357687557
 30
0.0
  0
LINE
  5
239
330
1D7
100
AcDbEntity
  8
DV3_Default
  6
Continuous
 62
     7
100
AcDbLine
 10
46.350054274
 20
394.5958081233
 30
0.0
 11
46.3500539782
 21
394.5287042635
 31
0.0
  0
SPLINE
  5
23A
330
1D7
100
AcDbEntity
  8
DV3_Default
  6
Continuous
 62
     7
100
AcDbSpline
210
0.0
220
0.0
230
1.0
 70
     8
 71
     3
 72
    10
 73
     6
 74
     0
 42
0.00000000514797
 43
0.0000000001
 40
0.0
 40
0.0
 40
0.0
 40
0.0
 40
0.0386860658938664
 40
0.0386860658938664
 40
1.0
 40
1.0
 40
1.0
 40
1.0
 10
39.2002115587857
 20
395.8723822983924
 30
0.0
 10
39.19996680516122
 20
395.8881165136319
 30
0.0
 10
39.2003652501844
 20
395.9039968329622
 30
0.0
 10
39.22739680183342
 20
396.3183066427477
 30
0.0
 10
39.63347008793717
 20
396.811324239136
 30
0.0
 10
40.34431870218521
 20
397.2899814803923
 30
0.0
  0
SPLINE
  5
23B
330
1D7
100
AcDbEntity
  8
DV3_Default
  6
Continuous
 62
     7
100
AcDbSpline
210
0.0
220
0.0
230
1.0
 70
     8
 71
     3
 72
    10
 73
     6
 74
     0
 42
0.0000000051469223
 43
0.0000000001
 40
0.0
 40
0.0
 40
0.0
 40
0.0
 40
0.9622767817088553
 40
0.9622767817088553
 40
1.0
 40
1.0
 40
1.0
 40
1.0
 10
52.35453204717418
 20
397.2908463235534
 30
0.0
 10
53.06613309259188
 20
396.8119273481948
 30
0.0
 10
53.47269686882792
 20
396.3185593549147
 30
0.0
 10
53.49972203148172
 20
395.9044179731564
 30
0.0
 10
53.50012654936641
 20
395.8889355559425
 30
0.0
 10
53.499919906585
 20
395.8735919915468
 30
0.0
  0
SPLINE
  5
23C
330
1D7
100
AcDbEntity
  8
DV3_Default
  6
Continuous
 62
     7
100
AcDbSpline
210
0.0
220
0.0
230
1.0
 70
     8
 71
     3
 72
     9
 73
     5
 74
     0
 42
0.0000000240844371
 43
0.0000000001
 40
0.0
 40
0.0
 40
0.0
 40
0.0
 40
0.1124007395824897
 40
1.0
 40
1.0
 40
1.0
 40
1.0
 10
52.36220460241383
 20
397.779423980568
 30
0.0
 10
52.3762808505119
 20
397.7714439553142
 30
0.0
 10
52.50075834990655
 20
397.7003659666453
 30
0.0
 10
52.61848261365864
 20
397.6286156968016
 30
0.0
 10
52.71745833503646
 20
397.5647036197741
 30
0.0
  0
SPLINE
  5
23D
330
1D7
100
AcDbEntity
  8
DV3_Default
  6
Continuous
 62
     7
100
AcDbSpline
210
0.0
220
0.0
230
1.0
 70
     8
 71
     3
 72
    19
 73
    15
 74
     0
 42
0.0000000009920385
 43
0.0000000001
 40
0.0
 40
0.0
 40
0.0
 40
0.0
 40
0.0585232645339129
 40
0.1527261327547489
 40
0.2470192153661808
 40
0.3415537923597911
 40
0.4364649455060919
 40
0.5313652924690683
 40
0.6261984928408688
 40
0.7207164852158761
 40
0.8146397640930687
 40
0.9075927244553461
 40
0.9537502651338062
 40
1.0
 40
1.0
 40
1.0
 40
1.0
 10
52.71745833503646
 20
397.5647036197741
 30
0.0
 10
52.88473539020502
 20
397.4566869881597
 30
0.0
 10
53.28015337926884
 20
397.1731106844477
 30
0.0
 10
53.73573041455161
 20
396.7234401843777
 30
0.0
 10
53.97531880150115
 20
396.2502784616304
 30
0.0
 10
53.91145600236489
 20
395.838386766723
 30
0.0
 10
53.53754564992806
 20
395.4929705934765
 30
0.0
 10
52.86021003127529
 20
395.2099059971703
 30
0.0
 10
51.90865146902165
 20
394.9769644070165
 30
0.0
 10
50.72482443361011
 20
394.7864931311881
 30
0.0
 10
49.36366410217941
 20
394.6410174061978
 30
0.0
 10
48.12867912661174
 20
394.5648353773908
 30
0.0
 10
47.11599467498382
 20
394.5330159155224
 30
0.0
 10
46.6055294506457
 20
394.5301435495052
 30
0.0
 10
46.35004219448879
 20
394.5287042635111
 30
0.0
  0
ARC
  5
23E
330
1D7
100
AcDbEntity
  8
DV3_Default
  6
Continuous
 62
     7
100
AcDbCircle
 10
4217.7057469249
 20
380.3134288323
 30
0.0
 40
4155.356998830141
100
AcDbArc
 50
179.9546018829
 51
179.9593735403
  0
ARC
  5
23F
330
1D7
100
AcDbEntity
  8
DV3_Default
  6
Continuous
 62
     7
100
AcDbCircle
 10
46.3500528979
 20
383.602173806
 30
0.0
 40
16.0000000272127
100
AcDbArc
 50
0.0133848161
 51
67.96710893
  0
ARC
  5
240
330
1D7
100
AcDbEntity
  8
DV3_Default
  6
Continuous
 62
     7
100
AcDbCircle
 10
62.0481839935
 20
353.273800724
 30
0.0
 40
0.3000000000000017
100
AcDbArc
 50
270.0
 51
0.0
  0
LINE
  5
241
330
1D7
100
AcDbEntity
  8
DV3_Default
  6
Continuous
 62
     7
100
AcDbLine
 10
62.3481839931
 20
353.2738007251
 30
0.0
 11
62.3481839931
 21
353.4736370594
 31
0.0
  0
LINE
  5
242
330
1D7
100
AcDbEntity
  8
DV3_Default
  6
Continuous
 62
     7
100
AcDbLine
 10
62.3506979143
 20
353.4736370594
 30
0.0
 11
62.3506979143
 21
363.6095489399
 31
0.0
  0
ARC
  5
243
330
1D7
100
AcDbEntity
  8
DV3_Default
  6
Continuous
 62
     7
100
AcDbCircle
 10
3319.0115920411
 20
377.6600398631
 30
0.0
 40
3256.66258813511
100
AcDbArc
 50
179.9540983407
 51
180.0207948671
  0
SPLINE
  5
244
330
1D7
100
AcDbEntity
  8
DV3_Default
  6
Continuous
 62
     7
100
AcDbSpline
210
0.0
220
0.0
230
1.0
 70
     8
 71
     3
 72
    13
 73
     9
 74
     0
 42
0.0000000025144068
 43
0.0000000001
 40
0.0
 40
0.0
 40
0.0
 40
0.0
 40
0.0285314925189124
 40
0.2479904590507136
 40
0.4683278880830142
 40
0.6890813008914084
 40
0.9129585320687796
 40
1.0
 40
1.0
 40
1.0
 40
1.0
 10
62.34934263068833
 20
372.5009891690107
 30
0.0
 10
62.34933916640009
 20
372.5474100102821
 30
0.0
 10
62.34931331867359
 20
372.8938409983224
 30
0.0
 10
62.34915432602536
 20
373.6121777765331
 30
0.0
 10
62.34893650040929
 20
374.5530012693947
 30
0.0
 10
62.34908791763191
 20
375.4539636083077
 30
0.0
 10
62.34923319808057
 20
376.0075521747817
 30
0.0
 10
62.34922192217561
 20
376.3628115220165
 30
0.0
 10
62.3492183973189
 20
376.4780703544753
 30
0.0
  0
ARC
  5
245
330
1D7
100
AcDbEntity
  8
DV3_Default
  6
Continuous
 62
     7
100
AcDbCircle
 10
-1440.7681341384
 20
378.6801679759
 30
0.0
 40
1471.119016258998
100
AcDbArc
 50
359.9868835141
 51
0.0580612181
  0
LINE
  5
246
330
1D7
100
AcDbEntity
  8
DV3_Default
  6
Continuous
 62
     7
100
AcDbLine
 10
30.35088645
 20
377.8303876492
 30
0.0
 11
30.3508435721
 21
378.3433907847
 31
0.0
  0
SPLINE
  5
247
330
1D7
100
AcDbEntity
  8
DV3_Default
  6
Continuous
 62
     7
100
AcDbSpline
210
0.0
220
0.0
230
1.0
 70
     8
 71
     3
 72
    12
 73
     8
 74
     0
 42
0.0000000024025188
 43
0.0000000001
 40
0.0
 40
0.0
 40
0.0
 40
0.0
 40
0.1905628188784802
 40
0.3806574446637737
 40
0.609900080482307
 40
0.8396038504737606
 40
1.0
 40
1.0
 40
1.0
 40
1.0
 10
30.35086161092743
 20
377.6846176203508
 30
0.0
 10
30.35087530841237
 20
377.4613590609809
 30
0.0
 10
30.35088927681603
 20
377.0790686923642
 30
0.0
 10
30.35107761456933
 20
376.2863688221
 30
0.0
 10
30.35103233223895
 20
375.3432632088022
 30
0.0
 10
30.35083736043122
 20
374.3658224901329
 30
0.0
 10
30.35083045216812
 20
373.7986133060753
 30
0.0
 10
30.35082445014773
 20
373.5223192487545
 30
0.0
  0
LINE
  5
248
330
1D7
100
AcDbEntity
  8
DV3_Default
  6
Continuous
 62
     7
100
AcDbLine
 10
30.3508616109
 20
377.6846176204
 30
0.0
 11
30.3508548999
 21
378.102149878
 31
0.0
  0
SPLINE
  5
249
330
1D7
100
AcDbEntity
  8
DV3_Default
  6
Continuous
 62
     7
100
AcDbSpline
210
0.0
220
0.0
230
1.0
 70
     8
 71
     3
 72
    37
 73
    33
 74
     0
 42
0.0000000007939371
 43
0.0000000001
 40
0.0
 40
0.0
 40
0.0
 40
0.0
 40
0.0011294802628993
 40
0.0301409228991381
 40
0.054700935003964
 40
0.075400072615569
 40
0.0933789938605291
 40
0.1103713864047237
 40
0.1268475609493225
 40
0.167872584535125
 40
0.2052661774075694
 40
0.2435098599192562
 40
0.2851949561429901
 40
0.3313774861733484
 40
0.3759284488214127
 40
0.4128500698761793
 40
0.4426164064578484
 40
0.4696027798279477
 40
0.5047658629714604
 40
0.5485432415914823
 40
0.5962641680435888
 40
0.6435677363459467
 40
0.6904035904362457
 40
0.7350637564084391
 40
0.7641725143241129
 40
0.7894754012053755
 40
0.8118066649268977
 40
0.8383218988703041
 40
0.8733483824249952
 40
0.9158417541061682
 40
0.9624462118154926
 40
0.9999999999999999
 40
0.9999999999999999
 40
0.9999999999999999
 40
0.9999999999999999
 10
33.02804040689942
 20
392.5403299997319
 30
0.0
 10
33.02800965563715
 20
392.5403527684783
 30
0.0
 10
33.02699139345038
 20
392.5406567090895
 30
0.0
 10
33.01547155844286
 20
392.5263555991181
 30
0.0
 10
32.96413767987348
 20
392.45202263123
 30
0.0
 10
32.88039902397124
 20
392.3257617665084
 30
0.0
 10
32.76308185866805
 20
392.1431198836177
 30
0.0
 10
32.61905359927904
 20
391.9097999672407
 30
0.0
 10
32.41846705949641
 20
391.5708826344116
 30
0.0
 10
32.16876713485612
 20
391.1191554495263
 30
0.0
 10
31.87309890819201
 20
390.5215868598355
 30
0.0
 10
31.62118019407094
 20
389.9507966539402
 30
0.0
 10
31.4015692193158
 20
389.3912961119117
 30
0.0
 10
31.2192828462697
 20
388.8633111558262
 30
0.0
 10
31.07073897631143
 20
388.3739331803692
 30
0.0
 10
30.95817851932427
 20
387.9552963330202
 30
0.0
 10
30.87937869897149
 20
387.6304265345171
 30
0.0
 10
30.82142971192194
 20
387.3728277130063
 30
0.0
 10
30.75593199349964
 20
387.0589621029875
 30
0.0
 10
30.68436701826331
 20
386.6759488092976
 30
0.0
 10
30.61135419658831
 20
386.2281128089865
 30
0.0
 10
30.54327733678164
 20
385.734233415912
 30
0.0
 10
30.48480570357367
 20
385.2163081541684
 30
0.0
 10
30.44220830586665
 20
384.7370091259655
 30
0.0
 10
30.41351992775262
 20
384.3321403952913
 30
0.0
 10
30.39498236954632
 20
384.0116150640192
 30
0.0
 10
30.37961222321271
 20
383.6975291019846
 30
0.0
 10
30.36301996596266
 20
383.194380297407
 30
0.0
 10
30.35413588353021
 20
382.5814974721488
 30
0.0
 10
30.35255051265172
 20
381.8644948785952
 30
0.0
 10
30.35027089997555
 20
381.1267251284871
 30
0.0
 10
30.35024269254178
 20
380.6931964449393
 30
0.0
 10
30.35021292260364
 20
380.4648469172262
 30
0.0
  0
ARC
  5
24A
330
1D7
100
AcDbEntity
  8
DV3_Default
  6
Continuous
 62
     7
100
AcDbCircle
 10
49.0366478821
 20
383.3471079447
 30
0.0
 40
18.69730558053908
100
AcDbArc
 50
172.9045627178
 51
176.4232592896
  0
SPLINE
  5
24B
330
1D7
100
AcDbEntity
  8
DV3_Default
  6
Continuous
 62
     7
100
AcDbSpline
210
0.0
220
0.0
230
1.0
 70
     8
 71
     3
 72
    24
 73
    20
 74
     0
 42
0.0000000013399325
 43
0.0000000001
 40
0.0
 40
0.0
 40
0.0
 40
0.0
 40
0.0680903004512243
 40
0.1424735482379398
 40
0.2108711567405951
 40
0.3022582669685074
 40
0.3802818063263515
 40
0.4449107068218129
 40
0.4989900840260796
 40
0.5474392112488459
 40
0.5903492421042377
 40
0.63936019890415
 40
0.6878401018493151
 40
0.739392109753741
 40
0.7717880562089904
 40
0.8105749902185903
 40
0.8615437596460865
 40
0.9246456166546746
 40
1.0
 40
1.0
 40
1.0
 40
1.0
 10
46.35010488067346
 20
394.597296070496
 30
0.0
 10
46.05858871532004
 20
394.5981652877649
 30
0.0
 10
45.54297474218124
 20
394.6004898975893
 30
0.0
 10
44.71580916182501
 20
394.6286152319198
 30
0.0
 10
43.84468957477254
 20
394.6774292802598
 30
0.0
 10
42.99322787736106
 20
394.7480543077824
 30
0.0
 10
42.21573803065637
 20
394.8363591617419
 30
0.0
 10
41.61256519311593
 20
394.9224759373517
 30
0.0
 10
41.14164780208782
 20
395.0034358206219
 30
0.0
 10
40.76567520630164
 20
395.0796722103341
 30
0.0
 10
40.43474017446803
 20
395.1578957526689
 30
0.0
 10
40.13741183170512
 20
395.2410693232925
 30
0.0
 10
39.86605842966348
 20
395.3333580637578
 30
0.0
 10
39.66546822051831
 20
395.4186688410045
 30
0.0
 10
39.51010552714227
 20
395.5007662249836
 30
0.0
 10
39.38820849732222
 20
395.5799977129509
 30
0.0
 10
39.28442562972463
 20
395.671055843215
 30
0.0
 10
39.21216635928098
 20
395.7733765015063
 30
0.0
 10
39.20340748826058
 20
395.8402919764845
 30
0.0
 10
39.20009073025868
 20
395.8830325067523
 30
0.0
  0
SPLINE
  5
24C
330
1D7
100
AcDbEntity
  8
DV3_Default
  6
Continuous
 62
     7
100
AcDbSpline
210
0.0
220
0.0
230
1.0
 70
     8
 71
     3
 72
    25
 73
    21
 74
     0
 42
0.0000000013401055
 43
0.0000000001
 40
0.0
 40
0.0
 40
0.0
 40
0.0
 40
0.064798127399474
 40
0.1120463827953317
 40
0.1525048067075958
 40
0.2013033270447749
 40
0.2586559908689309
 40
0.3228609085056777
 40
0.380081256525434
 40
0.4272939647006718
 40
0.464401267565727
 40
0.4924001045183658
 40
0.5315983412019716
 40
0.5897564630025659
 40
0.6390799111381111
 40
0.6968360997928426
 40
0.7630149506364347
 40
0.8376258363377762
 40
0.9207128322971894
 40
1.0
 40
1.0
 40
1.0
 40
1.0
 10
53.50002272791895
 20
395.8830171116692
 30
0.0
 10
53.49796725288418
 20
395.8483794241195
 30
0.0
 10
53.49244704313706
 20
395.7969197912273
 30
0.0
 10
53.4516241060306
 20
395.7207231280599
 30
0.0
 10
53.38136750254511
 20
395.6382504865194
 30
0.0
 10
53.25844674575289
 20
395.5394989429539
 30
0.0
 10
53.05632337255211
 20
395.4247308632924
 30
0.0
 10
52.77535595025238
 20
395.3087902787887
 30
0.0
 10
52.45578183398512
 20
395.2084170451524
 30
0.0
 10
52.14852101361871
 20
395.1290598678616
 30
0.0
 10
51.8801973396976
 20
395.0689539375666
 30
0.0
 10
51.61106751305051
 20
395.0146257555699
 30
0.0
 10
51.26520553936246
 20
394.9519584824754
 30
0.0
 10
50.83050042722839
 20
394.8844874998626
 30
0.0
 10
50.30683500965966
 20
394.815765016225
 30
0.0
 10
49.72658701215137
 20
394.7519601065525
 30
0.0
 10
49.02451468373599
 20
394.6905195136337
 30
0.0
 10
48.2015273272854
 20
394.6382058879094
 30
0.0
 10
47.27662826614694
 20
394.6020727073211
 30
0.0
 10
46.68926345731921
 20
394.598820872185
 30
0.0
 10
46.34999063023356
 20
394.5975308551843
 30
0.0
  0
SPLINE
  5
24D
330
1D7
100
AcDbEntity
  8
DV3_Default
  6
Continuous
 62
     7
100
AcDbSpline
210
0.0
220
0.0
230
1.0
 70
     8
 71
     3
 72
    34
 73
    30
 74
     0
 42
0.0000000007934093
 43
0.0000000001
 40
0.0
 40
0.0
 40
0.0
 40
0.0
 40
0.036265876053187
 40
0.0816989319361853
 40
0.123186811911219
 40
0.1579008757061384
 40
0.184393215112201
 40
0.2060184382041021
 40
0.2294725100637311
 40
0.2558659432814904
 40
0.3042521600666369
 40
0.357341074718471
 40
0.4140628815946703
 40
0.474425444557192
 40
0.5298040147687099
 40
0.5672276281026799
 40
0.5966895067977501
 40
0.6258984133565451
 40
0.6782114363156978
 40
0.7366398749231312
 40
0.7933231189223535
 40
0.8524406881056437
 40
0.8842765667312289
 40
0.9007975346697218
 40
0.9179781121427268
 40
0.9374714692561286
 40
0.9604997322903931
 40
0.9877268236673431
 40
0.9999999999999999
 40
0.9999999999999999
 40
0.9999999999999999
 40
0.9999999999999999
 10
62.34990416295057
 20
380.4684193693492
 30
0.0
 10
62.34987751499166
 20
380.6899909142277
 30
0.0
 10
62.3498606891384
 20
381.1129032161743
 30
0.0
 10
62.3476212328798
 20
381.8336562073953
 30
0.0
 10
62.34619881843918
 20
382.5396911493476
 30
0.0
 10
62.33809909167924
 20
383.1464831731997
 30
0.0
 10
62.32245022106993
 20
383.6490674830094
 30
0.0
 10
62.30731713961549
 20
383.9695761732358
 30
0.0
 10
62.29064315968905
 20
384.2656853507364
 30
0.0
 10
62.26308683764195
 20
384.6721543922334
 30
0.0
 10
62.21892994789249
 20
385.1846298464322
 30
0.0
 10
62.15234898157769
 20
385.7754058590418
 30
0.0
 10
62.06924042629766
 20
386.3611337963397
 30
0.0
 10
61.97577960678622
 20
386.9016616578174
 30
0.0
 10
61.88458672281426
 20
387.350549332339
 30
0.0
 10
61.802815654287
 20
387.7067492189177
 30
0.0
 10
61.73591166966498
 20
387.9762235897927
 30
0.0
 10
61.63261284351011
 20
388.3627889863326
 30
0.0
 10
61.46091400762184
 20
388.9330333541201
 30
0.0
 10
61.19890570162173
 20
389.6666342035077
 30
0.0
 10
60.82406187865222
 20
390.5437103263259
 30
0.0
 10
60.43756077417173
 20
391.2979736121641
 30
0.0
 10
60.15141955321999
 20
391.7939109309918
 30
0.0
 10
59.96614421936494
 20
392.0966203951921
 30
0.0
 10
59.8423854545725
 20
392.2908466464534
 30
0.0
 10
59.75184605934425
 20
392.4283420770082
 30
0.0
 10
59.69165151598014
 20
392.5166554363138
 30
0.0
 10
59.66956178889562
 20
392.5465792073305
 30
0.0
 10
59.66584517971125
 20
392.5498022775401
 30
0.0
 10
59.66556194293476
 20
392.5494644398241
 30
0.0
  0
ARC
  5
24E
330
1D7
100
AcDbEntity
  8
DV3_Default
  6
Continuous
 62
     7
100
AcDbCircle
 10
1040.6150599144
 20
380.9365172402
 30
0.0
 40
978.2679687412432
100
AcDbArc
 50
180.1074405295
 51
180.1265647594
  0
ARC
  5
24F
330
1D7
100
AcDbEntity
  8
DV3_Default
  6
Continuous
 62
     7
100
AcDbCircle
 10
1040.6150599144
 20
380.9365172402
 30
0.0
 40
978.2679687412432
100
AcDbArc
 50
179.8648408499
 51
180.0318730529
  0
ARC
  5
250
330
1D7
100
AcDbEntity
  8
DV3_Default
  6
Continuous
 62
     7
100
AcDbCircle
 10
47.0894847661
 20
383.5958691089
 30
0.0
 40
15.26151240498656
100
AcDbArc
 50
359.664046903
 51
359.7187107293
  0
ENDBLK
  5
252
330
1D7
100
AcDbEntity
  8
0
100
AcDbBlockEnd
  0
ENDSEC
  0
SECTION
  2
ENTITIES
  0
INSERT
  5
5F
330
1F
100
AcDbEntity
  8
Default
100
AcDbBlockReference
  2
SEANNOT_GROUP
 10
0.0
 20
0.0
 30
0.0
  0
INSERT
  5
66
330
1F
100
AcDbEntity
  8
Default
100
AcDbBlockReference
  2
SEANNOT_GROUP1
 10
0.0
 20
0.0
 30
0.0
  0
INSERT
  5
6C
330
1F
100
AcDbEntity
  8
Default
100
AcDbBlockReference
  2
SEANNOT_GROUP2
 10
0.0
 20
0.0
 30
0.0
  0
INSERT
  5
72
330
1F
100
AcDbEntity
  8
Default
100
AcDbBlockReference
  2
SEANNOT_GROUP3
 10
0.0
 20
0.0
 30
0.0
  0
INSERT
  5
78
330
1F
100
AcDbEntity
  8
Default
100
AcDbBlockReference
  2
SEANNOT_GROUP4
 10
0.0
 20
0.0
 30
0.0
  0
INSERT
  5
7E
330
1F
100
AcDbEntity
  8
Default
100
AcDbBlockReference
  2
SEANNOT_GROUP5
 10
0.0
 20
0.0
 30
0.0
  0
INSERT
  5
84
330
1F
100
AcDbEntity
  8
Default
100
AcDbBlockReference
  2
SE
 10
0.0
 20
0.0
 30
0.0
  0
INSERT
  5
132
330
1F
100
AcDbEntity
  8
Default
100
AcDbBlockReference
  2
SE1
 10
0.0
 20
0.0
 30
0.0
  0
INSERT
  5
1D8
330
1F
100
AcDbEntity
  8
Default
100
AcDbBlockReference
  2
SE2
 10
0.0
 20
0.0
 30
0.0
  0
TEXT
  5
254
330
1F
100
AcDbEntity
  8
Default
  6
Continuous
 62
     7
100
AcDbText
 10
5.9362635081
 20
53.4225120485
 30
0.0
 40
10.0
  1
Grohe AG^J
  7
SEACAD_seiso_ttf
 11
5.9362635081
 21
63.4225120485
 31
0.0
100
AcDbText
 73
     3
  0
TEXT
  5
255
330
1F
100
AcDbEntity
  8
Default
  6
Continuous
 62
     7
100
AcDbText
 10
5.9362635081
 20
37.0588756849
 30
0.0
 40
10.0
  1
 
  7
SEACAD_seiso_ttf
 11
5.9362635081
 21
47.0588756849
 31
0.0
100
AcDbText
 73
     3
  0
TEXT
  5
256
330
1F
100
AcDbEntity
  8
Default
  6
Continuous
 62
     7
100
AcDbText
 10
5.9362635081
 20
20.6952393213
 30
0.0
 40
10.0
  1
ecn:
  7
SEACAD_seiso_ttf
 11
5.9362635081
 21
30.6952393213
 31
0.0
100
AcDbText
 73
     3
  0
TEXT
  5
257
330
1F
100
AcDbEntity
  8
Default
  6
Continuous
 62
     7
100
AcDbText
 10
5.9362635081
 20
4.3316029576
 30
0.0
 40
10.0
  1
unit: mm
  7
SEACAD_seiso_ttf
 11
5.9362635081
 21
14.3316029576
 31
0.0
100
AcDbText
 73
     3
  0
LINE
  5
258
330
1F
100
AcDbEntity
  8
Default
  6
Continuous
 62
     7
100
AcDbLine
 10
0.0
 20
0.0
 30
0.0
 11
100.0
 21
0.0
 31
0.0
  0
LINE
  5
259
330
1F
100
AcDbEntity
  8
Default
  6
Continuous
 62
     7
100
AcDbLine
 10
0.0
 20
0.0
 30
0.0
 11
0.0
 21
100.0
 31
0.0
  0
TEXT
  5
25A
330
1F
100
AcDbEntity
  8
Default
  6
Continuous
 62
     7
100
AcDbText
 10
24.3923665681
 20
-18.2375342018
 30
0.0
 40
10.0
  1
100 mm
  7
SEACAD_seiso_ttf
 11
24.3923665681
 21
-8.2375342018
 31
0.0
100
AcDbText
 73
     3
  0
TEXT
  5
25B
330
1F
100
AcDbEntity
  8
Default
  6
Continuous
 62
     7
100
AcDbText
 10
-7.6150308803
 20
24.6231930421
 30
0.0
 40
10.0
  1
100 mm
 50
90.0
  7
SEACAD_seiso_ttf
 11
-17.6150308803
 21
24.6231930421
 31
0.0
100
AcDbText
 73
     3
  0
TEXT
  5
25C
330
1F
100
AcDbEntity
  8
Default
  6
Continuous
 62
     7
100
AcDbText
 10
28.4878128572
 20
20.0907663715
 30
0.0
 40
10.0
  1
228855
  7
SEACAD_seiso_ttf
 11
28.4878128572
 21
30.0907663715
 31
0.0
100
AcDbText
 73
     3
  0
TEXT
  5
25D
330
1F
100
AcDbEntity
  8
Default
  6
Continuous
 62
     7
100
AcDbText
 10
5.9012241913
 20
36.7242780188
 30
0.0
 40
10.0
  1
13344000
  7
SEACAD_seiso_ttf
 11
5.9012241913
 21
46.7242780188
 31
0.0
100
AcDbText
 73
     3
  0
ENDSEC
  0
SECTION
  2
OBJECTS
  0
DICTIONARY
  5
C
330
0
100
AcDbDictionary
281
     1
  3
ACAD_GROUP
350
D
  3
ACAD_LAYOUT
350
1A
  3
ACAD_MLEADERSTYLE
350
261
  3
ACAD_MLINESTYLE
350
17
  3
ACAD_PLOTSETTINGS
350
19
  3
ACAD_PLOTSTYLENAME
350
E
  3
ACAD_SCALELIST
350
3B
  3
ACAD_TABLESTYLE
350
260
  3
ACAD_VISUALSTYLE
350
2A
  3
AcDbVariableDictionary
350
25E
  0
DICTIONARY
  5
D
102
{ACAD_REACTORS
330
C
102
}
330
C
100
AcDbDictionary
281
     1
  0
DICTIONARY
  5
1A
102
{ACAD_REACTORS
330
C
102
}
330
C
100
AcDbDictionary
281
     1
  3
Layout1
350
1E
  3
Model
350
22
  0
DICTIONARY
  5
261
102
{ACAD_REACTORS
330
C
102
}
330
C
100
AcDbDictionary
281
     1
  0
DICTIONARY
  5
17
102
{ACAD_REACTORS
330
C
102
}
330
C
100
AcDbDictionary
281
     1
  3
Standard
350
18
  0
DICTIONARY
  5
19
102
{ACAD_REACTORS
330
C
102
}
330
C
100
AcDbDictionary
281
     1
  0
ACDBDICTIONARYWDFLT
  5
E
102
{ACAD_REACTORS
330
C
102
}
330
C
100
AcDbDictionary
281
     1
  3
Normal
350
F
100
AcDbDictionaryWithDefault
340
F
  0
DICTIONARY
  5
3B
102
{ACAD_REACTORS
330
C
102
}
330
C
100
AcDbDictionary
281
     1
  3
A0
350
3C
  3
A1
350
3D
  3
A2
350
3E
  3
A3
350
3F
  3
A4
350
40
  3
A5
350
41
  3
A6
350
42
  3
A7
350
43
  3
A8
350
44
  3
A9
350
45
  3
B0
350
46
  3
B1
350
47
  3
B2
350
48
  3
B3
350
49
  3
B4
350
4A
  3
B5
350
4B
  3
B6
350
4C
  3
B7
350
4D
  3
B8
350
4E
  3
B9
350
4F
  3
C0
350
50
  3
C1
350
51
  3
C2
350
52
  3
C3
350
53
  3
C4
350
54
  3
C5
350
55
  3
C6
350
56
  3
C7
350
57
  3
C8
350
58
  3
C9
350
59
  3
D0
350
5A
  3
D1
350
5B
  3
D2
350
5C
  0
DICTIONARY
  5
260
102
{ACAD_REACTORS
330
C
102
}
330
C
100
AcDbDictionary
281
     1
  0
DICTIONARY
  5
2A
102
{ACAD_REACTORS
330
C
102
}
330
C
100
AcDbDictionary
281
     1
  3
2dWireframe
350
2F
  3
3D Hidden
350
31
  3
3dWireframe
350
30
  3
Basic
350
32
  3
Brighten
350
36
  3
ColorChange
350
3A
  3
Conceptual
350
34
  3
Dim
350
35
  3
Facepattern
350
39
  3
Flat
350
2B
  3
FlatWithEdges
350
2C
  3
Gouraud
350
2D
  3
GouraudWithEdges
350
2E
  3
Linepattern
350
38
  3
Realistic
350
33
  3
Thicken
350
37
  0
DICTIONARY
  5
25E
102
{ACAD_REACTORS
330
C
102
}
330
C
100
AcDbDictionary
281
     1
  3
CANNOSCALE
350
25F
  3
PSOLHEIGHT
350
263
  3
PSOLWIDTH
350
262
  0
LAYOUT
  5
1E
102
{ACAD_REACTORS
330
1A
102
}
330
1A
100
AcDbPlotSettings
  1

  2
none_device
  4

  6

 40
0.0
 41
0.0
 42
0.0
 43
0.0
 44
0.0
 45
0.0
 46
0.0
 47
0.0
 48
0.0
 49
0.0
140
0.0
141
0.0
142
1.0
143
1.0
 70
   688
 72
     0
 73
     0
 74
     5
  7

 75
    16
147
1.0
148
0.0
149
0.0
100
AcDbLayout
  1
Layout1
 70
     1
 71
     1
 10
0.0
 20
0.0
 11
3000.0
 21
4500.0
 12
0.0
 22
0.0
 32
0.0
 14
0.0
 24
0.0
 34
0.0
 15
3000.0
 25
4500.0
 35
0.0
146
0.0
 13
0.0
 23
0.0
 33
0.0
 16
1.0
 26
0.0
 36
0.0
 17
0.0
 27
1.0
 37
0.0
 76
     0
330
1B
  0
LAYOUT
  5
22
102
{ACAD_REACTORS
330
1A
102
}
330
1A
100
AcDbPlotSettings
  1

  2
none_device
  4

  6

 40
0.0
 41
0.0
 42
0.0
 43
0.0
 44
0.0
 45
0.0
 46
0.0
 47
0.0
 48
0.0
 49
0.0
140
0.0
141
0.0
142
1.0
143
1.0
 70
  1712
 72
     0
 73
     0
 74
     0
  7

 75
     0
147
1.0
148
0.0
149
0.0
100
AcDbLayout
  1
Model
 70
     1
 71
     0
 10
0.0
 20
0.0
 11
3000.0
 21
4500.0
 12
0.0
 22
0.0
 32
0.0
 14
0.0
 24
0.0
 34
0.0
 15
3000.0
 25
4500.0
 35
0.0
146
0.0
 13
0.0
 23
0.0
 33
0.0
 16
1.0
 26
0.0
 36
0.0
 17
0.0
 27
1.0
 37
0.0
 76
     0
330
1F
331
29
  0
MLINESTYLE
  5
18
102
{ACAD_REACTORS
330
17
102
}
330
17
100
AcDbMlineStyle
  2
Standard
 70
     0
  3

 62
   256
 51
90.0
 52
90.0
 71
     2
 49
0.5
 62
   256
  6
BYLAYER
 49
-0.5
 62
   256
  6
BYLAYER
  0
ACDBPLACEHOLDER
  5
F
102
{ACAD_REACTORS
330
E
102
}
330
E
  0
SCALE
  5
3C
102
{ACAD_REACTORS
330
3B
102
}
330
3B
100
AcDbScale
 70
     0
300
1:1
140
1.0
141
1.0
290
     1
  0
SCALE
  5
3D
102
{ACAD_REACTORS
330
3B
102
}
330
3B
100
AcDbScale
 70
     0
300
1:2
140
1.0
141
2.0
290
     0
  0
SCALE
  5
3E
102
{ACAD_REACTORS
330
3B
102
}
330
3B
100
AcDbScale
 70
     0
300
1:4
140
1.0
141
4.0
290
     0
  0
SCALE
  5
3F
102
{ACAD_REACTORS
330
3B
102
}
330
3B
100
AcDbScale
 70
     0
300
1:5
140
1.0
141
5.0
290
     0
  0
SCALE
  5
40
102
{ACAD_REACTORS
330
3B
102
}
330
3B
100
AcDbScale
 70
     0
300
1:8
140
1.0
141
8.0
290
     0
  0
SCALE
  5
41
102
{ACAD_REACTORS
330
3B
102
}
330
3B
100
AcDbScale
 70
     0
300
1:10
140
1.0
141
10.0
290
     0
  0
SCALE
  5
42
102
{ACAD_REACTORS
330
3B
102
}
330
3B
100
AcDbScale
 70
     0
300
1:16
140
1.0
141
16.0
290
     0
  0
SCALE
  5
43
102
{ACAD_REACTORS
330
3B
102
}
330
3B
100
AcDbScale
 70
     0
300
1:20
140
1.0
141
20.0
290
     0
  0
SCALE
  5
44
102
{ACAD_REACTORS
330
3B
102
}
330
3B
100
AcDbScale
 70
     0
300
1:30
140
1.0
141
30.0
290
     0
  0
SCALE
  5
45
102
{ACAD_REACTORS
330
3B
102
}
330
3B
100
AcDbScale
 70
     0
300
1:40
140
1.0
141
40.0
290
     0
  0
SCALE
  5
46
102
{ACAD_REACTORS
330
3B
102
}
330
3B
100
AcDbScale
 70
     0
300
1:50
140
1.0
141
50.0
290
     0
  0
SCALE
  5
47
102
{ACAD_REACTORS
330
3B
102
}
330
3B
100
AcDbScale
 70
     0
300
1:100
140
1.0
141
100.0
290
     0
  0
SCALE
  5
48
102
{ACAD_REACTORS
330
3B
102
}
330
3B
100
AcDbScale
 70
     0
300
2:1
140
2.0
141
1.0
290
     0
  0
SCALE
  5
49
102
{ACAD_REACTORS
330
3B
102
}
330
3B
100
AcDbScale
 70
     0
300
4:1
140
4.0
141
1.0
290
     0
  0
SCALE
  5
4A
102
{ACAD_REACTORS
330
3B
102
}
330
3B
100
AcDbScale
 70
     0
300
8:1
140
8.0
141
1.0
290
     0
  0
SCALE
  5
4B
102
{ACAD_REACTORS
330
3B
102
}
330
3B
100
AcDbScale
 70
     0
300
10:1
140
10.0
141
1.0
290
     0
  0
SCALE
  5
4C
102
{ACAD_REACTORS
330
3B
102
}
330
3B
100
AcDbScale
 70
     0
300
100:1
140
100.0
141
1.0
290
     0
  0
SCALE
  5
4D
102
{ACAD_REACTORS
330
3B
102
}
330
3B
100
AcDbScale
 70
     0
300
1/128" = 1'-0"
140
0.0078125
141
12.0
290
     0
  0
SCALE
  5
4E
102
{ACAD_REACTORS
330
3B
102
}
330
3B
100
AcDbScale
 70
     0
300
1/64" = 1'-0"
140
0.015625
141
12.0
290
     0
  0
SCALE
  5
4F
102
{ACAD_REACTORS
330
3B
102
}
330
3B
100
AcDbScale
 70
     0
300
1/32" = 1'-0"
140
0.03125
141
12.0
290
     0
  0
SCALE
  5
50
102
{ACAD_REACTORS
330
3B
102
}
330
3B
100
AcDbScale
 70
     0
300
1/16" = 1'-0"
140
0.0625
141
12.0
290
     0
  0
SCALE
  5
51
102
{ACAD_REACTORS
330
3B
102
}
330
3B
100
AcDbScale
 70
     0
300
3/32" = 1'-0"
140
0.09375
141
12.0
290
     0
  0
SCALE
  5
52
102
{ACAD_REACTORS
330
3B
102
}
330
3B
100
AcDbScale
 70
     0
300
1/8" = 1'-0"
140
0.125
141
12.0
290
     0
  0
SCALE
  5
53
102
{ACAD_REACTORS
330
3B
102
}
330
3B
100
AcDbScale
 70
     0
300
3/16" = 1'-0"
140
0.1875
141
12.0
290
     0
  0
SCALE
  5
54
102
{ACAD_REACTORS
330
3B
102
}
330
3B
100
AcDbScale
 70
     0
300
1/4" = 1'-0"
140
0.25
141
12.0
290
     0
  0
SCALE
  5
55
102
{ACAD_REACTORS
330
3B
102
}
330
3B
100
AcDbScale
 70
     0
300
3/8" = 1'-0"
140
0.375
141
12.0
290
     0
  0
SCALE
  5
56
102
{ACAD_REACTORS
330
3B
102
}
330
3B
100
AcDbScale
 70
     0
300
1/2" = 1'-0"
140
0.5
141
12.0
290
     0
  0
SCALE
  5
57
102
{ACAD_REACTORS
330
3B
102
}
330
3B
100
AcDbScale
 70
     0
300
3/4" = 1'-0"
140
0.75
141
12.0
290
     0
  0
SCALE
  5
58
102
{ACAD_REACTORS
330
3B
102
}
330
3B
100
AcDbScale
 70
     0
300
1" = 1'-0"
140
1.0
141
12.0
290
     0
  0
SCALE
  5
59
102
{ACAD_REACTORS
330
3B
102
}
330
3B
100
AcDbScale
 70
     0
300
1-1/2" = 1'-0"
140
1.5
141
12.0
290
     0
  0
SCALE
  5
5A
102
{ACAD_REACTORS
330
3B
102
}
330
3B
100
AcDbScale
 70
     0
300
3" = 1'-0"
140
3.0
141
12.0
290
     0
  0
SCALE
  5
5B
102
{ACAD_REACTORS
330
3B
102
}
330
3B
100
AcDbScale
 70
     0
300
6" = 1'-0"
140
6.0
141
12.0
290
     0
  0
SCALE
  5
5C
102
{ACAD_REACTORS
330
3B
102
}
330
3B
100
AcDbScale
 70
     0
300
1'-0" = 1'-0"
140
12.0
141
12.0
290
     0
  0
VISUALSTYLE
  5
2F
102
{ACAD_REACTORS
330
2A
102
}
330
2A
100
AcDbVisualStyle
  2
2dWireframe
 70
     4
 71
     0
 72
     2
 73
     0
 90
        0
 40
-0.6
 41
-30.0
 62
     5
 63
     7
 74
     1
 91
        4
 64
     7
 65
   257
 75
     1
175
     1
 42
1.0
 92
        0
 66
   257
 43
1.0
 76
     1
 77
     6
 78
     2
 67
     7
 79
     5
170
     0
171
     0
290
     0
174
     0
 93
        1
 44
0.0
173
     0
291
     0
 45
0.0
1001
ACAD
1000
AcDbSavedByObjectVersion
1070
     0
  0
VISUALSTYLE
  5
31
102
{ACAD_REACTORS
330
2A
102
}
330
2A
100
AcDbVisualStyle
  2
3D Hidden
 70
     6
 71
     1
 72
     2
 73
     2
 90
        0
 40
-0.6
 41
-30.0
 62
     5
 63
     7
 74
     2
 91
        2
 64
     7
 65
   257
 75
     2
175
     1
 42
40.0
 92
        0
 66
   257
 43
1.0
 76
     1
 77
     6
 78
     2
 67
     7
 79
     3
170
     0
171
     0
290
     0
174
     0
 93
        1
 44
0.0
173
     0
291
     0
 45
0.0
1001
ACAD
1000
AcDbSavedByObjectVersion
1070
     0
  0
VISUALSTYLE
  5
30
102
{ACAD_REACTORS
330
2A
102
}
330
2A
100
AcDbVisualStyle
  2
3dWireframe
 70
     5
 71
     0
 72
     2
 73
     0
 90
        0
 40
-0.6
 41
-30.0
 62
     5
 63
     7
 74
     1
 91
        4
 64
     7
 65
   257
 75
     1
175
     1
 42
1.0
 92
        0
 66
   257
 43
1.0
 76
     1
 77
     6
 78
     2
 67
     7
 79
     5
170
     0
171
     0
290
     0
174
     0
 93
        1
 44
0.0
173
     0
291
     0
 45
0.0
1001
ACAD
1000
AcDbSavedByObjectVersion
1070
     0
  0
VISUALSTYLE
  5
32
102
{ACAD_REACTORS
330
2A
102
}
330
2A
100
AcDbVisualStyle
  2
Basic
 70
     7
 71
     1
 72
     0
 73
     1
 90
        0
 40
-0.6
 41
-30.0
 62
     5
 63
     7
 74
     0
 91
        4
 64
     7
 65
   257
 75
     1
175
     1
 42
1.0
 92
        8
 66
     7
 43
1.0
 76
     1
 77
     6
 78
     2
 67
     7
 79
     5
170
     0
171
     0
290
     0
174
     0
 93
        1
 44
0.0
173
     0
291
     1
 45
0.0
1001
ACAD
1000
AcDbSavedByObjectVersion
1070
     0
  0
VISUALSTYLE
  5
36
102
{ACAD_REACTORS
330
2A
102
}
330
2A
100
AcDbVisualStyle
  2
Brighten
 70
    12
 71
     2
 72
     2
 73
     0
 90
        0
 40
-0.6
 41
-30.0
 62
     5
 63
     7
 74
     1
 91
        4
 64
     7
 65
   257
 75
     1
175
     1
 42
1.0
 92
        8
 66
     7
 43
1.0
 76
     1
 77
     6
 78
     2
 67
     7
 79
     5
170
     0
171
     0
290
     0
174
     0
 93
        1
 44
50.0
173
     0
291
     1
 45
0.0
1001
ACAD
1000
AcDbSavedByObjectVersion
1070
     0
  0
VISUALSTYLE
  5
3A
102
{ACAD_REACTORS
330
2A
102
}
330
2A
100
AcDbVisualStyle
  2
ColorChange
 70
    16
 71
     2
 72
     2
 73
     3
 90
        0
 40
-0.6
 41
-30.0
 62
     5
 63
     8
 74
     1
 91
        4
 64
     7
 65
   257
 75
     1
175
     1
 42
1.0
 92
        8
 66
     8
 43
1.0
 76
     1
 77
     6
 78
     2
 67
     7
 79
     5
170
     0
171
     0
290
     0
174
     0
 93
        1
 44
0.0
173
     0
291
     1
 45
0.0
1001
ACAD
1000
AcDbSavedByObjectVersion
1070
     0
  0
VISUALSTYLE
  5
34
102
{ACAD_REACTORS
330
2A
102
}
330
2A
100
AcDbVisualStyle
  2
Conceptual
 70
     9
 71
     3
 72
     2
 73
     0
 90
        0
 40
-0.6
 41
-30.0
 62
     5
 63
     7
 74
     2
 91
        2
 64
     7
 65
   257
 75
     1
175
     1
 42
40.0
 92
        8
 66
     7
 43
1.0
 76
     1
 77
     6
 78
     2
 67
     7
 79
     3
170
     0
171
     0
290
     0
174
     0
 93
        1
 44
0.0
173
     0
291
     0
 45
0.0
1001
ACAD
1000
AcDbSavedByObjectVersion
1070
     0
  0
VISUALSTYLE
  5
35
102
{ACAD_REACTORS
330
2A
102
}
330
2A
100
AcDbVisualStyle
  2
Dim
 70
    11
 71
     2
 72
     2
 73
     0
 90
        0
 40
-0.6
 41
-30.0
 62
     5
 63
     7
 74
     1
 91
        4
 64
     7
 65
   257
 75
     1
175
     1
 42
1.0
 92
        8
 66
     7
 43
1.0
 76
     1
 77
     6
 78
     2
 67
     7
 79
     5
170
     0
171
     0
290
     0
174
     0
 93
        1
 44
-50.0
173
     0
291
     1
 45
0.0
1001
ACAD
1000
AcDbSavedByObjectVersion
1070
     0
  0
VISUALSTYLE
  5
39
102
{ACAD_REACTORS
330
2A
102
}
330
2A
100
AcDbVisualStyle
  2
Facepattern
 70
    15
 71
     2
 72
     2
 73
     0
 90
        0
 40
-0.6
 41
-30.0
 62
     5
 63
     7
 74
     1
 91
        4
 64
     7
 65
   257
 75
     1
175
     1
 42
1.0
 92
        8
 66
     7
 43
1.0
 76
     1
 77
     6
 78
     2
 67
     7
 79
     5
170
     0
171
     0
290
     0
174
     0
 93
        1
 44
0.0
173
     0
291
     1
 45
0.0
1001
ACAD
1000
AcDbSavedByObjectVersion
1070
     0
  0
VISUALSTYLE
  5
2B
102
{ACAD_REACTORS
330
2A
102
}
330
2A
100
AcDbVisualStyle
  2
Flat
 70
     0
 71
     2
 72
     1
 73
     1
 90
        2
 40
-0.6
 41
30.0
 62
     5
 63
     7
 74
     0
 91
        4
 64
     7
 65
   257
 75
     1
175
     1
 42
1.0
 92
        8
 66
     7
 43
1.0
 76
     1
 77
     6
 78
     2
 67
     7
 79
     5
170
     0
171
     0
290
     0
174
     0
 93
       13
 44
0.0
173
     0
291
     1
 45
0.0
1001
ACAD
1000
AcDbSavedByObjectVersion
1070
     0
  0
VISUALSTYLE
  5
2C
102
{ACAD_REACTORS
330
2A
102
}
330
2A
100
AcDbVisualStyle
  2
FlatWithEdges
 70
     1
 71
     2
 72
     1
 73
     1
 90
        2
 40
-0.6
 41
30.0
 62
     5
 63
     7
 74
     1
 91
        4
 64
     7
 65
   257
 75
     1
175
     1
 42
1.0
 92
        0
 66
   257
 43
1.0
 76
     1
 77
     6
 78
     2
 67
     7
 79
     5
170
     0
171
     0
290
     0
174
     0
 93
       13
 44
0.0
173
     0
291
     1
 45
0.0
1001
ACAD
1000
AcDbSavedByObjectVersion
1070
     0
  0
VISUALSTYLE
  5
2D
102
{ACAD_REACTORS
330
2A
102
}
330
2A
100
AcDbVisualStyle
  2
Gouraud
 70
     2
 71
     2
 72
     2
 73
     1
 90
        2
 40
-0.6
 41
30.0
 62
     5
 63
     7
 74
     0
 91
        4
 64
     7
 65
   257
 75
     1
175
     1
 42
1.0
 92
        0
 66
     7
 43
1.0
 76
     1
 77
     6
 78
     2
 67
     7
 79
     5
170
     0
171
     0
290
     0
174
     0
 93
       13
 44
0.0
173
     0
291
     1
 45
0.0
1001
ACAD
1000
AcDbSavedByObjectVersion
1070
     0
  0
VISUALSTYLE
  5
2E
102
{ACAD_REACTORS
330
2A
102
}
330
2A
100
AcDbVisualStyle
  2
GouraudWithEdges
 70
     3
 71
     2
 72
     2
 73
     1
 90
        2
 40
-0.6
 41
30.0
 62
     5
 63
     7
 74
     1
 91
        4
 64
     7
 65
   257
 75
     1
175
     1
 42
1.0
 92
        0
 66
   257
 43
1.0
 76
     1
 77
     6
 78
     2
 67
     7
 79
     5
170
     0
171
     0
290
     0
174
     0
 93
       13
 44
0.0
173
     0
291
     1
 45
0.0
1001
ACAD
1000
AcDbSavedByObjectVersion
1070
     0
  0
VISUALSTYLE
  5
38
102
{ACAD_REACTORS
330
2A
102
}
330
2A
100
AcDbVisualStyle
  2
Linepattern
 70
    14
 71
     2
 72
     2
 73
     0
 90
        0
 40
-0.6
 41
-30.0
 62
     5
 63
     7
 74
     1
 91
        4
 64
     7
 65
   257
 75
     7
175
     7
 42
1.0
 92
        8
 66
     7
 43
1.0
 76
     1
 77
     6
 78
     2
 67
     7
 79
     5
170
     0
171
     0
290
     0
174
     0
 93
        1
 44
0.0
173
     0
291
     1
 45
0.0
1001
ACAD
1000
AcDbSavedByObjectVersion
1070
     0
  0
VISUALSTYLE
  5
33
102
{ACAD_REACTORS
330
2A
102
}
330
2A
100
AcDbVisualStyle
  2
Realistic
 70
     8
 71
     2
 72
     2
 73
     0
 90
        0
 40
-0.6
 41
-30.0
 62
     5
 63
     7
 74
     1
 91
        0
 64
     7
 65
   257
 75
     1
175
     1
 42
1.0
 92
        8
 66
     8
 43
1.0
 76
     1
 77
     6
 78
     2
 67
     7
 79
     5
170
     0
171
     0
290
     0
174
     0
 93
       13
 44
0.0
173
     0
291
     0
 45
0.0
1001
ACAD
1000
AcDbSavedByObjectVersion
1070
     0
  0
VISUALSTYLE
  5
37
102
{ACAD_REACTORS
330
2A
102
}
330
2A
100
AcDbVisualStyle
  2
Thicken
 70
    13
 71
     2
 72
     2
 73
     0
 90
        0
 40
-0.6
 41
-30.0
 62
     5
 63
     7
 74
     1
 91
        4
 64
     7
 65
   257
 75
     1
175
     1
 42
1.0
 92
       12
 66
     7
 43
1.0
 76
     1
 77
     6
 78
     2
 67
     7
 79
     5
170
     0
171
     0
290
     0
174
     0
 93
        1
 44
0.0
173
     0
291
     1
 45
0.0
1001
ACAD
1000
AcDbSavedByObjectVersion
1070
     0
  0
DICTIONARYVAR
  5
25F
102
{ACAD_REACTORS
330
25E
102
}
330
25E
100
DictionaryVariables
280
     0
  1
1:1
  0
DICTIONARYVAR
  5
263
102
{ACAD_REACTORS
330
25E
102
}
330
25E
100
DictionaryVariables
280
     0
  1
80.000000
  0
DICTIONARYVAR
  5
262
102
{ACAD_REACTORS
330
25E
102
}
330
25E
100
DictionaryVariables
280
     0
  1
5.000000
  0
ENDSEC
  0
EOF
