  0
SECTION
  2
HEADER
  9
$ACADVER
  1
AC1015
  9
$ACADMAINTVER
 70
     6
  9
$DWGCODEPAGE
  3
ANSI_1252
  9
$INSBASE
 10
0.0
 20
0.0
 30
0.0
  9
$EXTMIN
 10
0.0
 20
0.0
 30
0.0
  9
$EXTMAX
 10
3000.0
 20
4500.0
 30
0.0
  9
$LIMMIN
 10
0.0
 20
0.0
  9
$LIMMAX
 10
3000.0
 20
4500.0
  9
$ORTHOMODE
 70
     0
  9
$REGENMODE
 70
     1
  9
$FILLMODE
 70
     1
  9
$QTEXTMODE
 70
     0
  9
$MIRRTEXT
 70
     1
  9
$LTSCALE
 40
1.0
  9
$ATTMODE
 70
     1
  9
$TEXTSIZE
 40
2.5
  9
$TRACEWID
 40
1.0
  9
$TEXTSTYLE
  7
Standard
  9
$CLAYER
  8
0
  9
$CELTYPE
  6
ByLayer
  9
$CECOLOR
 62
   256
  9
$CELTSCALE
 40
1.0
  9
$DISPSILH
 70
     0
  9
$DIMSCALE
 40
1.0
  9
$DIMASZ
 40
2.5
  9
$DIMEXO
 40
0.625
  9
$DIMDLI
 40
3.75
  9
$DIMRND
 40
0.0
  9
$DIMDLE
 40
0.0
  9
$DIMEXE
 40
1.25
  9
$DIMTP
 40
0.0
  9
$DIMTM
 40
0.0
  9
$DIMTXT
 40
2.5
  9
$DIMCEN
 40
2.5
  9
$DIMTSZ
 40
0.0
  9
$DIMTOL
 70
     0
  9
$DIMLIM
 70
     0
  9
$DIMTIH
 70
     0
  9
$DIMTOH
 70
     0
  9
$DIMSE1
 70
     0
  9
$DIMSE2
 70
     0
  9
$DIMTAD
 70
     1
  9
$DIMZIN
 70
     8
  9
$DIMBLK
  1

  9
$DIMASO
 70
     1
  9
$DIMSHO
 70
     1
  9
$DIMPOST
  1

  9
$DIMAPOST
  1

  9
$DIMALT
 70
     0
  9
$DIMALTD
 70
     3
  9
$DIMALTF
 40
0.0393700787
  9
$DIMLFAC
 40
1.0
  9
$DIMTOFL
 70
     1
  9
$DIMTVP
 40
0.0
  9
$DIMTIX
 70
     0
  9
$DIMSOXD
 70
     0
  9
$DIMSAH
 70
     0
  9
$DIMBLK1
  1

  9
$DIMBLK2
  1

  9
$DIMSTYLE
  2
ISO-25
  9
$DIMCLRD
 70
     0
  9
$DIMCLRE
 70
     0
  9
$DIMCLRT
 70
     0
  9
$DIMTFAC
 40
1.0
  9
$DIMGAP
 40
0.625
  9
$DIMJUST
 70
     0
  9
$DIMSD1
 70
     0
  9
$DIMSD2
 70
     0
  9
$DIMTOLJ
 70
     0
  9
$DIMTZIN
 70
     8
  9
$DIMALTZ
 70
     0
  9
$DIMALTTZ
 70
     0
  9
$DIMUPT
 70
     0
  9
$DIMDEC
 70
     2
  9
$DIMTDEC
 70
     2
  9
$DIMALTU
 70
     2
  9
$DIMALTTD
 70
     3
  9
$DIMTXSTY
  7
Standard
  9
$DIMAUNIT
 70
     0
  9
$DIMADEC
 70
     0
  9
$DIMALTRND
 40
0.0
  9
$DIMAZIN
 70
     0
  9
$DIMDSEP
 70
    44
  9
$DIMATFIT
 70
     3
  9
$DIMFRAC
 70
     0
  9
$DIMLDRBLK
  1

  9
$DIMLUNIT
 70
     2
  9
$DIMLWD
 70
    -2
  9
$DIMLWE
 70
    -2
  9
$DIMTMOVE
 70
     0
  9
$LUNITS
 70
     2
  9
$LUPREC
 70
     4
  9
$SKETCHINC
 40
1.0
  9
$FILLETRAD
 40
10.0
  9
$AUNITS
 70
     0
  9
$AUPREC
 70
     0
  9
$MENU
  1
.
  9
$ELEVATION
 40
0.0
  9
$PELEVATION
 40
0.0
  9
$THICKNESS
 40
0.0
  9
$LIMCHECK
 70
     0
  9
$CHAMFERA
 40
10.0
  9
$CHAMFERB
 40
10.0
  9
$CHAMFERC
 40
20.0
  9
$CHAMFERD
 40
0.0
  9
$SKPOLY
 70
     0
  9
$TDCREATE
 40
2456868.655367963
  9
$TDUCREATE
 40
2456868.57203463
  9
$TDUPDATE
 40
2456868.655367975
  9
$TDUUPDATE
 40
2456868.572034641
  9
$TDINDWG
 40
0.0000000116
  9
$TDUSRTIMER
 40
0.0000000116
  9
$USRTIMER
 70
     1
  9
$ANGBASE
 50
0.0
  9
$ANGDIR
 70
     0
  9
$PDMODE
 70
     0
  9
$PDSIZE
 40
0.0
  9
$PLINEWID
 40
0.0
  9
$SPLFRAME
 70
     0
  9
$SPLINETYPE
 70
     6
  9
$SPLINESEGS
 70
     8
  9
$HANDSEED
  5
29C
  9
$SURFTAB1
 70
     6
  9
$SURFTAB2
 70
     6
  9
$SURFTYPE
 70
     6
  9
$SURFU
 70
     6
  9
$SURFV
 70
     6
  9
$UCSBASE
  2

  9
$UCSNAME
  2

  9
$UCSORG
 10
0.0
 20
0.0
 30
0.0
  9
$UCSXDIR
 10
1.0
 20
0.0
 30
0.0
  9
$UCSYDIR
 10
0.0
 20
1.0
 30
0.0
  9
$UCSORTHOREF
  2

  9
$UCSORTHOVIEW
 70
     0
  9
$UCSORGTOP
 10
0.0
 20
0.0
 30
0.0
  9
$UCSORGBOTTOM
 10
0.0
 20
0.0
 30
0.0
  9
$UCSORGLEFT
 10
0.0
 20
0.0
 30
0.0
  9
$UCSORGRIGHT
 10
0.0
 20
0.0
 30
0.0
  9
$UCSORGFRONT
 10
0.0
 20
0.0
 30
0.0
  9
$UCSORGBACK
 10
0.0
 20
0.0
 30
0.0
  9
$PUCSBASE
  2

  9
$PUCSNAME
  2

  9
$PUCSORG
 10
0.0
 20
0.0
 30
0.0
  9
$PUCSXDIR
 10
1.0
 20
0.0
 30
0.0
  9
$PUCSYDIR
 10
0.0
 20
1.0
 30
0.0
  9
$PUCSORTHOREF
  2

  9
$PUCSORTHOVIEW
 70
     0
  9
$PUCSORGTOP
 10
0.0
 20
0.0
 30
0.0
  9
$PUCSORGBOTTOM
 10
0.0
 20
0.0
 30
0.0
  9
$PUCSORGLEFT
 10
0.0
 20
0.0
 30
0.0
  9
$PUCSORGRIGHT
 10
0.0
 20
0.0
 30
0.0
  9
$PUCSORGFRONT
 10
0.0
 20
0.0
 30
0.0
  9
$PUCSORGBACK
 10
0.0
 20
0.0
 30
0.0
  9
$USERI1
 70
     0
  9
$USERI2
 70
     0
  9
$USERI3
 70
     0
  9
$USERI4
 70
     0
  9
$USERI5
 70
     0
  9
$USERR1
 40
0.0
  9
$USERR2
 40
0.0
  9
$USERR3
 40
0.0
  9
$USERR4
 40
0.0
  9
$USERR5
 40
0.0
  9
$WORLDVIEW
 70
     1
  9
$SHADEDGE
 70
     3
  9
$SHADEDIF
 70
    70
  9
$TILEMODE
 70
     1
  9
$MAXACTVP
 70
    64
  9
$PINSBASE
 10
0.0
 20
0.0
 30
0.0
  9
$PLIMCHECK
 70
     0
  9
$PEXTMIN
 10
0.0
 20
0.0
 30
0.0
  9
$PEXTMAX
 10
3000.0
 20
4500.0
 30
0.0
  9
$PLIMMIN
 10
0.0
 20
0.0
  9
$PLIMMAX
 10
3000.0
 20
4500.0
  9
$UNITMODE
 70
     0
  9
$VISRETAIN
 70
     1
  9
$PLINEGEN
 70
     0
  9
$PSLTSCALE
 70
     1
  9
$TREEDEPTH
 70
  3020
  9
$CMLSTYLE
  2
Standard
  9
$CMLJUST
 70
     0
  9
$CMLSCALE
 40
20.0
  9
$PROXYGRAPHICS
 70
     1
  9
$MEASUREMENT
 70
     1
  9
$CELWEIGHT
370
    -1
  9
$ENDCAPS
280
     0
  9
$JOINSTYLE
280
     0
  9
$LWDISPLAY
290
     0
  9
$INSUNITS
 70
     4
  9
$HYPERLINKBASE
  1

  9
$STYLESHEET
  1

  9
$XEDIT
290
     1
  9
$CEPSNTYPE
380
     0
  9
$PSTYLEMODE
290
     1
  9
$FINGERPRINTGUID
  2
{DD21F341-D8F4-4691-9929-1DA3340CB7FC}
  9
$VERSIONGUID
  2
{FAEB1C32-E019-11D5-929B-00C0DF256EC4}
  9
$EXTNAMES
290
     1
  9
$PSVPSCALE
 40
0.0
  9
$OLESTARTUP
290
     0
  0
ENDSEC
  0
SECTION
  2
CLASSES
  0
CLASS
  1
ACDBDICTIONARYWDFLT
  2
AcDbDictionaryWithDefault
  3
ObjectDBX Classes
 90
        0
280
     0
281
     0
  0
CLASS
  1
VISUALSTYLE
  2
AcDbVisualStyle
  3
ObjectDBX Classes
 90
     4095
280
     0
281
     0
  0
CLASS
  1
SCALE
  2
AcDbScale
  3
ObjectDBX Classes
 90
     1153
280
     0
281
     0
  0
CLASS
  1
DICTIONARYVAR
  2
AcDbDictionaryVar
  3
ObjectDBX Classes
 90
        0
280
     0
281
     0
  0
CLASS
  1
ACDBPLACEHOLDER
  2
AcDbPlaceHolder
  3
ObjectDBX Classes
 90
        0
280
     0
281
     0
  0
CLASS
  1
LAYOUT
  2
AcDbLayout
  3
ObjectDBX Classes
 90
        0
280
     0
281
     0
  0
ENDSEC
  0
SECTION
  2
TABLES
  0
TABLE
  2
VPORT
  5
8
330
0
100
AcDbSymbolTable
 70
     1
  0
VPORT
  5
29
330
8
100
AcDbSymbolTableRecord
100
AcDbViewportTableRecord
  2
*Active
 70
     0
 10
0.0
 20
0.0
 11
1.0
 21
1.0
 12
344.1869158879
 22
148.5
 13
0.0
 23
0.0
 14
10.0
 24
10.0
 15
10.0
 25
10.0
 16
0.0
 26
0.0
 36
1.0
 17
0.0
 27
0.0
 37
0.0
 40
297.0
 41
1.9729729729
 42
50.0
 43
0.0
 44
0.0
 50
0.0
 51
0.0
 71
     0
 72
   100
 73
     1
 74
     3
 75
     0
 76
     0
 77
     0
 78
     0
281
     0
 65
     1
110
0.0
120
0.0
130
0.0
111
1.0
121
0.0
131
0.0
112
0.0
122
1.0
132
0.0
 79
     0
146
0.0
  0
ENDTAB
  0
TABLE
  2
LTYPE
  5
5
330
0
100
AcDbSymbolTable
 70
     2
  0
LTYPE
  5
14
330
5
100
AcDbSymbolTableRecord
100
AcDbLinetypeTableRecord
  2
ByBlock
 70
     0
  3

 72
    65
 73
     0
 40
0.0
  0
LTYPE
  5
15
330
5
100
AcDbSymbolTableRecord
100
AcDbLinetypeTableRecord
  2
ByLayer
 70
     0
  3

 72
    65
 73
     0
 40
0.0
  0
LTYPE
  5
16
330
5
100
AcDbSymbolTableRecord
100
AcDbLinetypeTableRecord
  2
Continuous
 70
     0
  3
Solid line
 72
    65
 73
     0
 40
0.0
  0
LTYPE
  5
60
330
5
100
AcDbSymbolTableRecord
100
AcDbLinetypeTableRecord
  2
CENTER2
 70
     0
  3
Center (.5x) ___ _ ___ _ ___ _ ___ _ ___ _ ___
 72
    65
 73
     4
 40
28.575
 49
19.05
 74
     4
 75
     0
340
0
 46
0.0
 50
0.0
 44
0.0
 45
0.0
 49
-3.175
 74
     4
 75
     0
340
0
 46
0.0
 50
0.0
 44
0.0
 45
0.0
 49
3.175
 74
     4
 75
     0
340
0
 46
0.0
 50
0.0
 44
0.0
 45
0.0
 49
-3.175
 74
     4
 75
     0
340
0
 46
0.0
 50
0.0
 44
0.0
 45
0.0
  0
ENDTAB
  0
TABLE
  2
LAYER
  5
2
330
0
100
AcDbSymbolTable
 70
     5
  0
LAYER
  5
10
330
2
100
AcDbSymbolTableRecord
100
AcDbLayerTableRecord
  2
0
 70
     0
 62
     7
  6
Continuous
370
    -3
390
F
  0
LAYER
  5
5D
330
2
100
AcDbSymbolTableRecord
100
AcDbLayerTableRecord
  2
Default
 70
     0
 62
     7
  6
Continuous
370
    -3
390
F
  0
LAYER
  5
77
330
2
100
AcDbSymbolTableRecord
100
AcDbLayerTableRecord
  2
DV1_Default
 70
     0
 62
     7
  6
Continuous
370
    -3
390
F
  0
LAYER
  5
14C
330
2
100
AcDbSymbolTableRecord
100
AcDbLayerTableRecord
  2
DV2_Default
 70
     0
 62
     7
  6
Continuous
370
    -3
390
F
  0
LAYER
  5
1DC
330
2
100
AcDbSymbolTableRecord
100
AcDbLayerTableRecord
  2
DV3_Default
 70
     0
 62
     7
  6
Continuous
370
    -3
390
F
  0
ENDTAB
  0
TABLE
  2
STYLE
  5
3
330
0
100
AcDbSymbolTable
 70
     2
  0
STYLE
  5
11
330
3
100
AcDbSymbolTableRecord
100
AcDbTextStyleTableRecord
  2
Standard
 70
     0
 40
0.0
 41
1.0
 50
0.0
 71
     0
 42
2.5
  3
txt
  4

  0
STYLE
  5
28B
330
3
100
AcDbSymbolTableRecord
100
AcDbTextStyleTableRecord
  2
SEACAD_seiso_ttf
 70
     0
 40
0.0
 41
1.0
 50
0.0
 71
     0
 42
0.2
  3
seiso.ttf
  4

  0
ENDTAB
  0
TABLE
  2
VIEW
  5
6
330
0
100
AcDbSymbolTable
 70
     0
  0
ENDTAB
  0
TABLE
  2
UCS
  5
7
330
0
100
AcDbSymbolTable
 70
     0
  0
ENDTAB
  0
TABLE
  2
APPID
  5
9
330
0
100
AcDbSymbolTable
 70
     1
  0
APPID
  5
12
330
9
100
AcDbSymbolTableRecord
100
AcDbRegAppTableRecord
  2
ACAD
 70
     0
  0
ENDTAB
  0
TABLE
  2
DIMSTYLE
  5
A
330
0
100
AcDbSymbolTable
 70
     1
100
AcDbDimStyleTable
  0
DIMSTYLE
105
27
330
A
100
AcDbSymbolTableRecord
100
AcDbDimStyleTableRecord
  2
ISO-25
 70
     0
 41
2.5
 42
0.625
 43
3.75
 44
1.25
 73
     0
 74
     0
 77
     1
 78
     8
140
2.5
141
2.5
143
0.0393700787
147
0.625
171
     3
172
     1
271
     2
272
     2
274
     3
278
    44
283
     0
284
     8
340
11
  0
ENDTAB
  0
TABLE
  2
BLOCK_RECORD
  5
1
330
0
100
AcDbSymbolTable
 70
     7
  0
BLOCK_RECORD
  5
1F
330
1
100
AcDbSymbolTableRecord
100
AcDbBlockTableRecord
  2
*Model_Space
340
22
  0
BLOCK_RECORD
  5
1B
330
1
100
AcDbSymbolTableRecord
100
AcDbBlockTableRecord
  2
*Paper_Space
340
1E
  0
BLOCK_RECORD
  5
5E
330
1
100
AcDbSymbolTableRecord
100
AcDbBlockTableRecord
  2
SEANNOT_GROUP
340
0
102
{BLKREFS
331
5F
102
}
  0
BLOCK_RECORD
  5
69
330
1
100
AcDbSymbolTableRecord
100
AcDbBlockTableRecord
  2
SEANNOT_GROUP1
340
0
102
{BLKREFS
331
6A
102
}
  0
BLOCK_RECORD
  5
6F
330
1
100
AcDbSymbolTableRecord
100
AcDbBlockTableRecord
  2
SEANNOT_GROUP2
340
0
102
{BLKREFS
331
70
102
}
  0
BLOCK_RECORD
  5
75
330
1
100
AcDbSymbolTableRecord
100
AcDbBlockTableRecord
  2
SE
340
0
102
{BLKREFS
331
76
102
}
  0
BLOCK_RECORD
  5
14A
330
1
100
AcDbSymbolTableRecord
100
AcDbBlockTableRecord
  2
SE1
340
0
102
{BLKREFS
331
14B
102
}
  0
BLOCK_RECORD
  5
1DA
330
1
100
AcDbSymbolTableRecord
100
AcDbBlockTableRecord
  2
SE2
340
0
102
{BLKREFS
331
1DB
102
}
  0
ENDTAB
  0
ENDSEC
  0
SECTION
  2
BLOCKS
  0
BLOCK
  5
20
330
1F
100
AcDbEntity
  8
0
100
AcDbBlockBegin
  2
*Model_Space
 70
     0
 10
0.0
 20
0.0
 30
0.0
  3
*Model_Space
  1

  0
ENDBLK
  5
21
330
1F
100
AcDbEntity
  8
0
100
AcDbBlockEnd
  0
BLOCK
  5
1C
330
1B
100
AcDbEntity
 67
     1
  8
0
100
AcDbBlockBegin
  2
*Paper_Space
 70
     0
 10
0.0
 20
0.0
 30
0.0
  3
*Paper_Space
  1

  0
ENDBLK
  5
1D
330
1B
100
AcDbEntity
 67
     1
  8
0
100
AcDbBlockEnd
  0
BLOCK
  5
67
330
5E
100
AcDbEntity
  8
0
100
AcDbBlockBegin
  2
SEANNOT_GROUP
 70
     0
 10
0.0
 20
0.0
 30
0.0
  3
SEANNOT_GROUP
  1

  0
LINE
  5
61
330
5E
100
AcDbEntity
  8
Default
  6
CENTER2
 62
     7
100
AcDbLine
 10
205.7940603698
 20
411.8589960435
 30
0.0
 11
165.7940612639
 21
411.8589960435
 31
0.0
  0
LINE
  5
62
330
5E
100
AcDbEntity
  8
Default
  6
CENTER2
 62
     7
100
AcDbLine
 10
185.7940608168
 20
431.8589955965
 30
0.0
 11
185.7940608168
 21
391.8589964906
 31
0.0
  0
LINE
  5
63
330
5E
100
AcDbEntity
  8
Default
  6
CENTER2
 62
     7
100
AcDbLine
 10
210.7940593267
 20
411.8589960435
 30
0.0
 11
272.4547741613
 21
411.8589960435
 31
0.0
  0
LINE
  5
64
330
5E
100
AcDbEntity
  8
Default
  6
CENTER2
 62
     7
100
AcDbLine
 10
185.7940608168
 20
436.8589945534
 30
0.0
 11
185.7940608168
 21
498.519709388
 31
0.0
  0
LINE
  5
65
330
5E
100
AcDbEntity
  8
Default
  6
CENTER2
 62
     7
100
AcDbLine
 10
160.7940623069
 20
411.8589960435
 30
0.0
 11
99.1333474724
 21
411.8589960435
 31
0.0
  0
LINE
  5
66
330
5E
100
AcDbEntity
  8
Default
  6
CENTER2
 62
     7
100
AcDbLine
 10
185.7940608168
 20
386.8589975336
 30
0.0
 11
185.7940608168
 21
325.1982826991
 31
0.0
  0
ENDBLK
  5
68
330
5E
100
AcDbEntity
  8
0
100
AcDbBlockEnd
  0
BLOCK
  5
6D
330
69
100
AcDbEntity
  8
0
100
AcDbBlockBegin
  2
SEANNOT_GROUP1
 70
     0
 10
0.0
 20
0.0
 30
0.0
  3
SEANNOT_GROUP1
  1

  0
LINE
  5
6B
330
69
100
AcDbEntity
  8
Default
  6
CENTER2
 62
     7
100
AcDbLine
 10
436.7043360583
 20
411.8591657485
 30
0.0
 11
396.7043369524
 21
411.8591657485
 31
0.0
  0
LINE
  5
6C
330
69
100
AcDbEntity
  8
Default
  6
CENTER2
 62
     7
100
AcDbLine
 10
416.7043365053
 20
431.8591653015
 30
0.0
 11
416.7043365053
 21
391.8591661956
 31
0.0
  0
ENDBLK
  5
6E
330
69
100
AcDbEntity
  8
0
100
AcDbBlockEnd
  0
BLOCK
  5
73
330
6F
100
AcDbEntity
  8
0
100
AcDbBlockBegin
  2
SEANNOT_GROUP2
 70
     0
 10
0.0
 20
0.0
 30
0.0
  3
SEANNOT_GROUP2
  1

  0
LINE
  5
71
330
6F
100
AcDbEntity
  8
Default
  6
CENTER2
 62
     7
100
AcDbLine
 10
205.8055131843
 20
206.6494748441
 30
0.0
 11
165.8055140784
 21
206.6494748441
 31
0.0
  0
LINE
  5
72
330
6F
100
AcDbEntity
  8
Default
  6
CENTER2
 62
     7
100
AcDbLine
 10
185.8055136314
 20
226.6494743971
 30
0.0
 11
185.8055136314
 21
186.6494752912
 31
0.0
  0
ENDBLK
  5
74
330
6F
100
AcDbEntity
  8
0
100
AcDbBlockEnd
  0
BLOCK
  5
148
330
75
100
AcDbEntity
  8
0
100
AcDbBlockBegin
  2
SE
 70
     0
 10
0.0
 20
0.0
 30
0.0
  3
SE
  1

  0
ARC
  5
78
330
75
100
AcDbEntity
  8
DV1_Default
  6
Continuous
 62
     7
100
AcDbCircle
 10
172.0266749042
 20
-52757.2123999532
 30
0.0
 40
52946.0766839103
100
AcDbArc
 50
89.9850890971
 51
90.0162955473
  0
SPLINE
  5
79
330
75
100
AcDbEntity
  8
DV1_Default
  6
Continuous
 62
     7
100
AcDbSpline
210
0.0
220
0.0
230
1.0
 70
     8
 71
     3
 72
    24
 73
    20
 74
     0
 42
0.0000000003467707
 43
0.0000000001
 40
0.0
 40
0.0
 40
0.0
 40
0.0
 40
0.0310234351527077
 40
0.0620563965900014
 40
0.1248084017927507
 40
0.188415336625234
 40
0.2517457895748752
 40
0.3148926245441783
 40
0.3778107761912021
 40
0.4396345699491588
 40
0.5013568705744947
 40
0.5631972826270039
 40
0.624896890938789
 40
0.6866951861413438
 40
0.749104956622423
 40
0.8748212540417294
 40
0.9370025290424248
 40
0.9994567434926627
 40
1.0
 40
1.0
 40
1.0
 40
1.0
 10
185.8055920408982
 20
188.8624910144468
 30
0.0
 10
186.2734813126259
 20
188.8625389129803
 30
0.0
 10
187.2094035298748
 20
188.8625455691152
 30
0.0
 10
189.0865561994966
 20
188.8624546237803
 30
0.0
 10
191.4377085960856
 20
188.8628566626511
 30
0.0
 10
194.2138262295967
 20
188.8628762154828
 30
0.0
 10
196.914500190594
 20
188.8630580439873
 30
0.0
 10
199.495628703436
 20
188.8624417311345
 30
0.0
 10
201.9302091364021
 20
188.8624930586839
 30
0.0
 10
204.1936104032177
 20
188.8623819938952
 30
0.0
 10
206.2672209942504
 20
188.8621599192139
 30
0.0
 10
208.1428205864242
 20
188.8627080888359
 30
0.0
 10
209.8032473054013
 20
188.8630785504561
 30
0.0
 10
211.235562613243
 20
188.8626088121006
 30
0.0
 10
212.8450287811569
 20
188.8621436360478
 30
0.0
 10
213.9759881396095
 20
188.8630816679359
 30
0.0
 10
214.5477663881607
 20
188.8627166882706
 30
0.0
 10
214.6429138452317
 20
188.8622356808615
 30
0.0
 10
214.6430756372306
 20
188.8621663871745
 30
0.0
 10
214.6430734838094
 20
188.8621658023796
 30
0.0
  0
LINE
  5
7A
330
75
100
AcDbEntity
  8
DV1_Default
  6
Continuous
 62
     7
100
AcDbLine
 10
157.0621215254
 20
188.8622849248
 30
0.0
 11
185.8102828427
 21
188.862454913
 31
0.0
  0
LINE
  5
7B
330
75
100
AcDbEntity
  8
DV1_Default
  6
Continuous
 62
     7
100
AcDbLine
 10
214.5322891715
 20
188.8625349527
 30
0.0
 11
185.8150520441
 21
188.8623753057
 31
0.0
  0
ARC
  5
7C
330
75
100
AcDbEntity
  8
DV1_Default
  6
Continuous
 62
     7
100
AcDbCircle
 10
227.342094377
 20
-14900.9623005104
 30
0.0
 40
15100.14655283106
100
AcDbArc
 50
89.8420589502
 51
90.1576057078
  0
SPLINE
  5
7D
330
75
100
AcDbEntity
  8
DV1_Default
  6
Continuous
 62
     7
100
AcDbSpline
210
0.0
220
0.0
230
1.0
 70
     8
 71
     3
 72
    25
 73
    21
 74
     0
 42
0.0000000001098897
 43
0.0000000001
 40
0.0
 40
0.0
 40
0.0
 40
0.0
 40
0.0150872189761744
 40
0.0302630777209356
 40
0.0608927649179365
 40
0.091858194074855
 40
0.1231264179279959
 40
0.2500133283053935
 40
0.3693847617699703
 40
0.4997775015583716
 40
0.5497223053301019
 40
0.5997019183201684
 40
0.6497286748447662
 40
0.6997968508338227
 40
0.7498887261036562
 40
0.7999806007487559
 40
0.8500487761547766
 40
0.9000755360248084
 40
0.9500551628056687
 40
1.0
 40
1.0
 40
1.0
 40
1.0
 10
185.8055921067543
 20
206.6510759725134
 30
0.0
 10
185.0876735108884
 20
206.6522212752898
 30
0.0
 10
183.6476184356277
 20
206.6512442872707
 30
0.0
 10
180.7519512070756
 20
206.6478329981823
 30
0.0
 10
177.107533000846
 20
206.6502089914385
 30
0.0
 10
172.7208163562264
 20
206.6491934047198
 30
0.0
 10
163.854887856487
 20
206.6497698173778
 30
0.0
 10
151.1316571239105
 20
206.6493247633771
 30
0.0
 10
135.1851638264399
 20
206.6494730505818
 30
0.0
 10
123.9797883212764
 20
206.6494316785325
 30
0.0
 10
116.5526704175816
 20
206.6494398614858
 30
0.0
 10
112.1538230780561
 20
206.649450842894
 30
0.0
 10
108.2086267122469
 20
206.6494698211554
 30
0.0
 10
104.7332468698508
 20
206.6494961662306
 30
0.0
 10
101.7445623733927
 20
206.6495300429744
 30
0.0
 10
99.26062494039293
 20
206.6495714208395
 30
0.0
 10
97.29475749849671
 20
206.6496202659479
 30
0.0
 10
95.87872991468939
 20
206.6496767640335
 30
0.0
 10
94.97610825598773
 20
206.6497402378316
 30
0.0
 10
94.86230805367629
 20
206.6497889181405
 30
0.0
 10
94.80523352818923
 20
206.6496284281675
 30
0.0
  0
SPLINE
  5
7E
330
75
100
AcDbEntity
  8
DV1_Default
  6
Continuous
 62
     7
100
AcDbSpline
210
0.0
220
0.0
230
1.0
 70
     8
 71
     3
 72
    26
 73
    22
 74
     0
 42
0.0000000001098884
 43
0.0000000001
 40
0.0
 40
0.0
 40
0.0
 40
0.0
 40
0.0131727554142708
 40
0.0308938023473654
 40
0.0618695485674095
 40
0.1242883217502524
 40
0.2501818544928186
 40
0.3751067088606561
 40
0.4997702625632253
 40
0.5617729085690509
 40
0.6238358188380707
 40
0.6867135492391144
 40
0.7496368788198526
 40
0.7809771786627043
 40
0.8123114611489161
 40
0.843634314772362
 40
0.8749414696492508
 40
0.9062303735252876
 40
0.937500770974538
 40
0.9687552851560693
 40
1.0
 40
1.0
 40
1.0
 40
1.0
 10
276.8066810448876
 20
206.6511798391178
 30
0.0
 10
276.8022493804177
 20
206.6528287423533
 30
0.0
 10
276.7927044726135
 20
206.6526239305159
 30
0.0
 10
276.6814969670703
 20
206.6511296989404
 30
0.0
 10
276.2815783139875
 20
206.6488737732777
 30
0.0
 10
274.7107153073192
 20
206.6510449174655
 30
0.0
 10
270.3139847192756
 20
206.6498817661842
 30
0.0
 10
261.8912197956086
 20
206.6499365255436
 30
0.0
 10
252.4737457554228
 20
206.6493405775227
 30
0.0
 10
243.6723350001504
 20
206.6492672893301
 30
0.0
 10
236.4969275360155
 20
206.650248224987
 30
0.0
 10
228.8052557712212
 20
206.6510164825253
 30
0.0
 10
222.0315593264998
 20
206.6503245019282
 30
0.0
 10
216.4560483310043
 20
206.6495810931773
 30
0.0
 10
212.2106477620962
 20
206.6493437155056
 30
0.0
 10
207.9039598784782
 20
206.6493144111642
 30
0.0
 10
203.5460322511915
 20
206.6495233008472
 30
0.0
 10
199.1470668136409
 20
206.6499609613035
 30
0.0
 10
194.7172215576565
 20
206.650635282631
 30
0.0
 10
190.2666772512541
 20
206.651524675316
 30
0.0
 10
187.2924650445585
 20
206.6523138253575
 30
0.0
 10
185.8055921067543
 20
206.6510759725134
 30
0.0
  0
SPLINE
  5
7F
330
75
100
AcDbEntity
  8
DV1_Default
  6
Continuous
 62
     7
100
AcDbSpline
210
0.0
220
0.0
230
1.0
 70
     8
 71
     3
 72
    16
 73
    12
 74
     0
 42
0.0000000010224466
 43
0.0000000001
 40
0.0
 40
0.0
 40
0.0
 40
0.0
 40
0.0273833691967819
 40
0.1604940536322982
 40
0.2917718710387049
 40
0.4212234706124526
 40
0.5488535237206893
 40
0.6746650272407614
 40
0.7986595759566486
 40
0.9208376060447332
 40
1.0
 40
1.0
 40
1.0
 40
1.0
 10
249.5387626497102
 20
206.6702284744997
 30
0.0
 10
249.6370811744689
 20
206.670227457092
 30
0.0
 10
250.211924624291
 20
206.6702214459768
 30
0.0
 10
251.2419728805167
 20
206.6702100220824
 30
0.0
 10
252.5985409345417
 20
206.6701937321606
 30
0.0
 10
253.9028915167665
 20
206.6701770324683
 30
0.0
 10
255.1560621096323
 20
206.6701601530441
 30
0.0
 10
256.3590995724473
 20
206.6701433050924
 30
0.0
 10
257.513061819265
 20
206.6701266829135
 30
0.0
 10
258.4947060182631
 20
206.6701122871773
 30
0.0
 10
259.0881072570465
 20
206.6701035280261
 30
0.0
 10
259.3192241811569
 20
206.6701001151129
 30
0.0
  0
SPLINE
  5
80
330
75
100
AcDbEntity
  8
DV1_Default
  6
Continuous
 62
     7
100
AcDbSpline
210
0.0
220
0.0
230
1.0
 70
     8
 71
     3
 72
    21
 73
    17
 74
     0
 42
0.0000000001108203
 43
0.0000000001
 40
0.0
 40
0.0
 40
0.0
 40
0.0
 40
0.0034169225832791
 40
0.0069942525081756
 40
0.0103747551455542
 40
0.2140698888157498
 40
0.3648434664447865
 40
0.4619417080984043
 40
0.5054342965818214
 40
0.6529445158408685
 40
0.7525828501836711
 40
0.7909970690692462
 40
0.8783351199381902
 40
0.9243312297489157
 40
0.9648793079340693
 40
1.0
 40
1.0
 40
1.0
 40
1.0
 10
275.9734125007557
 20
206.6701473699659
 30
0.0
 10
275.9761425741818
 20
206.6701479519872
 30
0.0
 10
275.9807812984398
 20
206.6701490867572
 30
0.0
 10
275.9847690879034
 20
206.6701505918222
 30
0.0
 10
276.0075768283012
 20
206.6701756990696
 30
0.0
 10
273.070748394695
 20
206.6701669570692
 30
0.0
 10
263.8005355270188
 20
206.6701316348306
 30
0.0
 10
255.5365399215507
 20
206.6700514895603
 30
0.0
 10
246.1842686345856
 20
206.6702783475633
 30
0.0
 10
235.143953749817
 20
206.6714840166622
 30
0.0
 10
222.972844285904
 20
206.6709412798785
 30
0.0
 10
212.9399301492705
 20
206.6676776799659
 30
0.0
 10
205.0236772657971
 20
206.6652133394561
 30
0.0
 10
196.8494348725831
 20
206.6629188121143
 30
0.0
 10
191.0789197567745
 20
206.6617611224482
 30
0.0
 10
187.477256885665
 20
206.661527445278
 30
0.0
 10
185.8055912788645
 20
206.6546557533403
 30
0.0
  0
LINE
  5
81
330
75
100
AcDbEntity
  8
DV1_Default
  6
Continuous
 62
     7
100
AcDbLine
 10
152.0019706196
 20
189.3877200366
 30
0.0
 11
156.9746316272
 21
188.8673661737
 31
0.0
  0
ARC
  5
82
330
75
100
AcDbEntity
  8
DV1_Default
  6
Continuous
 62
     7
100
AcDbCircle
 10
179.6942176189
 20
473.4644135668
 30
0.0
 40
285.3614187446279
100
AcDbArc
 50
254.4761335053
 51
262.0658646081
  0
ARC
  5
83
330
75
100
AcDbEntity
  8
DV1_Default
  6
Continuous
 62
     7
100
AcDbCircle
 10
103.5827341962
 20
199.4719349117
 30
0.0
 40
1.000091784304601
100
AcDbArc
 50
202.6937860941
 51
252.4545181457
  0
ARC
  5
84
330
75
100
AcDbEntity
  8
DV1_Default
  6
Continuous
 62
     7
100
AcDbCircle
 10
191.9156189793
 20
473.4676333952
 30
0.0
 40
285.3648396669373
100
AcDbArc
 50
277.8791824283
 51
285.5239218703
  0
LINE
  5
85
330
75
100
AcDbEntity
  8
DV1_Default
  6
Continuous
 62
     7
100
AcDbLine
 10
214.6412766956
 20
188.8678707637
 30
0.0
 11
219.6209604221
 21
189.3889648551
 31
0.0
  0
ARC
  5
86
330
75
100
AcDbEntity
  8
DV1_Default
  6
Continuous
 62
     7
100
AcDbCircle
 10
268.0282943999
 20
199.4719335928
 30
0.0
 40
1.000090314846089
100
AcDbArc
 50
290.6028575187
 51
336.7356978661
  0
ARC
  5
87
330
75
100
AcDbEntity
  8
DV1_Default
  6
Continuous
 62
     7
100
AcDbCircle
 10
95.0305497883
 20
196.3195505572
 30
0.0
 40
8.115458954638243
100
AcDbArc
 50
19.9402498727
 51
69.4653703045
  0
ARC
  5
88
330
75
100
AcDbEntity
  8
DV1_Default
  6
Continuous
 62
     7
100
AcDbCircle
 10
276.5803898991
 20
196.3196128313
 30
0.0
 40
8.115355394344787
100
AcDbArc
 50
111.3603107417
 51
160.0599354484
  0
ARC
  5
89
330
75
100
AcDbEntity
  8
DV1_Default
  6
Continuous
 62
     7
100
AcDbCircle
 10
97.3071465122
 20
202.5803639815
 30
0.0
 40
1.4588534464045
100
AcDbArc
 50
64.6096271958
 51
72.2957315505
  0
ARC
  5
8A
330
75
100
AcDbEntity
  8
DV1_Default
  6
Continuous
 62
     7
100
AcDbCircle
 10
274.3387126641
 20
202.4615281062
 30
0.0
 40
1.581337858062072
100
AcDbArc
 50
108.9659270074
 51
114.7210027257
  0
ARC
  5
8B
330
75
100
AcDbEntity
  8
DV1_Default
  6
Continuous
 62
     7
100
AcDbCircle
 10
97.9043397845
 20
207.1379187688
 30
0.0
 40
3.139418617140957
100
AcDbArc
 50
192.157829922
 51
262.7004371934
  0
ARC
  5
8C
330
75
100
AcDbEntity
  8
DV1_Default
  6
Continuous
 62
     7
100
AcDbCircle
 10
273.7070585376
 20
207.1377617061
 30
0.0
 40
3.139041663616939
100
AcDbArc
 50
280.5545723787
 51
351.620520435
  0
SPLINE
  5
8D
330
75
100
AcDbEntity
  8
DV1_Default
  6
Continuous
 62
     7
100
AcDbSpline
210
0.0
220
0.0
230
1.0
 70
    12
 71
     3
 72
     8
 73
     4
 74
     0
 42
0.0000000001137907
 43
0.0000000001
 40
0.0
 40
0.0
 40
0.0
 40
0.0
 40
0.9999999999999999
 40
0.9999999999999999
 40
0.9999999999999999
 40
0.9999999999999999
 10
185.8055136313841
 20
203.8996098114411
 30
0.0
 41
1.0
 10
229.7458391838376
 20
203.8996005506355
 30
0.0
 41
0.6666667077697606
 10
273.6861665423741
 20
203.8995912898295
 30
0.0
 41
0.5000000411030963
 10
273.6861809910405
 20
203.8996003518007
 30
0.0
 41
0.5000000000000072
  0
SPLINE
  5
8E
330
75
100
AcDbEntity
  8
DV1_Default
  6
Continuous
 62
     7
100
AcDbSpline
210
0.0
220
0.0
230
1.0
 70
    12
 71
     3
 72
     8
 73
     4
 74
     0
 42
0.0000000001098901
 43
0.0000000001
 40
0.0
 40
0.0
 40
0.0
 40
0.0
 40
1.0
 40
1.0
 40
1.0
 40
1.0
 10
185.8055136313841
 20
206.6497974402699
 30
0.0
 41
1.0
 10
140.1438263821796
 20
206.6497141851995
 30
0.0
 41
0.6690469160646451
 10
94.80575882382509
 20
206.6496323136045
 30
0.0
 41
0.5047682920213643
 10
94.80550637461438
 20
206.6495526396516
 30
0.0
 41
0.5071641278701575
  0
LINE
  5
8F
330
75
100
AcDbEntity
  8
DV1_Default
  6
Continuous
 62
     7
100
AcDbLine
 10
185.8055136314
 20
199.127123801
 30
0.0
 11
102.644898694
 21
199.1271729516
 31
0.0
  0
LINE
  5
90
330
75
100
AcDbEntity
  8
DV1_Default
  6
Continuous
 62
     7
100
AcDbLine
 10
268.9661285692
 20
199.1271729523
 30
0.0
 11
185.8055136314
 21
199.127123801
 31
0.0
  0
SPLINE
  5
91
330
75
100
AcDbEntity
  8
DV1_Default
  6
Continuous
 62
     7
100
AcDbSpline
210
0.0
220
0.0
230
1.0
 70
    12
 71
     3
 72
     8
 73
     4
 74
     0
 42
0.0000000001098901
 43
0.0000000001
 40
0.0
 40
0.0
 40
0.0
 40
0.0
 40
1.0
 40
1.0
 40
1.0
 40
1.0
 10
276.8055208881555
 20
206.6495526396514
 30
0.0
 41
0.5071641278701555
 10
276.8052684389446
 20
206.6496323136043
 30
0.0
 41
0.5047682920213628
 10
231.4672008805893
 20
206.6497141851993
 30
0.0
 41
0.6690469160646443
 10
185.8055136313841
 20
206.6497974402699
 30
0.0
 41
1.0
  0
LINE
  5
92
330
75
100
AcDbEntity
  8
DV1_Default
  6
Continuous
 62
     7
100
AcDbLine
 10
151.8640326619
 20
189.3581830176
 30
0.0
 11
152.2310433406
 21
189.3137517659
 31
0.0
  0
ARC
  5
93
330
75
100
AcDbEntity
  8
DV1_Default
  6
Continuous
 62
     7
100
AcDbCircle
 10
354.1524345336
 20
1784.781304339
 30
0.0
 40
1608.196360392187
100
AcDbArc
 50
262.7014252464
 51
262.7738581187
  0
ARC
  5
94
330
75
100
AcDbEntity
  8
DV1_Default
  6
Continuous
 62
     7
100
AcDbCircle
 10
552.0027535225
 20
3501.7660057972
 30
0.0
 40
3336.475994476862
100
AcDbArc
 50
262.9097763171
 51
263.0771351608
  0
LINE
  5
95
330
75
100
AcDbEntity
  8
DV1_Default
  6
Continuous
 62
     7
100
AcDbLine
 10
185.8055136314
 20
188.8622909015
 30
0.0
 11
156.9665142333
 21
188.8622908967
 31
0.0
  0
LINE
  5
96
330
75
100
AcDbEntity
  8
DV1_Default
  6
Continuous
 62
     7
100
AcDbLine
 10
219.334058289
 20
189.3081916714
 30
0.0
 11
219.3679835198
 21
189.3122987852
 31
0.0
  0
LINE
  5
97
330
75
100
AcDbEntity
  8
DV1_Default
  6
Continuous
 62
     7
100
AcDbLine
 10
219.3679835198
 20
189.3122987852
 30
0.0
 11
219.751958651
 21
189.3587842326
 31
0.0
  0
ARC
  5
98
330
75
100
AcDbEntity
  8
DV1_Default
  6
Continuous
 62
     7
100
AcDbCircle
 10
-184.7520733134
 20
3537.2443039527
 30
0.0
 40
3372.221197864106
100
AcDbArc
 50
276.9237526147
 51
277.0893375858
  0
ARC
  5
99
330
75
100
AcDbEntity
  8
DV1_Default
  6
Continuous
 62
     7
100
AcDbCircle
 10
13.1965115101
 20
1818.0468174249
 30
0.0
 40
1641.733797607738
100
AcDbArc
 50
277.2278483832
 51
277.2986270861
  0
LINE
  5
9A
330
75
100
AcDbEntity
  8
DV1_Default
  6
Continuous
 62
     7
100
AcDbLine
 10
185.8055136314
 20
188.8622908967
 30
0.0
 11
214.6445130295
 21
188.8622908967
 31
0.0
  0
ARC
  5
9B
330
75
100
AcDbEntity
  8
DV1_Default
  6
Continuous
 62
     7
100
AcDbCircle
 10
526.0878607185
 20
3272.4520095562
 30
0.0
 40
3105.722301933212
100
AcDbArc
 50
263.0782081214
 51
263.0793320717
  0
ARC
  5
9C
330
75
100
AcDbEntity
  8
DV1_Default
  6
Continuous
 62
     7
100
AcDbCircle
 10
-154.1395466358
 20
3269.7377453378
 30
0.0
 40
3102.98717395757
100
AcDbArc
 50
276.9206167091
 51
277.121637473
  0
SPLINE
  5
9D
330
75
100
AcDbEntity
  8
DV1_Default
  6
Continuous
 62
     7
100
AcDbSpline
210
0.0
220
0.0
230
1.0
 70
     8
 71
     3
 72
     8
 73
     4
 74
     0
 42
0.000000053184657
 43
0.0000000001
 40
0.0
 40
0.0
 40
0.0
 40
0.0
 40
1.0
 40
1.0
 40
1.0
 40
1.0
 10
97.75035078034787
 20
203.9688108919235
 30
0.0
 10
97.81059856974805
 20
203.9495225681302
 30
0.0
 10
97.86876373353998
 20
203.9264431935599
 30
0.0
 10
97.92484627172364
 20
203.8995727682125
 30
0.0
  0
SPLINE
  5
9E
330
75
100
AcDbEntity
  8
DV1_Default
  6
Continuous
 62
     7
100
AcDbSpline
210
0.0
220
0.0
230
1.0
 70
     8
 71
     3
 72
     8
 73
     4
 74
     0
 42
0.0000000578247058
 43
0.0000000001
 40
0.0
 40
0.0
 40
0.0
 40
0.0
 40
1.0
 40
1.0
 40
1.0
 40
1.0
 10
273.6861809910432
 20
203.8995727682118
 30
0.0
 10
273.7420706768274
 20
203.9239865651767
 30
0.0
 10
273.7957062993196
 20
203.9450252355588
 30
0.0
 10
273.8470878585197
 20
203.962688779358
 30
0.0
  0
SPLINE
  5
9F
330
75
100
AcDbEntity
  8
DV1_Default
  6
Continuous
 62
     7
100
AcDbSpline
210
0.0
220
0.0
230
1.0
 70
     8
 71
     3
 72
    11
 73
     7
 74
     0
 42
0.000000002438356
 43
0.0000000001
 40
0.0
 40
0.0
 40
0.0
 40
0.0
 40
0.3010526257398199
 40
0.5670504271131288
 40
0.7747156771080782
 40
1.0
 40
1.0
 40
1.0
 40
1.0
 10
94.79907570271655
 20
206.6774880739071
 30
0.0
 10
94.9168420919689
 20
206.2471117118068
 30
0.0
 10
95.12970555924305
 20
205.5605639404788
 30
0.0
 10
95.805757468722
 20
204.7119945628845
 30
0.0
 10
96.63895892802744
 20
204.2143574869412
 30
0.0
 10
97.17176566420133
 20
204.0915002056049
 30
0.0
 10
97.49896595167635
 20
204.0249487259291
 30
0.0
  0
SPLINE
  5
A0
330
75
100
AcDbEntity
  8
DV1_Default
  6
Continuous
 62
     7
100
AcDbSpline
210
0.0
220
0.0
230
1.0
 70
     8
 71
     3
 72
    11
 73
     7
 74
     0
 42
0.0000000014288265
 43
0.0000000001
 40
0.0
 40
0.0
 40
0.0
 40
0.0
 40
0.2939377435201543
 40
0.5686695155374979
 40
0.7814390198589151
 40
1.0
 40
1.0
 40
1.0
 40
1.0
 10
97.88234892259524
 20
203.9172436127029
 30
0.0
 10
98.56229742396818
 20
203.6024480136601
 30
0.0
 10
99.66933668515941
 20
203.0623347897642
 30
0.0
 10
101.0700961574936
 20
201.8444029202153
 30
0.0
 10
102.0599437599606
 20
200.4977812771414
 30
0.0
 10
102.4311766010356
 20
199.6417381456423
 30
0.0
 10
102.6448987054086
 20
199.127222043432
 30
0.0
  0
SPLINE
  5
A1
330
75
100
AcDbEntity
  8
DV1_Default
  6
Continuous
 62
     7
100
AcDbSpline
210
0.0
220
0.0
230
1.0
 70
     8
 71
     3
 72
    11
 73
     7
 74
     0
 42
0.00000000142867
 43
0.0000000001
 40
0.0
 40
0.0
 40
0.0
 40
0.0
 40
0.2765987924697308
 40
0.5473111682459436
 40
0.7667701818562029
 40
1.0
 40
1.0
 40
1.0
 40
1.0
 10
268.9661285573598
 20
199.1272220434319
 30
0.0
 10
269.2441619372527
 20
199.7751333275566
 30
0.0
 10
269.7333220759415
 20
200.8580805460734
 30
0.0
 10
270.9321665747714
 20
202.2340770459059
 30
0.0
 10
272.3029164214602
 20
203.2545133945068
 30
0.0
 10
273.1871526366374
 20
203.6719266821742
 30
0.0
 10
273.7286783401731
 20
203.9172436127028
 30
0.0
  0
SPLINE
  5
A2
330
75
100
AcDbEntity
  8
DV1_Default
  6
Continuous
 62
     7
100
AcDbSpline
210
0.0
220
0.0
230
1.0
 70
     8
 71
     3
 72
    11
 73
     7
 74
     0
 42
0.0000000024377116
 43
0.0000000001
 40
0.0
 40
0.0
 40
0.0
 40
0.0
 40
0.282524602352862
 40
0.5439891568508813
 40
0.7591472645770347
 40
1.0
 40
1.0
 40
1.0
 40
1.0
 10
274.1120613110916
 20
204.0249487259285
 30
0.0
 10
274.521318123682
 20
204.113318996858
 30
0.0
 10
275.1939528576076
 20
204.2807959327186
 30
0.0
 10
276.0329810600912
 20
204.9396398235194
 30
0.0
 10
276.5582194969988
 20
205.7816210657191
 30
0.0
 10
276.7202752747949
 20
206.33252910072
 30
0.0
 10
276.8119515600521
 20
206.6774880739068
 30
0.0
  0
ARC
  5
A3
330
75
100
AcDbEntity
  8
DV1_Default
  6
Continuous
 62
     7
100
AcDbCircle
 10
103.5838261046
 20
199.4727617239
 30
0.0
 40
1.001060505268002
100
AcDbArc
 50
202.6567772703
 51
252.4454933073
  0
ARC
  5
A4
330
75
100
AcDbEntity
  8
DV1_Default
  6
Continuous
 62
     7
100
AcDbCircle
 10
268.0272011581
 20
199.4727617239
 30
0.0
 40
1.001060505268001
100
AcDbArc
 50
290.5940340192
 51
336.6738043487
  0
ARC
  5
A5
330
75
100
AcDbEntity
  8
DV1_Default
  6
Continuous
 62
     7
100
AcDbCircle
 10
183.0247356087
 20
487.8195545772
 30
0.0
 40
300.0907802792813
100
AcDbArc
 50
264.1190573001
 51
265.0185052326
  0
ARC
  5
A6
330
75
100
AcDbEntity
  8
DV1_Default
  6
Continuous
 62
     7
100
AcDbCircle
 10
183.0247356087
 20
487.8195545772
 30
0.0
 40
300.0907802792813
100
AcDbArc
 50
254.5969125182
 51
261.7906397138
  0
ARC
  5
A7
330
75
100
AcDbEntity
  8
DV1_Default
  6
Continuous
 62
     7
100
AcDbCircle
 10
188.5862916541
 20
487.8195545773
 30
0.0
 40
300.090780279361
100
AcDbArc
 50
278.2094807757
 51
285.4030901177
  0
ARC
  5
A8
330
75
100
AcDbEntity
  8
DV1_Default
  6
Continuous
 62
     7
100
AcDbCircle
 10
188.5862916541
 20
487.8195545773
 30
0.0
 40
300.090780279361
100
AcDbArc
 50
274.9814917197
 51
275.8809499706
  0
LINE
  5
A9
330
75
100
AcDbEntity
  8
DV1_Default
  6
Continuous
 62
     7
100
AcDbLine
 10
158.4555136314
 20
149.8622908967
 30
0.0
 11
158.4555136314
 21
188.8623021043
 31
0.0
  0
LINE
  5
AA
330
75
100
AcDbEntity
  8
DV1_Default
  6
Continuous
 62
     7
100
AcDbLine
 10
213.1555136314
 20
188.8625399886
 30
0.0
 11
213.1555136314
 21
149.8622908967
 31
0.0
  0
LINE
  5
AB
330
75
100
AcDbEntity
  8
DV1_Default
  6
Continuous
 62
     7
100
AcDbLine
 10
159.4555136314
 20
148.8622908967
 30
0.0
 11
212.1555136314
 21
148.8622908967
 31
0.0
  0
SPLINE
  5
AC
330
75
100
AcDbEntity
  8
DV1_Default
  6
Continuous
 62
     7
100
AcDbSpline
210
0.0
220
0.0
230
1.0
 70
     8
 71
     3
 72
    10
 73
     6
 74
     0
 42
0.0000000062094565
 43
0.0000000001
 40
0.0
 40
0.0
 40
0.0
 40
0.0
 40
0.5
 40
0.5
 40
1.0
 40
1.0
 40
1.0
 40
1.0
 10
158.4555136313841
 20
149.8622908966687
 30
0.0
 10
158.4555136313841
 20
149.6004915088695
 30
0.0
 10
158.5632867277743
 20
149.3403042379054
 30
0.0
 10
158.9335269726209
 20
148.9700639930588
 30
0.0
 10
159.193714243585
 20
148.8622908966687
 30
0.0
 10
159.4555136313841
 20
148.8622908966687
 30
0.0
  0
SPLINE
  5
AD
330
75
100
AcDbEntity
  8
DV1_Default
  6
Continuous
 62
     7
100
AcDbSpline
210
0.0
220
0.0
230
1.0
 70
     8
 71
     3
 72
    10
 73
     6
 74
     0
 42
0.0000000062094565
 43
0.0000000001
 40
0.0
 40
0.0
 40
0.0
 40
0.0
 40
0.5
 40
0.5
 40
1.0
 40
1.0
 40
1.0
 40
1.0
 10
212.1555136313841
 20
148.8622908966687
 30
0.0
 10
212.4173130191833
 20
148.8622908966687
 30
0.0
 10
212.6775002901474
 20
148.9700639930588
 30
0.0
 10
213.0477405349939
 20
149.3403042379054
 30
0.0
 10
213.1555136313842
 20
149.6004915088695
 30
0.0
 10
213.1555136313841
 20
149.8622908966686
 30
0.0
  0
SPLINE
  5
AE
330
75
100
AcDbEntity
  8
DV1_Default
  6
Continuous
 62
     7
100
AcDbSpline
210
0.0
220
0.0
230
1.0
 70
     8
 71
     3
 72
    10
 73
     6
 74
     0
 42
0.0000000098589615
 43
0.0000000001
 40
0.0
 40
0.0
 40
0.0
 40
0.0
 40
0.5
 40
0.5
 40
1.0
 40
1.0
 40
1.0
 40
1.0
 10
160.1062918532841
 20
148.8622908966687
 30
0.0
 10
160.2726744931497
 20
148.8622908966687
 30
0.0
 10
160.4386446048153
 20
148.8087658335542
 30
0.0
 10
160.7087121961494
 20
148.614353314653
 30
0.0
 10
160.8121400717209
 20
148.4739478841938
 30
0.0
 10
160.8649404666589
 20
148.3161654354157
 30
0.0
  0
SPLINE
  5
AF
330
75
100
AcDbEntity
  8
DV1_Default
  6
Continuous
 62
     7
100
AcDbSpline
210
0.0
220
0.0
230
1.0
 70
     8
 71
     3
 72
    10
 73
     6
 74
     0
 42
0.0000000098589615
 43
0.0000000001
 40
0.0
 40
0.0
 40
0.0
 40
0.0
 40
0.5
 40
0.5
 40
1.0
 40
1.0
 40
1.0
 40
1.0
 10
210.7460867961094
 20
148.3161654354157
 30
0.0
 10
210.7988871910474
 20
148.4739478841938
 30
0.0
 10
210.9023150666189
 20
148.614353314653
 30
0.0
 10
211.172382657953
 20
148.8087658335542
 30
0.0
 10
211.3383527696186
 20
148.8622908966687
 30
0.0
 10
211.5047354094841
 20
148.8622908966687
 30
0.0
  0
SPLINE
  5
B0
330
75
100
AcDbEntity
  8
DV1_Default
  6
Continuous
 62
     7
100
AcDbSpline
210
0.0
220
0.0
230
1.0
 70
     8
 71
     3
 72
     8
 73
     4
 74
     0
 42
0.0000000205158718
 43
0.0000000001
 40
0.0
 40
0.0
 40
0.0
 40
0.0
 40
1.0
 40
1.0
 40
1.0
 40
1.0
 10
161.0239239940057
 20
147.8554095107732
 30
0.0
 10
160.9694994713673
 20
148.0084953904655
 30
0.0
 10
160.9165006993986
 20
148.1620889405194
 30
0.0
 10
160.8649404666589
 20
148.3161654354157
 30
0.0
  0
SPLINE
  5
B1
330
75
100
AcDbEntity
  8
DV1_Default
  6
Continuous
 62
     7
100
AcDbSpline
210
0.0
220
0.0
230
1.0
 70
     8
 71
     3
 72
     8
 73
     4
 74
     0
 42
0.0000000205158718
 43
0.0000000001
 40
0.0
 40
0.0
 40
0.0
 40
0.0
 40
1.0
 40
1.0
 40
1.0
 40
1.0
 10
210.7460867961094
 20
148.3161654354157
 30
0.0
 10
210.6945265633697
 20
148.1620889405194
 30
0.0
 10
210.641527791401
 20
148.0084953904656
 30
0.0
 10
210.5871032687626
 20
147.8554095107733
 30
0.0
  0
SPLINE
  5
B2
330
75
100
AcDbEntity
  8
DV1_Default
  6
Continuous
 62
     7
100
AcDbSpline
210
0.0
220
0.0
230
1.0
 70
     8
 71
     3
 72
    20
 73
    16
 74
     0
 42
0.000000000589493
 43
0.0000000001
 40
0.0
 40
0.0
 40
0.0
 40
0.0
 40
0.0270526447737197
 40
0.0540188635634646
 40
0.1076613924696591
 40
0.2153184004351244
 40
0.269372125646338
 40
0.4317511667675532
 40
0.5182948942646551
 40
0.6044616158789888
 40
0.6905417380543725
 40
0.7762879731362607
 40
0.7762879731362607
 40
0.7762879731362607
 40
1.0
 40
1.0
 40
1.0
 40
1.0
 10
209.3623964501076
 20
120.5193684736228
 30
0.0
 10
209.3537127158553
 20
120.3092445356649
 30
0.0
 10
209.336351481197
 20
119.8897580828362
 30
0.0
 10
209.2452363627004
 20
119.0764969107264
 30
0.0
 10
208.9191559410659
 20
117.6887188874806
 30
0.0
 10
207.9929967354746
 20
116.1699346567023
 30
0.0
 10
206.2813760585408
 20
114.0652134425594
 30
0.0
 10
204.5609071518775
 20
112.3392823732114
 30
0.0
 10
202.8178969136834
 20
110.7597257897288
 30
0.0
 10
201.7071367198887
 20
109.7304134154005
 30
0.0
 10
200.7617733962897
 20
108.8861739264223
 30
0.0
 10
200.3478590645317
 20
108.4487254800512
 30
0.0
 10
200.1731335927496
 20
108.266441192427
 30
0.0
 10
199.8596521378099
 20
107.939398185393
 30
0.0
 10
199.6486276872076
 20
107.7282846071254
 30
0.0
 10
199.3563895038485
 20
107.4257533733746
 30
0.0
  0
ARC
  5
B3
330
75
100
AcDbEntity
  8
DV1_Default
  6
Continuous
 62
     7
100
AcDbCircle
 10
-950.7356930712
 20
219.170387835
 30
0.0
 40
1165.727656486839
100
AcDbArc
 50
355.174095675
 51
356.0239451769
  0
ARC
  5
B4
330
75
100
AcDbEntity
  8
DV1_Default
  6
Continuous
 62
     7
100
AcDbCircle
 10
-997.78953602
 20
221.7613696726
 30
0.0
 40
1212.848093316348
100
AcDbArc
 50
356.106222154
 51
356.4917284116
  0
ARC
  5
B5
330
75
100
AcDbEntity
  8
DV1_Default
  6
Continuous
 62
     7
100
AcDbCircle
 10
-997.78953602
 20
221.7613696726
 30
0.0
 40
1212.848093316348
100
AcDbArc
 50
356.0559718755
 51
356.106222154
  0
ARC
  5
B6
330
75
100
AcDbEntity
  8
DV1_Default
  6
Continuous
 62
     7
100
AcDbCircle
 10
185.8034401922
 20
-12680.4405244521
 30
0.0
 40
12828.01289910758
100
AcDbArc
 50
90.1204535845
 51
90.1204965551
  0
ARC
  5
B7
330
75
100
AcDbEntity
  8
DV1_Default
  6
Continuous
 62
     7
100
AcDbCircle
 10
185.8034401922
 20
-12680.4405244521
 30
0.0
 40
12828.01289910758
100
AcDbArc
 50
90.1191897177
 51
90.119821421
  0
ARC
  5
B8
330
75
100
AcDbEntity
  8
DV1_Default
  6
Continuous
 62
     7
100
AcDbCircle
 10
185.8034401922
 20
-12680.4405244521
 30
0.0
 40
12828.01289910758
100
AcDbArc
 50
89.8803380875
 51
89.8804445739
  0
ARC
  5
B9
330
75
100
AcDbEntity
  8
DV1_Default
  6
Continuous
 62
     7
100
AcDbCircle
 10
185.8034401922
 20
-12680.4405244521
 30
0.0
 40
12828.01289910758
100
AcDbArc
 50
89.8794850105
 51
89.8795083231
  0
ARC
  5
BA
330
75
100
AcDbEntity
  8
DV1_Default
  6
Continuous
 62
     7
100
AcDbCircle
 10
1423.3902393362
 20
225.1985739112
 30
0.0
 40
1266.946948322889
100
AcDbArc
 50
183.514014176
 51
183.8814895302
  0
SPLINE
  5
BB
330
75
100
AcDbEntity
  8
DV1_Default
  6
Continuous
 62
     7
100
AcDbSpline
210
0.0
220
0.0
230
1.0
 70
     8
 71
     3
 72
    13
 73
     9
 74
     0
 42
0.0000000012870057
 43
0.0000000001
 40
0.0
 40
0.0
 40
0.0
 40
0.0
 40
0.1242955953220735
 40
0.2483809430519734
 40
0.4976563450236517
 40
0.7485439109927119
 40
0.874214880138898
 40
1.0
 40
1.0
 40
1.0
 40
1.0
 10
162.2485028635033
 20
120.5204151163547
 30
0.0
 10
162.2638115667711
 20
120.2112411442174
 30
0.0
 10
162.2943815987754
 20
119.5933260759926
 30
0.0
 10
162.5389985189586
 20
118.3946361580106
 30
0.0
 10
163.1833885823255
 20
116.9374984474273
 30
0.0
 10
164.1650712427346
 20
115.5740026524643
 30
0.0
 10
165.040117030173
 20
114.5437212474084
 30
0.0
 10
165.4907868358405
 20
114.0586511491265
 30
0.0
 10
165.716255066859
 20
113.8161589872474
 30
0.0
  0
SPLINE
  5
BC
330
75
100
AcDbEntity
  8
DV1_Default
  6
Continuous
 62
     7
100
AcDbSpline
210
0.0
220
0.0
230
1.0
 70
     8
 71
     3
 72
    31
 73
    27
 74
     0
 42
0.0000000001791937
 43
0.0000000001
 40
0.0
 40
0.0
 40
0.0
 40
0.0
 40
0.0207096771920826
 40
0.0416501362789436
 40
0.062887081882492
 40
0.0947764325471731
 40
0.1254516666838714
 40
0.1881238915317938
 40
0.2501633201959519
 40
0.3122694056866882
 40
0.343116605172347
 40
0.3742911714049689
 40
0.4365330701798255
 40
0.4678330063248576
 40
0.4991729492921432
 40
0.5303216067298244
 40
0.5615786468095646
 40
0.6239132620565145
 40
0.6862425421258411
 40
0.7483227622310097
 40
0.810892469868152
 40
0.8737285863319443
 40
0.904585123228677
 40
0.9366089814634351
 40
0.9686338087523199
 40
1.0
 40
1.0
 40
1.0
 40
1.0
 10
209.3623964501076
 20
120.5193684736228
 30
0.0
 10
209.3511135410389
 20
120.7363273279144
 30
0.0
 10
209.3284436539325
 20
121.1725718677363
 30
0.0
 10
209.1713963635765
 20
121.8322206909004
 30
0.0
 10
208.8849592613074
 20
122.6078768862334
 30
0.0
 10
208.413086236106
 20
123.4836888606176
 30
0.0
 10
207.4488811907387
 20
124.7751616963827
 30
0.0
 10
205.7770274794086
 20
126.3297964804173
 30
0.0
 10
203.001106290583
 20
128.0149777776593
 30
0.0
 10
200.076241125477
 20
129.1606444378842
 30
0.0
 10
197.4215146050923
 20
129.8797070004426
 30
0.0
 10
194.5821312667975
 20
130.4671440518092
 30
0.0
 10
191.4985993206503
 20
130.8594869717694
 30
0.0
 10
188.3056896461007
 20
131.0514164124446
 30
0.0
 10
185.8780939397182
 20
131.1032106023926
 30
0.0
 10
183.4504909269409
 20
131.0587728379277
 30
0.0
 10
180.2580051287594
 20
130.8720005638566
 30
0.0
 10
176.3958299775257
 20
130.3951514308458
 30
0.0
 10
172.2174316753855
 20
129.42353454242
 30
0.0
 10
168.6746029728158
 20
128.0513316023744
 30
0.0
 10
165.8718288286849
 20
126.3646416009374
 30
0.0
 10
164.1834877813326
 20
124.8021707475173
 30
0.0
 10
163.2081440810113
 20
123.5061265503544
 30
0.0
 10
162.6750853781433
 20
122.5142872210892
 30
0.0
 10
162.3221406711389
 20
121.5136842719703
 30
0.0
 10
162.2728853769582
 20
120.8492336665447
 30
0.0
 10
162.2485028635033
 20
120.5204151163547
 30
0.0
  0
SPLINE
  5
BD
330
75
100
AcDbEntity
  8
DV1_Default
  6
Continuous
 62
     7
100
AcDbSpline
210
0.0
220
0.0
230
1.0
 70
     8
 71
     3
 72
     8
 73
     4
 74
     0
 42
0.0000007403273613
 43
0.0000000001
 40
0.0
 40
0.0
 40
0.0
 40
0.0
 40
1.0
 40
1.0
 40
1.0
 40
1.0
 10
198.9705068605921
 20
107.2940646002549
 30
0.0
 10
198.9748202338654
 20
107.2948536941565
 30
0.0
 10
198.9792264134641
 20
107.2957724026735
 30
0.0
 10
198.9837274623505
 20
107.2968212741597
 30
0.0
  0
SPLINE
  5
BE
330
75
100
AcDbEntity
  8
DV1_Default
  6
Continuous
 62
     7
100
AcDbSpline
210
0.0
220
0.0
230
1.0
 70
     8
 71
     3
 72
    21
 73
    17
 74
     0
 42
0.0000000010537609
 43
0.0000000001
 40
0.0
 40
0.0
 40
0.0
 40
0.0
 40
0.0524573110280143
 40
0.1225345732075024
 40
0.1837630116780535
 40
0.2449636256978531
 40
0.3061413352366261
 40
0.3672850269978069
 40
0.4283327962003446
 40
0.489205467076669
 40
0.6108694642258237
 40
0.6718601202015694
 40
0.7329172639630122
 40
0.854972414665618
 40
0.9768993313176298
 40
1.0
 40
1.0
 40
1.0
 40
1.0
 10
165.716255066859
 20
113.8161589872474
 30
0.0
 10
165.925333683466
 20
113.597482542287
 30
0.0
 10
166.4137910874337
 20
113.08703551429
 30
0.0
 10
167.1406460515745
 20
112.3762524235194
 30
0.0
 10
167.8879302079781
 20
111.6784752771875
 30
0.0
 10
168.5719772557954
 20
111.0595561888077
 30
0.0
 10
169.2038485430652
 20
110.4887513867712
 30
0.0
 10
169.7604463401118
 20
109.9690663927295
 30
0.0
 10
170.2709184286297
 20
109.4968436701789
 30
0.0
 10
170.8675462769705
 20
108.9328494851131
 30
0.0
 10
171.3052127178998
 20
108.4697744789074
 30
0.0
 10
171.6346365215063
 20
108.099236507718
 30
0.0
 10
171.9210643101047
 20
107.7853979318103
 30
0.0
 10
172.2665830627772
 20
107.4895264066836
 30
0.0
 10
172.4925581474411
 20
107.3498021069591
 30
0.0
 10
172.5822657757808
 20
107.3128638604074
 30
0.0
 10
172.5957765567945
 20
107.3079546316489
 30
0.0
  0
ARC
  5
BF
330
75
100
AcDbEntity
  8
DV1_Default
  6
Continuous
 62
     7
100
AcDbCircle
 10
165.8472552881
 20
115.299449789
 30
0.0
 40
1.489064357424785
100
AcDbArc
 50
224.1200580192
 51
264.9528873405
  0
ARC
  5
C0
330
75
100
AcDbEntity
  8
DV1_Default
  6
Continuous
 62
     7
100
AcDbCircle
 10
199.5189393809
 20
109.1013399567
 30
0.0
 40
1.324286802366113
100
AcDbArc
 50
278.389135604
 51
317.8478410529
  0
ARC
  5
C1
330
75
100
AcDbEntity
  8
DV1_Default
  6
Continuous
 62
     7
100
AcDbCircle
 10
185.8103021223
 20
29974.5588050426
 30
0.0
 40
29827.02700551916
100
AcDbArc
 50
269.9481636707
 51
270.0514569577
  0
SPLINE
  5
C2
330
75
100
AcDbEntity
  8
DV1_Default
  6
Continuous
 62
     7
100
AcDbSpline
210
0.0
220
0.0
230
1.0
 70
     8
 71
     3
 72
     8
 73
     4
 74
     0
 42
0.0000000003978934
 43
0.0000000001
 40
0.9921914425698655
 40
0.9921914425698655
 40
0.9921914425698655
 40
0.9921914425698655
 40
1.0
 40
1.0
 40
1.0
 40
1.0
 10
210.8593717990457
 20
121.0996259449229
 30
0.0
 10
210.8680229538143
 20
121.1630115316794
 30
0.0
 10
210.8766380177016
 20
121.2277468930068
 30
0.0
 10
210.8853719588831
 20
121.2941430560098
 30
0.0
  0
SPLINE
  5
C3
330
75
100
AcDbEntity
  8
DV1_Default
  6
Continuous
 62
     7
100
AcDbSpline
210
0.0
220
0.0
230
1.0
 70
     8
 71
     3
 72
    33
 73
    29
 74
     0
 42
0.0000000005835701
 43
0.0000000001
 40
0.0
 40
0.0
 40
0.0
 40
0.0
 40
0.0765313422077179
 40
0.150212248684244
 40
0.2150463564629974
 40
0.2715430139820834
 40
0.319698603149055
 40
0.3590332087174001
 40
0.3897392345803928
 40
0.421788754965192
 40
0.4553778174180401
 40
0.4917994983321422
 40
0.5310921415617705
 40
0.5692534443121888
 40
0.6096770332964108
 40
0.6523554559287141
 40
0.6957113510190046
 40
0.7338358936294249
 40
0.7507288388208975
 40
0.7661706927888597
 40
0.7801569679797689
 40
0.7929551837894141
 40
0.8103515949018517
 40
0.8347310407093478
 40
0.8661931693010267
 40
0.9047711490783786
 40
0.9503519405807174
 40
0.9921914425698655
 40
0.9921914425698655
 40
0.9921914425698655
 40
0.9921914425698655
 10
200.4088642683563
 20
108.1218692086103
 30
0.0
 10
200.5253355411999
 20
108.2370221678597
 30
0.0
 10
200.7244527786463
 20
108.431805596821
 30
0.0
 10
201.1082271524963
 20
108.8460176923667
 30
0.0
 10
201.559298826632
 20
109.2887132008212
 30
0.0
 10
202.0560626122929
 20
109.7387128473759
 30
0.0
 10
202.5317426327176
 20
110.1640546182558
 30
0.0
 10
202.9454315681591
 20
110.5419548989002
 30
0.0
 10
203.330707301627
 20
110.8901931270601
 30
0.0
 10
203.7253885993333
 20
111.2416163961254
 30
0.0
 10
204.1676656457624
 20
111.6347835208501
 30
0.0
 10
204.6624353836918
 20
112.0791181031793
 30
0.0
 10
205.1949341441635
 20
112.5673481431886
 30
0.0
 10
205.7654845590785
 20
113.1062933452214
 30
0.0
 10
206.3645048182661
 20
113.6927908268904
 30
0.0
 10
206.9984161349326
 20
114.339556441501
 30
0.0
 10
207.6246603428577
 20
115.0096682269911
 30
0.0
 10
208.1126936097855
 20
115.5666176424029
 30
0.0
 10
208.4542684893809
 20
115.9794961476973
 30
0.0
 10
208.6748302868293
 20
116.2565535458106
 30
0.0
 10
208.8725118310801
 20
116.5147950872961
 30
0.0
 10
209.0745263890236
 20
116.7890661829694
 30
0.0
 10
209.3276824463588
 20
117.1505821910158
 30
0.0
 10
209.6518393893937
 20
117.6533101773512
 30
0.0
 10
210.0310167056678
 20
118.3248789836104
 30
0.0
 10
210.4147637250632
 20
119.1680277643774
 30
0.0
 10
210.7139989941529
 20
120.1313347437119
 30
0.0
 10
210.8130175254958
 20
120.759995813889
 30
0.0
 10
210.8593717990457
 20
121.0996259449229
 30
0.0
  0
ARC
  5
C4
330
75
100
AcDbEntity
  8
DV1_Default
  6
Continuous
 62
     7
100
AcDbCircle
 10
-793.8168580914
 20
206.7786127083
 30
0.0
 40
1008.340436372519
100
AcDbArc
 50
356.1714243066
 51
356.3297102787
  0
ARC
  5
C5
330
75
100
AcDbEntity
  8
DV1_Default
  6
Continuous
 62
     7
100
AcDbCircle
 10
1236.5802299112
 20
212.0218961782
 30
0.0
 40
1079.675466258459
100
AcDbArc
 50
183.7794647929
 51
183.8523557536
  0
ARC
  5
C6
330
75
100
AcDbEntity
  8
DV1_Default
  6
Continuous
 62
     7
100
AcDbCircle
 10
185.8088525816
 20
198.1113076601
 30
0.0
 40
91.76130766007368
100
AcDbArc
 50
261.7394698767
 51
278.2668085201
  0
ARC
  5
C7
330
75
100
AcDbEntity
  8
DV1_Default
  6
Continuous
 62
     7
100
AcDbCircle
 10
198.2984173218
 20
110.1519468673
 30
0.0
 40
2.924286552612129
100
AcDbArc
 50
284.2883963067
 51
314.9002350139
  0
SPLINE
  5
C8
330
75
100
AcDbEntity
  8
DV1_Default
  6
Continuous
 62
     7
100
AcDbSpline
210
0.0
220
0.0
230
1.0
 70
     8
 71
     3
 72
    28
 73
    24
 74
     0
 42
0.00000000097452
 43
0.0000000001
 40
0.0
 40
0.0
 40
0.0
 40
0.0
 40
0.0767856946677159
 40
0.1583359314749637
 40
0.2323064653244849
 40
0.2988478800321018
 40
0.358004298656853
 40
0.4091496724434146
 40
0.4533748521376659
 40
0.4933235819580022
 40
0.5321220290751796
 40
0.5608559699136507
 40
0.5890693841451712
 40
0.6167713361016757
 40
0.643965913448715
 40
0.6711638767866257
 40
0.7048397127228242
 40
0.7469845816708708
 40
0.797619915909678
 40
0.8566962247394801
 40
0.9241264395204317
 40
0.9999884264517513
 40
1.0
 40
1.0
 40
1.0
 40
1.0
 10
164.7766528189251
 20
114.2688666776728
 30
0.0
 10
165.1175033102116
 20
113.9205064183698
 30
0.0
 10
165.7085722249745
 20
113.3178175338204
 30
0.0
 10
166.6505439864047
 20
112.4377919528
 30
0.0
 10
167.4960593042505
 20
111.6798229017389
 30
0.0
 10
168.2090480560497
 20
111.0506529997681
 30
0.0
 10
168.7682150198413
 20
110.5423378523718
 30
0.0
 10
169.2108752108082
 20
110.1356945860214
 30
0.0
 10
169.5657095254415
 20
109.8113316629451
 30
0.0
 10
169.8541499350214
 20
109.5422000962228
 30
0.0
 10
170.081833644141
 20
109.3228286826027
 30
0.0
 10
170.2641090162581
 20
109.1404751226165
 30
0.0
 10
170.4109339930125
 20
108.9884702030495
 30
0.0
 10
170.5426978148188
 20
108.8482086066511
 30
0.0
 10
170.6631846851208
 20
108.7171815122254
 30
0.0
 10
170.7801853170065
 20
108.5881149578557
 30
0.0
 10
170.9332849025983
 20
108.4213463280668
 30
0.0
 10
171.128254135912
 20
108.2174838189134
 30
0.0
 10
171.3727570873291
 20
107.9867096147469
 30
0.0
 10
171.6714664566782
 20
107.7487868669624
 30
0.0
 10
172.0092000471541
 20
107.531407215509
 30
0.0
 10
172.2354874427607
 20
107.4192104082862
 30
0.0
 10
172.3400559091165
 20
107.3801971663777
 30
0.0
 10
172.3400718593538
 20
107.3801912158773
 30
0.0
  0
ARC
  5
C9
330
75
100
AcDbEntity
  8
DV1_Default
  6
Continuous
 62
     7
100
AcDbCircle
 10
348.8063118651
 20
138.8336532371
 30
0.0
 40
136.5495278342654
100
AcDbArc
 50
176.3442759078
 51
179.7620878332
  0
ARC
  5
CA
330
75
100
AcDbEntity
  8
DV1_Default
  6
Continuous
 62
     7
100
AcDbCircle
 10
111.3799451195
 20
141.9201467115
 30
0.0
 40
48.03496123673243
100
AcDbArc
 50
357.1534659795
 51
6.7201616116
  0
LINE
  5
CB
330
75
100
AcDbEntity
  8
DV1_Default
  6
Continuous
 62
     7
100
AcDbLine
 10
212.482743375
 20
147.8622904873
 30
0.0
 11
212.486208342
 21
147.8622904873
 31
0.0
  0
LINE
  5
CC
330
75
100
AcDbEntity
  8
DV1_Default
  6
Continuous
 62
     7
100
AcDbLine
 10
212.4845828185
 20
147.8622904873
 30
0.0
 11
181.4162670682
 21
147.8622907241
 31
0.0
  0
LINE
  5
CD
330
75
100
AcDbEntity
  8
DV1_Default
  6
Continuous
 62
     7
100
AcDbLine
 10
181.4162670682
 20
147.8622907241
 30
0.0
 11
167.5908114681
 21
147.8622908294
 31
0.0
  0
LINE
  5
CE
330
75
100
AcDbEntity
  8
DV1_Default
  6
Continuous
 62
     7
100
AcDbLine
 10
167.5908114681
 20
147.8622908294
 30
0.0
 11
159.1273593948
 21
147.8622908939
 31
0.0
  0
ARC
  5
CF
330
75
100
AcDbEntity
  8
DV1_Default
  6
Continuous
 62
     7
100
AcDbCircle
 10
185.811621501
 20
32280.3167289131
 30
0.0
 40
32132.78405239568
100
AcDbArc
 50
270.0476495208
 51
270.0480972381
  0
ARC
  5
D0
330
75
100
AcDbEntity
  8
DV1_Default
  6
Continuous
 62
     7
100
AcDbCircle
 10
185.811621501
 20
32280.3167289131
 30
0.0
 40
32132.78405239568
100
AcDbArc
 50
269.9523360978
 51
270.0476495208
  0
ARC
  5
D1
330
75
100
AcDbEntity
  8
DV1_Default
  6
Continuous
 62
     7
100
AcDbCircle
 10
185.811621501
 20
32280.3167289131
 30
0.0
 40
32132.78405239568
100
AcDbArc
 50
269.9518809466
 51
269.9523360978
  0
ARC
  5
D2
330
75
100
AcDbEntity
  8
DV1_Default
  6
Continuous
 62
     7
100
AcDbCircle
 10
212.4861740522
 20
147.562245207
 30
0.0
 40
0.3000452822916901
100
AcDbArc
 50
356.513301316
 51
89.9934521135
  0
ARC
  5
D3
330
75
100
AcDbEntity
  8
DV1_Default
  6
Continuous
 62
     7
100
AcDbCircle
 10
159.1248963947
 20
147.5622146559
 30
0.0
 40
0.3000905702242047
100
AcDbArc
 50
90.0187038725
 51
183.4781995573
  0
ARC
  5
D4
330
75
100
AcDbEntity
  8
DV1_Default
  6
Continuous
 62
     7
100
AcDbCircle
 10
1377.3020971478
 20
222.2992409294
 30
0.0
 40
1220.767753153945
100
AcDbArc
 50
183.5107748514
 51
183.8921498869
  0
ARC
  5
D5
330
75
100
AcDbEntity
  8
DV1_Default
  6
Continuous
 62
     7
100
AcDbCircle
 10
-968.5336344826
 20
219.9301997559
 30
0.0
 40
1183.534965196168
100
AcDbArc
 50
356.0986702168
 51
356.4935434816
  0
ARC
  5
D6
330
75
100
AcDbEntity
  8
DV1_Default
  6
Continuous
 62
     7
100
AcDbCircle
 10
-938.1644987366
 20
218.1876033078
 30
0.0
 40
1153.118002924196
100
AcDbArc
 50
355.2222538411
 51
356.0293477169
  0
SPLINE
  5
D7
330
75
100
AcDbEntity
  8
DV1_Default
  6
Continuous
 62
     7
100
AcDbSpline
210
0.0
220
0.0
230
1.0
 70
     8
 71
     3
 72
     8
 73
     4
 74
     0
 42
0.0000000005814601
 43
0.0000000001
 40
0.0
 40
0.0
 40
0.0
 40
0.0
 40
0.0524595424834042
 40
0.0524595424834042
 40
0.0524595424834042
 40
0.0524595424834042
 10
165.7162654228741
 20
113.8162099482487
 30
0.0
 10
165.9253503068101
 20
113.597489392713
 30
0.0
 10
166.1344765821744
 20
113.3789727863704
 30
0.0
 10
166.3428604766082
 20
113.1671222980314
 30
0.0
  0
SPLINE
  5
D8
330
75
100
AcDbEntity
  8
DV1_Default
  6
Continuous
 62
     7
100
AcDbSpline
210
0.0
220
0.0
230
1.0
 70
     8
 71
     3
 72
     8
 73
     4
 74
     0
 42
0.0000000006020285
 43
0.0000000001
 40
0.0524629483741044
 40
0.0524629483741044
 40
0.0524629483741044
 40
0.0524629483741044
 40
0.122539558753326
 40
0.122539558753326
 40
0.122539558753326
 40
0.122539558753326
 10
166.3429010640345
 20
113.1670810354831
 30
0.0
 10
166.621264723589
 20
112.8840876510513
 30
0.0
 10
166.8983036089974
 20
112.6129892940437
 30
0.0
 10
167.1728968029612
 20
112.351122768106
 30
0.0
  0
SPLINE
  5
D9
330
75
100
AcDbEntity
  8
DV1_Default
  6
Continuous
 62
     7
100
AcDbSpline
210
0.0
220
0.0
230
1.0
 70
     8
 71
     3
 72
     8
 73
     4
 74
     0
 42
0.0000000006468725
 43
0.0000000001
 40
0.122539558753326
 40
0.122539558753326
 40
0.122539558753326
 40
0.122539558753326
 40
0.2449652121094821
 40
0.2449652121094821
 40
0.2449652121094821
 40
0.2449652121094821
 10
167.1728968029612
 20
112.351122768106
 30
0.0
 10
167.6526182249343
 20
111.8936351648024
 30
0.0
 10
168.1248751532791
 20
111.4643240284659
 30
0.0
 10
168.563413873035
 20
111.0674553758291
 30
0.0
  0
SPLINE
  5
DA
330
75
100
AcDbEntity
  8
DV1_Default
  6
Continuous
 62
     7
100
AcDbSpline
210
0.0
220
0.0
230
1.0
 70
     8
 71
     3
 72
     8
 73
     4
 74
     0
 42
0.0000000007211148
 43
0.0000000001
 40
0.2449652121094821
 40
0.2449652121094821
 40
0.2449652121094821
 40
0.2449652121094821
 40
0.3061454107742997
 40
0.3061454107742997
 40
0.3061454107742997
 40
0.3061454107742997
 10
168.563413873035
 20
111.0674553758291
 30
0.0
 10
168.7825663566965
 20
110.8691268201177
 30
0.0
 10
168.9932982721526
 20
110.6789002412958
 30
0.0
 10
169.1914931868748
 20
110.4970962149772
 30
0.0
  0
SPLINE
  5
DB
330
75
100
AcDbEntity
  8
DV1_Default
  6
Continuous
 62
     7
100
AcDbSpline
210
0.0
220
0.0
230
1.0
 70
     8
 71
     3
 72
     8
 73
     4
 74
     0
 42
0.0000000007984688
 43
0.0000000001
 40
0.3061454107742997
 40
0.3061454107742997
 40
0.3061454107742997
 40
0.3061454107742997
 40
0.3672915902774503
 40
0.3672915902774503
 40
0.3672915902774503
 40
0.3672915902774503
 10
169.1914931868748
 20
110.4970962149772
 30
0.0
 10
169.3895778955991
 20
110.3153932805265
 30
0.0
 10
169.5751395420757
 20
110.1421035344867
 30
0.0
 10
169.7531831778532
 20
109.9765825095102
 30
0.0
  0
SPLINE
  5
DC
330
75
100
AcDbEntity
  8
DV1_Default
  6
Continuous
 62
     7
100
AcDbSpline
210
0.0
220
0.0
230
1.0
 70
     8
 71
     3
 72
     8
 73
     4
 74
     0
 42
0.0000000009330145
 43
0.0000000001
 40
0.3672915902774503
 40
0.3672915902774503
 40
0.3672915902774503
 40
0.3672915902774503
 40
0.4892008841789653
 40
0.4892008841789653
 40
0.4892008841789653
 40
0.4892008841789653
 10
169.7531831778532
 20
109.9765825095102
 30
0.0
 10
170.1081550517735
 20
109.6465774062525
 30
0.0
 10
170.4332429814603
 20
109.3474528159806
 30
0.0
 10
170.7054069349036
 20
109.0820068074673
 30
0.0
  0
SPLINE
  5
DD
330
75
100
AcDbEntity
  8
DV1_Default
  6
Continuous
 62
     7
100
AcDbSpline
210
0.0
220
0.0
230
1.0
 70
     8
 71
     3
 72
     8
 73
     4
 74
     0
 42
0.0000000012558545
 43
0.0000000001
 40
0.4892008841789653
 40
0.4892008841789653
 40
0.4892008841789653
 40
0.4892008841789653
 40
0.6108698314484544
 40
0.6108698314484544
 40
0.6108698314484544
 40
0.6108698314484544
 10
170.7054069349036
 20
109.0820068074673
 30
0.0
 10
170.9770343116226
 20
108.8170841311141
 30
0.0
 10
171.195946187762
 20
108.5857073714179
 30
0.0
 10
171.3781516225345
 20
108.3852891698635
 30
0.0
  0
SPLINE
  5
DE
330
75
100
AcDbEntity
  8
DV1_Default
  6
Continuous
 62
     7
100
AcDbSpline
210
0.0
220
0.0
230
1.0
 70
     8
 71
     3
 72
     8
 73
     4
 74
     0
 42
0.0000000017488857
 43
0.0000000001
 40
0.6108698314484544
 40
0.6108698314484544
 40
0.6108698314484544
 40
0.6108698314484544
 40
0.7329155935630405
 40
0.7329155935630405
 40
0.7329155935630405
 40
0.7329155935630405
 10
171.3781516225345
 20
108.3852891698635
 30
0.0
 10
171.5609213566965
 20
108.1842502630653
 30
0.0
 10
171.7067569340261
 20
108.0143619717759
 30
0.0
 10
171.8486615663074
 20
107.8702499640868
 30
0.0
  0
SPLINE
  5
DF
330
75
100
AcDbEntity
  8
DV1_Default
  6
Continuous
 62
     7
100
AcDbSpline
210
0.0
220
0.0
230
1.0
 70
     8
 71
     3
 72
     8
 73
     4
 74
     0
 42
0.0000000022804653
 43
0.0000000001
 40
0.7329155935630405
 40
0.7329155935630405
 40
0.7329155935630405
 40
0.7329155935630405
 40
0.8549757103007726
 40
0.8549757103007726
 40
0.8549757103007726
 40
0.8549757103007726
 10
171.8486615663074
 20
107.8702499640868
 30
0.0
 10
171.9905828889473
 20
107.7261210064149
 30
0.0
 10
172.1285723417948
 20
107.6077743961441
 30
0.0
 10
172.2492276229494
 20
107.5166832344702
 30
0.0
  0
SPLINE
  5
E0
330
75
100
AcDbEntity
  8
DV1_Default
  6
Continuous
 62
     7
100
AcDbSpline
210
0.0
220
0.0
230
1.0
 70
     8
 71
     3
 72
     9
 73
     5
 74
     0
 42
0.0000000035653398
 43
0.0000000001
 40
0.8549757103007726
 40
0.8549757103007726
 40
0.8549757103007726
 40
0.8549757103007726
 40
0.9769075877704757
 40
1.0
 40
1.0
 40
1.0
 40
1.0
 10
172.2492276229494
 20
107.5166832344702
 30
0.0
 10
172.3697561407896
 20
107.4256877753421
 30
0.0
 10
172.4925375377694
 20
107.3498081023009
 30
0.0
 10
172.5822627065721
 20
107.3128675760325
 30
0.0
 10
172.595770881678
 20
107.3079593727606
 30
0.0
  0
SPLINE
  5
E1
330
75
100
AcDbEntity
  8
DV1_Default
  6
Continuous
 62
     7
100
AcDbSpline
210
0.0
220
0.0
230
1.0
 70
    24
 71
     3
 72
     8
 73
     4
 74
     0
 42
0.0000000000340589
 43
0.0000000001
 40
0.0524595424834042
 40
0.0524595424834042
 40
0.0524595424834042
 40
0.0524595424834042
 40
0.0524629483741044
 40
0.0524629483741044
 40
0.0524629483741044
 40
0.0524629483741044
 10
166.3428604766082
 20
113.1671222980314
 30
0.0
 10
166.3428740057534
 20
113.1671085438205
 30
0.0
 10
166.3428875348955
 20
113.1670947896378
 30
0.0
 10
166.3429010640345
 20
113.1670810354831
 30
0.0
  0
ARC
  5
E2
330
75
100
AcDbEntity
  8
DV1_Default
  6
Continuous
 62
     7
100
AcDbCircle
 10
165.8471436757
 20
115.2994065875
 30
0.0
 40
1.488959834204355
100
AcDbArc
 50
224.1203317172
 51
264.9572437696
  0
SPLINE
  5
E3
330
75
100
AcDbEntity
  8
DV1_Default
  6
Continuous
 62
     7
100
AcDbSpline
210
0.0
220
0.0
230
1.0
 70
     8
 71
     3
 72
     8
 73
     4
 74
     0
 42
0.0000000013423642
 43
0.0000000001
 40
0.0
 40
0.0
 40
0.0
 40
0.0
 40
0.1242802297084536
 40
0.1242802297084536
 40
0.1242802297084536
 40
0.1242802297084536
 10
162.2484993331941
 20
120.5204002991987
 30
0.0
 10
162.2637702694286
 20
120.2112379369698
 30
0.0
 10
162.2790269264312
 20
119.9020156716103
 30
0.0
 10
162.3173258753068
 20
119.5977231813329
 30
0.0
  0
SPLINE
  5
E4
330
75
100
AcDbEntity
  8
DV1_Default
  6
Continuous
 62
     7
100
AcDbSpline
210
0.0
220
0.0
230
1.0
 70
     8
 71
     3
 72
     8
 73
     4
 74
     0
 42
0.0000000013507931
 43
0.0000000001
 40
0.1242802297084536
 40
0.1242802297084536
 40
0.1242802297084536
 40
0.1242802297084536
 40
0.2483502378158664
 40
0.2483502378158664
 40
0.2483502378158664
 40
0.2483502378158664
 10
162.3173258753068
 20
119.5977231813329
 30
0.0
 10
162.3555600410196
 20
119.293945405702
 30
0.0
 10
162.4167586118705
 20
118.995080741703
 30
0.0
 10
162.4997621604694
 20
118.6992476449091
 30
0.0
  0
SPLINE
  5
E5
330
75
100
AcDbEntity
  8
DV1_Default
  6
Continuous
 62
     7
100
AcDbSpline
210
0.0
220
0.0
230
1.0
 70
     8
 71
     3
 72
     9
 73
     5
 74
     0
 42
0.0000000013119181
 43
0.0000000001
 40
0.2483502378158664
 40
0.2483502378158664
 40
0.2483502378158664
 40
0.2483502378158664
 40
0.3726829448294555
 40
0.4976828287496746
 40
0.4976828287496746
 40
0.4976828287496746
 40
0.4976828287496746
 10
162.4997621604694
 20
118.6992476449091
 30
0.0
 10
162.5829414561466
 20
118.4027881676375
 30
0.0
 10
162.7936587211166
 20
117.8143835670286
 30
0.0
 10
163.0855086795135
 20
117.2426453041285
 30
0.0
 10
163.2483563292342
 20
116.960585446314
 30
0.0
  0
SPLINE
  5
E6
330
75
100
AcDbEntity
  8
DV1_Default
  6
Continuous
 62
     7
100
AcDbSpline
210
0.0
220
0.0
230
1.0
 70
     8
 71
     3
 72
     9
 73
     5
 74
     0
 42
0.0000000012545576
 43
0.0000000001
 40
0.4976828287496746
 40
0.4976828287496746
 40
0.4976828287496746
 40
0.4976828287496746
 40
0.6230416877122096
 40
0.7485749963831149
 40
0.7485749963831149
 40
0.7485749963831149
 40
0.7485749963831149
 10
163.2483563292342
 20
116.960585446314
 30
0.0
 10
163.4116716453247
 20
116.6777155681521
 30
0.0
 10
163.7718072616253
 20
116.1207896257115
 30
0.0
 10
164.1791579380503
 20
115.5852973484616
 30
0.0
 10
164.3904588663981
 20
115.3225471472595
 30
0.0
  0
SPLINE
  5
E7
330
75
100
AcDbEntity
  8
DV1_Default
  6
Continuous
 62
     7
100
AcDbSpline
210
0.0
220
0.0
230
1.0
 70
     8
 71
     3
 72
     8
 73
     4
 74
     0
 42
0.0000000012437718
 43
0.0000000001
 40
0.7485749963831149
 40
0.7485749963831149
 40
0.7485749963831149
 40
0.7485749963831149
 40
0.8742304298898438
 40
0.8742304298898438
 40
0.8742304298898438
 40
0.8742304298898438
 10
164.3904588663981
 20
115.3225471472595
 30
0.0
 10
164.6019653584442
 20
115.0595413300338
 30
0.0
 10
164.8209703902205
 20
114.8017277065078
 30
0.0
 10
165.0430782542784
 20
114.5516118111441
 30
0.0
  0
SPLINE
  5
E8
330
75
100
AcDbEntity
  8
DV1_Default
  6
Continuous
 62
     7
100
AcDbSpline
210
0.0
220
0.0
230
1.0
 70
     8
 71
     3
 72
     8
 73
     4
 74
     0
 42
0.0000000012614151
 43
0.0000000001
 40
0.8742304298898438
 40
0.8742304298898438
 40
0.8742304298898438
 40
0.8742304298898438
 40
1.0
 40
1.0
 40
1.0
 40
1.0
 10
165.0430782542784
 20
114.5516118111441
 30
0.0
 10
165.2653878655788
 20
114.3012687280022
 30
0.0
 10
165.4908059485122
 20
114.0586373635289
 30
0.0
 10
165.7162654228741
 20
113.8162099482487
 30
0.0
  0
LINE
  5
E9
330
75
100
AcDbEntity
  8
DV1_Default
  6
Continuous
 62
     7
100
AcDbLine
 10
160.6642823562
 20
122.1434774048
 30
0.0
 11
160.6639347754
 21
122.1554619769
 31
0.0
  0
ARC
  5
EA
330
75
100
AcDbEntity
  8
DV1_Default
  6
Continuous
 62
     7
100
AcDbCircle
 10
1478.3989678651
 20
230.1112120571
 30
0.0
 40
1322.149525924959
100
AcDbArc
 50
183.580319594
 51
184.7388103552
  0
LINE
  5
EB
330
75
100
AcDbEntity
  8
DV1_Default
  6
Continuous
 62
     7
100
AcDbLine
 10
210.9470849784
 20
122.1550579587
 30
0.0
 11
210.9467494788
 21
122.1435098261
 31
0.0
  0
LINE
  5
EC
330
75
100
AcDbEntity
  8
DV1_Default
  6
Continuous
 62
     7
100
AcDbLine
 10
210.9467494788
 20
122.1435098261
 30
0.0
 11
210.9467487975
 21
122.1434863774
 31
0.0
  0
SPLINE
  5
ED
330
75
100
AcDbEntity
  8
DV1_Default
  6
Continuous
 62
     7
100
AcDbSpline
210
0.0
220
0.0
230
1.0
 70
     8
 71
     3
 72
     9
 73
     5
 74
     0
 42
0.000000001510618
 43
0.0000000001
 40
0.0000066370840512
 40
0.0000066370840512
 40
0.0000066370840512
 40
0.0000066370840512
 40
0.062277087774995
 40
0.0976193418912834
 40
0.0976193418912834
 40
0.0976193418912834
 40
0.0976193418912834
 10
199.7121787449086
 20
107.7912277160082
 30
0.0
 10
199.8010651925919
 20
107.8795186799562
 30
0.0
 10
199.9404236774297
 20
108.0177749336409
 30
0.0
 10
200.1003176815124
 20
108.1889929872991
 30
0.0
 10
200.1620709667384
 20
108.2549037407627
 30
0.0
  0
SPLINE
  5
EE
330
75
100
AcDbEntity
  8
DV1_Default
  6
Continuous
 62
     7
100
AcDbSpline
210
0.0
220
0.0
230
1.0
 70
     8
 71
     3
 72
    10
 73
     6
 74
     0
 42
0.0000000010962942
 43
0.0000000001
 40
0.0976193418912834
 40
0.0976193418912834
 40
0.0976193418912834
 40
0.0976193418912834
 40
0.1244478775226763
 40
0.1866109579098353
 40
0.1964834247472795
 40
0.1964834247472795
 40
0.1964834247472795
 40
0.1964834247472795
 10
200.1620709667384
 20
108.2549037407627
 30
0.0
 10
200.2089482883599
 20
108.3049370236418
 30
0.0
 10
200.371822920629
 20
108.4783898813578
 30
0.0
 10
200.5862133308648
 20
108.6965334060282
 30
0.0
 10
200.7691789915533
 20
108.8727840999235
 30
0.0
 10
200.7947455135453
 20
108.8972619630462
 30
0.0
  0
SPLINE
  5
EF
330
75
100
AcDbEntity
  8
DV1_Default
  6
Continuous
 62
     7
100
AcDbSpline
210
0.0
220
0.0
230
1.0
 70
     8
 71
     3
 72
     8
 73
     4
 74
     0
 42
0.0000000008889427
 43
0.0000000001
 40
0.1964834247472795
 40
0.1964834247472795
 40
0.1964834247472795
 40
0.1964834247472795
 40
0.2246602373433274
 40
0.2246602373433274
 40
0.2246602373433274
 40
0.2246602373433274
 10
200.7947455135453
 20
108.8972619630462
 30
0.0
 10
200.8677144189631
 20
108.9671237486888
 30
0.0
 10
200.9446836379804
 20
109.0396143184729
 30
0.0
 10
201.0253876764189
 20
109.1146801096823
 30
0.0
  0
SPLINE
  5
F0
330
75
100
AcDbEntity
  8
DV1_Default
  6
Continuous
 62
     7
100
AcDbSpline
210
0.0
220
0.0
230
1.0
 70
     8
 71
     3
 72
    11
 73
     7
 74
     0
 42
0.0000000007034977
 43
0.0000000001
 40
0.2246602373433274
 40
0.2246602373433274
 40
0.2246602373433274
 40
0.2246602373433274
 40
0.248917121225387
 40
0.3113932198601151
 40
0.3738186062219633
 40
0.3966608022068441
 40
0.3966608022068441
 40
0.3966608022068441
 40
0.3966608022068441
 10
201.0253876764189
 20
109.1146801096823
 30
0.0
 10
201.094864253393
 20
109.179302826488
 30
0.0
 10
201.3531819347353
 20
109.4171921699693
 30
0.0
 10
201.854555449879
 20
109.8675117747062
 30
0.0
 10
202.3921034342077
 20
110.3678470329204
 30
0.0
 10
202.734945412878
 20
110.6801878976463
 30
0.0
 10
202.8287607223281
 20
110.7655118685162
 30
0.0
  0
SPLINE
  5
F1
330
75
100
AcDbEntity
  8
DV1_Default
  6
Continuous
 62
     7
100
AcDbSpline
210
0.0
220
0.0
230
1.0
 70
     8
 71
     3
 72
    10
 73
     6
 74
     0
 42
0.0000000005543833
 43
0.0000000001
 40
0.3966608022068441
 40
0.3966608022068441
 40
0.3966608022068441
 40
0.3966608022068441
 40
0.4364142042170579
 40
0.499179733743058
 40
0.5093569364753545
 40
0.5093569364753545
 40
0.5093569364753545
 40
0.5093569364753545
 10
202.8287607223281
 20
110.7655118685162
 30
0.0
 10
202.9920321395662
 20
110.914005389776
 30
0.0
 10
203.4284907459974
 20
111.3098507299151
 30
0.0
 10
203.9377594574244
 20
111.7799876092463
 30
0.0
 10
204.274776111644
 20
112.0998804800929
 30
0.0
 10
204.3219268126442
 20
112.144815660268
 30
0.0
  0
SPLINE
  5
F2
330
75
100
AcDbEntity
  8
DV1_Default
  6
Continuous
 62
     7
100
AcDbSpline
210
0.0
220
0.0
230
1.0
 70
     8
 71
     3
 72
    11
 73
     7
 74
     0
 42
0.0000000004881136
 43
0.0000000001
 40
0.5093569364753545
 40
0.5093569364753545
 40
0.5093569364753545
 40
0.5093569364753545
 40
0.5305783462149627
 40
0.5619760372570309
 40
0.6247711797485755
 40
0.68602585616901
 40
0.68602585616901
 40
0.68602585616901
 40
0.68602585616901
 10
204.3219268126442
 20
112.144815660268
 30
0.0
 10
204.4202450216605
 20
112.238514085592
 30
0.0
 10
204.6654192962254
 20
112.4741055367721
 30
0.0
 10
205.2089363291953
 20
113.0084884459648
 30
0.0
 10
205.9486643068293
 20
113.7704084959313
 30
0.0
 10
206.5411666951176
 20
114.422601188591
 30
0.0
 10
206.8270258912156
 20
114.7548317324615
 30
0.0
  0
SPLINE
  5
F3
330
75
100
AcDbEntity
  8
DV1_Default
  6
Continuous
 62
     7
100
AcDbSpline
210
0.0
220
0.0
230
1.0
 70
     8
 71
     3
 72
     9
 73
     5
 74
     0
 42
0.0000000004644497
 43
0.0000000001
 40
0.68602585616901
 40
0.68602585616901
 40
0.68602585616901
 40
0.68602585616901
 40
0.6875566003753163
 40
0.7487835838303767
 40
0.7487835838303767
 40
0.7487835838303767
 40
0.7487835838303767
 10
206.8270258912156
 20
114.7548317324615
 30
0.0
 10
206.834169465124
 20
114.7631341186613
 30
0.0
 10
207.1268711234216
 20
115.1037775824102
 30
0.0
 10
207.4123360977899
 20
115.4550952900791
 30
0.0
 10
207.6737606429809
 20
115.8071163370656
 30
0.0
  0
SPLINE
  5
F4
330
75
100
AcDbEntity
  8
DV1_Default
  6
Continuous
 62
     7
100
AcDbSpline
210
0.0
220
0.0
230
1.0
 70
     8
 71
     3
 72
    10
 73
     6
 74
     0
 42
0.0000000004786313
 43
0.0000000001
 40
0.7487835838303767
 40
0.7487835838303767
 40
0.7487835838303767
 40
0.7487835838303767
 40
0.7502230530711527
 40
0.8127768829500868
 40
0.8751398838684071
 40
0.8751398838684071
 40
0.8751398838684071
 40
0.8751398838684071
 10
207.6737606429809
 20
115.8071163370656
 30
0.0
 10
207.6799068316439
 20
115.8153924833111
 30
0.0
 10
207.9527232416267
 20
116.1835461524184
 30
0.0
 10
208.4540531241464
 20
116.9304298326954
 30
0.0
 10
208.8272794549412
 20
117.7018087416652
 30
0.0
 10
208.9668846611122
 20
118.0925778179751
 30
0.0
  0
SPLINE
  5
F5
330
75
100
AcDbEntity
  8
DV1_Default
  6
Continuous
 62
     7
100
AcDbSpline
210
0.0
220
0.0
230
1.0
 70
     8
 71
     3
 72
     8
 73
     4
 74
     0
 42
0.0000000005071981
 43
0.0000000001
 40
0.8753725526614466
 40
0.8753725526614466
 40
0.8753725526614466
 40
0.8753725526614466
 40
0.9357637352748993
 40
0.9357637352748993
 40
0.9357637352748993
 40
0.9357637352748993
 10
208.9684452610839
 20
118.0969517908292
 30
0.0
 10
209.1032989608522
 20
118.4754063464431
 30
0.0
 10
209.1943891630335
 20
118.8591795912014
 30
0.0
 10
209.255079741306
 20
119.2489672232053
 30
0.0
  0
SPLINE
  5
F6
330
75
100
AcDbEntity
  8
DV1_Default
  6
Continuous
 62
     7
100
AcDbSpline
210
0.0
220
0.0
230
1.0
 70
     8
 71
     3
 72
    10
 73
     6
 74
     0
 42
0.0000000005033814
 43
0.0000000001
 40
0.9357637352748993
 40
0.9357637352748993
 40
0.9357637352748993
 40
0.9357637352748993
 40
0.9373518098795485
 40
0.9658174590264069
 40
0.999901960153363
 40
0.999901960153363
 40
0.999901960153363
 40
0.999901960153363
 10
209.255079741306
 20
119.2489672232053
 30
0.0
 10
209.256675688958
 20
119.2592172599293
 30
0.0
 10
209.2864805838079
 20
119.4532741158692
 30
0.0
 10
209.3342064566977
 20
119.8706029944443
 30
0.0
 10
209.3524068057601
 20
120.2892875247305
 30
0.0
 10
209.3623144904568
 20
120.5173853584161
 30
0.0
  0
SPLINE
  5
F7
330
75
100
AcDbEntity
  8
DV1_Default
  6
Continuous
 62
     7
100
AcDbSpline
210
0.0
220
0.0
230
1.0
 70
    24
 71
     3
 72
     8
 73
     4
 74
     0
 42
0.0000000000663708
 43
0.0000000001
 40
0.0
 40
0.0
 40
0.0
 40
0.0
 40
0.0000066370840512
 40
0.0000066370840512
 40
0.0000066370840512
 40
0.0000066370840512
 10
199.7121503230741
 20
107.7911994845787
 30
0.0
 10
199.7121597970188
 20
107.7912088950563
 30
0.0
 10
199.7121692709636
 20
107.7912183055328
 30
0.0
 10
199.7121787449086
 20
107.7912277160082
 30
0.0
  0
SPLINE
  5
F8
330
75
100
AcDbEntity
  8
DV1_Default
  6
Continuous
 62
     7
100
AcDbSpline
210
0.0
220
0.0
230
1.0
 70
     8
 71
     3
 72
     8
 73
     4
 74
     0
 42
0.0000000005010051
 43
0.0000000001
 40
0.8751398838684071
 40
0.8751398838684071
 40
0.8751398838684071
 40
0.8751398838684071
 40
0.8753725526614466
 40
0.8753725526614466
 40
0.8753725526614466
 40
0.8753725526614466
 10
208.9668846611122
 20
118.0925778179751
 30
0.0
 10
208.9674055112051
 20
118.0940357300063
 30
0.0
 10
208.9679257109409
 20
118.0954937209444
 30
0.0
 10
208.9684452610839
 20
118.0969517908292
 30
0.0
  0
SPLINE
  5
F9
330
75
100
AcDbEntity
  8
DV1_Default
  6
Continuous
 62
     7
100
AcDbSpline
210
0.0
220
0.0
230
1.0
 70
    24
 71
     3
 72
     8
 73
     4
 74
     0
 42
0.0000000004976288
 43
0.0000000001
 40
0.999901960153363
 40
0.999901960153363
 40
0.999901960153363
 40
0.999901960153363
 40
1.0
 40
1.0
 40
1.0
 40
1.0
 10
209.3623144904568
 20
120.5173853584161
 30
0.0
 10
209.3623429886849
 20
120.5180414535882
 30
0.0
 10
209.3623714868307
 20
120.5186975483503
 30
0.0
 10
209.3623999850941
 20
120.5193536426187
 30
0.0
  0
ARC
  5
FA
330
75
100
AcDbEntity
  8
DV1_Default
  6
Continuous
 62
     7
100
AcDbCircle
 10
199.5189321735
 20
109.1013283944
 30
0.0
 40
1.32430019770028
100
AcDbArc
 50
278.3895199598
 51
304.1688415708
  0
LINE
  5
FB
330
75
100
AcDbEntity
  8
DV1_Default
  6
Continuous
 62
     7
100
AcDbLine
 10
159.0143118076
 20
147.8367937416
 30
0.0
 11
159.0075178177
 21
147.836818577
 31
0.0
  0
LINE
  5
FC
330
75
100
AcDbEntity
  8
DV1_Default
  6
Continuous
 62
     7
100
AcDbLine
 10
169.7960942048
 20
147.8345439892
 30
0.0
 11
167.5291805745
 21
147.8346847007
 31
0.0
  0
LINE
  5
FD
330
75
100
AcDbEntity
  8
DV1_Default
  6
Continuous
 62
     7
100
AcDbLine
 10
172.5471470869
 20
147.8344278486
 30
0.0
 11
169.7960942048
 21
147.8345439892
 31
0.0
  0
LINE
  5
FE
330
75
100
AcDbEntity
  8
DV1_Default
  6
Continuous
 62
     7
100
AcDbLine
 10
175.5209189659
 20
147.8343493003
 30
0.0
 11
172.5471470869
 21
147.8344278486
 31
0.0
  0
LINE
  5
FF
330
75
100
AcDbEntity
  8
DV1_Default
  6
Continuous
 62
     7
100
AcDbLine
 10
178.6756440467
 20
147.8342995847
 30
0.0
 11
175.5209189659
 21
147.8343493003
 31
0.0
  0
LINE
  5
100
330
75
100
AcDbEntity
  8
DV1_Default
  6
Continuous
 62
     7
100
AcDbLine
 10
181.3996129965
 20
147.8342740085
 30
0.0
 11
178.6756440467
 21
147.8342995847
 31
0.0
  0
LINE
  5
101
330
75
100
AcDbEntity
  8
DV1_Default
  6
Continuous
 62
     7
100
AcDbLine
 10
212.6037416261
 20
147.8367656462
 30
0.0
 11
212.5982912457
 21
147.8367491617
 31
0.0
  0
SPLINE
  5
102
330
75
100
AcDbEntity
  8
DV1_Default
  6
Continuous
 62
     7
100
AcDbSpline
210
0.0
220
0.0
230
1.0
 70
     8
 71
     3
 72
     8
 73
     4
 74
     0
 42
0.0000000433343182
 43
0.0000000001
 40
0.0
 40
0.0
 40
0.0
 40
0.0
 40
1.0
 40
1.0
 40
1.0
 40
1.0
 10
158.9882223281325
 20
147.8210472186364
 30
0.0
 10
158.9210537017911
 20
147.7978903293153
 30
0.0
 10
158.9249405488427
 20
147.7469761625114
 30
0.0
 10
158.9998828692873
 20
147.6683047182248
 30
0.0
  0
ARC
  5
103
330
75
100
AcDbEntity
  8
DV1_Default
  6
Continuous
 62
     7
100
AcDbCircle
 10
212.4827190693
 20
147.5622098596
 30
0.0
 40
0.3000522337767294
100
AcDbArc
 50
358.6661864229
 51
43.2771322643
  0
ARC
  5
104
330
75
100
AcDbEntity
  8
DV1_Default
  6
Continuous
 62
     7
100
AcDbCircle
 10
212.4285743191
 20
124.4571084894
 30
0.0
 40
23.37792112117973
100
AcDbArc
 50
89.5979358738
 51
89.8561504779
  0
ARC
  5
105
330
75
100
AcDbEntity
  8
DV1_Default
  6
Continuous
 62
     7
100
AcDbCircle
 10
212.5556554243
 20
147.6400554144
 30
0.0
 40
0.1932963292863452
100
AcDbArc
 50
41.0140973801
 51
65.0001189447
  0
ARC
  5
106
330
75
100
AcDbEntity
  8
DV1_Default
  6
Continuous
 62
     7
100
AcDbCircle
 10
159.1600635796
 20
147.5621490321
 30
0.0
 40
0.300315145703463
100
AcDbArc
 50
136.7541501924
 51
184.0603122631
  0
ARC
  5
107
330
75
100
AcDbEntity
  8
DV1_Default
  6
Continuous
 62
     7
100
AcDbCircle
 10
-793.8171811343
 20
206.7786350653
 30
0.0
 40
1008.340760172634
100
AcDbArc
 50
356.172720876
 51
356.6322131499
  0
ARC
  5
108
330
75
100
AcDbEntity
  8
DV1_Default
  6
Continuous
 62
     7
100
AcDbCircle
 10
1236.5866035137
 20
212.0223799913
 30
0.0
 40
1079.681858018095
100
AcDbArc
 50
183.4237304579
 51
183.8523586461
  0
SPLINE
  5
109
330
75
100
AcDbEntity
  8
DV1_Default
  6
Continuous
 62
     7
100
AcDbSpline
210
0.0
220
0.0
230
1.0
 70
     8
 71
     3
 72
    22
 73
    18
 74
     0
 42
0.0000000008203815
 43
0.0000000001
 40
0.0057458624216328
 40
0.0057458624216328
 40
0.0057458624216328
 40
0.0057458624216328
 40
0.0767822109105053
 40
0.1583265025824142
 40
0.2322916589764633
 40
0.2988282559247351
 40
0.3579804126595395
 40
0.4091221181447426
 40
0.4533441439547793
 40
0.4933004409949367
 40
0.5321282209667043
 40
0.560899023319596
 40
0.589162037357258
 40
0.6169264392058285
 40
0.6441964019995939
 40
0.6714796459823933
 40
0.6779554616480968
 40
0.6779554616480968
 40
0.6779554616480968
 40
0.6779554616480968
 10
164.85224192776
 20
114.1916286765334
 30
0.0
 10
165.1604330705799
 20
113.8768046740407
 30
0.0
 10
165.7318454507357
 20
113.2960763578343
 30
0.0
 10
166.6505324722943
 20
112.4378031490882
 30
0.0
 10
167.4960549904434
 20
111.6798268033085
 30
0.0
 10
168.2090504768907
 20
111.0506502927884
 30
0.0
 10
168.7682232526611
 20
110.5423297215338
 30
0.0
 10
169.2108883295841
 20
110.1356817690842
 30
0.0
 10
169.5657520027511
 20
109.8112918295485
 30
0.0
 10
169.8542932823368
 20
109.5420647790093
 30
0.0
 10
170.0821453411473
 20
109.3225254305265
 30
0.0
 10
170.2646333758629
 20
109.1399442390745
 30
0.0
 10
170.4116949935137
 20
108.9876759382052
 30
0.0
 10
170.5437202612832
 20
108.8471149290034
 30
0.0
 10
170.6644858250934
 20
108.7157654624146
 30
0.0
 10
170.7455254214661
 20
108.6263615048237
 30
0.0
 10
170.7932842026547
 20
108.5740636354876
 30
0.0
 10
170.8025386041542
 20
108.5639477940354
 30
0.0
  0
SPLINE
  5
10A
330
75
100
AcDbEntity
  8
DV1_Default
  6
Continuous
 62
     7
100
AcDbSpline
210
0.0
220
0.0
230
1.0
 70
     8
 71
     3
 72
     8
 73
     4
 74
     0
 42
0.0000000005313114
 43
0.0000000001
 40
0.0
 40
0.0
 40
0.0
 40
0.0
 40
0.0057458624216328
 40
0.0057458624216328
 40
0.0057458624216328
 40
0.0057458624216328
 10
164.7766014022613
 20
114.2689192610294
 30
0.0
 10
164.8021092466102
 20
114.2428493913659
 30
0.0
 10
164.8273135081005
 20
114.2170936032059
 30
0.0
 10
164.85224192776
 20
114.1916286765334
 30
0.0
  0
SPLINE
  5
10B
330
75
100
AcDbEntity
  8
DV1_Default
  6
Continuous
 62
     7
100
AcDbSpline
210
0.0
220
0.0
230
1.0
 70
     8
 71
     3
 72
    13
 73
     9
 74
     0
 42
0.0000000016434671
 43
0.0000000001
 40
0.6779554616480968
 40
0.6779554616480968
 40
0.6779554616480968
 40
0.6779554616480968
 40
0.7052140547255713
 40
0.7473795801711932
 40
0.7979971417833538
 40
0.8570167980803935
 40
0.9243523540100484
 40
1.0
 40
1.0
 40
1.0
 40
1.0
 10
170.8025386041542
 20
108.5639477940354
 30
0.0
 10
170.8414930737796
 20
108.5213672729064
 30
0.0
 10
170.9449061051549
 20
108.4091374041444
 30
0.0
 10
171.1298887517843
 20
108.2158026740715
 30
0.0
 10
171.3743166347444
 20
107.9853128749525
 30
0.0
 10
171.6727692934705
 20
107.7478039780055
 30
0.0
 10
172.0099131942746
 20
107.530975170455
 30
0.0
 10
172.2357502564602
 20
107.4190710866217
 30
0.0
 10
172.3400949387878
 20
107.3801453449775
 30
0.0
  0
SPLINE
  5
10C
330
75
100
AcDbEntity
  8
DV1_Default
  6
Continuous
 62
     7
100
AcDbSpline
210
0.0
220
0.0
230
1.0
 70
     8
 71
     3
 72
    23
 73
    19
 74
     0
 42
0.0000000012629678
 43
0.0000000001
 40
0.0
 40
0.0
 40
0.0
 40
0.0
 40
0.0052769991198309
 40
0.0052769991198309
 40
0.0052769991198309
 40
0.0561229650220903
 40
0.172934445911201
 40
0.2691426457666845
 40
0.3453916049071418
 40
0.4111010750515472
 40
0.4688617475713662
 40
0.5120704992637478
 40
0.5529589713504898
 40
0.6086340902352513
 40
0.6812922536151026
 40
0.7708084944944721
 40
0.8770745333206127
 40
0.9955778960011998
 40
0.9955778960011998
 40
0.9955778960011998
 40
0.9955778960011998
 10
160.7689172119423
 20
120.8836903939653
 30
0.0
 10
160.7713296065771
 20
120.8699707330808
 30
0.0
 10
160.7737420012119
 20
120.8562510721962
 30
0.0
 10
160.7761543958467
 20
120.8425314113118
 30
0.0
 10
160.7995777873721
 20
120.7093189659428
 30
0.0
 10
160.8848046189908
 20
120.2786617780196
 30
0.0
 10
161.097353301311
 20
119.5683242436243
 30
0.0
 10
161.3956037404428
 20
118.8356756294878
 30
0.0
 10
161.6782104006429
 20
118.2645329735137
 30
0.0
 10
161.9396077117812
 20
117.7993101756863
 30
0.0
 10
162.1747047542874
 20
117.4197136684623
 30
0.0
 10
162.3841422019618
 20
117.1042690793211
 30
0.0
 10
162.5956802845359
 20
116.8019078097163
 30
0.0
 10
162.8572413947659
 20
116.4476947723181
 30
0.0
 10
163.2071534877371
 20
116.0026531599324
 30
0.0
 10
163.6518589135142
 20
115.4739209730391
 30
0.0
 10
164.2025055483754
 20
114.861778163341
 30
0.0
 10
164.5654218937415
 20
114.4833202891844
 30
0.0
 10
164.7906629701147
 20
114.2500882246085
 30
0.0
  0
SPLINE
  5
10D
330
75
100
AcDbEntity
  8
DV1_Default
  6
Continuous
 62
     7
100
AcDbSpline
210
0.0
220
0.0
230
1.0
 70
     8
 71
     3
 72
     8
 73
     4
 74
     0
 42
0.0000000012114377
 43
0.0000000001
 40
0.9956156137497182
 40
0.9956156137497182
 40
0.9956156137497182
 40
0.9956156137497182
 40
1.0
 40
1.0
 40
1.0
 40
1.0
 10
164.7908780524503
 20
114.2498655121183
 30
0.0
 10
164.7992123182337
 20
114.2412356005803
 30
0.0
 10
164.8075930115325
 20
114.2325595358384
 30
0.0
 10
164.8160222842738
 20
114.2238347758922
 30
0.0
  0
SPLINE
  5
10E
330
75
100
AcDbEntity
  8
DV1_Default
  6
Continuous
 62
     7
100
AcDbSpline
210
0.0
220
0.0
230
1.0
 70
    24
 71
     3
 72
     8
 73
     4
 74
     0
 42
0.0000000003771775
 43
0.0000000001
 40
0.9955778960011998
 40
0.9955778960011998
 40
0.9955778960011998
 40
0.9955778960011998
 40
0.9956156137497182
 40
0.9956156137497182
 40
0.9956156137497182
 40
0.9956156137497182
 10
164.7906629701147
 20
114.2500882246085
 30
0.0
 10
164.7907346607915
 20
114.2500139905263
 30
0.0
 10
164.7908063549029
 20
114.2499397530302
 30
0.0
 10
164.7908780524503
 20
114.2498655121183
 30
0.0
  0
ARC
  5
10F
330
75
100
AcDbEntity
  8
DV1_Default
  6
Continuous
 62
     7
100
AcDbCircle
 10
348.652863748
 20
138.8432608398
 30
0.0
 40
136.3958029454372
100
AcDbArc
 50
176.3435987262
 51
179.7642884695
  0
ARC
  5
110
330
75
100
AcDbEntity
  8
DV1_Default
  6
Continuous
 62
     7
100
AcDbCircle
 10
348.652863748
 20
138.8432608398
 30
0.0
 40
136.3958029454372
100
AcDbArc
 50
176.3435987262
 51
177.4240517426
  0
ARC
  5
111
330
75
100
AcDbEntity
  8
DV1_Default
  6
Continuous
 62
     7
100
AcDbCircle
 10
111.3613925498
 20
141.9200317992
 30
0.0
 40
48.05347702152178
100
AcDbArc
 50
357.0360834236
 51
6.7181404554
  0
SPLINE
  5
112
330
75
100
AcDbEntity
  8
DV1_Default
  6
Continuous
 62
     7
100
AcDbSpline
210
0.0
220
0.0
230
1.0
 70
     8
 71
     3
 72
     8
 73
     4
 74
     0
 42
0.0000000016565664
 43
0.0000000001
 40
0.0
 40
0.0
 40
0.0
 40
0.0
 40
0.0213887766064971
 40
0.0213887766064971
 40
0.0213887766064971
 40
0.0213887766064971
 10
200.4088651675025
 20
108.1218701101813
 30
0.0
 10
200.4403650805909
 20
108.1530134830583
 30
0.0
 10
200.4707661113165
 20
108.1829928961768
 30
0.0
 10
200.5007195319455
 20
108.2126086521849
 30
0.0
  0
SPLINE
  5
113
330
75
100
AcDbEntity
  8
DV1_Default
  6
Continuous
 62
     7
100
AcDbSpline
210
0.0
220
0.0
230
1.0
 70
     8
 71
     3
 72
    33
 73
    29
 74
     0
 42
0.0000000006004278
 43
0.0000000001
 40
0.0213887766064971
 40
0.0213887766064971
 40
0.0213887766064971
 40
0.0213887766064971
 40
0.0790850307685384
 40
0.1552247157990377
 40
0.2222223788514117
 40
0.2806043656440091
 40
0.3303669373463465
 40
0.3710141636359258
 40
0.4027448690459012
 40
0.4358639022414897
 40
0.470573852999824
 40
0.5082109484930029
 40
0.5488148121340238
 40
0.5882495817469092
 40
0.6300221315192381
 40
0.674124760167778
 40
0.7189274689596692
 40
0.7583242517234108
 40
0.7757809252040458
 40
0.7917380836272316
 40
0.8061910896869174
 40
0.8194163900707054
 40
0.837393330449231
 40
0.8625863338169725
 40
0.8950983735829534
 40
0.9349637249992451
 40
0.9820655764067059
 40
1.0
 40
1.0
 40
1.0
 40
1.0
 10
200.5007195319455
 20
108.2126086521849
 30
0.0
 10
200.5815189250771
 20
108.2924971945398
 30
0.0
 10
200.7613911486629
 20
108.4716735983472
 30
0.0
 10
201.1082271583857
 20
108.8460177003049
 30
0.0
 10
201.5592988253443
 20
109.2887131990858
 30
0.0
 10
202.0560626125661
 20
109.7387128477445
 30
0.0
 10
202.5317426326622
 20
110.1640546181812
 30
0.0
 10
202.945431568169
 20
110.5419548989136
 30
0.0
 10
203.3307073016241
 20
110.8901931270566
 30
0.0
 10
203.7253885993339
 20
111.2416163961261
 30
0.0
 10
204.1676656457622
 20
111.6347835208499
 30
0.0
 10
204.6624353836918
 20
112.0791181031794
 30
0.0
 10
205.1949341441634
 20
112.5673481431885
 30
0.0
 10
205.7654845590785
 20
113.1062933452212
 30
0.0
 10
206.364504818266
 20
113.6927908268903
 30
0.0
 10
206.9984161349327
 20
114.339556441501
 30
0.0
 10
207.6246603428572
 20
115.0096682269909
 30
0.0
 10
208.1126936097877
 20
115.5666176424041
 30
0.0
 10
208.4542684893792
 20
115.9794961476974
 30
0.0
 10
208.6748302868392
 20
116.2565535458147
 30
0.0
 10
208.8725118310536
 20
116.5147950872905
 30
0.0
 10
209.0745263891361
 20
116.7890661830031
 30
0.0
 10
209.3276824456781
 20
117.1505821908294
 30
0.0
 10
209.6518393935281
 20
117.6533101785042
 30
0.0
 10
210.0310166834848
 20
118.3248789774445
 30
0.0
 10
210.4147638359217
 20
119.1680277952101
 30
0.0
 10
210.6558506399973
 20
119.9441429177674
 30
0.0
 10
210.7490340038532
 20
120.4047371581388
 30
0.0
 10
210.7721516032863
 20
120.5336007589585
 30
0.0
  0
ARC
  5
114
330
75
100
AcDbEntity
  8
DV1_Default
  6
Continuous
 62
     7
100
AcDbCircle
 10
198.2763009065
 20
110.2110876821
 30
0.0
 40
2.987420012185684
100
AcDbArc
 50
284.4159663946
 51
296.4724876909
  0
ARC
  5
115
330
75
100
AcDbEntity
  8
DV1_Default
  6
Continuous
 62
     7
100
AcDbCircle
 10
198.2763009065
 20
110.2110876821
 30
0.0
 40
2.987420012185684
100
AcDbArc
 50
284.4159663946
 51
291.3735941261
  0
ARC
  5
116
330
75
100
AcDbEntity
  8
DV1_Default
  6
Continuous
 62
     7
100
AcDbCircle
 10
185.8088525816
 20
198.1113076601
 30
0.0
 40
91.76130766007223
100
AcDbArc
 50
261.7394698767
 51
278.2668085201
  0
LINE
  5
117
330
75
100
AcDbEntity
  8
DV1_Default
  6
Continuous
 62
     7
100
AcDbLine
 10
97.929504311
 20
203.8995727682
 30
0.0
 11
273.6809460099
 21
203.8995727682
 31
0.0
  0
LINE
  5
118
330
75
100
AcDbEntity
  8
DV1_Default
  6
Continuous
 62
     7
100
AcDbLine
 10
97.9248462717
 20
203.8995727682
 30
0.0
 11
97.929504311
 21
203.8995727682
 31
0.0
  0
LINE
  5
119
330
75
100
AcDbEntity
  8
DV1_Default
  6
Continuous
 62
     7
100
AcDbLine
 10
273.6809460099
 20
203.8995727682
 30
0.0
 11
273.686180991
 21
203.8995727682
 31
0.0
  0
SPLINE
  5
11A
330
75
100
AcDbEntity
  8
DV1_Default
  6
Continuous
 62
     7
100
AcDbSpline
210
0.0
220
0.0
230
1.0
 70
    12
 71
     3
 72
     8
 73
     4
 74
     0
 42
0.0000000001175675
 43
0.0000000001
 40
0.0
 40
0.0
 40
0.0
 40
0.0
 40
0.9765738945422848
 40
0.9765738945422848
 40
0.9765738945422848
 40
0.9765738945422848
 10
185.8055136313841
 20
199.1270257172517
 30
0.0
 41
1.0
 10
225.9074165647935
 20
199.1270730614614
 30
0.0
 41
0.6746626336539623
 10
266.3172969586957
 20
199.1271207692685
 30
0.0
 41
0.5080918702193883
 10
268.8704791466791
 20
199.1271465834339
 30
0.0
 41
0.5002877096962782
  0
SPLINE
  5
11B
330
75
100
AcDbEntity
  8
DV1_Default
  6
Continuous
 62
     7
100
AcDbSpline
210
0.0
220
0.0
230
1.0
 70
    12
 71
     3
 72
     8
 73
     4
 74
     0
 42
0.0000000024505735
 43
0.0000000001
 40
0.9765738945422848
 40
0.9765738945422848
 40
0.9765738945422848
 40
0.9765738945422848
 40
1.0
 40
1.0
 40
1.0
 40
1.0
 10
268.8704791466791
 20
199.1271465834339
 30
0.0
 41
0.5002877096962782
 10
268.9327036937165
 20
199.1271472125605
 30
0.0
 41
0.5001005030870855
 10
268.9645801292236
 20
199.1271478150323
 30
0.0
 41
0.5000046550112828
 10
268.9660735272572
 20
199.1271483908189
 30
0.0
 41
0.5000001654688698
  0
SPLINE
  5
11C
330
75
100
AcDbEntity
  8
DV1_Default
  6
Continuous
 62
     7
100
AcDbSpline
210
0.0
220
0.0
230
1.0
 70
     8
 71
     3
 72
    14
 73
    10
 74
     0
 42
0.0000000001199687
 43
0.0000000001
 40
0.0
 40
0.0
 40
0.0
 40
0.0
 40
0.2499992445484948
 40
0.2499992445484948
 40
0.4999984890969894
 40
0.4999984890969894
 40
0.7499977336454839
 40
0.7499977336454839
 40
0.9976668694493034
 40
0.9976668694493034
 40
0.9976668694493034
 40
0.9976668694493034
 10
185.8055136313841
 20
199.1270257172517
 30
0.0
 10
174.9197446362837
 20
199.1270253999982
 30
0.0
 10
164.0382587264385
 20
199.1270253999982
 30
0.0
 10
143.9239803859997
 20
199.1270253999982
 30
0.0
 10
134.699102065013
 20
199.1270253999982
 30
0.0
 10
119.3042999152812
 20
199.1270253999982
 30
0.0
 10
113.140433283793
 20
199.1270253999982
 30
0.0
 10
104.8476536152885
 20
199.1270253999982
 30
0.0
 10
102.6848857123723
 20
199.1270253999982
 30
0.0
 10
102.6449282300076
 20
199.1270253999982
 30
0.0
  0
SPLINE
  5
11D
330
75
100
AcDbEntity
  8
DV1_Default
  6
Continuous
 62
     7
100
AcDbSpline
210
0.0
220
0.0
230
1.0
 70
    24
 71
     3
 72
    10
 73
     6
 74
     0
 42
0.0000000233313055
 43
0.0000000001
 40
0.9976668694493034
 40
0.9976668694493034
 40
0.9976668694493034
 40
0.9976668694493034
 40
0.9999969781939786
 40
0.9999969781939786
 40
1.0
 40
1.0
 40
1.0
 40
1.0
 10
102.6449282300076
 20
199.1270253999982
 30
0.0
 10
102.6445523039611
 20
199.1270253999982
 30
0.0
 10
102.6443642749001
 20
199.1270253999982
 30
0.0
 10
102.6443642749001
 20
199.1270253999982
 30
0.0
 10
102.6443642752163
 20
199.1270253999982
 30
0.0
 10
102.6443642758488
 20
199.1270253999982
 30
0.0
  0
LINE
  5
11E
330
75
100
AcDbEntity
  8
DV1_Default
  6
Continuous
 62
     7
100
AcDbLine
 10
185.8055136314
 20
188.8622908967
 30
0.0
 11
214.6445130295
 21
188.8622908967
 31
0.0
  0
ARC
  5
11F
330
75
100
AcDbEntity
  8
DV1_Default
  6
Continuous
 62
     7
100
AcDbCircle
 10
17.757422964
 20
1782.3448704852
 30
0.0
 40
1605.741704172667
100
AcDbArc
 50
277.2266775645
 51
277.2990427347
  0
ARC
  5
120
330
75
100
AcDbEntity
  8
DV1_Default
  6
Continuous
 62
     7
100
AcDbCircle
 10
-185.6558765046
 20
3544.5982451339
 30
0.0
 40
3379.630462114321
100
AcDbArc
 50
276.9239341234
 51
277.0891560774
  0
LINE
  5
121
330
75
100
AcDbEntity
  8
DV1_Default
  6
Continuous
 62
     7
100
AcDbLine
 10
219.367980743
 20
189.3123053352
 30
0.0
 11
219.7519572621
 21
189.3587975288
 31
0.0
  0
LINE
  5
122
330
75
100
AcDbEntity
  8
DV1_Default
  6
Continuous
 62
     7
100
AcDbLine
 10
185.8055136314
 20
188.8622909112
 30
0.0
 11
156.9665140669
 21
188.8622908967
 31
0.0
  0
ARC
  5
123
330
75
100
AcDbEntity
  8
DV1_Default
  6
Continuous
 62
     7
100
AcDbCircle
 10
553.5105311349
 20
3514.0342842782
 30
0.0
 40
3348.836565884765
100
AcDbArc
 50
262.9100851782
 51
263.0768262993
  0
ARC
  5
124
330
75
100
AcDbEntity
  8
DV1_Default
  6
Continuous
 62
     7
100
AcDbCircle
 10
403.1016836651
 20
2168.9948962309
 30
0.0
 40
1995.515427328901
100
AcDbArc
 50
262.7088280404
 51
262.7672020625
  0
LINE
  5
125
330
75
100
AcDbEntity
  8
DV1_Default
  6
Continuous
 62
     7
100
AcDbLine
 10
152.2769695819
 20
189.3081975681
 30
0.0
 11
151.8640340386
 21
189.3581961978
 31
0.0
  0
LINE
  5
126
330
75
100
AcDbEntity
  8
DV1_Default
  6
Continuous
 62
     7
100
AcDbLine
 10
185.8055136314
 20
206.6494748441
 30
0.0
 11
94.8055063738
 21
206.6494748441
 31
0.0
  0
LINE
  5
127
330
75
100
AcDbEntity
  8
DV1_Default
  6
Continuous
 62
     7
100
AcDbLine
 10
276.8044876288
 20
206.6494748441
 30
0.0
 11
253.7314579362
 21
206.6494748441
 31
0.0
  0
LINE
  5
128
330
75
100
AcDbEntity
  8
DV1_Default
  6
Continuous
 62
     7
100
AcDbLine
 10
276.805520889
 20
206.6494748441
 30
0.0
 11
276.8044876288
 21
206.6494748441
 31
0.0
  0
LINE
  5
129
330
75
100
AcDbEntity
  8
DV1_Default
  6
Continuous
 62
     7
100
AcDbLine
 10
253.7314579362
 20
206.6494748441
 30
0.0
 11
185.8055136314
 21
206.6494748441
 31
0.0
  0
ARC
  5
12A
330
75
100
AcDbEntity
  8
DV1_Default
  6
Continuous
 62
     7
100
AcDbCircle
 10
528.7210166156
 20
3293.8322409878
 30
0.0
 40
3127.264024685366
100
AcDbArc
 50
263.0774524056
 51
263.0786402374
  0
ARC
  5
12B
330
75
100
AcDbEntity
  8
DV1_Default
  6
Continuous
 62
     7
100
AcDbCircle
 10
528.7210166156
 20
3293.8322409878
 30
0.0
 40
3127.264024685366
100
AcDbArc
 50
263.0785946089
 51
263.0786402374
  0
ARC
  5
12C
330
75
100
AcDbEntity
  8
DV1_Default
  6
Continuous
 62
     7
100
AcDbCircle
 10
528.7210166156
 20
3293.8322409878
 30
0.0
 40
3127.264024685366
100
AcDbArc
 50
262.870487927
 51
262.8728963103
  0
ARC
  5
12D
330
75
100
AcDbEntity
  8
DV1_Default
  6
Continuous
 62
     7
100
AcDbCircle
 10
-156.7673856858
 20
3291.0682677685
 30
0.0
 40
3124.478909096456
100
AcDbArc
 50
276.9213225611
 51
276.9233675968
  0
SPLINE
  5
12E
330
75
100
AcDbEntity
  8
DV1_Default
  6
Continuous
 62
     7
100
AcDbSpline
210
0.0
220
0.0
230
1.0
 70
     8
 71
     3
 72
     8
 73
     4
 74
     0
 42
0.0000000348067425
 43
0.0000000001
 40
0.0
 40
0.0
 40
0.0
 40
0.0
 40
1.0
 40
1.0
 40
1.0
 40
1.0
 10
273.6863543759584
 20
203.8996452622661
 30
0.0
 10
273.7831264381451
 20
203.9419098810876
 30
0.0
 10
273.87314079017
 20
203.9740538918411
 30
0.0
 10
273.9563974320331
 20
203.9960772945267
 30
0.0
  0
SPLINE
  5
12F
330
75
100
AcDbEntity
  8
DV1_Default
  6
Continuous
 62
     7
100
AcDbSpline
210
0.0
220
0.0
230
1.0
 70
     8
 71
     3
 72
     8
 73
     4
 74
     0
 42
0.0000000531306938
 43
0.0000000001
 40
0.0
 40
0.0
 40
0.0
 40
0.0
 40
1.0
 40
1.0
 40
1.0
 40
1.0
 10
97.74999025209348
 20
203.9689264305632
 30
0.0
 10
97.81030816271456
 20
203.9496320824627
 30
0.0
 10
97.86853570761998
 20
203.926538359697
 30
0.0
 10
97.92467288680974
 20
203.8996452622661
 30
0.0
  0
SPLINE
  5
130
330
75
100
AcDbEntity
  8
DV1_Default
  6
Continuous
 62
     7
100
AcDbSpline
210
0.0
220
0.0
230
1.0
 70
     8
 71
     3
 72
    12
 73
     8
 74
     0
 42
0.0000000014316279
 43
0.0000000001
 40
0.0
 40
0.0
 40
0.0
 40
0.0
 40
0.1760252484921191
 40
0.3592324716068029
 40
0.5421206973537555
 40
0.7640040829692197
 40
1.0
 40
1.0
 40
1.0
 40
1.0
 10
268.9777763352232
 20
199.1502716168592
 30
0.0
 10
269.1418483183436
 20
199.5590945428804
 30
0.0
 10
269.444153525402
 20
200.2752597545924
 30
0.0
 10
270.1568302079191
 20
201.3519680918401
 30
0.0
 10
271.082557050383
 20
202.3442126514113
 30
0.0
 10
272.3071735446753
 20
203.259408241691
 30
0.0
 10
273.2014176696636
 20
203.6786955121449
 30
0.0
 10
273.7506627154341
 20
203.9263040675256
 30
0.0
  0
SPLINE
  5
131
330
75
100
AcDbEntity
  8
DV1_Default
  6
Continuous
 62
     7
100
AcDbSpline
210
0.0
220
0.0
230
1.0
 70
     8
 71
     3
 72
     8
 73
     4
 74
     0
 42
0.0000000013457306
 43
0.0000000001
 40
0.0
 40
0.0
 40
0.0
 40
0.0
 40
0.0322503873493603
 40
0.0322503873493603
 40
0.0322503873493603
 40
0.0322503873493603
 10
97.96825116451787
 20
203.873346420599
 30
0.0
 10
98.04305305072259
 20
203.8398979344009
 30
0.0
 10
98.11577571156852
 20
203.8072266942293
 30
0.0
 10
98.18678331235338
 20
203.7749831865353
 30
0.0
  0
SPLINE
  5
132
330
75
100
AcDbEntity
  8
DV1_Default
  6
Continuous
 62
     7
100
AcDbSpline
210
0.0
220
0.0
230
1.0
 70
     8
 71
     3
 72
     9
 73
     5
 74
     0
 42
0.0000000014566933
 43
0.0000000001
 40
0.0322503873493603
 40
0.0322503873493603
 40
0.0322503873493603
 40
0.0322503873493603
 40
0.1850006025155126
 40
0.3015898627670385
 40
0.3015898627670385
 40
0.3015898627670385
 40
0.3015898627670385
 10
98.18678331235338
 20
203.7749831865353
 30
0.0
 10
98.52310256895092
 20
203.6222655560581
 30
0.0
 10
99.04828249797457
 20
203.369902906544
 30
0.0
 10
99.57414362454513
 20
203.0319111037007
 30
0.0
 10
99.7954767723025
 20
202.874106921248
 30
0.0
  0
SPLINE
  5
133
330
75
100
AcDbEntity
  8
DV1_Default
  6
Continuous
 62
     7
100
AcDbSpline
210
0.0
220
0.0
230
1.0
 70
     8
 71
     3
 72
    11
 73
     7
 74
     0
 42
0.000000001435127
 43
0.0000000001
 40
0.3015898627670385
 40
0.3015898627670385
 40
0.3015898627670385
 40
0.3015898627670385
 40
0.3763693585738131
 40
0.561258288581455
 40
0.7775229349461094
 40
1.0
 40
1.0
 40
1.0
 40
1.0
 10
99.7954767723025
 20
202.874106921248
 30
0.0
 10
99.93743822877727
 20
202.7728924768424
 30
0.0
 10
100.4213977597544
 20
202.4050058024075
 30
0.0
 10
101.2137086039108
 20
201.652713238134
 30
0.0
 10
102.0875216923528
 20
200.4545709749855
 30
0.0
 10
102.4556120237247
 20
199.5858116544939
 30
0.0
 10
102.6685060749041
 20
199.0621799519407
 30
0.0
  0
ARC
  5
134
330
75
100
AcDbEntity
  8
DV1_Default
  6
Continuous
 62
     7
100
AcDbCircle
 10
103.5838261046
 20
199.4727617239
 30
0.0
 40
1.001060505268003
100
AcDbArc
 50
202.6567772703
 51
252.4454933073
  0
ARC
  5
135
330
75
100
AcDbEntity
  8
DV1_Default
  6
Continuous
 62
     7
100
AcDbCircle
 10
268.0272011581
 20
199.4727617239
 30
0.0
 40
1.001060505268001
100
AcDbArc
 50
290.5940340192
 51
336.6738043487
  0
ARC
  5
136
330
75
100
AcDbEntity
  8
DV1_Default
  6
Continuous
 62
     7
100
AcDbCircle
 10
188.5862916541
 20
487.8195545773
 30
0.0
 40
300.0907802793607
100
AcDbArc
 50
278.2094805817
 51
285.4030901177
  0
ARC
  5
137
330
75
100
AcDbEntity
  8
DV1_Default
  6
Continuous
 62
     7
100
AcDbCircle
 10
188.5862916541
 20
487.8195545773
 30
0.0
 40
300.0907802793607
100
AcDbArc
 50
278.2094805817
 51
281.3274651497
  0
ARC
  5
138
330
75
100
AcDbEntity
  8
DV1_Default
  6
Continuous
 62
     7
100
AcDbCircle
 10
188.5862916541
 20
487.8195545773
 30
0.0
 40
300.0907802793607
100
AcDbArc
 50
284.7932246977
 51
285.4030901177
  0
ARC
  5
139
330
75
100
AcDbEntity
  8
DV1_Default
  6
Continuous
 62
     7
100
AcDbCircle
 10
188.5862916541
 20
487.8195545773
 30
0.0
 40
300.0907802793578
100
AcDbArc
 50
274.9815218982
 51
275.8809499706
  0
ARC
  5
13A
330
75
100
AcDbEntity
  8
DV1_Default
  6
Continuous
 62
     7
100
AcDbCircle
 10
183.0247356087
 20
487.8195545772
 30
0.0
 40
300.0907802792812
100
AcDbArc
 50
264.1190585277
 51
265.0184781018
  0
ARC
  5
13B
330
75
100
AcDbEntity
  8
DV1_Default
  6
Continuous
 62
     7
100
AcDbCircle
 10
183.0247356087
 20
487.8195545772
 30
0.0
 40
300.0907802792811
100
AcDbArc
 50
254.5969125182
 51
261.7906398056
  0
SPLINE
  5
13C
330
75
100
AcDbEntity
  8
DV1_Default
  6
Continuous
 62
     7
100
AcDbSpline
210
0.0
220
0.0
230
1.0
 70
     8
 71
     3
 72
     8
 73
     4
 74
     0
 42
0.0000000024930719
 43
0.0000000001
 40
0.9140925073205746
 40
0.9140925073205746
 40
0.9140925073205746
 40
0.9140925073205746
 40
1.0
 40
1.0
 40
1.0
 40
1.0
 10
97.13691548569868
 20
204.1045846680847
 30
0.0
 10
97.24383372684305
 20
204.078108646855
 30
0.0
 10
97.35515797760762
 20
204.0537839496373
 30
0.0
 10
97.47308019079065
 20
204.0290583318184
 30
0.0
  0
SPLINE
  5
13D
330
75
100
AcDbEntity
  8
DV1_Default
  6
Continuous
 62
     7
100
AcDbSpline
210
0.0
220
0.0
230
1.0
 70
     8
 71
     3
 72
    11
 73
     7
 74
     0
 42
0.0000000025995129
 43
0.0000000001
 40
0.0
 40
0.0
 40
0.0
 40
0.0
 40
0.2709053827731968
 40
0.5485803888941496
 40
0.7653261104621603
 40
0.9140925073205746
 40
0.9140925073205746
 40
0.9140925073205746
 40
0.9140925073205746
 10
94.85360988457816
 20
206.4805861878173
 30
0.0
 10
94.95595281647526
 20
206.1291647348393
 30
0.0
 10
95.17231704395945
 20
205.50606417457
 30
0.0
 10
95.80538946395143
 20
204.7143705147273
 30
0.0
 10
96.5293208600059
 20
204.2789320773954
 30
0.0
 10
96.95176467990294
 20
204.1504333147932
 30
0.0
 10
97.13691548569868
 20
204.1045846680847
 30
0.0
  0
SPLINE
  5
13E
330
75
100
AcDbEntity
  8
DV1_Default
  6
Continuous
 62
     7
100
AcDbSpline
210
0.0
220
0.0
230
1.0
 70
     8
 71
     3
 72
    11
 73
     7
 74
     0
 42
0.0000000025170376
 43
0.0000000001
 40
0.0
 40
0.0
 40
0.0
 40
0.0
 40
0.2886603554360119
 40
0.5564233641071233
 40
0.7769581069588888
 40
1.0
 40
1.0
 40
1.0
 40
1.0
 10
274.1379470719777
 20
204.0290583318179
 30
0.0
 10
274.5431804112824
 20
204.1192956399778
 30
0.0
 10
275.2098196502309
 20
204.2896383771636
 30
0.0
 10
276.0395857337675
 20
204.9481988540863
 30
0.0
 10
276.543014227793
 20
205.7592852618473
 30
0.0
 10
276.7039980079348
 20
206.2786377284054
 30
0.0
 10
276.7857357698752
 20
206.5797506427876
 30
0.0
  0
LINE
  5
13F
330
75
100
AcDbEntity
  8
DV1_Default
  6
Continuous
 62
     7
100
AcDbLine
 10
159.4555136314
 20
148.8622908967
 30
0.0
 11
212.1555136314
 21
148.8622908967
 31
0.0
  0
LINE
  5
140
330
75
100
AcDbEntity
  8
DV1_Default
  6
Continuous
 62
     7
100
AcDbLine
 10
158.4555136314
 20
188.8622908967
 30
0.0
 11
158.4555136314
 21
149.8622908967
 31
0.0
  0
LINE
  5
141
330
75
100
AcDbEntity
  8
DV1_Default
  6
Continuous
 62
     7
100
AcDbLine
 10
213.1555136314
 20
149.8622908967
 30
0.0
 11
213.1555136314
 21
188.8622908967
 31
0.0
  0
ARC
  5
142
330
75
100
AcDbEntity
  8
DV1_Default
  6
Continuous
 62
     7
100
AcDbCircle
 10
159.4555136314
 20
149.8622908967
 30
0.0
 40
1.000000000000001
100
AcDbArc
 50
180.0
 51
270.0
  0
ARC
  5
143
330
75
100
AcDbEntity
  8
DV1_Default
  6
Continuous
 62
     7
100
AcDbCircle
 10
212.1555136314
 20
149.8622908967
 30
0.0
 40
0.999999999999994
100
AcDbArc
 50
270.0
 51
0.0
  0
ARC
  5
144
330
75
100
AcDbEntity
  8
DV1_Default
  6
Continuous
 62
     7
100
AcDbCircle
 10
160.1062918533
 20
148.0622908967
 30
0.0
 40
0.800000000000002
100
AcDbArc
 50
18.5023271362
 51
90.0
  0
ARC
  5
145
330
75
100
AcDbEntity
  8
DV1_Default
  6
Continuous
 62
     7
100
AcDbCircle
 10
211.5047354095
 20
148.0622908967
 30
0.0
 40
0.8000000000027877
100
AcDbArc
 50
90.0
 51
161.4976728638
  0
ARC
  5
146
330
75
100
AcDbEntity
  8
DV1_Default
  6
Continuous
 62
     7
100
AcDbCircle
 10
185.8055136314
 20
156.6622908967
 30
0.0
 40
26.29999999999962
100
AcDbArc
 50
340.4198225639
 51
341.4976728641
  0
ARC
  5
147
330
75
100
AcDbEntity
  8
DV1_Default
  6
Continuous
 62
     7
100
AcDbCircle
 10
185.8055136314
 20
156.6622908967
 30
0.0
 40
26.29999999999692
100
AcDbArc
 50
198.5023271359
 51
199.5570974553
  0
ENDBLK
  5
149
330
75
100
AcDbEntity
  8
0
100
AcDbBlockEnd
  0
BLOCK
  5
1D8
330
14A
100
AcDbEntity
  8
0
100
AcDbBlockBegin
  2
SE1
 70
     0
 10
0.0
 20
0.0
 30
0.0
  3
SE1
  1

  0
LINE
  5
14D
330
14A
100
AcDbEntity
  8
DV2_Default
  6
Continuous
 62
     7
100
AcDbLine
 10
145.3055136314
 20
414.4423772046
 30
0.0
 11
146.3055136314
 21
414.4423772046
 31
0.0
  0
LINE
  5
14E
330
14A
100
AcDbEntity
  8
DV2_Default
  6
Continuous
 62
     7
100
AcDbLine
 10
145.3055136314
 20
412.9523231547
 30
0.0
 11
145.3055136314
 21
414.4423772046
 31
0.0
  0
ARC
  5
14F
330
14A
100
AcDbEntity
  8
DV2_Default
  6
Continuous
 62
     7
100
AcDbCircle
 10
144.7107364609
 20
412.9539439148
 30
0.0
 40
0.5947793787808475
100
AcDbArc
 50
270.1561298696
 51
359.8438701304
  0
LINE
  5
150
330
14A
100
AcDbEntity
  8
DV2_Default
  6
Continuous
 62
     7
100
AcDbLine
 10
143.2223031711
 20
412.3591667443
 30
0.0
 11
144.712357221
 21
412.3591667443
 31
0.0
  0
LINE
  5
151
330
14A
100
AcDbEntity
  8
DV2_Default
  6
Continuous
 62
     7
100
AcDbLine
 10
143.2168447485
 20
411.8591667443
 30
0.0
 11
143.2223031711
 21
412.3591667443
 31
0.0
  0
LINE
  5
152
330
14A
100
AcDbEntity
  8
DV2_Default
  6
Continuous
 62
     7
100
AcDbLine
 10
146.8986700418
 20
412.3591667443
 30
0.0
 11
148.3887240917
 21
412.3591667443
 31
0.0
  0
ARC
  5
153
330
14A
100
AcDbEntity
  8
DV2_Default
  6
Continuous
 62
     7
100
AcDbCircle
 10
146.9011015354
 20
412.9547546484
 30
0.0
 40
0.5955928673420535
100
AcDbArc
 50
180.2339092987
 51
269.7660907013
  0
LINE
  5
154
330
14A
100
AcDbEntity
  8
DV2_Default
  6
Continuous
 62
     7
100
AcDbLine
 10
146.3055136314
 20
414.4423772046
 30
0.0
 11
146.3055136314
 21
412.9523231547
 31
0.0
  0
LINE
  5
155
330
14A
100
AcDbEntity
  8
DV2_Default
  6
Continuous
 62
     7
100
AcDbLine
 10
144.712357221
 20
411.3591667443
 30
0.0
 11
143.2223031711
 21
411.3591667443
 31
0.0
  0
ARC
  5
156
330
14A
100
AcDbEntity
  8
DV2_Default
  6
Continuous
 62
     7
100
AcDbCircle
 10
144.7099257273
 20
410.7635788402
 30
0.0
 40
0.5955928673424048
100
AcDbArc
 50
0.2339092987
 51
89.7660907013
  0
LINE
  5
157
330
14A
100
AcDbEntity
  8
DV2_Default
  6
Continuous
 62
     7
100
AcDbLine
 10
145.3055136314
 20
409.275956284
 30
0.0
 11
145.3055136314
 21
410.7660103339
 31
0.0
  0
LINE
  5
158
330
14A
100
AcDbEntity
  8
DV2_Default
  6
Continuous
 62
     7
100
AcDbLine
 10
146.3055136314
 20
409.275956284
 30
0.0
 11
145.3055136314
 21
409.275956284
 31
0.0
  0
LINE
  5
159
330
14A
100
AcDbEntity
  8
DV2_Default
  6
Continuous
 62
     7
100
AcDbLine
 10
146.3055136314
 20
410.7660103339
 30
0.0
 11
146.3055136314
 21
409.275956284
 31
0.0
  0
ARC
  5
15A
330
14A
100
AcDbEntity
  8
DV2_Default
  6
Continuous
 62
     7
100
AcDbCircle
 10
146.9002908019
 20
410.7643895738
 30
0.0
 40
0.5947793787809584
100
AcDbArc
 50
90.1561298697
 51
179.8438701303
  0
LINE
  5
15B
330
14A
100
AcDbEntity
  8
DV2_Default
  6
Continuous
 62
     7
100
AcDbLine
 10
148.3887240917
 20
411.3591667443
 30
0.0
 11
146.8986700418
 21
411.3591667443
 31
0.0
  0
LINE
  5
15C
330
14A
100
AcDbEntity
  8
DV2_Default
  6
Continuous
 62
     7
100
AcDbLine
 10
226.3055136314
 20
409.275956284
 30
0.0
 11
225.3055136314
 21
409.275956284
 31
0.0
  0
LINE
  5
15D
330
14A
100
AcDbEntity
  8
DV2_Default
  6
Continuous
 62
     7
100
AcDbLine
 10
226.3055136314
 20
410.7660103339
 30
0.0
 11
226.3055136314
 21
409.275956284
 31
0.0
  0
ARC
  5
15E
330
14A
100
AcDbEntity
  8
DV2_Default
  6
Continuous
 62
     7
100
AcDbCircle
 10
226.9002908019
 20
410.7643895738
 30
0.0
 40
0.5947793787808475
100
AcDbArc
 50
90.1561298696
 51
179.8438701304
  0
LINE
  5
15F
330
14A
100
AcDbEntity
  8
DV2_Default
  6
Continuous
 62
     7
100
AcDbLine
 10
228.3887240917
 20
411.3591667443
 30
0.0
 11
226.8986700418
 21
411.3591667443
 31
0.0
  0
LINE
  5
160
330
14A
100
AcDbEntity
  8
DV2_Default
  6
Continuous
 62
     7
100
AcDbLine
 10
228.3941825142
 20
411.8591667443
 30
0.0
 11
228.3887240917
 21
411.3591667443
 31
0.0
  0
LINE
  5
161
330
14A
100
AcDbEntity
  8
DV2_Default
  6
Continuous
 62
     7
100
AcDbLine
 10
224.712357221
 20
411.3591667443
 30
0.0
 11
223.2223031711
 21
411.3591667443
 31
0.0
  0
ARC
  5
162
330
14A
100
AcDbEntity
  8
DV2_Default
  6
Continuous
 62
     7
100
AcDbCircle
 10
224.7099257273
 20
410.7635788402
 30
0.0
 40
0.5955928673420535
100
AcDbArc
 50
0.2339092987
 51
89.7660907013
  0
LINE
  5
163
330
14A
100
AcDbEntity
  8
DV2_Default
  6
Continuous
 62
     7
100
AcDbLine
 10
225.3055136314
 20
409.275956284
 30
0.0
 11
225.3055136314
 21
410.7660103339
 31
0.0
  0
LINE
  5
164
330
14A
100
AcDbEntity
  8
DV2_Default
  6
Continuous
 62
     7
100
AcDbLine
 10
226.8986700418
 20
412.3591667443
 30
0.0
 11
228.3887240917
 21
412.3591667443
 31
0.0
  0
ARC
  5
165
330
14A
100
AcDbEntity
  8
DV2_Default
  6
Continuous
 62
     7
100
AcDbCircle
 10
226.9011015354
 20
412.9547546484
 30
0.0
 40
0.5955928673424048
100
AcDbArc
 50
180.2339092987
 51
269.7660907013
  0
LINE
  5
166
330
14A
100
AcDbEntity
  8
DV2_Default
  6
Continuous
 62
     7
100
AcDbLine
 10
226.3055136314
 20
414.4423772046
 30
0.0
 11
226.3055136314
 21
412.9523231547
 31
0.0
  0
LINE
  5
167
330
14A
100
AcDbEntity
  8
DV2_Default
  6
Continuous
 62
     7
100
AcDbLine
 10
225.3055136314
 20
414.4423772046
 30
0.0
 11
226.3055136314
 21
414.4423772046
 31
0.0
  0
LINE
  5
168
330
14A
100
AcDbEntity
  8
DV2_Default
  6
Continuous
 62
     7
100
AcDbLine
 10
225.3055136314
 20
412.9523231547
 30
0.0
 11
225.3055136314
 21
414.4423772046
 31
0.0
  0
ARC
  5
169
330
14A
100
AcDbEntity
  8
DV2_Default
  6
Continuous
 62
     7
100
AcDbCircle
 10
224.7107364609
 20
412.9539439148
 30
0.0
 40
0.5947793787809584
100
AcDbArc
 50
270.1561298697
 51
359.8438701303
  0
LINE
  5
16A
330
14A
100
AcDbEntity
  8
DV2_Default
  6
Continuous
 62
     7
100
AcDbLine
 10
223.2223031711
 20
412.3591667443
 30
0.0
 11
224.712357221
 21
412.3591667443
 31
0.0
  0
ARC
  5
16B
330
14A
100
AcDbEntity
  8
DV2_Default
  6
Continuous
 62
     7
100
AcDbCircle
 10
146.4127008382
 20
411.8658539002
 30
0.0
 40
5.595040983028014
100
AcDbArc
 50
279.6644403746
 51
100.4862267394
  0
ARC
  5
16C
330
14A
100
AcDbEntity
  8
DV2_Default
  6
Continuous
 62
     7
100
AcDbCircle
 10
146.337967851
 20
411.8525751193
 30
0.0
 40
5.595011511879027
100
AcDbArc
 50
99.7089319475
 51
280.4417351665
  0
ARC
  5
16D
330
14A
100
AcDbEntity
  8
DV2_Default
  6
Continuous
 62
     7
100
AcDbCircle
 10
146.4567092458
 20
411.8581661483
 30
0.0
 40
4.869387378252141
100
AcDbArc
 50
100.6523934472
 51
262.3923502033
  0
ARC
  5
16E
330
14A
100
AcDbEntity
  8
DV2_Default
  6
Continuous
 62
     7
100
AcDbCircle
 10
146.4954447489
 20
411.946253285
 30
0.0
 40
4.961899318421332
100
AcDbArc
 50
262.0836610977
 51
278.9304474267
  0
ARC
  5
16F
330
14A
100
AcDbEntity
  8
DV2_Default
  6
Continuous
 62
     7
100
AcDbCircle
 10
146.5248230082
 20
411.863272388
 30
0.0
 40
4.875390529025883
100
AcDbArc
 50
278.7407626951
 51
98.4841643105
  0
ARC
  5
170
330
14A
100
AcDbEntity
  8
DV2_Default
  6
Continuous
 62
     7
100
AcDbCircle
 10
185.8147490229
 20
411.8589960084
 30
0.0
 40
83.16071308424333
100
AcDbArc
 50
90.0063088163
 51
260.3656935666
  0
ARC
  5
171
330
14A
100
AcDbEntity
  8
DV2_Default
  6
Continuous
 62
     7
100
AcDbCircle
 10
225.197288087
 20
411.8540033448
 30
0.0
 40
5.594515213616265
100
AcDbArc
 50
97.2189429641
 51
278.0071438811
  0
ARC
  5
172
330
14A
100
AcDbEntity
  8
DV2_Default
  6
Continuous
 62
     7
100
AcDbCircle
 10
225.2760183126
 20
411.8645264423
 30
0.0
 40
5.594532740222451
100
AcDbArc
 50
277.1936585485
 51
98.0324282967
  0
ARC
  5
173
330
14A
100
AcDbEntity
  8
DV2_Default
  6
Continuous
 62
     7
100
AcDbCircle
 10
185.7940608168
 20
411.8589960435
 30
0.0
 40
83.16071334446742
100
AcDbArc
 50
279.6304296725
 51
89.9920551279
  0
ARC
  5
174
330
14A
100
AcDbEntity
  8
DV2_Default
  6
Continuous
 62
     7
100
AcDbCircle
 10
225.080675501
 20
411.854753717
 30
0.0
 40
4.875945801804388
100
AcDbArc
 50
96.2273279752
 51
278.5490406284
  0
ARC
  5
175
330
14A
100
AcDbEntity
  8
DV2_Default
  6
Continuous
 62
     7
100
AcDbCircle
 10
225.1492198129
 20
411.8593143718
 30
0.0
 40
4.870534616108608
100
AcDbArc
 50
278.2248349723
 51
82.2566110756
  0
LINE
  5
176
330
14A
100
AcDbEntity
  8
DV2_Default
  6
Continuous
 62
     7
100
AcDbLine
 10
224.5517645123
 20
416.7019282164
 30
0.0
 11
225.8054590919
 21
416.6853862336
 31
0.0
  0
SPLINE
  5
177
330
14A
100
AcDbEntity
  8
DV2_Default
  6
Continuous
 62
     7
100
AcDbSpline
210
0.0
220
0.0
230
1.0
 70
     8
 71
     3
 72
    18
 73
    14
 74
     0
 42
0.0000000001574906
 43
0.0000000001
 40
0.0
 40
0.0
 40
0.0
 40
0.0
 40
0.1366746083813014
 40
0.1366746083813014
 40
0.3093396867050412
 40
0.3093396867050412
 40
0.4820047650287809
 40
0.4820047650287809
 40
0.6546698433525205
 40
0.6546698433525205
 40
0.8273349216762602
 40
0.8273349216762602
 40
1.0
 40
1.0
 40
1.0
 40
1.0
 10
164.6452361812738
 20
393.9074564775759
 30
0.0
 10
162.7862768292742
 20
396.1008258171117
 30
0.0
 10
161.268190792883
 20
398.5832597746951
 30
0.0
 10
158.7777718538383
 20
404.5956629533274
 30
0.0
 10
158.0555136313841
 20
408.2267002385842
 30
0.0
 10
158.0555136313841
 20
415.4916332500106
 30
0.0
 10
158.7777718538384
 20
419.1226705352674
 30
0.0
 10
161.5579413545535
 20
425.8345934495899
 30
0.0
 10
163.6147587548347
 20
428.9128382236013
 30
0.0
 10
168.7518421520803
 20
434.0499216208469
 30
0.0
 10
171.8300869260918
 20
436.106739021128
 30
0.0
 10
178.5420098404142
 20
438.8869085218431
 30
0.0
 10
182.1730471256711
 20
439.6091667442973
 30
0.0
 10
185.8055136313841
 20
439.6091667442973
 30
0.0
  0
SPLINE
  5
178
330
14A
100
AcDbEntity
  8
DV2_Default
  6
Continuous
 62
     7
100
AcDbSpline
210
0.0
220
0.0
230
1.0
 70
     8
 71
     3
 72
    18
 73
    14
 74
     0
 42
0.000000000158188
 43
0.0000000001
 40
0.0
 40
0.0
 40
0.0
 40
0.0
 40
0.1734254252842073
 40
0.1734254252842073
 40
0.3468508505684147
 40
0.3468508505684147
 40
0.520276275852622
 40
0.520276275852622
 40
0.6937017011368294
 40
0.6937017011368294
 40
0.8671271264210367
 40
0.8671271264210367
 40
1.0
 40
1.0
 40
1.0
 40
1.0
 10
185.8055136313841
 20
439.6091667442973
 30
0.0
 10
189.4379801370973
 20
439.6091667442973
 30
0.0
 10
193.0690174223542
 20
438.8869085218431
 30
0.0
 10
199.7809403366766
 20
436.106739021128
 30
0.0
 10
202.859185110688
 20
434.0499216208468
 30
0.0
 10
207.9962685079336
 20
428.9128382236012
 30
0.0
 10
210.0530859082148
 20
425.8345934495898
 30
0.0
 10
212.8332554089299
 20
419.1226705352673
 30
0.0
 10
213.5555136313841
 20
415.4916332500105
 30
0.0
 10
213.5555136313841
 20
408.2267002385841
 30
0.0
 10
212.8332554089299
 20
404.5956629533273
 30
0.0
 10
210.3781333089703
 20
398.6684738823229
 30
0.0
 10
208.9217157677923
 20
396.2602693462716
 30
0.0
 10
207.1436329618022
 20
394.1194236491507
 30
0.0
  0
ARC
  5
179
330
14A
100
AcDbEntity
  8
DV2_Default
  6
Continuous
 62
     7
100
AcDbCircle
 10
185.6546635949
 20
411.708128199
 30
0.0
 40
91.15214258666404
100
AcDbArc
 50
0.0949394295
 51
89.9051303629
  0
ARC
  5
17A
330
14A
100
AcDbEntity
  8
DV2_Default
  6
Continuous
 62
     7
100
AcDbCircle
 10
185.8056254467
 20
411.8591233982
 30
0.0
 40
87.88079706533553
100
AcDbArc
 50
90.0000729004
 51
260.9858607247
  0
ARC
  5
17B
330
14A
100
AcDbEntity
  8
DV2_Default
  6
Continuous
 62
     7
100
AcDbCircle
 10
185.8054018161
 20
411.8591233982
 30
0.0
 40
87.88079706533553
100
AcDbArc
 50
279.0083355505
 51
89.9999270996
  0
ARC
  5
17C
330
14A
100
AcDbEntity
  8
DV2_Default
  6
Continuous
 62
     7
100
AcDbCircle
 10
185.8054018161
 20
411.8591233982
 30
0.0
 40
87.88079706533553
100
AcDbArc
 50
279.0083355505
 51
279.0105040365
  0
ARC
  5
17D
330
14A
100
AcDbEntity
  8
DV2_Default
  6
Continuous
 62
     7
100
AcDbCircle
 10
185.8054018161
 20
411.8591233982
 30
0.0
 40
87.88079706533553
100
AcDbArc
 50
19.8760287509
 51
89.9999270996
  0
ARC
  5
17E
330
14A
100
AcDbEntity
  8
DV2_Default
  6
Continuous
 62
     7
100
AcDbCircle
 10
185.8055468598
 20
411.8592037418
 30
0.0
 40
91.00004518865356
100
AcDbArc
 50
90.0000209214
 51
181.7115660226
  0
ARC
  5
17F
330
14A
100
AcDbEntity
  8
DV2_Default
  6
Continuous
 62
     7
100
AcDbCircle
 10
185.805744014
 20
411.8591667545
 30
0.0
 40
83.16088218098173
100
AcDbArc
 50
90.0001587279
 51
260.377289561
  0
ARC
  5
180
330
14A
100
AcDbEntity
  8
DV2_Default
  6
Continuous
 62
     7
100
AcDbCircle
 10
185.8052832492
 20
411.8591667545
 30
0.0
 40
83.16088218098172
100
AcDbArc
 50
279.6200352905
 51
89.9998412724
  0
ARC
  5
181
330
14A
100
AcDbEntity
  8
DV2_Default
  6
Continuous
 62
     7
100
AcDbCircle
 10
185.805480403
 20
411.8592037418
 30
0.0
 40
91.00004518865389
100
AcDbArc
 50
358.2895797544
 51
89.9999790786
  0
SPLINE
  5
182
330
14A
100
AcDbEntity
  8
DV2_Default
  6
Continuous
 62
     7
100
AcDbSpline
210
0.0
220
0.0
230
1.0
 70
    12
 71
     3
 72
    11
 73
     7
 74
     0
 42
0.0000000001347738
 43
0.0000000001
 40
0.0
 40
0.0
 40
0.0
 40
0.0
 40
0.337021709678216
 40
0.337021709678216
 40
0.337021709678216
 40
1.0
 40
1.0
 40
1.0
 40
1.0
 10
165.5860301927441
 20
391.2955975962944
 30
0.0
 41
1.002202927036254
 10
159.8304461428449
 20
396.9548747266419
 30
0.0
 41
1.005436395021782
 10
156.9665142332856
 20
404.2597923453296
 30
0.0
 41
1.06794245813436
 10
156.9665142332854
 20
411.8591667442973
 30
0.0
 41
1.189721116373987
 10
156.9665142332859
 20
428.661494217276
 30
0.0
 41
0.9501620484597121
 10
168.8210549954009
 20
440.6981661423993
 30
0.0
 41
0.9399730796715965
 10
185.8055136313841
 20
440.6981661423964
 30
0.0
 41
1.15915421000964
  0
SPLINE
  5
183
330
14A
100
AcDbEntity
  8
DV2_Default
  6
Continuous
 62
     7
100
AcDbSpline
210
0.0
220
0.0
230
1.0
 70
    12
 71
     3
 72
    11
 73
     7
 74
     0
 42
0.0000000001352071
 43
0.0000000001
 40
0.0
 40
0.0
 40
0.0
 40
0.0
 40
0.6650038555205058
 40
0.6650038555205058
 40
0.6650038555205058
 40
1.0
 40
1.0
 40
1.0
 40
1.0
 10
185.8055136313841
 20
440.6981661423964
 30
0.0
 41
1.159154210009641
 10
202.7899722673674
 20
440.6981661423994
 30
0.0
 41
0.9399730796715964
 10
214.6445130294824
 20
428.661494217276
 30
0.0
 41
0.9501620484597117
 10
214.6445130294829
 20
411.8591667442973
 30
0.0
 41
1.189721116373987
 10
214.6445130294826
 20
404.336227296727
 30
0.0
 41
1.069043072990961
 10
211.8352849881964
 20
397.0951393958625
 30
0.0
 41
1.006571074940077
 10
206.1809594870173
 20
391.4501223570063
 30
0.0
 41
1.002305122221337
  0
ARC
  5
184
330
14A
100
AcDbEntity
  8
DV2_Default
  6
Continuous
 62
     7
100
AcDbCircle
 10
185.8055136314
 20
411.8591667443
 30
0.0
 40
27.74790059577
100
AcDbArc
 50
320.3756534305
 51
0.0
  0
ARC
  5
185
330
14A
100
AcDbEntity
  8
DV2_Default
  6
Continuous
 62
     7
100
AcDbCircle
 10
185.8055136314
 20
411.8591667443
 30
0.0
 40
27.74790059577
100
AcDbArc
 50
180.0013077979
 51
220.1916149747
  0
ARC
  5
186
330
14A
100
AcDbEntity
  8
DV2_Default
  6
Continuous
 62
     7
100
AcDbCircle
 10
185.8055136314
 20
411.8591667443
 30
0.0
 40
27.74790059577
100
AcDbArc
 50
0.0
 51
180.0013077979
  0
SPLINE
  5
187
330
14A
100
AcDbEntity
  8
DV2_Default
  6
Continuous
 62
     7
100
AcDbSpline
210
0.0
220
0.0
230
1.0
 70
     8
 71
     3
 72
    14
 73
    10
 74
     0
 42
0.0000000005421816
 43
0.0000000001
 40
0.0
 40
0.0
 40
0.0
 40
0.0
 40
0.0396740508129857
 40
0.0396740508129857
 40
0.3600185669000636
 40
0.3600185669000636
 40
0.6803630829871415
 40
0.6803630829871415
 40
0.9999999999999999
 40
0.9999999999999999
 40
0.9999999999999999
 40
0.9999999999999999
 10
207.0530968624425
 20
394.0006485180093
 30
0.0
 10
207.1330595729005
 20
394.2313360066258
 30
0.0
 10
207.2128934633035
 20
394.4619266049991
 30
0.0
 10
207.9359284588398
 20
396.5534713730404
 30
0.0
 10
208.5738412318409
 20
398.40964717185
 30
0.0
 10
209.7068097177311
 20
402.1871067574411
 30
0.0
 10
210.2023113910093
 20
404.1176959669182
 30
0.0
 10
210.8124629289248
 20
408.0285684711741
 30
0.0
 10
210.9216642664415
 20
409.9958729508973
 30
0.0
 10
210.9473384673443
 20
411.9104230346621
 30
0.0
  0
SPLINE
  5
188
330
14A
100
AcDbEntity
  8
DV2_Default
  6
Continuous
 62
     7
100
AcDbSpline
210
0.0
220
0.0
230
1.0
 70
     8
 71
     3
 72
     9
 73
     5
 74
     0
 42
0.0000000044278455
 43
0.0000000001
 40
0.0
 40
0.0
 40
0.0
 40
0.0
 40
0.4705697450287838
 40
1.0
 40
1.0
 40
1.0
 40
1.0
 10
165.1137021633201
 20
392.7149260185826
 30
0.0
 10
164.9969581819916
 20
393.0504683974506
 30
0.0
 10
164.749220047924
 20
393.762665470051
 30
0.0
 10
164.5029960636685
 20
394.4725048316162
 30
0.0
 10
164.3726377459828
 20
394.8483153036257
 30
0.0
  0
ARC
  5
189
330
14A
100
AcDbEntity
  8
DV2_Default
  6
Continuous
 62
     7
100
AcDbCircle
 10
185.8055041988
 20
411.8762853063
 30
0.0
 40
26.98019336063709
100
AcDbArc
 50
180.1076251883
 51
214.1682919001
  0
ARC
  5
18A
330
14A
100
AcDbEntity
  8
DV2_Default
  6
Continuous
 62
     7
100
AcDbCircle
 10
185.8055041988
 20
411.8762853063
 30
0.0
 40
26.98019336063709
100
AcDbArc
 50
325.8768323478
 51
359.8915580091
  0
ARC
  5
18B
330
14A
100
AcDbEntity
  8
DV2_Default
  6
Continuous
 62
     7
100
AcDbCircle
 10
207.4564066989
 20
413.1479080755
 30
0.0
 40
46.80904018252176
100
AcDbArc
 50
181.4985823959
 51
203.0130901695
  0
SPLINE
  5
18C
330
14A
100
AcDbEntity
  8
DV2_Default
  6
Continuous
 62
     7
100
AcDbSpline
210
0.0
220
0.0
230
1.0
 70
     8
 71
     3
 72
     8
 73
     4
 74
     0
 42
0.0000001160404522
 43
0.0000000001
 40
0.0
 40
0.0
 40
0.0
 40
0.0
 40
1.0
 40
1.0
 40
1.0
 40
1.0
 10
164.3726377459828
 20
394.8483153036257
 30
0.0
 10
164.3638797415729
 20
394.8733452493096
 30
0.0
 10
164.3617142637611
 20
394.9016440041585
 30
0.0
 10
164.3661929264386
 20
394.9325991133538
 30
0.0
  0
ARC
  5
18D
330
14A
100
AcDbEntity
  8
DV2_Default
  6
Continuous
 62
     7
100
AcDbCircle
 10
185.8054467497
 20
412.3041209144
 30
0.0
 40
25.1449474018959
100
AcDbArc
 50
359.1318499409
 51
180.8667583892
  0
ARC
  5
18E
330
14A
100
AcDbEntity
  8
DV2_Default
  6
Continuous
 62
     7
100
AcDbCircle
 10
185.8055040231
 20
411.8516374025
 30
0.0
 40
26.98015814460166
100
AcDbArc
 50
359.9439008657
 51
180.0552823318
  0
ARC
  5
18F
330
14A
100
AcDbEntity
  8
DV2_Default
  6
Continuous
 62
     7
100
AcDbCircle
 10
296.2597611123
 20
359.705502651
 30
0.0
 40
95.62168344042225
100
AcDbArc
 50
158.2336341257
 51
176.2706260658
  0
SPLINE
  5
190
330
14A
100
AcDbEntity
  8
DV2_Default
  6
Continuous
 62
     7
100
AcDbSpline
210
0.0
220
0.0
230
1.0
 70
     8
 71
     3
 72
    18
 73
    14
 74
     0
 42
0.0000000035144841
 43
0.0000000001
 40
0.0
 40
0.0
 40
0.0
 40
0.0
 40
0.0836304784200218
 40
0.2450239619077693
 40
0.403018060940695
 40
0.5271851222668223
 40
0.6257335256524595
 40
0.707604198718264
 40
0.7614443494819267
 40
0.8187781202636344
 40
0.8915814191184247
 40
0.9560143429685828
 40
1.0
 40
1.0
 40
1.0
 40
1.0
 10
163.142356428862
 20
397.3287144585535
 30
0.0
 10
163.1418833466333
 20
397.3283169237137
 30
0.0
 10
163.16474070115
 20
397.2803032289057
 30
0.0
 10
163.2790864017997
 20
397.0455261421325
 30
0.0
 10
163.5131806778056
 20
396.5638617736756
 30
0.0
 10
163.7578533141676
 20
396.0744923300529
 30
0.0
 10
163.9895623573181
 20
395.6185643822392
 30
0.0
 10
164.1727601554757
 20
395.2561488004889
 30
0.0
 10
164.2558829008032
 20
395.0906264183409
 30
0.0
 10
164.2939800939867
 20
395.0145217638355
 30
0.0
 10
164.2846112814185
 20
395.0353490323097
 30
0.0
 10
164.291327527939
 20
395.0218192564687
 30
0.0
 10
164.3607641620965
 20
394.8584599957666
 30
0.0
 10
164.377954527363
 20
394.8174409803562
 30
0.0
  0
SPLINE
  5
191
330
14A
100
AcDbEntity
  8
DV2_Default
  6
Continuous
 62
     7
100
AcDbSpline
210
0.0
220
0.0
230
1.0
 70
     8
 71
     3
 72
     8
 73
     4
 74
     0
 42
0.0000013301079274
 43
0.0000000001
 40
0.0
 40
0.0
 40
0.0
 40
0.0
 40
1.0
 40
1.0
 40
1.0
 40
1.0
 10
164.4008141106696
 20
394.762079575255
 30
0.0
 10
164.4004502028553
 20
394.7630196869675
 30
0.0
 10
164.399511915754
 20
394.765436520996
 30
0.0
 10
164.3981192563531
 20
394.7690981417174
 30
0.0
  0
LINE
  5
192
330
14A
100
AcDbEntity
  8
DV2_Default
  6
Continuous
 62
     7
100
AcDbLine
 10
164.1654924044
 20
395.4515212331
 30
0.0
 11
164.3687414268
 21
394.9344019806
 31
0.0
  0
SPLINE
  5
193
330
14A
100
AcDbEntity
  8
DV2_Default
  6
Continuous
 62
     7
100
AcDbSpline
210
0.0
220
0.0
230
1.0
 70
     8
 71
     3
 72
    24
 73
    20
 74
     0
 42
0.0000000002059238
 43
0.0000000001
 40
0.0
 40
0.0
 40
0.0
 40
0.0
 40
0.0878356591637577
 40
0.172831894167745
 40
0.2490286267644207
 40
0.3164775882760759
 40
0.3751981456062484
 40
0.4243878647066657
 40
0.4660460581226177
 40
0.5053296152120735
 40
0.5430970851863609
 40
0.6235222548045188
 40
0.7016043610876482
 40
0.7293797632585436
 40
0.7658067583136992
 40
0.8115955588989919
 40
0.8668163993809378
 40
0.931609984055017
 40
1.0
 40
1.0
 40
1.0
 40
1.0
 10
199.2219228128218
 20
317.4041829648028
 30
0.0
 10
199.306629255227
 20
318.9475461280934
 30
0.0
 10
199.4451019677997
 20
321.5057972430615
 30
0.0
 10
199.5917490557812
 20
325.5832192692829
 30
0.0
 10
199.6887028217542
 20
329.246956654668
 30
0.0
 10
199.7512117223547
 20
332.5177610136424
 30
0.0
 10
199.791852869795
 20
335.3527381176128
 30
0.0
 10
199.8193705533293
 20
337.775021288458
 30
0.0
 10
199.8397569459175
 20
339.8844690362121
 30
0.0
 10
199.85658422496
 20
341.8104077574529
 30
0.0
 10
199.8782249799607
 20
344.3670452943562
 30
0.0
 10
199.9104778290405
 20
347.5566728990829
 30
0.0
 10
199.9650806413099
 20
350.5861048979832
 30
0.0
 10
200.0273285705608
 20
352.9001135427143
 30
0.0
 10
200.0863939091934
 20
354.6881038957928
 30
0.0
 10
200.181041733595
 20
356.9245311831947
 30
0.0
 10
200.3288092266841
 20
359.6037625040441
 30
0.0
 10
200.5608126894573
 20
362.7167351566538
 30
0.0
 10
200.733212548187
 20
364.7098327619069
 30
0.0
 10
200.8403328970885
 20
365.925219126421
 30
0.0
  0
ARC
  5
194
330
14A
100
AcDbEntity
  8
DV2_Default
  6
Continuous
 62
     7
100
AcDbCircle
 10
197.028099164
 20
317.3185709058
 30
0.0
 40
2.201121372320977
100
AcDbArc
 50
292.0853437618
 51
2.739713965
  0
ARC
  5
195
330
14A
100
AcDbEntity
  8
DV2_Default
  6
Continuous
 62
     7
100
AcDbCircle
 10
185.8057377371
 20
343.1729225975
 30
0.0
 40
30.38457321471452
100
AcDbArc
 50
246.2824649
 51
293.6789934252
  0
ARC
  5
196
330
14A
100
AcDbEntity
  8
DV2_Default
  6
Continuous
 62
     7
100
AcDbCircle
 10
174.5686749341
 20
317.324963419
 30
0.0
 40
2.200949755124409
100
AcDbArc
 50
177.0180046191
 51
247.7248132835
  0
SPLINE
  5
197
330
14A
100
AcDbEntity
  8
DV2_Default
  6
Continuous
 62
     7
100
AcDbSpline
210
0.0
220
0.0
230
1.0
 70
     8
 71
     3
 72
    42
 73
    38
 74
     0
 42
0.0000000001280246
 43
0.0000000001
 40
0.0
 40
0.0
 40
0.0
 40
0.0
 40
0.0312748083625358
 40
0.06450170521936
 40
0.0989413891804599
 40
0.1278607635848631
 40
0.1496222178140906
 40
0.1657520597809962
 40
0.1828927940945596
 40
0.2018194847487334
 40
0.2241128176362559
 40
0.2458860588308487
 40
0.2703194854321312
 40
0.2976093532990534
 40
0.3273722620107379
 40
0.3541281617524386
 40
0.3762709515380654
 40
0.3928601725809825
 40
0.4052586966165053
 40
0.4157408191805476
 40
0.4292247340619492
 40
0.4458665838741321
 40
0.4892478311535755
 40
0.5332436074479713
 40
0.5764585493768425
 40
0.6183674897250041
 40
0.6576345996727609
 40
0.6942066031098972
 40
0.7126109660133363
 40
0.7340595092049165
 40
0.7599779868907923
 40
0.7903783014419916
 40
0.8252711615752286
 40
0.8639220701741877
 40
0.9069279153749322
 40
0.9543133978613834
 40
1.0
 40
1.0
 40
1.0
 40
1.0
 10
164.431379877445
 20
394.6793009611465
 30
0.0
 10
164.7068658887735
 20
393.8893495380913
 30
0.0
 10
165.1854938475075
 20
392.5119177364099
 30
0.0
 10
166.0071805884494
 20
390.1240164076282
 30
0.0
 10
166.7689343828476
 20
387.7989838028745
 30
0.0
 10
167.4134264386099
 20
385.7154484471436
 30
0.0
 10
167.8830135951928
 20
384.0667037936502
 30
0.0
 10
168.2403247933239
 20
382.698061041734
 30
0.0
 10
168.5574686409564
 20
381.39161563939
 30
0.0
 10
168.8921420915809
 20
379.9234861485156
 30
0.0
 10
169.2292623659586
 20
378.3276690989956
 30
0.0
 10
169.5595724264727
 20
376.5792881793628
 30
0.0
 10
169.8677045498439
 20
374.6897588929419
 30
0.0
 10
170.1510342124935
 20
372.5809386276808
 30
0.0
 10
170.3917083336726
 20
370.4008305188648
 30
0.0
 10
170.5862771417603
 20
368.347888875032
 30
0.0
 10
170.7357329664207
 20
366.6353101008121
 30
0.0
 10
170.8499876999423
 20
365.2966514963945
 30
0.0
 10
170.9365266201727
 20
364.2623419443479
 30
0.0
 10
171.0143606580229
 20
363.3085559742755
 30
0.0
 10
171.098520007068
 20
362.2428550815612
 30
0.0
 10
171.2426767087983
 20
360.3122028782231
 30
0.0
 10
171.4104294686549
 20
357.575229497492
 30
0.0
 10
171.5554679945135
 20
354.1335845154027
 30
0.0
 10
171.6476458197935
 20
350.7287229477428
 30
0.0
 10
171.7015575682712
 20
347.4490541888835
 30
0.0
 10
171.733280086668
 20
344.3464893301963
 30
0.0
 10
171.7530890938164
 20
341.8654918550147
 30
0.0
 10
171.7703642999131
 20
339.8552675389477
 30
0.0
 10
171.7864152220752
 20
338.1264095463181
 30
0.0
 10
171.8080854150507
 20
336.0840426326913
 30
0.0
 10
171.8388635835044
 20
333.691049627885
 30
0.0
 10
171.8835237320716
 20
330.9691218325586
 30
0.0
 10
171.949359622172
 20
327.9176718314895
 30
0.0
 10
172.0463278186592
 20
324.5687816527332
 30
0.0
 10
172.1832695162133
 20
320.9567953086781
 30
0.0
 10
172.3047993732004
 20
318.7217491506086
 30
0.0
 10
172.3764373989035
 20
317.4205272177884
 30
0.0
  0
ARC
  5
198
330
14A
100
AcDbEntity
  8
DV2_Default
  6
Continuous
 62
     7
100
AcDbCircle
 10
185.8055042476
 20
411.8459168004
 30
0.0
 40
26.98015364510745
100
AcDbArc
 50
359.9559218872
 51
180.0441291892
  0
ARC
  5
199
330
14A
100
AcDbEntity
  8
DV2_Default
  6
Continuous
 62
     7
100
AcDbCircle
 10
185.8055042345
 20
411.8753640783
 30
0.0
 40
26.9801923822358
100
AcDbArc
 50
180.1066641243
 51
214.0835997112
  0
ARC
  5
19A
330
14A
100
AcDbEntity
  8
DV2_Default
  6
Continuous
 62
     7
100
AcDbCircle
 10
185.8055042345
 20
411.8753640783
 30
0.0
 40
26.9801923822358
100
AcDbArc
 50
325.8973682475
 51
359.8933869522
  0
ARC
  5
19B
330
14A
100
AcDbEntity
  8
DV2_Default
  6
Continuous
 62
     7
100
AcDbCircle
 10
207.4522014661
 20
413.1454689072
 30
0.0
 40
46.80421605477558
100
AcDbArc
 50
181.512039549
 51
202.207830928
  0
SPLINE
  5
19C
330
14A
100
AcDbEntity
  8
DV2_Default
  6
Continuous
 62
     7
100
AcDbSpline
210
0.0
220
0.0
230
1.0
 70
     8
 71
     3
 72
    14
 73
    10
 74
     0
 42
0.0000000005838611
 43
0.0000000001
 40
0.0
 40
0.0
 40
0.0
 40
0.0
 40
0.0891334606115743
 40
0.1723822948899653
 40
0.3467958761302561
 40
0.521284604815778
 40
0.6939048943955334
 40
0.8642818048178122
 40
0.9999999999999999
 40
0.9999999999999999
 40
0.9999999999999999
 40
0.9999999999999999
 10
210.9467475278341
 20
411.9104489201748
 30
0.0
 10
210.937416491549
 20
411.4126258343242
 30
0.0
 10
210.9193680021526
 20
410.4498460781666
 30
0.0
 10
210.8166110049591
 20
408.5015907437001
 30
0.0
 10
210.5545159631202
 20
406.0699829598598
 30
0.0
 10
209.9579687957939
 20
403.1648397033936
 30
0.0
 10
209.1646962342969
 20
400.3088871249614
 30
0.0
 10
208.3154767033241
 20
397.6773743182688
 30
0.0
 10
207.7398136195185
 20
395.9908454545797
 30
0.0
 10
207.4817951469978
 20
395.2412100723873
 30
0.0
  0
SPLINE
  5
19D
330
14A
100
AcDbEntity
  8
DV2_Default
  6
Continuous
 62
     7
100
AcDbSpline
210
0.0
220
0.0
230
1.0
 70
     8
 71
     3
 72
     9
 73
     5
 74
     0
 42
0.0000000076189366
 43
0.0000000001
 40
0.0
 40
0.0
 40
0.0
 40
0.0
 40
0.4426997280672866
 40
1.0
 40
1.0
 40
1.0
 40
1.0
 10
207.4817951469978
 20
395.2412100723873
 30
0.0
 10
207.4188747294706
 20
395.0584038927369
 30
0.0
 10
207.2763727209085
 20
394.6452201085895
 30
0.0
 10
207.1332974925743
 20
394.2313940550025
 30
0.0
 10
207.0533963210502
 20
394.0005730259593
 30
0.0
  0
SPLINE
  5
19E
330
14A
100
AcDbEntity
  8
DV2_Default
  6
Continuous
 62
     7
100
AcDbSpline
210
0.0
220
0.0
230
1.0
 70
     8
 71
     3
 72
     8
 73
     4
 74
     0
 42
0.000000036162533
 43
0.0000000001
 40
0.0
 40
0.0
 40
0.0
 40
0.0
 40
1.0
 40
1.0
 40
1.0
 40
1.0
 10
164.4633020088587
 20
394.5870712682806
 30
0.0
 10
164.4330784785755
 20
394.6741561549239
 30
0.0
 10
164.4028581096175
 20
394.7612357283523
 30
0.0
 10
164.3726377439941
 20
394.8483153029373
 30
0.0
  0
SPLINE
  5
19F
330
14A
100
AcDbEntity
  8
DV2_Default
  6
Continuous
 62
     7
100
AcDbSpline
210
0.0
220
0.0
230
1.0
 70
    12
 71
     3
 72
     8
 73
     4
 74
     0
 42
0.0000001160369984
 43
0.0000000001
 40
0.0
 40
0.0
 40
0.0
 40
0.0
 40
1.0
 40
1.0
 40
1.0
 40
1.0
 10
164.3726377439941
 20
394.8483153029373
 30
0.0
 41
1.0
 10
164.3638795583813
 20
394.8733456422648
 30
0.0
 41
1.0
 10
164.3617128646685
 20
394.9016453508244
 30
0.0
 41
1.0
 10
164.3661893261156
 20
394.9326018796288
 30
0.0
 41
1.0
  0
ARC
  5
1A0
330
14A
100
AcDbEntity
  8
DV2_Default
  6
Continuous
 62
     7
100
AcDbCircle
 10
185.8054312625
 20
412.3092567372
 30
0.0
 40
25.14516339011094
100
AcDbArc
 50
359.1493431462
 51
180.8484578846
  0
SPLINE
  5
1A1
330
14A
100
AcDbEntity
  8
DV2_Default
  6
Continuous
 62
     7
100
AcDbSpline
210
0.0
220
0.0
230
1.0
 70
     8
 71
     3
 72
    13
 73
     9
 74
     0
 42
0.000000004300191
 43
0.0000000001
 40
0.0
 40
0.0
 40
0.0
 40
0.0
 40
0.1181882167620104
 40
0.3462726229599019
 40
0.5695529530076249
 40
0.745028256222446
 40
0.8842987743513456
 40
1.0
 40
1.0
 40
1.0
 40
1.0
 10
163.1423564288626
 20
397.3287144585524
 30
0.0
 10
163.1418833466342
 20
397.3283169237122
 30
0.0
 10
163.1647407011492
 20
397.280303228907
 30
0.0
 10
163.2790864017999
 20
397.0455261421321
 30
0.0
 10
163.5131806778054
 20
396.5638617736759
 30
0.0
 10
163.7578533141675
 20
396.074492330053
 30
0.0
 10
163.9895623573179
 20
395.6185643822394
 30
0.0
 10
164.1306555298025
 20
395.3394433190977
 30
0.0
 10
164.1773230264304
 20
395.246845166343
 30
0.0
  0
SPLINE
  5
1A2
330
14A
100
AcDbEntity
  8
DV2_Default
  6
Continuous
 62
     7
100
AcDbSpline
210
0.0
220
0.0
230
1.0
 70
     8
 71
     3
 72
    41
 73
    37
 74
     0
 42
0.0000000001280447
 43
0.0000000001
 40
0.0
 40
0.0
 40
0.0
 40
0.0
 40
0.0311940708822993
 40
0.0643812599150044
 40
0.098819144951535
 40
0.1277434343095462
 40
0.1495085669167697
 40
0.1712059241299209
 40
0.1953046900703656
 40
0.2243277954340079
 40
0.2461369591586795
 40
0.2705654446033555
 40
0.2978082569491471
 40
0.3274840423961007
 40
0.3541605435605837
 40
0.3762459902993777
 40
0.3928019190621132
 40
0.4051875250412372
 40
0.415670903032825
 40
0.4291570381888022
 40
0.4458016417482424
 40
0.4891901570217755
 40
0.5331933569275343
 40
0.5764155958941711
 40
0.6183316288695224
 40
0.6576053939592464
 40
0.6941836021709105
 40
0.7125910778011975
 40
0.73404321935687
 40
0.7599660593011659
 40
0.790371501956542
 40
0.825270257708841
 40
0.8639277048955979
 40
0.906940832276147
 40
0.9543343448097188
 40
1.0
 40
1.0
 40
1.0
 40
1.0
 10
164.4347055400736
 20
394.6696700601957
 30
0.0
 10
164.7094454880273
 20
393.8819180783303
 30
0.0
 10
165.1871301181561
 20
392.5073141372544
 30
0.0
 10
166.0076725176364
 20
390.1226663088482
 30
0.0
 10
166.7689928349073
 20
387.7989046683167
 30
0.0
 10
167.413392330722
 20
385.7155026710038
 30
0.0
 10
167.9221634419068
 20
383.9295121158297
 30
0.0
 10
168.3551581275688
 20
382.2473358612554
 30
0.0
 10
168.795439724116
 20
380.3699713645666
 30
0.0
 10
169.2019102169079
 20
378.4743936282197
 30
0.0
 10
169.5641143688433
 20
376.5535029070154
 30
0.0
 10
169.8713908722501
 20
374.6645481139579
 30
0.0
 10
170.1535673212645
 20
372.5595395909741
 30
0.0
 10
170.3932455073786
 20
370.3852759314439
 30
0.0
 10
170.5871105011844
 20
368.3384848944188
 30
0.0
 10
170.7361325773783
 20
366.63062617588
 30
0.0
 10
170.8501352931266
 20
365.2948979381666
 30
0.0
 10
170.9365595298407
 20
364.2619380052604
 30
0.0
 10
171.014360286796
 20
363.3085604674898
 30
0.0
 10
171.0985184176722
 20
362.2428752317343
 30
0.0
 10
171.242675051836
 20
360.3122261814821
 30
0.0
 10
171.4104281666959
 20
357.5752539242168
 30
0.0
 10
171.5554671278426
 20
354.1336085073365
 30
0.0
 10
171.6476453187322
 20
350.7287445474482
 30
0.0
 10
171.7015572659085
 20
347.4490723791201
 30
0.0
 10
171.7332798882097
 20
344.3465033397451
 30
0.0
 10
171.7530889113557
 20
341.865502384283
 30
0.0
 10
171.7703641034994
 20
339.8552761964319
 30
0.0
 10
171.7864149855257
 20
338.1264177667154
 30
0.0
 10
171.8080851206433
 20
336.0840505292454
 30
0.0
 10
171.8388632171585
 20
333.6910562259031
 30
0.0
 10
171.8835233587609
 20
330.969126612405
 30
0.0
 10
171.9493590532819
 20
327.9176724988776
 30
0.0
 10
172.0463281220941
 20
324.5687839170902
 30
0.0
 10
172.1832378026552
 20
320.9575330627109
 30
0.0
 10
172.3047300392948
 20
318.7231540314295
 30
0.0
 10
172.3763219180604
 20
317.4227471533829
 30
0.0
  0
LINE
  5
1A3
330
14A
100
AcDbEntity
  8
DV2_Default
  6
Continuous
 62
     7
100
AcDbLine
 10
164.1656775644
 20
395.4509820482
 30
0.0
 11
164.3687428862
 21
394.9343955068
 31
0.0
  0
ARC
  5
1A4
330
14A
100
AcDbEntity
  8
DV2_Default
  6
Continuous
 62
     7
100
AcDbCircle
 10
296.2597586577
 20
359.7055036813
 30
0.0
 40
95.62168077875467
100
AcDbArc
 50
158.2336341537
 51
176.270623165
  0
SPLINE
  5
1A5
330
14A
100
AcDbEntity
  8
DV2_Default
  6
Continuous
 62
     7
100
AcDbSpline
210
0.0
220
0.0
230
1.0
 70
     8
 71
     3
 72
    24
 73
    20
 74
     0
 42
0.0000000002059275
 43
0.0000000001
 40
0.0
 40
0.0
 40
0.0
 40
0.0
 40
0.0872609941145813
 40
0.1717537184891751
 40
0.2474994838863048
 40
0.3145497226348892
 40
0.3729239138012744
 40
0.4218242141620359
 40
0.4632372683259686
 40
0.5022892998835558
 40
0.5398342474241803
 40
0.6197848646264369
 40
0.6974087861874859
 40
0.7250191821327827
 40
0.7612302058672517
 40
0.8067466845994893
 40
0.8616333751155908
 40
0.926030433238072
 40
1.0
 40
1.0
 40
1.0
 40
1.0
 10
199.2219964609639
 20
317.4053005708688
 30
0.0
 10
199.3061888902247
 20
318.9385205654557
 30
0.0
 10
199.4438713649753
 20
321.4807503953653
 30
0.0
 10
199.5901050346409
 20
325.5329244103569
 30
0.0
 10
199.6870213268574
 20
329.1747201132462
 30
0.0
 10
199.7496573405863
 20
332.4259444133218
 30
0.0
 10
199.7904473222
 20
335.2439696306639
 30
0.0
 10
199.8180754658825
 20
337.6517894605718
 30
0.0
 10
199.8385081714613
 20
339.7486486820301
 30
0.0
 10
199.8553412935332
 20
341.663092564492
 30
0.0
 10
199.8767945531386
 20
344.2044614041695
 30
0.0
 10
199.9081853019132
 20
347.3750942463157
 30
0.0
 10
199.9609108017677
 20
350.386536971534
 30
0.0
 10
200.0210479440799
 20
352.6868573610413
 30
0.0
 10
200.0781262140382
 20
354.4642619020635
 30
0.0
 10
200.1697313924495
 20
356.6872914068114
 30
0.0
 10
200.3127146180494
 20
359.3511314236244
 30
0.0
 10
200.5458546696132
 20
362.5422272460892
 30
0.0
 10
200.7240817929184
 20
364.6108231931661
 30
0.0
 10
200.8396135134715
 20
365.9255278449903
 30
0.0
  0
ARC
  5
1A6
330
14A
100
AcDbEntity
  8
DV2_Default
  6
Continuous
 62
     7
100
AcDbCircle
 10
197.028099164
 20
317.3185709058
 30
0.0
 40
2.201121372320847
100
AcDbArc
 50
292.0853437618
 51
2.739713965
  0
ARC
  5
1A7
330
14A
100
AcDbEntity
  8
DV2_Default
  6
Continuous
 62
     7
100
AcDbCircle
 10
174.5686750672
 20
317.3249635002
 30
0.0
 40
2.200949878833865
100
AcDbArc
 50
177.0180093726
 51
247.7248117166
  0
ARC
  5
1A8
330
14A
100
AcDbEntity
  8
DV2_Default
  6
Continuous
 62
     7
100
AcDbCircle
 10
185.8057453794
 20
343.1728838296
 30
0.0
 40
30.3845346042579
100
AcDbArc
 50
246.2811072969
 51
293.6790176174
  0
LINE
  5
1A9
330
14A
100
AcDbEntity
  8
DV2_Default
  6
Continuous
 62
     7
100
AcDbLine
 10
223.2223031711
 20
412.3591667443
 30
0.0
 11
224.712357221
 21
412.3591667443
 31
0.0
  0
ARC
  5
1AA
330
14A
100
AcDbEntity
  8
DV2_Default
  6
Continuous
 62
     7
100
AcDbCircle
 10
224.7107373573
 20
412.9539430184
 30
0.0
 40
0.5947784799364851
100
AcDbArc
 50
270.1560437534
 51
359.8439562466
  0
LINE
  5
1AB
330
14A
100
AcDbEntity
  8
DV2_Default
  6
Continuous
 62
     7
100
AcDbLine
 10
225.3055136314
 20
412.9523231547
 30
0.0
 11
225.3055136314
 21
414.4423772046
 31
0.0
  0
ARC
  5
1AC
330
14A
100
AcDbEntity
  8
DV2_Default
  6
Continuous
 62
     7
100
AcDbCircle
 10
225.8055136314
 20
391.5595764606
 30
0.0
 40
22.88826271014645
100
AcDbArc
 50
88.7482593527
 51
91.2517406473
  0
LINE
  5
1AD
330
14A
100
AcDbEntity
  8
DV2_Default
  6
Continuous
 62
     7
100
AcDbLine
 10
226.3055136314
 20
414.4423772046
 30
0.0
 11
226.3055136314
 21
412.9523231547
 31
0.0
  0
ARC
  5
1AE
330
14A
100
AcDbEntity
  8
DV2_Default
  6
Continuous
 62
     7
100
AcDbCircle
 10
226.9004351669
 20
412.9540882798
 30
0.0
 40
0.594924154036228
100
AcDbArc
 50
180.1699953913
 51
269.8300046087
  0
LINE
  5
1AF
330
14A
100
AcDbEntity
  8
DV2_Default
  6
Continuous
 62
     7
100
AcDbLine
 10
226.8986700418
 20
412.3591667443
 30
0.0
 11
228.3887240917
 21
412.3591667443
 31
0.0
  0
ARC
  5
1B0
330
14A
100
AcDbEntity
  8
DV2_Default
  6
Continuous
 62
     7
100
AcDbCircle
 10
205.5059233477
 20
411.8591667443
 30
0.0
 40
22.8882627101405
100
AcDbArc
 50
358.7482593527
 51
1.2517406473
  0
ARC
  5
1B1
330
14A
100
AcDbEntity
  8
DV2_Default
  6
Continuous
 62
     7
100
AcDbCircle
 10
246.1051039151
 20
411.8591667443
 30
0.0
 40
22.8882627101405
100
AcDbArc
 50
178.7482593527
 51
181.2517406473
  0
LINE
  5
1B2
330
14A
100
AcDbEntity
  8
DV2_Default
  6
Continuous
 62
     7
100
AcDbLine
 10
225.3055136314
 20
409.275956284
 30
0.0
 11
225.3055136314
 21
410.7660103339
 31
0.0
  0
ARC
  5
1B3
330
14A
100
AcDbEntity
  8
DV2_Default
  6
Continuous
 62
     7
100
AcDbCircle
 10
224.7105920959
 20
410.7642452088
 30
0.0
 40
0.5949241540359695
100
AcDbArc
 50
0.1699953913
 51
89.8300046087
  0
LINE
  5
1B4
330
14A
100
AcDbEntity
  8
DV2_Default
  6
Continuous
 62
     7
100
AcDbLine
 10
224.712357221
 20
411.3591667443
 30
0.0
 11
223.2223031711
 21
411.3591667443
 31
0.0
  0
LINE
  5
1B5
330
14A
100
AcDbEntity
  8
DV2_Default
  6
Continuous
 62
     7
100
AcDbLine
 10
228.3887240917
 20
411.3591667443
 30
0.0
 11
226.8986700418
 21
411.3591667443
 31
0.0
  0
ARC
  5
1B6
330
14A
100
AcDbEntity
  8
DV2_Default
  6
Continuous
 62
     7
100
AcDbCircle
 10
226.9002899055
 20
410.7643904702
 30
0.0
 40
0.5947784799356772
100
AcDbArc
 50
90.1560437533
 51
179.8439562467
  0
LINE
  5
1B7
330
14A
100
AcDbEntity
  8
DV2_Default
  6
Continuous
 62
     7
100
AcDbLine
 10
226.3055136314
 20
410.7660103339
 30
0.0
 11
226.3055136314
 21
409.275956284
 31
0.0
  0
ARC
  5
1B8
330
14A
100
AcDbEntity
  8
DV2_Default
  6
Continuous
 62
     7
100
AcDbCircle
 10
225.8055136314
 20
432.158757028
 30
0.0
 40
22.88826271014691
100
AcDbArc
 50
268.7482593527
 51
271.2517406473
  0
LINE
  5
1B9
330
14A
100
AcDbEntity
  8
DV2_Default
  6
Continuous
 62
     7
100
AcDbLine
 10
148.3887240917
 20
411.3591667443
 30
0.0
 11
146.8986700418
 21
411.3591667443
 31
0.0
  0
ARC
  5
1BA
330
14A
100
AcDbEntity
  8
DV2_Default
  6
Continuous
 62
     7
100
AcDbCircle
 10
146.9002899055
 20
410.7643904702
 30
0.0
 40
0.5947784799364899
100
AcDbArc
 50
90.1560437534
 51
179.8439562466
  0
LINE
  5
1BB
330
14A
100
AcDbEntity
  8
DV2_Default
  6
Continuous
 62
     7
100
AcDbLine
 10
146.3055136314
 20
410.7660103339
 30
0.0
 11
146.3055136314
 21
409.275956284
 31
0.0
  0
ARC
  5
1BC
330
14A
100
AcDbEntity
  8
DV2_Default
  6
Continuous
 62
     7
100
AcDbCircle
 10
145.8055136314
 20
432.158757028
 30
0.0
 40
22.88826271014691
100
AcDbArc
 50
268.7482593527
 51
271.2517406473
  0
LINE
  5
1BD
330
14A
100
AcDbEntity
  8
DV2_Default
  6
Continuous
 62
     7
100
AcDbLine
 10
145.3055136314
 20
409.275956284
 30
0.0
 11
145.3055136314
 21
410.7660103339
 31
0.0
  0
ARC
  5
1BE
330
14A
100
AcDbEntity
  8
DV2_Default
  6
Continuous
 62
     7
100
AcDbCircle
 10
144.7105920959
 20
410.7642452088
 30
0.0
 40
0.5949241540362182
100
AcDbArc
 50
0.1699953913
 51
89.8300046087
  0
LINE
  5
1BF
330
14A
100
AcDbEntity
  8
DV2_Default
  6
Continuous
 62
     7
100
AcDbLine
 10
144.712357221
 20
411.3591667443
 30
0.0
 11
143.2223031711
 21
411.3591667443
 31
0.0
  0
ARC
  5
1C0
330
14A
100
AcDbEntity
  8
DV2_Default
  6
Continuous
 62
     7
100
AcDbCircle
 10
166.1051039151
 20
411.8591667443
 30
0.0
 40
22.88826271014049
100
AcDbArc
 50
178.7482593527
 51
181.2517406473
  0
ARC
  5
1C1
330
14A
100
AcDbEntity
  8
DV2_Default
  6
Continuous
 62
     7
100
AcDbCircle
 10
125.5059233477
 20
411.8591667443
 30
0.0
 40
22.88826271014052
100
AcDbArc
 50
358.7482593527
 51
1.2517406473
  0
LINE
  5
1C2
330
14A
100
AcDbEntity
  8
DV2_Default
  6
Continuous
 62
     7
100
AcDbLine
 10
146.3055136314
 20
414.4423772046
 30
0.0
 11
146.3055136314
 21
412.9523231547
 31
0.0
  0
ARC
  5
1C3
330
14A
100
AcDbEntity
  8
DV2_Default
  6
Continuous
 62
     7
100
AcDbCircle
 10
146.9004351669
 20
412.9540882798
 30
0.0
 40
0.5949241540359768
100
AcDbArc
 50
180.1699953913
 51
269.8300046087
  0
LINE
  5
1C4
330
14A
100
AcDbEntity
  8
DV2_Default
  6
Continuous
 62
     7
100
AcDbLine
 10
146.8986700418
 20
412.3591667443
 30
0.0
 11
148.3887240917
 21
412.3591667443
 31
0.0
  0
LINE
  5
1C5
330
14A
100
AcDbEntity
  8
DV2_Default
  6
Continuous
 62
     7
100
AcDbLine
 10
143.2223031711
 20
412.3591667443
 30
0.0
 11
144.712357221
 21
412.3591667443
 31
0.0
  0
ARC
  5
1C6
330
14A
100
AcDbEntity
  8
DV2_Default
  6
Continuous
 62
     7
100
AcDbCircle
 10
144.7107373573
 20
412.9539430184
 30
0.0
 40
0.5947784799356732
100
AcDbArc
 50
270.1560437533
 51
359.8439562467
  0
LINE
  5
1C7
330
14A
100
AcDbEntity
  8
DV2_Default
  6
Continuous
 62
     7
100
AcDbLine
 10
145.3055136314
 20
412.9523231547
 30
0.0
 11
145.3055136314
 21
414.4423772046
 31
0.0
  0
ARC
  5
1C8
330
14A
100
AcDbEntity
  8
DV2_Default
  6
Continuous
 62
     7
100
AcDbCircle
 10
145.8055136314
 20
391.5595764606
 30
0.0
 40
22.88826271014645
100
AcDbArc
 50
88.7482593527
 51
91.2517406473
  0
ARC
  5
1C9
330
14A
100
AcDbEntity
  8
DV2_Default
  6
Continuous
 62
     7
100
AcDbCircle
 10
185.8055136314
 20
411.8591667443
 30
0.0
 40
87.88066735966001
100
AcDbArc
 50
0.0
 51
19.8760269591
  0
ARC
  5
1CA
330
14A
100
AcDbEntity
  8
DV2_Default
  6
Continuous
 62
     7
100
AcDbCircle
 10
185.8055136314
 20
411.8591667443
 30
0.0
 40
87.88066735966001
100
AcDbArc
 50
20.302620277
 51
21.189204142
  0
ARC
  5
1CB
330
14A
100
AcDbEntity
  8
DV2_Default
  6
Continuous
 62
     7
100
AcDbCircle
 10
185.8055136314
 20
411.8591667443
 30
0.0
 40
87.88066735966001
100
AcDbArc
 50
21.189204142
 51
157.5350399369
  0
ARC
  5
1CC
330
14A
100
AcDbEntity
  8
DV2_Default
  6
Continuous
 62
     7
100
AcDbCircle
 10
185.8055136314
 20
411.8591667443
 30
0.0
 40
87.88066735966001
100
AcDbArc
 50
158.8107956428
 51
260.9798166563
  0
ARC
  5
1CD
330
14A
100
AcDbEntity
  8
DV2_Default
  6
Continuous
 62
     7
100
AcDbCircle
 10
185.8055136314
 20
411.8591667443
 30
0.0
 40
87.88066735966001
100
AcDbArc
 50
19.8760269591
 51
20.302620277
  0
ARC
  5
1CE
330
14A
100
AcDbEntity
  8
DV2_Default
  6
Continuous
 62
     7
100
AcDbCircle
 10
185.8055136314
 20
411.8591667443
 30
0.0
 40
87.88066735966001
100
AcDbArc
 50
157.5350399369
 51
158.8107956428
  0
ARC
  5
1CF
330
14A
100
AcDbEntity
  8
DV2_Default
  6
Continuous
 62
     7
100
AcDbCircle
 10
185.8051680308
 20
411.8593003841
 30
0.0
 40
83.16101583416813
100
AcDbArc
 50
279.6200981716
 51
89.9997618902
  0
ARC
  5
1D0
330
14A
100
AcDbEntity
  8
DV2_Default
  6
Continuous
 62
     7
100
AcDbCircle
 10
185.8053884637
 20
411.8593003841
 30
0.0
 40
83.16101583354421
100
AcDbArc
 50
89.9999137627
 51
260.3775434968
  0
ARC
  5
1D1
330
14A
100
AcDbEntity
  8
DV2_Default
  6
Continuous
 62
     7
100
AcDbCircle
 10
185.8055136314
 20
411.8591667443
 30
0.0
 40
28.8389993981
100
AcDbArc
 50
315.1269563191
 51
90.0
  0
ARC
  5
1D2
330
14A
100
AcDbEntity
  8
DV2_Default
  6
Continuous
 62
     7
100
AcDbCircle
 10
185.8055136314
 20
411.8591667443
 30
0.0
 40
28.83899956447
100
AcDbArc
 50
90.0
 51
225.2579521616
  0
ARC
  5
1D3
330
14A
100
AcDbEntity
  8
DV2_Default
  6
Continuous
 62
     7
100
AcDbCircle
 10
185.8055136314
 20
411.8591667443
 30
0.0
 40
91.00000725757
100
AcDbArc
 50
90.0
 51
261.3644744775
  0
ARC
  5
1D4
330
14A
100
AcDbEntity
  8
DV2_Default
  6
Continuous
 62
     7
100
AcDbCircle
 10
185.8055136314
 20
411.8591667443
 30
0.0
 40
91.00000725756999
100
AcDbArc
 50
278.6312073374
 51
90.0
  0
ARC
  5
1D5
330
14A
100
AcDbEntity
  8
DV2_Default
  6
Continuous
 62
     7
100
AcDbCircle
 10
185.8055136314
 20
411.8591667443
 30
0.0
 40
27.74790059577
100
AcDbArc
 50
320.3007689868
 51
0.0
  0
ARC
  5
1D6
330
14A
100
AcDbEntity
  8
DV2_Default
  6
Continuous
 62
     7
100
AcDbCircle
 10
185.8055136314
 20
411.8591667443
 30
0.0
 40
27.74790059577
100
AcDbArc
 50
0.0
 51
220.5894459819
  0
ARC
  5
1D7
330
14A
100
AcDbEntity
  8
DV2_Default
  6
Continuous
 62
     7
100
AcDbCircle
 10
185.8055136314
 20
411.8591667443
 30
0.0
 40
27.35
100
AcDbArc
 50
218.6699798682
 51
218.8578056747
  0
ENDBLK
  5
1D9
330
14A
100
AcDbEntity
  8
0
100
AcDbBlockEnd
  0
BLOCK
  5
289
330
1DA
100
AcDbEntity
  8
0
100
AcDbBlockBegin
  2
SE2
 70
     0
 10
0.0
 20
0.0
 30
0.0
  3
SE2
  1

  0
SPLINE
  5
1DD
330
1DA
100
AcDbEntity
  8
DV3_Default
  6
Continuous
 62
     7
100
AcDbSpline
210
0.0
220
0.0
230
1.0
 70
     8
 71
     3
 72
    16
 73
    12
 74
     0
 42
0.000000016564298
 43
0.0000000001
 40
0.0
 40
0.0
 40
0.0
 40
0.0
 40
0.0812130687075329
 40
0.1588155170615372
 40
0.2345003450821098
 40
0.3747765287913711
 40
0.5144024814971423
 40
0.6406815400523479
 40
0.7695303730837234
 40
0.8816968525553704
 40
1.0
 40
1.0
 40
1.0
 40
1.0
 10
433.161832158564
 20
412.3591667442973
 30
0.0
 10
433.1647637907778
 20
412.3600816153618
 30
0.0
 10
433.1704967189049
 20
412.3618706835925
 30
0.0
 10
433.1774379272914
 20
412.376121741237
 30
0.0
 10
433.1845716545668
 20
412.4041761105444
 30
0.0
 10
433.1904428377076
 20
412.4545349550057
 30
0.0
 10
433.1921471388629
 20
412.5376826377297
 30
0.0
 10
433.189792352002
 20
412.6337131257599
 30
0.0
 10
433.1834020597841
 20
412.7370289149852
 30
0.0
 10
433.1742235122191
 20
412.8444311256202
 30
0.0
 10
433.1660352852019
 20
412.9157263571417
 30
0.0
 10
433.161832158564
 20
412.9523231547312
 30
0.0
  0
LINE
  5
1DE
330
1DA
100
AcDbEntity
  8
DV3_Default
  6
Continuous
 62
     7
100
AcDbLine
 10
432.8524984441
 20
412.3591667443
 30
0.0
 11
433.1618321586
 21
412.3591667443
 31
0.0
  0
LINE
  5
1DF
330
1DA
100
AcDbEntity
  8
DV3_Default
  6
Continuous
 62
     7
100
AcDbLine
 10
432.8652347635
 20
411.8591667443
 30
0.0
 11
432.8524984441
 21
412.3591667443
 31
0.0
  0
LINE
  5
1E0
330
1DA
100
AcDbEntity
  8
DV3_Default
  6
Continuous
 62
     7
100
AcDbLine
 10
432.6363272923
 20
411.8591667443
 30
0.0
 11
432.8652347635
 21
411.8591667443
 31
0.0
  0
LINE
  5
1E1
330
1DA
100
AcDbEntity
  8
DV3_Default
  6
Continuous
 62
     7
100
AcDbLine
 10
432.8524984441
 20
411.3591667443
 30
0.0
 11
432.8652347635
 21
411.8591667443
 31
0.0
  0
LINE
  5
1E2
330
1DA
100
AcDbEntity
  8
DV3_Default
  6
Continuous
 62
     7
100
AcDbLine
 10
433.1618321586
 20
411.3591667443
 30
0.0
 11
432.8524984441
 21
411.3591667443
 31
0.0
  0
SPLINE
  5
1E3
330
1DA
100
AcDbEntity
  8
DV3_Default
  6
Continuous
 62
     7
100
AcDbSpline
210
0.0
220
0.0
230
1.0
 70
     8
 71
     3
 72
    16
 73
    12
 74
     0
 42
0.00000001653868
 43
0.0000000001
 40
0.0
 40
0.0
 40
0.0
 40
0.0
 40
0.0646949851063649
 40
0.1270272019313008
 40
0.1878130522843822
 40
0.2937526854656633
 40
0.3975099270897282
 40
0.5219584223809189
 40
0.6628249355406391
 40
0.8262813838232556
 40
1.0
 40
1.0
 40
1.0
 40
1.0
 10
433.161832158564
 20
410.7660103338633
 30
0.0
 10
433.1641834858167
 20
410.7859750904652
 30
0.0
 10
433.1688002659469
 20
410.8251754576064
 30
0.0
 10
433.1746692963894
 20
410.8826515344703
 30
0.0
 10
433.1808955942001
 20
410.9513841894399
 30
0.0
 10
433.1866300020071
 20
411.0297676617066
 30
0.0
 10
433.1908603292534
 20
411.1186284051657
 30
0.0
 10
433.1921460270246
 20
411.2054342201678
 30
0.0
 10
433.1887699624638
 20
411.2851034212589
 30
0.0
 10
433.1795527899841
 20
411.3472232948027
 30
0.0
 10
433.1678576853707
 20
411.355105626305
 30
0.0
 10
433.161832158564
 20
411.3591667442973
 30
0.0
  0
ARC
  5
1E4
330
1DA
100
AcDbEntity
  8
DV3_Default
  6
Continuous
 62
     7
100
AcDbCircle
 10
424.1526740368
 20
411.8591667443
 30
0.0
 40
9.088999999999999
100
AcDbArc
 50
16.5464858562
 51
18.9079742005
  0
ARC
  5
1E5
330
1DA
100
AcDbEntity
  8
DV3_Default
  6
Continuous
 62
     7
100
AcDbCircle
 10
424.1526740368
 20
411.8591667443
 30
0.0
 40
9.089000000000002
100
AcDbArc
 50
341.6597697504
 51
343.4623231886
  0
ARC
  5
1E6
330
1DA
100
AcDbEntity
  8
DV3_Default
  6
Continuous
 62
     7
100
AcDbCircle
 10
135.4783715675
 20
409.0879061825
 30
0.0
 40
300.1473927689134
100
AcDbArc
 50
344.6509076446
 51
352.833746916
  0
SPLINE
  5
1E7
330
1DA
100
AcDbEntity
  8
DV3_Default
  6
Continuous
 62
     7
100
AcDbSpline
210
0.0
220
0.0
230
1.0
 70
     8
 71
     3
 72
    36
 73
    32
 74
     0
 42
0.0000000001741535
 43
0.0000000001
 40
0.0
 40
0.0
 40
0.0
 40
0.0
 40
0.0083208986862449
 40
0.0273192114728926
 40
0.0463315556893422
 40
0.0657177453506748
 40
0.085099940944255
 40
0.123550238089841
 40
0.1620306301635248
 40
0.1997561277715357
 40
0.2372816333205829
 40
0.2748835847969493
 40
0.3314006401873802
 40
0.3888575112518317
 40
0.4465237145125454
 40
0.4750124518127385
 40
0.5036047154729806
 40
0.5368666524821114
 40
0.5699331493488258
 40
0.6031021251953081
 40
0.6361964297436843
 40
0.6689842126361449
 40
0.7015643682588332
 40
0.7341518065996658
 40
0.7669115111310209
 40
0.7998475558299634
 40
0.8329413821091278
 40
0.9004870197524562
 40
0.92159372440738
 40
0.9681338981228118
 40
1.0
 40
1.0
 40
1.0
 40
1.0
 10
434.4916230078864
 20
383.1339248387802
 30
0.0
 10
434.4916123575217
 20
383.1555481628075
 30
0.0
 10
434.4915728400323
 20
383.2369833632463
 30
0.0
 10
434.4914924728694
 20
383.4244627990643
 30
0.0
 10
434.4912520513333
 20
383.7470729818641
 30
0.0
 10
434.4912987518449
 20
384.1639747077873
 30
0.0
 10
434.4911989783005
 20
384.8370812252484
 30
0.0
 10
434.4912737262847
 20
385.8931579754677
 30
0.0
 10
434.4912703500617
 20
387.4727227985433
 30
0.0
 10
434.4912512888284
 20
389.3435471922335
 30
0.0
 10
434.491905754635
 20
391.4893732965771
 30
0.0
 10
434.4913189419428
 20
394.2896395686263
 30
0.0
 10
434.4910045989319
 20
397.8969911240538
 30
0.0
 10
434.4913339389546
 20
402.3673464300106
 30
0.0
 10
434.4911062780083
 20
406.331803940524
 30
0.0
 10
434.4917973712942
 20
409.5659322671208
 30
0.0
 10
434.4919284076729
 20
412.1303167937532
 30
0.0
 10
434.4912903712835
 20
414.8241611020291
 30
0.0
 10
434.4910608862033
 20
417.6176580414111
 30
0.0
 10
434.4913920123645
 20
420.3490263404041
 30
0.0
 10
434.491581827489
 20
422.9929878822799
 30
0.0
 10
434.4913717933514
 20
425.5211309650433
 30
0.0
 10
434.4909091931547
 20
427.9148453718103
 30
0.0
 10
434.4911941509957
 20
430.1567769275961
 30
0.0
 10
434.4918008358154
 20
432.2308161960652
 30
0.0
 10
434.4915492953834
 20
434.1198345776581
 30
0.0
 10
434.4916108629678
 20
436.377208962358
 30
0.0
 10
434.4910598038849
 20
438.0201769349508
 30
0.0
 10
434.4910050043264
 20
439.3842803991436
 30
0.0
 10
434.4912279706721
 20
440.1215233126597
 30
0.0
 10
434.491351412497
 20
440.467409270999
 30
0.0
 10
434.4913818197091
 20
440.5545233545865
 30
0.0
  0
ARC
  5
1E8
330
1DA
100
AcDbEntity
  8
DV3_Default
  6
Continuous
 62
     7
100
AcDbCircle
 10
135.4746658515
 20
414.629040738
 30
0.0
 40
300.1512905782234
100
AcDbArc
 50
15.2939009583
 51
15.3782629728
  0
SPLINE
  5
1E9
330
1DA
100
AcDbEntity
  8
DV3_Default
  6
Continuous
 62
     7
100
AcDbSpline
210
0.0
220
0.0
230
1.0
 70
     8
 71
     3
 72
    24
 73
    20
 74
     0
 42
0.0000000008715908
 43
0.0000000001
 40
0.0
 40
0.0
 40
0.0
 40
0.0
 40
0.0315272957487072
 40
0.0628097833301564
 40
0.1253094136784834
 40
0.1879275464779307
 40
0.2503107761686272
 40
0.3127660136158257
 40
0.3753282831095791
 40
0.4376091549254721
 40
0.5002453096502776
 40
0.5625399073064816
 40
0.625109434284828
 40
0.6876248193377372
 40
0.7499839842477383
 40
0.812630151552241
 40
0.8749350059379961
 40
0.9366170273442253
 40
1.0
 40
1.0
 40
1.0
 40
1.0
 10
433.2071733705194
 20
417.3674503498806
 30
0.0
 10
433.2294530657569
 20
417.3941665551162
 30
0.0
 10
433.274345563497
 20
417.447400528054
 30
0.0
 10
433.3648183948089
 20
417.4643651985571
 30
0.0
 10
433.4773374793249
 20
417.3583387139713
 30
0.0
 10
433.6063990626762
 20
417.0194979602027
 30
0.0
 10
433.7248536451728
 20
416.4841350828031
 30
0.0
 10
433.8282477858544
 20
415.7704005358403
 30
0.0
 10
433.9125622226588
 20
414.9043963067971
 30
0.0
 10
433.9745904759833
 20
413.9174685719072
 30
0.0
 10
434.011662911971
 20
412.849905840012
 30
0.0
 10
434.0223019860382
 20
411.7410733950689
 30
0.0
 10
434.0059917711806
 20
410.6376161829755
 30
0.0
 10
433.9634142424628
 20
409.582717314926
 30
0.0
 10
433.8963713673614
 20
408.618323480758
 30
0.0
 10
433.8077064061294
 20
407.7813546849929
 30
0.0
 10
433.7011088721693
 20
407.1101343758199
 30
0.0
 10
433.5804950082412
 20
406.600976790848
 30
0.0
 10
433.4926286872206
 20
406.4345616996513
 30
0.0
 10
433.4483184422845
 20
406.3502185823601
 30
0.0
  0
SPLINE
  5
1EA
330
1DA
100
AcDbEntity
  8
DV3_Default
  6
Continuous
 62
     7
100
AcDbSpline
210
0.0
220
0.0
230
1.0
 70
     8
 71
     3
 72
    16
 73
    12
 74
     0
 42
0.0000000016911286
 43
0.0000000001
 40
0.0
 40
0.0
 40
0.0
 40
0.0
 40
0.0558225138476384
 40
0.1124469744315554
 40
0.2250534449147705
 40
0.3370822548205004
 40
0.4497657536897717
 40
0.5617743503484036
 40
0.674353364982664
 40
0.897806932175504
 40
1.0
 40
1.0
 40
1.0
 40
1.0
 10
433.4483184422845
 20
406.3502185823601
 30
0.0
 10
433.4259855094523
 20
406.3239165881453
 30
0.0
 10
433.3814428357943
 20
406.2709268803872
 30
0.0
 10
433.2911623975555
 20
406.2538782918143
 30
0.0
 10
433.1784115177103
 20
406.359626776229
 30
0.0
 10
433.0485173947183
 20
406.6978949879016
 30
0.0
 10
432.9290135247624
 20
407.2314596859464
 30
0.0
 10
432.8241699819115
 20
407.9451725434127
 30
0.0
 10
432.710224683049
 20
409.092837476935
 30
0.0
 10
432.6425022933632
 20
410.4674793650763
 30
0.0
 10
432.6308878353228
 20
411.5353021832947
 30
0.0
 10
432.6309814245641
 20
411.870317488359
 30
0.0
  0
SPLINE
  5
1EB
330
1DA
100
AcDbEntity
  8
DV3_Default
  6
Continuous
 62
     7
100
AcDbSpline
210
0.0
220
0.0
230
1.0
 70
    12
 71
     3
 72
    10
 73
     6
 74
     0
 42
0.0000000395454992
 43
0.0000000001
 40
0.0
 40
0.0
 40
0.0
 40
0.0
 40
0.6582887265190535
 40
0.9874330888244596
 40
1.0
 40
1.0
 40
1.0
 40
1.0
 10
433.1628634567526
 20
407.0445045316602
 30
0.0
 41
1.0
 10
433.1182293352384
 20
406.9942056707624
 30
0.0
 41
1.0
 10
433.051212156903
 20
406.9667541266946
 30
0.0
 41
1.0
 10
432.9832596241906
 20
407.0081626544318
 30
0.0
 41
1.0
 10
432.9599922484893
 20
407.0308485015414
 30
0.0
 41
1.0
 10
432.9591814785948
 20
407.0316397345959
 30
0.0
 41
1.0
  0
ARC
  5
1EC
330
1DA
100
AcDbEntity
  8
DV3_Default
  6
Continuous
 62
     7
100
AcDbCircle
 10
432.4478784538
 20
406.3447139076
 30
0.0
 40
1.000455132390294
100
AcDbArc
 50
0.3152527415
 51
44.3846795955
  0
ARC
  5
1ED
330
1DA
100
AcDbEntity
  8
DV3_Default
  6
Continuous
 62
     7
100
AcDbCircle
 10
432.2484244109
 20
417.3265540776
 30
0.0
 40
0.9596207962632006
100
AcDbArc
 50
331.1519213085
 51
2.4425207112
  0
SPLINE
  5
1EE
330
1DA
100
AcDbEntity
  8
DV3_Default
  6
Continuous
 62
     7
100
AcDbSpline
210
0.0
220
0.0
230
1.0
 70
     8
 71
     3
 72
    14
 73
    10
 74
     0
 42
0.0000000010048318
 43
0.0000000001
 40
0.0
 40
0.0
 40
0.0
 40
0.0
 40
0.2074022439351719
 40
0.2074022439351719
 40
0.4716014959567813
 40
0.4716014959567813
 40
0.7358007479783907
 40
0.7358007479783907
 40
1.0
 40
1.0
 40
1.0
 40
1.0
 10
433.0718921618356
 20
416.7306094922674
 30
0.0
 10
433.2105823855164
 20
416.703897926935
 30
0.0
 10
433.3467440073724
 20
416.3809542813449
 30
0.0
 10
433.5992564207806
 20
415.0392403477716
 30
0.0
 10
433.6962910308804
 20
413.8654205177789
 30
0.0
 10
433.7496706114084
 20
411.3369513428095
 30
0.0
 10
433.7045685735714
 20
409.9915914701962
 30
0.0
 10
433.4972102652686
 20
407.9408656462156
 30
0.0
 10
433.3383521430033
 20
407.2425036573687
 30
0.0
 10
433.1628634567526
 20
407.0445045316602
 30
0.0
  0
SPLINE
  5
1EF
330
1DA
100
AcDbEntity
  8
DV3_Default
  6
Continuous
 62
     7
100
AcDbSpline
210
0.0
220
0.0
230
1.0
 70
     8
 71
     3
 72
     9
 73
     5
 74
     0
 42
0.0000001737264564
 43
0.0000000001
 40
0.0
 40
0.0
 40
0.0
 40
0.0
 40
0.9444801476858784
 40
1.0
 40
1.0
 40
1.0
 40
1.0
 10
424.2269418441982
 20
495.0197085884938
 30
0.0
 10
424.2263236203229
 20
495.0097420333066
 30
0.0
 10
424.2256690550816
 20
494.9991896090832
 30
0.0
 10
424.2248927803708
 20
494.9642114780381
 30
0.0
 10
424.2248493152909
 20
494.9621953508391
 30
0.0
  0
SPLINE
  5
1F0
330
1DA
100
AcDbEntity
  8
DV3_Default
  6
Continuous
 62
     7
100
AcDbSpline
210
0.0
220
0.0
230
1.0
 70
     8
 71
     3
 72
    37
 73
    33
 74
     0
 42
0.0000000000602805
 43
0.0000000001
 40
0.0
 40
0.0
 40
0.0
 40
0.0
 40
0.007387684822148
 40
0.0204604063348536
 40
0.0343191518289999
 40
0.0489674587392536
 40
0.0738169044643636
 40
0.0823484477026612
 40
0.1153677751385107
 40
0.1481653155848195
 40
0.1804453268142513
 40
0.2447566684466424
 40
0.2769134701454002
 40
0.3094580845150379
 40
0.3751469590536261
 40
0.4406521657973411
 40
0.4732994972065366
 40
0.5059711622804881
 40
0.5386643983914244
 40
0.5714845466998596
 40
0.6378286662052347
 40
0.7039231218306369
 40
0.7363834853453439
 40
0.7683291289517521
 40
0.8328440844215228
 40
0.8657660002082339
 40
0.8992887394953472
 40
0.93231826238499
 40
0.9486341775446372
 40
0.965142029084685
 40
0.9896242141114138
 40
1.0
 40
1.0
 40
1.0
 40
1.0
 10
424.2239944102575
 20
494.916036288715
 30
0.0
 10
424.2234738535034
 20
494.8844162767008
 30
0.0
 10
424.2219292982365
 20
494.7747445217938
 30
0.0
 10
424.2190068915324
 20
494.5072657396083
 30
0.0
 10
424.2149950917118
 20
494.0397900979762
 30
0.0
 10
424.2091559328286
 20
493.2528063748235
 30
0.0
 10
424.2039375210452
 20
492.3125535954757
 30
0.0
 10
424.1959449428327
 20
490.7526613603937
 30
0.0
 10
424.196613494451
 20
488.6419557349356
 30
0.0
 10
424.1955917860404
 20
485.136288372801
 30
0.0
 10
424.21665376895
 20
479.6060656798222
 30
0.0
 10
424.2293561716249
 20
472.7909396055649
 30
0.0
 10
424.2237521775713
 20
464.8250250558592
 30
0.0
 10
424.2042126298177
 20
456.0893843510674
 30
0.0
 10
424.1901202969568
 20
443.996520258856
 30
0.0
 10
424.2034330767804
 20
430.8843448986345
 30
0.0
 10
424.2223253325575
 20
420.1151309235094
 30
0.0
 10
424.229956396232
 20
411.9592867754194
 30
0.0
 10
424.2212097210738
 20
403.7883390951181
 30
0.0
 10
424.2040141211877
 20
392.9298651934752
 30
0.0
 10
424.1914741060343
 20
379.6978247712379
 30
0.0
 10
424.2031517841697
 20
367.5298659067413
 30
0.0
 10
424.2227121501089
 20
358.7987117227896
 30
0.0
 10
424.2315107337057
 20
350.8416994263815
 30
0.0
 10
424.2146223116341
 20
344.0114971621461
 30
0.0
 10
424.1947495496481
 20
338.436364390815
 30
0.0
 10
424.1971358653296
 20
334.912426895396
 30
0.0
 10
424.1966717168278
 20
332.5965334024005
 30
0.0
 10
424.2045385751371
 20
331.1407283346587
 30
0.0
 10
424.2115671065341
 20
330.0966355419081
 30
0.0
 10
424.2166734677084
 20
329.4205610237729
 30
0.0
 10
424.2198886195691
 20
329.1043868873136
 30
0.0
 10
424.2207934483008
 20
329.0252405729633
 30
0.0
  0
ARC
  5
1F1
330
1DA
100
AcDbEntity
  8
DV3_Default
  6
Continuous
 62
     7
100
AcDbCircle
 10
423.88223
 20
494.0811049041
 30
0.0
 40
0.9999015611125701
100
AcDbArc
 50
20.7940065281
 51
64.2461869451
  0
ARC
  5
1F2
330
1DA
100
AcDbEntity
  8
DV3_Default
  6
Continuous
 62
     7
100
AcDbCircle
 10
423.8829351736
 20
329.6362192329
 30
0.0
 40
0.9989970190646286
100
AcDbArc
 50
290.1361147966
 51
344.6433671926
  0
SPLINE
  5
1F3
330
1DA
100
AcDbEntity
  8
DV3_Default
  6
Continuous
 62
     7
100
AcDbSpline
210
0.0
220
0.0
230
1.0
 70
     8
 71
     2
 72
    28
 73
    25
 74
     0
 42
0.0000000002118278
 43
0.0000000001
 40
0.0
 40
0.0
 40
0.0
 40
0.0483069290522962
 40
0.0483069290522962
 40
0.1348244809566329
 40
0.1348244809566329
 40
0.2213420328609696
 40
0.2213420328609696
 40
0.3078595847653063
 40
0.3078595847653063
 40
0.3943771366696431
 40
0.3943771366696431
 40
0.4808946885739798
 40
0.4808946885739798
 40
0.5674122404783165
 40
0.5674122404783165
 40
0.6539297923826533
 40
0.6539297923826533
 40
0.7404473442869899
 40
0.7404473442869899
 40
0.8269648961913266
 40
0.8269648961913266
 40
0.9134824480956634
 40
0.9134824480956634
 40
1.0
 40
1.0
 40
1.0
 10
434.4916740958739
 20
393.3815108244763
 30
0.0
 10
434.4916769651066
 20
394.5833646095225
 30
0.0
 10
434.4916791191374
 20
395.8956662538894
 30
0.0
 10
434.4916829804091
 20
398.2480715464686
 30
0.0
 10
434.4916843839234
 20
400.8629255328326
 30
0.0
 10
434.4916857850058
 20
403.4732484399974
 30
0.0
 10
434.4916846804879
 20
406.2451152378411
 30
0.0
 10
434.4916835764034
 20
409.0158944996672
 30
0.0
 10
434.4916800086598
 20
411.8419590317907
 30
0.0
 10
434.491676438469
 20
414.6699620951441
 30
0.0
 10
434.4916705349845
 20
417.4452321866891
 30
0.0
 10
434.4916646232347
 20
420.2243878173984
 30
0.0
 10
434.4916565963763
 20
422.843484492391
 30
0.0
 10
434.4916485623938
 20
425.4649057072764
 30
0.0
 10
434.4916387175764
 20
427.8243708457349
 30
0.0
 10
434.4916289063956
 20
430.1757744405671
 30
0.0
 10
434.4916176868147
 20
432.1737301726473
 30
0.0
 10
434.4916064232175
 20
434.1795241864319
 30
0.0
 10
434.4915941880778
 20
435.7521655698978
 30
0.0
 10
434.4915819509856
 20
437.325057923861
 30
0.0
 10
434.4915692021526
 20
438.4073228366784
 30
0.0
 10
434.4915564651672
 20
439.4885819878054
 30
0.0
 10
434.4915436913409
 20
440.0396062535544
 30
0.0
 10
434.4915309405867
 20
440.5896352617569
 30
0.0
 10
434.4915100205252
 20
440.5896218067596
 30
0.0
  0
ARC
  5
1F4
330
1DA
100
AcDbEntity
  8
DV3_Default
  6
Continuous
 62
     7
100
AcDbCircle
 10
427.0418827843
 20
502.6387905729
 30
0.0
 40
8.122456696138832
100
AcDbArc
 50
201.5789176873
 51
249.7227788595
  0
ARC
  5
1F5
330
1DA
100
AcDbEntity
  8
DV3_Default
  6
Continuous
 62
     7
100
AcDbCircle
 10
427.0407524248
 20
321.0801962727
 30
0.0
 40
8.121166624485198
100
AcDbArc
 50
110.2728372381
 51
157.9891618308
  0
SPLINE
  5
1F6
330
1DA
100
AcDbEntity
  8
DV3_Default
  6
Continuous
 62
     7
100
AcDbSpline
210
0.0
220
0.0
230
1.0
 70
     8
 71
     3
 72
    39
 73
    35
 74
     0
 42
0.0000000000570439
 43
0.0000000001
 40
0.0
 40
0.0
 40
0.0
 40
0.0
 40
0.0069379679834408
 40
0.0256029365264314
 40
0.0489380854590066
 40
0.0854496025656694
 40
0.1143052562591273
 40
0.1469689380795654
 40
0.1796343076885039
 40
0.2123321577738142
 40
0.2450288008947297
 40
0.2776971331092797
 40
0.3103554968336502
 40
0.3430200797674974
 40
0.3757036031994244
 40
0.4083993784541822
 40
0.4410841102642728
 40
0.4737493055134568
 40
0.5064064965959807
 40
0.5390804261563258
 40
0.5717723144115399
 40
0.6044647137873701
 40
0.6371442435428234
 40
0.6893566211511919
 40
0.7285703790163645
 40
0.7677969707231291
 40
0.8004699905164426
 40
0.8331431937823032
 40
0.8984189551599147
 40
0.9310884132429205
 40
0.9474332927720642
 40
0.9637698845947493
 40
0.985577713704852
 40
1.0
 40
1.0
 40
1.0
 40
1.0
 10
419.4543745322899
 20
499.6294740468116
 30
0.0
 10
419.4544233161292
 20
499.5975686821771
 30
0.0
 10
419.4546237324233
 20
499.4534483526851
 30
0.0
 10
419.4550300747757
 20
499.0164954424669
 30
0.0
 10
419.4558434458635
 20
497.8728865496234
 30
0.0
 10
419.4564437717898
 20
495.8999230597594
 30
0.0
 10
419.4556822968706
 20
492.9372559353564
 30
0.0
 10
419.4526540036546
 20
489.4092983248547
 30
0.0
 10
419.4517724812397
 20
485.003048946674
 30
0.0
 10
419.4551610588289
 20
479.8853707300163
 30
0.0
 10
419.4571185681496
 20
474.0992803090786
 30
0.0
 10
419.4547968841934
 20
467.6898790935464
 30
0.0
 10
419.4523054858766
 20
460.7376206813517
 30
0.0
 10
419.4534590827147
 20
453.3160776745072
 30
0.0
 10
419.4553877320813
 20
445.5043948803508
 30
0.0
 10
419.4541761293908
 20
437.3796889277993
 30
0.0
 10
419.4528879399725
 20
429.0135722392378
 30
0.0
 10
419.4545959033435
 20
420.4813091041555
 30
0.0
 10
419.4563463478547
 20
411.8616824211103
 30
0.0
 10
419.4549552130657
 20
403.2397180414533
 30
0.0
 10
419.4527303707715
 20
394.7029658814612
 30
0.0
 10
419.453402851728
 20
386.3345840800333
 30
0.0
 10
419.4548760134206
 20
376.5946123717018
 30
0.0
 10
419.4542859209815
 20
366.8164786525358
 30
0.0
 10
419.4548330033529
 20
357.3411337838206
 30
0.0
 10
419.453767102259
 20
349.9961823586829
 30
0.0
 10
419.4542518827361
 20
343.8306750864286
 30
0.0
 10
419.4549761891995
 20
337.025420404831
 30
0.0
 10
419.4536942720754
 20
331.6033614225794
 30
0.0
 10
419.453963626282
 20
328.2005675203169
 30
0.0
 10
419.454294900544
 20
326.649864626616
 30
0.0
 10
419.4546151687304
 20
325.579721192961
 30
0.0
 10
419.4548019549403
 20
324.8107645513441
 30
0.0
 10
419.4547648229211
 20
324.4407369589222
 30
0.0
 10
419.4547209108331
 20
324.3258327885525
 30
0.0
  0
SPLINE
  5
1F7
330
1DA
100
AcDbEntity
  8
DV3_Default
  6
Continuous
 62
     7
100
AcDbSpline
210
0.0
220
0.0
230
1.0
 70
    12
 71
     3
 72
     9
 73
     5
 74
     0
 42
0.0000000264996259
 43
0.0000000001
 40
0.0
 40
0.0
 40
0.0
 40
0.0
 40
0.6411724894239645
 40
1.0
 40
1.0
 40
1.0
 40
1.0
 10
419.454152457059
 20
499.7404028724603
 30
0.0
 41
1.0
 10
419.4124481808494
 20
499.8401585916548
 30
0.0
 41
1.0
 10
419.369785540574
 20
499.9463560401052
 30
0.0
 41
1.0
 10
419.3473482237168
 20
500.0579794524135
 30
0.0
 41
1.0
 10
419.3402666501587
 20
500.0983011257979
 30
0.0
 41
1.0
  0
ARC
  5
1F8
330
1DA
100
AcDbEntity
  8
DV3_Default
  6
Continuous
 62
     7
100
AcDbCircle
 10
420.7573251447
 20
323.3604991133
 30
0.0
 40
1.442039734110759
100
AcDbArc
 50
154.6486955635
 51
173.3867235198
  0
ARC
  5
1F9
330
1DA
100
AcDbEntity
  8
DV3_Default
  6
Continuous
 62
     7
100
AcDbCircle
 10
-5623.2918193266
 20
366.4547541617
 30
0.0
 40
6040.166812518966
100
AcDbArc
 50
359.5709469275
 51
0.4307009619
  0
ARC
  5
1FA
330
1DA
100
AcDbEntity
  8
DV3_Default
  6
Continuous
 62
     7
100
AcDbCircle
 10
-5623.2918193266
 20
366.4547541617
 30
0.0
 40
6040.166812518966
100
AcDbArc
 50
359.5674762444
 51
359.5678151889
  0
ARC
  5
1FB
330
1DA
100
AcDbEntity
  8
DV3_Default
  6
Continuous
 62
     7
100
AcDbCircle
 10
30546.3971473248
 20
457.8389260961
 30
0.0
 40
30129.72789476713
100
AcDbArc
 50
179.9146089548
 51
180.087436808
  0
ARC
  5
1FC
330
1DA
100
AcDbEntity
  8
DV3_Default
  6
Continuous
 62
     7
100
AcDbCircle
 10
416.2107691856
 20
499.7541871488
 30
0.0
 40
3.144703677675867
100
AcDbArc
 50
7.9983924741
 51
79.5485135822
  0
ARC
  5
1FD
330
1DA
100
AcDbEntity
  8
DV3_Default
  6
Continuous
 62
     7
100
AcDbCircle
 10
416.2107695695
 20
323.9641454608
 30
0.0
 40
3.144702748461034
100
AcDbArc
 50
279.003311276
 51
352.0016108429
  0
ARC
  5
1FE
330
1DA
100
AcDbEntity
  8
DV3_Default
  6
Continuous
 62
     7
100
AcDbCircle
 10
462.5474281475
 20
411.4892083624
 30
0.0
 40
29.94301524190585
100
AcDbArc
 50
169.6504720756
 51
170.7188792149
  0
ARC
  5
1FF
330
1DA
100
AcDbEntity
  8
DV3_Default
  6
Continuous
 62
     7
100
AcDbCircle
 10
432.1801441551
 20
416.9405164834
 30
0.0
 40
0.9137946395700979
100
AcDbArc
 50
346.6296118374
 51
355.4179238648
  0
ARC
  5
200
330
1DA
100
AcDbEntity
  8
DV3_Default
  6
Continuous
 62
     7
100
AcDbCircle
 10
423.8827357588
 20
494.0173784777
 30
0.0
 40
0.9994950889481405
100
AcDbArc
 50
69.9027090503
 51
72.1018958637
  0
ARC
  5
201
330
1DA
100
AcDbEntity
  8
DV3_Default
  6
Continuous
 62
     7
100
AcDbCircle
 10
420.7736709594
 20
500.3531227918
 30
0.0
 40
1.458919754769445
100
AcDbArc
 50
190.1347842317
 51
205.388696376
  0
SPLINE
  5
202
330
1DA
100
AcDbEntity
  8
DV3_Default
  6
Continuous
 62
     7
100
AcDbSpline
210
0.0
220
0.0
230
1.0
 70
    12
 71
     3
 72
     8
 73
     4
 74
     0
 42
0.0000013187343028
 43
0.0000000001
 40
0.0
 40
0.0
 40
0.0
 40
0.0
 40
1.0
 40
1.0
 40
1.0
 40
1.0
 10
419.4543557812909
 20
499.6842027954627
 30
0.0
 41
0.9656207394065122
 10
419.4543557657991
 20
499.6868239090181
 30
0.0
 41
0.9664019812646439
 10
419.4543557503117
 20
499.6893515122351
 30
0.0
 41
0.9671842062278909
 10
419.4543557348291
 20
499.6917858241129
 30
0.0
 41
0.9679674142962531
  0
LINE
  5
203
330
1DA
100
AcDbEntity
  8
DV3_Default
  6
Continuous
 62
     7
100
AcDbLine
 10
419.4543196712
 20
499.7400074889
 30
0.0
 11
419.3249058724
 21
500.1916000668
 31
0.0
  0
LINE
  5
204
330
1DA
100
AcDbEntity
  8
DV3_Default
  6
Continuous
 62
     7
100
AcDbLine
 10
419.3249305032
 20
323.526885484
 30
0.0
 11
419.4542471791
 21
323.978152614
 31
0.0
  0
SPLINE
  5
205
330
1DA
100
AcDbEntity
  8
DV3_Default
  6
Continuous
 62
     7
100
AcDbSpline
210
0.0
220
0.0
230
1.0
 70
    12
 71
     3
 72
     8
 73
     4
 74
     0
 42
0.0000000000550438
 43
0.0000000001
 40
0.0
 40
0.0
 40
0.0
 40
0.0
 40
1.0
 40
1.0
 40
1.0
 40
1.0
 10
416.704174233597
 20
502.7841426519319
 30
0.0
 41
0.9615085114249762
 10
416.7044706623009
 20
496.1786480555747
 30
0.0
 41
0.3572436322209689
 10
416.7044896434553
 20
333.2422782686218
 30
0.0
 41
0.3556855891125763
 10
416.7044900855657
 20
321.1105425436054
 30
0.0
 41
0.9568343820997984
  0
SPLINE
  5
206
330
1DA
100
AcDbEntity
  8
DV3_Default
  6
Continuous
 62
     7
100
AcDbSpline
210
0.0
220
0.0
230
1.0
 70
    12
 71
     3
 72
     8
 73
     4
 74
     0
 42
0.0000000024044535
 43
0.0000000001
 40
0.0
 40
0.0
 40
0.0
 40
0.0
 40
0.9999999999999999
 40
0.9999999999999999
 40
0.9999999999999999
 40
0.9999999999999999
 10
419.3249062370628
 20
500.1916001257587
 30
0.0
 41
1.0
 10
419.0979552364829
 20
501.5939155730894
 30
0.0
 41
1.0
 10
418.249627431914
 20
502.4770735636547
 30
0.0
 41
1.0
 10
416.7802297393477
 20
502.8410029471663
 30
0.0
 41
1.0
  0
SPLINE
  5
207
330
1DA
100
AcDbEntity
  8
DV3_Default
  6
Continuous
 62
     7
100
AcDbSpline
210
0.0
220
0.0
230
1.0
 70
    12
 71
     3
 72
     8
 73
     4
 74
     0
 42
0.0000000041616191
 43
0.0000000001
 40
0.0
 40
0.0
 40
0.0
 40
0.0
 40
1.0
 40
1.0
 40
1.0
 40
1.0
 10
418.2044900893547
 20
321.5311360431068
 30
0.0
 41
1.0
 10
418.8121524293394
 20
322.0007277748794
 30
0.0
 41
1.0
 10
419.1856328026669
 20
322.6659775503994
 30
0.0
 41
1.0
 10
419.3249185466615
 20
323.5268093947548
 30
0.0
 41
1.0
  0
ARC
  5
208
330
1DA
100
AcDbEntity
  8
DV3_Default
  6
Continuous
 62
     7
100
AcDbCircle
 10
415.9834777181
 20
324.6891787111
 30
0.0
 40
3.860845690533296
100
AcDbArc
 50
280.7631698591
 51
305.1182463956
  0
SPLINE
  5
209
330
1DA
100
AcDbEntity
  8
DV3_Default
  6
Continuous
 62
     7
100
AcDbSpline
210
0.0
220
0.0
230
1.0
 70
    12
 71
     3
 72
     8
 73
     4
 74
     0
 42
0.0000000014046866
 43
0.0000000001
 40
0.0
 40
0.0
 40
0.0
 40
0.0
 40
1.0
 40
1.0
 40
1.0
 40
1.0
 10
419.4543188741512
 20
323.9783263329853
 30
0.0
 41
1.0
 10
420.4314967522769
 20
326.3153072193167
 30
0.0
 41
1.0
 10
422.0223291905635
 20
327.8887733972265
 30
0.0
 41
1.0
 10
424.2268411324685
 20
328.6982845738687
 30
0.0
 41
1.0
  0
SPLINE
  5
20A
330
1DA
100
AcDbEntity
  8
DV3_Default
  6
Continuous
 62
     7
100
AcDbSpline
210
0.0
220
0.0
230
1.0
 70
    12
 71
     3
 72
     8
 73
     4
 74
     0
 42
0.0000000014047079
 43
0.0000000001
 40
0.0
 40
0.0
 40
0.0
 40
0.0
 40
1.0
 40
1.0
 40
1.0
 40
1.0
 10
424.2268410768546
 20
495.0200489351939
 30
0.0
 41
1.0
 10
422.0223837027685
 20
495.8295400666298
 30
0.0
 41
1.0
 10
420.4315754309727
 20
497.4029484503131
 30
0.0
 41
1.0
 10
419.4543551220618
 20
499.739920463514
 30
0.0
 41
1.0
  0
SPLINE
  5
20B
330
1DA
100
AcDbEntity
  8
DV3_Default
  6
Continuous
 62
     7
100
AcDbSpline
210
0.0
220
0.0
230
1.0
 70
    12
 71
     3
 72
     8
 73
     4
 74
     0
 42
0.0000000000602483
 43
0.0000000001
 40
0.0
 40
0.0
 40
0.0
 40
0.0
 40
1.0
 40
1.0
 40
1.0
 40
1.0
 10
424.2268370125789
 20
328.991123094624
 30
0.0
 41
0.9226408074243766
 10
424.2267477551378
 20
341.7019731554543
 30
0.0
 41
0.3447855713626022
 10
424.2267535765427
 20
489.9678368709652
 30
0.0
 41
0.3594843456653318
 10
424.226839387148
 20
494.9708042354901
 30
0.0
 41
0.966737130332565
  0
SPLINE
  5
20C
330
1DA
100
AcDbEntity
  8
DV3_Default
  6
Continuous
 62
     7
100
AcDbSpline
210
0.0
220
0.0
230
1.0
 70
     8
 71
     3
 72
    10
 73
     6
 74
     0
 42
0.0000000104231161
 43
0.0000000001
 40
0.0
 40
0.0
 40
0.0
 40
0.0
 40
0.5
 40
0.5
 40
1.0
 40
1.0
 40
1.0
 40
1.0
 10
424.2268411324685
 20
328.6982845738687
 30
0.0
 10
424.3755890806457
 20
328.7527226721651
 30
0.0
 10
424.5108920496201
 20
328.8433107852583
 30
0.0
 10
424.7253138221721
 20
329.0765079100444
 30
0.0
 10
424.8042531198122
 20
329.2189216977728
 30
0.0
 10
424.8463045469842
 20
329.3718037632809
 30
0.0
  0
SPLINE
  5
20D
330
1DA
100
AcDbEntity
  8
DV3_Default
  6
Continuous
 62
     7
100
AcDbSpline
210
0.0
220
0.0
230
1.0
 70
     8
 71
     3
 72
    10
 73
     6
 74
     0
 42
0.0000000131247092
 43
0.0000000001
 40
0.0
 40
0.0
 40
0.0
 40
0.0
 40
0.5015895700312536
 40
0.5015895700312536
 40
1.0
 40
1.0
 40
1.0
 40
1.0
 10
424.816679557166
 20
494.4369975212278
 30
0.0
 10
424.7715514837957
 20
494.5553164092405
 30
0.0
 10
424.703921269642
 20
494.6650607426714
 30
0.0
 10
424.5330491228365
 20
494.8509558418912
 30
0.0
 10
424.4301490259002
 20
494.927191741609
 30
0.0
 10
424.3168588225022
 20
494.9819257993442
 30
0.0
  0
ARC
  5
20E
330
1DA
100
AcDbEntity
  8
DV3_Default
  6
Continuous
 62
     7
100
AcDbCircle
 10
397.0771232811
 20
412.8500226579
 30
0.0
 40
36.93713913988299
100
AcDbArc
 50
2.2206803662
 51
7.0020730053
  0
SPLINE
  5
20F
330
1DA
100
AcDbEntity
  8
DV3_Default
  6
Continuous
 62
     7
100
AcDbSpline
210
0.0
220
0.0
230
1.0
 70
     8
 71
     3
 72
    30
 73
    26
 74
     0
 42
0.0000000013262028
 43
0.0000000001
 40
0.0
 40
0.0
 40
0.0
 40
0.0
 40
0.0184313870332157
 40
0.0367809380668613
 40
0.0550647278748893
 40
0.0732991426785092
 40
0.0915008456207921
 40
0.1096867357653613
 40
0.1278739043335309
 40
0.1914467171442318
 40
0.2550478021349451
 40
0.3193844991074819
 40
0.3835656206492137
 40
0.5118039243527717
 40
0.5738962372059201
 40
0.6366904038604234
 40
0.6783234264108765
 40
0.7203177047349058
 40
0.7629799940387161
 40
0.8252565186401998
 40
0.8871259124743501
 40
0.9162599241808109
 40
0.9447123524095582
 40
0.9725898830852996
 40
1.0
 40
1.0
 40
1.0
 40
1.0
 10
432.5499664808146
 20
411.857020424048
 30
0.0
 10
432.5502277654953
 20
411.9400264963846
 30
0.0
 10
432.5504896822412
 20
412.1056700929702
 30
0.0
 10
432.5523675643507
 20
412.353270053315
 30
0.0
 10
432.5553331990523
 20
412.599231261052
 30
0.0
 10
432.5594900968127
 20
412.8434015432045
 30
0.0
 10
432.5648081671329
 20
413.0856267451886
 30
0.0
 10
432.5712906867655
 20
413.3257742384784
 30
0.0
 10
432.585291675702
 20
413.7613574751254
 30
0.0
 10
432.6124385606961
 20
414.380225362824
 30
0.0
 10
432.6615691284754
 20
415.1477055865848
 30
0.0
 10
432.7230839185301
 20
415.8572234056827
 30
0.0
 10
432.8202361481664
 20
416.7047217760378
 30
0.0
 10
432.9364563933421
 20
417.3788890064358
 30
0.0
 10
433.0643044072797
 20
417.8409876064358
 30
0.0
 10
433.1523245026652
 20
418.055903153165
 30
0.0
 10
433.2314203708178
 20
418.1767161252515
 30
0.0
 10
433.3004982751146
 20
418.2291526201681
 30
0.0
 10
433.380987599278
 20
418.236166327008
 30
0.0
 10
433.4719380345356
 20
418.1644381276028
 30
0.0
 10
433.5535806115399
 20
418.0075405466895
 30
0.0
 10
433.6153349116775
 20
417.8393820499644
 30
0.0
 10
433.6584932523973
 20
417.6965520501417
 30
0.0
 10
433.6997460505737
 20
417.5367651249488
 30
0.0
 10
433.7258712490064
 20
417.4138117594108
 30
0.0
 10
433.7387756950804
 20
417.352854001876
 30
0.0
  0
SPLINE
  5
210
330
1DA
100
AcDbEntity
  8
DV3_Default
  6
Continuous
 62
     7
100
AcDbSpline
210
0.0
220
0.0
230
1.0
 70
     8
 71
     3
 72
    22
 73
    18
 74
     0
 42
0.0000000013223209
 43
0.0000000001
 40
0.0
 40
0.0
 40
0.0
 40
0.0
 40
0.0355050186224828
 40
0.070392239706035
 40
0.1394310525436123
 40
0.2456021482967078
 40
0.3043378319471106
 40
0.3634536859726216
 40
0.4270498134898911
 40
0.4870385658808961
 40
0.5496615188453059
 40
0.6146901958146379
 40
0.7425062590100286
 40
0.8074501093912198
 40
0.8730331550134033
 40
0.9371064446560651
 40
1.0
 40
1.0
 40
1.0
 40
1.0
 10
433.7387756949306
 20
406.3654794855005
 30
0.0
 10
433.7219408085891
 20
406.2886980192166
 30
0.0
 10
433.6884693599055
 20
406.136472716068
 30
0.0
 10
433.6190865081531
 20
405.8821579866378
 30
0.0
 10
433.509819457235
 20
405.593666327445
 30
0.0
 10
433.3820554055305
 20
405.4634816042001
 30
0.0
 10
433.2590504883497
 20
405.4992987566619
 30
0.0
 10
433.1608962747357
 20
405.6408106712989
 30
0.0
 10
433.0642169227452
 20
405.8733296367331
 30
0.0
 10
432.9703727704443
 20
406.2162113921768
 30
0.0
 10
432.8816398399289
 20
406.6559693499221
 30
0.0
 10
432.7718588853138
 20
407.3822538297624
 30
0.0
 10
432.6796240976025
 20
408.2897101392903
 30
0.0
 10
432.613118124407
 20
409.3231975104104
 30
0.0
 10
432.5770280471213
 20
410.1509646046981
 30
0.0
 10
432.5539166794372
 20
411.0015566713337
 30
0.0
 10
432.551361991201
 20
411.5736377023512
 30
0.0
 10
432.5499664808146
 20
411.857020424048
 30
0.0
  0
ARC
  5
211
330
1DA
100
AcDbEntity
  8
DV3_Default
  6
Continuous
 62
     7
100
AcDbCircle
 10
396.7293326894
 20
410.8924883927
 30
0.0
 40
37.28528773152021
100
AcDbArc
 50
353.0262024173
 51
358.1474489543
  0
SPLINE
  5
212
330
1DA
100
AcDbEntity
  8
DV3_Default
  6
Continuous
 62
     7
100
AcDbSpline
210
0.0
220
0.0
230
1.0
 70
    12
 71
     3
 72
     8
 73
     4
 74
     0
 42
0.000000014922246
 43
0.0000000001
 40
0.0
 40
0.0
 40
0.0
 40
0.0
 40
1.0
 40
1.0
 40
1.0
 40
1.0
 10
424.8463045469842
 20
329.3718037632809
 30
0.0
 41
1.159154210006891
 10
424.9056345616292
 20
329.5871568533603
 30
0.0
 41
1.159114948549226
 10
424.964725091661
 20
329.8025796796196
 30
0.0
 41
1.159076169759395
 10
425.0235760390325
 20
330.0180719796638
 30
0.0
 41
1.159037873637397
  0
SPLINE
  5
213
330
1DA
100
AcDbEntity
  8
DV3_Default
  6
Continuous
 62
     7
100
AcDbSpline
210
0.0
220
0.0
230
1.0
 70
    12
 71
     3
 72
     8
 73
     4
 74
     0
 42
0.0000000237754757
 43
0.0000000001
 40
0.0
 40
0.0
 40
0.0
 40
0.0
 40
0.9999999999999999
 40
0.9999999999999999
 40
0.9999999999999999
 40
0.9999999999999999
 10
424.9962989819132
 20
493.800071971842
 30
0.0
 41
1.159055619042987
 10
424.959315925404
 20
493.9353082217681
 30
0.0
 41
1.159079748019953
 10
424.922238496107
 20
494.0705171027941
 30
0.0
 41
1.159104067125706
 10
424.8850667182334
 20
494.2056985501159
 30
0.0
 41
1.159128576360246
  0
LINE
  5
214
330
1DA
100
AcDbEntity
  8
DV3_Default
  6
Continuous
 62
     7
100
AcDbLine
 10
434.491674032
 20
383.1203841728
 30
0.0
 11
434.4916740368
 21
440.567597839
 31
0.0
  0
LINE
  5
215
330
1DA
100
AcDbEntity
  8
DV3_Default
  6
Continuous
 62
     7
100
AcDbLine
 10
433.6143410012
 20
411.8591670859
 30
0.0
 11
434.0457730449
 21
411.8591673033
 31
0.0
  0
ARC
  5
216
330
1DA
100
AcDbEntity
  8
DV3_Default
  6
Continuous
 62
     7
100
AcDbCircle
 10
401.817862474
 20
411.8830914664
 30
0.0
 40
31.79648752781069
100
AcDbArc
 50
359.9568893842
 51
3.2064957028
  0
SPLINE
  5
217
330
1DA
100
AcDbEntity
  8
DV3_Default
  6
Continuous
 62
     7
100
AcDbSpline
210
0.0
220
0.0
230
1.0
 70
     8
 71
     3
 72
    10
 73
     6
 74
     0
 42
0.0000000181011807
 43
0.0000000001
 40
0.0
 40
0.0
 40
0.0
 40
0.0
 40
0.4613973151189363
 40
0.4613973151189363
 40
1.0
 40
1.0
 40
1.0
 40
1.0
 10
433.9871061108099
 20
413.9912025085075
 30
0.0
 10
433.9661837374268
 20
413.9370138689047
 30
0.0
 10
433.9235606663602
 20
413.8818851663428
 30
0.0
 10
433.7860838458839
 20
413.7681573357079
 30
0.0
 10
433.6839411337647
 20
413.7107339477217
 30
0.0
 10
433.564570349486
 20
413.661618433882
 30
0.0
  0
SPLINE
  5
218
330
1DA
100
AcDbEntity
  8
DV3_Default
  6
Continuous
 62
     7
100
AcDbSpline
210
0.0
220
0.0
230
1.0
 70
     8
 71
     3
 72
    20
 73
    16
 74
     0
 42
0.0000000010510529
 43
0.0000000001
 40
0.0
 40
0.0
 40
0.0
 40
0.0
 40
0.0447630728287623
 40
0.0893043899944865
 40
0.134061852553449
 40
0.2013825093917264
 40
0.2685177602331708
 40
0.4040485253640816
 40
0.5397496914014835
 40
0.672977093762569
 40
0.7379335611682596
 40
0.7986100885127033
 40
0.9178182431489125
 40
0.9768279713214245
 40
0.9999999999999999
 40
0.9999999999999999
 40
0.9999999999999999
 40
0.9999999999999999
 10
432.5852225887821
 20
411.8591664123018
 30
0.0
 10
432.5862767216078
 20
412.094884677442
 30
0.0
 10
432.5883092123228
 20
412.5651534630719
 30
0.0
 10
432.6048244030635
 20
413.2607583752533
 30
0.0
 10
432.6354431851554
 20
414.0485716799749
 30
0.0
 10
432.6870564896399
 20
414.9012123255264
 30
0.0
 10
432.7921119732666
 20
416.0484502497413
 30
0.0
 10
432.9695042862193
 20
417.1708671946141
 30
0.0
 10
433.2243488851718
 20
417.8212422727318
 30
0.0
 10
433.4436863473885
 20
417.7336728965427
 30
0.0
 10
433.6024101748978
 20
417.3197517627283
 30
0.0
 10
433.7422941128528
 20
416.7329841719252
 30
0.0
 10
433.8597576847551
 20
415.8951417068488
 30
0.0
 10
433.9344115219705
 20
415.0310772256257
 30
0.0
 10
433.9599902594792
 20
414.6536247932627
 30
0.0
 10
433.9667187140166
 20
414.545209575026
 30
0.0
  0
SPLINE
  5
219
330
1DA
100
AcDbEntity
  8
DV3_Default
  6
Continuous
 62
     7
100
AcDbSpline
210
0.0
220
0.0
230
1.0
 70
     8
 71
     3
 72
    21
 73
    17
 74
     0
 42
0.0000000010535192
 43
0.0000000001
 40
0.0
 40
0.0
 40
0.0
 40
0.0
 40
0.0027437979755605
 40
0.042058406799345
 40
0.0818148169357234
 40
0.14276182732052
 40
0.2048535377812856
 40
0.2683240589689539
 40
0.3361209577721179
 40
0.4717518857249184
 40
0.6061519610732364
 40
0.7382642922317146
 40
0.8036616120171325
 40
0.8692649814587016
 40
0.9346022163927845
 40
1.0
 40
1.0
 40
1.0
 40
1.0
 10
433.9658732568894
 20
409.1612647891723
 30
0.0
 10
433.9650840665453
 20
409.1484133503737
 30
0.0
 10
433.9528826678371
 20
408.9518531742899
 30
0.0
 10
433.9258021448946
 20
408.5833858790692
 30
0.0
 10
433.872128066846
 20
407.9954227072135
 30
0.0
 10
433.7988452648388
 20
407.3848613697739
 30
0.0
 10
433.7019918953764
 20
406.8091653483589
 30
0.0
 10
433.5906826480022
 20
406.3571161230507
 30
0.0
 10
433.4259719307757
 20
405.9589605334819
 30
0.0
 10
433.2036591279589
 20
405.9203873768532
 30
0.0
 10
432.9528071406935
 20
406.6259503096495
 30
0.0
 10
432.7822494471304
 20
407.7567011334
 30
0.0
 10
432.682046683755
 20
408.8871986728639
 30
0.0
 10
432.6272433409753
 20
409.8251417852431
 30
0.0
 10
432.5917883654594
 20
410.8260437902672
 30
0.0
 10
432.5874354290045
 20
411.5146858921304
 30
0.0
 10
432.5852225887821
 20
411.8591664123018
 30
0.0
  0
SPLINE
  5
21A
330
1DA
100
AcDbEntity
  8
DV3_Default
  6
Continuous
 62
     7
100
AcDbSpline
210
0.0
220
0.0
230
1.0
 70
    12
 71
     3
 72
     8
 73
     4
 74
     0
 42
0.0000000176980424
 43
0.0000000001
 40
0.0
 40
0.0
 40
0.0
 40
0.0
 40
1.0
 40
1.0
 40
1.0
 40
1.0
 10
433.5639377377288
 20
410.045852834369
 30
0.0
 41
1.030377259225481
 10
433.7939934204053
 20
409.9506444529059
 30
0.0
 41
0.9927711333284759
 10
433.9400640686213
 20
409.8362689373477
 30
0.0
 41
0.9900814401769846
 10
433.9865409206411
 20
409.7142894490725
 30
0.0
 41
1.022308179771007
  0
ARC
  5
21B
330
1DA
100
AcDbEntity
  8
DV3_Default
  6
Continuous
 62
     7
100
AcDbCircle
 10
401.8936159622
 20
411.83352538
 30
0.0
 40
31.72073540285791
100
AcDbArc
 50
356.7692934286
 51
0.046315499
  0
ARC
  5
21C
330
1DA
100
AcDbEntity
  8
DV3_Default
  6
Continuous
 62
     7
100
AcDbCircle
 10
417.8317392468
 20
411.1057288312
 30
0.0
 40
15.27706169132829
100
AcDbArc
 50
0.9288041747
 51
2.8268742045
  0
ARC
  5
21D
330
1DA
100
AcDbEntity
  8
DV3_Default
  6
Continuous
 62
     7
100
AcDbCircle
 10
417.8317392468
 20
411.1057288312
 30
0.0
 40
15.27706169132829
100
AcDbArc
 50
348.2409690843
 51
356.6927988793
  0
LINE
  5
21E
330
1DA
100
AcDbEntity
  8
DV3_Default
  6
Continuous
 62
     7
100
AcDbLine
 10
433.614317199
 20
411.8591670849
 30
0.0
 11
433.090210508
 21
411.8591667451
 31
0.0
  0
ARC
  5
21F
330
1DA
100
AcDbEntity
  8
DV3_Default
  6
Continuous
 62
     7
100
AcDbCircle
 10
467.9939627081
 20
357.1698795449
 30
0.0
 40
27.41251145905026
100
AcDbArc
 50
90.0047836261
 51
94.1887787299
  0
ARC
  5
220
330
1DA
100
AcDbEntity
  8
DV3_Default
  6
Continuous
 62
     7
100
AcDbCircle
 10
467.9893853656
 20
357.169879545
 30
0.0
 40
27.412511458971
100
AcDbArc
 50
85.8112212701
 51
89.9952163739
  0
LINE
  5
221
330
1DA
100
AcDbEntity
  8
DV3_Default
  6
Continuous
 62
     7
100
AcDbLine
 10
474.4916740368
 20
411.8591667443
 30
0.0
 11
474.4916740368
 21
385.5091667443
 31
0.0
  0
LINE
  5
222
330
1DA
100
AcDbEntity
  8
DV3_Default
  6
Continuous
 62
     7
100
AcDbLine
 10
474.4916740368
 20
411.8591667443
 30
0.0
 11
474.4916740368
 21
438.2091667443
 31
0.0
  0
LINE
  5
223
330
1DA
100
AcDbEntity
  8
DV3_Default
  6
Continuous
 62
     7
100
AcDbLine
 10
469.9915745154
 20
384.5091667443
 30
0.0
 11
473.4966750367
 21
384.5091667443
 31
0.0
  0
LINE
  5
224
330
1DA
100
AcDbEntity
  8
DV3_Default
  6
Continuous
 62
     7
100
AcDbLine
 10
434.4916740368
 20
384.5091667443
 30
0.0
 11
465.9917735583
 21
384.5091667443
 31
0.0
  0
ARC
  5
225
330
1DA
100
AcDbEntity
  8
DV3_Default
  6
Continuous
 62
     7
100
AcDbCircle
 10
473.4916740368
 20
385.5091667443
 30
0.0
 40
0.9999999999999983
100
AcDbArc
 50
270.0187372216
 51
0.0
  0
LINE
  5
226
330
1DA
100
AcDbEntity
  8
DV3_Default
  6
Continuous
 62
     7
100
AcDbLine
 10
473.4966750367
 20
439.2091667443
 30
0.0
 11
434.4916740368
 21
439.2091667443
 31
0.0
  0
ARC
  5
227
330
1DA
100
AcDbEntity
  8
DV3_Default
  6
Continuous
 62
     7
100
AcDbCircle
 10
473.4916740368
 20
438.2091667443
 30
0.0
 40
1.000000000000001
100
AcDbArc
 50
0.0
 51
90.0187372216
  0
ARC
  5
228
330
1DA
100
AcDbEntity
  8
DV3_Default
  6
Continuous
 62
     7
100
AcDbCircle
 10
475.2916740368
 20
386.1599449662
 30
0.0
 40
0.800000000000002
100
AcDbArc
 50
108.5338073542
 51
180.0
  0
ARC
  5
229
330
1DA
100
AcDbEntity
  8
DV3_Default
  6
Continuous
 62
     7
100
AcDbCircle
 10
475.2916740368
 20
437.5583885224
 30
0.0
 40
0.8000000000000006
100
AcDbArc
 50
180.0
 51
251.4690389788
  0
ARC
  5
22A
330
1DA
100
AcDbEntity
  8
DV3_Default
  6
Continuous
 62
     7
100
AcDbCircle
 10
466.6916740368
 20
411.8591667443
 30
0.0
 40
26.3
100
AcDbArc
 50
288.5015441318
 51
289.5850922494
  0
ARC
  5
22B
330
1DA
100
AcDbEntity
  8
DV3_Default
  6
Continuous
 62
     7
100
AcDbCircle
 10
466.6916740368
 20
411.8591667443
 30
0.0
 40
26.3
100
AcDbArc
 50
70.4049350271
 51
71.4984669708
  0
ARC
  5
22C
330
1DA
100
AcDbEntity
  8
DV3_Default
  6
Continuous
 62
     7
100
AcDbCircle
 10
491.4004443504
 20
384.4008574446
 30
0.0
 40
0.008777591160379
100
AcDbArc
 50
252.9764343866
 51
267.1235320267
  0
ARC
  5
22D
330
1DA
100
AcDbEntity
  8
DV3_Default
  6
Continuous
 62
     7
100
AcDbCircle
 10
486.6755297285
 20
356.928493198
 30
0.0
 40
27.86701020457566
100
AcDbArc
 50
80.2435734764
 51
95.6217917193
  0
ARC
  5
22E
330
1DA
100
AcDbEntity
  8
DV3_Default
  6
Continuous
 62
     7
100
AcDbCircle
 10
356.2572224184
 20
351.7515921286
 30
0.0
 40
157.5974896394517
100
AcDbArc
 50
346.4541975412
 51
15.870304181
  0
ARC
  5
22F
330
1DA
100
AcDbEntity
  8
DV3_Default
  6
Continuous
 62
     7
100
AcDbCircle
 10
356.2572224184
 20
351.7515921286
 30
0.0
 40
157.5974896394517
100
AcDbArc
 50
347.5043075085
 51
15.870304181
  0
SPLINE
  5
230
330
1DA
100
AcDbEntity
  8
DV3_Default
  6
Continuous
 62
     7
100
AcDbSpline
210
0.0
220
0.0
230
1.0
 70
     8
 71
     3
 72
    20
 73
    16
 74
     0
 42
0.0000000003708842
 43
0.0000000001
 40
0.0
 40
0.0
 40
0.0
 40
0.0
 40
0.0365548342400947
 40
0.0739210697812476
 40
0.1119094362484902
 40
0.1509261500346859
 40
0.1979645752197988
 40
0.2558010181879469
 40
0.3424078193296883
 40
0.5334305893573449
 40
0.5961306422480985
 40
0.7020478326739725
 40
0.8481247248236196
 40
0.9848612966785244
 40
1.0
 40
1.0
 40
1.0
 40
1.0
 10
475.8099585727197
 20
411.8256053660448
 30
0.0
 10
475.8097721209141
 20
411.3101384496853
 30
0.0
 10
475.809400903667
 20
410.267762952357
 30
0.0
 10
475.8083269356851
 20
408.6951690710364
 30
0.0
 10
475.8070155816018
 20
407.0996582853291
 30
0.0
 10
475.8048693147542
 20
405.3884363496123
 30
0.0
 10
475.8026589422078
 20
403.4359671641615
 30
0.0
 10
475.7992773389434
 20
400.8994119801503
 30
0.0
 10
475.7962418367242
 20
396.6431096267318
 30
0.0
 10
475.7903054088301
 20
392.8905690795247
 30
0.0
 10
475.7867809949492
 20
389.6523058034721
 30
0.0
 10
475.7847467372104
 20
387.3805376950583
 30
0.0
 10
475.7841747730207
 20
385.5283216088497
 30
0.0
 10
475.7842574274839
 20
384.8908055733506
 30
0.0
 10
475.7843486561717
 20
384.8631616128019
 30
0.0
 10
475.7843579412607
 20
384.8632964540837
 30
0.0
  0
ARC
  5
231
330
1DA
100
AcDbEntity
  8
DV3_Default
  6
Continuous
 62
     7
100
AcDbCircle
 10
329.8719940442
 20
335.4379738207
 30
0.0
 40
187.6296974537822
100
AcDbArc
 50
18.4596138254
 51
24.0568044663
  0
ARC
  5
232
330
1DA
100
AcDbEntity
  8
DV3_Default
  6
Continuous
 62
     7
100
AcDbCircle
 10
899.5613880787
 20
599.6652372199
 30
0.0
 40
440.3806294725687
100
AcDbArc
 50
201.6200581574
 51
205.232125177
  0
SPLINE
  5
233
330
1DA
100
AcDbEntity
  8
DV3_Default
  6
Continuous
 62
     7
100
AcDbSpline
210
0.0
220
0.0
230
1.0
 70
     8
 71
     3
 72
    14
 73
    10
 74
     0
 42
0.0000000003716967
 43
0.0000000001
 40
0.0
 40
0.0
 40
0.0
 40
0.0
 40
0.2396573387270593
 40
0.5785281272010999
 40
0.6887634992346462
 40
0.7868330420211846
 40
0.8719131875371746
 40
0.9431546027835286
 40
1.0
 40
1.0
 40
1.0
 40
1.0
 10
475.8209300459847
 20
438.7292615065998
 30
0.0
 10
475.8209392194536
 20
438.5732733972185
 30
0.0
 10
475.8209164849195
 20
436.811441866742
 30
0.0
 10
475.8190240198747
 20
430.7009960611691
 30
0.0
 10
475.8158629232103
 20
424.3116454654456
 30
0.0
 10
475.81411249278
 20
420.5961566997454
 30
0.0
 10
475.8125060601124
 20
417.2281446430546
 30
0.0
 10
475.8111117329436
 20
414.344990441523
 30
0.0
 10
475.8103150320365
 20
412.6000267051811
 30
0.0
 10
475.8099585727197
 20
411.8256053660448
 30
0.0
  0
SPLINE
  5
234
330
1DA
100
AcDbEntity
  8
DV3_Default
  6
Continuous
 62
     7
100
AcDbSpline
210
0.0
220
0.0
230
1.0
 70
     8
 71
     3
 72
    52
 73
    48
 74
     0
 42
0.0000000001396412
 43
0.0000000001
 40
0.0
 40
0.0
 40
0.0
 40
0.0
 40
0.0026972189207985
 40
0.018446973685191
 40
0.0315830276659183
 40
0.0426056125373051
 40
0.0601405871792217
 40
0.0742753143744466
 40
0.0864298510243405
 40
0.0969546646817894
 40
0.1061473951343894
 40
0.1192129455285501
 40
0.1303420055419488
 40
0.1403264693173896
 40
0.1539092075464584
 40
0.1660703329070792
 40
0.1828292676050637
 40
0.1963081242627649
 40
0.2077888797237717
 40
0.2208579395319709
 40
0.2357915579073437
 40
0.2497263645923925
 40
0.2653295529034917
 40
0.283520841112973
 40
0.2996554213080685
 40
0.3187238244835485
 40
0.3416141497170172
 40
0.3693854810090134
 40
0.3879177694260316
 40
0.4087087566097391
 40
0.4320432103846735
 40
0.4582680368938706
 40
0.4879202181532767
 40
0.5216392812383278
 40
0.5601386039423929
 40
0.5941766704351606
 40
0.6320555868760417
 40
0.6742249641626128
 40
0.7211677059001972
 40
0.773400901974188
 40
0.8185113633839187
 40
0.8675114132336751
 40
0.920698413622074
 40
0.9783840076182863
 40
0.9783840076182863
 40
0.9783840076182863
 40
1.0
 40
1.0
 40
1.0
 40
1.0
 10
491.4000180731827
 20
384.3914374282398
 30
0.0
 10
491.4712778438104
 20
384.3881481001239
 30
0.0
 10
491.8892850399978
 20
384.3687840685096
 30
0.0
 10
492.6723813747432
 20
384.3246276521079
 30
0.0
 10
493.6223326203492
 20
384.263447264843
 30
0.0
 10
494.623656332025
 20
384.1863440585585
 30
0.0
 10
495.6447379567336
 20
384.0864462546834
 30
0.0
 10
496.6904463478888
 20
383.9548118799474
 30
0.0
 10
497.5655785143286
 20
383.8214986034915
 30
0.0
 10
498.3188672551327
 20
383.67958087049
 30
0.0
 10
499.0867190474743
 20
383.5006912936663
 30
0.0
 10
499.8562813856656
 20
383.2680490675819
 30
0.0
 10
500.6163065643612
 20
382.95164017807
 30
0.0
 10
501.3510670281228
 20
382.5541138174725
 30
0.0
 10
502.0589537731273
 20
382.0632201159704
 30
0.0
 10
502.8275288171944
 20
381.3871321237643
 30
0.0
 10
503.510325406244
 20
380.6261679409488
 30
0.0
 10
504.0999384213414
 20
379.8133630477739
 30
0.0
 10
504.5823835929034
 20
379.0359942077836
 30
0.0
 10
505.0334717638884
 20
378.2000548628254
 30
0.0
 10
505.4607140527087
 20
377.2861653409836
 30
0.0
 10
505.8687825875492
 20
376.2975468363769
 30
0.0
 10
506.2603263835336
 20
375.2183394942422
 30
0.0
 10
506.6074426937197
 20
374.0684689580058
 30
0.0
 10
506.9204554816582
 20
372.8231143795225
 30
0.0
 10
507.2091984203471
 20
371.456204576675
 30
0.0
 10
507.5013501315854
 20
369.805050889137
 30
0.0
 10
507.7465256399092
 20
368.1593789549297
 30
0.0
 10
507.9581883395321
 20
366.5601125579257
 30
0.0
 10
508.1396781563208
 20
365.0645439439925
 30
0.0
 10
508.3280497507533
 20
363.3835839759383
 30
0.0
 10
508.5248161631447
 20
361.4892156464971
 30
0.0
 10
508.7144125501246
 20
359.3432530430073
 30
0.0
 10
508.8805796958882
 20
356.8993751330981
 30
0.0
 10
508.9942318007757
 20
354.3468651930912
 30
0.0
 10
509.0539669080878
 20
351.6925759765357
 30
0.0
 10
509.0608609516558
 20
348.9493708878286
 30
0.0
 10
509.0075661203902
 20
345.8962917598548
 30
0.0
 10
508.8815851630961
 20
342.5001357713842
 30
0.0
 10
508.6869739781942
 20
339.0356134867741
 30
0.0
 10
508.4328136530455
 20
335.5282162449428
 30
0.0
 10
508.1278861321409
 20
331.9910977739889
 30
0.0
 10
507.746007296622
 20
328.202546884147
 30
0.0
 10
507.4466495226875
 20
325.4552474502909
 30
0.0
 10
507.2833509682256
 20
324.1467804765961
 30
0.0
 10
507.2677662020051
 20
324.0219039768647
 30
0.0
 10
507.2521126999485
 20
323.8981288292449
 30
0.0
 10
507.1571055154622
 20
323.1329123868863
 30
0.0
  0
ARC
  5
235
330
1DA
100
AcDbEntity
  8
DV3_Default
  6
Continuous
 62
     7
100
AcDbCircle
 10
450.0962006223
 20
-818.4343755441
 30
0.0
 40
1203.571055263642
100
AcDbArc
 50
88.3878198649
 51
88.7770473433
  0
SPLINE
  5
236
330
1DA
100
AcDbEntity
  8
DV3_Default
  6
Continuous
 62
     7
100
AcDbSpline
210
0.0
220
0.0
230
1.0
 70
     8
 71
     3
 72
    26
 73
    22
 74
     0
 42
0.0000000000781249
 43
0.0000000001
 40
0.0
 40
0.0
 40
0.0
 40
0.0
 40
0.0498916795236457
 40
0.1072233813259294
 40
0.1662835123851291
 40
0.2265146436253848
 40
0.2874295068058343
 40
0.3475178148885253
 40
0.4075187014660839
 40
0.4671371707389781
 40
0.5261190680292894
 40
0.579003741515757
 40
0.631041490052407
 40
0.6821119566641459
 40
0.7321107056634931
 40
0.7809510241156692
 40
0.8285598303547691
 40
0.8748767479531386
 40
0.9198573397600441
 40
0.9634662109179708
 40
1.0
 40
1.0
 40
1.0
 40
1.0
 10
512.4492197011406
 20
313.7819718022969
 30
0.0
 10
512.9465320526252
 20
316.0692895390351
 30
0.0
 10
513.8382592374924
 20
320.2218857902809
 30
0.0
 10
515.0392067695924
 20
327.3635708016436
 30
0.0
 10
515.9989286331077
 20
334.7942819686011
 30
0.0
 10
516.6713877432414
 20
342.4650423154491
 30
0.0
 10
517.0160847871653
 20
350.1865026254548
 30
0.0
 10
517.025470073881
 20
357.9099301432987
 30
0.0
 10
516.692323784054
 20
365.5699069680685
 30
0.0
 10
516.0139031092347
 20
373.1600536476098
 30
0.0
 10
515.020119333262
 20
380.4091859865133
 30
0.0
 10
513.7515267080518
 20
387.2862060739381
 30
0.0
 10
512.2515333099722
 20
393.7706270963287
 30
0.0
 10
510.4863519984971
 20
400.0603151853327
 30
0.0
 10
508.4696044442032
 20
406.1301686923611
 30
0.0
 10
506.2129507543756
 20
411.9580202584652
 30
0.0
 10
503.7333362833355
 20
417.519448953
 30
0.0
 10
501.040807335628
 20
422.8104560523425
 30
0.0
 10
498.1750714349204
 20
427.7644966215138
 30
0.0
 10
495.2039834241567
 20
432.3373802101926
 30
0.0
 10
493.2909760906694
 20
434.8738973798225
 30
0.0
 10
492.254271919169
 20
436.2388893746089
 30
0.0
  0
ARC
  5
237
330
1DA
100
AcDbEntity
  8
DV3_Default
  6
Continuous
 62
     7
100
AcDbCircle
 10
489.889796322
 20
434.4146586647
 30
0.0
 40
3.004879751260833
100
AcDbArc
 50
37.4265280966
 51
85.0666351288
  0
ARC
  5
238
330
1DA
100
AcDbEntity
  8
DV3_Default
  6
Continuous
 62
     7
100
AcDbCircle
 10
511.2212107654
 20
314.0561695593
 30
0.0
 40
1.269049800279461
100
AcDbArc
 50
204.6962340612
 51
348.0182649705
  0
ARC
  5
239
330
1DA
100
AcDbEntity
  8
DV3_Default
  6
Continuous
 62
     7
100
AcDbCircle
 10
539.4307307569
 20
327.6659923543
 30
0.0
 40
32.59042342471175
100
AcDbArc
 50
187.9953302633
 51
205.8406550814
  0
ARC
  5
23A
330
1DA
100
AcDbEntity
  8
DV3_Default
  6
Continuous
 62
     7
100
AcDbCircle
 10
838.0072826126
 20
4200.3854611454
 30
0.0
 40
3779.020085185775
100
AcDbArc
 50
264.5002642428
 51
264.7186874511
  0
LINE
  5
23B
330
1DA
100
AcDbEntity
  8
DV3_Default
  6
Continuous
 62
     7
100
AcDbLine
 10
484.0951027188
 20
384.6515813579
 30
0.0
 11
484.1910351785
 21
384.6540934378
 31
0.0
  0
LINE
  5
23C
330
1DA
100
AcDbEntity
  8
DV3_Default
  6
Continuous
 62
     7
100
AcDbLine
 10
484.4480141062
 20
384.6608226678
 30
0.0
 11
488.0929392902
 21
384.7562683928
 31
0.0
  0
LINE
  5
23D
330
1DA
100
AcDbEntity
  8
DV3_Default
  6
Continuous
 62
     7
100
AcDbLine
 10
484.1039690451
 20
384.6518136944
 30
0.0
 11
484.1845009382
 21
384.6539224962
 31
0.0
  0
LINE
  5
23E
330
1DA
100
AcDbEntity
  8
DV3_Default
  6
Continuous
 62
     7
100
AcDbLine
 10
484.4644637245
 20
384.6612535798
 30
0.0
 11
488.0929318593
 21
384.7562683618
 31
0.0
  0
ARC
  5
23F
330
1DA
100
AcDbEntity
  8
DV3_Default
  6
Continuous
 62
     7
100
AcDbCircle
 10
484.0454736167
 20
384.7008728941
 30
0.0
 40
0.0504499598369101
100
AcDbArc
 50
222.1021050734
 51
246.5160535223
  0
LINE
  5
240
330
1DA
100
AcDbEntity
  8
DV3_Default
  6
Continuous
 62
     7
100
AcDbLine
 10
475.4916740396
 20
411.8252574178
 30
0.0
 11
475.4916740368
 21
385.1629326867
 31
0.0
  0
LINE
  5
241
330
1DA
100
AcDbEntity
  8
DV3_Default
  6
Continuous
 62
     7
100
AcDbLine
 10
475.4916744462
 20
411.8255248745
 30
0.0
 11
475.4916740368
 21
438.4622604215
 31
0.0
  0
SPLINE
  5
242
330
1DA
100
AcDbEntity
  8
DV3_Default
  6
Continuous
 62
     7
100
AcDbSpline
210
0.0
220
0.0
230
1.0
 70
     8
 71
     3
 72
    16
 73
    12
 74
     0
 42
0.0000000003716096
 43
0.0000000001
 40
0.0
 40
0.0
 40
0.0
 40
0.0
 40
0.124659003964301
 40
0.2732137931829691
 40
0.4117573451327403
 40
0.5398747189288566
 40
0.6572226351359755
 40
0.7631457521532544
 40
0.856535026099623
 40
0.9359614646807043
 40
0.9999999999999999
 40
0.9999999999999999
 40
0.9999999999999999
 40
0.9999999999999999
 10
475.8208869057088
 20
438.7350940767423
 30
0.0
 10
475.820825936986
 20
438.661235715329
 30
0.0
 10
475.8205840599726
 20
438.1539564360382
 30
0.0
 10
475.8196701959459
 20
436.2633491664139
 30
0.0
 10
475.8183544121724
 20
433.2225285179896
 30
0.0
 10
475.8168567375301
 20
429.5368489740219
 30
0.0
 10
475.8153146436311
 20
425.5548091032079
 30
0.0
 10
475.8138182235674
 20
421.5893315948346
 30
0.0
 10
475.8124192977546
 20
417.8980895124907
 30
0.0
 10
475.8111695933289
 20
414.6751595949983
 30
0.0
 10
475.8103328299559
 20
412.7046943488178
 30
0.0
 10
475.8099563990068
 20
411.8251366975634
 30
0.0
  0
ARC
  5
243
330
1DA
100
AcDbEntity
  8
DV3_Default
  6
Continuous
 62
     7
100
AcDbCircle
 10
5928.9610439438
 20
393.2871362804
 30
0.0
 40
5453.182587251721
100
AcDbArc
 50
179.8052233551
 51
180.0884674928
  0
ARC
  5
244
330
1DA
100
AcDbEntity
  8
DV3_Default
  6
Continuous
 62
     7
100
AcDbCircle
 10
329.9528868093
 20
335.4698788872
 30
0.0
 40
187.5428646184037
100
AcDbArc
 50
18.4581932496
 51
24.0535222201
  0
ARC
  5
245
330
1DA
100
AcDbEntity
  8
DV3_Default
  6
Continuous
 62
     7
100
AcDbCircle
 10
357.2511703449
 20
351.7808565958
 30
0.0
 40
156.6336146882771
100
AcDbArc
 50
347.4151895859
 51
15.9594326049
  0
ARC
  5
246
330
1DA
100
AcDbEntity
  8
DV3_Default
  6
Continuous
 62
     7
100
AcDbCircle
 10
486.6716692321
 20
356.8214282363
 30
0.0
 40
27.97318456631576
100
AcDbArc
 50
80.2729421512
 51
95.5874513617
  0
LINE
  5
247
330
1DA
100
AcDbEntity
  8
DV3_Default
  6
Continuous
 62
     7
100
AcDbLine
 10
491.3978746526
 20
384.3924644356
 30
0.0
 11
491.400003648
 21
384.3920864936
 31
0.0
  0
ARC
  5
248
330
1DA
100
AcDbEntity
  8
DV3_Default
  6
Continuous
 62
     7
100
AcDbCircle
 10
863.9225960277
 20
584.2286916736
 30
0.0
 40
401.5634689519621
100
AcDbArc
 50
201.446043749
 51
205.4074439501
  0
ARC
  5
249
330
1DA
100
AcDbEntity
  8
DV3_Default
  6
Continuous
 62
     7
100
AcDbCircle
 10
863.9225960277
 20
584.2286916736
 30
0.0
 40
401.5634689519621
100
AcDbArc
 50
205.3972233899
 51
205.4074439501
  0
SPLINE
  5
24A
330
1DA
100
AcDbEntity
  8
DV3_Default
  6
Continuous
 62
     7
100
AcDbSpline
210
0.0
220
0.0
230
1.0
 70
     8
 71
     3
 72
    11
 73
     7
 74
     0
 42
0.0000000392618332
 43
0.0000000001
 40
0.0
 40
0.0
 40
0.0
 40
0.0
 40
0.26455692834966
 40
0.5228761952665603
 40
0.7693882545044132
 40
1.0
 40
1.0
 40
1.0
 40
1.0
 10
475.8241245248948
 20
438.7606754358364
 30
0.0
 10
475.7996150931146
 20
438.7619629690498
 30
0.0
 10
475.7583743946304
 20
438.7634334089386
 30
0.0
 10
475.6937040521207
 20
438.7483309022375
 30
0.0
 10
475.6361006677482
 20
438.7216954070595
 30
0.0
 10
475.606676488552
 20
438.6982506803723
 30
0.0
 10
475.5901474856298
 20
438.6846676240579
 30
0.0
  0
SPLINE
  5
24B
330
1DA
100
AcDbEntity
  8
DV3_Default
  6
Continuous
 62
     7
100
AcDbSpline
210
0.0
220
0.0
230
1.0
 70
     8
 71
     3
 72
    11
 73
     7
 74
     0
 42
0.0000000392622202
 43
0.0000000001
 40
0.0
 40
0.0
 40
0.0
 40
0.0
 40
0.2645588150974839
 40
0.5228785466840379
 40
0.7693898683952951
 40
1.0
 40
1.0
 40
1.0
 40
1.0
 10
475.4916912970712
 20
438.4592176068036
 30
0.0
 10
475.4927995164005
 20
438.4837357369224
 30
0.0
 10
475.4953569518906
 20
438.5249230985431
 30
0.0
 10
475.5166924874747
 20
438.5878124051279
 30
0.0
 10
475.5488167105046
 20
438.6425438699947
 30
0.0
 10
475.5750179609539
 20
438.6695418340267
 30
0.0
 10
475.5901474856298
 20
438.6846676240579
 30
0.0
  0
ARC
  5
24C
330
1DA
100
AcDbEntity
  8
DV3_Default
  6
Continuous
 62
     7
100
AcDbCircle
 10
475.7916740308
 20
385.1629358582
 30
0.0
 40
0.3000000978606894
100
AcDbArc
 50
226.7347506154
 51
263.4074265601
  0
SPLINE
  5
24D
330
1DA
100
AcDbEntity
  8
DV3_Default
  6
Continuous
 62
     7
100
AcDbSpline
210
0.0
220
0.0
230
1.0
 70
     8
 71
     3
 72
    50
 73
    46
 74
     0
 42
0.0000000001415219
 43
0.0000000001
 40
0.0
 40
0.0
 40
0.0
 40
0.0
 40
0.0027543999054028
 40
0.0188361563337925
 40
0.0322491156914735
 40
0.0435040544358949
 40
0.0614086628179148
 40
0.0758413472206752
 40
0.0882520990595196
 40
0.0989987736728884
 40
0.1083852850352611
 40
0.1217262546049452
 40
0.1330899129659658
 40
0.1432848472304492
 40
0.1571539068506231
 40
0.1695713862888915
 40
0.1866835959609815
 40
0.2004465842071476
 40
0.2121693516851045
 40
0.2255139046465693
 40
0.2407623206949408
 40
0.2549908703033637
 40
0.2709229706870916
 40
0.2894977275947309
 40
0.3059724214965349
 40
0.3254427827773148
 40
0.3488156314646811
 40
0.3771723768369787
 40
0.3960953221679724
 40
0.4173245791815536
 40
0.4411509185507489
 40
0.4679285591303456
 40
0.4982058024092276
 40
0.5326356565650057
 40
0.5719465372515117
 40
0.6067021193427066
 40
0.6453795157267312
 40
0.6884378150084894
 40
0.7363701003042198
 40
0.7897043616501395
 40
0.8357657425170785
 40
0.8857987035663709
 40
0.9401068752298871
 40
0.9990084699500421
 40
1.0
 40
1.0
 40
1.0
 40
1.0
 10
491.3999951996344
 20
384.3914384980459
 30
0.0
 10
491.4712633576687
 20
384.388148787144
 30
0.0
 10
491.8892774521184
 20
384.3687844534851
 30
0.0
 10
492.6723812777284
 20
384.324627672253
 30
0.0
 10
493.6223326397252
 20
384.2634472608196
 30
0.0
 10
494.6236563239145
 20
384.1863440602426
 30
0.0
 10
495.6447379587824
 20
384.0864462542579
 30
0.0
 10
496.6904463474659
 20
383.9548118800352
 30
0.0
 10
497.5655785144193
 20
383.8214986034727
 30
0.0
 10
498.3188672551132
 20
383.679580870494
 30
0.0
 10
499.0867190474816
 20
383.5006912936648
 30
0.0
 10
499.8562813856639
 20
383.2680490675822
 30
0.0
 10
500.6163065643614
 20
382.95164017807
 30
0.0
 10
501.3510670281226
 20
382.5541138174725
 30
0.0
 10
502.0589537731274
 20
382.0632201159704
 30
0.0
 10
502.8275288171943
 20
381.3871321237643
 30
0.0
 10
503.5103254062441
 20
380.6261679409488
 30
0.0
 10
504.0999384213413
 20
379.8133630477739
 30
0.0
 10
504.5823835929035
 20
379.0359942077836
 30
0.0
 10
505.0334717638883
 20
378.2000548628254
 30
0.0
 10
505.4607140527089
 20
377.2861653409836
 30
0.0
 10
505.8687825875493
 20
376.2975468363769
 30
0.0
 10
506.2603263835336
 20
375.2183394942422
 30
0.0
 10
506.6074426937196
 20
374.0684689580057
 30
0.0
 10
506.9204554816582
 20
372.8231143795225
 30
0.0
 10
507.2091984203473
 20
371.456204576675
 30
0.0
 10
507.5013501315851
 20
369.805050889137
 30
0.0
 10
507.7465256399093
 20
368.1593789549295
 30
0.0
 10
507.958188339532
 20
366.5601125579257
 30
0.0
 10
508.1396781563208
 20
365.0645439439925
 30
0.0
 10
508.3280497507533
 20
363.3835839759382
 30
0.0
 10
508.5248161631447
 20
361.4892156464972
 30
0.0
 10
508.7144125501247
 20
359.3432530430073
 30
0.0
 10
508.8805796958881
 20
356.8993751330982
 30
0.0
 10
508.9942318007758
 20
354.3468651930911
 30
0.0
 10
509.0539669080875
 20
351.6925759765357
 30
0.0
 10
509.0608609516559
 20
348.9493708878286
 30
0.0
 10
509.0075661203901
 20
345.8962917598548
 30
0.0
 10
508.8815851630962
 20
342.5001357713842
 30
0.0
 10
508.6869739781941
 20
339.0356134867741
 30
0.0
 10
508.4328136530456
 20
335.5282162449428
 30
0.0
 10
508.1278861321409
 20
331.9910977739888
 30
0.0
 10
507.7460072966221
 20
328.202546884147
 30
0.0
 10
507.4440276443987
 20
325.4311856574624
 30
0.0
 10
507.2778510015596
 20
324.1027621370289
 30
0.0
 10
507.2746627262546
 20
324.0772783459223
 30
0.0
  0
ARC
  5
24E
330
1DA
100
AcDbEntity
  8
DV3_Default
  6
Continuous
 62
     7
100
AcDbCircle
 10
450.0992153873
 20
-818.3181456953
 30
0.0
 40
1203.454786591239
100
AcDbArc
 50
88.3878060914
 51
88.7770291177
  0
LINE
  5
24F
330
1DA
100
AcDbEntity
  8
DV3_Default
  6
Continuous
 62
     7
100
AcDbLine
 10
484.2963655357
 20
384.6970874251
 30
0.0
 11
484.4896728134
 21
384.7079938035
 31
0.0
  0
ARC
  5
250
330
1DA
100
AcDbEntity
  8
DV3_Default
  6
Continuous
 62
     7
100
AcDbCircle
 10
837.621508394
 20
4196.2899399058
 30
0.0
 40
3774.906439094712
100
AcDbArc
 50
264.5001273245
 51
264.7187967055
  0
ARC
  5
251
330
1DA
100
AcDbEntity
  8
DV3_Default
  6
Continuous
 62
     7
100
AcDbCircle
 10
511.2212107654
 20
314.0561695593
 30
0.0
 40
1.269049800250273
100
AcDbArc
 50
204.696234059
 51
348.0182649712
  0
SPLINE
  5
252
330
1DA
100
AcDbEntity
  8
DV3_Default
  6
Continuous
 62
     7
100
AcDbSpline
210
0.0
220
0.0
230
1.0
 70
     8
 71
     3
 72
    26
 73
    22
 74
     0
 42
0.0000000000781249
 43
0.0000000001
 40
0.0
 40
0.0
 40
0.0
 40
0.0
 40
0.0498916795236458
 40
0.1072233813259297
 40
0.1662835123851293
 40
0.2265146436253849
 40
0.2874295068058345
 40
0.3475178148885254
 40
0.4075187014660841
 40
0.4671371707389783
 40
0.5261190680292896
 40
0.5790037415157571
 40
0.6310414900524071
 40
0.6821119566641459
 40
0.7321107056634932
 40
0.7809510241156693
 40
0.8285598303547692
 40
0.8748767479531386
 40
0.9198573397600441
 40
0.963466210917971
 40
1.0
 40
1.0
 40
1.0
 40
1.0
 10
512.4492197011406
 20
313.7819718022969
 30
0.0
 10
512.9465320526252
 20
316.069289539035
 30
0.0
 10
513.8382592374925
 20
320.2218857902809
 30
0.0
 10
515.0392067695922
 20
327.3635708016436
 30
0.0
 10
515.9989286331077
 20
334.7942819686011
 30
0.0
 10
516.6713877432413
 20
342.4650423154492
 30
0.0
 10
517.0160847871653
 20
350.1865026254548
 30
0.0
 10
517.0254700738809
 20
357.9099301432987
 30
0.0
 10
516.692323784054
 20
365.5699069680685
 30
0.0
 10
516.0139031092344
 20
373.1600536476098
 30
0.0
 10
515.0201193332622
 20
380.4091859865133
 30
0.0
 10
513.7515267080515
 20
387.2862060739381
 30
0.0
 10
512.2515333099723
 20
393.7706270963287
 30
0.0
 10
510.4863519984971
 20
400.0603151853327
 30
0.0
 10
508.4696044442032
 20
406.1301686923611
 30
0.0
 10
506.2129507543755
 20
411.9580202584652
 30
0.0
 10
503.7333362833356
 20
417.519448953
 30
0.0
 10
501.040807335628
 20
422.8104560523425
 30
0.0
 10
498.1750714349204
 20
427.7644966215138
 30
0.0
 10
495.2039834241567
 20
432.3373802101926
 30
0.0
 10
493.2909760906694
 20
434.8738973798224
 30
0.0
 10
492.254271919169
 20
436.2388893746088
 30
0.0
  0
ARC
  5
253
330
1DA
100
AcDbEntity
  8
DV3_Default
  6
Continuous
 62
     7
100
AcDbCircle
 10
489.8897962524
 20
434.4146585613
 30
0.0
 40
3.004879872218031
100
AcDbArc
 50
37.4265323596
 51
85.0661086903
  0
ARC
  5
254
330
1DA
100
AcDbEntity
  8
DV3_Default
  6
Continuous
 62
     7
100
AcDbCircle
 10
539.4309182558
 20
327.6660618807
 30
0.0
 40
32.59062246309335
100
AcDbArc
 50
191.1214216451
 51
205.8406173331
  0
LINE
  5
255
330
1DA
100
AcDbEntity
  8
DV3_Default
  6
Continuous
 62
     7
100
AcDbLine
 10
432.8524984441
 20
409.275956284
 30
0.0
 11
432.8652347634
 21
409.2704978615
 31
0.0
  0
ARC
  5
256
330
1DA
100
AcDbEntity
  8
DV3_Default
  6
Continuous
 62
     7
100
AcDbCircle
 10
424.1526740368
 20
411.8591667443
 30
0.0
 40
9.075236691128012
100
AcDbArc
 50
343.4624380488
 51
353.0816451518
  0
SPLINE
  5
257
330
1DA
100
AcDbEntity
  8
DV3_Default
  6
Continuous
 62
     7
100
AcDbSpline
210
0.0
220
0.0
230
1.0
 70
     8
 71
     3
 72
    17
 73
    13
 74
     0
 42
0.0000000165495686
 43
0.0000000001
 40
0.0
 40
0.0
 40
0.0
 40
0.0
 40
0.0646466786025594
 40
0.1269313957626733
 40
0.187669764565528
 40
0.2935251038888478
 40
0.3972068432443634
 40
0.5299869806672487
 40
0.6625164737922197
 40
0.7714384385905908
 40
0.8819439983051242
 40
1.0
 40
1.0
 40
1.0
 40
1.0
 10
433.1618321585643
 20
410.7660103338633
 30
0.0
 10
433.1641834780978
 20
410.7859752567258
 30
0.0
 10
433.1688002082497
 20
410.8251756546426
 30
0.0
 10
433.1746694969028
 20
410.8826533995042
 30
0.0
 10
433.1808945510057
 20
410.9513768838446
 30
0.0
 10
433.1866368526215
 20
411.0298125445198
 30
0.0
 10
433.1909392559284
 20
411.1206857091658
 30
0.0
 10
433.1922648590341
 20
411.2082092605742
 30
0.0
 10
433.1890640582262
 20
411.2762798755232
 30
0.0
 10
433.1828695548436
 20
411.3242822462147
 30
0.0
 10
433.1741595037264
 20
411.3537433397741
 30
0.0
 10
433.1660307833201
 20
411.3573195630759
 30
0.0
 10
433.1618321585643
 20
411.3591667442973
 30
0.0
  0
LINE
  5
258
330
1DA
100
AcDbEntity
  8
DV3_Default
  6
Continuous
 62
     7
100
AcDbLine
 10
433.1618321586
 20
411.3591667443
 30
0.0
 11
432.8524984441
 21
411.3591667443
 31
0.0
  0
ARC
  5
259
330
1DA
100
AcDbEntity
  8
DV3_Default
  6
Continuous
 62
     7
100
AcDbCircle
 10
423.0455838396
 20
411.8591667443
 30
0.0
 40
9.819652440956782
100
AcDbArc
 50
357.0813342431
 51
2.9186657569
  0
LINE
  5
25A
330
1DA
100
AcDbEntity
  8
DV3_Default
  6
Continuous
 62
     7
100
AcDbLine
 10
432.8524984441
 20
412.3591667443
 30
0.0
 11
433.1618321586
 21
412.3591667443
 31
0.0
  0
SPLINE
  5
25B
330
1DA
100
AcDbEntity
  8
DV3_Default
  6
Continuous
 62
     7
100
AcDbSpline
210
0.0
220
0.0
230
1.0
 70
     8
 71
     3
 72
    16
 73
    12
 74
     0
 42
0.000000016564332
 43
0.0000000001
 40
0.0
 40
0.0
 40
0.0
 40
0.0
 40
0.0812141162704802
 40
0.1588165977555346
 40
0.2345000958967282
 40
0.3747716904880319
 40
0.514402302252657
 40
0.6406770180792534
 40
0.769530352709357
 40
0.8816913955114771
 40
1.0
 40
1.0
 40
1.0
 40
1.0
 10
433.1618321585643
 20
412.3591667442973
 30
0.0
 10
433.1647637888868
 20
412.3600822447113
 30
0.0
 10
433.1704966783786
 20
412.3618725327508
 30
0.0
 10
433.177437871348
 20
412.3761233338007
 30
0.0
 10
433.1845716344511
 20
412.4041751134185
 30
0.0
 10
433.1904427274637
 20
412.4545346631448
 30
0.0
 10
433.1921471534721
 20
412.537680556647
 30
0.0
 10
433.1897924322606
 20
412.6337117753899
 30
0.0
 10
433.1834022769956
 20
412.7370260383532
 30
0.0
 10
433.1742236321597
 20
412.8444295259591
 30
0.0
 10
433.1660354537556
 20
412.9157247011634
 30
0.0
 10
433.1618321585643
 20
412.9523231547313
 30
0.0
  0
ARC
  5
25C
330
1DA
100
AcDbEntity
  8
DV3_Default
  6
Continuous
 62
     7
100
AcDbCircle
 10
424.1526740368
 20
411.8591667443
 30
0.0
 40
9.075236691127985
100
AcDbArc
 50
6.9183548482
 51
16.5375619512
  0
LINE
  5
25D
330
1DA
100
AcDbEntity
  8
DV3_Default
  6
Continuous
 62
     7
100
AcDbLine
 10
432.8524984441
 20
414.4423772046
 30
0.0
 11
432.8652347634
 21
414.4478356271
 31
0.0
  0
ARC
  5
25E
330
1DA
100
AcDbEntity
  8
DV3_Default
  6
Continuous
 62
     7
100
AcDbCircle
 10
424.1526740368
 20
411.8591667443
 30
0.0
 40
9.088999999998226
100
AcDbArc
 50
16.5476942119
 51
18.9079782022
  0
ARC
  5
25F
330
1DA
100
AcDbEntity
  8
DV3_Default
  6
Continuous
 62
     7
100
AcDbCircle
 10
424.1526740368
 20
411.8591667443
 30
0.0
 40
9.089
100
AcDbArc
 50
341.6597858175
 51
343.4523057881
  0
LINE
  5
260
330
1DA
100
AcDbEntity
  8
DV3_Default
  6
Continuous
 62
     7
100
AcDbLine
 10
419.4543921653
 20
499.739834104
 30
0.0
 11
419.4543921653
 21
323.9784993846
 31
0.0
  0
LINE
  5
261
330
1DA
100
AcDbEntity
  8
DV3_Default
  6
Continuous
 62
     7
100
AcDbLine
 10
419.3249066017
 20
500.1916001849
 30
0.0
 11
419.3249066017
 21
323.5267333037
 31
0.0
  0
SPLINE
  5
262
330
1DA
100
AcDbEntity
  8
DV3_Default
  6
Continuous
 62
     7
100
AcDbSpline
210
0.0
220
0.0
230
1.0
 70
     8
 71
     3
 72
    22
 73
    18
 74
     0
 42
0.0000000000602492
 43
0.0000000001
 40
0.0
 40
0.0
 40
0.0
 40
0.0
 40
0.1185102987406651
 40
0.1185102987406651
 40
0.248404122584895
 40
0.248404122584895
 40
0.3782979464291249
 40
0.3782979464291249
 40
0.5081917702733548
 40
0.5081917702733548
 40
0.6380855941175848
 40
0.6380855941175848
 40
0.7679794179618146
 40
0.7679794179618146
 40
0.8978732418060444
 40
0.8978732418060444
 40
1.0
 40
1.0
 40
1.0
 40
1.0
 10
424.2269392925646
 20
494.9705550163263
 30
0.0
 10
424.2269395335047
 20
494.625570654618
 30
0.0
 10
424.2269395335047
 20
492.4907748180656
 30
0.0
 10
424.2269395335047
 20
484.5242470918886
 30
0.0
 10
424.2269395335047
 20
478.3603804604004
 30
0.0
 10
424.2269395335047
 20
462.9655783106687
 30
0.0
 10
424.2269395335047
 20
453.740699989682
 30
0.0
 10
424.2269395335047
 20
433.6264216492432
 30
0.0
 10
424.2269395335047
 20
422.744935739398
 30
0.0
 10
424.2269395335047
 20
400.9733977491967
 30
0.0
 10
424.2269395335047
 20
390.0919118393516
 30
0.0
 10
424.2269395335047
 20
369.9776334989128
 30
0.0
 10
424.2269395335047
 20
360.752755177926
 30
0.0
 10
424.2269395335047
 20
345.3579530281943
 30
0.0
 10
424.2269395335047
 20
339.1940863967061
 30
0.0
 10
424.2269395335047
 20
331.7529925025448
 30
0.0
 10
424.2269395335047
 20
329.7148545908741
 30
0.0
 10
424.2268916780373
 20
328.9932788535625
 30
0.0
  0
ARC
  5
263
330
1DA
100
AcDbEntity
  8
DV3_Default
  6
Continuous
 62
     7
100
AcDbCircle
 10
135.5344103565
 20
414.6399447671
 30
0.0
 40
300.0907802790757
100
AcDbArc
 50
4.9815218982
 51
5.2111905036
  0
ARC
  5
264
330
1DA
100
AcDbEntity
  8
DV3_Default
  6
Continuous
 62
     7
100
AcDbCircle
 10
135.5344103565
 20
414.6399447671
 30
0.0
 40
300.0907802790757
100
AcDbArc
 50
4.9815218663
 51
15.4030634944
  0
ARC
  5
265
330
1DA
100
AcDbEntity
  8
DV3_Default
  6
Continuous
 62
     7
100
AcDbCircle
 10
135.5344103565
 20
409.0783887215
 30
0.0
 40
300.0907802790771
100
AcDbArc
 50
345.2183548474
 51
355.0184780699
  0
ARC
  5
266
330
1DA
100
AcDbEntity
  8
DV3_Default
  6
Continuous
 62
     7
100
AcDbCircle
 10
135.5344103565
 20
409.0783887215
 30
0.0
 40
300.0907802790771
100
AcDbArc
 50
344.5968740382
 51
350.8748755985
  0
LINE
  5
267
330
1DA
100
AcDbEntity
  8
DV3_Default
  6
Continuous
 62
     7
100
AcDbLine
 10
434.4916740223
 20
383.0201671798
 30
0.0
 11
434.4916740513
 21
440.6981663088
 31
0.0
  0
ARC
  5
268
330
1DA
100
AcDbEntity
  8
DV3_Default
  6
Continuous
 62
     7
100
AcDbCircle
 10
396.7325831532
 20
410.8920960707
 30
0.0
 40
37.28201368145955
100
AcDbArc
 50
357.7429481277
 51
358.1478895831
  0
SPLINE
  5
269
330
1DA
100
AcDbEntity
  8
DV3_Default
  6
Continuous
 62
     7
100
AcDbSpline
210
0.0
220
0.0
230
1.0
 70
     8
 71
     3
 72
    26
 73
    22
 74
     0
 42
0.0000000013267389
 43
0.0000000001
 40
0.0
 40
0.0
 40
0.0
 40
0.0
 40
0.0354872345513431
 40
0.0703569810171164
 40
0.139361213082258
 40
0.1924252264316393
 40
0.2456434969742253
 40
0.2756916807668034
 40
0.3043732825093918
 40
0.3634595260620226
 40
0.3955178446538877
 40
0.4270512457786086
 40
0.487009950471664
 40
0.5496015362963953
 40
0.6145976411256883
 40
0.6786719934761076
 40
0.7426478312216946
 40
0.7947328602470414
 40
0.8730967512919676
 40
0.9371379473374618
 40
1.0
 40
1.0
 40
1.0
 40
1.0
 10
433.7387756948843
 20
406.3654794854323
 30
0.0
 10
433.7219404789722
 20
406.288704617239
 30
0.0
 10
433.6884683767879
 20
406.1364923953162
 30
0.0
 10
433.6190919296469
 20
405.8820494638179
 30
0.0
 10
433.5373864706836
 20
405.6673340787029
 30
0.0
 10
433.443139718268
 20
405.5234309673131
 30
0.0
 10
433.3686536064516
 20
405.480675237763
 30
0.0
 10
433.3073375679602
 20
405.4871789337655
 30
0.0
 10
433.2427753140425
 20
405.5216997725857
 30
0.0
 10
433.1778811374837
 20
405.615578863777
 30
0.0
 10
433.1127613982003
 20
405.7584391879048
 30
0.0
 10
433.0480166439139
 20
405.9314423211009
 30
0.0
 10
432.9703900375561
 20
406.216573015594
 30
0.0
 10
432.8816351698694
 20
406.6556902079024
 30
0.0
 10
432.7992368240328
 20
407.2018870861423
 30
0.0
 10
432.7255448752247
 20
407.8351190226751
 30
0.0
 10
432.6674168637796
 20
408.4977752349743
 30
0.0
 10
432.6160065431467
 20
409.2693356009995
 30
0.0
 10
432.5785436443301
 20
410.0944397573409
 30
0.0
 10
432.5539218648045
 20
411.0015324589394
 30
0.0
 10
432.5513637089167
 20
411.5736296817026
 30
0.0
 10
432.5499664806542
 20
411.857020424048
 30
0.0
  0
SPLINE
  5
26A
330
1DA
100
AcDbEntity
  8
DV3_Default
  6
Continuous
 62
     7
100
AcDbSpline
210
0.0
220
0.0
230
1.0
 70
     8
 71
     3
 72
    23
 73
    19
 74
     0
 42
0.000000001325751
 43
0.0000000001
 40
0.0
 40
0.0
 40
0.0
 40
0.0
 40
0.055320567110571
 40
0.1128383314661638
 40
0.173065718566025
 40
0.2370063737153616
 40
0.2896472433657304
 40
0.3270930199174649
 40
0.3633143677975782
 40
0.4250380602537118
 40
0.4882171492791256
 40
0.5522168529738339
 40
0.6167642792939257
 40
0.745003687346651
 40
0.8085847443613439
 40
0.8721974355728334
 40
0.9358406300598626
 40
1.0
 40
1.0
 40
1.0
 40
1.0
 10
433.7387756950343
 20
417.3528540019443
 30
0.0
 10
433.7122894054764
 20
417.4719216322302
 30
0.0
 10
433.6583621892842
 20
417.7147876233817
 30
0.0
 10
433.5693226472077
 20
417.9749465735389
 30
0.0
 10
433.4727307696626
 20
418.1640045925069
 30
0.0
 10
433.3763033754159
 20
418.2405246235376
 30
0.0
 10
433.2918816782007
 20
418.2260456520927
 30
0.0
 10
433.2228726390675
 20
418.1656234949464
 30
0.0
 10
433.1498719369205
 20
418.0494892754826
 30
0.0
 10
433.0647182398503
 20
417.8423383894669
 30
0.0
 10
432.9691389649824
 20
417.4986628898101
 30
0.0
 10
432.8787520539105
 20
417.0448228534391
 30
0.0
 10
432.7684561717273
 20
416.3128078498506
 30
0.0
 10
432.6776693345184
 20
415.4034519564049
 30
0.0
 10
432.6121630944114
 20
414.3803532533914
 30
0.0
 10
432.5767055830306
 20
413.5682927179591
 30
0.0
 10
432.5541107409424
 20
412.722028194158
 30
0.0
 10
432.5512650420208
 20
412.146131668
 30
0.0
 10
432.5499664806542
 20
411.857020424048
 30
0.0
  0
ARC
  5
26B
330
1DA
100
AcDbEntity
  8
DV3_Default
  6
Continuous
 62
     7
100
AcDbCircle
 10
397.1280956429
 20
412.8540970482
 30
0.0
 40
36.88605031730154
100
AcDbArc
 50
2.6556139094
 51
7.0054433899
  0
LINE
  5
26C
330
1DA
100
AcDbEntity
  8
DV3_Default
  6
Continuous
 62
     7
100
AcDbLine
 10
416.7044900894
 20
502.8591740019
 30
0.0
 11
416.7044900894
 21
320.8962549567
 31
0.0
  0
ARC
  5
26D
330
1DA
100
AcDbEntity
  8
DV3_Default
  6
Continuous
 62
     7
100
AcDbCircle
 10
415.9635609853
 20
324.7362349234
 30
0.0
 40
3.910808366769783
100
AcDbArc
 50
290.7331048196
 51
304.9603328895
  0
SPLINE
  5
26E
330
1DA
100
AcDbEntity
  8
DV3_Default
  6
Continuous
 62
     7
100
AcDbSpline
210
0.0
220
0.0
230
1.0
 70
    12
 71
     3
 72
     8
 73
     4
 74
     0
 42
0.0000000041617684
 43
0.0000000001
 40
0.0
 40
0.0
 40
0.0
 40
0.0
 40
1.0
 40
1.0
 40
1.0
 40
1.0
 10
419.3249062370433
 20
323.5267333627123
 30
0.0
 41
1.0
 10
419.1855884685784
 20
322.6658992698189
 30
0.0
 41
1.0
 10
418.8121166508219
 20
322.0007001258086
 30
0.0
 41
1.0
 10
418.2044900893543
 20
321.5311360431073
 30
0.0
 41
1.0
  0
SPLINE
  5
26F
330
1DA
100
AcDbEntity
  8
DV3_Default
  6
Continuous
 62
     7
100
AcDbSpline
210
0.0
220
0.0
230
1.0
 70
    12
 71
     3
 72
     8
 73
     4
 74
     0
 42
0.0000000023539544
 43
0.0000000001
 40
0.0
 40
0.0
 40
0.0
 40
0.0
 40
1.0
 40
1.0
 40
1.0
 40
1.0
 10
419.3249066016842
 20
500.1916001848973
 30
0.0
 41
1.0
 10
419.0940776539278
 20
501.6178749023574
 30
0.0
 41
1.0
 10
418.220457749636
 20
502.5071004913389
 30
0.0
 41
1.0
 10
416.7040599609792
 20
502.8593332383273
 30
0.0
 41
1.0
  0
SPLINE
  5
270
330
1DA
100
AcDbEntity
  8
DV3_Default
  6
Continuous
 62
     7
100
AcDbSpline
210
0.0
220
0.0
230
1.0
 70
    12
 71
     3
 72
     8
 73
     4
 74
     0
 42
0.0000000861665594
 43
0.0000000001
 40
0.0
 40
0.0
 40
0.0
 40
0.0
 40
1.0
 40
1.0
 40
1.0
 40
1.0
 10
433.9264029402384
 20
409.8118874041126
 30
0.0
 41
1.003655561978227
 10
433.9540883652939
 20
409.7795519736287
 30
0.0
 41
1.007248538940762
 10
433.974169962412
 20
409.7468441570898
 30
0.0
 41
1.013490113478145
 10
433.9866311501715
 20
409.7140248838427
 30
0.0
 41
1.022380285590376
  0
SPLINE
  5
271
330
1DA
100
AcDbEntity
  8
DV3_Default
  6
Continuous
 62
     7
100
AcDbSpline
210
0.0
220
0.0
230
1.0
 70
     8
 71
     3
 72
    28
 73
    24
 74
     0
 42
0.0000000010747354
 43
0.0000000001
 40
0.0
 40
0.0
 40
0.0
 40
0.0
 40
0.0347954549836524
 40
0.065694044913521
 40
0.1311501625039669
 40
0.1969266989062951
 40
0.262499157223822
 40
0.3949644099060355
 40
0.462406738924951
 40
0.530256195035399
 40
0.5642349155281222
 40
0.597986970683616
 40
0.6321267899545827
 40
0.6669297852032294
 40
0.7014617709256233
 40
0.7183646986188775
 40
0.7349856354233512
 40
0.7673047956826082
 40
0.7986813550591106
 40
0.8485922767617659
 40
0.8978977782408847
 40
0.9697497446253691
 40
1.0
 40
1.0
 40
1.0
 40
1.0
 10
432.5852175970943
 20
411.8591664120629
 30
0.0
 10
432.585806073699
 20
411.6765561675804
 30
0.0
 10
432.5869822950278
 20
411.3317868392746
 30
0.0
 10
432.5989857154431
 20
410.6494258659077
 30
0.0
 10
432.626947859662
 20
409.8247777429764
 30
0.0
 10
432.6821487073349
 20
408.8873336612355
 30
0.0
 10
432.7821418683792
 20
407.7567078492423
 30
0.0
 10
432.9186192223395
 20
406.8540623586517
 30
0.0
 10
433.0769417186491
 20
406.2760861398601
 30
0.0
 10
433.1834057877043
 20
406.0600590123143
 30
0.0
 10
433.2700921637617
 20
405.979150508958
 30
0.0
 10
433.3355576631806
 20
405.9649478062097
 30
0.0
 10
433.4013796497035
 20
406.0003465687269
 30
0.0
 10
433.4669491840215
 20
406.0832142407169
 30
0.0
 10
433.5205594406507
 20
406.191029155555
 30
0.0
 10
433.5619618174449
 20
406.3001454774503
 30
0.0
 10
433.6013866499969
 20
406.4200657381064
 30
0.0
 10
433.6482660725031
 20
406.5908477655227
 30
0.0
 10
433.7117806506952
 20
406.8771495672824
 30
0.0
 10
433.7800634281174
 20
407.2706620509029
 30
0.0
 10
433.8605244083075
 20
407.8761370584228
 30
0.0
 10
433.9203242986621
 20
408.5033605441019
 30
0.0
 10
433.9534042419152
 20
408.9644955250193
 30
0.0
 10
433.9624172272375
 20
409.1044698892031
 30
0.0
  0
SPLINE
  5
272
330
1DA
100
AcDbEntity
  8
DV3_Default
  6
Continuous
 62
     7
100
AcDbSpline
210
0.0
220
0.0
230
1.0
 70
     8
 71
     3
 72
    28
 73
    24
 74
     0
 42
0.0000000010772233
 43
0.0000000001
 40
0.0
 40
0.0
 40
0.0
 40
0.0
 40
0.0255684780067296
 40
0.059437898173875
 40
0.0934292689982214
 40
0.1621622068974488
 40
0.2309166955736877
 40
0.2848429297623265
 40
0.3131482559731795
 40
0.3420681463606377
 40
0.3709655093653369
 40
0.3995615497635325
 40
0.4282229356269928
 40
0.4572360429555016
 40
0.4913389142121012
 40
0.5254974368772201
 40
0.5941647617936276
 40
0.7303068482377533
 40
0.7977808160672832
 40
0.8653670538001295
 40
0.9326090279978
 40
0.9643868411971219
 40
1.0
 40
1.0
 40
1.0
 40
1.0
 10
433.9612611348819
 20
414.6312755365481
 30
0.0
 10
433.953624830605
 20
414.7493091441745
 30
0.0
 10
433.9345236722996
 20
415.0179366421331
 30
0.0
 10
433.900640672916
 20
415.4192903789437
 30
0.0
 10
433.8448778878671
 20
415.966924315273
 30
0.0
 10
433.7637640867748
 20
416.5726811270203
 30
0.0
 10
433.6596486057308
 20
417.1012130181878
 30
0.0
 10
433.5704591227155
 20
417.4047009656634
 30
0.0
 10
433.5023091881193
 20
417.5673430398498
 30
0.0
 10
433.448443556398
 20
417.660765075537
 30
0.0
 10
433.3936173887606
 20
417.7226930462638
 30
0.0
 10
433.3384797725925
 20
417.7504079973777
 30
0.0
 10
433.2831336069905
 20
417.7434337074752
 30
0.0
 10
433.2244154202297
 20
417.7003173462816
 30
0.0
 10
433.1627024970414
 20
417.6140971189386
 30
0.0
 10
433.0774282270581
 20
417.4298609720634
 30
0.0
 10
432.9344905805097
 20
416.9482580608089
 30
0.0
 10
432.792029592292
 20
416.0483807312252
 30
0.0
 10
432.6870751328803
 20
414.900783733118
 30
0.0
 10
432.6290539015264
 20
413.9433191119911
 30
0.0
 10
432.5996487255347
 20
413.0983313796136
 30
0.0
 10
432.5870663611298
 20
412.3990471991468
 30
0.0
 10
432.5858529804223
 20
412.0458274715187
 30
0.0
 10
432.5852175970943
 20
411.8591664120629
 30
0.0
  0
SPLINE
  5
273
330
1DA
100
AcDbEntity
  8
DV3_Default
  6
Continuous
 62
     7
100
AcDbSpline
210
0.0
220
0.0
230
1.0
 70
    12
 71
     3
 72
     8
 73
     4
 74
     0
 42
0.0000000863011694
 43
0.0000000001
 40
0.0
 40
0.0
 40
0.0
 40
0.0
 40
1.0
 40
1.0
 40
1.0
 40
1.0
 10
433.9267870864408
 20
413.8939441767687
 30
0.0
 41
1.000000492033975
 10
433.9545293059067
 20
413.9261022365917
 30
0.0
 41
1.00004189593506
 10
433.9747107300128
 20
413.9586891575171
 30
0.0
 41
1.002696356240341
 10
433.987234408755
 20
413.9914492973728
 30
0.0
 41
1.007963872949818
  0
SPLINE
  5
274
330
1DA
100
AcDbEntity
  8
DV3_Default
  6
Continuous
 62
     7
100
AcDbSpline
210
0.0
220
0.0
230
1.0
 70
     8
 71
     3
 72
     8
 73
     4
 74
     0
 42
0.0000000265728083
 43
0.0000000001
 40
0.0
 40
0.0
 40
0.0
 40
0.0
 40
0.9999999999999999
 40
0.9999999999999999
 40
0.9999999999999999
 40
0.9999999999999999
 10
419.4543196712369
 20
499.7400074888716
 30
0.0
 10
419.3970198132702
 20
499.8712052986013
 30
0.0
 10
419.3583219614937
 20
499.9899822176674
 30
0.0
 10
419.3382261159075
 20
500.0963382460698
 30
0.0
  0
SPLINE
  5
275
330
1DA
100
AcDbEntity
  8
DV3_Default
  6
Continuous
 62
     7
100
AcDbSpline
210
0.0
220
0.0
230
1.0
 70
     8
 71
     3
 72
     8
 73
     4
 74
     0
 42
0.0000000291598433
 43
0.0000000001
 40
0.0
 40
0.0
 40
0.0
 40
0.0
 40
1.0
 40
1.0
 40
1.0
 40
1.0
 10
419.3459953055082
 20
323.6547147976009
 30
0.0
 10
419.3697825600441
 20
323.7693639766636
 30
0.0
 10
419.4058906819537
 20
323.8772343773709
 30
0.0
 10
419.4543196712369
 20
323.9783259997229
 30
0.0
  0
SPLINE
  5
276
330
1DA
100
AcDbEntity
  8
DV3_Default
  6
Continuous
 62
     7
100
AcDbSpline
210
0.0
220
0.0
230
1.0
 70
     8
 71
     3
 72
    12
 73
     8
 74
     0
 42
0.0000000014608572
 43
0.0000000001
 40
0.0
 40
0.0
 40
0.0
 40
0.0
 40
0.182828976537296
 40
0.369465515834375
 40
0.5557770866954609
 40
0.7818137380608211
 40
1.0
 40
1.0
 40
1.0
 40
1.0
 10
424.2277591739376
 20
495.0217792787059
 30
0.0
 10
423.8086040304714
 20
495.1897199621665
 30
0.0
 10
423.085546063844
 20
495.4932786347591
 30
0.0
 10
422.0019968416628
 20
496.2104833208323
 30
0.0
 10
421.0097522820917
 20
497.1362101632961
 30
0.0
 10
420.1257198744629
 20
498.3191274318771
 30
0.0
 10
419.7157617395414
 20
499.1698899815537
 30
0.0
 10
419.4956041071006
 20
499.654176323698
 30
0.0
  0
SPLINE
  5
277
330
1DA
100
AcDbEntity
  8
DV3_Default
  6
Continuous
 62
     7
100
AcDbSpline
210
0.0
220
0.0
230
1.0
 70
     8
 71
     3
 72
     8
 73
     4
 74
     0
 42
0.0000001441990779
 43
0.0000000001
 40
0.0
 40
0.0
 40
0.0
 40
0.0
 40
1.0
 40
1.0
 40
1.0
 40
1.0
 10
419.4561955692693
 20
499.7411098632643
 30
0.0
 10
419.4467273333407
 20
499.7620501106071
 30
0.0
 10
419.4372175641803
 20
499.7831171701107
 30
0.0
 10
419.4276608659773
 20
499.8043158283473
 30
0.0
  0
SPLINE
  5
278
330
1DA
100
AcDbEntity
  8
DV3_Default
  6
Continuous
 62
     7
100
AcDbSpline
210
0.0
220
0.0
230
1.0
 70
     8
 71
     3
 72
     8
 73
     4
 74
     0
 42
0.0000001444209367
 43
0.0000000001
 40
0.0
 40
0.0
 40
0.0
 40
0.0
 40
1.0
 40
1.0
 40
1.0
 40
1.0
 10
419.4276608659773
 20
323.9140176602473
 30
0.0
 10
419.437113530351
 20
323.9352500535886
 30
0.0
 10
419.4465095444666
 20
323.9563282715694
 30
0.0
 10
419.4558557175204
 20
323.9772593333079
 30
0.0
  0
SPLINE
  5
279
330
1DA
100
AcDbEntity
  8
DV3_Default
  6
Continuous
 62
     7
100
AcDbSpline
210
0.0
220
0.0
230
1.0
 70
     8
 71
     3
 72
    12
 73
     8
 74
     0
 42
0.0000000014742177
 43
0.0000000001
 40
0.0
 40
0.0
 40
0.0
 40
0.0
 40
0.1757721193420378
 40
0.3714906266998987
 40
0.5605820236103931
 40
0.7817622969872599
 40
1.0
 40
1.0
 40
1.0
 40
1.0
 10
419.5205135267871
 20
324.1213785236642
 30
0.0
 10
419.6924393983277
 20
324.5024574194964
 30
0.0
 10
420.0304635142271
 20
325.2102853355941
 30
0.0
 10
420.7641310170778
 20
326.2809925842487
 30
0.0
 10
421.7014217797051
 20
327.2673509926475
 30
0.0
 10
422.8818805514355
 20
328.1284418958614
 30
0.0
 10
423.7321653585488
 20
328.4939076440418
 30
0.0
 10
424.2280148084087
 20
328.696190301927
 30
0.0
  0
ARC
  5
27A
330
1DA
100
AcDbEntity
  8
DV3_Default
  6
Continuous
 62
     7
100
AcDbCircle
 10
423.8812032096
 20
329.6374792176
 30
0.0
 40
1.001060505268002
100
AcDbArc
 50
293.2381023254
 51
344.6005641997
  0
ARC
  5
27B
330
1DA
100
AcDbEntity
  8
DV3_Default
  6
Continuous
 62
     7
100
AcDbCircle
 10
423.8812032096
 20
494.080854271
 30
0.0
 40
1.001060505268001
100
AcDbArc
 50
15.4049145131
 51
69.7846430084
  0
LINE
  5
27C
330
1DA
100
AcDbEntity
  8
DV3_Default
  6
Continuous
 62
     7
100
AcDbLine
 10
433.9743342469
 20
409.4283475973
 30
0.0
 11
433.9863017332
 21
409.7144757976
 31
0.0
  0
ARC
  5
27D
330
1DA
100
AcDbEntity
  8
DV3_Default
  6
Continuous
 62
     7
100
AcDbCircle
 10
467.9980918504
 20
357.0570986771
 30
0.0
 40
27.52529297957625
100
AcDbArc
 50
90.0133591179
 51
94.1802032383
  0
ARC
  5
27E
330
1DA
100
AcDbEntity
  8
DV3_Default
  6
Continuous
 62
     7
100
AcDbCircle
 10
467.985255545
 20
357.0570801527
 30
0.0
 40
27.52531150412144
100
AcDbArc
 50
85.8197981645
 51
89.9866394793
  0
LINE
  5
27F
330
1DA
100
AcDbEntity
  8
DV3_Default
  6
Continuous
 62
     7
100
AcDbLine
 10
474.4916740368
 20
385.5091667443
 30
0.0
 11
474.4916740368
 21
438.2091667443
 31
0.0
  0
LINE
  5
280
330
1DA
100
AcDbEntity
  8
DV3_Default
  6
Continuous
 62
     7
100
AcDbLine
 10
469.9915745241
 20
384.5091667443
 30
0.0
 11
473.4916740368
 21
384.5091667443
 31
0.0
  0
LINE
  5
281
330
1DA
100
AcDbEntity
  8
DV3_Default
  6
Continuous
 62
     7
100
AcDbLine
 10
434.4916740368
 20
384.5091667443
 30
0.0
 11
465.9917735496
 21
384.5091667443
 31
0.0
  0
LINE
  5
282
330
1DA
100
AcDbEntity
  8
DV3_Default
  6
Continuous
 62
     7
100
AcDbLine
 10
473.4916740368
 20
439.2091667443
 30
0.0
 11
434.4916740368
 21
439.2091667443
 31
0.0
  0
ARC
  5
283
330
1DA
100
AcDbEntity
  8
DV3_Default
  6
Continuous
 62
     7
100
AcDbCircle
 10
473.4916740368
 20
385.5091667443
 30
0.0
 40
1.000000000000001
100
AcDbArc
 50
270.0
 51
0.0
  0
ARC
  5
284
330
1DA
100
AcDbEntity
  8
DV3_Default
  6
Continuous
 62
     7
100
AcDbCircle
 10
473.4916740368
 20
438.2091667443
 30
0.0
 40
0.999999999999994
100
AcDbArc
 50
0.0
 51
90.0
  0
ARC
  5
285
330
1DA
100
AcDbEntity
  8
DV3_Default
  6
Continuous
 62
     7
100
AcDbCircle
 10
475.2916740368
 20
386.1599449662
 30
0.0
 40
0.800000000000002
100
AcDbArc
 50
108.5023271362
 51
180.0
  0
ARC
  5
286
330
1DA
100
AcDbEntity
  8
DV3_Default
  6
Continuous
 62
     7
100
AcDbCircle
 10
475.2916740368
 20
437.5583885224
 30
0.0
 40
0.800000000002791
100
AcDbArc
 50
180.0
 51
251.4976728638
  0
ARC
  5
287
330
1DA
100
AcDbEntity
  8
DV3_Default
  6
Continuous
 62
     7
100
AcDbCircle
 10
466.6916740368
 20
411.8591667443
 30
0.0
 40
26.29999999999962
100
AcDbArc
 50
70.4049351799
 51
71.4976728641
  0
ARC
  5
288
330
1DA
100
AcDbEntity
  8
DV3_Default
  6
Continuous
 62
     7
100
AcDbCircle
 10
466.6916740368
 20
411.8591667443
 30
0.0
 40
26.29999999999693
100
AcDbArc
 50
288.5023271359
 51
289.5850927686
  0
ENDBLK
  5
28A
330
1DA
100
AcDbEntity
  8
0
100
AcDbBlockEnd
  0
ENDSEC
  0
SECTION
  2
ENTITIES
  0
INSERT
  5
5F
330
1F
100
AcDbEntity
  8
Default
100
AcDbBlockReference
  2
SEANNOT_GROUP
 10
0.0
 20
0.0
 30
0.0
  0
INSERT
  5
6A
330
1F
100
AcDbEntity
  8
Default
100
AcDbBlockReference
  2
SEANNOT_GROUP1
 10
0.0
 20
0.0
 30
0.0
  0
INSERT
  5
70
330
1F
100
AcDbEntity
  8
Default
100
AcDbBlockReference
  2
SEANNOT_GROUP2
 10
0.0
 20
0.0
 30
0.0
  0
INSERT
  5
76
330
1F
100
AcDbEntity
  8
Default
100
AcDbBlockReference
  2
SE
 10
0.0
 20
0.0
 30
0.0
  0
INSERT
  5
14B
330
1F
100
AcDbEntity
  8
Default
100
AcDbBlockReference
  2
SE1
 10
0.0
 20
0.0
 30
0.0
  0
INSERT
  5
1DB
330
1F
100
AcDbEntity
  8
Default
100
AcDbBlockReference
  2
SE2
 10
0.0
 20
0.0
 30
0.0
  0
TEXT
  5
28C
330
1F
100
AcDbEntity
  8
Default
  6
Continuous
 62
     7
100
AcDbText
 10
5.9362635081
 20
53.4225120485
 30
0.0
 40
10.0
  1
Grohe AG^J
  7
SEACAD_seiso_ttf
 11
5.9362635081
 21
63.4225120485
 31
0.0
100
AcDbText
 73
     3
  0
TEXT
  5
28D
330
1F
100
AcDbEntity
  8
Default
  6
Continuous
 62
     7
100
AcDbText
 10
5.9362635081
 20
37.0588756849
 30
0.0
 40
10.0
  1
 
  7
SEACAD_seiso_ttf
 11
5.9362635081
 21
47.0588756849
 31
0.0
100
AcDbText
 73
     3
  0
TEXT
  5
28E
330
1F
100
AcDbEntity
  8
Default
  6
Continuous
 62
     7
100
AcDbText
 10
5.9362635081
 20
20.6952393213
 30
0.0
 40
10.0
  1
ecn:
  7
SEACAD_seiso_ttf
 11
5.9362635081
 21
30.6952393213
 31
0.0
100
AcDbText
 73
     3
  0
TEXT
  5
28F
330
1F
100
AcDbEntity
  8
Default
  6
Continuous
 62
     7
100
AcDbText
 10
5.9362635081
 20
4.3316029576
 30
0.0
 40
10.0
  1
unit: mm
  7
SEACAD_seiso_ttf
 11
5.9362635081
 21
14.3316029576
 31
0.0
100
AcDbText
 73
     3
  0
LINE
  5
290
330
1F
100
AcDbEntity
  8
Default
  6
Continuous
 62
     7
100
AcDbLine
 10
0.0
 20
0.0
 30
0.0
 11
100.0
 21
0.0
 31
0.0
  0
LINE
  5
291
330
1F
100
AcDbEntity
  8
Default
  6
Continuous
 62
     7
100
AcDbLine
 10
0.0
 20
0.0
 30
0.0
 11
0.0
 21
100.0
 31
0.0
  0
TEXT
  5
292
330
1F
100
AcDbEntity
  8
Default
  6
Continuous
 62
     7
100
AcDbText
 10
24.3923665681
 20
-18.2375342018
 30
0.0
 40
10.0
  1
100 mm
  7
SEACAD_seiso_ttf
 11
24.3923665681
 21
-8.2375342018
 31
0.0
100
AcDbText
 73
     3
  0
TEXT
  5
293
330
1F
100
AcDbEntity
  8
Default
  6
Continuous
 62
     7
100
AcDbText
 10
-7.6150308803
 20
24.6231930421
 30
0.0
 40
10.0
  1
100 mm
 50
90.0
  7
SEACAD_seiso_ttf
 11
-17.6150308803
 21
24.6231930421
 31
0.0
100
AcDbText
 73
     3
  0
TEXT
  5
294
330
1F
100
AcDbEntity
  8
Default
  6
Continuous
 62
     7
100
AcDbText
 10
28.4878128572
 20
20.0907663715
 30
0.0
 40
10.0
  1
230805
  7
SEACAD_seiso_ttf
 11
28.4878128572
 21
30.0907663715
 31
0.0
100
AcDbText
 73
     3
  0
TEXT
  5
295
330
1F
100
AcDbEntity
  8
Default
  6
Continuous
 62
     7
100
AcDbText
 10
5.9012241913
 20
36.7242780188
 30
0.0
 40
10.0
  1
19458002
  7
SEACAD_seiso_ttf
 11
5.9012241913
 21
46.7242780188
 31
0.0
100
AcDbText
 73
     3
  0
ENDSEC
  0
SECTION
  2
OBJECTS
  0
DICTIONARY
  5
C
330
0
100
AcDbDictionary
281
     1
  3
ACAD_GROUP
350
D
  3
ACAD_LAYOUT
350
1A
  3
ACAD_MLEADERSTYLE
350
299
  3
ACAD_MLINESTYLE
350
17
  3
ACAD_PLOTSETTINGS
350
19
  3
ACAD_PLOTSTYLENAME
350
E
  3
ACAD_SCALELIST
350
3B
  3
ACAD_TABLESTYLE
350
298
  3
ACAD_VISUALSTYLE
350
2A
  3
AcDbVariableDictionary
350
296
  0
DICTIONARY
  5
D
102
{ACAD_REACTORS
330
C
102
}
330
C
100
AcDbDictionary
281
     1
  0
DICTIONARY
  5
1A
102
{ACAD_REACTORS
330
C
102
}
330
C
100
AcDbDictionary
281
     1
  3
Layout1
350
1E
  3
Model
350
22
  0
DICTIONARY
  5
299
102
{ACAD_REACTORS
330
C
102
}
330
C
100
AcDbDictionary
281
     1
  0
DICTIONARY
  5
17
102
{ACAD_REACTORS
330
C
102
}
330
C
100
AcDbDictionary
281
     1
  3
Standard
350
18
  0
DICTIONARY
  5
19
102
{ACAD_REACTORS
330
C
102
}
330
C
100
AcDbDictionary
281
     1
  0
ACDBDICTIONARYWDFLT
  5
E
102
{ACAD_REACTORS
330
C
102
}
330
C
100
AcDbDictionary
281
     1
  3
Normal
350
F
100
AcDbDictionaryWithDefault
340
F
  0
DICTIONARY
  5
3B
102
{ACAD_REACTORS
330
C
102
}
330
C
100
AcDbDictionary
281
     1
  3
A0
350
3C
  3
A1
350
3D
  3
A2
350
3E
  3
A3
350
3F
  3
A4
350
40
  3
A5
350
41
  3
A6
350
42
  3
A7
350
43
  3
A8
350
44
  3
A9
350
45
  3
B0
350
46
  3
B1
350
47
  3
B2
350
48
  3
B3
350
49
  3
B4
350
4A
  3
B5
350
4B
  3
B6
350
4C
  3
B7
350
4D
  3
B8
350
4E
  3
B9
350
4F
  3
C0
350
50
  3
C1
350
51
  3
C2
350
52
  3
C3
350
53
  3
C4
350
54
  3
C5
350
55
  3
C6
350
56
  3
C7
350
57
  3
C8
350
58
  3
C9
350
59
  3
D0
350
5A
  3
D1
350
5B
  3
D2
350
5C
  0
DICTIONARY
  5
298
102
{ACAD_REACTORS
330
C
102
}
330
C
100
AcDbDictionary
281
     1
  0
DICTIONARY
  5
2A
102
{ACAD_REACTORS
330
C
102
}
330
C
100
AcDbDictionary
281
     1
  3
2dWireframe
350
2F
  3
3D Hidden
350
31
  3
3dWireframe
350
30
  3
Basic
350
32
  3
Brighten
350
36
  3
ColorChange
350
3A
  3
Conceptual
350
34
  3
Dim
350
35
  3
Facepattern
350
39
  3
Flat
350
2B
  3
FlatWithEdges
350
2C
  3
Gouraud
350
2D
  3
GouraudWithEdges
350
2E
  3
Linepattern
350
38
  3
Realistic
350
33
  3
Thicken
350
37
  0
DICTIONARY
  5
296
102
{ACAD_REACTORS
330
C
102
}
330
C
100
AcDbDictionary
281
     1
  3
CANNOSCALE
350
297
  3
PSOLHEIGHT
350
29B
  3
PSOLWIDTH
350
29A
  0
LAYOUT
  5
1E
102
{ACAD_REACTORS
330
1A
102
}
330
1A
100
AcDbPlotSettings
  1

  2
none_device
  4

  6

 40
0.0
 41
0.0
 42
0.0
 43
0.0
 44
0.0
 45
0.0
 46
0.0
 47
0.0
 48
0.0
 49
0.0
140
0.0
141
0.0
142
1.0
143
1.0
 70
   688
 72
     0
 73
     0
 74
     5
  7

 75
    16
147
1.0
148
0.0
149
0.0
100
AcDbLayout
  1
Layout1
 70
     1
 71
     1
 10
0.0
 20
0.0
 11
3000.0
 21
4500.0
 12
0.0
 22
0.0
 32
0.0
 14
0.0
 24
0.0
 34
0.0
 15
3000.0
 25
4500.0
 35
0.0
146
0.0
 13
0.0
 23
0.0
 33
0.0
 16
1.0
 26
0.0
 36
0.0
 17
0.0
 27
1.0
 37
0.0
 76
     0
330
1B
  0
LAYOUT
  5
22
102
{ACAD_REACTORS
330
1A
102
}
330
1A
100
AcDbPlotSettings
  1

  2
none_device
  4

  6

 40
0.0
 41
0.0
 42
0.0
 43
0.0
 44
0.0
 45
0.0
 46
0.0
 47
0.0
 48
0.0
 49
0.0
140
0.0
141
0.0
142
1.0
143
1.0
 70
  1712
 72
     0
 73
     0
 74
     0
  7

 75
     0
147
1.0
148
0.0
149
0.0
100
AcDbLayout
  1
Model
 70
     1
 71
     0
 10
0.0
 20
0.0
 11
3000.0
 21
4500.0
 12
0.0
 22
0.0
 32
0.0
 14
0.0
 24
0.0
 34
0.0
 15
3000.0
 25
4500.0
 35
0.0
146
0.0
 13
0.0
 23
0.0
 33
0.0
 16
1.0
 26
0.0
 36
0.0
 17
0.0
 27
1.0
 37
0.0
 76
     0
330
1F
331
29
  0
MLINESTYLE
  5
18
102
{ACAD_REACTORS
330
17
102
}
330
17
100
AcDbMlineStyle
  2
Standard
 70
     0
  3

 62
   256
 51
90.0
 52
90.0
 71
     2
 49
0.5
 62
   256
  6
BYLAYER
 49
-0.5
 62
   256
  6
BYLAYER
  0
ACDBPLACEHOLDER
  5
F
102
{ACAD_REACTORS
330
E
102
}
330
E
  0
SCALE
  5
3C
102
{ACAD_REACTORS
330
3B
102
}
330
3B
100
AcDbScale
 70
     0
300
1:1
140
1.0
141
1.0
290
     1
  0
SCALE
  5
3D
102
{ACAD_REACTORS
330
3B
102
}
330
3B
100
AcDbScale
 70
     0
300
1:2
140
1.0
141
2.0
290
     0
  0
SCALE
  5
3E
102
{ACAD_REACTORS
330
3B
102
}
330
3B
100
AcDbScale
 70
     0
300
1:4
140
1.0
141
4.0
290
     0
  0
SCALE
  5
3F
102
{ACAD_REACTORS
330
3B
102
}
330
3B
100
AcDbScale
 70
     0
300
1:5
140
1.0
141
5.0
290
     0
  0
SCALE
  5
40
102
{ACAD_REACTORS
330
3B
102
}
330
3B
100
AcDbScale
 70
     0
300
1:8
140
1.0
141
8.0
290
     0
  0
SCALE
  5
41
102
{ACAD_REACTORS
330
3B
102
}
330
3B
100
AcDbScale
 70
     0
300
1:10
140
1.0
141
10.0
290
     0
  0
SCALE
  5
42
102
{ACAD_REACTORS
330
3B
102
}
330
3B
100
AcDbScale
 70
     0
300
1:16
140
1.0
141
16.0
290
     0
  0
SCALE
  5
43
102
{ACAD_REACTORS
330
3B
102
}
330
3B
100
AcDbScale
 70
     0
300
1:20
140
1.0
141
20.0
290
     0
  0
SCALE
  5
44
102
{ACAD_REACTORS
330
3B
102
}
330
3B
100
AcDbScale
 70
     0
300
1:30
140
1.0
141
30.0
290
     0
  0
SCALE
  5
45
102
{ACAD_REACTORS
330
3B
102
}
330
3B
100
AcDbScale
 70
     0
300
1:40
140
1.0
141
40.0
290
     0
  0
SCALE
  5
46
102
{ACAD_REACTORS
330
3B
102
}
330
3B
100
AcDbScale
 70
     0
300
1:50
140
1.0
141
50.0
290
     0
  0
SCALE
  5
47
102
{ACAD_REACTORS
330
3B
102
}
330
3B
100
AcDbScale
 70
     0
300
1:100
140
1.0
141
100.0
290
     0
  0
SCALE
  5
48
102
{ACAD_REACTORS
330
3B
102
}
330
3B
100
AcDbScale
 70
     0
300
2:1
140
2.0
141
1.0
290
     0
  0
SCALE
  5
49
102
{ACAD_REACTORS
330
3B
102
}
330
3B
100
AcDbScale
 70
     0
300
4:1
140
4.0
141
1.0
290
     0
  0
SCALE
  5
4A
102
{ACAD_REACTORS
330
3B
102
}
330
3B
100
AcDbScale
 70
     0
300
8:1
140
8.0
141
1.0
290
     0
  0
SCALE
  5
4B
102
{ACAD_REACTORS
330
3B
102
}
330
3B
100
AcDbScale
 70
     0
300
10:1
140
10.0
141
1.0
290
     0
  0
SCALE
  5
4C
102
{ACAD_REACTORS
330
3B
102
}
330
3B
100
AcDbScale
 70
     0
300
100:1
140
100.0
141
1.0
290
     0
  0
SCALE
  5
4D
102
{ACAD_REACTORS
330
3B
102
}
330
3B
100
AcDbScale
 70
     0
300
1/128" = 1'-0"
140
0.0078125
141
12.0
290
     0
  0
SCALE
  5
4E
102
{ACAD_REACTORS
330
3B
102
}
330
3B
100
AcDbScale
 70
     0
300
1/64" = 1'-0"
140
0.015625
141
12.0
290
     0
  0
SCALE
  5
4F
102
{ACAD_REACTORS
330
3B
102
}
330
3B
100
AcDbScale
 70
     0
300
1/32" = 1'-0"
140
0.03125
141
12.0
290
     0
  0
SCALE
  5
50
102
{ACAD_REACTORS
330
3B
102
}
330
3B
100
AcDbScale
 70
     0
300
1/16" = 1'-0"
140
0.0625
141
12.0
290
     0
  0
SCALE
  5
51
102
{ACAD_REACTORS
330
3B
102
}
330
3B
100
AcDbScale
 70
     0
300
3/32" = 1'-0"
140
0.09375
141
12.0
290
     0
  0
SCALE
  5
52
102
{ACAD_REACTORS
330
3B
102
}
330
3B
100
AcDbScale
 70
     0
300
1/8" = 1'-0"
140
0.125
141
12.0
290
     0
  0
SCALE
  5
53
102
{ACAD_REACTORS
330
3B
102
}
330
3B
100
AcDbScale
 70
     0
300
3/16" = 1'-0"
140
0.1875
141
12.0
290
     0
  0
SCALE
  5
54
102
{ACAD_REACTORS
330
3B
102
}
330
3B
100
AcDbScale
 70
     0
300
1/4" = 1'-0"
140
0.25
141
12.0
290
     0
  0
SCALE
  5
55
102
{ACAD_REACTORS
330
3B
102
}
330
3B
100
AcDbScale
 70
     0
300
3/8" = 1'-0"
140
0.375
141
12.0
290
     0
  0
SCALE
  5
56
102
{ACAD_REACTORS
330
3B
102
}
330
3B
100
AcDbScale
 70
     0
300
1/2" = 1'-0"
140
0.5
141
12.0
290
     0
  0
SCALE
  5
57
102
{ACAD_REACTORS
330
3B
102
}
330
3B
100
AcDbScale
 70
     0
300
3/4" = 1'-0"
140
0.75
141
12.0
290
     0
  0
SCALE
  5
58
102
{ACAD_REACTORS
330
3B
102
}
330
3B
100
AcDbScale
 70
     0
300
1" = 1'-0"
140
1.0
141
12.0
290
     0
  0
SCALE
  5
59
102
{ACAD_REACTORS
330
3B
102
}
330
3B
100
AcDbScale
 70
     0
300
1-1/2" = 1'-0"
140
1.5
141
12.0
290
     0
  0
SCALE
  5
5A
102
{ACAD_REACTORS
330
3B
102
}
330
3B
100
AcDbScale
 70
     0
300
3" = 1'-0"
140
3.0
141
12.0
290
     0
  0
SCALE
  5
5B
102
{ACAD_REACTORS
330
3B
102
}
330
3B
100
AcDbScale
 70
     0
300
6" = 1'-0"
140
6.0
141
12.0
290
     0
  0
SCALE
  5
5C
102
{ACAD_REACTORS
330
3B
102
}
330
3B
100
AcDbScale
 70
     0
300
1'-0" = 1'-0"
140
12.0
141
12.0
290
     0
  0
VISUALSTYLE
  5
2F
102
{ACAD_REACTORS
330
2A
102
}
330
2A
100
AcDbVisualStyle
  2
2dWireframe
 70
     4
 71
     0
 72
     2
 73
     0
 90
        0
 40
-0.6
 41
-30.0
 62
     5
 63
     7
 74
     1
 91
        4
 64
     7
 65
   257
 75
     1
175
     1
 42
1.0
 92
        0
 66
   257
 43
1.0
 76
     1
 77
     6
 78
     2
 67
     7
 79
     5
170
     0
171
     0
290
     0
174
     0
 93
        1
 44
0.0
173
     0
291
     0
 45
0.0
1001
ACAD
1000
AcDbSavedByObjectVersion
1070
     0
  0
VISUALSTYLE
  5
31
102
{ACAD_REACTORS
330
2A
102
}
330
2A
100
AcDbVisualStyle
  2
3D Hidden
 70
     6
 71
     1
 72
     2
 73
     2
 90
        0
 40
-0.6
 41
-30.0
 62
     5
 63
     7
 74
     2
 91
        2
 64
     7
 65
   257
 75
     2
175
     1
 42
40.0
 92
        0
 66
   257
 43
1.0
 76
     1
 77
     6
 78
     2
 67
     7
 79
     3
170
     0
171
     0
290
     0
174
     0
 93
        1
 44
0.0
173
     0
291
     0
 45
0.0
1001
ACAD
1000
AcDbSavedByObjectVersion
1070
     0
  0
VISUALSTYLE
  5
30
102
{ACAD_REACTORS
330
2A
102
}
330
2A
100
AcDbVisualStyle
  2
3dWireframe
 70
     5
 71
     0
 72
     2
 73
     0
 90
        0
 40
-0.6
 41
-30.0
 62
     5
 63
     7
 74
     1
 91
        4
 64
     7
 65
   257
 75
     1
175
     1
 42
1.0
 92
        0
 66
   257
 43
1.0
 76
     1
 77
     6
 78
     2
 67
     7
 79
     5
170
     0
171
     0
290
     0
174
     0
 93
        1
 44
0.0
173
     0
291
     0
 45
0.0
1001
ACAD
1000
AcDbSavedByObjectVersion
1070
     0
  0
VISUALSTYLE
  5
32
102
{ACAD_REACTORS
330
2A
102
}
330
2A
100
AcDbVisualStyle
  2
Basic
 70
     7
 71
     1
 72
     0
 73
     1
 90
        0
 40
-0.6
 41
-30.0
 62
     5
 63
     7
 74
     0
 91
        4
 64
     7
 65
   257
 75
     1
175
     1
 42
1.0
 92
        8
 66
     7
 43
1.0
 76
     1
 77
     6
 78
     2
 67
     7
 79
     5
170
     0
171
     0
290
     0
174
     0
 93
        1
 44
0.0
173
     0
291
     1
 45
0.0
1001
ACAD
1000
AcDbSavedByObjectVersion
1070
     0
  0
VISUALSTYLE
  5
36
102
{ACAD_REACTORS
330
2A
102
}
330
2A
100
AcDbVisualStyle
  2
Brighten
 70
    12
 71
     2
 72
     2
 73
     0
 90
        0
 40
-0.6
 41
-30.0
 62
     5
 63
     7
 74
     1
 91
        4
 64
     7
 65
   257
 75
     1
175
     1
 42
1.0
 92
        8
 66
     7
 43
1.0
 76
     1
 77
     6
 78
     2
 67
     7
 79
     5
170
     0
171
     0
290
     0
174
     0
 93
        1
 44
50.0
173
     0
291
     1
 45
0.0
1001
ACAD
1000
AcDbSavedByObjectVersion
1070
     0
  0
VISUALSTYLE
  5
3A
102
{ACAD_REACTORS
330
2A
102
}
330
2A
100
AcDbVisualStyle
  2
ColorChange
 70
    16
 71
     2
 72
     2
 73
     3
 90
        0
 40
-0.6
 41
-30.0
 62
     5
 63
     8
 74
     1
 91
        4
 64
     7
 65
   257
 75
     1
175
     1
 42
1.0
 92
        8
 66
     8
 43
1.0
 76
     1
 77
     6
 78
     2
 67
     7
 79
     5
170
     0
171
     0
290
     0
174
     0
 93
        1
 44
0.0
173
     0
291
     1
 45
0.0
1001
ACAD
1000
AcDbSavedByObjectVersion
1070
     0
  0
VISUALSTYLE
  5
34
102
{ACAD_REACTORS
330
2A
102
}
330
2A
100
AcDbVisualStyle
  2
Conceptual
 70
     9
 71
     3
 72
     2
 73
     0
 90
        0
 40
-0.6
 41
-30.0
 62
     5
 63
     7
 74
     2
 91
        2
 64
     7
 65
   257
 75
     1
175
     1
 42
40.0
 92
        8
 66
     7
 43
1.0
 76
     1
 77
     6
 78
     2
 67
     7
 79
     3
170
     0
171
     0
290
     0
174
     0
 93
        1
 44
0.0
173
     0
291
     0
 45
0.0
1001
ACAD
1000
AcDbSavedByObjectVersion
1070
     0
  0
VISUALSTYLE
  5
35
102
{ACAD_REACTORS
330
2A
102
}
330
2A
100
AcDbVisualStyle
  2
Dim
 70
    11
 71
     2
 72
     2
 73
     0
 90
        0
 40
-0.6
 41
-30.0
 62
     5
 63
     7
 74
     1
 91
        4
 64
     7
 65
   257
 75
     1
175
     1
 42
1.0
 92
        8
 66
     7
 43
1.0
 76
     1
 77
     6
 78
     2
 67
     7
 79
     5
170
     0
171
     0
290
     0
174
     0
 93
        1
 44
-50.0
173
     0
291
     1
 45
0.0
1001
ACAD
1000
AcDbSavedByObjectVersion
1070
     0
  0
VISUALSTYLE
  5
39
102
{ACAD_REACTORS
330
2A
102
}
330
2A
100
AcDbVisualStyle
  2
Facepattern
 70
    15
 71
     2
 72
     2
 73
     0
 90
        0
 40
-0.6
 41
-30.0
 62
     5
 63
     7
 74
     1
 91
        4
 64
     7
 65
   257
 75
     1
175
     1
 42
1.0
 92
        8
 66
     7
 43
1.0
 76
     1
 77
     6
 78
     2
 67
     7
 79
     5
170
     0
171
     0
290
     0
174
     0
 93
        1
 44
0.0
173
     0
291
     1
 45
0.0
1001
ACAD
1000
AcDbSavedByObjectVersion
1070
     0
  0
VISUALSTYLE
  5
2B
102
{ACAD_REACTORS
330
2A
102
}
330
2A
100
AcDbVisualStyle
  2
Flat
 70
     0
 71
     2
 72
     1
 73
     1
 90
        2
 40
-0.6
 41
30.0
 62
     5
 63
     7
 74
     0
 91
        4
 64
     7
 65
   257
 75
     1
175
     1
 42
1.0
 92
        8
 66
     7
 43
1.0
 76
     1
 77
     6
 78
     2
 67
     7
 79
     5
170
     0
171
     0
290
     0
174
     0
 93
       13
 44
0.0
173
     0
291
     1
 45
0.0
1001
ACAD
1000
AcDbSavedByObjectVersion
1070
     0
  0
VISUALSTYLE
  5
2C
102
{ACAD_REACTORS
330
2A
102
}
330
2A
100
AcDbVisualStyle
  2
FlatWithEdges
 70
     1
 71
     2
 72
     1
 73
     1
 90
        2
 40
-0.6
 41
30.0
 62
     5
 63
     7
 74
     1
 91
        4
 64
     7
 65
   257
 75
     1
175
     1
 42
1.0
 92
        0
 66
   257
 43
1.0
 76
     1
 77
     6
 78
     2
 67
     7
 79
     5
170
     0
171
     0
290
     0
174
     0
 93
       13
 44
0.0
173
     0
291
     1
 45
0.0
1001
ACAD
1000
AcDbSavedByObjectVersion
1070
     0
  0
VISUALSTYLE
  5
2D
102
{ACAD_REACTORS
330
2A
102
}
330
2A
100
AcDbVisualStyle
  2
Gouraud
 70
     2
 71
     2
 72
     2
 73
     1
 90
        2
 40
-0.6
 41
30.0
 62
     5
 63
     7
 74
     0
 91
        4
 64
     7
 65
   257
 75
     1
175
     1
 42
1.0
 92
        0
 66
     7
 43
1.0
 76
     1
 77
     6
 78
     2
 67
     7
 79
     5
170
     0
171
     0
290
     0
174
     0
 93
       13
 44
0.0
173
     0
291
     1
 45
0.0
1001
ACAD
1000
AcDbSavedByObjectVersion
1070
     0
  0
VISUALSTYLE
  5
2E
102
{ACAD_REACTORS
330
2A
102
}
330
2A
100
AcDbVisualStyle
  2
GouraudWithEdges
 70
     3
 71
     2
 72
     2
 73
     1
 90
        2
 40
-0.6
 41
30.0
 62
     5
 63
     7
 74
     1
 91
        4
 64
     7
 65
   257
 75
     1
175
     1
 42
1.0
 92
        0
 66
   257
 43
1.0
 76
     1
 77
     6
 78
     2
 67
     7
 79
     5
170
     0
171
     0
290
     0
174
     0
 93
       13
 44
0.0
173
     0
291
     1
 45
0.0
1001
ACAD
1000
AcDbSavedByObjectVersion
1070
     0
  0
VISUALSTYLE
  5
38
102
{ACAD_REACTORS
330
2A
102
}
330
2A
100
AcDbVisualStyle
  2
Linepattern
 70
    14
 71
     2
 72
     2
 73
     0
 90
        0
 40
-0.6
 41
-30.0
 62
     5
 63
     7
 74
     1
 91
        4
 64
     7
 65
   257
 75
     7
175
     7
 42
1.0
 92
        8
 66
     7
 43
1.0
 76
     1
 77
     6
 78
     2
 67
     7
 79
     5
170
     0
171
     0
290
     0
174
     0
 93
        1
 44
0.0
173
     0
291
     1
 45
0.0
1001
ACAD
1000
AcDbSavedByObjectVersion
1070
     0
  0
VISUALSTYLE
  5
33
102
{ACAD_REACTORS
330
2A
102
}
330
2A
100
AcDbVisualStyle
  2
Realistic
 70
     8
 71
     2
 72
     2
 73
     0
 90
        0
 40
-0.6
 41
-30.0
 62
     5
 63
     7
 74
     1
 91
        0
 64
     7
 65
   257
 75
     1
175
     1
 42
1.0
 92
        8
 66
     8
 43
1.0
 76
     1
 77
     6
 78
     2
 67
     7
 79
     5
170
     0
171
     0
290
     0
174
     0
 93
       13
 44
0.0
173
     0
291
     0
 45
0.0
1001
ACAD
1000
AcDbSavedByObjectVersion
1070
     0
  0
VISUALSTYLE
  5
37
102
{ACAD_REACTORS
330
2A
102
}
330
2A
100
AcDbVisualStyle
  2
Thicken
 70
    13
 71
     2
 72
     2
 73
     0
 90
        0
 40
-0.6
 41
-30.0
 62
     5
 63
     7
 74
     1
 91
        4
 64
     7
 65
   257
 75
     1
175
     1
 42
1.0
 92
       12
 66
     7
 43
1.0
 76
     1
 77
     6
 78
     2
 67
     7
 79
     5
170
     0
171
     0
290
     0
174
     0
 93
        1
 44
0.0
173
     0
291
     1
 45
0.0
1001
ACAD
1000
AcDbSavedByObjectVersion
1070
     0
  0
DICTIONARYVAR
  5
297
102
{ACAD_REACTORS
330
296
102
}
330
296
100
DictionaryVariables
280
     0
  1
1:1
  0
DICTIONARYVAR
  5
29B
102
{ACAD_REACTORS
330
296
102
}
330
296
100
DictionaryVariables
280
     0
  1
80.000000
  0
DICTIONARYVAR
  5
29A
102
{ACAD_REACTORS
330
296
102
}
330
296
100
DictionaryVariables
280
     0
  1
5.000000
  0
ENDSEC
  0
EOF
