  0
SECTION
  2
HEADER
  9
$ACADVER
  1
AC1015
  9
$ACADMAINTVER
 70
     6
  9
$DWGCODEPAGE
  3
ANSI_1252
  9
$INSBASE
 10
0.0
 20
0.0
 30
0.0
  9
$EXTMIN
 10
0.0
 20
0.0
 30
0.0
  9
$EXTMAX
 10
1682.0
 20
2378.0
 30
0.0
  9
$LIMMIN
 10
0.0
 20
0.0
  9
$LIMMAX
 10
1682.0
 20
2378.0
  9
$ORTHOMODE
 70
     0
  9
$REGENMODE
 70
     1
  9
$FILLMODE
 70
     1
  9
$QTEXTMODE
 70
     0
  9
$MIRRTEXT
 70
     1
  9
$LTSCALE
 40
1.0
  9
$ATTMODE
 70
     1
  9
$TEXTSIZE
 40
2.5
  9
$TRACEWID
 40
1.0
  9
$TEXTSTYLE
  7
Standard
  9
$CLAYER
  8
0
  9
$CELTYPE
  6
ByLayer
  9
$CECOLOR
 62
   256
  9
$CELTSCALE
 40
1.0
  9
$DISPSILH
 70
     0
  9
$DIMSCALE
 40
1.0
  9
$DIMASZ
 40
2.5
  9
$DIMEXO
 40
0.625
  9
$DIMDLI
 40
3.75
  9
$DIMRND
 40
0.0
  9
$DIMDLE
 40
0.0
  9
$DIMEXE
 40
1.25
  9
$DIMTP
 40
0.0
  9
$DIMTM
 40
0.0
  9
$DIMTXT
 40
2.5
  9
$DIMCEN
 40
2.5
  9
$DIMTSZ
 40
0.0
  9
$DIMTOL
 70
     0
  9
$DIMLIM
 70
     0
  9
$DIMTIH
 70
     0
  9
$DIMTOH
 70
     0
  9
$DIMSE1
 70
     0
  9
$DIMSE2
 70
     0
  9
$DIMTAD
 70
     1
  9
$DIMZIN
 70
     8
  9
$DIMBLK
  1

  9
$DIMASO
 70
     1
  9
$DIMSHO
 70
     1
  9
$DIMPOST
  1

  9
$DIMAPOST
  1

  9
$DIMALT
 70
     0
  9
$DIMALTD
 70
     3
  9
$DIMALTF
 40
0.0393700787
  9
$DIMLFAC
 40
1.0
  9
$DIMTOFL
 70
     1
  9
$DIMTVP
 40
0.0
  9
$DIMTIX
 70
     0
  9
$DIMSOXD
 70
     0
  9
$DIMSAH
 70
     0
  9
$DIMBLK1
  1

  9
$DIMBLK2
  1

  9
$DIMSTYLE
  2
ISO-25
  9
$DIMCLRD
 70
     0
  9
$DIMCLRE
 70
     0
  9
$DIMCLRT
 70
     0
  9
$DIMTFAC
 40
1.0
  9
$DIMGAP
 40
0.625
  9
$DIMJUST
 70
     0
  9
$DIMSD1
 70
     0
  9
$DIMSD2
 70
     0
  9
$DIMTOLJ
 70
     0
  9
$DIMTZIN
 70
     8
  9
$DIMALTZ
 70
     0
  9
$DIMALTTZ
 70
     0
  9
$DIMUPT
 70
     0
  9
$DIMDEC
 70
     2
  9
$DIMTDEC
 70
     2
  9
$DIMALTU
 70
     2
  9
$DIMALTTD
 70
     3
  9
$DIMTXSTY
  7
Standard
  9
$DIMAUNIT
 70
     0
  9
$DIMADEC
 70
     0
  9
$DIMALTRND
 40
0.0
  9
$DIMAZIN
 70
     0
  9
$DIMDSEP
 70
    44
  9
$DIMATFIT
 70
     3
  9
$DIMFRAC
 70
     0
  9
$DIMLDRBLK
  1

  9
$DIMLUNIT
 70
     2
  9
$DIMLWD
 70
    -2
  9
$DIMLWE
 70
    -2
  9
$DIMTMOVE
 70
     0
  9
$LUNITS
 70
     2
  9
$LUPREC
 70
     4
  9
$SKETCHINC
 40
1.0
  9
$FILLETRAD
 40
10.0
  9
$AUNITS
 70
     0
  9
$AUPREC
 70
     0
  9
$MENU
  1
.
  9
$ELEVATION
 40
0.0
  9
$PELEVATION
 40
0.0
  9
$THICKNESS
 40
0.0
  9
$LIMCHECK
 70
     0
  9
$CHAMFERA
 40
10.0
  9
$CHAMFERB
 40
10.0
  9
$CHAMFERC
 40
20.0
  9
$CHAMFERD
 40
0.0
  9
$SKPOLY
 70
     0
  9
$TDCREATE
 40
2455456.409148565
  9
$TDUCREATE
 40
2455456.325815232
  9
$TDUPDATE
 40
2455456.409148576
  9
$TDUUPDATE
 40
2455456.325815243
  9
$TDINDWG
 40
0.0000000116
  9
$TDUSRTIMER
 40
0.0000000116
  9
$USRTIMER
 70
     1
  9
$ANGBASE
 50
0.0
  9
$ANGDIR
 70
     0
  9
$PDMODE
 70
     0
  9
$PDSIZE
 40
0.0
  9
$PLINEWID
 40
0.0
  9
$SPLFRAME
 70
     0
  9
$SPLINETYPE
 70
     6
  9
$SPLINESEGS
 70
     8
  9
$HANDSEED
  5
148
  9
$SURFTAB1
 70
     6
  9
$SURFTAB2
 70
     6
  9
$SURFTYPE
 70
     6
  9
$SURFU
 70
     6
  9
$SURFV
 70
     6
  9
$UCSBASE
  2

  9
$UCSNAME
  2

  9
$UCSORG
 10
0.0
 20
0.0
 30
0.0
  9
$UCSXDIR
 10
1.0
 20
0.0
 30
0.0
  9
$UCSYDIR
 10
0.0
 20
1.0
 30
0.0
  9
$UCSORTHOREF
  2

  9
$UCSORTHOVIEW
 70
     0
  9
$UCSORGTOP
 10
0.0
 20
0.0
 30
0.0
  9
$UCSORGBOTTOM
 10
0.0
 20
0.0
 30
0.0
  9
$UCSORGLEFT
 10
0.0
 20
0.0
 30
0.0
  9
$UCSORGRIGHT
 10
0.0
 20
0.0
 30
0.0
  9
$UCSORGFRONT
 10
0.0
 20
0.0
 30
0.0
  9
$UCSORGBACK
 10
0.0
 20
0.0
 30
0.0
  9
$PUCSBASE
  2

  9
$PUCSNAME
  2

  9
$PUCSORG
 10
0.0
 20
0.0
 30
0.0
  9
$PUCSXDIR
 10
1.0
 20
0.0
 30
0.0
  9
$PUCSYDIR
 10
0.0
 20
1.0
 30
0.0
  9
$PUCSORTHOREF
  2

  9
$PUCSORTHOVIEW
 70
     0
  9
$PUCSORGTOP
 10
0.0
 20
0.0
 30
0.0
  9
$PUCSORGBOTTOM
 10
0.0
 20
0.0
 30
0.0
  9
$PUCSORGLEFT
 10
0.0
 20
0.0
 30
0.0
  9
$PUCSORGRIGHT
 10
0.0
 20
0.0
 30
0.0
  9
$PUCSORGFRONT
 10
0.0
 20
0.0
 30
0.0
  9
$PUCSORGBACK
 10
0.0
 20
0.0
 30
0.0
  9
$USERI1
 70
     0
  9
$USERI2
 70
     0
  9
$USERI3
 70
     0
  9
$USERI4
 70
     0
  9
$USERI5
 70
     0
  9
$USERR1
 40
0.0
  9
$USERR2
 40
0.0
  9
$USERR3
 40
0.0
  9
$USERR4
 40
0.0
  9
$USERR5
 40
0.0
  9
$WORLDVIEW
 70
     1
  9
$SHADEDGE
 70
     3
  9
$SHADEDIF
 70
    70
  9
$TILEMODE
 70
     1
  9
$MAXACTVP
 70
    64
  9
$PINSBASE
 10
0.0
 20
0.0
 30
0.0
  9
$PLIMCHECK
 70
     0
  9
$PEXTMIN
 10
0.0
 20
0.0
 30
0.0
  9
$PEXTMAX
 10
1682.0
 20
2378.0
 30
0.0
  9
$PLIMMIN
 10
0.0
 20
0.0
  9
$PLIMMAX
 10
1682.0
 20
2378.0
  9
$UNITMODE
 70
     0
  9
$VISRETAIN
 70
     1
  9
$PLINEGEN
 70
     0
  9
$PSLTSCALE
 70
     1
  9
$TREEDEPTH
 70
  3020
  9
$CMLSTYLE
  2
Standard
  9
$CMLJUST
 70
     0
  9
$CMLSCALE
 40
20.0
  9
$PROXYGRAPHICS
 70
     1
  9
$MEASUREMENT
 70
     1
  9
$CELWEIGHT
370
    -1
  9
$ENDCAPS
280
     0
  9
$JOINSTYLE
280
     0
  9
$LWDISPLAY
290
     0
  9
$INSUNITS
 70
     4
  9
$HYPERLINKBASE
  1

  9
$STYLESHEET
  1

  9
$XEDIT
290
     1
  9
$CEPSNTYPE
380
     0
  9
$PSTYLEMODE
290
     1
  9
$FINGERPRINTGUID
  2
{872075EC-580B-4334-A0C0-6D08EF8BDF5E}
  9
$VERSIONGUID
  2
{FAEB1C32-E019-11D5-929B-00C0DF256EC4}
  9
$EXTNAMES
290
     1
  9
$PSVPSCALE
 40
0.0
  9
$OLESTARTUP
290
     0
  0
ENDSEC
  0
SECTION
  2
CLASSES
  0
CLASS
  1
ACDBDICTIONARYWDFLT
  2
AcDbDictionaryWithDefault
  3
ObjectDBX Classes
 90
        0
280
     0
281
     0
  0
CLASS
  1
VISUALSTYLE
  2
AcDbVisualStyle
  3
ObjectDBX Classes
 90
     4095
280
     0
281
     0
  0
CLASS
  1
SCALE
  2
AcDbScale
  3
ObjectDBX Classes
 90
     1153
280
     0
281
     0
  0
CLASS
  1
DICTIONARYVAR
  2
AcDbDictionaryVar
  3
ObjectDBX Classes
 90
        0
280
     0
281
     0
  0
CLASS
  1
ACDBPLACEHOLDER
  2
AcDbPlaceHolder
  3
ObjectDBX Classes
 90
        0
280
     0
281
     0
  0
CLASS
  1
LAYOUT
  2
AcDbLayout
  3
ObjectDBX Classes
 90
        0
280
     0
281
     0
  0
ENDSEC
  0
SECTION
  2
TABLES
  0
TABLE
  2
VPORT
  5
8
330
0
100
AcDbSymbolTable
 70
     1
  0
VPORT
  5
29
330
8
100
AcDbSymbolTableRecord
100
AcDbViewportTableRecord
  2
*Active
 70
     0
 10
0.0
 20
0.0
 11
1.0
 21
1.0
 12
344.1869158879
 22
148.5
 13
0.0
 23
0.0
 14
10.0
 24
10.0
 15
10.0
 25
10.0
 16
0.0
 26
0.0
 36
1.0
 17
0.0
 27
0.0
 37
0.0
 40
297.0
 41
1.9729729729
 42
50.0
 43
0.0
 44
0.0
 50
0.0
 51
0.0
 71
     0
 72
   100
 73
     1
 74
     3
 75
     0
 76
     0
 77
     0
 78
     0
281
     0
 65
     1
110
0.0
120
0.0
130
0.0
111
1.0
121
0.0
131
0.0
112
0.0
122
1.0
132
0.0
 79
     0
146
0.0
  0
ENDTAB
  0
TABLE
  2
LTYPE
  5
5
330
0
100
AcDbSymbolTable
 70
     2
  0
LTYPE
  5
14
330
5
100
AcDbSymbolTableRecord
100
AcDbLinetypeTableRecord
  2
ByBlock
 70
     0
  3

 72
    65
 73
     0
 40
0.0
  0
LTYPE
  5
15
330
5
100
AcDbSymbolTableRecord
100
AcDbLinetypeTableRecord
  2
ByLayer
 70
     0
  3

 72
    65
 73
     0
 40
0.0
  0
LTYPE
  5
16
330
5
100
AcDbSymbolTableRecord
100
AcDbLinetypeTableRecord
  2
Continuous
 70
     0
  3
Solid line
 72
    65
 73
     0
 40
0.0
  0
LTYPE
  5
60
330
5
100
AcDbSymbolTableRecord
100
AcDbLinetypeTableRecord
  2
CENTER2
 70
     0
  3
Center (.5x) ___ _ ___ _ ___ _ ___ _ ___ _ ___
 72
    65
 73
     4
 40
28.575
 49
19.05
 74
     4
 75
     0
340
0
 46
0.0
 50
0.0
 44
0.0
 45
0.0
 49
-3.175
 74
     4
 75
     0
340
0
 46
0.0
 50
0.0
 44
0.0
 45
0.0
 49
3.175
 74
     4
 75
     0
340
0
 46
0.0
 50
0.0
 44
0.0
 45
0.0
 49
-3.175
 74
     4
 75
     0
340
0
 46
0.0
 50
0.0
 44
0.0
 45
0.0
  0
ENDTAB
  0
TABLE
  2
LAYER
  5
2
330
0
100
AcDbSymbolTable
 70
    11
  0
LAYER
  5
10
330
2
100
AcDbSymbolTableRecord
100
AcDbLayerTableRecord
  2
0
 70
     0
 62
     7
  6
Continuous
370
    -3
390
F
  0
LAYER
  5
5D
330
2
100
AcDbSymbolTableRecord
100
AcDbLayerTableRecord
  2
Default
 70
     0
 62
     7
  6
Continuous
370
    -3
390
F
  0
LAYER
  5
77
330
2
100
AcDbSymbolTableRecord
100
AcDbLayerTableRecord
  2
4219838_HUELSE_Z
 70
     0
 62
     7
  6
Continuous
370
    -3
390
F
  0
LAYER
  5
80
330
2
100
AcDbSymbolTableRecord
100
AcDbLayerTableRecord
  2
11216038_GRIFF__
 70
     0
 62
     7
  6
Continuous
370
    -3
390
F
  0
LAYER
  5
91
330
2
100
AcDbSymbolTableRecord
100
AcDbLayerTableRecord
  2
15600038__ROUND_
 70
     0
 62
     7
  6
Continuous
370
    -3
390
F
  0
LAYER
  5
98
330
2
100
AcDbSymbolTableRecord
100
AcDbLayerTableRecord
  2
14040765_DIVERTE
 70
     0
 62
     7
  6
Continuous
370
    -3
390
F
  0
LAYER
  5
AB
330
2
100
AcDbSymbolTableRecord
100
AcDbLayerTableRecord
  2
11232031_STIFT_G
 70
     0
 62
     7
  6
Continuous
370
    -3
390
F
  0
LAYER
  5
B4
330
2
100
AcDbSymbolTableRecord
100
AcDbLayerTableRecord
  2
08962031_SCHRAUB
 70
     0
 62
     7
  6
Continuous
370
    -3
390
F
  0
LAYER
  5
CD
330
2
100
AcDbSymbolTableRecord
100
AcDbLayerTableRecord
  2
4219845_EINS_SCH
 70
     0
 62
     7
  6
Continuous
370
    -3
390
F
  0
LAYER
  5
12C
330
2
100
AcDbSymbolTableRecord
100
AcDbLayerTableRecord
  2
15613038__DIVERT
 70
     0
 62
     7
  6
Continuous
370
    -3
390
F
  0
LAYER
  5
132
330
2
100
AcDbSymbolTableRecord
100
AcDbLayerTableRecord
  2
15615038__DIVERT
 70
     0
 62
     7
  6
Continuous
370
    -3
390
F
  0
ENDTAB
  0
TABLE
  2
STYLE
  5
3
330
0
100
AcDbSymbolTable
 70
     2
  0
STYLE
  5
11
330
3
100
AcDbSymbolTableRecord
100
AcDbTextStyleTableRecord
  2
Standard
 70
     0
 40
0.0
 41
1.0
 50
0.0
 71
     0
 42
2.5
  3
txt
  4

  0
STYLE
  5
137
330
3
100
AcDbSymbolTableRecord
100
AcDbTextStyleTableRecord
  2
SEACAD_seiso_ttf
 70
     0
 40
0.0
 41
1.0
 50
0.0
 71
     0
 42
0.2
  3
seiso.ttf
  4

  0
ENDTAB
  0
TABLE
  2
VIEW
  5
6
330
0
100
AcDbSymbolTable
 70
     0
  0
ENDTAB
  0
TABLE
  2
UCS
  5
7
330
0
100
AcDbSymbolTable
 70
     0
  0
ENDTAB
  0
TABLE
  2
APPID
  5
9
330
0
100
AcDbSymbolTable
 70
     1
  0
APPID
  5
12
330
9
100
AcDbSymbolTableRecord
100
AcDbRegAppTableRecord
  2
ACAD
 70
     0
  0
ENDTAB
  0
TABLE
  2
DIMSTYLE
  5
A
330
0
100
AcDbSymbolTable
 70
     1
100
AcDbDimStyleTable
  0
DIMSTYLE
105
27
330
A
100
AcDbSymbolTableRecord
100
AcDbDimStyleTableRecord
  2
ISO-25
 70
     0
 41
2.5
 42
0.625
 43
3.75
 44
1.25
 73
     0
 74
     0
 77
     1
 78
     8
140
2.5
141
2.5
143
0.0393700787
147
0.625
171
     3
172
     1
271
     2
272
     2
274
     3
278
    44
283
     0
284
     8
340
11
  0
ENDTAB
  0
TABLE
  2
BLOCK_RECORD
  5
1
330
0
100
AcDbSymbolTable
 70
     7
  0
BLOCK_RECORD
  5
1F
330
1
100
AcDbSymbolTableRecord
100
AcDbBlockTableRecord
  2
*Model_Space
340
22
  0
BLOCK_RECORD
  5
1B
330
1
100
AcDbSymbolTableRecord
100
AcDbBlockTableRecord
  2
*Paper_Space
340
1E
  0
BLOCK_RECORD
  5
5E
330
1
100
AcDbSymbolTableRecord
100
AcDbBlockTableRecord
  2
SEANNOT_GROUP
340
0
102
{BLKREFS
331
5F
102
}
  0
BLOCK_RECORD
  5
69
330
1
100
AcDbSymbolTableRecord
100
AcDbBlockTableRecord
  2
SEANNOT_GROUP1
340
0
102
{BLKREFS
331
6A
102
}
  0
BLOCK_RECORD
  5
6F
330
1
100
AcDbSymbolTableRecord
100
AcDbBlockTableRecord
  2
SEANNOT_GROUP2
340
0
102
{BLKREFS
331
70
102
}
  0
BLOCK_RECORD
  5
75
330
1
100
AcDbSymbolTableRecord
100
AcDbBlockTableRecord
  2
SE
340
0
102
{BLKREFS
331
76
102
}
  0
BLOCK_RECORD
  5
9D
330
1
100
AcDbSymbolTableRecord
100
AcDbBlockTableRecord
  2
SE1
340
0
102
{BLKREFS
331
9E
102
}
  0
BLOCK_RECORD
  5
DF
330
1
100
AcDbSymbolTableRecord
100
AcDbBlockTableRecord
  2
SE2
340
0
102
{BLKREFS
331
E0
102
}
  0
ENDTAB
  0
ENDSEC
  0
SECTION
  2
BLOCKS
  0
BLOCK
  5
20
330
1F
100
AcDbEntity
  8
0
100
AcDbBlockBegin
  2
*Model_Space
 70
     0
 10
0.0
 20
0.0
 30
0.0
  3
*Model_Space
  1

  0
ENDBLK
  5
21
330
1F
100
AcDbEntity
  8
0
100
AcDbBlockEnd
  0
BLOCK
  5
1C
330
1B
100
AcDbEntity
 67
     1
  8
0
100
AcDbBlockBegin
  2
*Paper_Space
 70
     0
 10
0.0
 20
0.0
 30
0.0
  3
*Paper_Space
  1

  0
ENDBLK
  5
1D
330
1B
100
AcDbEntity
 67
     1
  8
0
100
AcDbBlockEnd
  0
BLOCK
  5
67
330
5E
100
AcDbEntity
  8
0
100
AcDbBlockBegin
  2
SEANNOT_GROUP
 70
     0
 10
0.0
 20
0.0
 30
0.0
  3
SEANNOT_GROUP
  1

  0
LINE
  5
61
330
5E
100
AcDbEntity
  8
Default
  6
CENTER2
 62
     7
100
AcDbLine
 10
169.4302844049
 20
377.3401576049
 30
0.0
 11
129.430285299
 21
377.3401576049
 31
0.0
  0
LINE
  5
62
330
5E
100
AcDbEntity
  8
Default
  6
CENTER2
 62
     7
100
AcDbLine
 10
149.4302848519
 20
397.3401571579
 30
0.0
 11
149.4302848519
 21
357.340158052
 31
0.0
  0
LINE
  5
63
330
5E
100
AcDbEntity
  8
Default
  6
CENTER2
 62
     7
100
AcDbLine
 10
174.4302842931
 20
377.3401576049
 30
0.0
 11
162.6802848519
 21
377.3401576049
 31
0.0
  0
LINE
  5
64
330
5E
100
AcDbEntity
  8
Default
  6
CENTER2
 62
     7
100
AcDbLine
 10
149.4302848519
 20
402.3401570461
 30
0.0
 11
149.4302848519
 21
390.5901576049
 31
0.0
  0
LINE
  5
65
330
5E
100
AcDbEntity
  8
Default
  6
CENTER2
 62
     7
100
AcDbLine
 10
124.4302854107
 20
377.3401576049
 30
0.0
 11
136.1802848519
 21
377.3401576049
 31
0.0
  0
LINE
  5
66
330
5E
100
AcDbEntity
  8
Default
  6
CENTER2
 62
     7
100
AcDbLine
 10
149.4302848519
 20
352.3401581637
 30
0.0
 11
149.4302848519
 21
364.0901576049
 31
0.0
  0
ENDBLK
  5
68
330
5E
100
AcDbEntity
  8
0
100
AcDbBlockEnd
  0
BLOCK
  5
6D
330
69
100
AcDbEntity
  8
0
100
AcDbBlockBegin
  2
SEANNOT_GROUP1
 70
     0
 10
0.0
 20
0.0
 30
0.0
  3
SEANNOT_GROUP1
  1

  0
LINE
  5
6B
330
69
100
AcDbEntity
  8
Default
  6
CENTER2
 62
     7
100
AcDbLine
 10
345.6538597616
 20
377.4076192349
 30
0.0
 11
305.6538606556
 21
377.4076192349
 31
0.0
  0
LINE
  5
6C
330
69
100
AcDbEntity
  8
Default
  6
CENTER2
 62
     7
100
AcDbLine
 10
325.6538602086
 20
397.4076187879
 30
0.0
 11
325.6538602086
 21
357.407619682
 31
0.0
  0
ENDBLK
  5
6E
330
69
100
AcDbEntity
  8
0
100
AcDbBlockEnd
  0
BLOCK
  5
73
330
6F
100
AcDbEntity
  8
0
100
AcDbBlockBegin
  2
SEANNOT_GROUP2
 70
     0
 10
0.0
 20
0.0
 30
0.0
  3
SEANNOT_GROUP2
  1

  0
LINE
  5
71
330
6F
100
AcDbEntity
  8
Default
  6
CENTER2
 62
     7
100
AcDbLine
 10
169.4302844049
 20
172.9019121494
 30
0.0
 11
129.430285299
 21
172.9019121494
 31
0.0
  0
LINE
  5
72
330
6F
100
AcDbEntity
  8
Default
  6
CENTER2
 62
     7
100
AcDbLine
 10
149.4302848519
 20
192.9019117024
 30
0.0
 11
149.4302848519
 21
152.9019125965
 31
0.0
  0
ENDBLK
  5
74
330
6F
100
AcDbEntity
  8
0
100
AcDbBlockEnd
  0
BLOCK
  5
9B
330
75
100
AcDbEntity
  8
0
100
AcDbBlockBegin
  2
SE
 70
     0
 10
0.0
 20
0.0
 30
0.0
  3
SE
  1

  0
ARC
  5
78
330
75
100
AcDbEntity
  8
4219838_HUELSE_Z
  6
Continuous
 62
     7
100
AcDbCircle
 10
149.4302848519
 20
377.3401576049
 30
0.0
 40
18.0
100
AcDbArc
 50
289.4712206345
 51
0.0
  0
ARC
  5
79
330
75
100
AcDbEntity
  8
4219838_HUELSE_Z
  6
Continuous
 62
     7
100
AcDbCircle
 10
149.4302848519
 20
377.3401576049
 30
0.0
 40
18.0
100
AcDbArc
 50
169.4712206345
 51
250.5287793655
  0
ARC
  5
7A
330
75
100
AcDbEntity
  8
4219838_HUELSE_Z
  6
Continuous
 62
     7
100
AcDbCircle
 10
149.4302848519
 20
377.3401576049
 30
0.0
 40
18.0
100
AcDbArc
 50
49.4712206345
 51
130.5287793655
  0
ARC
  5
7B
330
75
100
AcDbEntity
  8
4219838_HUELSE_Z
  6
Continuous
 62
     7
100
AcDbCircle
 10
149.4302848519
 20
377.3401576049
 30
0.0
 40
18.0
100
AcDbArc
 50
0.0
 51
10.5287793655
  0
ARC
  5
7C
330
75
100
AcDbEntity
  8
4219838_HUELSE_Z
  6
Continuous
 62
     7
100
AcDbCircle
 10
149.4302848519
 20
377.3401576049
 30
0.0
 40
27.45
100
AcDbArc
 50
282.6255983308
 51
0.0
  0
ARC
  5
7D
330
75
100
AcDbEntity
  8
4219838_HUELSE_Z
  6
Continuous
 62
     7
100
AcDbCircle
 10
149.4302848519
 20
377.3401576049
 30
0.0
 40
27.45
100
AcDbArc
 50
162.6255983308
 51
257.3744016692
  0
ARC
  5
7E
330
75
100
AcDbEntity
  8
4219838_HUELSE_Z
  6
Continuous
 62
     7
100
AcDbCircle
 10
149.4302848519
 20
377.3401576049
 30
0.0
 40
27.45
100
AcDbArc
 50
42.6255983308
 51
137.3744016692
  0
ARC
  5
7F
330
75
100
AcDbEntity
  8
4219838_HUELSE_Z
  6
Continuous
 62
     7
100
AcDbCircle
 10
149.4302848519
 20
377.3401576049
 30
0.0
 40
27.45
100
AcDbArc
 50
0.0
 51
17.3744016692
  0
CIRCLE
  5
81
330
75
100
AcDbEntity
  8
11216038_GRIFF__
  6
Continuous
 62
     7
100
AcDbCircle
 10
149.4302848519
 20
377.3401576049
 30
0.0
 40
9.75
  0
LINE
  5
82
330
75
100
AcDbEntity
  8
11216038_GRIFF__
  6
Continuous
 62
     7
100
AcDbLine
 10
119.70433221
 20
400.8532973257
 30
0.0
 11
114.20433221
 21
391.3270178841
 31
0.0
  0
LINE
  5
83
330
75
100
AcDbEntity
  8
11216038_GRIFF__
  6
Continuous
 62
     7
100
AcDbLine
 10
143.9302848519
 20
339.8401576049
 30
0.0
 11
154.9302848519
 21
339.8401576049
 31
0.0
  0
LINE
  5
84
330
75
100
AcDbEntity
  8
11216038_GRIFF__
  6
Continuous
 62
     7
100
AcDbLine
 10
184.6562374938
 20
391.3270178841
 30
0.0
 11
179.1562374938
 21
400.8532973257
 31
0.0
  0
LINE
  5
85
330
75
100
AcDbEntity
  8
11216038_GRIFF__
  6
Continuous
 62
     7
100
AcDbLine
 10
143.4302848519
 20
369.6434124562
 30
0.0
 11
143.4302848519
 21
340.3401576049
 31
0.0
  0
LINE
  5
86
330
75
100
AcDbEntity
  8
11216038_GRIFF__
  6
Continuous
 62
     7
100
AcDbLine
 10
155.4302848519
 20
340.3401576049
 30
0.0
 11
155.4302848519
 21
369.6478897427
 31
0.0
  0
LINE
  5
87
330
75
100
AcDbEntity
  8
11216038_GRIFF__
  6
Continuous
 62
     7
100
AcDbLine
 10
159.0958616772
 20
375.9923777566
 30
0.0
 11
184.473224792
 21
390.6440051822
 31
0.0
  0
LINE
  5
88
330
75
100
AcDbEntity
  8
11216038_GRIFF__
  6
Continuous
 62
     7
100
AcDbLine
 10
178.473224792
 20
401.0363100276
 30
0.0
 11
153.0919842334
 21
386.3824439588
 31
0.0
  0
LINE
  5
89
330
75
100
AcDbEntity
  8
11216038_GRIFF__
  6
Continuous
 62
     7
100
AcDbLine
 10
145.7647080266
 20
386.384682602
 30
0.0
 11
120.3873449119
 21
401.0363100276
 31
0.0
  0
LINE
  5
8A
330
75
100
AcDbEntity
  8
11216038_GRIFF__
  6
Continuous
 62
     7
100
AcDbLine
 10
114.3873449119
 20
390.6440051822
 30
0.0
 11
139.7685854705
 21
375.9901391134
 31
0.0
  0
ARC
  5
8B
330
75
100
AcDbEntity
  8
11216038_GRIFF__
  6
Continuous
 62
     7
100
AcDbCircle
 10
114.6373449119
 20
391.0770178841
 30
0.0
 40
0.500000000000002
100
AcDbArc
 50
150.0
 51
240.0
  0
ARC
  5
8C
330
75
100
AcDbEntity
  8
11216038_GRIFF__
  6
Continuous
 62
     7
100
AcDbCircle
 10
120.1373449119
 20
400.6032973257
 30
0.0
 40
0.500000000000002
100
AcDbArc
 50
60.0
 51
150.0
  0
ARC
  5
8D
330
75
100
AcDbEntity
  8
11216038_GRIFF__
  6
Continuous
 62
     7
100
AcDbCircle
 10
154.9302848519
 20
340.3401576049
 30
0.0
 40
0.5000000000000004
100
AcDbArc
 50
270.0
 51
0.0
  0
ARC
  5
8E
330
75
100
AcDbEntity
  8
11216038_GRIFF__
  6
Continuous
 62
     7
100
AcDbCircle
 10
143.9302848519
 20
340.3401576049
 30
0.0
 40
0.5000000000000004
100
AcDbArc
 50
180.0
 51
270.0
  0
ARC
  5
8F
330
75
100
AcDbEntity
  8
11216038_GRIFF__
  6
Continuous
 62
     7
100
AcDbCircle
 10
178.723224792
 20
400.6032973257
 30
0.0
 40
0.500000000000002
100
AcDbArc
 50
30.0
 51
120.0
  0
ARC
  5
90
330
75
100
AcDbEntity
  8
11216038_GRIFF__
  6
Continuous
 62
     7
100
AcDbCircle
 10
184.223224792
 20
391.0770178841
 30
0.0
 40
0.500000000000002
100
AcDbArc
 50
300.0
 51
30.0
  0
CIRCLE
  5
92
330
75
100
AcDbEntity
  8
15600038__ROUND_
  6
Continuous
 62
     7
100
AcDbCircle
 10
149.4302848519
 20
377.3401576049
 30
0.0
 40
94.24999999999999
  0
CIRCLE
  5
93
330
75
100
AcDbEntity
  8
15600038__ROUND_
  6
Continuous
 62
     7
100
AcDbCircle
 10
149.4302848519
 20
377.3401576049
 30
0.0
 40
92.67471325686779
  0
ARC
  5
94
330
75
100
AcDbEntity
  8
15600038__ROUND_
  6
Continuous
 62
     7
100
AcDbCircle
 10
149.4302848519
 20
377.3401576049
 30
0.0
 40
27.75
100
AcDbArc
 50
0.0
 51
17.5131101858
  0
ARC
  5
95
330
75
100
AcDbEntity
  8
15600038__ROUND_
  6
Continuous
 62
     7
100
AcDbCircle
 10
149.4302848519
 20
377.3401576049
 30
0.0
 40
27.75
100
AcDbArc
 50
42.4868898142
 51
137.5131101858
  0
ARC
  5
96
330
75
100
AcDbEntity
  8
15600038__ROUND_
  6
Continuous
 62
     7
100
AcDbCircle
 10
149.4302848519
 20
377.3401576049
 30
0.0
 40
27.75
100
AcDbArc
 50
162.4868898142
 51
257.5131101858
  0
ARC
  5
97
330
75
100
AcDbEntity
  8
15600038__ROUND_
  6
Continuous
 62
     7
100
AcDbCircle
 10
149.4302848519
 20
377.3401576049
 30
0.0
 40
27.75
100
AcDbArc
 50
282.4868898142
 51
0.0
  0
CIRCLE
  5
99
330
75
100
AcDbEntity
  8
14040765_DIVERTE
  6
Continuous
 62
     7
100
AcDbCircle
 10
149.4302848519
 20
322.3401576049
 30
0.0
 40
9.143238152091504
  0
CIRCLE
  5
9A
330
75
100
AcDbEntity
  8
14040765_DIVERTE
  6
Continuous
 62
     7
100
AcDbCircle
 10
149.4302848519
 20
322.3401576049
 30
0.0
 40
11.5
  0
ENDBLK
  5
9C
330
75
100
AcDbEntity
  8
0
100
AcDbBlockEnd
  0
BLOCK
  5
DD
330
9D
100
AcDbEntity
  8
0
100
AcDbBlockBegin
  2
SE1
 70
     0
 10
0.0
 20
0.0
 30
0.0
  3
SE1
  1

  0
LINE
  5
9F
330
9D
100
AcDbEntity
  8
4219838_HUELSE_Z
  6
Continuous
 62
     7
100
AcDbLine
 10
133.4302848519
 20
107.6581519918
 30
0.0
 11
165.4302848519
 21
107.6581519918
 31
0.0
  0
LINE
  5
A0
330
9D
100
AcDbEntity
  8
4219838_HUELSE_Z
  6
Continuous
 62
     7
100
AcDbLine
 10
123.9802848519
 20
115.6581519918
 30
0.0
 11
174.8802848519
 21
115.6581519918
 31
0.0
  0
LINE
  5
A1
330
9D
100
AcDbEntity
  8
4219838_HUELSE_Z
  6
Continuous
 62
     7
100
AcDbLine
 10
121.9802848519
 20
159.1723242099
 30
0.0
 11
121.9802848519
 21
117.6581519918
 31
0.0
  0
LINE
  5
A2
330
9D
100
AcDbEntity
  8
4219838_HUELSE_Z
  6
Continuous
 62
     7
100
AcDbLine
 10
176.8802848519
 20
117.6581519918
 30
0.0
 11
176.8802848519
 21
159.1723242099
 31
0.0
  0
LINE
  5
A3
330
9D
100
AcDbEntity
  8
4219838_HUELSE_Z
  6
Continuous
 62
     7
100
AcDbLine
 10
167.4302848519
 20
109.6581519918
 30
0.0
 11
167.4302848519
 21
113.6581519918
 31
0.0
  0
LINE
  5
A4
330
9D
100
AcDbEntity
  8
4219838_HUELSE_Z
  6
Continuous
 62
     7
100
AcDbLine
 10
131.4302848519
 20
113.6581519918
 30
0.0
 11
131.4302848519
 21
109.6581519918
 31
0.0
  0
ARC
  5
A5
330
9D
100
AcDbEntity
  8
4219838_HUELSE_Z
  6
Continuous
 62
     7
100
AcDbCircle
 10
165.4302848519
 20
109.6581519918
 30
0.0
 40
2.000000000000002
100
AcDbArc
 50
270.0
 51
0.0
  0
ARC
  5
A6
330
9D
100
AcDbEntity
  8
4219838_HUELSE_Z
  6
Continuous
 62
     7
100
AcDbCircle
 10
133.4302848519
 20
109.6581519918
 30
0.0
 40
2.000000000000002
100
AcDbArc
 50
180.0
 51
270.0
  0
ARC
  5
A7
330
9D
100
AcDbEntity
  8
4219838_HUELSE_Z
  6
Continuous
 62
     7
100
AcDbCircle
 10
123.9802848519
 20
117.6581519918
 30
0.0
 40
1.999999999999998
100
AcDbArc
 50
180.0
 51
270.0
  0
ARC
  5
A8
330
9D
100
AcDbEntity
  8
4219838_HUELSE_Z
  6
Continuous
 62
     7
100
AcDbCircle
 10
174.8802848519
 20
117.6581519918
 30
0.0
 40
2.000000000000002
100
AcDbArc
 50
270.0
 51
0.0
  0
ARC
  5
A9
330
9D
100
AcDbEntity
  8
4219838_HUELSE_Z
  6
Continuous
 62
     7
100
AcDbCircle
 10
129.4302848519
 20
113.6581519918
 30
0.0
 40
2.000000000000002
100
AcDbArc
 50
0.0
 51
90.0
  0
ARC
  5
AA
330
9D
100
AcDbEntity
  8
4219838_HUELSE_Z
  6
Continuous
 62
     7
100
AcDbCircle
 10
169.4302848519
 20
113.6581519918
 30
0.0
 40
2.000000000000002
100
AcDbArc
 50
90.0
 51
180.0
  0
CIRCLE
  5
AC
330
9D
100
AcDbEntity
  8
11232031_STIFT_G
  6
Continuous
 62
     7
100
AcDbCircle
 10
149.4302848519
 20
91.1581519918
 30
0.0
 40
1.5705
  0
CIRCLE
  5
AD
330
9D
100
AcDbEntity
  8
11232031_STIFT_G
  6
Continuous
 62
     7
100
AcDbCircle
 10
149.4302848519
 20
91.1581519918
 30
0.0
 40
2.0
  0
LINE
  5
AE
330
9D
100
AcDbEntity
  8
11232031_STIFT_G
  6
Continuous
 62
     7
100
AcDbLine
 10
150.0618415432
 20
92.1248316073
 30
0.0
 11
150.5832323019
 21
91.0945476609
 31
0.0
  0
LINE
  5
AF
330
9D
100
AcDbEntity
  8
11232031_STIFT_G
  6
Continuous
 62
     7
100
AcDbLine
 10
150.5832323019
 20
91.0945476609
 30
0.0
 11
149.9516756106
 21
90.1278680454
 31
0.0
  0
LINE
  5
B0
330
9D
100
AcDbEntity
  8
11232031_STIFT_G
  6
Continuous
 62
     7
100
AcDbLine
 10
149.9516756106
 20
90.1278680454
 30
0.0
 11
148.7987281606
 21
90.1914723763
 31
0.0
  0
LINE
  5
B1
330
9D
100
AcDbEntity
  8
11232031_STIFT_G
  6
Continuous
 62
     7
100
AcDbLine
 10
148.7987281606
 20
90.1914723763
 30
0.0
 11
148.2773374019
 21
91.2217563226
 31
0.0
  0
LINE
  5
B2
330
9D
100
AcDbEntity
  8
11232031_STIFT_G
  6
Continuous
 62
     7
100
AcDbLine
 10
148.2773374019
 20
91.2217563226
 30
0.0
 11
148.9088940933
 21
92.1884359381
 31
0.0
  0
LINE
  5
B3
330
9D
100
AcDbEntity
  8
11232031_STIFT_G
  6
Continuous
 62
     7
100
AcDbLine
 10
148.9088940933
 20
92.1884359381
 30
0.0
 11
150.0618415432
 21
92.1248316073
 31
0.0
  0
LINE
  5
B5
330
9D
100
AcDbEntity
  8
08962031_SCHRAUB
  6
Continuous
 62
     7
100
AcDbLine
 10
150.8802848519
 20
92.6706537803
 30
0.0
 11
150.8802848519
 21
92.7581519918
 31
0.0
  0
LINE
  5
B6
330
9D
100
AcDbEntity
  8
11216038_GRIFF__
  6
Continuous
 62
     7
100
AcDbLine
 10
139.6802848519
 20
106.6581519918
 30
0.0
 11
159.1802848519
 21
106.6581519918
 31
0.0
  0
LINE
  5
B7
330
9D
100
AcDbEntity
  8
11216038_GRIFF__
  6
Continuous
 62
     7
100
AcDbLine
 10
140.1802848519
 20
83.6581519918
 30
0.0
 11
158.6802848519
 21
83.6581519918
 31
0.0
  0
SPLINE
  5
B8
330
9D
100
AcDbEntity
  8
11216038_GRIFF__
  6
Continuous
 62
     7
100
AcDbSpline
210
0.0
220
0.0
230
1.0
 70
     8
 71
     3
 72
    22
 73
    18
 74
     0
 42
0.0000000003000669
 43
0.0000000001
 40
0.0
 40
0.0
 40
0.0
 40
0.0
 40
0.1250000000000001
 40
0.1250000000000001
 40
0.1875
 40
0.1875
 40
0.25
 40
0.25
 40
0.3124999999999999
 40
0.3124999999999999
 40
0.3749999999999999
 40
0.3749999999999999
 40
0.4374999999999999
 40
0.4374999999999999
 40
0.4999999999999999
 40
0.4999999999999999
 40
0.5005300973223755
 40
0.5005300973223755
 40
0.5005300973223755
 40
0.5005300973223755
 10
157.8740325388303
 20
85.15815199177077
 30
0.0
 10
157.0587254187147
 20
85.15815199177077
 30
0.0
 10
155.8957707622211
 20
85.84208282261488
 30
0.0
 10
154.4125534107206
 20
87.45946720041545
 30
0.0
 10
153.9581227362086
 20
88.10125824724996
 30
0.0
 10
153.2943634045259
 20
89.53015636153788
 30
0.0
 10
153.0879124900253
 20
90.33305025051914
 30
0.0
 10
153.0838683304392
 20
91.95785836642823
 30
0.0
 10
153.2845903513658
 20
92.7573400430755
 30
0.0
 10
153.9456764895537
 20
94.19576553110595
 30
0.0
 10
154.3989158524095
 20
94.83975394963659
 30
0.0
 10
155.393215724349
 20
95.92837040502869
 30
0.0
 10
155.9253427411797
 20
96.3659841351473
 30
0.0
 10
156.969482017711
 20
96.98840364661821
 30
0.0
 10
157.4564657657606
 20
97.15526972194101
 30
0.0
 10
157.866939933896
 20
97.15813919865151
 30
0.0
 10
157.8703853032315
 20
97.15815122660126
 30
0.0
 10
157.8738238562369
 20
97.15815116751355
 30
0.0
  0
SPLINE
  5
B9
330
9D
100
AcDbEntity
  8
11216038_GRIFF__
  6
Continuous
 62
     7
100
AcDbSpline
210
0.0
220
0.0
230
1.0
 70
     8
 71
     3
 72
    22
 73
    18
 74
     0
 42
0.0000000003006761
 43
0.0000000001
 40
0.5005300973223754
 40
0.5005300973223754
 40
0.5005300973223754
 40
0.5005300973223754
 40
0.5624999999999997
 40
0.5624999999999997
 40
0.6249999999999996
 40
0.6249999999999996
 40
0.6874999999999997
 40
0.6874999999999997
 40
0.7499999999999997
 40
0.7499999999999997
 40
0.8124999999999998
 40
0.8124999999999998
 40
0.8749999999999999
 40
0.8749999999999999
 40
0.9374999999999999
 40
0.9374999999999999
 40
1.0
 40
1.0
 40
1.0
 40
1.0
 10
140.9863302091208
 20
97.15815116751355
 30
0.0
 10
141.3883798279762
 20
97.15814425998987
 30
0.0
 10
141.8770693941217
 20
96.9929524789719
 30
0.0
 10
142.9061221178304
 20
96.38700075885542
 30
0.0
 10
143.4487291957491
 20
95.9450789204601
 30
0.0
 10
144.4442246266706
 20
94.86238819296135
 30
0.0
 10
144.8963109236365
 20
94.226995999674
 30
0.0
 10
145.5686884800132
 20
92.78205633019883
 30
0.0
 10
145.7726540608268
 20
91.97692158757964
 30
0.0
 10
145.7767039277037
 20
90.36501718490429
 30
0.0
 10
145.5767843667795
 20
89.56006086463717
 30
0.0
 10
144.9122180556702
 20
88.1153742169077
 30
0.0
 10
144.4567982660845
 20
87.47003422005972
 30
0.0
 10
143.4602346383683
 20
86.38135306751606
 30
0.0
 10
142.9210448503397
 20
85.94036396128509
 30
0.0
 10
141.8860879080513
 20
85.32644983799119
 30
0.0
 10
141.3941907250915
 20
85.15815199177077
 30
0.0
 10
140.9865371650337
 20
85.15815199177077
 30
0.0
  0
ELLIPSE
  5
BA
330
9D
100
AcDbEntity
  8
11216038_GRIFF__
  6
Continuous
 62
     7
100
AcDbEllipse
 10
117.3873449119
 20
91.1581519918
 30
0.0
 11
-6.938893903907228E-15
 21
-6.000000000000005
 31
0.0
210
0.0
220
0.0
230
1.0
 40
0.5
 41
6.262694204912607
 42
6.283185307179586
  0
ELLIPSE
  5
BB
330
9D
100
AcDbEntity
  8
11216038_GRIFF__
  6
Continuous
 62
     7
100
AcDbEllipse
 10
117.3873449119
 20
91.1581519918
 30
0.0
 11
-6.938893903907228E-15
 21
-6.000000000000005
 31
0.0
210
0.0
220
0.0
230
1.0
 40
0.5
 41
0.0
 42
3.133844364684724
  0
ELLIPSE
  5
BC
330
9D
100
AcDbEntity
  8
11216038_GRIFF__
  6
Continuous
 62
     7
100
AcDbEllipse
 10
181.473224792
 20
91.1581519918
 30
0.0
 11
-6.938893903907228E-15
 21
-6.000000000000005
 31
0.0
210
0.0
220
0.0
230
1.0
 40
0.5
 41
6.26269420491272
 42
6.283185307179586
  0
ELLIPSE
  5
BD
330
9D
100
AcDbEntity
  8
11216038_GRIFF__
  6
Continuous
 62
     7
100
AcDbEllipse
 10
181.473224792
 20
91.1581519918
 30
0.0
 11
-6.938893903907228E-15
 21
-6.000000000000005
 31
0.0
210
0.0
220
0.0
230
1.0
 40
0.5
 41
3.133844364684724
 42
6.26269420491272
  0
CIRCLE
  5
BE
330
9D
100
AcDbEntity
  8
11216038_GRIFF__
  6
Continuous
 62
     7
100
AcDbCircle
 10
149.4302848519
 20
91.1581519918
 30
0.0
 40
2.1
  0
SPLINE
  5
BF
330
9D
100
AcDbEntity
  8
11216038_GRIFF__
  6
Continuous
 62
     7
100
AcDbSpline
210
0.0
220
0.0
230
1.0
 70
    11
 71
     3
 72
    23
 73
    19
 74
     0
 42
0.0000000006725585
 43
0.0000000001
 40
0.0
 40
0.0
 40
0.0
 40
0.0
 40
0.0630986987464209
 40
0.1258711645149268
 40
0.1880869175038631
 40
0.2499166628452739
 40
0.3118275800114423
 40
0.3741541247750236
 40
0.4368837415095686
 40
0.500004889717215
 40
0.5631545973915258
 40
0.6259112671118433
 40
0.688199576727152
 40
0.7500644790142117
 40
0.8119157603912852
 40
0.8741634462437029
 40
0.9369192423037813
 40
1.0
 40
1.0
 40
1.0
 40
1.0
 10
149.430284851932
 20
93.45815199177075
 30
0.0
 10
149.7379932438847
 20
93.4581806648824
 30
0.0
 10
150.3518482018129
 20
93.33408898661861
 30
0.0
 10
151.1320799607995
 20
92.83003183229418
 30
0.0
 10
151.6504077785598
 20
92.06612031667164
 30
0.0
 10
151.8423384571521
 20
91.15901080984612
 30
0.0
 10
151.650122694909
 20
90.2515068146455
 30
0.0
 10
151.1323552448516
 20
89.48642605607056
 30
0.0
 10
150.3520139360734
 20
88.98126000783425
 30
0.0
 10
149.430091258162
 20
88.79630989316391
 30
0.0
 10
148.5081372391298
 20
88.98164404274506
 30
0.0
 10
147.727748058315
 20
89.48686445320058
 30
0.0
 10
147.2102361694355
 20
90.25180114071851
 30
0.0
 10
147.018289576106
 20
91.15901034220505
 30
0.0
 10
147.2101565224235
 20
92.06615475677468
 30
0.0
 10
147.7286258232508
 20
92.83026055949895
 30
0.0
 10
148.5090359377364
 20
93.33398669543375
 30
0.0
 10
149.122663951668
 20
93.4581233268118
 30
0.0
 10
149.430284851932
 20
93.45815199177075
 30
0.0
  0
ARC
  5
C0
330
9D
100
AcDbEntity
  8
11216038_GRIFF__
  6
Continuous
 62
     7
100
AcDbCircle
 10
140.1802848519
 20
84.1581519918
 30
0.0
 40
0.5000000000000004
100
AcDbArc
 50
180.0
 51
270.0
  0
ARC
  5
C1
330
9D
100
AcDbEntity
  8
11216038_GRIFF__
  6
Continuous
 62
     7
100
AcDbCircle
 10
158.6802848519
 20
84.1581519918
 30
0.0
 40
0.5000000000000004
100
AcDbArc
 50
270.0
 51
0.0
  0
LINE
  5
C2
330
9D
100
AcDbEntity
  8
11216038_GRIFF__
  6
Continuous
 62
     7
100
AcDbLine
 10
157.8740325388
 20
85.1581519918
 30
0.0
 11
181.473224792
 21
85.1581519918
 31
0.0
  0
LINE
  5
C3
330
9D
100
AcDbEntity
  8
11216038_GRIFF__
  6
Continuous
 62
     7
100
AcDbLine
 10
181.473224792
 20
97.1581519918
 30
0.0
 11
157.8667939846
 21
97.1581519918
 31
0.0
  0
LINE
  5
C4
330
9D
100
AcDbEntity
  8
11216038_GRIFF__
  6
Continuous
 62
     7
100
AcDbLine
 10
140.9937757192
 20
97.1581519918
 30
0.0
 11
117.3873449119
 21
97.1581519918
 31
0.0
  0
LINE
  5
C5
330
9D
100
AcDbEntity
  8
11216038_GRIFF__
  6
Continuous
 62
     7
100
AcDbLine
 10
117.3873449119
 20
85.1581519918
 30
0.0
 11
140.986537165
 21
85.1581519918
 31
0.0
  0
SPLINE
  5
C6
330
9D
100
AcDbEntity
  8
11216038_GRIFF__
  6
Continuous
 62
     7
100
AcDbSpline
210
0.0
220
0.0
230
1.0
 70
     8
 71
     3
 72
    20
 73
    16
 74
     0
 42
0.0000000013349239
 43
0.0000000001
 40
0.0
 40
0.0
 40
0.0
 40
0.0
 40
0.0484170261469157
 40
0.126264656115787
 40
0.2046528779482543
 40
0.2854690959675895
 40
0.369293638486702
 40
0.4553604448467878
 40
0.5424020483592943
 40
0.6294050445736225
 40
0.7160777955114447
 40
0.8024159720484773
 40
0.8884980666293216
 40
0.9744230251624402
 40
1.0
 40
1.0
 40
1.0
 40
1.0
 10
117.4162276439047
 20
97.14503740827513
 30
0.0
 10
117.3146287278596
 20
97.14841704981846
 30
0.0
 10
117.0897746177211
 20
97.15353863998793
 30
0.0
 10
116.6974151170984
 20
97.04515623828276
 30
0.0
 10
116.2822644959691
 20
96.8379212999391
 30
0.0
 10
115.8867086172701
 20
96.5307547700066
 30
0.0
 10
115.5176486739488
 20
96.12919404518306
 30
0.0
 10
115.1798501231137
 20
95.63494171682632
 30
0.0
 10
114.8813566216505
 20
95.05790383787276
 30
0.0
 10
114.6282704674201
 20
94.41101871857089
 30
0.0
 10
114.4246497792131
 20
93.70892434972059
 30
0.0
 10
114.2727377894479
 20
92.96184033592107
 30
0.0
 10
114.1747370787773
 20
92.1927201940244
 30
0.0
 10
114.1401480135101
 20
91.5676787669234
 30
0.0
 10
114.1377903051182
 20
91.24483215508282
 30
0.0
 10
114.1373449119078
 20
91.15815199177075
 30
0.0
  0
SPLINE
  5
C7
330
9D
100
AcDbEntity
  8
11216038_GRIFF__
  6
Continuous
 62
     7
100
AcDbSpline
210
0.0
220
0.0
230
1.0
 70
     8
 71
     3
 72
    19
 73
    15
 74
     0
 42
0.0000000013540476
 43
0.0000000001
 40
0.0
 40
0.0
 40
0.0
 40
0.0
 40
0.0461767739019687
 40
0.1336448185256308
 40
0.221257489602832
 40
0.3090755971008375
 40
0.397217528910746
 40
0.485807611303551
 40
0.5749512725344502
 40
0.6646519566799807
 40
0.7544684709831176
 40
0.8430847365684421
 40
0.92881062923251
 40
1.0
 40
1.0
 40
1.0
 40
1.0
 10
114.1373449119078
 20
91.15815199177075
 30
0.0
 10
114.13874334174
 20
91.00457388590412
 30
0.0
 10
114.1434439239685
 20
90.6268620842135
 30
0.0
 10
114.192601325655
 20
89.94518861681546
 30
0.0
 10
114.3025091495563
 20
89.1822563131486
 30
0.0
 10
114.4659498329896
 20
88.4456890908623
 30
0.0
 10
114.680362792175
 20
87.75633472532901
 30
0.0
 10
114.9441024344779
 20
87.12316871424387
 30
0.0
 10
115.2554028969836
 20
86.55743195317045
 30
0.0
 10
115.612074075445
 20
86.07018901181426
 30
0.0
 10
116.0120747535888
 20
85.6726386158447
 30
0.0
 10
116.444162288644
 20
85.3820304245408
 30
0.0
 10
116.8917345562705
 20
85.20191637973673
 30
0.0
 10
117.1644792154642
 20
85.17730624450851
 30
0.0
 10
117.3108815590294
 20
85.16620852502147
 30
0.0
  0
SPLINE
  5
C8
330
9D
100
AcDbEntity
  8
11216038_GRIFF__
  6
Continuous
 62
     7
100
AcDbSpline
210
0.0
220
0.0
230
1.0
 70
     8
 71
     3
 72
    32
 73
    28
 74
     0
 42
0.0000000006677206
 43
0.0000000001
 40
0.0
 40
0.0
 40
0.0
 40
0.0
 40
0.0053682694222408
 40
0.0445193890904582
 40
0.0834467587619191
 40
0.1230924677735011
 40
0.1641639828615636
 40
0.2066484448428775
 40
0.2499928634227476
 40
0.2935863636888664
 40
0.3370632919057626
 40
0.3803654727427792
 40
0.4235138793520581
 40
0.4665541138731547
 40
0.5095364870541294
 40
0.5525110635233175
 40
0.5955179672774921
 40
0.6386030983689173
 40
0.6818226878933031
 40
0.7252372268158491
 40
0.7689050472890907
 40
0.8128565716666825
 40
0.8570166033211912
 40
0.9008835443713437
 40
0.9436649814930091
 40
0.9847117518935362
 40
1.0
 40
1.0
 40
1.0
 40
1.0
 10
181.3967614390778
 20
85.16620852502147
 30
0.0
 10
181.4190700747593
 20
85.16295349582894
 30
0.0
 10
181.5780187786131
 20
85.1401245707197
 30
0.0
 10
181.9081921885601
 20
85.19642880100209
 30
0.0
 10
182.3348834263088
 20
85.34192698510412
 30
0.0
 10
182.744563812751
 20
85.59407023053495
 30
0.0
 10
183.1290028626173
 20
85.9391217836714
 30
0.0
 10
183.4862903269498
 20
86.37986659012813
 30
0.0
 10
183.8087436236924
 20
86.9095678447349
 30
0.0
 10
184.0891770213738
 20
87.51704241528965
 30
0.0
 10
184.3222770343475
 20
88.1884120652944
 30
0.0
 10
184.5048249433391
 20
88.91014644629604
 30
0.0
 10
184.63479520833
 20
89.66945878095942
 30
0.0
 10
184.7107976909386
 20
90.45344309715938
 30
0.0
 10
184.7320259780416
 20
91.24895118581038
 30
0.0
 10
184.6982914755909
 20
92.04263076240893
 30
0.0
 10
184.6100554284772
 20
92.821159413222
 30
0.0
 10
184.4683908779468
 20
93.57154903578503
 30
0.0
 10
184.2748475983259
 20
94.28143924789737
 30
0.0
 10
184.031231785109
 20
94.93924654331795
 30
0.0
 10
183.7394145958274
 20
95.53402422584354
 30
0.0
 10
183.4009994093488
 20
96.0553561692335
 30
0.0
 10
183.0189255492827
 20
96.49077576780874
 30
0.0
 10
182.5965616988254
 20
96.82991302474262
 30
0.0
 10
182.1499814605826
 20
97.0511817028297
 30
0.0
 10
181.7674995686717
 20
97.15551719551893
 30
0.0
 10
181.566153282077
 20
97.14789953049224
 30
0.0
 10
181.5021075239531
 20
97.14503740827513
 30
0.0
  0
LINE
  5
C9
330
9D
100
AcDbEntity
  8
11216038_GRIFF__
  6
Continuous
 62
     7
100
AcDbLine
 10
139.6802848519
 20
85.1581519918
 30
0.0
 11
139.6802848519
 21
84.1581519918
 31
0.0
  0
LINE
  5
CA
330
9D
100
AcDbEntity
  8
11216038_GRIFF__
  6
Continuous
 62
     7
100
AcDbLine
 10
139.6802848519
 20
106.6581519918
 30
0.0
 11
139.6802848519
 21
97.1581519918
 31
0.0
  0
LINE
  5
CB
330
9D
100
AcDbEntity
  8
11216038_GRIFF__
  6
Continuous
 62
     7
100
AcDbLine
 10
159.1802848519
 20
97.1581519918
 30
0.0
 11
159.1802848519
 21
106.6581519918
 31
0.0
  0
LINE
  5
CC
330
9D
100
AcDbEntity
  8
11216038_GRIFF__
  6
Continuous
 62
     7
100
AcDbLine
 10
159.1802848519
 20
84.1581519918
 30
0.0
 11
159.1802848519
 21
85.1581519918
 31
0.0
  0
LINE
  5
CE
330
9D
100
AcDbEntity
  8
4219845_EINS_SCH
  6
Continuous
 62
     7
100
AcDbLine
 10
157.9302848519
 20
106.6581519918
 30
0.0
 11
157.9302848519
 21
107.6581519918
 31
0.0
  0
LINE
  5
CF
330
9D
100
AcDbEntity
  8
4219845_EINS_SCH
  6
Continuous
 62
     7
100
AcDbLine
 10
140.9302848519
 20
107.6581519918
 30
0.0
 11
140.9302848519
 21
106.6581519918
 31
0.0
  0
LINE
  5
D0
330
9D
100
AcDbEntity
  8
15600038__ROUND_
  6
Continuous
 62
     7
100
AcDbLine
 10
56.7795162617
 20
172.9019121494
 30
0.0
 11
242.0810534421
 21
172.9019121494
 31
0.0
  0
LINE
  5
D1
330
9D
100
AcDbEntity
  8
15600038__ROUND_
  6
Continuous
 62
     7
100
AcDbLine
 10
55.1802848519
 20
161.4237206883
 30
0.0
 11
243.6802848519
 21
161.4237206883
 31
0.0
  0
LINE
  5
D2
330
9D
100
AcDbEntity
  8
15600038__ROUND_
  6
Continuous
 62
     7
100
AcDbLine
 10
121.6802848519
 20
159.1723242099
 30
0.0
 11
177.1802848519
 21
159.1723242099
 31
0.0
  0
ARC
  5
D3
330
9D
100
AcDbEntity
  8
15600038__ROUND_
  6
Continuous
 62
     7
100
AcDbCircle
 10
56.8910543674
 20
171.9081519918
 30
0.0
 40
1.000000000000005
100
AcDbArc
 50
90.0
 51
96.4039882183
  0
ARC
  5
D4
330
9D
100
AcDbEntity
  8
15600038__ROUND_
  6
Continuous
 62
     7
100
AcDbCircle
 10
241.9695153365
 20
171.9081519918
 30
0.0
 40
1.000000000000005
100
AcDbArc
 50
83.5960117817
 51
90.0
  0
ARC
  5
D5
330
9D
100
AcDbEntity
  8
15600038__ROUND_
  6
Continuous
 62
     7
100
AcDbCircle
 10
56.9802848519
 20
171.1131438656
 30
0.0
 40
1.800000000000001
100
AcDbArc
 50
96.4039882183
 51
180.0
  0
ARC
  5
D6
330
9D
100
AcDbEntity
  8
15600038__ROUND_
  6
Continuous
 62
     7
100
AcDbCircle
 10
241.8802848519
 20
171.1131438656
 30
0.0
 40
1.799999999999996
100
AcDbArc
 50
0.0
 51
83.5960117817
  0
LINE
  5
D7
330
9D
100
AcDbEntity
  8
15600038__ROUND_
  6
Continuous
 62
     7
100
AcDbLine
 10
55.1802848519
 20
171.1131438656
 30
0.0
 11
55.1802848519
 21
161.4237206883
 31
0.0
  0
LINE
  5
D8
330
9D
100
AcDbEntity
  8
15600038__ROUND_
  6
Continuous
 62
     7
100
AcDbLine
 10
243.6802848519
 20
161.4237206883
 30
0.0
 11
243.6802848519
 21
171.1131438656
 31
0.0
  0
ARC
  5
D9
330
9D
100
AcDbEntity
  8
15600038__ROUND_
  6
Continuous
 62
     7
100
AcDbCircle
 10
56.7802848519
 20
161.4237206883
 30
0.0
 40
1.600000000000004
100
AcDbArc
 50
180.0
 51
269.1149864849
  0
ARC
  5
DA
330
9D
100
AcDbEntity
  8
15600038__ROUND_
  6
Continuous
 62
     7
100
AcDbCircle
 10
242.0802848519
 20
161.4237206883
 30
0.0
 40
1.600000000000013
100
AcDbArc
 50
270.8850135151
 51
0.0
  0
ARC
  5
DB
330
9D
100
AcDbEntity
  8
15600038__ROUND_
  6
Continuous
 62
     7
100
AcDbCircle
 10
149.4302848519
 20
6159.1081519918
 30
0.0
 40
5999.999999999999
100
AcDbArc
 50
270.264993925
 51
270.8850135152
  0
ARC
  5
DC
330
9D
100
AcDbEntity
  8
15600038__ROUND_
  6
Continuous
 62
     7
100
AcDbCircle
 10
149.4302848519
 20
6159.1081519918
 30
0.0
 40
6000.0
100
AcDbArc
 50
269.1149864848
 51
269.735006075
  0
ENDBLK
  5
DE
330
9D
100
AcDbEntity
  8
0
100
AcDbBlockEnd
  0
BLOCK
  5
135
330
DF
100
AcDbEntity
  8
0
100
AcDbBlockBegin
  2
SE2
 70
     0
 10
0.0
 20
0.0
 30
0.0
  3
SE2
  1

  0
LINE
  5
E1
330
DF
100
AcDbEntity
  8
4219838_HUELSE_Z
  6
Continuous
 62
     7
100
AcDbLine
 10
390.8976203663
 20
393.3401576049
 30
0.0
 11
390.8976203663
 21
361.3401576049
 31
0.0
  0
LINE
  5
E2
330
DF
100
AcDbEntity
  8
4219838_HUELSE_Z
  6
Continuous
 62
     7
100
AcDbLine
 10
382.8976203663
 20
402.7901576049
 30
0.0
 11
382.8976203663
 21
351.8901576049
 31
0.0
  0
ARC
  5
E3
330
DF
100
AcDbEntity
  8
4219838_HUELSE_Z
  6
Continuous
 62
     7
100
AcDbCircle
 10
379.3975841759
 20
322.4578949261
 30
0.0
 40
27.45048465990028
100
AcDbArc
 50
87.9122213872
 51
92.0874716216
  0
LINE
  5
E4
330
DF
100
AcDbEntity
  8
4219838_HUELSE_Z
  6
Continuous
 62
     7
100
AcDbLine
 10
380.3976203663
 20
349.8901576049
 30
0.0
 11
380.8976203663
 21
349.8901576049
 31
0.0
  0
LINE
  5
E5
330
DF
100
AcDbEntity
  8
4219838_HUELSE_Z
  6
Continuous
 62
     7
100
AcDbLine
 10
339.3834481481
 20
349.8901576049
 30
0.0
 11
378.4098622141
 21
349.8901576049
 31
0.0
  0
LINE
  5
E6
330
DF
100
AcDbEntity
  8
4219838_HUELSE_Z
  6
Continuous
 62
     7
100
AcDbLine
 10
380.8976203663
 20
404.7901576049
 30
0.0
 11
339.3834481481
 21
404.7901576049
 31
0.0
  0
LINE
  5
E7
330
DF
100
AcDbEntity
  8
4219838_HUELSE_Z
  6
Continuous
 62
     7
100
AcDbLine
 10
388.8976203663
 20
395.3401576049
 30
0.0
 11
384.8976203663
 21
395.3401576049
 31
0.0
  0
LINE
  5
E8
330
DF
100
AcDbEntity
  8
4219838_HUELSE_Z
  6
Continuous
 62
     7
100
AcDbLine
 10
384.8976203663
 20
359.3401576049
 30
0.0
 11
388.8976203663
 21
359.3401576049
 31
0.0
  0
ARC
  5
E9
330
DF
100
AcDbEntity
  8
4219838_HUELSE_Z
  6
Continuous
 62
     7
100
AcDbCircle
 10
388.8976203663
 20
393.3401576049
 30
0.0
 40
2.000000000000002
100
AcDbArc
 50
0.0
 51
90.0
  0
ARC
  5
EA
330
DF
100
AcDbEntity
  8
4219838_HUELSE_Z
  6
Continuous
 62
     7
100
AcDbCircle
 10
388.8976203663
 20
361.3401576049
 30
0.0
 40
2.000000000000002
100
AcDbArc
 50
270.0
 51
0.0
  0
ARC
  5
EB
330
DF
100
AcDbEntity
  8
4219838_HUELSE_Z
  6
Continuous
 62
     7
100
AcDbCircle
 10
380.8976203663
 20
351.8901576049
 30
0.0
 40
1.999999999999998
100
AcDbArc
 50
270.0
 51
0.0
  0
ARC
  5
EC
330
DF
100
AcDbEntity
  8
4219838_HUELSE_Z
  6
Continuous
 62
     7
100
AcDbCircle
 10
380.8976203663
 20
402.7901576049
 30
0.0
 40
2.000000000000002
100
AcDbArc
 50
0.0
 51
90.0
  0
ARC
  5
ED
330
DF
100
AcDbEntity
  8
4219838_HUELSE_Z
  6
Continuous
 62
     7
100
AcDbCircle
 10
384.8976203663
 20
357.3401576049
 30
0.0
 40
2.000000000000002
100
AcDbArc
 50
90.0
 51
180.0
  0
ARC
  5
EE
330
DF
100
AcDbEntity
  8
4219838_HUELSE_Z
  6
Continuous
 62
     7
100
AcDbCircle
 10
384.8976203663
 20
397.3401576049
 30
0.0
 40
2.000000000000002
100
AcDbArc
 50
180.0
 51
270.0
  0
LINE
  5
EF
330
DF
100
AcDbEntity
  8
11216038_GRIFF__
  6
Continuous
 62
     7
100
AcDbLine
 10
391.8976203663
 20
367.5901576049
 30
0.0
 11
391.8976203663
 21
387.0901576049
 31
0.0
  0
ARC
  5
F0
330
DF
100
AcDbEntity
  8
11216038_GRIFF__
  6
Continuous
 62
     7
100
AcDbCircle
 10
407.3976201456
 20
359.8921588688
 30
0.0
 40
9.76008131061597
100
AcDbArc
 50
52.0663155899
 51
127.9336749743
  0
LINE
  5
F1
330
DF
100
AcDbEntity
  8
11216038_GRIFF__
  6
Continuous
 62
     7
100
AcDbLine
 10
414.8976203663
 20
386.5901576049
 30
0.0
 11
414.8976203663
 21
368.0901576049
 31
0.0
  0
SPLINE
  5
F2
330
DF
100
AcDbEntity
  8
11216038_GRIFF__
  6
Continuous
 62
     7
100
AcDbSpline
210
0.0
220
0.0
230
1.0
 70
     8
 71
     3
 72
    22
 73
    18
 74
     0
 42
0.0000000002613829
 43
0.0000000001
 40
0.0
 40
0.0
 40
0.0
 40
0.0
 40
0.1249999999999999
 40
0.1249999999999999
 40
0.1874999999999999
 40
0.1874999999999999
 40
0.2499999999999998
 40
0.2499999999999998
 40
0.3124999999999998
 40
0.3124999999999998
 40
0.3749999999999998
 40
0.3749999999999998
 40
0.4374999999999997
 40
0.4374999999999997
 40
0.4999999999999997
 40
0.4999999999999997
 40
0.5005300973223754
 40
0.5005300973223754
 40
0.5005300973223754
 40
0.5005300973223754
 10
413.3976203662874
 20
382.2151576049306
 30
0.0
 10
413.3976203662874
 20
380.8030042491179
 30
0.0
 10
412.7136895354433
 20
379.2418509193327
 30
0.0
 10
411.0963051576427
 20
377.4538392233939
 30
0.0
 10
410.4545141108082
 20
376.9400273158898
 30
0.0
 10
409.0256159965203
 20
376.206966978528
 30
0.0
 10
408.222722107539
 20
375.9887886745407
 30
0.0
 10
406.5979139916299
 20
375.9844685258095
 30
0.0
 10
405.7984323149826
 20
376.1964336695393
 30
0.0
 10
404.3600068269522
 20
376.9260300791503
 30
0.0
 10
403.7160184084215
 20
377.4378943309697
 30
0.0
 10
402.6274019530295
 20
378.6355387472632
 30
0.0
 10
402.1897882229109
 20
379.309835319751
 30
0.0
 10
401.5673687114399
 20
380.7552752448966
 30
0.0
 10
401.4005026361172
 20
381.4936844361932
 30
0.0
 10
401.3976331594066
 20
382.2028807255284
 30
0.0
 10
401.3976211314569
 20
382.2088410445523
 30
0.0
 10
401.3976211905446
 20
382.2147971529756
 30
0.0
  0
ELLIPSE
  5
F3
330
DF
100
AcDbEntity
  8
11216038_GRIFF__
  6
Continuous
 62
     7
100
AcDbEllipse
 10
407.3976203663
 20
396.0901576049
 30
0.0
 11
-5.500000000000005
 21
6.616796706776256E-15
 31
0.0
210
0.0
220
0.0
230
1.0
 40
0.8660254038
 41
0.0
 42
6.283185307179586
  0
ELLIPSE
  5
F4
330
DF
100
AcDbEntity
  8
11216038_GRIFF__
  6
Continuous
 62
     7
100
AcDbEllipse
 10
407.3976203663
 20
395.8401576049
 30
0.0
 11
6.000000000000005
 21
-2.046530295121517E-14
 31
0.0
210
0.0
220
0.0
230
1.0
 40
0.8660254038
 41
5.870017791848994
 42
6.283185307179586
  0
ELLIPSE
  5
F5
330
DF
100
AcDbEntity
  8
11216038_GRIFF__
  6
Continuous
 62
     7
100
AcDbEllipse
 10
407.3976203663
 20
395.8401576049
 30
0.0
 11
6.000000000000005
 21
-2.046530295121517E-14
 31
0.0
210
0.0
220
0.0
230
1.0
 40
0.8660254038
 41
3.573513072393836
 42
5.870017791848994
  0
ELLIPSE
  5
F6
330
DF
100
AcDbEntity
  8
11216038_GRIFF__
  6
Continuous
 62
     7
100
AcDbEllipse
 10
407.3976203663
 20
395.8401576049
 30
0.0
 11
6.000000000000005
 21
-2.046530295121517E-14
 31
0.0
210
0.0
220
0.0
230
1.0
 40
0.8660254038
 41
2.707930404810553
 42
3.573513072393836
  0
ELLIPSE
  5
F7
330
DF
100
AcDbEntity
  8
11216038_GRIFF__
  6
Continuous
 62
     7
100
AcDbEllipse
 10
407.3976203663
 20
395.8401576049
 30
0.0
 11
6.000000000000005
 21
-2.046530295121517E-14
 31
0.0
210
0.0
220
0.0
230
1.0
 40
0.8660254038
 41
0.0
 42
0.4227032954658991
  0
LINE
  5
F8
330
DF
100
AcDbEntity
  8
11216038_GRIFF__
  6
Continuous
 62
     7
100
AcDbLine
 10
401.8976203663
 20
339.8401576049
 30
0.0
 11
412.8976203663
 21
339.8401576049
 31
0.0
  0
LINE
  5
F9
330
DF
100
AcDbEntity
  8
11216038_GRIFF__
  6
Continuous
 62
     7
100
AcDbLine
 10
401.3976203663
 20
367.5985159674
 30
0.0
 11
401.3976203663
 21
340.3401576049
 31
0.0
  0
LINE
  5
FA
330
DF
100
AcDbEntity
  8
11216038_GRIFF__
  6
Continuous
 62
     7
100
AcDbLine
 10
413.3976203663
 20
340.3401576049
 30
0.0
 11
413.3976203663
 21
367.5901576049
 31
0.0
  0
ARC
  5
FB
330
DF
100
AcDbEntity
  8
11216038_GRIFF__
  6
Continuous
 62
     7
100
AcDbCircle
 10
414.3976203663
 20
368.0901576049
 30
0.0
 40
0.5000000000000004
100
AcDbArc
 50
270.0
 51
0.0
  0
ARC
  5
FC
330
DF
100
AcDbEntity
  8
11216038_GRIFF__
  6
Continuous
 62
     7
100
AcDbCircle
 10
414.3976203663
 20
386.5901576049
 30
0.0
 40
0.5000000000000004
100
AcDbArc
 50
0.0
 51
90.0
  0
LINE
  5
FD
330
DF
100
AcDbEntity
  8
11216038_GRIFF__
  6
Continuous
 62
     7
100
AcDbLine
 10
413.3976203663
 20
382.2151576049
 30
0.0
 11
413.3976203663
 21
395.8401576049
 31
0.0
  0
LINE
  5
FE
330
DF
100
AcDbEntity
  8
11216038_GRIFF__
  6
Continuous
 62
     7
100
AcDbLine
 10
401.3976203663
 20
395.8401576049
 30
0.0
 11
401.3976203663
 21
382.2109784237
 31
0.0
  0
SPLINE
  5
FF
330
DF
100
AcDbEntity
  8
11216038_GRIFF__
  6
Continuous
 62
     7
100
AcDbSpline
210
0.0
220
0.0
230
1.0
 70
     8
 71
     3
 72
    25
 73
    21
 74
     0
 42
0.0000000007613819
 43
0.0000000001
 40
0.0
 40
0.0
 40
0.0
 40
0.0
 40
0.0328895666761996
 40
0.0909959522770653
 40
0.1492484558641386
 40
0.2076450225096697
 40
0.2661681100340952
 40
0.3247932292050358
 40
0.3834958602212579
 40
0.4422554683437003
 40
0.5010567329540672
 40
0.5598887558359105
 40
0.6187418238152241
 40
0.6776054777876028
 40
0.7364667622456563
 40
0.7953064918597341
 40
0.8540979032109128
 40
0.9128073416285583
 40
0.97139806446455
 40
1.0
 40
1.0
 40
1.0
 40
1.0
 10
412.845269149973
 20
398.0201921981324
 30
0.0
 10
412.7788568117874
 20
398.153284477033
 30
0.0
 10
412.6205591753206
 20
398.4655314635988
 30
0.0
 10
412.2345241955892
 20
398.9793519301896
 30
0.0
 10
411.7238473985634
 20
399.5114018235192
 30
0.0
 10
411.1295143637201
 20
399.982461298767
 30
0.0
 10
410.4706293606399
 20
400.379670895649
 30
0.0
 10
409.7564036700136
 20
400.6970640475765
 30
0.0
 10
409.0000989749593
 20
400.9285688186538
 30
0.0
 10
408.2149465673175
 20
401.0700562291345
 30
0.0
 10
407.4149017434035
 20
401.1188846375495
 30
0.0
 10
406.6141271726624
 20
401.0740657080147
 30
0.0
 10
405.8268118033128
 20
400.9362207394762
 30
0.0
 10
405.0670084144886
 20
400.7076178763066
 30
0.0
 10
404.3481114252066
 20
400.3920138295887
 30
0.0
 10
403.683786927886
 20
399.9951389858539
 30
0.0
 10
403.0834508804808
 20
399.5227664118667
 30
0.0
 10
402.5680011961432
 20
398.9877224869772
 30
0.0
 10
402.1877610564415
 20
398.486034057787
 30
0.0
 10
402.0352918295677
 20
398.1866106252816
 30
0.0
 10
401.9772264233794
 20
398.0709934622453
 30
0.0
  0
ARC
  5
100
330
DF
100
AcDbEntity
  8
11216038_GRIFF__
  6
Continuous
 62
     7
100
AcDbCircle
 10
412.8976203663
 20
340.3401576049
 30
0.0
 40
0.5000000000000004
100
AcDbArc
 50
270.0
 51
0.0
  0
ARC
  5
101
330
DF
100
AcDbEntity
  8
11216038_GRIFF__
  6
Continuous
 62
     7
100
AcDbCircle
 10
401.8976203663
 20
340.3401576049
 30
0.0
 40
0.5000000000000004
100
AcDbArc
 50
180.0
 51
270.0
  0
LINE
  5
102
330
DF
100
AcDbEntity
  8
11216038_GRIFF__
  6
Continuous
 62
     7
100
AcDbLine
 10
413.3976203663
 20
367.5901576049
 30
0.0
 11
414.3976203663
 21
367.5901576049
 31
0.0
  0
LINE
  5
103
330
DF
100
AcDbEntity
  8
11216038_GRIFF__
  6
Continuous
 62
     7
100
AcDbLine
 10
391.8976203663
 20
367.5901576049
 30
0.0
 11
401.4112281387
 21
367.5901576049
 31
0.0
  0
LINE
  5
104
330
DF
100
AcDbEntity
  8
11216038_GRIFF__
  6
Continuous
 62
     7
100
AcDbLine
 10
401.3976203663
 20
387.0901576049
 30
0.0
 11
391.8976203663
 21
387.0901576049
 31
0.0
  0
LINE
  5
105
330
DF
100
AcDbEntity
  8
11216038_GRIFF__
  6
Continuous
 62
     7
100
AcDbLine
 10
414.3976203663
 20
387.0901576049
 30
0.0
 11
413.3976203663
 21
387.0901576049
 31
0.0
  0
LINE
  5
106
330
DF
100
AcDbEntity
  8
4219845_EINS_SCH
  6
Continuous
 62
     7
100
AcDbLine
 10
391.8976203663
 20
385.8401576049
 30
0.0
 11
390.8976203663
 21
385.8401576049
 31
0.0
  0
LINE
  5
107
330
DF
100
AcDbEntity
  8
4219845_EINS_SCH
  6
Continuous
 62
     7
100
AcDbLine
 10
390.8976203663
 20
368.8401576049
 30
0.0
 11
391.8976203663
 21
368.8401576049
 31
0.0
  0
LINE
  5
108
330
DF
100
AcDbEntity
  8
15600038__ROUND_
  6
Continuous
 62
     7
100
AcDbLine
 10
325.6538602086
 20
469.9909261951
 30
0.0
 11
325.6538602086
 21
284.8243122747
 31
0.0
  0
LINE
  5
109
330
DF
100
AcDbEntity
  8
15600038__ROUND_
  6
Continuous
 62
     7
100
AcDbLine
 10
337.1320516698
 20
283.0901576049
 30
0.0
 11
337.1320516698
 21
471.5901576049
 31
0.0
  0
LINE
  5
10A
330
DF
100
AcDbEntity
  8
15600038__ROUND_
  6
Continuous
 62
     7
100
AcDbLine
 10
339.2503818926
 20
328.6901550462
 30
0.0
 11
339.1339602935
 21
315.990157689
 31
0.0
  0
LINE
  5
10B
330
DF
100
AcDbEntity
  8
15600038__ROUND_
  6
Continuous
 62
     7
100
AcDbLine
 10
339.3834481481
 20
405.0901576049
 30
0.0
 11
339.3834481481
 21
349.5901576049
 31
0.0
  0
LINE
  5
10C
330
DF
100
AcDbEntity
  8
15600038__ROUND_
  6
Continuous
 62
     7
100
AcDbLine
 10
325.6538602086
 20
284.8243122747
 30
0.0
 11
325.6483901781
 21
284.9753804295
 31
0.0
  0
LINE
  5
10D
330
DF
100
AcDbEntity
  8
15600038__ROUND_
  6
Continuous
 62
     7
100
AcDbLine
 10
327.6476203663
 20
283.148407464
 30
0.0
 11
327.6476203663
 21
283.0901576049
 31
0.0
  0
ARC
  5
10E
330
DF
100
AcDbEntity
  8
15600038__ROUND_
  6
Continuous
 62
     7
100
AcDbCircle
 10
327.4765033882
 20
285.0306692844
 30
0.0
 40
1.834287702529822
100
AcDbArc
 50
186.4594385617
 51
239.1483289009
  0
ARC
  5
10F
330
DF
100
AcDbEntity
  8
15600038__ROUND_
  6
Continuous
 62
     7
100
AcDbCircle
 10
327.5665367151
 20
285.2009906651
 30
0.0
 40
2.026703795074698
100
AcDbArc
 50
239.4324574257
 51
266.4948758574
  0
SPLINE
  5
110
330
DF
100
AcDbEntity
  8
15600038__ROUND_
  6
Continuous
 62
     7
100
AcDbSpline
210
0.0
220
0.0
230
1.0
 70
     8
 71
     3
 72
    10
 73
     6
 74
     0
 42
0.0000000472797916
 43
0.0000000001
 40
0.0
 40
0.0
 40
0.0
 40
0.0
 40
0.5
 40
0.5
 40
1.0
 40
1.0
 40
1.0
 40
1.0
 10
327.4426284924273
 20
283.1780781545887
 30
0.0
 10
327.5098411130334
 20
283.1731078043788
 30
0.0
 10
327.5605039475019
 20
283.1680788348096
 30
0.0
 10
327.6296942065368
 20
283.1580606187616
 30
0.0
 10
327.6476203662874
 20
283.1530927844029
 30
0.0
 10
327.6476203662874
 20
283.1484074639587
 30
0.0
  0
LINE
  5
111
330
DF
100
AcDbEntity
  8
15600038__ROUND_
  6
Continuous
 62
     7
100
AcDbLine
 10
325.6483901781
 20
284.9753804295
 30
0.0
 11
325.6483901781
 21
285.819512148
 31
0.0
  0
ARC
  5
112
330
DF
100
AcDbEntity
  8
15600038__ROUND_
  6
Continuous
 62
     7
100
AcDbCircle
 10
326.6476203663
 20
469.8793880895
 30
0.0
 40
1.000000000000006
100
AcDbArc
 50
173.5960117817
 51
180.0
  0
LINE
  5
113
330
DF
100
AcDbEntity
  8
15600038__ROUND_
  6
Continuous
 62
     7
100
AcDbLine
 10
325.6476203663
 20
285.7905471149
 30
0.0
 11
325.6476203663
 21
285.7806970208
 31
0.0
  0
ARC
  5
114
330
DF
100
AcDbEntity
  8
15600038__ROUND_
  6
Continuous
 62
     7
100
AcDbCircle
 10
327.4426284924
 20
469.7901576049
 30
0.0
 40
1.799999999999996
100
AcDbArc
 50
90.0
 51
173.5960117817
  0
LINE
  5
115
330
DF
100
AcDbEntity
  8
15600038__ROUND_
  6
Continuous
 62
     7
100
AcDbLine
 10
327.6476203663
 20
283.0901576049
 30
0.0
 11
337.1320516698
 21
283.0901576049
 31
0.0
  0
LINE
  5
116
330
DF
100
AcDbEntity
  8
15600038__ROUND_
  6
Continuous
 62
     7
100
AcDbLine
 10
337.1320516698
 20
471.5901576049
 30
0.0
 11
327.4426284924
 21
471.5901576049
 31
0.0
  0
ARC
  5
117
330
DF
100
AcDbEntity
  8
15600038__ROUND_
  6
Continuous
 62
     7
100
AcDbCircle
 10
337.1320516698
 20
284.6901576049
 30
0.0
 40
1.600000000000004
100
AcDbArc
 50
270.0
 51
359.1149864849
  0
ARC
  5
118
330
DF
100
AcDbEntity
  8
15600038__ROUND_
  6
Continuous
 62
     7
100
AcDbCircle
 10
337.1320516698
 20
469.9901576049
 30
0.0
 40
1.600000000000013
100
AcDbArc
 50
0.8850135151
 51
90.0
  0
ARC
  5
119
330
DF
100
AcDbEntity
  8
15600038__ROUND_
  6
Continuous
 62
     7
100
AcDbCircle
 10
-5660.5523796337
 20
377.3401576049
 30
0.0
 40
5999.999999999999
100
AcDbArc
 50
0.264993925
 51
0.8850135152
  0
ARC
  5
11A
330
DF
100
AcDbEntity
  8
15600038__ROUND_
  6
Continuous
 62
     7
100
AcDbCircle
 10
-5660.5523796337
 20
377.3401576049
 30
0.0
 40
6000.0
100
AcDbArc
 50
359.535239124
 51
359.735006075
  0
ARC
  5
11B
330
DF
100
AcDbEntity
  8
15600038__ROUND_
  6
Continuous
 62
     7
100
AcDbCircle
 10
-5660.5523796337
 20
377.3401576049
 30
0.0
 40
6000.0
100
AcDbArc
 50
359.1149864848
 51
359.4143269081
  0
LINE
  5
11C
330
DF
100
AcDbEntity
  8
14040765_DIVERTE
  6
Continuous
 62
     7
100
AcDbLine
 10
368.3976203663
 20
316.3401576049
 30
0.0
 11
368.3976203663
 21
328.3401576049
 31
0.0
  0
LINE
  5
11D
330
DF
100
AcDbEntity
  8
14040765_DIVERTE
  6
Continuous
 62
     7
100
AcDbLine
 10
380.8976203663
 20
331.483395757
 30
0.0
 11
380.8976203663
 21
313.1969194528
 31
0.0
  0
LINE
  5
11E
330
DF
100
AcDbEntity
  8
14040765_DIVERTE
  6
Continuous
 62
     7
100
AcDbLine
 10
376.3317941175
 20
310.8401576049
 30
0.0
 11
376.3317941175
 21
333.8401576049
 31
0.0
  0
LINE
  5
11F
330
DF
100
AcDbEntity
  8
14040765_DIVERTE
  6
Continuous
 62
     7
100
AcDbLine
 10
374.1047271475
 20
333.8401576049
 30
0.0
 11
374.1047271475
 21
310.8401576049
 31
0.0
  0
LINE
  5
120
330
DF
100
AcDbEntity
  8
14040765_DIVERTE
  6
Continuous
 62
     7
100
AcDbLine
 10
376.46120364
 20
310.8571946918
 30
0.0
 11
379.7858489339
 21
311.7480307134
 31
0.0
  0
LINE
  5
121
330
DF
100
AcDbEntity
  8
14040765_DIVERTE
  6
Continuous
 62
     7
100
AcDbLine
 10
379.7858489339
 20
332.9322844965
 30
0.0
 11
376.46120364
 21
333.8231205181
 31
0.0
  0
LINE
  5
122
330
DF
100
AcDbEntity
  8
14040765_DIVERTE
  6
Continuous
 62
     7
100
AcDbLine
 10
374.1047271475
 20
310.8401576049
 30
0.0
 11
376.3317941175
 21
310.8401576049
 31
0.0
  0
LINE
  5
123
330
DF
100
AcDbEntity
  8
14040765_DIVERTE
  6
Continuous
 62
     7
100
AcDbLine
 10
376.3317941175
 20
333.8401576049
 30
0.0
 11
374.1047271475
 21
333.8401576049
 31
0.0
  0
LINE
  5
124
330
DF
100
AcDbEntity
  8
14040765_DIVERTE
  6
Continuous
 62
     7
100
AcDbLine
 10
373.7511737569
 20
333.6937109955
 30
0.0
 11
368.3976203663
 21
328.3401576049
 31
0.0
  0
LINE
  5
125
330
DF
100
AcDbEntity
  8
14040765_DIVERTE
  6
Continuous
 62
     7
100
AcDbLine
 10
368.3976203663
 20
316.3401576049
 30
0.0
 11
373.7511737569
 21
310.9866042143
 31
0.0
  0
ARC
  5
126
330
DF
100
AcDbEntity
  8
14040765_DIVERTE
  6
Continuous
 62
     7
100
AcDbCircle
 10
379.3976203663
 20
331.483395757
 30
0.0
 40
1.500000000000001
100
AcDbArc
 50
0.0
 51
75.0
  0
ARC
  5
127
330
DF
100
AcDbEntity
  8
14040765_DIVERTE
  6
Continuous
 62
     7
100
AcDbCircle
 10
379.3976203663
 20
313.1969194528
 30
0.0
 40
1.500000000000007
100
AcDbArc
 50
285.0
 51
0.0
  0
ARC
  5
128
330
DF
100
AcDbEntity
  8
14040765_DIVERTE
  6
Continuous
 62
     7
100
AcDbCircle
 10
376.3317941175
 20
333.3401576049
 30
0.0
 40
0.4999999999999954
100
AcDbArc
 50
75.0
 51
90.0
  0
ARC
  5
129
330
DF
100
AcDbEntity
  8
14040765_DIVERTE
  6
Continuous
 62
     7
100
AcDbCircle
 10
376.3317941175
 20
311.3401576049
 30
0.0
 40
0.5000000000000004
100
AcDbArc
 50
270.0
 51
285.0
  0
ARC
  5
12A
330
DF
100
AcDbEntity
  8
14040765_DIVERTE
  6
Continuous
 62
     7
100
AcDbCircle
 10
374.1047271475
 20
333.3401576049
 30
0.0
 40
0.5000000000000004
100
AcDbArc
 50
90.0
 51
135.0
  0
ARC
  5
12B
330
DF
100
AcDbEntity
  8
14040765_DIVERTE
  6
Continuous
 62
     7
100
AcDbCircle
 10
374.1047271475
 20
311.3401576049
 30
0.0
 40
0.5000000000000031
100
AcDbArc
 50
225.0
 51
270.0
  0
LINE
  5
12D
330
DF
100
AcDbEntity
  8
15613038__DIVERT
  6
Continuous
 62
     7
100
AcDbLine
 10
364.1976203663
 20
328.0401576049
 30
0.0
 11
364.1976203663
 21
316.6401576049
 31
0.0
  0
LINE
  5
12E
330
DF
100
AcDbEntity
  8
15613038__DIVERT
  6
Continuous
 62
     7
100
AcDbLine
 10
339.1371687928
 20
316.3401576049
 30
0.0
 11
363.8976203663
 21
316.3401576049
 31
0.0
  0
LINE
  5
12F
330
DF
100
AcDbEntity
  8
15613038__DIVERT
  6
Continuous
 62
     7
100
AcDbLine
 10
363.8976203663
 20
328.3401576049
 30
0.0
 11
339.2471734762
 21
328.3401576049
 31
0.0
  0
ARC
  5
130
330
DF
100
AcDbEntity
  8
15613038__DIVERT
  6
Continuous
 62
     7
100
AcDbCircle
 10
363.8976203663
 20
328.0401576049
 30
0.0
 40
0.3000000000000017
100
AcDbArc
 50
0.0
 51
90.0
  0
ARC
  5
131
330
DF
100
AcDbEntity
  8
15613038__DIVERT
  6
Continuous
 62
     7
100
AcDbCircle
 10
363.8976203663
 20
316.6401576049
 30
0.0
 40
0.3000000000000017
100
AcDbArc
 50
270.0
 51
0.0
  0
LINE
  5
133
330
DF
100
AcDbEntity
  8
15615038__DIVERT
  6
Continuous
 62
     7
100
AcDbLine
 10
364.1976203663
 20
317.4901576049
 30
0.0
 11
368.3976203663
 21
317.4901576049
 31
0.0
  0
LINE
  5
134
330
DF
100
AcDbEntity
  8
15615038__DIVERT
  6
Continuous
 62
     7
100
AcDbLine
 10
368.3976203663
 20
327.1901576049
 30
0.0
 11
364.1976203663
 21
327.1901576049
 31
0.0
  0
ENDBLK
  5
136
330
DF
100
AcDbEntity
  8
0
100
AcDbBlockEnd
  0
ENDSEC
  0
SECTION
  2
ENTITIES
  0
INSERT
  5
5F
330
1F
100
AcDbEntity
  8
Default
100
AcDbBlockReference
  2
SEANNOT_GROUP
 10
0.0
 20
0.0
 30
0.0
  0
INSERT
  5
6A
330
1F
100
AcDbEntity
  8
Default
100
AcDbBlockReference
  2
SEANNOT_GROUP1
 10
0.0
 20
0.0
 30
0.0
  0
INSERT
  5
70
330
1F
100
AcDbEntity
  8
Default
100
AcDbBlockReference
  2
SEANNOT_GROUP2
 10
0.0
 20
0.0
 30
0.0
  0
INSERT
  5
76
330
1F
100
AcDbEntity
  8
Default
100
AcDbBlockReference
  2
SE
 10
0.0
 20
0.0
 30
0.0
  0
INSERT
  5
9E
330
1F
100
AcDbEntity
  8
Default
100
AcDbBlockReference
  2
SE1
 10
0.0
 20
0.0
 30
0.0
  0
INSERT
  5
E0
330
1F
100
AcDbEntity
  8
Default
100
AcDbBlockReference
  2
SE2
 10
0.0
 20
0.0
 30
0.0
  0
TEXT
  5
138
330
1F
100
AcDbEntity
  8
Default
  6
Continuous
 62
     7
100
AcDbText
 10
5.9362635081
 20
53.4225120485
 30
0.0
 40
10.0
  1
Grohe AG^J
  7
SEACAD_seiso_ttf
 11
5.9362635081
 21
63.4225120485
 31
0.0
100
AcDbText
 73
     3
  0
TEXT
  5
139
330
1F
100
AcDbEntity
  8
Default
  6
Continuous
 62
     7
100
AcDbText
 10
5.9362635081
 20
37.0588756849
 30
0.0
 40
10.0
  1
 
  7
SEACAD_seiso_ttf
 11
5.9362635081
 21
47.0588756849
 31
0.0
100
AcDbText
 73
     3
  0
TEXT
  5
13A
330
1F
100
AcDbEntity
  8
Default
  6
Continuous
 62
     7
100
AcDbText
 10
5.9362635081
 20
20.6952393213
 30
0.0
 40
10.0
  1
ecn: 
  7
SEACAD_seiso_ttf
 11
5.9362635081
 21
30.6952393213
 31
0.0
100
AcDbText
 73
     3
  0
TEXT
  5
13B
330
1F
100
AcDbEntity
  8
Default
  6
Continuous
 62
     7
100
AcDbText
 10
5.9362635081
 20
4.3316029576
 30
0.0
 40
10.0
  1
unit: mm
  7
SEACAD_seiso_ttf
 11
5.9362635081
 21
14.3316029576
 31
0.0
100
AcDbText
 73
     3
  0
LINE
  5
13C
330
1F
100
AcDbEntity
  8
Default
  6
Continuous
 62
     7
100
AcDbLine
 10
0.0
 20
0.0
 30
0.0
 11
100.0
 21
0.0
 31
0.0
  0
LINE
  5
13D
330
1F
100
AcDbEntity
  8
Default
  6
Continuous
 62
     7
100
AcDbLine
 10
0.0
 20
0.0
 30
0.0
 11
0.0
 21
100.0
 31
0.0
  0
TEXT
  5
13E
330
1F
100
AcDbEntity
  8
Default
  6
Continuous
 62
     7
100
AcDbText
 10
24.3923665681
 20
-18.2375342018
 30
0.0
 40
10.0
  1
100 mm
  7
SEACAD_seiso_ttf
 11
24.3923665681
 21
-8.2375342018
 31
0.0
100
AcDbText
 73
     3
  0
TEXT
  5
13F
330
1F
100
AcDbEntity
  8
Default
  6
Continuous
 62
     7
100
AcDbText
 10
-7.6150308803
 20
24.6231930421
 30
0.0
 40
10.0
  1
100 mm
 50
90.0
  7
SEACAD_seiso_ttf
 11
-17.6150308803
 21
24.6231930421
 31
0.0
100
AcDbText
 73
     3
  0
TEXT
  5
140
330
1F
100
AcDbEntity
  8
Default
  6
Continuous
 62
     7
100
AcDbText
 10
28.4878128572
 20
20.0907663715
 30
0.0
 40
10.0
  1
212915
  7
SEACAD_seiso_ttf
 11
28.4878128572
 21
30.0907663715
 31
0.0
100
AcDbText
 73
     3
  0
TEXT
  5
141
330
1F
100
AcDbEntity
  8
Default
  6
Continuous
 62
     7
100
AcDbText
 10
5.9012241913
 20
36.7242780188
 30
0.0
 40
10.0
  1
19491000
  7
SEACAD_seiso_ttf
 11
5.9012241913
 21
46.7242780188
 31
0.0
100
AcDbText
 73
     3
  0
ENDSEC
  0
SECTION
  2
OBJECTS
  0
DICTIONARY
  5
C
330
0
100
AcDbDictionary
281
     1
  3
ACAD_GROUP
350
D
  3
ACAD_LAYOUT
350
1A
  3
ACAD_MLEADERSTYLE
350
145
  3
ACAD_MLINESTYLE
350
17
  3
ACAD_PLOTSETTINGS
350
19
  3
ACAD_PLOTSTYLENAME
350
E
  3
ACAD_SCALELIST
350
3B
  3
ACAD_TABLESTYLE
350
144
  3
ACAD_VISUALSTYLE
350
2A
  3
AcDbVariableDictionary
350
142
  0
DICTIONARY
  5
D
102
{ACAD_REACTORS
330
C
102
}
330
C
100
AcDbDictionary
281
     1
  0
DICTIONARY
  5
1A
102
{ACAD_REACTORS
330
C
102
}
330
C
100
AcDbDictionary
281
     1
  3
Layout1
350
1E
  3
Model
350
22
  0
DICTIONARY
  5
145
102
{ACAD_REACTORS
330
C
102
}
330
C
100
AcDbDictionary
281
     1
  0
DICTIONARY
  5
17
102
{ACAD_REACTORS
330
C
102
}
330
C
100
AcDbDictionary
281
     1
  3
Standard
350
18
  0
DICTIONARY
  5
19
102
{ACAD_REACTORS
330
C
102
}
330
C
100
AcDbDictionary
281
     1
  0
ACDBDICTIONARYWDFLT
  5
E
102
{ACAD_REACTORS
330
C
102
}
330
C
100
AcDbDictionary
281
     1
  3
Normal
350
F
100
AcDbDictionaryWithDefault
340
F
  0
DICTIONARY
  5
3B
102
{ACAD_REACTORS
330
C
102
}
330
C
100
AcDbDictionary
281
     1
  3
A0
350
3C
  3
A1
350
3D
  3
A2
350
3E
  3
A3
350
3F
  3
A4
350
40
  3
A5
350
41
  3
A6
350
42
  3
A7
350
43
  3
A8
350
44
  3
A9
350
45
  3
B0
350
46
  3
B1
350
47
  3
B2
350
48
  3
B3
350
49
  3
B4
350
4A
  3
B5
350
4B
  3
B6
350
4C
  3
B7
350
4D
  3
B8
350
4E
  3
B9
350
4F
  3
C0
350
50
  3
C1
350
51
  3
C2
350
52
  3
C3
350
53
  3
C4
350
54
  3
C5
350
55
  3
C6
350
56
  3
C7
350
57
  3
C8
350
58
  3
C9
350
59
  3
D0
350
5A
  3
D1
350
5B
  3
D2
350
5C
  0
DICTIONARY
  5
144
102
{ACAD_REACTORS
330
C
102
}
330
C
100
AcDbDictionary
281
     1
  0
DICTIONARY
  5
2A
102
{ACAD_REACTORS
330
C
102
}
330
C
100
AcDbDictionary
281
     1
  3
2dWireframe
350
2F
  3
3D Hidden
350
31
  3
3dWireframe
350
30
  3
Basic
350
32
  3
Brighten
350
36
  3
ColorChange
350
3A
  3
Conceptual
350
34
  3
Dim
350
35
  3
Facepattern
350
39
  3
Flat
350
2B
  3
FlatWithEdges
350
2C
  3
Gouraud
350
2D
  3
GouraudWithEdges
350
2E
  3
Linepattern
350
38
  3
Realistic
350
33
  3
Thicken
350
37
  0
DICTIONARY
  5
142
102
{ACAD_REACTORS
330
C
102
}
330
C
100
AcDbDictionary
281
     1
  3
CANNOSCALE
350
143
  3
PSOLHEIGHT
350
147
  3
PSOLWIDTH
350
146
  0
LAYOUT
  5
1E
102
{ACAD_REACTORS
330
1A
102
}
330
1A
100
AcDbPlotSettings
  1

  2
none_device
  4

  6

 40
0.0
 41
0.0
 42
0.0
 43
0.0
 44
0.0
 45
0.0
 46
0.0
 47
0.0
 48
0.0
 49
0.0
140
0.0
141
0.0
142
1.0
143
1.0
 70
   688
 72
     0
 73
     0
 74
     5
  7

 75
    16
147
1.0
148
0.0
149
0.0
100
AcDbLayout
  1
Layout1
 70
     1
 71
     1
 10
0.0
 20
0.0
 11
1682.0
 21
2378.0
 12
0.0
 22
0.0
 32
0.0
 14
0.0
 24
0.0
 34
0.0
 15
1682.0
 25
2378.0
 35
0.0
146
0.0
 13
0.0
 23
0.0
 33
0.0
 16
1.0
 26
0.0
 36
0.0
 17
0.0
 27
1.0
 37
0.0
 76
     0
330
1B
  0
LAYOUT
  5
22
102
{ACAD_REACTORS
330
1A
102
}
330
1A
100
AcDbPlotSettings
  1

  2
none_device
  4

  6

 40
0.0
 41
0.0
 42
0.0
 43
0.0
 44
0.0
 45
0.0
 46
0.0
 47
0.0
 48
0.0
 49
0.0
140
0.0
141
0.0
142
1.0
143
1.0
 70
  1712
 72
     0
 73
     0
 74
     0
  7

 75
     0
147
1.0
148
0.0
149
0.0
100
AcDbLayout
  1
Model
 70
     1
 71
     0
 10
0.0
 20
0.0
 11
1682.0
 21
2378.0
 12
0.0
 22
0.0
 32
0.0
 14
0.0
 24
0.0
 34
0.0
 15
1682.0
 25
2378.0
 35
0.0
146
0.0
 13
0.0
 23
0.0
 33
0.0
 16
1.0
 26
0.0
 36
0.0
 17
0.0
 27
1.0
 37
0.0
 76
     0
330
1F
331
29
  0
MLINESTYLE
  5
18
102
{ACAD_REACTORS
330
17
102
}
330
17
100
AcDbMlineStyle
  2
Standard
 70
     0
  3

 62
   256
 51
90.0
 52
90.0
 71
     2
 49
0.5
 62
   256
  6
BYLAYER
 49
-0.5
 62
   256
  6
BYLAYER
  0
ACDBPLACEHOLDER
  5
F
102
{ACAD_REACTORS
330
E
102
}
330
E
  0
SCALE
  5
3C
102
{ACAD_REACTORS
330
3B
102
}
330
3B
100
AcDbScale
 70
     0
300
1:1
140
1.0
141
1.0
290
     1
  0
SCALE
  5
3D
102
{ACAD_REACTORS
330
3B
102
}
330
3B
100
AcDbScale
 70
     0
300
1:2
140
1.0
141
2.0
290
     0
  0
SCALE
  5
3E
102
{ACAD_REACTORS
330
3B
102
}
330
3B
100
AcDbScale
 70
     0
300
1:4
140
1.0
141
4.0
290
     0
  0
SCALE
  5
3F
102
{ACAD_REACTORS
330
3B
102
}
330
3B
100
AcDbScale
 70
     0
300
1:5
140
1.0
141
5.0
290
     0
  0
SCALE
  5
40
102
{ACAD_REACTORS
330
3B
102
}
330
3B
100
AcDbScale
 70
     0
300
1:8
140
1.0
141
8.0
290
     0
  0
SCALE
  5
41
102
{ACAD_REACTORS
330
3B
102
}
330
3B
100
AcDbScale
 70
     0
300
1:10
140
1.0
141
10.0
290
     0
  0
SCALE
  5
42
102
{ACAD_REACTORS
330
3B
102
}
330
3B
100
AcDbScale
 70
     0
300
1:16
140
1.0
141
16.0
290
     0
  0
SCALE
  5
43
102
{ACAD_REACTORS
330
3B
102
}
330
3B
100
AcDbScale
 70
     0
300
1:20
140
1.0
141
20.0
290
     0
  0
SCALE
  5
44
102
{ACAD_REACTORS
330
3B
102
}
330
3B
100
AcDbScale
 70
     0
300
1:30
140
1.0
141
30.0
290
     0
  0
SCALE
  5
45
102
{ACAD_REACTORS
330
3B
102
}
330
3B
100
AcDbScale
 70
     0
300
1:40
140
1.0
141
40.0
290
     0
  0
SCALE
  5
46
102
{ACAD_REACTORS
330
3B
102
}
330
3B
100
AcDbScale
 70
     0
300
1:50
140
1.0
141
50.0
290
     0
  0
SCALE
  5
47
102
{ACAD_REACTORS
330
3B
102
}
330
3B
100
AcDbScale
 70
     0
300
1:100
140
1.0
141
100.0
290
     0
  0
SCALE
  5
48
102
{ACAD_REACTORS
330
3B
102
}
330
3B
100
AcDbScale
 70
     0
300
2:1
140
2.0
141
1.0
290
     0
  0
SCALE
  5
49
102
{ACAD_REACTORS
330
3B
102
}
330
3B
100
AcDbScale
 70
     0
300
4:1
140
4.0
141
1.0
290
     0
  0
SCALE
  5
4A
102
{ACAD_REACTORS
330
3B
102
}
330
3B
100
AcDbScale
 70
     0
300
8:1
140
8.0
141
1.0
290
     0
  0
SCALE
  5
4B
102
{ACAD_REACTORS
330
3B
102
}
330
3B
100
AcDbScale
 70
     0
300
10:1
140
10.0
141
1.0
290
     0
  0
SCALE
  5
4C
102
{ACAD_REACTORS
330
3B
102
}
330
3B
100
AcDbScale
 70
     0
300
100:1
140
100.0
141
1.0
290
     0
  0
SCALE
  5
4D
102
{ACAD_REACTORS
330
3B
102
}
330
3B
100
AcDbScale
 70
     0
300
1/128" = 1'-0"
140
0.0078125
141
12.0
290
     0
  0
SCALE
  5
4E
102
{ACAD_REACTORS
330
3B
102
}
330
3B
100
AcDbScale
 70
     0
300
1/64" = 1'-0"
140
0.015625
141
12.0
290
     0
  0
SCALE
  5
4F
102
{ACAD_REACTORS
330
3B
102
}
330
3B
100
AcDbScale
 70
     0
300
1/32" = 1'-0"
140
0.03125
141
12.0
290
     0
  0
SCALE
  5
50
102
{ACAD_REACTORS
330
3B
102
}
330
3B
100
AcDbScale
 70
     0
300
1/16" = 1'-0"
140
0.0625
141
12.0
290
     0
  0
SCALE
  5
51
102
{ACAD_REACTORS
330
3B
102
}
330
3B
100
AcDbScale
 70
     0
300
3/32" = 1'-0"
140
0.09375
141
12.0
290
     0
  0
SCALE
  5
52
102
{ACAD_REACTORS
330
3B
102
}
330
3B
100
AcDbScale
 70
     0
300
1/8" = 1'-0"
140
0.125
141
12.0
290
     0
  0
SCALE
  5
53
102
{ACAD_REACTORS
330
3B
102
}
330
3B
100
AcDbScale
 70
     0
300
3/16" = 1'-0"
140
0.1875
141
12.0
290
     0
  0
SCALE
  5
54
102
{ACAD_REACTORS
330
3B
102
}
330
3B
100
AcDbScale
 70
     0
300
1/4" = 1'-0"
140
0.25
141
12.0
290
     0
  0
SCALE
  5
55
102
{ACAD_REACTORS
330
3B
102
}
330
3B
100
AcDbScale
 70
     0
300
3/8" = 1'-0"
140
0.375
141
12.0
290
     0
  0
SCALE
  5
56
102
{ACAD_REACTORS
330
3B
102
}
330
3B
100
AcDbScale
 70
     0
300
1/2" = 1'-0"
140
0.5
141
12.0
290
     0
  0
SCALE
  5
57
102
{ACAD_REACTORS
330
3B
102
}
330
3B
100
AcDbScale
 70
     0
300
3/4" = 1'-0"
140
0.75
141
12.0
290
     0
  0
SCALE
  5
58
102
{ACAD_REACTORS
330
3B
102
}
330
3B
100
AcDbScale
 70
     0
300
1" = 1'-0"
140
1.0
141
12.0
290
     0
  0
SCALE
  5
59
102
{ACAD_REACTORS
330
3B
102
}
330
3B
100
AcDbScale
 70
     0
300
1-1/2" = 1'-0"
140
1.5
141
12.0
290
     0
  0
SCALE
  5
5A
102
{ACAD_REACTORS
330
3B
102
}
330
3B
100
AcDbScale
 70
     0
300
3" = 1'-0"
140
3.0
141
12.0
290
     0
  0
SCALE
  5
5B
102
{ACAD_REACTORS
330
3B
102
}
330
3B
100
AcDbScale
 70
     0
300
6" = 1'-0"
140
6.0
141
12.0
290
     0
  0
SCALE
  5
5C
102
{ACAD_REACTORS
330
3B
102
}
330
3B
100
AcDbScale
 70
     0
300
1'-0" = 1'-0"
140
12.0
141
12.0
290
     0
  0
VISUALSTYLE
  5
2F
102
{ACAD_REACTORS
330
2A
102
}
330
2A
100
AcDbVisualStyle
  2
2dWireframe
 70
     4
 71
     0
 72
     2
 73
     0
 90
        0
 40
-0.6
 41
-30.0
 62
     5
 63
     7
 74
     1
 91
        4
 64
     7
 65
   257
 75
     1
175
     1
 42
1.0
 92
        0
 66
   257
 43
1.0
 76
     1
 77
     6
 78
     2
 67
     7
 79
     5
170
     0
171
     0
290
     0
174
     0
 93
        1
 44
0.0
173
     0
291
     0
 45
0.0
1001
ACAD
1000
AcDbSavedByObjectVersion
1070
     0
  0
VISUALSTYLE
  5
31
102
{ACAD_REACTORS
330
2A
102
}
330
2A
100
AcDbVisualStyle
  2
3D Hidden
 70
     6
 71
     1
 72
     2
 73
     2
 90
        0
 40
-0.6
 41
-30.0
 62
     5
 63
     7
 74
     2
 91
        2
 64
     7
 65
   257
 75
     2
175
     1
 42
40.0
 92
        0
 66
   257
 43
1.0
 76
     1
 77
     6
 78
     2
 67
     7
 79
     3
170
     0
171
     0
290
     0
174
     0
 93
        1
 44
0.0
173
     0
291
     0
 45
0.0
1001
ACAD
1000
AcDbSavedByObjectVersion
1070
     0
  0
VISUALSTYLE
  5
30
102
{ACAD_REACTORS
330
2A
102
}
330
2A
100
AcDbVisualStyle
  2
3dWireframe
 70
     5
 71
     0
 72
     2
 73
     0
 90
        0
 40
-0.6
 41
-30.0
 62
     5
 63
     7
 74
     1
 91
        4
 64
     7
 65
   257
 75
     1
175
     1
 42
1.0
 92
        0
 66
   257
 43
1.0
 76
     1
 77
     6
 78
     2
 67
     7
 79
     5
170
     0
171
     0
290
     0
174
     0
 93
        1
 44
0.0
173
     0
291
     0
 45
0.0
1001
ACAD
1000
AcDbSavedByObjectVersion
1070
     0
  0
VISUALSTYLE
  5
32
102
{ACAD_REACTORS
330
2A
102
}
330
2A
100
AcDbVisualStyle
  2
Basic
 70
     7
 71
     1
 72
     0
 73
     1
 90
        0
 40
-0.6
 41
-30.0
 62
     5
 63
     7
 74
     0
 91
        4
 64
     7
 65
   257
 75
     1
175
     1
 42
1.0
 92
        8
 66
     7
 43
1.0
 76
     1
 77
     6
 78
     2
 67
     7
 79
     5
170
     0
171
     0
290
     0
174
     0
 93
        1
 44
0.0
173
     0
291
     1
 45
0.0
1001
ACAD
1000
AcDbSavedByObjectVersion
1070
     0
  0
VISUALSTYLE
  5
36
102
{ACAD_REACTORS
330
2A
102
}
330
2A
100
AcDbVisualStyle
  2
Brighten
 70
    12
 71
     2
 72
     2
 73
     0
 90
        0
 40
-0.6
 41
-30.0
 62
     5
 63
     7
 74
     1
 91
        4
 64
     7
 65
   257
 75
     1
175
     1
 42
1.0
 92
        8
 66
     7
 43
1.0
 76
     1
 77
     6
 78
     2
 67
     7
 79
     5
170
     0
171
     0
290
     0
174
     0
 93
        1
 44
50.0
173
     0
291
     1
 45
0.0
1001
ACAD
1000
AcDbSavedByObjectVersion
1070
     0
  0
VISUALSTYLE
  5
3A
102
{ACAD_REACTORS
330
2A
102
}
330
2A
100
AcDbVisualStyle
  2
ColorChange
 70
    16
 71
     2
 72
     2
 73
     3
 90
        0
 40
-0.6
 41
-30.0
 62
     5
 63
     8
 74
     1
 91
        4
 64
     7
 65
   257
 75
     1
175
     1
 42
1.0
 92
        8
 66
     8
 43
1.0
 76
     1
 77
     6
 78
     2
 67
     7
 79
     5
170
     0
171
     0
290
     0
174
     0
 93
        1
 44
0.0
173
     0
291
     1
 45
0.0
1001
ACAD
1000
AcDbSavedByObjectVersion
1070
     0
  0
VISUALSTYLE
  5
34
102
{ACAD_REACTORS
330
2A
102
}
330
2A
100
AcDbVisualStyle
  2
Conceptual
 70
     9
 71
     3
 72
     2
 73
     0
 90
        0
 40
-0.6
 41
-30.0
 62
     5
 63
     7
 74
     2
 91
        2
 64
     7
 65
   257
 75
     1
175
     1
 42
40.0
 92
        8
 66
     7
 43
1.0
 76
     1
 77
     6
 78
     2
 67
     7
 79
     3
170
     0
171
     0
290
     0
174
     0
 93
        1
 44
0.0
173
     0
291
     0
 45
0.0
1001
ACAD
1000
AcDbSavedByObjectVersion
1070
     0
  0
VISUALSTYLE
  5
35
102
{ACAD_REACTORS
330
2A
102
}
330
2A
100
AcDbVisualStyle
  2
Dim
 70
    11
 71
     2
 72
     2
 73
     0
 90
        0
 40
-0.6
 41
-30.0
 62
     5
 63
     7
 74
     1
 91
        4
 64
     7
 65
   257
 75
     1
175
     1
 42
1.0
 92
        8
 66
     7
 43
1.0
 76
     1
 77
     6
 78
     2
 67
     7
 79
     5
170
     0
171
     0
290
     0
174
     0
 93
        1
 44
-50.0
173
     0
291
     1
 45
0.0
1001
ACAD
1000
AcDbSavedByObjectVersion
1070
     0
  0
VISUALSTYLE
  5
39
102
{ACAD_REACTORS
330
2A
102
}
330
2A
100
AcDbVisualStyle
  2
Facepattern
 70
    15
 71
     2
 72
     2
 73
     0
 90
        0
 40
-0.6
 41
-30.0
 62
     5
 63
     7
 74
     1
 91
        4
 64
     7
 65
   257
 75
     1
175
     1
 42
1.0
 92
        8
 66
     7
 43
1.0
 76
     1
 77
     6
 78
     2
 67
     7
 79
     5
170
     0
171
     0
290
     0
174
     0
 93
        1
 44
0.0
173
     0
291
     1
 45
0.0
1001
ACAD
1000
AcDbSavedByObjectVersion
1070
     0
  0
VISUALSTYLE
  5
2B
102
{ACAD_REACTORS
330
2A
102
}
330
2A
100
AcDbVisualStyle
  2
Flat
 70
     0
 71
     2
 72
     1
 73
     1
 90
        2
 40
-0.6
 41
30.0
 62
     5
 63
     7
 74
     0
 91
        4
 64
     7
 65
   257
 75
     1
175
     1
 42
1.0
 92
        8
 66
     7
 43
1.0
 76
     1
 77
     6
 78
     2
 67
     7
 79
     5
170
     0
171
     0
290
     0
174
     0
 93
       13
 44
0.0
173
     0
291
     1
 45
0.0
1001
ACAD
1000
AcDbSavedByObjectVersion
1070
     0
  0
VISUALSTYLE
  5
2C
102
{ACAD_REACTORS
330
2A
102
}
330
2A
100
AcDbVisualStyle
  2
FlatWithEdges
 70
     1
 71
     2
 72
     1
 73
     1
 90
        2
 40
-0.6
 41
30.0
 62
     5
 63
     7
 74
     1
 91
        4
 64
     7
 65
   257
 75
     1
175
     1
 42
1.0
 92
        0
 66
   257
 43
1.0
 76
     1
 77
     6
 78
     2
 67
     7
 79
     5
170
     0
171
     0
290
     0
174
     0
 93
       13
 44
0.0
173
     0
291
     1
 45
0.0
1001
ACAD
1000
AcDbSavedByObjectVersion
1070
     0
  0
VISUALSTYLE
  5
2D
102
{ACAD_REACTORS
330
2A
102
}
330
2A
100
AcDbVisualStyle
  2
Gouraud
 70
     2
 71
     2
 72
     2
 73
     1
 90
        2
 40
-0.6
 41
30.0
 62
     5
 63
     7
 74
     0
 91
        4
 64
     7
 65
   257
 75
     1
175
     1
 42
1.0
 92
        0
 66
     7
 43
1.0
 76
     1
 77
     6
 78
     2
 67
     7
 79
     5
170
     0
171
     0
290
     0
174
     0
 93
       13
 44
0.0
173
     0
291
     1
 45
0.0
1001
ACAD
1000
AcDbSavedByObjectVersion
1070
     0
  0
VISUALSTYLE
  5
2E
102
{ACAD_REACTORS
330
2A
102
}
330
2A
100
AcDbVisualStyle
  2
GouraudWithEdges
 70
     3
 71
     2
 72
     2
 73
     1
 90
        2
 40
-0.6
 41
30.0
 62
     5
 63
     7
 74
     1
 91
        4
 64
     7
 65
   257
 75
     1
175
     1
 42
1.0
 92
        0
 66
   257
 43
1.0
 76
     1
 77
     6
 78
     2
 67
     7
 79
     5
170
     0
171
     0
290
     0
174
     0
 93
       13
 44
0.0
173
     0
291
     1
 45
0.0
1001
ACAD
1000
AcDbSavedByObjectVersion
1070
     0
  0
VISUALSTYLE
  5
38
102
{ACAD_REACTORS
330
2A
102
}
330
2A
100
AcDbVisualStyle
  2
Linepattern
 70
    14
 71
     2
 72
     2
 73
     0
 90
        0
 40
-0.6
 41
-30.0
 62
     5
 63
     7
 74
     1
 91
        4
 64
     7
 65
   257
 75
     7
175
     7
 42
1.0
 92
        8
 66
     7
 43
1.0
 76
     1
 77
     6
 78
     2
 67
     7
 79
     5
170
     0
171
     0
290
     0
174
     0
 93
        1
 44
0.0
173
     0
291
     1
 45
0.0
1001
ACAD
1000
AcDbSavedByObjectVersion
1070
     0
  0
VISUALSTYLE
  5
33
102
{ACAD_REACTORS
330
2A
102
}
330
2A
100
AcDbVisualStyle
  2
Realistic
 70
     8
 71
     2
 72
     2
 73
     0
 90
        0
 40
-0.6
 41
-30.0
 62
     5
 63
     7
 74
     1
 91
        0
 64
     7
 65
   257
 75
     1
175
     1
 42
1.0
 92
        8
 66
     8
 43
1.0
 76
     1
 77
     6
 78
     2
 67
     7
 79
     5
170
     0
171
     0
290
     0
174
     0
 93
       13
 44
0.0
173
     0
291
     0
 45
0.0
1001
ACAD
1000
AcDbSavedByObjectVersion
1070
     0
  0
VISUALSTYLE
  5
37
102
{ACAD_REACTORS
330
2A
102
}
330
2A
100
AcDbVisualStyle
  2
Thicken
 70
    13
 71
     2
 72
     2
 73
     0
 90
        0
 40
-0.6
 41
-30.0
 62
     5
 63
     7
 74
     1
 91
        4
 64
     7
 65
   257
 75
     1
175
     1
 42
1.0
 92
       12
 66
     7
 43
1.0
 76
     1
 77
     6
 78
     2
 67
     7
 79
     5
170
     0
171
     0
290
     0
174
     0
 93
        1
 44
0.0
173
     0
291
     1
 45
0.0
1001
ACAD
1000
AcDbSavedByObjectVersion
1070
     0
  0
DICTIONARYVAR
  5
143
102
{ACAD_REACTORS
330
142
102
}
330
142
100
DictionaryVariables
280
     0
  1
1:1
  0
DICTIONARYVAR
  5
147
102
{ACAD_REACTORS
330
142
102
}
330
142
100
DictionaryVariables
280
     0
  1
80.000000
  0
DICTIONARYVAR
  5
146
102
{ACAD_REACTORS
330
142
102
}
330
142
100
DictionaryVariables
280
     0
  1
5.000000
  0
ENDSEC
  0
EOF
