  0
SECTION
  2
HEADER
  9
$ACADVER
  1
AC1015
  9
$ACADMAINTVER
 70
     6
  9
$DWGCODEPAGE
  3
ANSI_1252
  9
$INSBASE
 10
0.0
 20
0.0
 30
0.0
  9
$EXTMIN
 10
0.0
 20
0.0
 30
0.0
  9
$EXTMAX
 10
3000.0
 20
4500.0
 30
0.0
  9
$LIMMIN
 10
0.0
 20
0.0
  9
$LIMMAX
 10
3000.0
 20
4500.0
  9
$ORTHOMODE
 70
     0
  9
$REGENMODE
 70
     1
  9
$FILLMODE
 70
     1
  9
$QTEXTMODE
 70
     0
  9
$MIRRTEXT
 70
     1
  9
$LTSCALE
 40
1.0
  9
$ATTMODE
 70
     1
  9
$TEXTSIZE
 40
2.5
  9
$TRACEWID
 40
1.0
  9
$TEXTSTYLE
  7
Standard
  9
$CLAYER
  8
0
  9
$CELTYPE
  6
ByLayer
  9
$CECOLOR
 62
   256
  9
$CELTSCALE
 40
1.0
  9
$DISPSILH
 70
     0
  9
$DIMSCALE
 40
1.0
  9
$DIMASZ
 40
2.5
  9
$DIMEXO
 40
0.625
  9
$DIMDLI
 40
3.75
  9
$DIMRND
 40
0.0
  9
$DIMDLE
 40
0.0
  9
$DIMEXE
 40
1.25
  9
$DIMTP
 40
0.0
  9
$DIMTM
 40
0.0
  9
$DIMTXT
 40
2.5
  9
$DIMCEN
 40
2.5
  9
$DIMTSZ
 40
0.0
  9
$DIMTOL
 70
     0
  9
$DIMLIM
 70
     0
  9
$DIMTIH
 70
     0
  9
$DIMTOH
 70
     0
  9
$DIMSE1
 70
     0
  9
$DIMSE2
 70
     0
  9
$DIMTAD
 70
     1
  9
$DIMZIN
 70
     8
  9
$DIMBLK
  1

  9
$DIMASO
 70
     1
  9
$DIMSHO
 70
     1
  9
$DIMPOST
  1

  9
$DIMAPOST
  1

  9
$DIMALT
 70
     0
  9
$DIMALTD
 70
     3
  9
$DIMALTF
 40
0.0393700787
  9
$DIMLFAC
 40
1.0
  9
$DIMTOFL
 70
     1
  9
$DIMTVP
 40
0.0
  9
$DIMTIX
 70
     0
  9
$DIMSOXD
 70
     0
  9
$DIMSAH
 70
     0
  9
$DIMBLK1
  1

  9
$DIMBLK2
  1

  9
$DIMSTYLE
  2
ISO-25
  9
$DIMCLRD
 70
     0
  9
$DIMCLRE
 70
     0
  9
$DIMCLRT
 70
     0
  9
$DIMTFAC
 40
1.0
  9
$DIMGAP
 40
0.625
  9
$DIMJUST
 70
     0
  9
$DIMSD1
 70
     0
  9
$DIMSD2
 70
     0
  9
$DIMTOLJ
 70
     0
  9
$DIMTZIN
 70
     8
  9
$DIMALTZ
 70
     0
  9
$DIMALTTZ
 70
     0
  9
$DIMUPT
 70
     0
  9
$DIMDEC
 70
     2
  9
$DIMTDEC
 70
     2
  9
$DIMALTU
 70
     2
  9
$DIMALTTD
 70
     3
  9
$DIMTXSTY
  7
Standard
  9
$DIMAUNIT
 70
     0
  9
$DIMADEC
 70
     0
  9
$DIMALTRND
 40
0.0
  9
$DIMAZIN
 70
     0
  9
$DIMDSEP
 70
    44
  9
$DIMATFIT
 70
     3
  9
$DIMFRAC
 70
     0
  9
$DIMLDRBLK
  1

  9
$DIMLUNIT
 70
     2
  9
$DIMLWD
 70
    -2
  9
$DIMLWE
 70
    -2
  9
$DIMTMOVE
 70
     0
  9
$LUNITS
 70
     2
  9
$LUPREC
 70
     4
  9
$SKETCHINC
 40
1.0
  9
$FILLETRAD
 40
10.0
  9
$AUNITS
 70
     0
  9
$AUPREC
 70
     0
  9
$MENU
  1
.
  9
$ELEVATION
 40
0.0
  9
$PELEVATION
 40
0.0
  9
$THICKNESS
 40
0.0
  9
$LIMCHECK
 70
     0
  9
$CHAMFERA
 40
10.0
  9
$CHAMFERB
 40
10.0
  9
$CHAMFERC
 40
20.0
  9
$CHAMFERD
 40
0.0
  9
$SKPOLY
 70
     0
  9
$TDCREATE
 40
2456133.487136551
  9
$TDUCREATE
 40
2456133.403803218
  9
$TDUPDATE
 40
2456133.487136562
  9
$TDUUPDATE
 40
2456133.403803229
  9
$TDINDWG
 40
0.0000000116
  9
$TDUSRTIMER
 40
0.0000000116
  9
$USRTIMER
 70
     1
  9
$ANGBASE
 50
0.0
  9
$ANGDIR
 70
     0
  9
$PDMODE
 70
     0
  9
$PDSIZE
 40
0.0
  9
$PLINEWID
 40
0.0
  9
$SPLFRAME
 70
     0
  9
$SPLINETYPE
 70
     6
  9
$SPLINESEGS
 70
     8
  9
$HANDSEED
  5
1F9
  9
$SURFTAB1
 70
     6
  9
$SURFTAB2
 70
     6
  9
$SURFTYPE
 70
     6
  9
$SURFU
 70
     6
  9
$SURFV
 70
     6
  9
$UCSBASE
  2

  9
$UCSNAME
  2

  9
$UCSORG
 10
0.0
 20
0.0
 30
0.0
  9
$UCSXDIR
 10
1.0
 20
0.0
 30
0.0
  9
$UCSYDIR
 10
0.0
 20
1.0
 30
0.0
  9
$UCSORTHOREF
  2

  9
$UCSORTHOVIEW
 70
     0
  9
$UCSORGTOP
 10
0.0
 20
0.0
 30
0.0
  9
$UCSORGBOTTOM
 10
0.0
 20
0.0
 30
0.0
  9
$UCSORGLEFT
 10
0.0
 20
0.0
 30
0.0
  9
$UCSORGRIGHT
 10
0.0
 20
0.0
 30
0.0
  9
$UCSORGFRONT
 10
0.0
 20
0.0
 30
0.0
  9
$UCSORGBACK
 10
0.0
 20
0.0
 30
0.0
  9
$PUCSBASE
  2

  9
$PUCSNAME
  2

  9
$PUCSORG
 10
0.0
 20
0.0
 30
0.0
  9
$PUCSXDIR
 10
1.0
 20
0.0
 30
0.0
  9
$PUCSYDIR
 10
0.0
 20
1.0
 30
0.0
  9
$PUCSORTHOREF
  2

  9
$PUCSORTHOVIEW
 70
     0
  9
$PUCSORGTOP
 10
0.0
 20
0.0
 30
0.0
  9
$PUCSORGBOTTOM
 10
0.0
 20
0.0
 30
0.0
  9
$PUCSORGLEFT
 10
0.0
 20
0.0
 30
0.0
  9
$PUCSORGRIGHT
 10
0.0
 20
0.0
 30
0.0
  9
$PUCSORGFRONT
 10
0.0
 20
0.0
 30
0.0
  9
$PUCSORGBACK
 10
0.0
 20
0.0
 30
0.0
  9
$USERI1
 70
     0
  9
$USERI2
 70
     0
  9
$USERI3
 70
     0
  9
$USERI4
 70
     0
  9
$USERI5
 70
     0
  9
$USERR1
 40
0.0
  9
$USERR2
 40
0.0
  9
$USERR3
 40
0.0
  9
$USERR4
 40
0.0
  9
$USERR5
 40
0.0
  9
$WORLDVIEW
 70
     1
  9
$SHADEDGE
 70
     3
  9
$SHADEDIF
 70
    70
  9
$TILEMODE
 70
     1
  9
$MAXACTVP
 70
    64
  9
$PINSBASE
 10
0.0
 20
0.0
 30
0.0
  9
$PLIMCHECK
 70
     0
  9
$PEXTMIN
 10
0.0
 20
0.0
 30
0.0
  9
$PEXTMAX
 10
3000.0
 20
4500.0
 30
0.0
  9
$PLIMMIN
 10
0.0
 20
0.0
  9
$PLIMMAX
 10
3000.0
 20
4500.0
  9
$UNITMODE
 70
     0
  9
$VISRETAIN
 70
     1
  9
$PLINEGEN
 70
     0
  9
$PSLTSCALE
 70
     1
  9
$TREEDEPTH
 70
  3020
  9
$CMLSTYLE
  2
Standard
  9
$CMLJUST
 70
     0
  9
$CMLSCALE
 40
20.0
  9
$PROXYGRAPHICS
 70
     1
  9
$MEASUREMENT
 70
     1
  9
$CELWEIGHT
370
    -1
  9
$ENDCAPS
280
     0
  9
$JOINSTYLE
280
     0
  9
$LWDISPLAY
290
     0
  9
$INSUNITS
 70
     4
  9
$HYPERLINKBASE
  1

  9
$STYLESHEET
  1

  9
$XEDIT
290
     1
  9
$CEPSNTYPE
380
     0
  9
$PSTYLEMODE
290
     1
  9
$FINGERPRINTGUID
  2
{8FCDD265-DFB0-462C-B616-9BB44FD32AC1}
  9
$VERSIONGUID
  2
{FAEB1C32-E019-11D5-929B-00C0DF256EC4}
  9
$EXTNAMES
290
     1
  9
$PSVPSCALE
 40
0.0
  9
$OLESTARTUP
290
     0
  0
ENDSEC
  0
SECTION
  2
CLASSES
  0
CLASS
  1
ACDBDICTIONARYWDFLT
  2
AcDbDictionaryWithDefault
  3
ObjectDBX Classes
 90
        0
280
     0
281
     0
  0
CLASS
  1
VISUALSTYLE
  2
AcDbVisualStyle
  3
ObjectDBX Classes
 90
     4095
280
     0
281
     0
  0
CLASS
  1
SCALE
  2
AcDbScale
  3
ObjectDBX Classes
 90
     1153
280
     0
281
     0
  0
CLASS
  1
DICTIONARYVAR
  2
AcDbDictionaryVar
  3
ObjectDBX Classes
 90
        0
280
     0
281
     0
  0
CLASS
  1
ACDBPLACEHOLDER
  2
AcDbPlaceHolder
  3
ObjectDBX Classes
 90
        0
280
     0
281
     0
  0
CLASS
  1
LAYOUT
  2
AcDbLayout
  3
ObjectDBX Classes
 90
        0
280
     0
281
     0
  0
ENDSEC
  0
SECTION
  2
TABLES
  0
TABLE
  2
VPORT
  5
8
330
0
100
AcDbSymbolTable
 70
     1
  0
VPORT
  5
29
330
8
100
AcDbSymbolTableRecord
100
AcDbViewportTableRecord
  2
*Active
 70
     0
 10
0.0
 20
0.0
 11
1.0
 21
1.0
 12
344.1869158879
 22
148.5
 13
0.0
 23
0.0
 14
10.0
 24
10.0
 15
10.0
 25
10.0
 16
0.0
 26
0.0
 36
1.0
 17
0.0
 27
0.0
 37
0.0
 40
297.0
 41
1.9729729729
 42
50.0
 43
0.0
 44
0.0
 50
0.0
 51
0.0
 71
     0
 72
   100
 73
     1
 74
     3
 75
     0
 76
     0
 77
     0
 78
     0
281
     0
 65
     1
110
0.0
120
0.0
130
0.0
111
1.0
121
0.0
131
0.0
112
0.0
122
1.0
132
0.0
 79
     0
146
0.0
  0
ENDTAB
  0
TABLE
  2
LTYPE
  5
5
330
0
100
AcDbSymbolTable
 70
     2
  0
LTYPE
  5
14
330
5
100
AcDbSymbolTableRecord
100
AcDbLinetypeTableRecord
  2
ByBlock
 70
     0
  3

 72
    65
 73
     0
 40
0.0
  0
LTYPE
  5
15
330
5
100
AcDbSymbolTableRecord
100
AcDbLinetypeTableRecord
  2
ByLayer
 70
     0
  3

 72
    65
 73
     0
 40
0.0
  0
LTYPE
  5
16
330
5
100
AcDbSymbolTableRecord
100
AcDbLinetypeTableRecord
  2
Continuous
 70
     0
  3
Solid line
 72
    65
 73
     0
 40
0.0
  0
LTYPE
  5
CE
330
5
100
AcDbSymbolTableRecord
100
AcDbLinetypeTableRecord
  2
CENTER2
 70
     0
  3
Center (.5x) ___ _ ___ _ ___ _ ___ _ ___ _ ___
 72
    65
 73
     4
 40
28.575
 49
19.05
 74
     4
 75
     0
340
0
 46
0.0
 50
0.0
 44
0.0
 45
0.0
 49
-3.175
 74
     4
 75
     0
340
0
 46
0.0
 50
0.0
 44
0.0
 45
0.0
 49
3.175
 74
     4
 75
     0
340
0
 46
0.0
 50
0.0
 44
0.0
 45
0.0
 49
-3.175
 74
     4
 75
     0
340
0
 46
0.0
 50
0.0
 44
0.0
 45
0.0
  0
ENDTAB
  0
TABLE
  2
LAYER
  5
2
330
0
100
AcDbSymbolTable
 70
    13
  0
LAYER
  5
10
330
2
100
AcDbSymbolTableRecord
100
AcDbLayerTableRecord
  2
0
 70
     0
 62
     7
  6
Continuous
370
    -3
390
F
  0
LAYER
  5
5D
330
2
100
AcDbSymbolTableRecord
100
AcDbLayerTableRecord
  2
Default
 70
     0
 62
     7
  6
Continuous
370
    -3
390
F
  0
LAYER
  5
60
330
2
100
AcDbSymbolTableRecord
100
AcDbLayerTableRecord
  2
410526040_ESCUTC
 70
     0
 62
     7
  6
Continuous
370
    -3
390
F
  0
LAYER
  5
89
330
2
100
AcDbSymbolTableRecord
100
AcDbLayerTableRecord
  2
410451038_THM_HA
 70
     0
 62
     7
  6
Continuous
370
    -3
390
F
  0
LAYER
  5
99
330
2
100
AcDbSymbolTableRecord
100
AcDbLayerTableRecord
  2
410454038_HANDLE
 70
     0
 62
     7
  6
Continuous
370
    -3
390
F
  0
LAYER
  5
AE
330
2
100
AcDbSymbolTableRecord
100
AcDbLayerTableRecord
  2
410452038_OVERID
 70
     0
 62
     7
  6
Continuous
370
    -3
390
F
  0
LAYER
  5
B4
330
2
100
AcDbSymbolTableRecord
100
AcDbLayerTableRecord
  2
410450038_SQUARE
 70
     0
 62
     7
  6
Continuous
370
    -3
390
F
  0
LAYER
  5
CD
330
2
100
AcDbSymbolTableRecord
100
AcDbLayerTableRecord
  2
DV1_Default
 70
     0
 62
     7
  6
Continuous
370
    -3
390
F
  0
LAYER
  5
D5
330
2
100
AcDbSymbolTableRecord
100
AcDbLayerTableRecord
  2
410455038_SLEEVE
 70
     0
 62
     7
  6
Continuous
370
    -3
390
F
  0
LAYER
  5
11F
330
2
100
AcDbSymbolTableRecord
100
AcDbLayerTableRecord
  2
410465031_SLEEVE
 70
     0
 62
     7
  6
Continuous
370
    -3
390
F
  0
LAYER
  5
129
330
2
100
AcDbSymbolTableRecord
100
AcDbLayerTableRecord
  2
DV2_Default
 70
     0
 62
     7
  6
Continuous
370
    -3
390
F
  0
LAYER
  5
16E
330
2
100
AcDbSymbolTableRecord
100
AcDbLayerTableRecord
  2
410453031_OVERID
 70
     0
 62
     7
  6
Continuous
370
    -3
390
F
  0
LAYER
  5
1E3
330
2
100
AcDbSymbolTableRecord
100
AcDbLayerTableRecord
  2
DV3_Default
 70
     0
 62
     7
  6
Continuous
370
    -3
390
F
  0
ENDTAB
  0
TABLE
  2
STYLE
  5
3
330
0
100
AcDbSymbolTable
 70
     2
  0
STYLE
  5
11
330
3
100
AcDbSymbolTableRecord
100
AcDbTextStyleTableRecord
  2
Standard
 70
     0
 40
0.0
 41
1.0
 50
0.0
 71
     0
 42
2.5
  3
txt
  4

  0
STYLE
  5
1E8
330
3
100
AcDbSymbolTableRecord
100
AcDbTextStyleTableRecord
  2
SEACAD_seiso_ttf
 70
     0
 40
0.0
 41
1.0
 50
0.0
 71
     0
 42
0.2
  3
seiso.ttf
  4

  0
ENDTAB
  0
TABLE
  2
VIEW
  5
6
330
0
100
AcDbSymbolTable
 70
     0
  0
ENDTAB
  0
TABLE
  2
UCS
  5
7
330
0
100
AcDbSymbolTable
 70
     0
  0
ENDTAB
  0
TABLE
  2
APPID
  5
9
330
0
100
AcDbSymbolTable
 70
     1
  0
APPID
  5
12
330
9
100
AcDbSymbolTableRecord
100
AcDbRegAppTableRecord
  2
ACAD
 70
     0
  0
ENDTAB
  0
TABLE
  2
DIMSTYLE
  5
A
330
0
100
AcDbSymbolTable
 70
     1
100
AcDbDimStyleTable
  0
DIMSTYLE
105
27
330
A
100
AcDbSymbolTableRecord
100
AcDbDimStyleTableRecord
  2
ISO-25
 70
     0
 41
2.5
 42
0.625
 43
3.75
 44
1.25
 73
     0
 74
     0
 77
     1
 78
     8
140
2.5
141
2.5
143
0.0393700787
147
0.625
171
     3
172
     1
271
     2
272
     2
274
     3
278
    44
283
     0
284
     8
340
11
  0
ENDTAB
  0
TABLE
  2
BLOCK_RECORD
  5
1
330
0
100
AcDbSymbolTable
 70
     4
  0
BLOCK_RECORD
  5
1F
330
1
100
AcDbSymbolTableRecord
100
AcDbBlockTableRecord
  2
*Model_Space
340
22
  0
BLOCK_RECORD
  5
1B
330
1
100
AcDbSymbolTableRecord
100
AcDbBlockTableRecord
  2
*Paper_Space
340
1E
  0
BLOCK_RECORD
  5
5E
330
1
100
AcDbSymbolTableRecord
100
AcDbBlockTableRecord
  2
SE
340
0
102
{BLKREFS
331
5F
102
}
  0
BLOCK_RECORD
  5
D3
330
1
100
AcDbSymbolTableRecord
100
AcDbBlockTableRecord
  2
SE1
340
0
102
{BLKREFS
331
D4
102
}
  0
BLOCK_RECORD
  5
12E
330
1
100
AcDbSymbolTableRecord
100
AcDbBlockTableRecord
  2
SE2
340
0
102
{BLKREFS
331
12F
102
}
  0
ENDTAB
  0
ENDSEC
  0
SECTION
  2
BLOCKS
  0
BLOCK
  5
20
330
1F
100
AcDbEntity
  8
0
100
AcDbBlockBegin
  2
*Model_Space
 70
     0
 10
0.0
 20
0.0
 30
0.0
  3
*Model_Space
  1

  0
ENDBLK
  5
21
330
1F
100
AcDbEntity
  8
0
100
AcDbBlockEnd
  0
BLOCK
  5
1C
330
1B
100
AcDbEntity
 67
     1
  8
0
100
AcDbBlockBegin
  2
*Paper_Space
 70
     0
 10
0.0
 20
0.0
 30
0.0
  3
*Paper_Space
  1

  0
ENDBLK
  5
1D
330
1B
100
AcDbEntity
 67
     1
  8
0
100
AcDbBlockEnd
  0
BLOCK
  5
D1
330
5E
100
AcDbEntity
  8
0
100
AcDbBlockBegin
  2
SE
 70
     0
 10
0.0
 20
0.0
 30
0.0
  3
SE
  1

  0
LINE
  5
61
330
5E
100
AcDbEntity
  8
410526040_ESCUTC
  6
Continuous
 62
     7
100
AcDbLine
 10
13.6013362184
 20
495.6010177377
 30
0.0
 11
182.6014885232
 21
495.6010177377
 31
0.0
  0
ELLIPSE
  5
62
330
5E
100
AcDbEntity
  8
410526040_ESCUTC
  6
Continuous
 62
     7
100
AcDbEllipse
 10
13.6014885348
 20
495.1009415737
 30
0.0
 11
0.3536610945847903
 21
-0.3536610945847906
 31
0.0
210
0.0
220
0.0
230
1.0
 40
0.9996954599
 41
2.356346783439864
 42
3.926838523739683
  0
LINE
  5
63
330
5E
100
AcDbEntity
  8
410526040_ESCUTC
  6
Continuous
 62
     7
100
AcDbLine
 10
183.1014123708
 20
495.1010938901
 30
0.0
 11
183.1014123708
 21
326.1009415853
 31
0.0
  0
ELLIPSE
  5
64
330
5E
100
AcDbEntity
  8
410526040_ESCUTC
  6
Continuous
 62
     7
100
AcDbEllipse
 10
182.6013362068
 20
495.1009415737
 30
0.0
 11
-0.3536610945847906
 21
-0.3536610945847902
 31
0.0
210
0.0
220
0.0
230
1.0
 40
0.9996954599
 41
2.35634678343989
 42
3.926838523739697
  0
LINE
  5
65
330
5E
100
AcDbEntity
  8
410526040_ESCUTC
  6
Continuous
 62
     7
100
AcDbLine
 10
182.6014885232
 20
325.6010177377
 30
0.0
 11
103.1014123708
 21
325.6010177377
 31
0.0
  0
ELLIPSE
  5
66
330
5E
100
AcDbEntity
  8
410526040_ESCUTC
  6
Continuous
 62
     7
100
AcDbEllipse
 10
182.6013362068
 20
326.1010939017
 30
0.0
 11
-0.3536610945847902
 21
0.3536610945847906
 31
0.0
210
0.0
220
0.0
230
1.0
 40
0.9996954599
 41
2.356346783439776
 42
3.92683852373947
  0
LINE
  5
67
330
5E
100
AcDbEntity
  8
410526040_ESCUTC
  6
Continuous
 62
     7
100
AcDbLine
 10
13.1014123708
 20
326.1009415853
 30
0.0
 11
13.1014123708
 21
495.1010938901
 31
0.0
  0
ELLIPSE
  5
68
330
5E
100
AcDbEntity
  8
410526040_ESCUTC
  6
Continuous
 62
     7
100
AcDbEllipse
 10
13.6014885348
 20
326.1010939017
 30
0.0
 11
0.3536610945847906
 21
0.3536610945847902
 31
0.0
210
0.0
220
0.0
230
1.0
 40
0.9996954599
 41
2.3563467834399
 42
3.926838523739559
  0
LINE
  5
69
330
5E
100
AcDbEntity
  8
410526040_ESCUTC
  6
Continuous
 62
     7
100
AcDbLine
 10
182.3556251309
 20
326.1218539233
 30
0.0
 11
130.6043428252
 21
377.873136229
 31
0.0
  0
LINE
  5
6A
330
5E
100
AcDbEntity
  8
410526040_ESCUTC
  6
Continuous
 62
     7
100
AcDbLine
 10
13.6222485564
 20
326.3468049776
 30
0.0
 11
65.3735308621
 21
378.0980872833
 31
0.0
  0
LINE
  5
6B
330
5E
100
AcDbEntity
  8
410526040_ESCUTC
  6
Continuous
 62
     7
100
AcDbLine
 10
182.5805761852
 20
494.8552304977
 30
0.0
 11
130.8292938795
 21
443.1039481921
 31
0.0
  0
LINE
  5
6C
330
5E
100
AcDbEntity
  8
410526040_ESCUTC
  6
Continuous
 62
     7
100
AcDbLine
 10
13.8471996107
 20
495.0801815521
 30
0.0
 11
65.5984819164
 21
443.3288992464
 31
0.0
  0
LINE
  5
6D
330
5E
100
AcDbEntity
  8
410526040_ESCUTC
  6
Continuous
 62
     7
100
AcDbLine
 10
130.8292938795
 20
378.0980872833
 30
0.0
 11
182.5805761852
 21
326.3468049776
 31
0.0
  0
ARC
  5
6E
330
5E
100
AcDbEntity
  8
410526040_ESCUTC
  6
Continuous
 62
     7
100
AcDbCircle
 10
129.6014123708
 20
379.1010177377
 30
0.0
 40
1.000000000000001
100
AcDbArc
 50
270.0
 51
311.9606682286
  0
ARC
  5
6F
330
5E
100
AcDbEntity
  8
410526040_ESCUTC
  6
Continuous
 62
     7
100
AcDbCircle
 10
129.5952339041
 20
379.1071962044
 30
0.0
 40
1.008725487174627
100
AcDbArc
 50
311.9869828511
 51
318.0130171489
  0
ARC
  5
70
330
5E
100
AcDbEntity
  8
410526040_ESCUTC
  6
Continuous
 62
     7
100
AcDbCircle
 10
129.6014123708
 20
379.1010177377
 30
0.0
 40
0.9999999999999886
100
AcDbArc
 50
318.0393317714
 51
0.0
  0
LINE
  5
71
330
5E
100
AcDbEntity
  8
410526040_ESCUTC
  6
Continuous
 62
     7
100
AcDbLine
 10
130.6014123708
 20
379.1010177377
 30
0.0
 11
130.6014123708
 21
442.1010177377
 31
0.0
  0
ARC
  5
72
330
5E
100
AcDbEntity
  8
410526040_ESCUTC
  6
Continuous
 62
     7
100
AcDbCircle
 10
129.6014123708
 20
442.1010177377
 30
0.0
 40
0.9999999999999825
100
AcDbArc
 50
48.0393317714
 51
90.0
  0
ARC
  5
73
330
5E
100
AcDbEntity
  8
410526040_ESCUTC
  6
Continuous
 62
     7
100
AcDbCircle
 10
129.5952339041
 20
442.094839271
 30
0.0
 40
1.008725487173669
100
AcDbArc
 50
41.9869828511
 51
48.0130171489
  0
ARC
  5
74
330
5E
100
AcDbEntity
  8
410526040_ESCUTC
  6
Continuous
 62
     7
100
AcDbCircle
 10
129.6014123708
 20
442.1010177377
 30
0.0
 40
0.999999999999994
100
AcDbArc
 50
0.0
 51
41.9606682286
  0
LINE
  5
75
330
5E
100
AcDbEntity
  8
410526040_ESCUTC
  6
Continuous
 62
     7
100
AcDbLine
 10
65.5984819164
 20
377.873136229
 30
0.0
 11
13.8471996107
 21
326.1218539233
 31
0.0
  0
LINE
  5
76
330
5E
100
AcDbEntity
  8
410526040_ESCUTC
  6
Continuous
 62
     7
100
AcDbLine
 10
130.6043428252
 20
443.3288992464
 30
0.0
 11
182.3556251309
 21
495.0801815521
 31
0.0
  0
LINE
  5
77
330
5E
100
AcDbEntity
  8
410526040_ESCUTC
  6
Continuous
 62
     7
100
AcDbLine
 10
66.6014123708
 20
378.1010177377
 30
0.0
 11
95.0731252599
 21
378.1010177377
 31
0.0
  0
LINE
  5
78
330
5E
100
AcDbEntity
  8
410526040_ESCUTC
  6
Continuous
 62
     7
100
AcDbLine
 10
101.1279599113
 20
378.1010177377
 30
0.0
 11
129.6014123708
 21
378.1010177377
 31
0.0
  0
ARC
  5
79
330
5E
100
AcDbEntity
  8
410526040_ESCUTC
  6
Continuous
 62
     7
100
AcDbCircle
 10
66.6014123708
 20
379.1010177377
 30
0.0
 40
1.000000000000015
100
AcDbArc
 50
180.0
 51
221.9606682286
  0
ARC
  5
7A
330
5E
100
AcDbEntity
  8
410526040_ESCUTC
  6
Continuous
 62
     7
100
AcDbCircle
 10
66.6075908375
 20
379.1071962044
 30
0.0
 40
1.008725487174714
100
AcDbArc
 50
221.9869828511
 51
228.0130171489
  0
ARC
  5
7B
330
5E
100
AcDbEntity
  8
410526040_ESCUTC
  6
Continuous
 62
     7
100
AcDbCircle
 10
66.6014123708
 20
379.1010177377
 30
0.0
 40
1.000000000000008
100
AcDbArc
 50
228.0393317714
 51
270.0
  0
LINE
  5
7C
330
5E
100
AcDbEntity
  8
410526040_ESCUTC
  6
Continuous
 62
     7
100
AcDbLine
 10
129.6014123708
 20
443.1010177377
 30
0.0
 11
101.1282115325
 21
443.1010177377
 31
0.0
  0
LINE
  5
7D
330
5E
100
AcDbEntity
  8
410526040_ESCUTC
  6
Continuous
 62
     7
100
AcDbLine
 10
95.0746132091
 20
443.1010177377
 30
0.0
 11
66.6014123708
 21
443.1010177377
 31
0.0
  0
ARC
  5
7E
330
5E
100
AcDbEntity
  8
410526040_ESCUTC
  6
Continuous
 62
     7
100
AcDbCircle
 10
66.6014123708
 20
442.1010177377
 30
0.0
 40
1.000000000000006
100
AcDbArc
 50
138.0393317714
 51
180.0
  0
ARC
  5
7F
330
5E
100
AcDbEntity
  8
410526040_ESCUTC
  6
Continuous
 62
     7
100
AcDbCircle
 10
66.6075908375
 20
442.094839271
 30
0.0
 40
1.008725487174712
100
AcDbArc
 50
131.9869828511
 51
138.0130171489
  0
ARC
  5
80
330
5E
100
AcDbEntity
  8
410526040_ESCUTC
  6
Continuous
 62
     7
100
AcDbCircle
 10
66.6014123708
 20
442.1010177377
 30
0.0
 40
1.000000000000008
100
AcDbArc
 50
90.0
 51
131.9606682286
  0
LINE
  5
81
330
5E
100
AcDbEntity
  8
410526040_ESCUTC
  6
Continuous
 62
     7
100
AcDbLine
 10
65.3735308621
 20
443.1039481921
 30
0.0
 11
13.6222485564
 21
494.8552304977
 31
0.0
  0
LINE
  5
82
330
5E
100
AcDbEntity
  8
410526040_ESCUTC
  6
Continuous
 62
     7
100
AcDbLine
 10
65.6014123708
 20
442.1010177377
 30
0.0
 11
65.6014123708
 21
379.1010177377
 31
0.0
  0
LINE
  5
83
330
5E
100
AcDbEntity
  8
410526040_ESCUTC
  6
Continuous
 62
     7
100
AcDbLine
 10
93.1014123708
 20
325.6010177377
 30
0.0
 11
13.6013362184
 21
325.6010177377
 31
0.0
  0
LINE
  5
84
330
5E
100
AcDbEntity
  8
410526040_ESCUTC
  6
Continuous
 62
     7
100
AcDbLine
 10
103.1014123708
 20
325.6010177377
 30
0.0
 11
102.8634122434
 21
325.616521825
 31
0.0
  0
LINE
  5
85
330
5E
100
AcDbEntity
  8
410526040_ESCUTC
  6
Continuous
 62
     7
100
AcDbLine
 10
101.414523504
 20
325.6359278675
 30
0.0
 11
94.7883012376
 21
325.6359278675
 31
0.0
  0
ELLIPSE
  5
86
330
5E
100
AcDbEntity
  8
410526040_ESCUTC
  6
Continuous
 62
     7
100
AcDbEllipse
 10
101.414523504
 20
325.6097452701
 30
0.0
 11
-1.499999999999998
 21
0.0
 31
0.0
210
0.0
220
0.0
230
1.0
 40
0.0174550649
 41
3.403392041388288
 42
4.71238898038469
  0
LINE
  5
87
330
5E
100
AcDbEntity
  8
410526040_ESCUTC
  6
Continuous
 62
     7
100
AcDbLine
 10
93.3394124982
 20
325.616521825
 30
0.0
 11
93.1014123708
 21
325.6010177377
 31
0.0
  0
ELLIPSE
  5
88
330
5E
100
AcDbEntity
  8
410526040_ESCUTC
  6
Continuous
 62
     7
100
AcDbEllipse
 10
94.7883012376
 20
325.6097452701
 30
0.0
 11
-1.500000000000002
 21
0.0
 31
0.0
210
0.0
220
0.0
230
1.0
 40
0.0174550649
 41
4.71238898038469
 42
6.021385919381083
  0
LINE
  5
8A
330
5E
100
AcDbEntity
  8
410451038_THM_HA
  6
Continuous
 62
     7
100
AcDbLine
 10
129.8496517662
 20
379.8527402654
 30
0.0
 11
129.8496517662
 21
441.34929521
 31
0.0
  0
ARC
  5
8B
330
5E
100
AcDbEntity
  8
410451038_THM_HA
  6
Continuous
 62
     7
100
AcDbCircle
 10
128.8496746139
 20
379.8527554946
 30
0.0
 40
0.9999771523887232
100
AcDbArc
 50
270.0008725893
 51
359.9991274107
  0
ARC
  5
8C
330
5E
100
AcDbEntity
  8
410451038_THM_HA
  6
Continuous
 62
     7
100
AcDbCircle
 10
128.8496746139
 20
441.3492799808
 30
0.0
 40
0.9999771523887266
100
AcDbArc
 50
0.0008725893
 51
89.9991274107
  0
LINE
  5
8D
330
5E
100
AcDbEntity
  8
410451038_THM_HA
  6
Continuous
 62
     7
100
AcDbLine
 10
67.3531348985
 20
378.8527783423
 30
0.0
 11
128.8496898431
 21
378.8527783423
 31
0.0
  0
LINE
  5
8E
330
5E
100
AcDbEntity
  8
410451038_THM_HA
  6
Continuous
 62
     7
100
AcDbLine
 10
128.8496898431
 20
442.3492571331
 30
0.0
 11
101.1413335627
 21
442.3492571331
 31
0.0
  0
LINE
  5
8F
330
5E
100
AcDbEntity
  8
410451038_THM_HA
  6
Continuous
 62
     7
100
AcDbLine
 10
95.0614911789
 20
442.3492571331
 30
0.0
 11
67.3531348985
 21
442.3492571331
 31
0.0
  0
ARC
  5
90
330
5E
100
AcDbEntity
  8
410451038_THM_HA
  6
Continuous
 62
     7
100
AcDbCircle
 10
67.3531501277
 20
379.8527554946
 30
0.0
 40
0.9999771523887301
100
AcDbArc
 50
180.0008725893
 51
269.9991274107
  0
ARC
  5
91
330
5E
100
AcDbEntity
  8
410451038_THM_HA
  6
Continuous
 62
     7
100
AcDbCircle
 10
67.3531501277
 20
441.3492799808
 30
0.0
 40
0.9999771523887266
100
AcDbArc
 50
90.0008725893
 51
179.9991274107
  0
LINE
  5
92
330
5E
100
AcDbEntity
  8
410451038_THM_HA
  6
Continuous
 62
     7
100
AcDbLine
 10
66.3531729754
 20
441.34929521
 30
0.0
 11
66.3531729754
 21
379.8527402654
 31
0.0
  0
ELLIPSE
  5
93
330
5E
100
AcDbEntity
  8
410451038_THM_HA
  6
Continuous
 62
     7
100
AcDbEllipse
 10
95.3014123708
 20
442.14417574
 30
0.0
 11
0.7000000000000001
 21
0.0
 31
0.0
210
0.0
220
0.0
230
1.0
 40
0.0087268678
 41
3.141592653589793
 42
4.71238898038469
  0
LINE
  5
94
330
5E
100
AcDbEntity
  8
410451038_THM_HA
  6
Continuous
 62
     7
100
AcDbLine
 10
100.9014123708
 20
442.1380669325
 30
0.0
 11
95.3014123708
 21
442.1380669325
 31
0.0
  0
ELLIPSE
  5
95
330
5E
100
AcDbEntity
  8
410451038_THM_HA
  6
Continuous
 62
     7
100
AcDbEllipse
 10
100.9014123708
 20
442.14417574
 30
0.0
 11
0.7000000000000005
 21
0.0
 31
0.0
210
0.0
220
0.0
230
1.0
 40
0.0087268678
 41
4.71238898038469
 42
6.283185307179586
  0
ELLIPSE
  5
96
330
5E
100
AcDbEntity
  8
410451038_THM_HA
  6
Continuous
 62
     7
100
AcDbEllipse
 10
95.3014123708
 20
442.3064954809
 30
0.0
 11
-0.7000000000000005
 21
0.0
 31
0.0
210
0.0
220
0.0
230
1.0
 40
0.0087268678
 41
5.063208797769725
 42
6.283185307179586
  0
ELLIPSE
  5
97
330
5E
100
AcDbEntity
  8
410451038_THM_HA
  6
Continuous
 62
     7
100
AcDbEllipse
 10
100.9014123708
 20
442.3064954809
 30
0.0
 11
-0.7000000000000014
 21
0.0
 31
0.0
210
0.0
220
0.0
230
1.0
 40
0.0087268678
 41
3.141592653589793
 42
4.36156916299972
  0
ARC
  5
98
330
5E
100
AcDbEntity
  8
410451038_THM_HA
  6
Continuous
 62
     7
100
AcDbCircle
 10
101.6014123708
 20
441.9441833554
 30
0.0
 40
0.2000000000000001
100
AcDbArc
 50
90.0
 51
97.3301349552
  0
LINE
  5
9A
330
5E
100
AcDbEntity
  8
410454038_HANDLE
  6
Continuous
 62
     7
100
AcDbLine
 10
102.1004939916
 20
378.85189804
 30
0.0
 11
128.8505701454
 21
378.85189804
 31
0.0
  0
LINE
  5
9B
330
5E
100
AcDbEntity
  8
410454038_HANDLE
  6
Continuous
 62
     7
100
AcDbLine
 10
101.0961305569
 20
326.4562767054
 30
0.0
 11
101.0961305569
 21
377.8563376285
 31
0.0
  0
LINE
  5
9C
330
5E
100
AcDbEntity
  8
410454038_HANDLE
  6
Continuous
 62
     7
100
AcDbLine
 10
95.7066713385
 20
325.8562995515
 30
0.0
 11
100.4961534031
 21
325.8562995515
 31
0.0
  0
LINE
  5
9D
330
5E
100
AcDbEntity
  8
410454038_HANDLE
  6
Continuous
 62
     7
100
AcDbLine
 10
95.1066941847
 20
377.8563376285
 30
0.0
 11
95.1066941847
 21
326.4562767054
 31
0.0
  0
ARC
  5
9E
330
5E
100
AcDbEntity
  8
410454038_HANDLE
  6
Continuous
 62
     7
100
AcDbCircle
 10
101.9410572147
 20
378.0157008598
 30
0.0
 40
1.000273002562707
100
AcDbArc
 50
122.9301990322
 51
180.2305523126
  0
ARC
  5
9F
330
5E
100
AcDbEntity
  8
410454038_HANDLE
  6
Continuous
 62
     7
100
AcDbCircle
 10
94.2617675269
 20
378.0157008598
 30
0.0
 40
1.000273002562723
100
AcDbArc
 50
359.7694476874
 51
57.0699613276
  0
ARC
  5
A0
330
5E
100
AcDbEntity
  8
410454038_HANDLE
  6
Continuous
 62
     7
100
AcDbCircle
 10
102.0956645395
 20
377.8523678414
 30
0.0
 40
0.9995418658071884
100
AcDbArc
 50
89.7231648753
 51
179.7724431051
  0
ARC
  5
A1
330
5E
100
AcDbEntity
  8
410454038_HANDLE
  6
Continuous
 62
     7
100
AcDbCircle
 10
94.1056592157
 20
377.8508535828
 30
0.0
 40
1.001049990692799
100
AcDbArc
 50
0.3138846654
 51
90.1905073542
  0
LINE
  5
A2
330
5E
100
AcDbEntity
  8
410454038_HANDLE
  6
Continuous
 62
     7
100
AcDbLine
 10
66.3522926731
 20
441.3501755123
 30
0.0
 11
66.3522926731
 21
379.8518599631
 31
0.0
  0
ARC
  5
A3
330
5E
100
AcDbEntity
  8
410454038_HANDLE
  6
Continuous
 62
     7
100
AcDbCircle
 10
67.3522622107
 20
441.3501678978
 30
0.0
 40
0.99996953758149
100
AcDbArc
 50
90.0004362913
 51
179.9995637087
  0
LINE
  5
A4
330
5E
100
AcDbEntity
  8
410454038_HANDLE
  6
Continuous
 62
     7
100
AcDbLine
 10
67.3522545962
 20
378.85189804
 30
0.0
 11
94.10233075
 21
378.85189804
 31
0.0
  0
ARC
  5
A5
330
5E
100
AcDbEntity
  8
410454038_HANDLE
  6
Continuous
 62
     7
100
AcDbCircle
 10
67.3522622107
 20
379.8518675775
 30
0.0
 40
0.9999695375814865
100
AcDbArc
 50
180.0004362913
 51
269.9995637087
  0
LINE
  5
A6
330
5E
100
AcDbEntity
  8
410454038_HANDLE
  6
Continuous
 62
     7
100
AcDbLine
 10
129.8505320685
 20
379.8518599631
 30
0.0
 11
129.8505320685
 21
441.3501755123
 31
0.0
  0
LINE
  5
A7
330
5E
100
AcDbEntity
  8
410454038_HANDLE
  6
Continuous
 62
     7
100
AcDbLine
 10
128.8505701454
 20
378.85189804
 30
0.0
 11
128.8496898431
 21
378.8527783423
 31
0.0
  0
ARC
  5
A8
330
5E
100
AcDbEntity
  8
410454038_HANDLE
  6
Continuous
 62
     7
100
AcDbCircle
 10
128.8505625309
 20
379.8518675775
 30
0.0
 40
0.99996953758149
100
AcDbArc
 50
270.0004362913
 51
359.9995637087
  0
LINE
  5
A9
330
5E
100
AcDbEntity
  8
410454038_HANDLE
  6
Continuous
 62
     7
100
AcDbLine
 10
128.8505701454
 20
442.3501374354
 30
0.0
 11
101.141318197
 21
442.3501374354
 31
0.0
  0
LINE
  5
AA
330
5E
100
AcDbEntity
  8
410454038_HANDLE
  6
Continuous
 62
     7
100
AcDbLine
 10
95.0615065446
 20
442.3501374354
 30
0.0
 11
67.3522545962
 21
442.3501374354
 31
0.0
  0
ARC
  5
AB
330
5E
100
AcDbEntity
  8
410454038_HANDLE
  6
Continuous
 62
     7
100
AcDbCircle
 10
128.8505625309
 20
441.3501678978
 30
0.0
 40
0.9999695375814865
100
AcDbArc
 50
0.0004362913
 51
89.9995637087
  0
ARC
  5
AC
330
5E
100
AcDbEntity
  8
410454038_HANDLE
  6
Continuous
 62
     7
100
AcDbCircle
 10
100.4961534031
 20
326.4562767054
 30
0.0
 40
0.6000000000000033
100
AcDbArc
 50
270.0
 51
0.0
  0
ARC
  5
AD
330
5E
100
AcDbEntity
  8
410454038_HANDLE
  6
Continuous
 62
     7
100
AcDbCircle
 10
95.7066713385
 20
326.4562767054
 30
0.0
 40
0.5999999999999999
100
AcDbArc
 50
180.0
 51
270.0
  0
LINE
  5
AF
330
5E
100
AcDbEntity
  8
410452038_OVERID
  6
Continuous
 62
     7
100
AcDbLine
 10
95.719566412
 20
451.9010177377
 30
0.0
 11
100.4832583296
 21
451.9010177377
 31
0.0
  0
LINE
  5
B0
330
5E
100
AcDbEntity
  8
410452038_OVERID
  6
Continuous
 62
     7
100
AcDbLine
 10
100.9831821772
 20
451.4097439409
 30
0.0
 11
101.1450132364
 21
442.1384487692
 31
0.0
  0
ARC
  5
B1
330
5E
100
AcDbEntity
  8
410452038_OVERID
  6
Continuous
 62
     7
100
AcDbCircle
 10
100.4832583296
 20
451.4010177377
 30
0.0
 40
0.5000000000000004
100
AcDbArc
 50
1.0
 51
90.0
  0
ARC
  5
B2
330
5E
100
AcDbEntity
  8
410452038_OVERID
  6
Continuous
 62
     7
100
AcDbCircle
 10
95.719566412
 20
451.4010177377
 30
0.0
 40
0.4999999999999998
100
AcDbArc
 50
90.0
 51
179.0
  0
LINE
  5
B3
330
5E
100
AcDbEntity
  8
410452038_OVERID
  6
Continuous
 62
     7
100
AcDbLine
 10
95.0578115052
 20
442.1384487692
 30
0.0
 11
95.2196425644
 21
451.4097439409
 31
0.0
  0
LINE
  5
B5
330
5E
100
AcDbEntity
  8
410450038_SQUARE
  6
Continuous
 62
     7
100
AcDbLine
 10
102.1014123708
 20
381.396038533
 30
0.0
 11
102.1014123708
 21
380.9010177377
 31
0.0
  0
LINE
  5
B6
330
5E
100
AcDbEntity
  8
410450038_SQUARE
  6
Continuous
 62
     7
100
AcDbLine
 10
102.1014123708
 20
381.396038533
 30
0.0
 11
94.1014123708
 21
381.396038533
 31
0.0
  0
LINE
  5
B7
330
5E
100
AcDbEntity
  8
410450038_SQUARE
  6
Continuous
 62
     7
100
AcDbLine
 10
94.1014123708
 20
381.396038533
 30
0.0
 11
94.1014123708
 21
380.9010177377
 31
0.0
  0
LINE
  5
B8
330
5E
100
AcDbEntity
  8
410450038_SQUARE
  6
Continuous
 62
     7
100
AcDbLine
 10
94.1014123708
 20
380.9010177377
 30
0.0
 11
94.1014123708
 21
380.6647167052
 31
0.0
  0
LINE
  5
B9
330
5E
100
AcDbEntity
  8
410450038_SQUARE
  6
Continuous
 62
     7
100
AcDbLine
 10
94.1014123708
 20
380.6222507268
 30
0.0
 11
94.1014123708
 21
380.6647167052
 31
0.0
  0
LINE
  5
BA
330
5E
100
AcDbEntity
  8
410450038_SQUARE
  6
Continuous
 62
     7
100
AcDbLine
 10
102.1014123708
 20
380.6647167052
 30
0.0
 11
102.1014123708
 21
380.9010177377
 31
0.0
  0
LINE
  5
BB
330
5E
100
AcDbEntity
  8
410450038_SQUARE
  6
Continuous
 62
     7
100
AcDbLine
 10
102.1014123708
 20
380.6647167052
 30
0.0
 11
102.1014123708
 21
380.6222507268
 31
0.0
  0
LINE
  5
BC
330
5E
100
AcDbEntity
  8
410450038_SQUARE
  6
Continuous
 62
     7
100
AcDbLine
 10
102.1014123708
 20
380.6222507268
 30
0.0
 11
127.8014123708
 21
380.6222507268
 31
0.0
  0
ARC
  5
BD
330
5E
100
AcDbEntity
  8
410450038_SQUARE
  6
Continuous
 62
     7
100
AcDbCircle
 10
127.8023358907
 20
380.950887718
 30
0.0
 40
0.3286382887759495
100
AcDbArc
 50
269.8389905685
 51
299.5689416598
  0
ARC
  5
BE
330
5E
100
AcDbEntity
  8
410450038_SQUARE
  6
Continuous
 62
     7
100
AcDbCircle
 10
127.8642971663
 20
380.8381329422
 30
0.0
 40
0.199999999999981
100
AcDbArc
 50
300.070158532
 51
329.929841468
  0
ARC
  5
BF
330
5E
100
AcDbEntity
  8
410450038_SQUARE
  6
Continuous
 62
     7
100
AcDbCircle
 10
127.7474044792
 20
380.9011800846
 30
0.0
 40
0.332774942025793
100
AcDbArc
 50
330.6200199773
 51
359.9720477943
  0
LINE
  5
C0
330
5E
100
AcDbEntity
  8
410450038_SQUARE
  6
Continuous
 62
     7
100
AcDbLine
 10
128.0801793816
 20
380.9010177377
 30
0.0
 11
128.0801793816
 21
440.3010177377
 31
0.0
  0
ARC
  5
C1
330
5E
100
AcDbEntity
  8
410450038_SQUARE
  6
Continuous
 62
     7
100
AcDbCircle
 10
127.7515423905
 20
440.3019412576
 30
0.0
 40
0.3286382887759729
100
AcDbArc
 50
359.8389905686
 51
29.5689416599
  0
ARC
  5
C2
330
5E
100
AcDbEntity
  8
410450038_SQUARE
  6
Continuous
 62
     7
100
AcDbCircle
 10
127.8642971663
 20
440.3639025332
 30
0.0
 40
0.199999999999997
100
AcDbArc
 50
30.070158532
 51
59.929841468
  0
ARC
  5
C3
330
5E
100
AcDbEntity
  8
410450038_SQUARE
  6
Continuous
 62
     7
100
AcDbCircle
 10
127.8012500239
 20
440.2470098461
 30
0.0
 40
0.3327749420252936
100
AcDbArc
 50
60.6200199773
 51
89.9720477943
  0
LINE
  5
C4
330
5E
100
AcDbEntity
  8
410450038_SQUARE
  6
Continuous
 62
     7
100
AcDbLine
 10
127.8014123708
 20
440.5797847485
 30
0.0
 11
68.4014123708
 21
440.5797847485
 31
0.0
  0
ARC
  5
C5
330
5E
100
AcDbEntity
  8
410450038_SQUARE
  6
Continuous
 62
     7
100
AcDbCircle
 10
68.4004888509
 20
440.2511477573
 30
0.0
 40
0.3286382887760088
100
AcDbArc
 50
89.8389905685
 51
119.5689416598
  0
ARC
  5
C6
330
5E
100
AcDbEntity
  8
410450038_SQUARE
  6
Continuous
 62
     7
100
AcDbCircle
 10
68.3385275753
 20
440.3639025332
 30
0.0
 40
0.2000000000000025
100
AcDbArc
 50
120.070158532
 51
149.929841468
  0
ARC
  5
C7
330
5E
100
AcDbEntity
  8
410450038_SQUARE
  6
Continuous
 62
     7
100
AcDbCircle
 10
68.4554202624
 20
440.3008553908
 30
0.0
 40
0.3327749420253305
100
AcDbArc
 50
150.6200199773
 51
179.9720477943
  0
LINE
  5
C8
330
5E
100
AcDbEntity
  8
410450038_SQUARE
  6
Continuous
 62
     7
100
AcDbLine
 10
68.12264536
 20
440.3010177377
 30
0.0
 11
68.12264536
 21
380.9010177377
 31
0.0
  0
ARC
  5
C9
330
5E
100
AcDbEntity
  8
410450038_SQUARE
  6
Continuous
 62
     7
100
AcDbCircle
 10
68.4512823511
 20
380.9000942177
 30
0.0
 40
0.328638288776315
100
AcDbArc
 50
179.8389905686
 51
209.5689416598
  0
ARC
  5
CA
330
5E
100
AcDbEntity
  8
410450038_SQUARE
  6
Continuous
 62
     7
100
AcDbCircle
 10
68.3385275753
 20
380.8381329422
 30
0.0
 40
0.2000000000000047
100
AcDbArc
 50
210.070158532
 51
239.9298414681
  0
ARC
  5
CB
330
5E
100
AcDbEntity
  8
410450038_SQUARE
  6
Continuous
 62
     7
100
AcDbCircle
 10
68.4015747177
 20
380.9550256293
 30
0.0
 40
0.3327749420256496
100
AcDbArc
 50
240.6200199773
 51
269.9720477943
  0
LINE
  5
CC
330
5E
100
AcDbEntity
  8
410450038_SQUARE
  6
Continuous
 62
     7
100
AcDbLine
 10
68.4014123708
 20
380.6222507268
 30
0.0
 11
94.1014123708
 21
380.6222507268
 31
0.0
  0
LINE
  5
CF
330
5E
100
AcDbEntity
  8
DV1_Default
  6
CENTER2
 62
     7
100
AcDbLine
 10
85.0116565197
 20
410.6010177377
 30
0.0
 11
111.889288534
 21
410.6010177377
 31
0.0
  0
LINE
  5
D0
330
5E
100
AcDbEntity
  8
DV1_Default
  6
CENTER2
 62
     7
100
AcDbLine
 10
98.1014123708
 20
423.1671833548
 30
0.0
 11
98.1014123708
 21
398.0348521206
 31
0.0
  0
ENDBLK
  5
D2
330
5E
100
AcDbEntity
  8
0
100
AcDbBlockEnd
  0
BLOCK
  5
12C
330
D3
100
AcDbEntity
  8
0
100
AcDbBlockBegin
  2
SE1
 70
     0
 10
0.0
 20
0.0
 30
0.0
  3
SE1
  1

  0
LINE
  5
D6
330
D3
100
AcDbEntity
  8
410455038_SLEEVE
  6
Continuous
 62
     7
100
AcDbLine
 10
250.0438816742
 20
442.7652477513
 30
0.0
 11
297.3116850847
 21
442.3527478802
 31
0.0
  0
LINE
  5
D7
330
D3
100
AcDbEntity
  8
410455038_SLEEVE
  6
Continuous
 62
     7
100
AcDbLine
 10
297.5099397776
 20
379.8492495182
 30
0.0
 11
297.5099397776
 21
379.0492799798
 31
0.0
  0
LINE
  5
D8
330
D3
100
AcDbEntity
  8
410455038_SLEEVE
  6
Continuous
 62
     7
100
AcDbLine
 10
297.5099397776
 20
441.3527859571
 30
0.0
 11
297.5099397776
 21
379.8492495182
 31
0.0
  0
LINE
  5
D9
330
D3
100
AcDbEntity
  8
410455038_SLEEVE
  6
Continuous
 62
     7
100
AcDbLine
 10
297.5099397776
 20
442.1527554956
 30
0.0
 11
297.5099397776
 21
441.3527859571
 31
0.0
  0
LINE
  5
DA
330
D3
100
AcDbEntity
  8
410455038_SLEEVE
  6
Continuous
 62
     7
100
AcDbLine
 10
297.3116850847
 20
378.8492875952
 30
0.0
 11
250.0439239855
 21
378.4367880933
 31
0.0
  0
ARC
  5
DB
330
D3
100
AcDbEntity
  8
410455038_SLEEVE
  6
Continuous
 62
     7
100
AcDbCircle
 10
297.3099397776
 20
379.0492799798
 30
0.0
 40
0.1999999999999964
100
AcDbArc
 50
270.5
 51
0.0
  0
ARC
  5
DC
330
D3
100
AcDbEntity
  8
410455038_SLEEVE
  6
Continuous
 62
     7
100
AcDbCircle
 10
297.3099397776
 20
442.1527554956
 30
0.0
 40
0.2000000000000036
100
AcDbArc
 50
0.0
 51
89.5
  0
LINE
  5
DD
330
D3
100
AcDbEntity
  8
410526040_ESCUTC
  6
Continuous
 62
     7
100
AcDbLine
 10
230.0099397776
 20
495.6010177377
 30
0.0
 11
237.6451656758
 21
495.4677443739
 31
0.0
  0
LINE
  5
DE
330
D3
100
AcDbEntity
  8
410526040_ESCUTC
  6
Continuous
 62
     7
100
AcDbLine
 10
230.0099397776
 20
495.1010938901
 30
0.0
 11
230.0099397776
 21
495.6010177377
 31
0.0
  0
LINE
  5
DF
330
D3
100
AcDbEntity
  8
410526040_ESCUTC
  6
Continuous
 62
     7
100
AcDbLine
 10
230.0099397776
 20
326.1009415853
 30
0.0
 11
230.0099397776
 21
495.1010938901
 31
0.0
  0
LINE
  5
E0
330
D3
100
AcDbEntity
  8
410526040_ESCUTC
  6
Continuous
 62
     7
100
AcDbLine
 10
230.0099397776
 20
325.6010177377
 30
0.0
 11
230.0099397776
 21
326.1009415853
 31
0.0
  0
LINE
  5
E1
330
D3
100
AcDbEntity
  8
410526040_ESCUTC
  6
Continuous
 62
     7
100
AcDbLine
 10
237.6451656758
 20
325.7342911015
 30
0.0
 11
230.0099397776
 21
325.6010177377
 31
0.0
  0
LINE
  5
E2
330
D3
100
AcDbEntity
  8
410526040_ESCUTC
  6
Continuous
 62
     7
100
AcDbLine
 10
237.6517254565
 20
325.7344056029
 30
0.0
 11
237.6451656758
 21
325.7342911015
 31
0.0
  0
LINE
  5
E3
330
D3
100
AcDbEntity
  8
410526040_ESCUTC
  6
Continuous
 62
     7
100
AcDbLine
 10
238.1301842856
 20
494.8552304977
 30
0.0
 11
238.1301842856
 21
326.3468049776
 31
0.0
  0
LINE
  5
E4
330
D3
100
AcDbEntity
  8
410526040_ESCUTC
  6
Continuous
 62
     7
100
AcDbLine
 10
238.1301842856
 20
495.0801815521
 30
0.0
 11
250.07790922
 21
443.3288992464
 31
0.0
  0
LINE
  5
E5
330
D3
100
AcDbEntity
  8
410526040_ESCUTC
  6
Continuous
 62
     7
100
AcDbLine
 10
237.6451656758
 20
495.4677443739
 30
0.0
 11
237.6517254565
 21
495.4676298725
 31
0.0
  0
ARC
  5
E6
330
D3
100
AcDbEntity
  8
410526040_ESCUTC
  6
Continuous
 62
     7
100
AcDbCircle
 10
237.6429992532
 20
494.9677060249
 30
0.0
 40
0.500000000000006
100
AcDbArc
 50
13.0
 51
89.0
  0
ARC
  5
E7
330
D3
100
AcDbEntity
  8
410526040_ESCUTC
  6
Continuous
 62
     7
100
AcDbCircle
 10
237.6429992532
 20
326.2343294504
 30
0.0
 40
0.4999999999999997
100
AcDbArc
 50
271.0
 51
347.0
  0
LINE
  5
E8
330
D3
100
AcDbEntity
  8
410526040_ESCUTC
  6
Continuous
 62
     7
100
AcDbLine
 10
250.07790922
 20
377.873136229
 30
0.0
 11
238.1301842856
 21
326.1218539233
 31
0.0
  0
ELLIPSE
  5
E9
330
D3
100
AcDbEntity
  8
410526040_ESCUTC
  6
Continuous
 62
     7
100
AcDbEllipse
 10
249.5907241876
 20
443.1039481921
 30
0.0
 11
-0.4895629547552599
 21
0.1016273257116868
 31
0.0
210
0.0
220
0.0
230
0.9999999999999999
 40
0.6607939557
 41
3.145222365511485
 42
3.445979243780743
  0
LINE
  5
EA
330
D3
100
AcDbEntity
  8
410526040_ESCUTC
  6
Continuous
 62
     7
100
AcDbLine
 10
249.9891186946
 20
442.1010177377
 30
0.0
 11
250.0019336622
 21
442.1010177377
 31
0.0
  0
LINE
  5
EB
330
D3
100
AcDbEntity
  8
410526040_ESCUTC
  6
Continuous
 62
     7
100
AcDbLine
 10
249.9891186946
 20
379.1010177377
 30
0.0
 11
250.0019336622
 21
379.1010177377
 31
0.0
  0
ELLIPSE
  5
EC
330
D3
100
AcDbEntity
  8
410526040_ESCUTC
  6
Continuous
 62
     7
100
AcDbEllipse
 10
249.5907241876
 20
378.0980872833
 30
0.0
 11
-0.4895629547552599
 21
-0.1016273257116868
 31
0.0
210
0.0
220
0.0
230
0.9999999999999999
 40
0.6607939557
 41
2.837206063398812
 42
3.140677519653166
  0
ARC
  5
ED
330
D3
100
AcDbEntity
  8
410526040_ESCUTC
  6
Continuous
 62
     7
100
AcDbCircle
 10
254.7003259987
 20
442.1466271525
 30
0.0
 40
4.698613706830319
100
AcDbArc
 50
169.5069527029
 51
180.55617852
  0
ARC
  5
EE
330
D3
100
AcDbEntity
  8
410526040_ESCUTC
  6
Continuous
 62
     7
100
AcDbCircle
 10
249.5064244133
 20
443.1887279056
 30
0.0
 40
0.5902052217168523
100
AcDbArc
 50
341.8386696276
 51
20.7290060804
  0
LINE
  5
EF
330
D3
100
AcDbEntity
  8
410526040_ESCUTC
  6
Continuous
 62
     7
100
AcDbLine
 10
250.0019336622
 20
379.1010177377
 30
0.0
 11
250.0019336622
 21
442.1010177377
 31
0.0
  0
ARC
  5
F0
330
D3
100
AcDbEntity
  8
410526040_ESCUTC
  6
Continuous
 62
     7
100
AcDbCircle
 10
254.6330752929
 20
379.0495619803
 30
0.0
 40
4.631427479587168
100
AcDbArc
 50
179.363423394
 51
190.5734453831
  0
SPLINE
  5
F1
330
D3
100
AcDbEntity
  8
410526040_ESCUTC
  6
Continuous
 62
     7
100
AcDbSpline
210
0.0
220
0.0
230
1.0
 70
     8
 71
     3
 72
     8
 73
     4
 74
     0
 42
0.0000000291958502
 43
0.0000000001
 40
0.0
 40
0.0
 40
0.0
 40
0.0
 40
0.7136238316355169
 40
0.7136238316355169
 40
0.7136238316355169
 40
0.7136238316355169
 10
250.0663338084728
 20
377.885893209496
 30
0.0
 10
250.0955927529027
 20
377.9371779472959
 30
0.0
 10
250.1037209592322
 20
378.0156614163733
 30
0.0
 10
250.0907184274616
 20
378.1213436167282
 30
0.0
  0
LINE
  5
F2
330
D3
100
AcDbEntity
  8
410451038_THM_HA
  6
Continuous
 62
     7
100
AcDbLine
 10
348.7099397776
 20
441.5900653515
 30
0.0
 11
348.7099397776
 21
441.09008439
 31
0.0
  0
LINE
  5
F3
330
D3
100
AcDbEntity
  8
410451038_THM_HA
  6
Continuous
 62
     7
100
AcDbLine
 10
348.7099397776
 20
441.09008439
 30
0.0
 11
348.7099397776
 21
380.1119510853
 31
0.0
  0
LINE
  5
F4
330
D3
100
AcDbEntity
  8
410451038_THM_HA
  6
Continuous
 62
     7
100
AcDbLine
 10
348.7099397776
 20
380.1119510853
 30
0.0
 11
348.7099397776
 21
379.6119701238
 31
0.0
  0
LINE
  5
F5
330
D3
100
AcDbEntity
  8
410451038_THM_HA
  6
Continuous
 62
     7
100
AcDbLine
 10
348.2143030453
 20
379.1119891623
 30
0.0
 11
318.5116850847
 21
378.8527783423
 31
0.0
  0
ARC
  5
F6
330
D3
100
AcDbEntity
  8
410451038_THM_HA
  6
Continuous
 62
     7
100
AcDbCircle
 10
348.2099397776
 20
441.5900653515
 30
0.0
 40
0.4999999999999911
100
AcDbArc
 50
0.0
 51
89.5
  0
ARC
  5
F7
330
D3
100
AcDbEntity
  8
410451038_THM_HA
  6
Continuous
 62
     7
100
AcDbCircle
 10
348.2099397776
 20
379.6119701238
 30
0.0
 40
0.5000000000000004
100
AcDbArc
 50
270.5
 51
0.0
  0
LINE
  5
F8
330
D3
100
AcDbEntity
  8
410451038_THM_HA
  6
Continuous
 62
     7
100
AcDbLine
 10
318.3099397776
 20
379.8527402654
 30
0.0
 11
318.3099397776
 21
441.34929521
 31
0.0
  0
LINE
  5
F9
330
D3
100
AcDbEntity
  8
410451038_THM_HA
  6
Continuous
 62
     7
100
AcDbLine
 10
318.3099397776
 20
441.34929521
 30
0.0
 11
318.3099397776
 21
442.1492647484
 31
0.0
  0
LINE
  5
FA
330
D3
100
AcDbEntity
  8
410451038_THM_HA
  6
Continuous
 62
     7
100
AcDbLine
 10
318.3099397776
 20
379.0527707269
 30
0.0
 11
318.3099397776
 21
379.8527402654
 31
0.0
  0
LINE
  5
FB
330
D3
100
AcDbEntity
  8
410451038_THM_HA
  6
Continuous
 62
     7
100
AcDbLine
 10
318.5116850847
 20
442.3492571331
 30
0.0
 11
348.2143030453
 21
442.0900463131
 31
0.0
  0
ARC
  5
FC
330
D3
100
AcDbEntity
  8
410451038_THM_HA
  6
Continuous
 62
     7
100
AcDbCircle
 10
318.5099397776
 20
442.1492647484
 30
0.0
 40
0.2000000000000057
100
AcDbArc
 50
89.5
 51
180.0
  0
ARC
  5
FD
330
D3
100
AcDbEntity
  8
410451038_THM_HA
  6
Continuous
 62
     7
100
AcDbCircle
 10
318.5099397776
 20
379.0527707269
 30
0.0
 40
0.1999999999999964
100
AcDbArc
 50
180.0
 51
270.5
  0
LINE
  5
FE
330
D3
100
AcDbEntity
  8
410451038_THM_HA
  6
Continuous
 62
     7
100
AcDbLine
 10
318.3099397776
 20
439.8010177377
 30
0.0
 11
317.7099397776
 21
439.795781617
 31
0.0
  0
LINE
  5
FF
330
D3
100
AcDbEntity
  8
410451038_THM_HA
  6
Continuous
 62
     7
100
AcDbLine
 10
317.7099397776
 20
381.4062538584
 30
0.0
 11
318.3099397776
 21
381.4010177377
 31
0.0
  0
LINE
  5
100
330
D3
100
AcDbEntity
  8
410454038_HANDLE
  6
Continuous
 62
     7
100
AcDbLine
 10
298.7099397776
 20
378.9518942323
 30
0.0
 11
298.7099397776
 21
377.8563376285
 31
0.0
  0
LINE
  5
101
330
D3
100
AcDbEntity
  8
410454038_HANDLE
  6
Continuous
 62
     7
100
AcDbLine
 10
298.7099397776
 20
326.4562767054
 30
0.0
 11
298.7099397776
 21
377.8563376285
 31
0.0
  0
LINE
  5
102
330
D3
100
AcDbEntity
  8
410454038_HANDLE
  6
Continuous
 62
     7
100
AcDbLine
 10
317.7099397776
 20
378.0116758752
 30
0.0
 11
317.7099397776
 21
326.6116149521
 31
0.0
  0
LINE
  5
103
330
D3
100
AcDbEntity
  8
410454038_HANDLE
  6
Continuous
 62
     7
100
AcDbLine
 10
317.7099397776
 20
378.0116758752
 30
0.0
 11
317.7099397776
 21
379.1159593468
 31
0.0
  0
LINE
  5
104
330
D3
100
AcDbEntity
  8
410454038_HANDLE
  6
Continuous
 62
     7
100
AcDbLine
 10
317.1151756989
 20
326.0116377982
 30
0.0
 11
299.3151756989
 21
325.8562995515
 31
0.0
  0
SPLINE
  5
105
330
D3
100
AcDbEntity
  8
410454038_HANDLE
  6
Continuous
 62
     7
100
AcDbSpline
210
0.0
220
0.0
230
1.0
 70
    12
 71
     3
 72
    12
 73
     8
 74
     0
 42
0.0000000079452125
 43
0.0000000001
 40
0.1120244874062099
 40
0.1120244874062099
 40
0.1120244874062099
 40
0.1120244874062099
 40
0.5
 40
0.5
 40
0.75
 40
0.75
 40
1.0
 40
1.0
 40
1.0
 40
1.0
 10
317.5938011010513
 20
378.9900635459957
 30
0.0
 41
1.0
 10
317.5558628522127
 20
378.9329979668101
 30
0.0
 41
1.0
 10
317.4601027674015
 20
378.791322091803
 30
0.0
 41
1.0
 10
317.3024783946157
 20
378.5810929805407
 30
0.0
 41
1.0
 10
317.2406232907057
 20
378.4972802888677
 30
0.0
 41
1.0
 10
317.1474311788817
 20
378.3020952653837
 30
0.0
 41
1.0
 10
317.1161324482603
 20
378.1944266025803
 30
0.0
 41
1.0
 10
317.1151756988976
 20
378.0116758751549
 30
0.0
 41
1.0
  0
ARC
  5
106
330
D3
100
AcDbEntity
  8
410454038_HANDLE
  6
Continuous
 62
     7
100
AcDbCircle
 10
317.1099397776
 20
326.6116149521
 30
0.0
 40
0.5999999999999961
100
AcDbArc
 50
270.5
 51
0.0
  0
ARC
  5
107
330
D3
100
AcDbEntity
  8
410454038_HANDLE
  6
Continuous
 62
     7
100
AcDbCircle
 10
299.3099397776
 20
326.4562767054
 30
0.0
 40
0.5999999999999894
100
AcDbArc
 50
180.0
 51
270.5
  0
SPLINE
  5
108
330
D3
100
AcDbEntity
  8
410454038_HANDLE
  6
Continuous
 62
     7
100
AcDbSpline
210
0.0
220
0.0
230
1.0
 70
     8
 71
     3
 72
    20
 73
    16
 74
     0
 42
0.0000000076325187
 43
0.0000000001
 40
0.1593040520382731
 40
0.1593040520382731
 40
0.1593040520382731
 40
0.1593040520382731
 40
0.208123042815473
 40
0.2614665343110565
 40
0.3156527595740594
 40
0.3708292375251265
 40
0.4271357044488601
 40
0.4847036686590105
 40
0.5436561968209669
 40
0.6434128355277912
 40
0.7139804756695994
 40
0.7553838483892101
 40
0.8330018951331774
 40
0.9139759928527807
 40
1.0
 40
1.0
 40
1.0
 40
1.0
 10
298.8348897836576
 20
378.8172124962452
 30
0.0
 10
298.8397247284925
 20
378.8102548892037
 30
0.0
 10
298.8513514526225
 20
378.7935667585288
 30
0.0
 10
298.8736676509297
 20
378.7618285437221
 30
0.0
 10
298.9016100599709
 20
378.7225898831264
 30
0.0
 10
298.9346075185736
 20
378.6769358901389
 30
0.0
 10
298.9727171591561
 20
378.625236232861
 30
0.0
 10
299.0157251393975
 20
378.5677813130897
 30
0.0
 10
299.0752717098649
 20
378.4915442786767
 30
0.0
 10
299.1405870956314
 20
378.4033296552292
 30
0.0
 10
299.1987643381563
 20
378.314077840553
 30
0.0
 10
299.2484342483602
 20
378.2294150189394
 30
0.0
 10
299.2846615424231
 20
378.1293583029989
 30
0.0
 10
299.3113436422319
 20
377.9977145423261
 30
0.0
 10
299.3138728528049
 20
377.9044038174397
 30
0.0
 10
299.3151756988976
 20
377.8563376284795
 30
0.0
  0
LINE
  5
109
330
D3
100
AcDbEntity
  8
410454038_HANDLE
  6
Continuous
 62
     7
100
AcDbLine
 10
317.7099397776
 20
441.1861103978
 30
0.0
 11
317.7099397776
 21
380.0159250775
 31
0.0
  0
LINE
  5
10A
330
D3
100
AcDbEntity
  8
410454038_HANDLE
  6
Continuous
 62
     7
100
AcDbLine
 10
317.7099397776
 20
441.1861103978
 30
0.0
 11
317.7099397776
 21
442.0860761286
 31
0.0
  0
ARC
  5
10B
330
D3
100
AcDbEntity
  8
410454038_HANDLE
  6
Continuous
 62
     7
100
AcDbCircle
 10
317.6099397776
 20
442.0860761286
 30
0.0
 40
0.1000000000000017
100
AcDbArc
 50
0.0
 51
89.5
  0
LINE
  5
10C
330
D3
100
AcDbEntity
  8
410454038_HANDLE
  6
Continuous
 62
     7
100
AcDbLine
 10
298.7099397776
 20
442.2501412431
 30
0.0
 11
298.7099397776
 21
441.3501755123
 31
0.0
  0
ARC
  5
10D
330
D3
100
AcDbEntity
  8
410454038_HANDLE
  6
Continuous
 62
     7
100
AcDbCircle
 10
298.8099397776
 20
442.2501412431
 30
0.0
 40
0.1000000000000167
100
AcDbArc
 50
89.5
 51
180.0
  0
LINE
  5
10E
330
D3
100
AcDbEntity
  8
410454038_HANDLE
  6
Continuous
 62
     7
100
AcDbLine
 10
298.8108124311
 20
442.3501374354
 30
0.0
 11
317.6108124311
 21
442.1860723209
 31
0.0
  0
LINE
  5
10F
330
D3
100
AcDbEntity
  8
410454038_HANDLE
  6
Continuous
 62
     7
100
AcDbLine
 10
317.7099397776
 20
379.1159593468
 30
0.0
 11
317.7099397776
 21
380.0159250775
 31
0.0
  0
LINE
  5
110
330
D3
100
AcDbEntity
  8
410454038_HANDLE
  6
Continuous
 62
     7
100
AcDbLine
 10
298.7099397776
 20
379.8518599631
 30
0.0
 11
298.7099397776
 21
441.3501755123
 31
0.0
  0
LINE
  5
111
330
D3
100
AcDbEntity
  8
410454038_HANDLE
  6
Continuous
 62
     7
100
AcDbLine
 10
298.7099397776
 20
379.8518599631
 30
0.0
 11
298.7099397776
 21
378.9518942323
 31
0.0
  0
ARC
  5
112
330
D3
100
AcDbEntity
  8
410454038_HANDLE
  6
Continuous
 62
     7
100
AcDbCircle
 10
298.8099397776
 20
378.9518942323
 30
0.0
 40
0.1000000000000014
100
AcDbArc
 50
180.0
 51
270.5
  0
LINE
  5
113
330
D3
100
AcDbEntity
  8
410454038_HANDLE
  6
Continuous
 62
     7
100
AcDbLine
 10
317.6108124311
 20
379.0159631545
 30
0.0
 11
298.8108124311
 21
378.85189804
 31
0.0
  0
ARC
  5
114
330
D3
100
AcDbEntity
  8
410454038_HANDLE
  6
Continuous
 62
     7
100
AcDbCircle
 10
317.6099397776
 20
379.1159593468
 30
0.0
 40
0.099999999999989
100
AcDbArc
 50
270.5
 51
0.0
  0
LINE
  5
115
330
D3
100
AcDbEntity
  8
410452038_OVERID
  6
Continuous
 62
     7
100
AcDbLine
 10
323.8763787756
 20
451.9010177377
 30
0.0
 11
341.6400706932
 21
451.9010177377
 31
0.0
  0
LINE
  5
116
330
D3
100
AcDbEntity
  8
410452038_OVERID
  6
Continuous
 62
     7
100
AcDbLine
 10
342.1399945408
 20
451.4097439409
 30
0.0
 11
342.3017698234
 21
442.1416442088
 31
0.0
  0
ARC
  5
117
330
D3
100
AcDbEntity
  8
410452038_OVERID
  6
Continuous
 62
     7
100
AcDbCircle
 10
341.6400706932
 20
451.4010177377
 30
0.0
 40
0.5000000000000198
100
AcDbArc
 50
1.0
 51
90.0
  0
ARC
  5
118
330
D3
100
AcDbEntity
  8
410452038_OVERID
  6
Continuous
 62
     7
100
AcDbCircle
 10
323.8763787756
 20
451.4010177377
 30
0.0
 40
0.5000000000000004
100
AcDbArc
 50
90.0
 51
179.0
  0
LINE
  5
119
330
D3
100
AcDbEntity
  8
410452038_OVERID
  6
Continuous
 62
     7
100
AcDbLine
 10
323.2175867017
 20
442.3081893518
 30
0.0
 11
323.376454928
 21
451.4097439409
 31
0.0
  0
LINE
  5
11A
330
D3
100
AcDbEntity
  8
410450038_SQUARE
  6
Continuous
 62
     7
100
AcDbLine
 10
348.9099397776
 20
440.3010177377
 30
0.0
 11
348.9099397776
 21
380.9010177377
 31
0.0
  0
ARC
  5
11B
330
D3
100
AcDbEntity
  8
410450038_SQUARE
  6
Continuous
 62
     7
100
AcDbCircle
 10
348.6099397776
 20
380.9010177377
 30
0.0
 40
0.3000000000000064
100
AcDbArc
 50
308.031690524
 51
0.0
  0
ARC
  5
11C
330
D3
100
AcDbEntity
  8
410450038_SQUARE
  6
Continuous
 62
     7
100
AcDbCircle
 10
348.6099397776
 20
440.3010177377
 30
0.0
 40
0.2999999999999921
100
AcDbArc
 50
0.0
 51
51.968309476
  0
ARC
  5
11D
330
D3
100
AcDbEntity
  8
410450038_SQUARE
  6
Continuous
 62
     7
100
AcDbCircle
 10
348.6715495009
 20
440.3797847485
 30
0.0
 40
0.2000000000000013
100
AcDbArc
 50
51.968309476
 51
78.933313341
  0
ARC
  5
11E
330
D3
100
AcDbEntity
  8
410450038_SQUARE
  6
Continuous
 62
     7
100
AcDbCircle
 10
348.6715495009
 20
380.8222507268
 30
0.0
 40
0.200000000000004
100
AcDbArc
 50
281.0666866591
 51
308.031690524
  0
LINE
  5
120
330
D3
100
AcDbEntity
  8
410465031_SLEEVE
  6
Continuous
 62
     7
100
AcDbLine
 10
298.0099397776
 20
380.2510177377
 30
0.0
 11
298.0099397776
 21
379.2632362831
 31
0.0
  0
LINE
  5
121
330
D3
100
AcDbEntity
  8
410465031_SLEEVE
  6
Continuous
 62
     7
100
AcDbLine
 10
298.0099397776
 20
379.2632362831
 30
0.0
 11
298.7099397776
 21
379.2510177377
 31
0.0
  0
LINE
  5
122
330
D3
100
AcDbEntity
  8
410465031_SLEEVE
  6
Continuous
 62
     7
100
AcDbLine
 10
298.0099397776
 20
441.9387991922
 30
0.0
 11
298.7099397776
 21
441.9510177377
 31
0.0
  0
LINE
  5
123
330
D3
100
AcDbEntity
  8
410465031_SLEEVE
  6
Continuous
 62
     7
100
AcDbLine
 10
298.0099397776
 20
441.9387991922
 30
0.0
 11
298.0099397776
 21
440.9510177377
 31
0.0
  0
LINE
  5
124
330
D3
100
AcDbEntity
  8
410465031_SLEEVE
  6
Continuous
 62
     7
100
AcDbLine
 10
298.0099397776
 20
440.9510177377
 30
0.0
 11
298.0099397776
 21
380.2510177377
 31
0.0
  0
LINE
  5
125
330
D3
100
AcDbEntity
  8
410465031_SLEEVE
  6
Continuous
 62
     7
100
AcDbLine
 10
297.9601579431
 20
441.0008005221
 30
0.0
 11
297.5099397776
 21
440.9988360623
 31
0.0
  0
LINE
  5
126
330
D3
100
AcDbEntity
  8
410465031_SLEEVE
  6
Continuous
 62
     7
100
AcDbLine
 10
297.5099397776
 20
380.2031994131
 30
0.0
 11
297.9601579431
 21
380.2012349533
 31
0.0
  0
ARC
  5
127
330
D3
100
AcDbEntity
  8
410465031_SLEEVE
  6
Continuous
 62
     7
100
AcDbCircle
 10
297.9599397776
 20
441.0508000461
 30
0.0
 40
0.0499999999999945
100
AcDbArc
 50
270.2500000001
 51
0.0
  0
ARC
  5
128
330
D3
100
AcDbEntity
  8
410465031_SLEEVE
  6
Continuous
 62
     7
100
AcDbCircle
 10
297.9599397776
 20
380.1512354292
 30
0.0
 40
0.049999999999999
100
AcDbArc
 50
0.0
 51
89.7499999999
  0
LINE
  5
12A
330
D3
100
AcDbEntity
  8
DV2_Default
  6
CENTER2
 62
     7
100
AcDbLine
 10
217.1390597292
 20
410.6010177377
 30
0.0
 11
242.7626498625
 21
410.6010177377
 31
0.0
  0
LINE
  5
12B
330
D3
100
AcDbEntity
  8
DV2_Default
  6
CENTER2
 62
     7
100
AcDbLine
 10
230.0099397776
 20
498.6010938901
 30
0.0
 11
230.0099397776
 21
322.6009415853
 31
0.0
  0
ENDBLK
  5
12D
330
D3
100
AcDbEntity
  8
0
100
AcDbBlockEnd
  0
BLOCK
  5
1E6
330
12E
100
AcDbEntity
  8
0
100
AcDbBlockBegin
  2
SE2
 70
     0
 10
0.0
 20
0.0
 30
0.0
  3
SE2
  1

  0
LINE
  5
130
330
12E
100
AcDbEntity
  8
410455038_SLEEVE
  6
Continuous
 62
     7
100
AcDbLine
 10
130.2656423844
 20
263.3016921737
 30
0.0
 11
129.8531425133
 21
216.0338887632
 31
0.0
  0
LINE
  5
131
330
12E
100
AcDbEntity
  8
410455038_SLEEVE
  6
Continuous
 62
     7
100
AcDbLine
 10
67.3496441514
 20
215.8356340703
 30
0.0
 11
66.5496746129
 21
215.8356340703
 31
0.0
  0
LINE
  5
132
330
12E
100
AcDbEntity
  8
410455038_SLEEVE
  6
Continuous
 62
     7
100
AcDbLine
 10
129.6531501287
 20
215.8356340703
 30
0.0
 11
128.8531805902
 21
215.8356340703
 31
0.0
  0
LINE
  5
133
330
12E
100
AcDbEntity
  8
410455038_SLEEVE
  6
Continuous
 62
     7
100
AcDbLine
 10
128.8531805902
 20
215.8356340703
 30
0.0
 11
67.3496441514
 21
215.8356340703
 31
0.0
  0
LINE
  5
134
330
12E
100
AcDbEntity
  8
410455038_SLEEVE
  6
Continuous
 62
     7
100
AcDbLine
 10
66.3496822283
 20
216.0338887632
 30
0.0
 11
65.9371827264
 21
263.3016498624
 31
0.0
  0
ARC
  5
135
330
12E
100
AcDbEntity
  8
410455038_SLEEVE
  6
Continuous
 62
     7
100
AcDbCircle
 10
129.6531501287
 20
216.0356340703
 30
0.0
 40
0.199999999999978
100
AcDbArc
 50
270.0
 51
359.5
  0
ARC
  5
136
330
12E
100
AcDbEntity
  8
410455038_SLEEVE
  6
Continuous
 62
     7
100
AcDbCircle
 10
66.5496746129
 20
216.0356340703
 30
0.0
 40
0.1999999999999964
100
AcDbArc
 50
180.5
 51
270.0
  0
LINE
  5
137
330
12E
100
AcDbEntity
  8
410526040_ESCUTC
  6
Continuous
 62
     7
100
AcDbLine
 10
13.6013362184
 20
283.3356340703
 30
0.0
 11
182.6014885232
 21
283.3356340703
 31
0.0
  0
LINE
  5
138
330
12E
100
AcDbEntity
  8
410526040_ESCUTC
  6
Continuous
 62
     7
100
AcDbLine
 10
13.1014123708
 20
283.3356340703
 30
0.0
 11
13.6013362184
 21
283.3356340703
 31
0.0
  0
LINE
  5
139
330
12E
100
AcDbEntity
  8
410526040_ESCUTC
  6
Continuous
 62
     7
100
AcDbLine
 10
183.1014123708
 20
283.3356340703
 30
0.0
 11
182.968139007
 21
275.7004081721
 31
0.0
  0
LINE
  5
13A
330
12E
100
AcDbEntity
  8
410526040_ESCUTC
  6
Continuous
 62
     7
100
AcDbLine
 10
182.6014885232
 20
283.3356340703
 30
0.0
 11
183.1014123708
 21
283.3356340703
 31
0.0
  0
LINE
  5
13B
330
12E
100
AcDbEntity
  8
410526040_ESCUTC
  6
Continuous
 62
     7
100
AcDbLine
 10
182.968139007
 20
275.7004081721
 30
0.0
 11
182.9680245056
 21
275.6938483914
 31
0.0
  0
LINE
  5
13C
330
12E
100
AcDbEntity
  8
410526040_ESCUTC
  6
Continuous
 62
     7
100
AcDbLine
 10
13.2346857346
 20
275.7004081721
 30
0.0
 11
13.1014123708
 21
283.3356340703
 31
0.0
  0
LINE
  5
13D
330
12E
100
AcDbEntity
  8
410526040_ESCUTC
  6
Continuous
 62
     7
100
AcDbLine
 10
13.234800236
 20
275.6938483914
 30
0.0
 11
13.2346857346
 21
275.7004081721
 31
0.0
  0
LINE
  5
13E
330
12E
100
AcDbEntity
  8
410526040_ESCUTC
  6
Continuous
 62
     7
100
AcDbLine
 10
182.5805761852
 20
275.2153895622
 30
0.0
 11
130.8292938795
 21
263.2676646279
 31
0.0
  0
LINE
  5
13F
330
12E
100
AcDbEntity
  8
410526040_ESCUTC
  6
Continuous
 62
     7
100
AcDbLine
 10
182.3556251309
 20
275.2153895622
 30
0.0
 11
13.8471996107
 21
275.2153895622
 31
0.0
  0
ARC
  5
140
330
12E
100
AcDbEntity
  8
410526040_ESCUTC
  6
Continuous
 62
     7
100
AcDbCircle
 10
13.7347240836
 20
275.7025745946
 30
0.0
 40
0.5000000000000028
100
AcDbArc
 50
181.0
 51
257.0
  0
ARC
  5
141
330
12E
100
AcDbEntity
  8
410526040_ESCUTC
  6
Continuous
 62
     7
100
AcDbCircle
 10
182.468100658
 20
275.7025745946
 30
0.0
 40
0.5000000000000057
100
AcDbArc
 50
283.0
 51
359.0
  0
LINE
  5
142
330
12E
100
AcDbEntity
  8
410526040_ESCUTC
  6
Continuous
 62
     7
100
AcDbLine
 10
65.3735308621
 20
263.2676646279
 30
0.0
 11
13.6222485564
 21
275.2153895622
 31
0.0
  0
ELLIPSE
  5
143
330
12E
100
AcDbEntity
  8
410526040_ESCUTC
  6
Continuous
 62
     7
100
AcDbEllipse
 10
65.5984819164
 20
263.7548496603
 30
0.0
 11
-0.1016273257116868
 21
0.489562954755246
 31
0.0
210
0.0
220
0.0
230
1.0
 40
0.6607939557
 41
2.837206063398913
 42
3.141621396971845
  0
LINE
  5
144
330
12E
100
AcDbEntity
  8
410526040_ESCUTC
  6
Continuous
 62
     7
100
AcDbLine
 10
66.6014123708
 20
263.3436401857
 30
0.0
 11
66.6014123708
 21
263.3564551533
 31
0.0
  0
LINE
  5
145
330
12E
100
AcDbEntity
  8
410526040_ESCUTC
  6
Continuous
 62
     7
100
AcDbLine
 10
129.6014123708
 20
263.3436401857
 30
0.0
 11
129.6014123708
 21
263.3564551533
 31
0.0
  0
ELLIPSE
  5
146
330
12E
100
AcDbEntity
  8
410526040_ESCUTC
  6
Continuous
 62
     7
100
AcDbEllipse
 10
130.6043428252
 20
263.7548496603
 30
0.0
 11
0.1016273257116798
 21
0.4895629547552599
 31
0.0
210
0.0
220
0.0
230
0.9999999999999999
 40
0.6607939557
 41
3.145222365507906
 42
3.445979243780385
  0
SPLINE
  5
147
330
12E
100
AcDbEntity
  8
410526040_ESCUTC
  6
Continuous
 62
     7
100
AcDbSpline
210
0.0
220
0.0
230
1.0
 70
     8
 71
     3
 72
     8
 73
     4
 74
     0
 42
0.0000000273451648
 43
0.0000000001
 40
0.0
 40
0.0
 40
0.0
 40
0.0
 40
0.8513706961514153
 40
0.8513706961514153
 40
0.8513706961514153
 40
0.8513706961514153
 10
65.38628784261815
 20
263.2792400394123
 30
0.0
 10
65.44747178994045
 20
263.244333402633
 30
0.0
 10
65.54736789261986
 20
263.2395023016501
 30
0.0
 10
65.68597615065643
 20
263.2647467364635
 30
0.0
  0
ARC
  5
148
330
12E
100
AcDbEntity
  8
410526040_ESCUTC
  6
Continuous
 62
     7
100
AcDbCircle
 10
66.5499566134
 20
258.712498555
 30
0.0
 40
4.631427479576429
100
AcDbArc
 50
89.363423394
 51
100.5734453831
  0
LINE
  5
149
330
12E
100
AcDbEntity
  8
410526040_ESCUTC
  6
Continuous
 62
     7
100
AcDbLine
 10
66.6014123708
 20
263.3436401857
 30
0.0
 11
129.6014123708
 21
263.3436401857
 31
0.0
  0
ARC
  5
14A
330
12E
100
AcDbEntity
  8
410526040_ESCUTC
  6
Continuous
 62
     7
100
AcDbCircle
 10
129.6470217856
 20
258.6452478492
 30
0.0
 40
4.698613706828062
100
AcDbArc
 50
79.5069527029
 51
90.55617852
  0
ARC
  5
14B
330
12E
100
AcDbEntity
  8
410526040_ESCUTC
  6
Continuous
 62
     7
100
AcDbCircle
 10
130.6891225387
 20
263.8391494346
 30
0.0
 40
0.5902052217169871
100
AcDbArc
 50
251.8386696276
 51
290.7290060804
  0
LINE
  5
14C
330
12E
100
AcDbEntity
  8
410451038_THM_HA
  6
Continuous
 62
     7
100
AcDbLine
 10
67.6123457185
 20
164.6356340703
 30
0.0
 11
67.1123647569
 21
164.6356340703
 31
0.0
  0
LINE
  5
14D
330
12E
100
AcDbEntity
  8
410451038_THM_HA
  6
Continuous
 62
     7
100
AcDbLine
 10
128.5904790231
 20
164.6356340703
 30
0.0
 11
67.6123457185
 21
164.6356340703
 31
0.0
  0
LINE
  5
14E
330
12E
100
AcDbEntity
  8
410451038_THM_HA
  6
Continuous
 62
     7
100
AcDbLine
 10
129.0904599847
 20
164.6356340703
 30
0.0
 11
128.5904790231
 21
164.6356340703
 31
0.0
  0
LINE
  5
14F
330
12E
100
AcDbEntity
  8
410451038_THM_HA
  6
Continuous
 62
     7
100
AcDbLine
 10
66.6123837954
 20
165.1312708025
 30
0.0
 11
66.3531729754
 21
194.8338887632
 31
0.0
  0
ARC
  5
150
330
12E
100
AcDbEntity
  8
410451038_THM_HA
  6
Continuous
 62
     7
100
AcDbCircle
 10
67.1123647569
 20
165.1356340703
 30
0.0
 40
0.5000000000000004
100
AcDbArc
 50
180.5
 51
270.0
  0
ARC
  5
151
330
12E
100
AcDbEntity
  8
410451038_THM_HA
  6
Continuous
 62
     7
100
AcDbCircle
 10
129.0904599847
 20
165.1356340703
 30
0.0
 40
0.5000000000000016
100
AcDbArc
 50
270.0
 51
359.5
  0
LINE
  5
152
330
12E
100
AcDbEntity
  8
410451038_THM_HA
  6
Continuous
 62
     7
100
AcDbLine
 10
66.55316536
 20
195.0356340703
 30
0.0
 11
67.3531348985
 21
195.0356340703
 31
0.0
  0
LINE
  5
153
330
12E
100
AcDbEntity
  8
410451038_THM_HA
  6
Continuous
 62
     7
100
AcDbLine
 10
67.3531348985
 20
195.0356340703
 30
0.0
 11
128.8496898431
 21
195.0356340703
 31
0.0
  0
LINE
  5
154
330
12E
100
AcDbEntity
  8
410451038_THM_HA
  6
Continuous
 62
     7
100
AcDbLine
 10
128.8496898431
 20
195.0356340703
 30
0.0
 11
129.6496593816
 21
195.0356340703
 31
0.0
  0
LINE
  5
155
330
12E
100
AcDbEntity
  8
410451038_THM_HA
  6
Continuous
 62
     7
100
AcDbLine
 10
129.8496517662
 20
194.8338887632
 30
0.0
 11
129.5904409462
 21
165.1312708025
 31
0.0
  0
ARC
  5
156
330
12E
100
AcDbEntity
  8
410451038_THM_HA
  6
Continuous
 62
     7
100
AcDbCircle
 10
66.55316536
 20
194.8356340703
 30
0.0
 40
0.2000000000000057
100
AcDbArc
 50
90.0
 51
180.5
  0
ARC
  5
157
330
12E
100
AcDbEntity
  8
410451038_THM_HA
  6
Continuous
 62
     7
100
AcDbCircle
 10
129.6496593816
 20
194.8356340703
 30
0.0
 40
0.2000000000000057
100
AcDbArc
 50
359.5
 51
90.0
  0
ARC
  5
158
330
12E
100
AcDbEntity
  8
410451038_THM_HA
  6
Continuous
 62
     7
100
AcDbCircle
 10
100.9014123708
 20
189.9356340703
 30
0.0
 40
0.5
100
AcDbArc
 50
0.0
 51
90.0
  0
LINE
  5
159
330
12E
100
AcDbEntity
  8
410451038_THM_HA
  6
Continuous
 62
     7
100
AcDbLine
 10
100.9014123708
 20
190.4356340703
 30
0.0
 11
95.3014123708
 21
190.4356340703
 31
0.0
  0
LINE
  5
15A
330
12E
100
AcDbEntity
  8
410451038_THM_HA
  6
Continuous
 62
     7
100
AcDbLine
 10
101.4014123708
 20
171.3356340703
 30
0.0
 11
101.4014123708
 21
189.9356340703
 31
0.0
  0
ARC
  5
15B
330
12E
100
AcDbEntity
  8
410451038_THM_HA
  6
Continuous
 62
     7
100
AcDbCircle
 10
95.3014123708
 20
189.9356340703
 30
0.0
 40
0.5000000000000004
100
AcDbArc
 50
90.0
 51
180.0
  0
ARC
  5
15C
330
12E
100
AcDbEntity
  8
410451038_THM_HA
  6
Continuous
 62
     7
100
AcDbCircle
 10
100.9014123708
 20
171.3356340703
 30
0.0
 40
0.5000000000000004
100
AcDbArc
 50
270.0
 51
0.0
  0
LINE
  5
15D
330
12E
100
AcDbEntity
  8
410451038_THM_HA
  6
Continuous
 62
     7
100
AcDbLine
 10
94.8014123708
 20
189.9356340703
 30
0.0
 11
94.8014123708
 21
171.3356340703
 31
0.0
  0
LINE
  5
15E
330
12E
100
AcDbEntity
  8
410451038_THM_HA
  6
Continuous
 62
     7
100
AcDbLine
 10
95.3014123708
 20
170.8356340703
 30
0.0
 11
100.9014123708
 21
170.8356340703
 31
0.0
  0
ARC
  5
15F
330
12E
100
AcDbEntity
  8
410451038_THM_HA
  6
Continuous
 62
     7
100
AcDbCircle
 10
95.3014123708
 20
171.3356340703
 30
0.0
 40
0.5
100
AcDbArc
 50
180.0
 51
270.0
  0
LINE
  5
160
330
12E
100
AcDbEntity
  8
410451038_THM_HA
  6
Continuous
 62
     7
100
AcDbLine
 10
127.3014123708
 20
195.0356340703
 30
0.0
 11
127.2961762501
 21
195.6356340703
 31
0.0
  0
LINE
  5
161
330
12E
100
AcDbEntity
  8
410451038_THM_HA
  6
Continuous
 62
     7
100
AcDbLine
 10
68.9066484915
 20
195.6356340703
 30
0.0
 11
68.9014123708
 21
195.0356340703
 31
0.0
  0
LINE
  5
162
330
12E
100
AcDbEntity
  8
410454038_HANDLE
  6
Continuous
 62
     7
100
AcDbLine
 10
66.6163539799
 20
195.6356340703
 30
0.0
 11
67.5163197106
 21
195.6356340703
 31
0.0
  0
LINE
  5
163
330
12E
100
AcDbEntity
  8
410454038_HANDLE
  6
Continuous
 62
     7
100
AcDbLine
 10
67.3522545962
 20
214.6356340703
 30
0.0
 11
128.8505701454
 21
214.6356340703
 31
0.0
  0
LINE
  5
164
330
12E
100
AcDbEntity
  8
410454038_HANDLE
  6
Continuous
 62
     7
100
AcDbLine
 10
67.3522545962
 20
214.6356340703
 30
0.0
 11
66.4522888654
 21
214.6356340703
 31
0.0
  0
ARC
  5
165
330
12E
100
AcDbEntity
  8
410454038_HANDLE
  6
Continuous
 62
     7
100
AcDbCircle
 10
66.4522888654
 20
214.5356340703
 30
0.0
 40
0.1000000000000014
100
AcDbArc
 50
90.0
 51
180.5
  0
ARC
  5
166
330
12E
100
AcDbEntity
  8
410454038_HANDLE
  6
Continuous
 62
     7
100
AcDbCircle
 10
66.6163539799
 20
195.7356340703
 30
0.0
 40
0.099999999999989
100
AcDbArc
 50
180.5
 51
270.0
  0
LINE
  5
167
330
12E
100
AcDbEntity
  8
410454038_HANDLE
  6
Continuous
 62
     7
100
AcDbLine
 10
66.5163577876
 20
195.7347614167
 30
0.0
 11
66.3522926731
 21
214.5347614167
 31
0.0
  0
LINE
  5
168
330
12E
100
AcDbEntity
  8
410454038_HANDLE
  6
Continuous
 62
     7
100
AcDbLine
 10
128.686505031
 20
195.6356340703
 30
0.0
 11
67.5163197106
 21
195.6356340703
 31
0.0
  0
LINE
  5
169
330
12E
100
AcDbEntity
  8
410454038_HANDLE
  6
Continuous
 62
     7
100
AcDbLine
 10
128.686505031
 20
195.6356340703
 30
0.0
 11
129.5864707617
 21
195.6356340703
 31
0.0
  0
ARC
  5
16A
330
12E
100
AcDbEntity
  8
410454038_HANDLE
  6
Continuous
 62
     7
100
AcDbCircle
 10
129.5864707617
 20
195.7356340703
 30
0.0
 40
0.1000000000000017
100
AcDbArc
 50
270.0
 51
359.5
  0
LINE
  5
16B
330
12E
100
AcDbEntity
  8
410454038_HANDLE
  6
Continuous
 62
     7
100
AcDbLine
 10
129.7505358762
 20
214.6356340703
 30
0.0
 11
128.8505701454
 21
214.6356340703
 31
0.0
  0
ARC
  5
16C
330
12E
100
AcDbEntity
  8
410454038_HANDLE
  6
Continuous
 62
     7
100
AcDbCircle
 10
129.7505358762
 20
214.5356340703
 30
0.0
 40
0.1000000000000167
100
AcDbArc
 50
359.5
 51
90.0
  0
LINE
  5
16D
330
12E
100
AcDbEntity
  8
410454038_HANDLE
  6
Continuous
 62
     7
100
AcDbLine
 10
129.8505320685
 20
214.5347614167
 30
0.0
 11
129.686466954
 21
195.7347614167
 31
0.0
  0
LINE
  5
16F
330
12E
100
AcDbEntity
  8
410453031_OVERID
  6
Continuous
 62
     7
100
AcDbLine
 10
98.9014123708
 20
170.9899975042
 30
0.0
 11
97.3014123708
 21
170.9899975042
 31
0.0
  0
LINE
  5
170
330
12E
100
AcDbEntity
  8
410453031_OVERID
  6
Continuous
 62
     7
100
AcDbLine
 10
97.3014123708
 20
170.9899975042
 30
0.0
 11
97.3014123708
 21
171.0082456836
 31
0.0
  0
LINE
  5
171
330
12E
100
AcDbEntity
  8
410453031_OVERID
  6
Continuous
 62
     7
100
AcDbLine
 10
97.3014123708
 20
170.9899975042
 30
0.0
 11
97.1551930126
 21
171.0082456836
 31
0.0
  0
LINE
  5
172
330
12E
100
AcDbEntity
  8
410453031_OVERID
  6
Continuous
 62
     7
100
AcDbLine
 10
98.9014123708
 20
170.9899975042
 30
0.0
 11
98.9014123708
 21
171.0082456836
 31
0.0
  0
LINE
  5
173
330
12E
100
AcDbEntity
  8
410453031_OVERID
  6
Continuous
 62
     7
100
AcDbLine
 10
95.0057758047
 20
173.8356340703
 30
0.0
 11
95.0057758047
 21
175.3356340703
 31
0.0
  0
LINE
  5
174
330
12E
100
AcDbEntity
  8
410453031_OVERID
  6
Continuous
 62
     7
100
AcDbLine
 10
95.0057758047
 20
173.8356340703
 30
0.0
 11
95.0223089409
 21
173.8356340703
 31
0.0
  0
LINE
  5
175
330
12E
100
AcDbEntity
  8
410453031_OVERID
  6
Continuous
 62
     7
100
AcDbLine
 10
95.0057758047
 20
175.3356340703
 30
0.0
 11
95.0223089409
 21
175.3356340703
 31
0.0
  0
LINE
  5
176
330
12E
100
AcDbEntity
  8
410453031_OVERID
  6
Continuous
 62
     7
100
AcDbLine
 10
95.0057758047
 20
175.3356340703
 30
0.0
 11
95.0223089409
 21
175.4349211194
 31
0.0
  0
LINE
  5
177
330
12E
100
AcDbEntity
  8
410453031_OVERID
  6
Continuous
 62
     7
100
AcDbLine
 10
101.1970489369
 20
173.8356340703
 30
0.0
 11
101.1970489369
 21
175.3356340703
 31
0.0
  0
LINE
  5
178
330
12E
100
AcDbEntity
  8
410453031_OVERID
  6
Continuous
 62
     7
100
AcDbLine
 10
101.1970489369
 20
175.3356340703
 30
0.0
 11
101.1805158007
 21
175.4349211194
 31
0.0
  0
LINE
  5
179
330
12E
100
AcDbEntity
  8
410453031_OVERID
  6
Continuous
 62
     7
100
AcDbLine
 10
101.1970489369
 20
173.8356340703
 30
0.0
 11
101.1805158007
 21
173.8356340703
 31
0.0
  0
LINE
  5
17A
330
12E
100
AcDbEntity
  8
410453031_OVERID
  6
Continuous
 62
     7
100
AcDbLine
 10
101.1970489369
 20
175.3356340703
 30
0.0
 11
101.1805158007
 21
175.3356340703
 31
0.0
  0
LINE
  5
17B
330
12E
100
AcDbEntity
  8
410453031_OVERID
  6
Continuous
 62
     7
100
AcDbLine
 10
95.0057758047
 20
185.8356340703
 30
0.0
 11
95.0057758047
 21
187.3356340703
 31
0.0
  0
LINE
  5
17C
330
12E
100
AcDbEntity
  8
410453031_OVERID
  6
Continuous
 62
     7
100
AcDbLine
 10
95.0057758047
 20
187.3356340703
 30
0.0
 11
95.0223089409
 21
187.4349211194
 31
0.0
  0
LINE
  5
17D
330
12E
100
AcDbEntity
  8
410453031_OVERID
  6
Continuous
 62
     7
100
AcDbLine
 10
95.0057758047
 20
185.8356340703
 30
0.0
 11
95.0223089409
 21
185.8356340703
 31
0.0
  0
LINE
  5
17E
330
12E
100
AcDbEntity
  8
410453031_OVERID
  6
Continuous
 62
     7
100
AcDbLine
 10
95.0057758047
 20
187.3356340703
 30
0.0
 11
95.0223089409
 21
187.3356340703
 31
0.0
  0
LINE
  5
17F
330
12E
100
AcDbEntity
  8
410453031_OVERID
  6
Continuous
 62
     7
100
AcDbLine
 10
101.1970489369
 20
185.8356340703
 30
0.0
 11
101.1970489369
 21
187.3356340703
 31
0.0
  0
LINE
  5
180
330
12E
100
AcDbEntity
  8
410453031_OVERID
  6
Continuous
 62
     7
100
AcDbLine
 10
101.1970489369
 20
187.3356340703
 30
0.0
 11
101.1805158007
 21
187.4349211194
 31
0.0
  0
LINE
  5
181
330
12E
100
AcDbEntity
  8
410453031_OVERID
  6
Continuous
 62
     7
100
AcDbLine
 10
101.1970489369
 20
187.3356340703
 30
0.0
 11
101.1805158007
 21
187.3356340703
 31
0.0
  0
LINE
  5
182
330
12E
100
AcDbEntity
  8
410453031_OVERID
  6
Continuous
 62
     7
100
AcDbLine
 10
101.1970489369
 20
185.8356340703
 30
0.0
 11
101.1805158007
 21
185.8356340703
 31
0.0
  0
LINE
  5
183
330
12E
100
AcDbEntity
  8
410453031_OVERID
  6
Continuous
 62
     7
100
AcDbLine
 10
95.0057758047
 20
181.3356340703
 30
0.0
 11
95.0057758047
 21
179.8356340703
 31
0.0
  0
LINE
  5
184
330
12E
100
AcDbEntity
  8
410453031_OVERID
  6
Continuous
 62
     7
100
AcDbLine
 10
95.0223089409
 20
179.8356340703
 30
0.0
 11
95.0057758047
 21
179.8356340703
 31
0.0
  0
LINE
  5
185
330
12E
100
AcDbEntity
  8
410453031_OVERID
  6
Continuous
 62
     7
100
AcDbLine
 10
101.1970489369
 20
179.8356340703
 30
0.0
 11
101.1805158007
 21
179.8356340703
 31
0.0
  0
LINE
  5
186
330
12E
100
AcDbEntity
  8
410453031_OVERID
  6
Continuous
 62
     7
100
AcDbLine
 10
101.1970489369
 20
179.8356340703
 30
0.0
 11
101.1970489369
 21
181.3356340703
 31
0.0
  0
LINE
  5
187
330
12E
100
AcDbEntity
  8
410453031_OVERID
  6
Continuous
 62
     7
100
AcDbLine
 10
95.0223089409
 20
181.3356340703
 30
0.0
 11
95.0057758047
 21
181.3356340703
 31
0.0
  0
LINE
  5
188
330
12E
100
AcDbEntity
  8
410453031_OVERID
  6
Continuous
 62
     7
100
AcDbLine
 10
95.0057758047
 20
179.8356340703
 30
0.0
 11
95.0223089409
 21
179.7363470212
 31
0.0
  0
LINE
  5
189
330
12E
100
AcDbEntity
  8
410453031_OVERID
  6
Continuous
 62
     7
100
AcDbLine
 10
101.1970489369
 20
181.3356340703
 30
0.0
 11
101.1805158007
 21
181.3356340703
 31
0.0
  0
LINE
  5
18A
330
12E
100
AcDbEntity
  8
410453031_OVERID
  6
Continuous
 62
     7
100
AcDbLine
 10
101.1970489369
 20
181.3356340703
 30
0.0
 11
101.1805158007
 21
181.4349211194
 31
0.0
  0
LINE
  5
18B
330
12E
100
AcDbEntity
  8
410453031_OVERID
  6
Continuous
 62
     7
100
AcDbLine
 10
97.3014123708
 20
190.1812706364
 30
0.0
 11
97.3014123708
 21
190.1664525434
 31
0.0
  0
LINE
  5
18C
330
12E
100
AcDbEntity
  8
410453031_OVERID
  6
Continuous
 62
     7
100
AcDbLine
 10
97.3014123708
 20
190.1812706364
 30
0.0
 11
97.1826776741
 21
190.1664525434
 31
0.0
  0
LINE
  5
18D
330
12E
100
AcDbEntity
  8
410453031_OVERID
  6
Continuous
 62
     7
100
AcDbLine
 10
98.9014123708
 20
190.1812706364
 30
0.0
 11
98.9014123708
 21
190.1664525434
 31
0.0
  0
LINE
  5
18E
330
12E
100
AcDbEntity
  8
410453031_OVERID
  6
Continuous
 62
     7
100
AcDbLine
 10
98.9014123708
 20
190.1812706364
 30
0.0
 11
97.3014123708
 21
190.1812706364
 31
0.0
  0
LINE
  5
18F
330
12E
100
AcDbEntity
  8
410453031_OVERID
  6
Continuous
 62
     7
100
AcDbLine
 10
101.1805158007
 20
189.1496207488
 30
0.0
 11
101.2009779313
 21
189.1598516193
 31
0.0
  0
LINE
  5
190
330
12E
100
AcDbEntity
  8
410453031_OVERID
  6
Continuous
 62
     7
100
AcDbLine
 10
99.0201470675
 20
190.1664525434
 30
0.0
 11
98.9014123708
 21
190.1812706364
 31
0.0
  0
LINE
  5
191
330
12E
100
AcDbEntity
  8
410453031_OVERID
  6
Continuous
 62
     7
100
AcDbLine
 10
99.3432524114
 20
190.1664525434
 30
0.0
 11
99.3245034202
 21
190.1852015347
 31
0.0
  0
LINE
  5
192
330
12E
100
AcDbEntity
  8
410453031_OVERID
  6
Continuous
 62
     7
100
AcDbLine
 10
101.1805158007
 20
185.7363470212
 30
0.0
 11
101.1970489369
 21
185.8356340703
 31
0.0
  0
LINE
  5
193
330
12E
100
AcDbEntity
  8
410453031_OVERID
  6
Continuous
 62
     7
100
AcDbLine
 10
101.1805158007
 20
184.2496207488
 30
0.0
 11
101.2009779313
 21
184.2598516193
 31
0.0
  0
LINE
  5
194
330
12E
100
AcDbEntity
  8
410453031_OVERID
  6
Continuous
 62
     7
100
AcDbLine
 10
101.1805158007
 20
173.3496207488
 30
0.0
 11
101.2009779313
 21
173.3598516193
 31
0.0
  0
LINE
  5
195
330
12E
100
AcDbEntity
  8
410453031_OVERID
  6
Continuous
 62
     7
100
AcDbLine
 10
101.1805158007
 20
173.7363470212
 30
0.0
 11
101.1970489369
 21
173.8356340703
 31
0.0
  0
LINE
  5
196
330
12E
100
AcDbEntity
  8
410453031_OVERID
  6
Continuous
 62
     7
100
AcDbLine
 10
99.047631729
 20
171.0082456836
 30
0.0
 11
98.9014123708
 21
170.9899975042
 31
0.0
  0
LINE
  5
197
330
12E
100
AcDbEntity
  8
410453031_OVERID
  6
Continuous
 62
     7
100
AcDbLine
 10
100.3738064155
 20
171.0082456836
 30
0.0
 11
100.3738064155
 21
170.860200115
 31
0.0
  0
LINE
  5
198
330
12E
100
AcDbEntity
  8
410453031_OVERID
  6
Continuous
 62
     7
100
AcDbLine
 10
101.1805158007
 20
178.2496207488
 30
0.0
 11
101.2009779313
 21
178.2598516193
 31
0.0
  0
LINE
  5
199
330
12E
100
AcDbEntity
  8
410453031_OVERID
  6
Continuous
 62
     7
100
AcDbLine
 10
101.1805158007
 20
179.7363470212
 30
0.0
 11
101.1970489369
 21
179.8356340703
 31
0.0
  0
LINE
  5
19A
330
12E
100
AcDbEntity
  8
410453031_OVERID
  6
Continuous
 62
     7
100
AcDbLine
 10
95.0223089409
 20
173.7363470212
 30
0.0
 11
95.0057758047
 21
173.8356340703
 31
0.0
  0
LINE
  5
19B
330
12E
100
AcDbEntity
  8
410453031_OVERID
  6
Continuous
 62
     7
100
AcDbLine
 10
95.0223089409
 20
172.0216473918
 30
0.0
 11
95.0018468103
 21
172.0114165213
 31
0.0
  0
LINE
  5
19C
330
12E
100
AcDbEntity
  8
410453031_OVERID
  6
Continuous
 62
     7
100
AcDbLine
 10
96.8561422437
 20
171.0082456836
 30
0.0
 11
96.8783213214
 21
170.9860666059
 31
0.0
  0
LINE
  5
19D
330
12E
100
AcDbEntity
  8
410453031_OVERID
  6
Continuous
 62
     7
100
AcDbLine
 10
95.0223089409
 20
176.9216473918
 30
0.0
 11
95.0018468103
 21
176.9114165213
 31
0.0
  0
LINE
  5
19E
330
12E
100
AcDbEntity
  8
410453031_OVERID
  6
Continuous
 62
     7
100
AcDbLine
 10
95.0223089409
 20
187.8216473918
 30
0.0
 11
95.0018468103
 21
187.8114165213
 31
0.0
  0
LINE
  5
19F
330
12E
100
AcDbEntity
  8
410453031_OVERID
  6
Continuous
 62
     7
100
AcDbLine
 10
95.8290183261
 20
190.1664525434
 30
0.0
 11
95.8290183261
 21
190.3110680256
 31
0.0
  0
LINE
  5
1A0
330
12E
100
AcDbEntity
  8
410453031_OVERID
  6
Continuous
 62
     7
100
AcDbLine
 10
95.0223089409
 20
185.7363470212
 30
0.0
 11
95.0057758047
 21
185.8356340703
 31
0.0
  0
LINE
  5
1A1
330
12E
100
AcDbEntity
  8
410453031_OVERID
  6
Continuous
 62
     7
100
AcDbLine
 10
95.0223089409
 20
182.9216473918
 30
0.0
 11
95.0018468103
 21
182.9114165213
 31
0.0
  0
LINE
  5
1A2
330
12E
100
AcDbEntity
  8
410453031_OVERID
  6
Continuous
 62
     7
100
AcDbLine
 10
95.0223089409
 20
181.4349211194
 30
0.0
 11
95.0057758047
 21
181.3356340703
 31
0.0
  0
LINE
  5
1A3
330
12E
100
AcDbEntity
  8
410453031_OVERID
  6
Continuous
 62
     7
100
AcDbLine
 10
100.4713773644
 20
170.9713822435
 30
0.0
 11
100.4713773644
 21
170.8364141415
 31
0.0
  0
LINE
  5
1A4
330
12E
100
AcDbEntity
  8
410453031_OVERID
  6
Continuous
 62
     7
100
AcDbLine
 10
95.7314473772
 20
190.1998858971
 30
0.0
 11
95.7314473772
 21
190.3348539991
 31
0.0
  0
LINE
  5
1A5
330
12E
100
AcDbEntity
  8
410453031_OVERID
  6
Continuous
 62
     7
100
AcDbLine
 10
100.4213792682
 20
190.1664525434
 30
0.0
 11
100.4213792682
 21
190.3348539991
 31
0.0
  0
LINE
  5
1A6
330
12E
100
AcDbEntity
  8
410453031_OVERID
  6
Continuous
 62
     7
100
AcDbLine
 10
101.2009779313
 20
187.8114165213
 30
0.0
 11
101.1805158007
 21
187.8216473918
 31
0.0
  0
LINE
  5
1A7
330
12E
100
AcDbEntity
  8
410453031_OVERID
  6
Continuous
 62
     7
100
AcDbLine
 10
96.8783213214
 20
190.1852015347
 30
0.0
 11
96.8595723301
 21
190.1664525434
 31
0.0
  0
LINE
  5
1A8
330
12E
100
AcDbEntity
  8
410453031_OVERID
  6
Continuous
 62
     7
100
AcDbLine
 10
101.2009779313
 20
182.9114165213
 30
0.0
 11
101.1805158007
 21
182.9216473918
 31
0.0
  0
LINE
  5
1A9
330
12E
100
AcDbEntity
  8
410453031_OVERID
  6
Continuous
 62
     7
100
AcDbLine
 10
95.0018468103
 20
189.1598516193
 30
0.0
 11
95.0223089409
 21
189.1496207488
 31
0.0
  0
LINE
  5
1AA
330
12E
100
AcDbEntity
  8
410453031_OVERID
  6
Continuous
 62
     7
100
AcDbLine
 10
101.2009779313
 20
176.9114165213
 30
0.0
 11
101.1805158007
 21
176.9216473918
 31
0.0
  0
LINE
  5
1AB
330
12E
100
AcDbEntity
  8
410453031_OVERID
  6
Continuous
 62
     7
100
AcDbLine
 10
95.0018468103
 20
184.2598516193
 30
0.0
 11
95.0223089409
 21
184.2496207488
 31
0.0
  0
LINE
  5
1AC
330
12E
100
AcDbEntity
  8
410453031_OVERID
  6
Continuous
 62
     7
100
AcDbLine
 10
101.2009779313
 20
172.0114165213
 30
0.0
 11
101.1805158007
 21
172.0216473918
 31
0.0
  0
LINE
  5
1AD
330
12E
100
AcDbEntity
  8
410453031_OVERID
  6
Continuous
 62
     7
100
AcDbLine
 10
95.0018468103
 20
178.2598516193
 30
0.0
 11
95.0223089409
 21
178.2496207488
 31
0.0
  0
LINE
  5
1AE
330
12E
100
AcDbEntity
  8
410453031_OVERID
  6
Continuous
 62
     7
100
AcDbLine
 10
99.3245034202
 20
170.9860666059
 30
0.0
 11
99.3466824979
 21
171.0082456836
 31
0.0
  0
LINE
  5
1AF
330
12E
100
AcDbEntity
  8
410453031_OVERID
  6
Continuous
 62
     7
100
AcDbLine
 10
95.0018468103
 20
173.3598516193
 30
0.0
 11
95.0223089409
 21
173.3496207488
 31
0.0
  0
LINE
  5
1B0
330
12E
100
AcDbEntity
  8
410453031_OVERID
  6
Continuous
 62
     7
100
AcDbLine
 10
95.7814454734
 20
171.0082456836
 30
0.0
 11
95.7814454734
 21
170.8364141415
 31
0.0
  0
LINE
  5
1B1
330
12E
100
AcDbEntity
  8
410453031_OVERID
  6
Continuous
 62
     7
100
AcDbLine
 10
94.9760638833
 20
171.9856340703
 30
0.0
 11
95.0018449064
 21
172.0114150934
 31
0.0
  0
LINE
  5
1B2
330
12E
100
AcDbEntity
  8
410453031_OVERID
  6
Continuous
 62
     7
100
AcDbLine
 10
94.9521262329
 20
171.9614169973
 30
0.0
 11
94.9760638833
 21
171.9856340703
 31
0.0
  0
ARC
  5
1B3
330
12E
100
AcDbEntity
  8
410453031_OVERID
  6
Continuous
 62
     7
100
AcDbCircle
 10
93.7101221582
 20
173.6017908119
 30
0.0
 40
3.317349073813419
100
AcDbArc
 50
307.5403089705
 51
308.6375114773
  0
LINE
  5
1B4
330
12E
100
AcDbEntity
  8
410453031_OVERID
  6
Continuous
 62
     7
100
AcDbLine
 10
94.9518468103
 20
173.4098511433
 30
0.0
 11
95.0018449064
 21
173.3598530472
 31
0.0
  0
LINE
  5
1B5
330
12E
100
AcDbEntity
  8
410453031_OVERID
  6
Continuous
 62
     7
100
AcDbLine
 10
96.8783213214
 20
170.9860666059
 30
0.0
 11
96.9283194175
 21
170.9360685098
 31
0.0
  0
LINE
  5
1B6
330
12E
100
AcDbEntity
  8
410453031_OVERID
  6
Continuous
 62
     7
100
AcDbLine
 10
94.9518468103
 20
176.8614169973
 30
0.0
 11
95.0018449064
 21
176.9114150934
 31
0.0
  0
LINE
  5
1B7
330
12E
100
AcDbEntity
  8
410453031_OVERID
  6
Continuous
 62
     7
100
AcDbLine
 10
99.3245034202
 20
170.9860666059
 30
0.0
 11
99.2745053241
 21
170.9360685098
 31
0.0
  0
LINE
  5
1B8
330
12E
100
AcDbEntity
  8
410453031_OVERID
  6
Continuous
 62
     7
100
AcDbLine
 10
100.4213792682
 20
170.8364141415
 30
0.0
 11
100.4713773644
 21
170.8364141415
 31
0.0
  0
LINE
  5
1B9
330
12E
100
AcDbEntity
  8
410453031_OVERID
  6
Continuous
 62
     7
100
AcDbLine
 10
94.9518468103
 20
178.3098511433
 30
0.0
 11
95.0018449064
 21
178.2598530472
 31
0.0
  0
LINE
  5
1BA
330
12E
100
AcDbEntity
  8
410453031_OVERID
  6
Continuous
 62
     7
100
AcDbLine
 10
94.9518468103
 20
182.8614169973
 30
0.0
 11
95.0018449064
 21
182.9114150934
 31
0.0
  0
LINE
  5
1BB
330
12E
100
AcDbEntity
  8
410453031_OVERID
  6
Continuous
 62
     7
100
AcDbLine
 10
101.2267608583
 20
171.9856340703
 30
0.0
 11
101.2506985087
 21
171.9614169973
 31
0.0
  0
LINE
  5
1BC
330
12E
100
AcDbEntity
  8
410453031_OVERID
  6
Continuous
 62
     7
100
AcDbLine
 10
101.2009798352
 20
172.0114150934
 30
0.0
 11
101.2267608583
 21
171.9856340703
 31
0.0
  0
LINE
  5
1BD
330
12E
100
AcDbEntity
  8
410453031_OVERID
  6
Continuous
 62
     7
100
AcDbLine
 10
94.9518468103
 20
184.3098511433
 30
0.0
 11
95.0018449064
 21
184.2598530472
 31
0.0
  0
LINE
  5
1BE
330
12E
100
AcDbEntity
  8
410453031_OVERID
  6
Continuous
 62
     7
100
AcDbLine
 10
101.2009798352
 20
173.3598530472
 30
0.0
 11
101.2509779313
 21
173.4098511433
 31
0.0
  0
LINE
  5
1BF
330
12E
100
AcDbEntity
  8
410453031_OVERID
  6
Continuous
 62
     7
100
AcDbLine
 10
94.9518468103
 20
187.7614169973
 30
0.0
 11
95.0018449064
 21
187.8114150934
 31
0.0
  0
LINE
  5
1C0
330
12E
100
AcDbEntity
  8
410453031_OVERID
  6
Continuous
 62
     7
100
AcDbLine
 10
101.2009798352
 20
176.9114150934
 30
0.0
 11
101.2509779313
 21
176.8614169973
 31
0.0
  0
LINE
  5
1C1
330
12E
100
AcDbEntity
  8
410453031_OVERID
  6
Continuous
 62
     7
100
AcDbLine
 10
95.0018449064
 20
189.1598530472
 30
0.0
 11
94.9760638833
 21
189.1856340703
 31
0.0
  0
LINE
  5
1C2
330
12E
100
AcDbEntity
  8
410453031_OVERID
  6
Continuous
 62
     7
100
AcDbLine
 10
94.9521262329
 20
189.2098511433
 30
0.0
 11
94.9760638833
 21
189.1856340703
 31
0.0
  0
LINE
  5
1C3
330
12E
100
AcDbEntity
  8
410453031_OVERID
  6
Continuous
 62
     7
100
AcDbLine
 10
101.2009798352
 20
178.2598530472
 30
0.0
 11
101.2509779313
 21
178.3098511433
 31
0.0
  0
LINE
  5
1C4
330
12E
100
AcDbEntity
  8
410453031_OVERID
  6
Continuous
 62
     7
100
AcDbLine
 10
101.2009798352
 20
182.9114150934
 30
0.0
 11
101.2509779313
 21
182.8614169973
 31
0.0
  0
LINE
  5
1C5
330
12E
100
AcDbEntity
  8
410453031_OVERID
  6
Continuous
 62
     7
100
AcDbLine
 10
95.7314473772
 20
190.3348539991
 30
0.0
 11
95.7814454734
 21
190.3348539991
 31
0.0
  0
LINE
  5
1C6
330
12E
100
AcDbEntity
  8
410453031_OVERID
  6
Continuous
 62
     7
100
AcDbLine
 10
96.9283194175
 20
190.2351996308
 30
0.0
 11
96.8783213214
 21
190.1852015347
 31
0.0
  0
LINE
  5
1C7
330
12E
100
AcDbEntity
  8
410453031_OVERID
  6
Continuous
 62
     7
100
AcDbLine
 10
101.2009798352
 20
184.2598530472
 30
0.0
 11
101.2509779313
 21
184.3098511433
 31
0.0
  0
LINE
  5
1C8
330
12E
100
AcDbEntity
  8
410453031_OVERID
  6
Continuous
 62
     7
100
AcDbLine
 10
99.2745053241
 20
190.2351996308
 30
0.0
 11
99.3245034202
 21
190.1852015347
 31
0.0
  0
LINE
  5
1C9
330
12E
100
AcDbEntity
  8
410453031_OVERID
  6
Continuous
 62
     7
100
AcDbLine
 10
101.2009798352
 20
187.8114150934
 30
0.0
 11
101.2509779313
 21
187.7614169973
 31
0.0
  0
LINE
  5
1CA
330
12E
100
AcDbEntity
  8
410453031_OVERID
  6
Continuous
 62
     7
100
AcDbLine
 10
101.2009798352
 20
189.1598530472
 30
0.0
 11
101.2267608583
 21
189.1856340703
 31
0.0
  0
ARC
  5
1CB
330
12E
100
AcDbEntity
  8
410453031_OVERID
  6
Continuous
 62
     7
100
AcDbCircle
 10
102.4927025833
 20
187.5694773287
 30
0.0
 40
3.317349073775697
100
AcDbArc
 50
127.5403089705
 51
128.4803095231
  0
LINE
  5
1CC
330
12E
100
AcDbEntity
  8
410453031_OVERID
  6
Continuous
 62
     7
100
AcDbLine
 10
101.2267608583
 20
189.1856340703
 30
0.0
 11
101.2506985087
 21
189.2098511433
 31
0.0
  0
LINE
  5
1CD
330
12E
100
AcDbEntity
  8
410452038_OVERID
  6
Continuous
 62
     7
100
AcDbLine
 10
101.1805158007
 20
171.5081695311
 30
0.0
 11
101.1805158007
 21
189.6665286959
 31
0.0
  0
ARC
  5
1CE
330
12E
100
AcDbEntity
  8
410452038_OVERID
  6
Continuous
 62
     7
100
AcDbCircle
 10
100.6805310488
 20
189.6664677915
 30
0.0
 40
0.499984755597596
100
AcDbArc
 50
0.0069793326
 51
89.9930206674
  0
ARC
  5
1CF
330
12E
100
AcDbEntity
  8
410452038_OVERID
  6
Continuous
 62
     7
100
AcDbCircle
 10
100.6805310488
 20
171.5082304354
 30
0.0
 40
0.4999847555976198
100
AcDbArc
 50
270.0069793326
 51
359.9930206674
  0
LINE
  5
1D0
330
12E
100
AcDbEntity
  8
410452038_OVERID
  6
Continuous
 62
     7
100
AcDbLine
 10
100.6805919532
 20
190.1664525434
 30
0.0
 11
95.5222327884
 21
190.1664525434
 31
0.0
  0
LINE
  5
1D1
330
12E
100
AcDbEntity
  8
410452038_OVERID
  6
Continuous
 62
     7
100
AcDbLine
 10
95.5222327884
 20
171.0082456836
 30
0.0
 11
100.6805919532
 21
171.0082456836
 31
0.0
  0
ARC
  5
1D2
330
12E
100
AcDbEntity
  8
410452038_OVERID
  6
Continuous
 62
     7
100
AcDbCircle
 10
95.5222936927
 20
189.6664677915
 30
0.0
 40
0.4999847555975921
100
AcDbArc
 50
90.0069793326
 51
179.9930206674
  0
ARC
  5
1D3
330
12E
100
AcDbEntity
  8
410452038_OVERID
  6
Continuous
 62
     7
100
AcDbCircle
 10
95.5222936927
 20
171.5082304354
 30
0.0
 40
0.499984755597606
100
AcDbArc
 50
180.0069793326
 51
269.9930206674
  0
LINE
  5
1D4
330
12E
100
AcDbEntity
  8
410452038_OVERID
  6
Continuous
 62
     7
100
AcDbLine
 10
95.0223089409
 20
189.6665286959
 30
0.0
 11
95.0223089409
 21
171.5081695311
 31
0.0
  0
LINE
  5
1D5
330
12E
100
AcDbEntity
  8
410450038_SQUARE
  6
Continuous
 62
     7
100
AcDbLine
 10
127.8014123708
 20
164.4356340703
 30
0.0
 11
68.4014123708
 21
164.4356340703
 31
0.0
  0
ARC
  5
1D6
330
12E
100
AcDbEntity
  8
410450038_SQUARE
  6
Continuous
 62
     7
100
AcDbCircle
 10
68.4014123708
 20
164.7356340703
 30
0.0
 40
0.3000000000000009
100
AcDbArc
 50
218.031690524
 51
270.0
  0
ARC
  5
1D7
330
12E
100
AcDbEntity
  8
410450038_SQUARE
  6
Continuous
 62
     7
100
AcDbCircle
 10
127.8014123708
 20
164.7356340703
 30
0.0
 40
0.3000000000000119
100
AcDbArc
 50
270.0
 51
321.968309476
  0
ARC
  5
1D8
330
12E
100
AcDbEntity
  8
410450038_SQUARE
  6
Continuous
 62
     7
100
AcDbCircle
 10
127.8801793816
 20
164.674024347
 30
0.0
 40
0.2000000000000013
100
AcDbArc
 50
321.968309476
 51
348.933313341
  0
ARC
  5
1D9
330
12E
100
AcDbEntity
  8
410450038_SQUARE
  6
Continuous
 62
     7
100
AcDbCircle
 10
68.32264536
 20
164.674024347
 30
0.0
 40
0.2000000000000102
100
AcDbArc
 50
191.066686659
 51
218.031690524
  0
LINE
  5
1DA
330
12E
100
AcDbEntity
  8
410465031_SLEEVE
  6
Continuous
 62
     7
100
AcDbLine
 10
129.4391938253
 20
215.3356340703
 30
0.0
 11
129.4514123708
 21
214.6356340703
 31
0.0
  0
LINE
  5
1DB
330
12E
100
AcDbEntity
  8
410465031_SLEEVE
  6
Continuous
 62
     7
100
AcDbLine
 10
129.4391938253
 20
215.3356340703
 30
0.0
 11
128.4514123708
 21
215.3356340703
 31
0.0
  0
LINE
  5
1DC
330
12E
100
AcDbEntity
  8
410465031_SLEEVE
  6
Continuous
 62
     7
100
AcDbLine
 10
128.4514123708
 20
215.3356340703
 30
0.0
 11
67.7514123708
 21
215.3356340703
 31
0.0
  0
LINE
  5
1DD
330
12E
100
AcDbEntity
  8
410465031_SLEEVE
  6
Continuous
 62
     7
100
AcDbLine
 10
67.7514123708
 20
215.3356340703
 30
0.0
 11
66.7636309162
 21
215.3356340703
 31
0.0
  0
LINE
  5
1DE
330
12E
100
AcDbEntity
  8
410465031_SLEEVE
  6
Continuous
 62
     7
100
AcDbLine
 10
66.7636309162
 20
215.3356340703
 30
0.0
 11
66.7514123708
 21
214.6356340703
 31
0.0
  0
LINE
  5
1DF
330
12E
100
AcDbEntity
  8
410465031_SLEEVE
  6
Continuous
 62
     7
100
AcDbLine
 10
128.5011951552
 20
215.3854159048
 30
0.0
 11
128.4992306954
 21
215.8356340703
 31
0.0
  0
LINE
  5
1E0
330
12E
100
AcDbEntity
  8
410465031_SLEEVE
  6
Continuous
 62
     7
100
AcDbLine
 10
67.7035940462
 20
215.8356340703
 30
0.0
 11
67.7016295864
 21
215.3854159048
 31
0.0
  0
ARC
  5
1E1
330
12E
100
AcDbEntity
  8
410465031_SLEEVE
  6
Continuous
 62
     7
100
AcDbCircle
 10
128.5511946792
 20
215.3856340703
 30
0.0
 40
0.0499999999999945
100
AcDbArc
 50
180.2500000001
 51
270.0
  0
ARC
  5
1E2
330
12E
100
AcDbEntity
  8
410465031_SLEEVE
  6
Continuous
 62
     7
100
AcDbCircle
 10
67.6516300624
 20
215.3856340703
 30
0.0
 40
0.049999999999999
100
AcDbArc
 50
270.0
 51
359.7499999999
  0
LINE
  5
1E4
330
12E
100
AcDbEntity
  8
DV3_Default
  6
CENTER2
 62
     7
100
AcDbLine
 10
98.1014123708
 20
292.098627078
 30
0.0
 11
98.1014123708
 21
265.9358557946
 31
0.0
  0
LINE
  5
1E5
330
12E
100
AcDbEntity
  8
DV3_Default
  6
CENTER2
 62
     7
100
AcDbLine
 10
10.1013362184
 20
283.3356340703
 30
0.0
 11
186.1014885232
 21
283.3356340703
 31
0.0
  0
ENDBLK
  5
1E7
330
12E
100
AcDbEntity
  8
0
100
AcDbBlockEnd
  0
ENDSEC
  0
SECTION
  2
ENTITIES
  0
INSERT
  5
5F
330
1F
100
AcDbEntity
  8
Default
100
AcDbBlockReference
  2
SE
 10
0.0
 20
0.0
 30
0.0
  0
INSERT
  5
D4
330
1F
100
AcDbEntity
  8
Default
100
AcDbBlockReference
  2
SE1
 10
0.0
 20
0.0
 30
0.0
  0
INSERT
  5
12F
330
1F
100
AcDbEntity
  8
Default
100
AcDbBlockReference
  2
SE2
 10
0.0
 20
0.0
 30
0.0
  0
TEXT
  5
1E9
330
1F
100
AcDbEntity
  8
Default
  6
Continuous
 62
     7
100
AcDbText
 10
5.9362635081
 20
53.4225120485
 30
0.0
 40
10.0
  1
Grohe AG^J
  7
SEACAD_seiso_ttf
 11
5.9362635081
 21
63.4225120485
 31
0.0
100
AcDbText
 73
     3
  0
TEXT
  5
1EA
330
1F
100
AcDbEntity
  8
Default
  6
Continuous
 62
     7
100
AcDbText
 10
5.9362635081
 20
37.0588756849
 30
0.0
 40
10.0
  1
 
  7
SEACAD_seiso_ttf
 11
5.9362635081
 21
47.0588756849
 31
0.0
100
AcDbText
 73
     3
  0
TEXT
  5
1EB
330
1F
100
AcDbEntity
  8
Default
  6
Continuous
 62
     7
100
AcDbText
 10
5.9362635081
 20
20.6952393213
 30
0.0
 40
10.0
  1
ecn:
  7
SEACAD_seiso_ttf
 11
5.9362635081
 21
30.6952393213
 31
0.0
100
AcDbText
 73
     3
  0
TEXT
  5
1EC
330
1F
100
AcDbEntity
  8
Default
  6
Continuous
 62
     7
100
AcDbText
 10
5.9362635081
 20
4.3316029576
 30
0.0
 40
10.0
  1
unit: mm
  7
SEACAD_seiso_ttf
 11
5.9362635081
 21
14.3316029576
 31
0.0
100
AcDbText
 73
     3
  0
LINE
  5
1ED
330
1F
100
AcDbEntity
  8
Default
  6
Continuous
 62
     7
100
AcDbLine
 10
0.0
 20
0.0
 30
0.0
 11
100.0
 21
0.0
 31
0.0
  0
LINE
  5
1EE
330
1F
100
AcDbEntity
  8
Default
  6
Continuous
 62
     7
100
AcDbLine
 10
0.0
 20
0.0
 30
0.0
 11
0.0
 21
100.0
 31
0.0
  0
TEXT
  5
1EF
330
1F
100
AcDbEntity
  8
Default
  6
Continuous
 62
     7
100
AcDbText
 10
24.3923665681
 20
-18.2375342018
 30
0.0
 40
10.0
  1
100 mm
  7
SEACAD_seiso_ttf
 11
24.3923665681
 21
-8.2375342018
 31
0.0
100
AcDbText
 73
     3
  0
TEXT
  5
1F0
330
1F
100
AcDbEntity
  8
Default
  6
Continuous
 62
     7
100
AcDbText
 10
-7.6150308803
 20
24.6231930421
 30
0.0
 40
10.0
  1
100 mm
 50
90.0
  7
SEACAD_seiso_ttf
 11
-17.6150308803
 21
24.6231930421
 31
0.0
100
AcDbText
 73
     3
  0
TEXT
  5
1F1
330
1F
100
AcDbEntity
  8
Default
  6
Continuous
 62
     7
100
AcDbText
 10
28.4878128572
 20
20.0907663715
 30
0.0
 40
10.0
  1
224459
  7
SEACAD_seiso_ttf
 11
28.4878128572
 21
30.0907663715
 31
0.0
100
AcDbText
 73
     3
  0
TEXT
  5
1F2
330
1F
100
AcDbEntity
  8
Default
  6
Continuous
 62
     7
100
AcDbText
 10
5.9012241913
 20
36.7242780188
 30
0.0
 40
10.0
  1
19793000
  7
SEACAD_seiso_ttf
 11
5.9012241913
 21
46.7242780188
 31
0.0
100
AcDbText
 73
     3
  0
ENDSEC
  0
SECTION
  2
OBJECTS
  0
DICTIONARY
  5
C
330
0
100
AcDbDictionary
281
     1
  3
ACAD_GROUP
350
D
  3
ACAD_LAYOUT
350
1A
  3
ACAD_MLEADERSTYLE
350
1F6
  3
ACAD_MLINESTYLE
350
17
  3
ACAD_PLOTSETTINGS
350
19
  3
ACAD_PLOTSTYLENAME
350
E
  3
ACAD_SCALELIST
350
3B
  3
ACAD_TABLESTYLE
350
1F5
  3
ACAD_VISUALSTYLE
350
2A
  3
AcDbVariableDictionary
350
1F3
  0
DICTIONARY
  5
D
102
{ACAD_REACTORS
330
C
102
}
330
C
100
AcDbDictionary
281
     1
  0
DICTIONARY
  5
1A
102
{ACAD_REACTORS
330
C
102
}
330
C
100
AcDbDictionary
281
     1
  3
Layout1
350
1E
  3
Model
350
22
  0
DICTIONARY
  5
1F6
102
{ACAD_REACTORS
330
C
102
}
330
C
100
AcDbDictionary
281
     1
  0
DICTIONARY
  5
17
102
{ACAD_REACTORS
330
C
102
}
330
C
100
AcDbDictionary
281
     1
  3
Standard
350
18
  0
DICTIONARY
  5
19
102
{ACAD_REACTORS
330
C
102
}
330
C
100
AcDbDictionary
281
     1
  0
ACDBDICTIONARYWDFLT
  5
E
102
{ACAD_REACTORS
330
C
102
}
330
C
100
AcDbDictionary
281
     1
  3
Normal
350
F
100
AcDbDictionaryWithDefault
340
F
  0
DICTIONARY
  5
3B
102
{ACAD_REACTORS
330
C
102
}
330
C
100
AcDbDictionary
281
     1
  3
A0
350
3C
  3
A1
350
3D
  3
A2
350
3E
  3
A3
350
3F
  3
A4
350
40
  3
A5
350
41
  3
A6
350
42
  3
A7
350
43
  3
A8
350
44
  3
A9
350
45
  3
B0
350
46
  3
B1
350
47
  3
B2
350
48
  3
B3
350
49
  3
B4
350
4A
  3
B5
350
4B
  3
B6
350
4C
  3
B7
350
4D
  3
B8
350
4E
  3
B9
350
4F
  3
C0
350
50
  3
C1
350
51
  3
C2
350
52
  3
C3
350
53
  3
C4
350
54
  3
C5
350
55
  3
C6
350
56
  3
C7
350
57
  3
C8
350
58
  3
C9
350
59
  3
D0
350
5A
  3
D1
350
5B
  3
D2
350
5C
  0
DICTIONARY
  5
1F5
102
{ACAD_REACTORS
330
C
102
}
330
C
100
AcDbDictionary
281
     1
  0
DICTIONARY
  5
2A
102
{ACAD_REACTORS
330
C
102
}
330
C
100
AcDbDictionary
281
     1
  3
2dWireframe
350
2F
  3
3D Hidden
350
31
  3
3dWireframe
350
30
  3
Basic
350
32
  3
Brighten
350
36
  3
ColorChange
350
3A
  3
Conceptual
350
34
  3
Dim
350
35
  3
Facepattern
350
39
  3
Flat
350
2B
  3
FlatWithEdges
350
2C
  3
Gouraud
350
2D
  3
GouraudWithEdges
350
2E
  3
Linepattern
350
38
  3
Realistic
350
33
  3
Thicken
350
37
  0
DICTIONARY
  5
1F3
102
{ACAD_REACTORS
330
C
102
}
330
C
100
AcDbDictionary
281
     1
  3
CANNOSCALE
350
1F4
  3
PSOLHEIGHT
350
1F8
  3
PSOLWIDTH
350
1F7
  0
LAYOUT
  5
1E
102
{ACAD_REACTORS
330
1A
102
}
330
1A
100
AcDbPlotSettings
  1

  2
none_device
  4

  6

 40
0.0
 41
0.0
 42
0.0
 43
0.0
 44
0.0
 45
0.0
 46
0.0
 47
0.0
 48
0.0
 49
0.0
140
0.0
141
0.0
142
1.0
143
1.0
 70
   688
 72
     0
 73
     0
 74
     5
  7

 75
    16
147
1.0
148
0.0
149
0.0
100
AcDbLayout
  1
Layout1
 70
     1
 71
     1
 10
0.0
 20
0.0
 11
3000.0
 21
4500.0
 12
0.0
 22
0.0
 32
0.0
 14
0.0
 24
0.0
 34
0.0
 15
3000.0
 25
4500.0
 35
0.0
146
0.0
 13
0.0
 23
0.0
 33
0.0
 16
1.0
 26
0.0
 36
0.0
 17
0.0
 27
1.0
 37
0.0
 76
     0
330
1B
  0
LAYOUT
  5
22
102
{ACAD_REACTORS
330
1A
102
}
330
1A
100
AcDbPlotSettings
  1

  2
none_device
  4

  6

 40
0.0
 41
0.0
 42
0.0
 43
0.0
 44
0.0
 45
0.0
 46
0.0
 47
0.0
 48
0.0
 49
0.0
140
0.0
141
0.0
142
1.0
143
1.0
 70
  1712
 72
     0
 73
     0
 74
     0
  7

 75
     0
147
1.0
148
0.0
149
0.0
100
AcDbLayout
  1
Model
 70
     1
 71
     0
 10
0.0
 20
0.0
 11
3000.0
 21
4500.0
 12
0.0
 22
0.0
 32
0.0
 14
0.0
 24
0.0
 34
0.0
 15
3000.0
 25
4500.0
 35
0.0
146
0.0
 13
0.0
 23
0.0
 33
0.0
 16
1.0
 26
0.0
 36
0.0
 17
0.0
 27
1.0
 37
0.0
 76
     0
330
1F
331
29
  0
MLINESTYLE
  5
18
102
{ACAD_REACTORS
330
17
102
}
330
17
100
AcDbMlineStyle
  2
Standard
 70
     0
  3

 62
   256
 51
90.0
 52
90.0
 71
     2
 49
0.5
 62
   256
  6
BYLAYER
 49
-0.5
 62
   256
  6
BYLAYER
  0
ACDBPLACEHOLDER
  5
F
102
{ACAD_REACTORS
330
E
102
}
330
E
  0
SCALE
  5
3C
102
{ACAD_REACTORS
330
3B
102
}
330
3B
100
AcDbScale
 70
     0
300
1:1
140
1.0
141
1.0
290
     1
  0
SCALE
  5
3D
102
{ACAD_REACTORS
330
3B
102
}
330
3B
100
AcDbScale
 70
     0
300
1:2
140
1.0
141
2.0
290
     0
  0
SCALE
  5
3E
102
{ACAD_REACTORS
330
3B
102
}
330
3B
100
AcDbScale
 70
     0
300
1:4
140
1.0
141
4.0
290
     0
  0
SCALE
  5
3F
102
{ACAD_REACTORS
330
3B
102
}
330
3B
100
AcDbScale
 70
     0
300
1:5
140
1.0
141
5.0
290
     0
  0
SCALE
  5
40
102
{ACAD_REACTORS
330
3B
102
}
330
3B
100
AcDbScale
 70
     0
300
1:8
140
1.0
141
8.0
290
     0
  0
SCALE
  5
41
102
{ACAD_REACTORS
330
3B
102
}
330
3B
100
AcDbScale
 70
     0
300
1:10
140
1.0
141
10.0
290
     0
  0
SCALE
  5
42
102
{ACAD_REACTORS
330
3B
102
}
330
3B
100
AcDbScale
 70
     0
300
1:16
140
1.0
141
16.0
290
     0
  0
SCALE
  5
43
102
{ACAD_REACTORS
330
3B
102
}
330
3B
100
AcDbScale
 70
     0
300
1:20
140
1.0
141
20.0
290
     0
  0
SCALE
  5
44
102
{ACAD_REACTORS
330
3B
102
}
330
3B
100
AcDbScale
 70
     0
300
1:30
140
1.0
141
30.0
290
     0
  0
SCALE
  5
45
102
{ACAD_REACTORS
330
3B
102
}
330
3B
100
AcDbScale
 70
     0
300
1:40
140
1.0
141
40.0
290
     0
  0
SCALE
  5
46
102
{ACAD_REACTORS
330
3B
102
}
330
3B
100
AcDbScale
 70
     0
300
1:50
140
1.0
141
50.0
290
     0
  0
SCALE
  5
47
102
{ACAD_REACTORS
330
3B
102
}
330
3B
100
AcDbScale
 70
     0
300
1:100
140
1.0
141
100.0
290
     0
  0
SCALE
  5
48
102
{ACAD_REACTORS
330
3B
102
}
330
3B
100
AcDbScale
 70
     0
300
2:1
140
2.0
141
1.0
290
     0
  0
SCALE
  5
49
102
{ACAD_REACTORS
330
3B
102
}
330
3B
100
AcDbScale
 70
     0
300
4:1
140
4.0
141
1.0
290
     0
  0
SCALE
  5
4A
102
{ACAD_REACTORS
330
3B
102
}
330
3B
100
AcDbScale
 70
     0
300
8:1
140
8.0
141
1.0
290
     0
  0
SCALE
  5
4B
102
{ACAD_REACTORS
330
3B
102
}
330
3B
100
AcDbScale
 70
     0
300
10:1
140
10.0
141
1.0
290
     0
  0
SCALE
  5
4C
102
{ACAD_REACTORS
330
3B
102
}
330
3B
100
AcDbScale
 70
     0
300
100:1
140
100.0
141
1.0
290
     0
  0
SCALE
  5
4D
102
{ACAD_REACTORS
330
3B
102
}
330
3B
100
AcDbScale
 70
     0
300
1/128" = 1'-0"
140
0.0078125
141
12.0
290
     0
  0
SCALE
  5
4E
102
{ACAD_REACTORS
330
3B
102
}
330
3B
100
AcDbScale
 70
     0
300
1/64" = 1'-0"
140
0.015625
141
12.0
290
     0
  0
SCALE
  5
4F
102
{ACAD_REACTORS
330
3B
102
}
330
3B
100
AcDbScale
 70
     0
300
1/32" = 1'-0"
140
0.03125
141
12.0
290
     0
  0
SCALE
  5
50
102
{ACAD_REACTORS
330
3B
102
}
330
3B
100
AcDbScale
 70
     0
300
1/16" = 1'-0"
140
0.0625
141
12.0
290
     0
  0
SCALE
  5
51
102
{ACAD_REACTORS
330
3B
102
}
330
3B
100
AcDbScale
 70
     0
300
3/32" = 1'-0"
140
0.09375
141
12.0
290
     0
  0
SCALE
  5
52
102
{ACAD_REACTORS
330
3B
102
}
330
3B
100
AcDbScale
 70
     0
300
1/8" = 1'-0"
140
0.125
141
12.0
290
     0
  0
SCALE
  5
53
102
{ACAD_REACTORS
330
3B
102
}
330
3B
100
AcDbScale
 70
     0
300
3/16" = 1'-0"
140
0.1875
141
12.0
290
     0
  0
SCALE
  5
54
102
{ACAD_REACTORS
330
3B
102
}
330
3B
100
AcDbScale
 70
     0
300
1/4" = 1'-0"
140
0.25
141
12.0
290
     0
  0
SCALE
  5
55
102
{ACAD_REACTORS
330
3B
102
}
330
3B
100
AcDbScale
 70
     0
300
3/8" = 1'-0"
140
0.375
141
12.0
290
     0
  0
SCALE
  5
56
102
{ACAD_REACTORS
330
3B
102
}
330
3B
100
AcDbScale
 70
     0
300
1/2" = 1'-0"
140
0.5
141
12.0
290
     0
  0
SCALE
  5
57
102
{ACAD_REACTORS
330
3B
102
}
330
3B
100
AcDbScale
 70
     0
300
3/4" = 1'-0"
140
0.75
141
12.0
290
     0
  0
SCALE
  5
58
102
{ACAD_REACTORS
330
3B
102
}
330
3B
100
AcDbScale
 70
     0
300
1" = 1'-0"
140
1.0
141
12.0
290
     0
  0
SCALE
  5
59
102
{ACAD_REACTORS
330
3B
102
}
330
3B
100
AcDbScale
 70
     0
300
1-1/2" = 1'-0"
140
1.5
141
12.0
290
     0
  0
SCALE
  5
5A
102
{ACAD_REACTORS
330
3B
102
}
330
3B
100
AcDbScale
 70
     0
300
3" = 1'-0"
140
3.0
141
12.0
290
     0
  0
SCALE
  5
5B
102
{ACAD_REACTORS
330
3B
102
}
330
3B
100
AcDbScale
 70
     0
300
6" = 1'-0"
140
6.0
141
12.0
290
     0
  0
SCALE
  5
5C
102
{ACAD_REACTORS
330
3B
102
}
330
3B
100
AcDbScale
 70
     0
300
1'-0" = 1'-0"
140
12.0
141
12.0
290
     0
  0
VISUALSTYLE
  5
2F
102
{ACAD_REACTORS
330
2A
102
}
330
2A
100
AcDbVisualStyle
  2
2dWireframe
 70
     4
 71
     0
 72
     2
 73
     0
 90
        0
 40
-0.6
 41
-30.0
 62
     5
 63
     7
 74
     1
 91
        4
 64
     7
 65
   257
 75
     1
175
     1
 42
1.0
 92
        0
 66
   257
 43
1.0
 76
     1
 77
     6
 78
     2
 67
     7
 79
     5
170
     0
171
     0
290
     0
174
     0
 93
        1
 44
0.0
173
     0
291
     0
 45
0.0
1001
ACAD
1000
AcDbSavedByObjectVersion
1070
     0
  0
VISUALSTYLE
  5
31
102
{ACAD_REACTORS
330
2A
102
}
330
2A
100
AcDbVisualStyle
  2
3D Hidden
 70
     6
 71
     1
 72
     2
 73
     2
 90
        0
 40
-0.6
 41
-30.0
 62
     5
 63
     7
 74
     2
 91
        2
 64
     7
 65
   257
 75
     2
175
     1
 42
40.0
 92
        0
 66
   257
 43
1.0
 76
     1
 77
     6
 78
     2
 67
     7
 79
     3
170
     0
171
     0
290
     0
174
     0
 93
        1
 44
0.0
173
     0
291
     0
 45
0.0
1001
ACAD
1000
AcDbSavedByObjectVersion
1070
     0
  0
VISUALSTYLE
  5
30
102
{ACAD_REACTORS
330
2A
102
}
330
2A
100
AcDbVisualStyle
  2
3dWireframe
 70
     5
 71
     0
 72
     2
 73
     0
 90
        0
 40
-0.6
 41
-30.0
 62
     5
 63
     7
 74
     1
 91
        4
 64
     7
 65
   257
 75
     1
175
     1
 42
1.0
 92
        0
 66
   257
 43
1.0
 76
     1
 77
     6
 78
     2
 67
     7
 79
     5
170
     0
171
     0
290
     0
174
     0
 93
        1
 44
0.0
173
     0
291
     0
 45
0.0
1001
ACAD
1000
AcDbSavedByObjectVersion
1070
     0
  0
VISUALSTYLE
  5
32
102
{ACAD_REACTORS
330
2A
102
}
330
2A
100
AcDbVisualStyle
  2
Basic
 70
     7
 71
     1
 72
     0
 73
     1
 90
        0
 40
-0.6
 41
-30.0
 62
     5
 63
     7
 74
     0
 91
        4
 64
     7
 65
   257
 75
     1
175
     1
 42
1.0
 92
        8
 66
     7
 43
1.0
 76
     1
 77
     6
 78
     2
 67
     7
 79
     5
170
     0
171
     0
290
     0
174
     0
 93
        1
 44
0.0
173
     0
291
     1
 45
0.0
1001
ACAD
1000
AcDbSavedByObjectVersion
1070
     0
  0
VISUALSTYLE
  5
36
102
{ACAD_REACTORS
330
2A
102
}
330
2A
100
AcDbVisualStyle
  2
Brighten
 70
    12
 71
     2
 72
     2
 73
     0
 90
        0
 40
-0.6
 41
-30.0
 62
     5
 63
     7
 74
     1
 91
        4
 64
     7
 65
   257
 75
     1
175
     1
 42
1.0
 92
        8
 66
     7
 43
1.0
 76
     1
 77
     6
 78
     2
 67
     7
 79
     5
170
     0
171
     0
290
     0
174
     0
 93
        1
 44
50.0
173
     0
291
     1
 45
0.0
1001
ACAD
1000
AcDbSavedByObjectVersion
1070
     0
  0
VISUALSTYLE
  5
3A
102
{ACAD_REACTORS
330
2A
102
}
330
2A
100
AcDbVisualStyle
  2
ColorChange
 70
    16
 71
     2
 72
     2
 73
     3
 90
        0
 40
-0.6
 41
-30.0
 62
     5
 63
     8
 74
     1
 91
        4
 64
     7
 65
   257
 75
     1
175
     1
 42
1.0
 92
        8
 66
     8
 43
1.0
 76
     1
 77
     6
 78
     2
 67
     7
 79
     5
170
     0
171
     0
290
     0
174
     0
 93
        1
 44
0.0
173
     0
291
     1
 45
0.0
1001
ACAD
1000
AcDbSavedByObjectVersion
1070
     0
  0
VISUALSTYLE
  5
34
102
{ACAD_REACTORS
330
2A
102
}
330
2A
100
AcDbVisualStyle
  2
Conceptual
 70
     9
 71
     3
 72
     2
 73
     0
 90
        0
 40
-0.6
 41
-30.0
 62
     5
 63
     7
 74
     2
 91
        2
 64
     7
 65
   257
 75
     1
175
     1
 42
40.0
 92
        8
 66
     7
 43
1.0
 76
     1
 77
     6
 78
     2
 67
     7
 79
     3
170
     0
171
     0
290
     0
174
     0
 93
        1
 44
0.0
173
     0
291
     0
 45
0.0
1001
ACAD
1000
AcDbSavedByObjectVersion
1070
     0
  0
VISUALSTYLE
  5
35
102
{ACAD_REACTORS
330
2A
102
}
330
2A
100
AcDbVisualStyle
  2
Dim
 70
    11
 71
     2
 72
     2
 73
     0
 90
        0
 40
-0.6
 41
-30.0
 62
     5
 63
     7
 74
     1
 91
        4
 64
     7
 65
   257
 75
     1
175
     1
 42
1.0
 92
        8
 66
     7
 43
1.0
 76
     1
 77
     6
 78
     2
 67
     7
 79
     5
170
     0
171
     0
290
     0
174
     0
 93
        1
 44
-50.0
173
     0
291
     1
 45
0.0
1001
ACAD
1000
AcDbSavedByObjectVersion
1070
     0
  0
VISUALSTYLE
  5
39
102
{ACAD_REACTORS
330
2A
102
}
330
2A
100
AcDbVisualStyle
  2
Facepattern
 70
    15
 71
     2
 72
     2
 73
     0
 90
        0
 40
-0.6
 41
-30.0
 62
     5
 63
     7
 74
     1
 91
        4
 64
     7
 65
   257
 75
     1
175
     1
 42
1.0
 92
        8
 66
     7
 43
1.0
 76
     1
 77
     6
 78
     2
 67
     7
 79
     5
170
     0
171
     0
290
     0
174
     0
 93
        1
 44
0.0
173
     0
291
     1
 45
0.0
1001
ACAD
1000
AcDbSavedByObjectVersion
1070
     0
  0
VISUALSTYLE
  5
2B
102
{ACAD_REACTORS
330
2A
102
}
330
2A
100
AcDbVisualStyle
  2
Flat
 70
     0
 71
     2
 72
     1
 73
     1
 90
        2
 40
-0.6
 41
30.0
 62
     5
 63
     7
 74
     0
 91
        4
 64
     7
 65
   257
 75
     1
175
     1
 42
1.0
 92
        8
 66
     7
 43
1.0
 76
     1
 77
     6
 78
     2
 67
     7
 79
     5
170
     0
171
     0
290
     0
174
     0
 93
       13
 44
0.0
173
     0
291
     1
 45
0.0
1001
ACAD
1000
AcDbSavedByObjectVersion
1070
     0
  0
VISUALSTYLE
  5
2C
102
{ACAD_REACTORS
330
2A
102
}
330
2A
100
AcDbVisualStyle
  2
FlatWithEdges
 70
     1
 71
     2
 72
     1
 73
     1
 90
        2
 40
-0.6
 41
30.0
 62
     5
 63
     7
 74
     1
 91
        4
 64
     7
 65
   257
 75
     1
175
     1
 42
1.0
 92
        0
 66
   257
 43
1.0
 76
     1
 77
     6
 78
     2
 67
     7
 79
     5
170
     0
171
     0
290
     0
174
     0
 93
       13
 44
0.0
173
     0
291
     1
 45
0.0
1001
ACAD
1000
AcDbSavedByObjectVersion
1070
     0
  0
VISUALSTYLE
  5
2D
102
{ACAD_REACTORS
330
2A
102
}
330
2A
100
AcDbVisualStyle
  2
Gouraud
 70
     2
 71
     2
 72
     2
 73
     1
 90
        2
 40
-0.6
 41
30.0
 62
     5
 63
     7
 74
     0
 91
        4
 64
     7
 65
   257
 75
     1
175
     1
 42
1.0
 92
        0
 66
     7
 43
1.0
 76
     1
 77
     6
 78
     2
 67
     7
 79
     5
170
     0
171
     0
290
     0
174
     0
 93
       13
 44
0.0
173
     0
291
     1
 45
0.0
1001
ACAD
1000
AcDbSavedByObjectVersion
1070
     0
  0
VISUALSTYLE
  5
2E
102
{ACAD_REACTORS
330
2A
102
}
330
2A
100
AcDbVisualStyle
  2
GouraudWithEdges
 70
     3
 71
     2
 72
     2
 73
     1
 90
        2
 40
-0.6
 41
30.0
 62
     5
 63
     7
 74
     1
 91
        4
 64
     7
 65
   257
 75
     1
175
     1
 42
1.0
 92
        0
 66
   257
 43
1.0
 76
     1
 77
     6
 78
     2
 67
     7
 79
     5
170
     0
171
     0
290
     0
174
     0
 93
       13
 44
0.0
173
     0
291
     1
 45
0.0
1001
ACAD
1000
AcDbSavedByObjectVersion
1070
     0
  0
VISUALSTYLE
  5
38
102
{ACAD_REACTORS
330
2A
102
}
330
2A
100
AcDbVisualStyle
  2
Linepattern
 70
    14
 71
     2
 72
     2
 73
     0
 90
        0
 40
-0.6
 41
-30.0
 62
     5
 63
     7
 74
     1
 91
        4
 64
     7
 65
   257
 75
     7
175
     7
 42
1.0
 92
        8
 66
     7
 43
1.0
 76
     1
 77
     6
 78
     2
 67
     7
 79
     5
170
     0
171
     0
290
     0
174
     0
 93
        1
 44
0.0
173
     0
291
     1
 45
0.0
1001
ACAD
1000
AcDbSavedByObjectVersion
1070
     0
  0
VISUALSTYLE
  5
33
102
{ACAD_REACTORS
330
2A
102
}
330
2A
100
AcDbVisualStyle
  2
Realistic
 70
     8
 71
     2
 72
     2
 73
     0
 90
        0
 40
-0.6
 41
-30.0
 62
     5
 63
     7
 74
     1
 91
        0
 64
     7
 65
   257
 75
     1
175
     1
 42
1.0
 92
        8
 66
     8
 43
1.0
 76
     1
 77
     6
 78
     2
 67
     7
 79
     5
170
     0
171
     0
290
     0
174
     0
 93
       13
 44
0.0
173
     0
291
     0
 45
0.0
1001
ACAD
1000
AcDbSavedByObjectVersion
1070
     0
  0
VISUALSTYLE
  5
37
102
{ACAD_REACTORS
330
2A
102
}
330
2A
100
AcDbVisualStyle
  2
Thicken
 70
    13
 71
     2
 72
     2
 73
     0
 90
        0
 40
-0.6
 41
-30.0
 62
     5
 63
     7
 74
     1
 91
        4
 64
     7
 65
   257
 75
     1
175
     1
 42
1.0
 92
       12
 66
     7
 43
1.0
 76
     1
 77
     6
 78
     2
 67
     7
 79
     5
170
     0
171
     0
290
     0
174
     0
 93
        1
 44
0.0
173
     0
291
     1
 45
0.0
1001
ACAD
1000
AcDbSavedByObjectVersion
1070
     0
  0
DICTIONARYVAR
  5
1F4
102
{ACAD_REACTORS
330
1F3
102
}
330
1F3
100
DictionaryVariables
280
     0
  1
1:1
  0
DICTIONARYVAR
  5
1F8
102
{ACAD_REACTORS
330
1F3
102
}
330
1F3
100
DictionaryVariables
280
     0
  1
80.000000
  0
DICTIONARYVAR
  5
1F7
102
{ACAD_REACTORS
330
1F3
102
}
330
1F3
100
DictionaryVariables
280
     0
  1
5.000000
  0
ENDSEC
  0
EOF
