  0
SECTION
  2
HEADER
  9
$ACADVER
  1
AC1015
  9
$ACADMAINTVER
 70
     6
  9
$DWGCODEPAGE
  3
ANSI_1252
  9
$INSBASE
 10
0.0
 20
0.0
 30
0.0
  9
$EXTMIN
 10
0.0
 20
0.0
 30
0.0
  9
$EXTMAX
 10
1682.0
 20
2378.0
 30
0.0
  9
$LIMMIN
 10
0.0
 20
0.0
  9
$LIMMAX
 10
1682.0
 20
2378.0
  9
$ORTHOMODE
 70
     0
  9
$REGENMODE
 70
     1
  9
$FILLMODE
 70
     1
  9
$QTEXTMODE
 70
     0
  9
$MIRRTEXT
 70
     1
  9
$LTSCALE
 40
1.0
  9
$ATTMODE
 70
     1
  9
$TEXTSIZE
 40
2.5
  9
$TRACEWID
 40
1.0
  9
$TEXTSTYLE
  7
Standard
  9
$CLAYER
  8
0
  9
$CELTYPE
  6
ByLayer
  9
$CECOLOR
 62
   256
  9
$CELTSCALE
 40
1.0
  9
$DISPSILH
 70
     0
  9
$DIMSCALE
 40
1.0
  9
$DIMASZ
 40
2.5
  9
$DIMEXO
 40
0.625
  9
$DIMDLI
 40
3.75
  9
$DIMRND
 40
0.0
  9
$DIMDLE
 40
0.0
  9
$DIMEXE
 40
1.25
  9
$DIMTP
 40
0.0
  9
$DIMTM
 40
0.0
  9
$DIMTXT
 40
2.5
  9
$DIMCEN
 40
2.5
  9
$DIMTSZ
 40
0.0
  9
$DIMTOL
 70
     0
  9
$DIMLIM
 70
     0
  9
$DIMTIH
 70
     0
  9
$DIMTOH
 70
     0
  9
$DIMSE1
 70
     0
  9
$DIMSE2
 70
     0
  9
$DIMTAD
 70
     1
  9
$DIMZIN
 70
     8
  9
$DIMBLK
  1

  9
$DIMASO
 70
     1
  9
$DIMSHO
 70
     1
  9
$DIMPOST
  1

  9
$DIMAPOST
  1

  9
$DIMALT
 70
     0
  9
$DIMALTD
 70
     3
  9
$DIMALTF
 40
0.0393700787
  9
$DIMLFAC
 40
1.0
  9
$DIMTOFL
 70
     1
  9
$DIMTVP
 40
0.0
  9
$DIMTIX
 70
     0
  9
$DIMSOXD
 70
     0
  9
$DIMSAH
 70
     0
  9
$DIMBLK1
  1

  9
$DIMBLK2
  1

  9
$DIMSTYLE
  2
ISO-25
  9
$DIMCLRD
 70
     0
  9
$DIMCLRE
 70
     0
  9
$DIMCLRT
 70
     0
  9
$DIMTFAC
 40
1.0
  9
$DIMGAP
 40
0.625
  9
$DIMJUST
 70
     0
  9
$DIMSD1
 70
     0
  9
$DIMSD2
 70
     0
  9
$DIMTOLJ
 70
     0
  9
$DIMTZIN
 70
     8
  9
$DIMALTZ
 70
     0
  9
$DIMALTTZ
 70
     0
  9
$DIMUPT
 70
     0
  9
$DIMDEC
 70
     2
  9
$DIMTDEC
 70
     2
  9
$DIMALTU
 70
     2
  9
$DIMALTTD
 70
     3
  9
$DIMTXSTY
  7
Standard
  9
$DIMAUNIT
 70
     0
  9
$DIMADEC
 70
     0
  9
$DIMALTRND
 40
0.0
  9
$DIMAZIN
 70
     0
  9
$DIMDSEP
 70
    44
  9
$DIMATFIT
 70
     3
  9
$DIMFRAC
 70
     0
  9
$DIMLDRBLK
  1

  9
$DIMLUNIT
 70
     2
  9
$DIMLWD
 70
    -2
  9
$DIMLWE
 70
    -2
  9
$DIMTMOVE
 70
     0
  9
$LUNITS
 70
     2
  9
$LUPREC
 70
     4
  9
$SKETCHINC
 40
1.0
  9
$FILLETRAD
 40
10.0
  9
$AUNITS
 70
     0
  9
$AUPREC
 70
     0
  9
$MENU
  1
.
  9
$ELEVATION
 40
0.0
  9
$PELEVATION
 40
0.0
  9
$THICKNESS
 40
0.0
  9
$LIMCHECK
 70
     0
  9
$CHAMFERA
 40
10.0
  9
$CHAMFERB
 40
10.0
  9
$CHAMFERC
 40
20.0
  9
$CHAMFERD
 40
0.0
  9
$SKPOLY
 70
     0
  9
$TDCREATE
 40
2455747.693228785
  9
$TDUCREATE
 40
2455747.609895451
  9
$TDUPDATE
 40
2455747.693228796
  9
$TDUUPDATE
 40
2455747.609895463
  9
$TDINDWG
 40
0.0000000116
  9
$TDUSRTIMER
 40
0.0000000116
  9
$USRTIMER
 70
     1
  9
$ANGBASE
 50
0.0
  9
$ANGDIR
 70
     0
  9
$PDMODE
 70
     0
  9
$PDSIZE
 40
0.0
  9
$PLINEWID
 40
0.0
  9
$SPLFRAME
 70
     0
  9
$SPLINETYPE
 70
     6
  9
$SPLINESEGS
 70
     8
  9
$HANDSEED
  5
1C4
  9
$SURFTAB1
 70
     6
  9
$SURFTAB2
 70
     6
  9
$SURFTYPE
 70
     6
  9
$SURFU
 70
     6
  9
$SURFV
 70
     6
  9
$UCSBASE
  2

  9
$UCSNAME
  2

  9
$UCSORG
 10
0.0
 20
0.0
 30
0.0
  9
$UCSXDIR
 10
1.0
 20
0.0
 30
0.0
  9
$UCSYDIR
 10
0.0
 20
1.0
 30
0.0
  9
$UCSORTHOREF
  2

  9
$UCSORTHOVIEW
 70
     0
  9
$UCSORGTOP
 10
0.0
 20
0.0
 30
0.0
  9
$UCSORGBOTTOM
 10
0.0
 20
0.0
 30
0.0
  9
$UCSORGLEFT
 10
0.0
 20
0.0
 30
0.0
  9
$UCSORGRIGHT
 10
0.0
 20
0.0
 30
0.0
  9
$UCSORGFRONT
 10
0.0
 20
0.0
 30
0.0
  9
$UCSORGBACK
 10
0.0
 20
0.0
 30
0.0
  9
$PUCSBASE
  2

  9
$PUCSNAME
  2

  9
$PUCSORG
 10
0.0
 20
0.0
 30
0.0
  9
$PUCSXDIR
 10
1.0
 20
0.0
 30
0.0
  9
$PUCSYDIR
 10
0.0
 20
1.0
 30
0.0
  9
$PUCSORTHOREF
  2

  9
$PUCSORTHOVIEW
 70
     0
  9
$PUCSORGTOP
 10
0.0
 20
0.0
 30
0.0
  9
$PUCSORGBOTTOM
 10
0.0
 20
0.0
 30
0.0
  9
$PUCSORGLEFT
 10
0.0
 20
0.0
 30
0.0
  9
$PUCSORGRIGHT
 10
0.0
 20
0.0
 30
0.0
  9
$PUCSORGFRONT
 10
0.0
 20
0.0
 30
0.0
  9
$PUCSORGBACK
 10
0.0
 20
0.0
 30
0.0
  9
$USERI1
 70
     0
  9
$USERI2
 70
     0
  9
$USERI3
 70
     0
  9
$USERI4
 70
     0
  9
$USERI5
 70
     0
  9
$USERR1
 40
0.0
  9
$USERR2
 40
0.0
  9
$USERR3
 40
0.0
  9
$USERR4
 40
0.0
  9
$USERR5
 40
0.0
  9
$WORLDVIEW
 70
     1
  9
$SHADEDGE
 70
     3
  9
$SHADEDIF
 70
    70
  9
$TILEMODE
 70
     1
  9
$MAXACTVP
 70
    64
  9
$PINSBASE
 10
0.0
 20
0.0
 30
0.0
  9
$PLIMCHECK
 70
     0
  9
$PEXTMIN
 10
0.0
 20
0.0
 30
0.0
  9
$PEXTMAX
 10
1682.0
 20
2378.0
 30
0.0
  9
$PLIMMIN
 10
0.0
 20
0.0
  9
$PLIMMAX
 10
1682.0
 20
2378.0
  9
$UNITMODE
 70
     0
  9
$VISRETAIN
 70
     1
  9
$PLINEGEN
 70
     0
  9
$PSLTSCALE
 70
     1
  9
$TREEDEPTH
 70
  3020
  9
$CMLSTYLE
  2
Standard
  9
$CMLJUST
 70
     0
  9
$CMLSCALE
 40
20.0
  9
$PROXYGRAPHICS
 70
     1
  9
$MEASUREMENT
 70
     1
  9
$CELWEIGHT
370
    -1
  9
$ENDCAPS
280
     0
  9
$JOINSTYLE
280
     0
  9
$LWDISPLAY
290
     0
  9
$INSUNITS
 70
     4
  9
$HYPERLINKBASE
  1

  9
$STYLESHEET
  1

  9
$XEDIT
290
     1
  9
$CEPSNTYPE
380
     0
  9
$PSTYLEMODE
290
     1
  9
$FINGERPRINTGUID
  2
{B8995333-913D-427B-A26D-A24613D7D9B3}
  9
$VERSIONGUID
  2
{FAEB1C32-E019-11D5-929B-00C0DF256EC4}
  9
$EXTNAMES
290
     1
  9
$PSVPSCALE
 40
0.0
  9
$OLESTARTUP
290
     0
  0
ENDSEC
  0
SECTION
  2
CLASSES
  0
CLASS
  1
ACDBDICTIONARYWDFLT
  2
AcDbDictionaryWithDefault
  3
ObjectDBX Classes
 90
        0
280
     0
281
     0
  0
CLASS
  1
VISUALSTYLE
  2
AcDbVisualStyle
  3
ObjectDBX Classes
 90
     4095
280
     0
281
     0
  0
CLASS
  1
SCALE
  2
AcDbScale
  3
ObjectDBX Classes
 90
     1153
280
     0
281
     0
  0
CLASS
  1
DICTIONARYVAR
  2
AcDbDictionaryVar
  3
ObjectDBX Classes
 90
        0
280
     0
281
     0
  0
CLASS
  1
ACDBPLACEHOLDER
  2
AcDbPlaceHolder
  3
ObjectDBX Classes
 90
        0
280
     0
281
     0
  0
CLASS
  1
LAYOUT
  2
AcDbLayout
  3
ObjectDBX Classes
 90
        0
280
     0
281
     0
  0
ENDSEC
  0
SECTION
  2
TABLES
  0
TABLE
  2
VPORT
  5
8
330
0
100
AcDbSymbolTable
 70
     1
  0
VPORT
  5
29
330
8
100
AcDbSymbolTableRecord
100
AcDbViewportTableRecord
  2
*Active
 70
     0
 10
0.0
 20
0.0
 11
1.0
 21
1.0
 12
344.1869158879
 22
148.5
 13
0.0
 23
0.0
 14
10.0
 24
10.0
 15
10.0
 25
10.0
 16
0.0
 26
0.0
 36
1.0
 17
0.0
 27
0.0
 37
0.0
 40
297.0
 41
1.9729729729
 42
50.0
 43
0.0
 44
0.0
 50
0.0
 51
0.0
 71
     0
 72
   100
 73
     1
 74
     3
 75
     0
 76
     0
 77
     0
 78
     0
281
     0
 65
     1
110
0.0
120
0.0
130
0.0
111
1.0
121
0.0
131
0.0
112
0.0
122
1.0
132
0.0
 79
     0
146
0.0
  0
ENDTAB
  0
TABLE
  2
LTYPE
  5
5
330
0
100
AcDbSymbolTable
 70
     2
  0
LTYPE
  5
14
330
5
100
AcDbSymbolTableRecord
100
AcDbLinetypeTableRecord
  2
ByBlock
 70
     0
  3

 72
    65
 73
     0
 40
0.0
  0
LTYPE
  5
15
330
5
100
AcDbSymbolTableRecord
100
AcDbLinetypeTableRecord
  2
ByLayer
 70
     0
  3

 72
    65
 73
     0
 40
0.0
  0
LTYPE
  5
16
330
5
100
AcDbSymbolTableRecord
100
AcDbLinetypeTableRecord
  2
Continuous
 70
     0
  3
Solid line
 72
    65
 73
     0
 40
0.0
  0
LTYPE
  5
BF
330
5
100
AcDbSymbolTableRecord
100
AcDbLinetypeTableRecord
  2
CENTER2
 70
     0
  3
Center (.5x) ___ _ ___ _ ___ _ ___ _ ___ _ ___
 72
    65
 73
     4
 40
28.575
 49
19.05
 74
     4
 75
     0
340
0
 46
0.0
 50
0.0
 44
0.0
 45
0.0
 49
-3.175
 74
     4
 75
     0
340
0
 46
0.0
 50
0.0
 44
0.0
 45
0.0
 49
3.175
 74
     4
 75
     0
340
0
 46
0.0
 50
0.0
 44
0.0
 45
0.0
 49
-3.175
 74
     4
 75
     0
340
0
 46
0.0
 50
0.0
 44
0.0
 45
0.0
  0
ENDTAB
  0
TABLE
  2
LAYER
  5
2
330
0
100
AcDbSymbolTable
 70
    18
  0
LAYER
  5
10
330
2
100
AcDbSymbolTableRecord
100
AcDbLayerTableRecord
  2
0
 70
     0
 62
     7
  6
Continuous
370
    -3
390
F
  0
LAYER
  5
5D
330
2
100
AcDbSymbolTableRecord
100
AcDbLayerTableRecord
  2
Default
 70
     0
 62
     7
  6
Continuous
370
    -3
390
F
  0
LAYER
  5
60
330
2
100
AcDbSymbolTableRecord
100
AcDbLayerTableRecord
  2
410308038_LEVER_
 70
     0
 62
     7
  6
Continuous
370
    -3
390
F
  0
LAYER
  5
64
330
2
100
AcDbSymbolTableRecord
100
AcDbLayerTableRecord
  2
410317038_HANDLE
 70
     0
 62
     7
  6
Continuous
370
    -3
390
F
  0
LAYER
  5
66
330
2
100
AcDbSymbolTableRecord
100
AcDbLayerTableRecord
  2
410250038_BUTTON
 70
     0
 62
     7
  6
Continuous
370
    -3
390
F
  0
LAYER
  5
6C
330
2
100
AcDbSymbolTableRecord
100
AcDbLayerTableRecord
  2
410005038_HANDLE
 70
     0
 62
     7
  6
Continuous
370
    -3
390
F
  0
LAYER
  5
70
330
2
100
AcDbSymbolTableRecord
100
AcDbLayerTableRecord
  2
410307038_LEVER_
 70
     0
 62
     7
  6
Continuous
370
    -3
390
F
  0
LAYER
  5
7A
330
2
100
AcDbSymbolTableRecord
100
AcDbLayerTableRecord
  2
02080010_M4X55_S
 70
     0
 62
     7
  6
Continuous
370
    -3
390
F
  0
LAYER
  5
A4
330
2
100
AcDbSymbolTableRecord
100
AcDbLayerTableRecord
  2
12080006_MP_HE_P
 70
     0
 62
     7
  6
Continuous
370
    -3
390
F
  0
LAYER
  5
A6
330
2
100
AcDbSymbolTableRecord
100
AcDbLayerTableRecord
  2
410373040_ESCUTC
 70
     0
 62
     7
  6
Continuous
370
    -3
390
F
  0
LAYER
  5
BE
330
2
100
AcDbSymbolTableRecord
100
AcDbLayerTableRecord
  2
DV1_Standard
 70
     0
 62
     7
  6
Continuous
370
    -3
390
F
  0
LAYER
  5
CA
330
2
100
AcDbSymbolTableRecord
100
AcDbLayerTableRecord
  2
410064038_SLEEVE
 70
     0
 62
     7
  6
Continuous
370
    -3
390
F
  0
LAYER
  5
CD
330
2
100
AcDbSymbolTableRecord
100
AcDbLayerTableRecord
  2
410306038_DIVERT
 70
     0
 62
     7
  6
Continuous
370
    -3
390
F
  0
LAYER
  5
FC
330
2
100
AcDbSymbolTableRecord
100
AcDbLayerTableRecord
  2
410310038_RING_K
 70
     0
 62
     7
  6
Continuous
370
    -3
390
F
  0
LAYER
  5
11F
330
2
100
AcDbSymbolTableRecord
100
AcDbLayerTableRecord
  2
410006038_DECORA
 70
     0
 62
     7
  6
Continuous
370
    -3
390
F
  0
LAYER
  5
144
330
2
100
AcDbSymbolTableRecord
100
AcDbLayerTableRecord
  2
410228031_BEARIN
 70
     0
 62
     7
  6
Continuous
370
    -3
390
F
  0
LAYER
  5
148
330
2
100
AcDbSymbolTableRecord
100
AcDbLayerTableRecord
  2
DV2_Standard
 70
     0
 62
     7
  6
Continuous
370
    -3
390
F
  0
LAYER
  5
1AE
330
2
100
AcDbSymbolTableRecord
100
AcDbLayerTableRecord
  2
DV3_Standard
 70
     0
 62
     7
  6
Continuous
370
    -3
390
F
  0
ENDTAB
  0
TABLE
  2
STYLE
  5
3
330
0
100
AcDbSymbolTable
 70
     2
  0
STYLE
  5
11
330
3
100
AcDbSymbolTableRecord
100
AcDbTextStyleTableRecord
  2
Standard
 70
     0
 40
0.0
 41
1.0
 50
0.0
 71
     0
 42
2.5
  3
txt
  4

  0
STYLE
  5
1B3
330
3
100
AcDbSymbolTableRecord
100
AcDbTextStyleTableRecord
  2
SEACAD_seiso_ttf
 70
     0
 40
0.0
 41
1.0
 50
0.0
 71
     0
 42
0.2
  3
seiso.ttf
  4

  0
ENDTAB
  0
TABLE
  2
VIEW
  5
6
330
0
100
AcDbSymbolTable
 70
     0
  0
ENDTAB
  0
TABLE
  2
UCS
  5
7
330
0
100
AcDbSymbolTable
 70
     0
  0
ENDTAB
  0
TABLE
  2
APPID
  5
9
330
0
100
AcDbSymbolTable
 70
     1
  0
APPID
  5
12
330
9
100
AcDbSymbolTableRecord
100
AcDbRegAppTableRecord
  2
ACAD
 70
     0
  0
ENDTAB
  0
TABLE
  2
DIMSTYLE
  5
A
330
0
100
AcDbSymbolTable
 70
     1
100
AcDbDimStyleTable
  0
DIMSTYLE
105
27
330
A
100
AcDbSymbolTableRecord
100
AcDbDimStyleTableRecord
  2
ISO-25
 70
     0
 41
2.5
 42
0.625
 43
3.75
 44
1.25
 73
     0
 74
     0
 77
     1
 78
     8
140
2.5
141
2.5
143
0.0393700787
147
0.625
171
     3
172
     1
271
     2
272
     2
274
     3
278
    44
283
     0
284
     8
340
11
  0
ENDTAB
  0
TABLE
  2
BLOCK_RECORD
  5
1
330
0
100
AcDbSymbolTable
 70
     4
  0
BLOCK_RECORD
  5
1F
330
1
100
AcDbSymbolTableRecord
100
AcDbBlockTableRecord
  2
*Model_Space
340
22
  0
BLOCK_RECORD
  5
1B
330
1
100
AcDbSymbolTableRecord
100
AcDbBlockTableRecord
  2
*Paper_Space
340
1E
  0
BLOCK_RECORD
  5
5E
330
1
100
AcDbSymbolTableRecord
100
AcDbBlockTableRecord
  2
SE
340
0
102
{BLKREFS
331
5F
102
}
  0
BLOCK_RECORD
  5
C8
330
1
100
AcDbSymbolTableRecord
100
AcDbBlockTableRecord
  2
SE1
340
0
102
{BLKREFS
331
C9
102
}
  0
BLOCK_RECORD
  5
14D
330
1
100
AcDbSymbolTableRecord
100
AcDbBlockTableRecord
  2
SE2
340
0
102
{BLKREFS
331
14E
102
}
  0
ENDTAB
  0
ENDSEC
  0
SECTION
  2
BLOCKS
  0
BLOCK
  5
20
330
1F
100
AcDbEntity
  8
0
100
AcDbBlockBegin
  2
*Model_Space
 70
     0
 10
0.0
 20
0.0
 30
0.0
  3
*Model_Space
  1

  0
ENDBLK
  5
21
330
1F
100
AcDbEntity
  8
0
100
AcDbBlockEnd
  0
BLOCK
  5
1C
330
1B
100
AcDbEntity
 67
     1
  8
0
100
AcDbBlockBegin
  2
*Paper_Space
 70
     0
 10
0.0
 20
0.0
 30
0.0
  3
*Paper_Space
  1

  0
ENDBLK
  5
1D
330
1B
100
AcDbEntity
 67
     1
  8
0
100
AcDbBlockEnd
  0
BLOCK
  5
C6
330
5E
100
AcDbEntity
  8
0
100
AcDbBlockBegin
  2
SE
 70
     0
 10
0.0
 20
0.0
 30
0.0
  3
SE
  1

  0
ARC
  5
61
330
5E
100
AcDbEntity
  8
410308038_LEVER_
  6
Continuous
 62
     7
100
AcDbCircle
 10
101.149995
 20
319.1140349975
 30
0.0
 40
10.0000000000001
100
AcDbArc
 50
165.0939506482
 51
14.9060493518
  0
SPLINE
  5
62
330
5E
100
AcDbEntity
  8
410308038_LEVER_
  6
Continuous
 62
     7
100
AcDbSpline
210
0.0
220
0.0
230
1.0
 70
     8
 71
     3
 72
    10
 73
     6
 74
     0
 42
0.00000000021383
 43
0.0000000001
 40
0.5656139194616346
 40
0.5656139194616346
 40
0.5656139194616346
 40
0.5656139194616346
 40
0.7022654831716424
 40
0.8512678262182931
 40
1.0
 40
1.0
 40
1.0
 40
1.0
 10
95.25782184821735
 20
341.6234978328261
 30
0.0
 10
95.02284544108373
 20
339.5110556614556
 30
0.0
 10
94.42282467205746
 20
335.11962692519
 30
0.0
 10
93.1540402306843
 20
328.3310450843177
 30
0.0
 10
92.11293532718082
 20
324.1575878258828
 30
0.0
 10
91.48650574429784
 20
321.6863832253134
 30
0.0
  0
SPLINE
  5
63
330
5E
100
AcDbEntity
  8
410308038_LEVER_
  6
Continuous
 62
     7
100
AcDbSpline
210
0.0
220
0.0
230
1.0
 70
     8
 71
     3
 72
    11
 73
     7
 74
     0
 42
0.0000000002138611
 43
0.0000000001
 40
0.0
 40
0.0
 40
0.0
 40
0.0
 40
0.141972523610112
 40
0.2842036118411354
 40
0.4264460916202629
 40
0.4330787932456616
 40
0.4330787932456616
 40
0.4330787932456616
 40
0.4330787932456616
 10
110.8134842557028
 20
321.6863832253134
 30
0.0
 10
110.2142998148279
 20
324.0448268120979
 30
0.0
 10
109.217725375179
 20
328.0275639027836
 30
0.0
 10
107.9488860625933
 20
334.6868588067301
 30
0.0
 10
107.3208279292091
 20
339.1549909892407
 30
0.0
 10
107.0607511226425
 20
341.4575204080019
 30
0.0
 10
107.0492859497172
 20
341.5601353919442
 30
0.0
  0
ARC
  5
65
330
5E
100
AcDbEntity
  8
410317038_HANDLE
  6
Continuous
 62
     7
100
AcDbCircle
 10
101.1497029036
 20
408.9456683587
 30
0.0
 40
30.23143959785038
100
AcDbArc
 50
74.160312902
 51
105.8363017166
  0
ARC
  5
67
330
5E
100
AcDbEntity
  8
410250038_BUTTON
  6
Continuous
 62
     7
100
AcDbCircle
 10
101.149995
 20
403.7084857471
 30
0.0
 40
39.99999999999999
100
AcDbArc
 50
79.7745231662
 51
100.2254768338
  0
LINE
  5
68
330
5E
100
AcDbEntity
  8
410250038_BUTTON
  6
Continuous
 62
     7
100
AcDbLine
 10
93.349995
 20
442.2366572584
 30
0.0
 11
93.349995
 21
438.1009888116
 31
0.0
  0
LINE
  5
69
330
5E
100
AcDbEntity
  8
410250038_BUTTON
  6
Continuous
 62
     7
100
AcDbLine
 10
108.949995
 20
438.1008838798
 30
0.0
 11
108.949995
 21
442.2366572584
 31
0.0
  0
ARC
  5
6A
330
5E
100
AcDbEntity
  8
410250038_BUTTON
  6
Continuous
 62
     7
100
AcDbCircle
 10
108.099995
 20
442.2366572584
 30
0.0
 40
0.8500000000000001
100
AcDbArc
 50
0.0
 51
79.7745231662
  0
ARC
  5
6B
330
5E
100
AcDbEntity
  8
410250038_BUTTON
  6
Continuous
 62
     7
100
AcDbCircle
 10
94.199995
 20
442.2366572584
 30
0.0
 40
0.8499999999999973
100
AcDbArc
 50
100.2254768338
 51
180.0
  0
ARC
  5
6D
330
5E
100
AcDbEntity
  8
410005038_HANDLE
  6
Continuous
 62
     7
100
AcDbCircle
 10
101.156798606
 20
-289.118006578
 30
0.0
 40
683.5621545246566
100
AcDbArc
 50
89.5395902494
 51
90.4610706023
  0
ARC
  5
6E
330
5E
100
AcDbEntity
  8
410005038_HANDLE
  6
Continuous
 62
     7
100
AcDbCircle
 10
101.149995
 20
407.567847669
 30
0.0
 40
14.25
100
AcDbArc
 50
292.6354176222
 51
180.0
  0
ARC
  5
6F
330
5E
100
AcDbEntity
  8
410005038_HANDLE
  6
Continuous
 62
     7
100
AcDbCircle
 10
101.149995
 20
407.567847669
 30
0.0
 40
14.25
100
AcDbArc
 50
180.0
 51
247.3799926837
  0
LINE
  5
71
330
5E
100
AcDbEntity
  8
410307038_LEVER_
  6
Continuous
 62
     7
100
AcDbLine
 10
107.046439739
 20
386.217847669
 30
0.0
 11
95.253550261
 21
386.217847669
 31
0.0
  0
ARC
  5
72
330
5E
100
AcDbEntity
  8
410307038_LEVER_
  6
Continuous
 62
     7
100
AcDbCircle
 10
-4.6319693926
 20
374.6213183228
 30
0.0
 40
100.0
100
AcDbArc
 50
346.0429344828
 51
6.3391368539
  0
ARC
  5
73
330
5E
100
AcDbEntity
  8
410307038_LEVER_
  6
Continuous
 62
     7
100
AcDbCircle
 10
206.9319593926
 20
374.6213183228
 30
0.0
 40
100.0
100
AcDbArc
 50
173.6608631461
 51
193.9570655172
  0
ARC
  5
74
330
5E
100
AcDbEntity
  8
410307038_LEVER_
  6
Continuous
 62
     7
100
AcDbCircle
 10
101.149995
 20
348.3310918263
 30
0.0
 40
8.999999999999988
100
AcDbArc
 50
166.0429344828
 51
180.0
  0
ARC
  5
75
330
5E
100
AcDbEntity
  8
410307038_LEVER_
  6
Continuous
 62
     7
100
AcDbCircle
 10
101.149995
 20
348.3310918263
 30
0.0
 40
9.0
100
AcDbArc
 50
180.0
 51
13.9570655172
  0
ARC
  5
76
330
5E
100
AcDbEntity
  8
410307038_LEVER_
  6
Continuous
 62
     7
100
AcDbCircle
 10
107.046439739
 20
385.717847669
 30
0.0
 40
0.4999999999999974
100
AcDbArc
 50
353.6608631461
 51
90.0
  0
ARC
  5
77
330
5E
100
AcDbEntity
  8
410307038_LEVER_
  6
Continuous
 62
     7
100
AcDbCircle
 10
95.253550261
 20
385.717847669
 30
0.0
 40
0.4999999999999935
100
AcDbArc
 50
90.0
 51
186.3391368539
  0
LINE
  5
78
330
5E
100
AcDbEntity
  8
410307038_LEVER_
  6
Continuous
 62
     7
100
AcDbLine
 10
106.499995
 20
386.217847669
 30
0.0
 11
106.499995
 21
394.4252294448
 31
0.0
  0
LINE
  5
79
330
5E
100
AcDbEntity
  8
410307038_LEVER_
  6
Continuous
 62
     7
100
AcDbLine
 10
95.799995
 20
394.4252118397
 30
0.0
 11
95.799995
 21
386.217847669
 31
0.0
  0
ARC
  5
7B
330
5E
100
AcDbEntity
  8
02080010_M4X55_S
  6
Continuous
 62
     7
100
AcDbCircle
 10
60.149995
 20
407.567847669
 30
0.0
 40
2.359581272915712
100
AcDbArc
 50
258.9029606255
 51
281.0970393745
  0
ARC
  5
7C
330
5E
100
AcDbEntity
  8
02080010_M4X55_S
  6
Continuous
 62
     7
100
AcDbCircle
 10
60.149995
 20
407.567847669
 30
0.0
 40
2.359581272915713
100
AcDbArc
 50
78.9029606255
 51
101.0970393745
  0
ELLIPSE
  5
7D
330
5E
100
AcDbEntity
  8
02080010_M4X55_S
  6
Continuous
 62
     7
100
AcDbEllipse
 10
60.1622274914
 20
407.567847669
 30
0.0
 11
0.0
 21
1.543768918886905
 31
0.0
210
0.0
220
0.0
230
1.0
 40
1.0
 41
-0.3084064732198708
 42
-0.1885875889197408
  0
ELLIPSE
  5
7E
330
5E
100
AcDbEntity
  8
02080010_M4X55_S
  6
Continuous
 62
     7
100
AcDbEllipse
 10
60.6438408032
 20
407.7724052984
 30
0.0
 11
-2.123224080482946
 21
5.125916371061122
 31
0.0
210
0.0
220
0.0
230
1.0
 40
0.0871557427
 41
-1.494819759408575
 42
-1.357409741810683
  0
ELLIPSE
  5
7F
330
5E
100
AcDbEntity
  8
02080010_M4X55_S
  6
Continuous
 62
     7
100
AcDbEllipse
 10
60.3545526294
 20
408.0616934722
 30
0.0
 11
5.125916371060502
 21
-2.123224080482681
 31
0.0
210
0.0
220
0.0
230
1.0
 40
0.0871557427
 41
1.357409741811054
 42
1.494819759408776
  0
ELLIPSE
  5
80
330
5E
100
AcDbEntity
  8
02080010_M4X55_S
  6
Continuous
 62
     7
100
AcDbEllipse
 10
60.149995
 20
407.5800801603
 30
0.0
 11
5.574124406185342
 21
2.794078783987553E-12
 31
0.0
210
0.0
220
0.0
230
1.0
 40
0.0871557427
 41
1.142419358105013
 42
1.303747867340612
  0
ARC
  5
81
330
5E
100
AcDbEntity
  8
02080010_M4X55_S
  6
Continuous
 62
     7
100
AcDbCircle
 10
60.149995
 20
407.567847669
 30
0.0
 40
2.359581272915717
100
AcDbArc
 50
348.9029606255
 51
11.0970393745
  0
ELLIPSE
  5
82
330
5E
100
AcDbEntity
  8
02080010_M4X55_S
  6
Continuous
 62
     7
100
AcDbEllipse
 10
60.149995
 20
407.5556151776
 30
0.0
 11
5.574124406175087
 21
-2.246781997646344E-12
 31
0.0
210
0.0
220
0.0
230
1.0
 40
0.0871557427
 41
-1.303747867341282
 42
-1.142419358105442
  0
ELLIPSE
  5
83
330
5E
100
AcDbEntity
  8
02080010_M4X55_S
  6
Continuous
 62
     7
100
AcDbEllipse
 10
60.3545526294
 20
407.0740018657
 30
0.0
 11
5.125916371018079
 21
2.123224080466507
 31
0.0
210
0.0
220
0.0
230
0.9999999999999999
 40
0.0871557427
 41
-1.494819759410466
 42
-1.357409741811554
  0
ELLIPSE
  5
84
330
5E
100
AcDbEntity
  8
02080010_M4X55_S
  6
Continuous
 62
     7
100
AcDbEllipse
 10
60.6438408033
 20
407.3632900395
 30
0.0
 11
-2.12322408041906
 21
-5.125916370895716
 31
0.0
210
0.0
220
0.0
230
1.0
 40
0.0871557427
 41
1.357409741813292
 42
1.494819759415339
  0
ELLIPSE
  5
85
330
5E
100
AcDbEntity
  8
02080010_M4X55_S
  6
Continuous
 62
     7
100
AcDbEllipse
 10
60.1622274914
 20
407.567847669
 30
0.0
 11
1.415534356397075E-12
 21
-5.574124406156315
 31
0.0
210
0.0
220
0.0
230
1.0
 40
0.0871557427
 41
1.142419358105851
 42
1.303747867342291
  0
ELLIPSE
  5
86
330
5E
100
AcDbEntity
  8
02080010_M4X55_S
  6
Continuous
 62
     7
100
AcDbEllipse
 10
60.1377625086
 20
407.567847669
 30
0.0
 11
-2.518818487118324E-12
 21
-5.574124406184001
 31
0.0
210
0.0
220
0.0
230
1.0
 40
0.0871557427
 41
-1.30374786734061
 42
-1.142419358104963
  0
ELLIPSE
  5
87
330
5E
100
AcDbEntity
  8
02080010_M4X55_S
  6
Continuous
 62
     7
100
AcDbEllipse
 10
59.6561491968
 20
407.3632900396
 30
0.0
 11
2.12322408045857
 21
-5.125916370997517
 31
0.0
210
0.0
220
0.0
230
0.9999999999999999
 40
0.0871557427
 41
-1.494819759411288
 42
-1.357409741811836
  0
ELLIPSE
  5
88
330
5E
100
AcDbEntity
  8
02080010_M4X55_S
  6
Continuous
 62
     7
100
AcDbEllipse
 10
59.9454373705
 20
407.0740018657
 30
0.0
 11
-5.125916370953103
 21
2.123224080441132
 31
0.0
210
0.0
220
0.0
230
1.0
 40
0.0871557427
 41
1.357409741812495
 42
1.494819759412948
  0
ELLIPSE
  5
89
330
5E
100
AcDbEntity
  8
02080010_M4X55_S
  6
Continuous
 62
     7
100
AcDbEllipse
 10
60.149995
 20
407.5556151776
 30
0.0
 11
-5.574124406183538
 21
-2.711267760866290E-12
 31
0.0
210
0.0
220
0.0
230
1.0
 40
0.0871557427
 41
1.142419358105092
 42
1.303747867340763
  0
ARC
  5
8A
330
5E
100
AcDbEntity
  8
02080010_M4X55_S
  6
Continuous
 62
     7
100
AcDbCircle
 10
60.149995
 20
407.567847669
 30
0.0
 40
2.359581272915713
100
AcDbArc
 50
168.9029606255
 51
191.0970393745
  0
ELLIPSE
  5
8B
330
5E
100
AcDbEntity
  8
02080010_M4X55_S
  6
Continuous
 62
     7
100
AcDbEllipse
 10
60.149995
 20
407.5800801604
 30
0.0
 11
-5.574124406115572
 21
-7.135371666352336E-13
 31
0.0
210
0.0
220
0.0
230
1.0
 40
0.0871557427
 41
-1.303747867345228
 42
-1.142419358107857
  0
ELLIPSE
  5
8C
330
5E
100
AcDbEntity
  8
02080010_M4X55_S
  6
Continuous
 62
     7
100
AcDbEllipse
 10
59.9454373705
 20
408.0616934722
 30
0.0
 11
-5.125916370954845
 21
-2.123224080441972
 31
0.0
210
0.0
220
0.0
230
1.0
 40
0.0871557427
 41
-1.494819759413116
 42
-1.357409741812532
  0
ELLIPSE
  5
8D
330
5E
100
AcDbEntity
  8
02080010_M4X55_S
  6
Continuous
 62
     7
100
AcDbEllipse
 10
59.6561491968
 20
407.7724052984
 30
0.0
 11
2.123224080479887
 21
5.125916371053319
 31
0.0
210
0.0
220
0.0
230
0.9999999999999997
 40
0.0871557427
 41
1.357409741811035
 42
1.494819759409091
  0
ELLIPSE
  5
8E
330
5E
100
AcDbEntity
  8
02080010_M4X55_S
  6
Continuous
 62
     7
100
AcDbEllipse
 10
60.1377625086
 20
407.567847669
 30
0.0
 11
0.0
 21
2.357257433296517
 31
0.0
210
0.0
220
0.0
230
1.0
 40
1.0
 41
0.1885875889199216
 42
0.308406473220354
  0
CIRCLE
  5
8F
330
5E
100
AcDbEntity
  8
02080010_M4X55_S
  6
Continuous
 62
     7
100
AcDbCircle
 10
142.149995
 20
407.567847669
 30
0.0
 40
3.75
  0
ARC
  5
90
330
5E
100
AcDbEntity
  8
02080010_M4X55_S
  6
Continuous
 62
     7
100
AcDbCircle
 10
142.149995
 20
407.567847669
 30
0.0
 40
2.359581272915714
100
AcDbArc
 50
168.9029606255
 51
191.0970393745
  0
ARC
  5
91
330
5E
100
AcDbEntity
  8
02080010_M4X55_S
  6
Continuous
 62
     7
100
AcDbCircle
 10
142.149995
 20
407.567847669
 30
0.0
 40
2.359581272915718
100
AcDbArc
 50
348.9029606255
 51
11.0970393745
  0
ELLIPSE
  5
92
330
5E
100
AcDbEntity
  8
02080010_M4X55_S
  6
Continuous
 62
     7
100
AcDbEllipse
 10
142.149995
 20
407.5556151776
 30
0.0
 11
5.574124406144847
 21
-7.673000418633585E-13
 31
0.0
210
0.0
220
0.0
230
1.0
 40
0.0871557427
 41
-1.303747867343155
 42
-1.142419358106441
  0
ELLIPSE
  5
93
330
5E
100
AcDbEntity
  8
02080010_M4X55_S
  6
Continuous
 62
     7
100
AcDbEllipse
 10
142.3545526295
 20
407.0740018657
 30
0.0
 11
5.125916370944402
 21
2.123224080437893
 31
0.0
210
0.0
220
0.0
230
1.0
 40
0.0871557427
 41
-1.494819759413387
 42
-1.35740974181268
  0
ELLIPSE
  5
94
330
5E
100
AcDbEntity
  8
02080010_M4X55_S
  6
Continuous
 62
     7
100
AcDbEllipse
 10
142.6438408032
 20
407.3632900396
 30
0.0
 11
-2.123224080461638
 21
-5.125916371005767
 31
0.0
210
0.0
220
0.0
230
0.9999999999999999
 40
0.0871557427
 41
1.357409741811589
 42
1.49481975941084
  0
ELLIPSE
  5
95
330
5E
100
AcDbEntity
  8
02080010_M4X55_S
  6
Continuous
 62
     7
100
AcDbEllipse
 10
142.1622274914
 20
407.567847669
 30
0.0
 11
1.602884491802570E-12
 21
-5.574124406162895
 31
0.0
210
0.0
220
0.0
230
1.0
 40
0.0871557427
 41
1.142419358105995
 42
1.303747867342167
  0
ARC
  5
96
330
5E
100
AcDbEntity
  8
02080010_M4X55_S
  6
Continuous
 62
     7
100
AcDbCircle
 10
142.149995
 20
407.567847669
 30
0.0
 40
2.359581272915712
100
AcDbArc
 50
258.9029606255
 51
281.0970393745
  0
ELLIPSE
  5
97
330
5E
100
AcDbEntity
  8
02080010_M4X55_S
  6
Continuous
 62
     7
100
AcDbEllipse
 10
142.1377625086
 20
407.567847669
 30
0.0
 11
-9.714451465470120E-13
 21
-5.574124406154549
 31
0.0
210
0.0
220
0.0
230
1.0
 40
0.0871557427
 41
-1.303747867342751
 42
-1.142419358106387
  0
ELLIPSE
  5
98
330
5E
100
AcDbEntity
  8
02080010_M4X55_S
  6
Continuous
 62
     7
100
AcDbEllipse
 10
141.6561491968
 20
407.3632900396
 30
0.0
 11
2.123224080465828
 21
-5.12591637101672
 31
0.0
210
0.0
220
0.0
230
0.9999999999999998
 40
0.0871557427
 41
-1.494819759410471
 42
-1.357409741811553
  0
ELLIPSE
  5
99
330
5E
100
AcDbEntity
  8
02080010_M4X55_S
  6
Continuous
 62
     7
100
AcDbEllipse
 10
141.9454373705
 20
407.0740018658
 30
0.0
 11
-5.125916370948433
 21
2.123224080439435
 31
0.0
210
0.0
220
0.0
230
0.9999999999999999
 40
0.0871557427
 41
1.35740974181283
 42
1.494819759413387
  0
ELLIPSE
  5
9A
330
5E
100
AcDbEntity
  8
02080010_M4X55_S
  6
Continuous
 62
     7
100
AcDbEllipse
 10
142.149995
 20
407.5556151777
 30
0.0
 11
-5.574124406186563
 21
-2.929490553133310E-12
 31
0.0
210
0.0
220
0.0
230
1.0
 40
0.0871557427
 41
1.142419358105077
 42
1.303747867340612
  0
ELLIPSE
  5
9B
330
5E
100
AcDbEntity
  8
02080010_M4X55_S
  6
Continuous
 62
     7
100
AcDbEllipse
 10
142.149995
 20
407.5800801604
 30
0.0
 11
-5.574124406108841
 21
-1.065199835346801E-12
 31
0.0
210
0.0
220
0.0
230
1.0
 40
0.0871557427
 41
-1.303747867345624
 42
-1.142419358108066
  0
ELLIPSE
  5
9C
330
5E
100
AcDbEntity
  8
02080010_M4X55_S
  6
Continuous
 62
     7
100
AcDbEllipse
 10
141.9454373705
 20
408.0616934723
 30
0.0
 11
-5.125916370955109
 21
-2.123224080442247
 31
0.0
210
0.0
220
0.0
230
1.0
 40
0.0871557427
 41
-1.494819759413089
 42
-1.357409741812472
  0
ELLIPSE
  5
9D
330
5E
100
AcDbEntity
  8
02080010_M4X55_S
  6
Continuous
 62
     7
100
AcDbEllipse
 10
141.6561491968
 20
407.7724052984
 30
0.0
 11
2.123224080480004
 21
5.125916371053812
 31
0.0
210
0.0
220
0.0
230
1.0
 40
0.0871557427
 41
1.357409741810896
 42
1.494819759408964
  0
ELLIPSE
  5
9E
330
5E
100
AcDbEntity
  8
02080010_M4X55_S
  6
Continuous
 62
     7
100
AcDbEllipse
 10
142.1377625086
 20
407.567847669
 30
0.0
 11
0.0
 21
2.357257433292527
 31
0.0
210
0.0
220
0.0
230
1.0
 40
1.0
 41
0.1885875889197997
 42
0.3084064732204606
  0
ARC
  5
9F
330
5E
100
AcDbEntity
  8
02080010_M4X55_S
  6
Continuous
 62
     7
100
AcDbCircle
 10
142.149995
 20
407.567847669
 30
0.0
 40
2.359581272915715
100
AcDbArc
 50
78.9029606255
 51
101.0970393745
  0
ELLIPSE
  5
A0
330
5E
100
AcDbEntity
  8
02080010_M4X55_S
  6
Continuous
 62
     7
100
AcDbEllipse
 10
142.1622274914
 20
407.567847669
 30
0.0
 11
0.0
 21
1.543768918901115
 31
0.0
210
0.0
220
0.0
230
1.0
 40
1.0
 41
-0.3084064732191654
 42
-0.1885875889199982
  0
ELLIPSE
  5
A1
330
5E
100
AcDbEntity
  8
02080010_M4X55_S
  6
Continuous
 62
     7
100
AcDbEllipse
 10
142.6438408032
 20
407.7724052984
 30
0.0
 11
-2.123224080460874
 21
5.125916371003551
 31
0.0
210
0.0
220
0.0
230
1.0
 40
0.0871557427
 41
-1.494819759411056
 42
-1.357409741811831
  0
ELLIPSE
  5
A2
330
5E
100
AcDbEntity
  8
02080010_M4X55_S
  6
Continuous
 62
     7
100
AcDbEllipse
 10
142.3545526294
 20
408.0616934722
 30
0.0
 11
5.125916371062737
 21
-2.123224080483615
 31
0.0
210
0.0
220
0.0
230
1.0
 40
0.0871557427
 41
1.357409741810969
 42
1.494819759408673
  0
ELLIPSE
  5
A3
330
5E
100
AcDbEntity
  8
02080010_M4X55_S
  6
Continuous
 62
     7
100
AcDbEllipse
 10
142.149995
 20
407.5800801604
 30
0.0
 11
5.574124406185307
 21
2.792300014798320E-12
 31
0.0
210
0.0
220
0.0
230
1.0
 40
0.0871557427
 41
1.142419358104982
 42
1.30374786734059
  0
CIRCLE
  5
A5
330
5E
100
AcDbEntity
  8
12080006_MP_HE_P
  6
Continuous
 62
     7
100
AcDbCircle
 10
101.149995
 20
407.567847669
 30
0.0
 40
8.949999999999989
  0
SPLINE
  5
A7
330
5E
100
AcDbEntity
  8
410373040_ESCUTC
  6
Continuous
 62
     7
100
AcDbSpline
210
0.0
220
0.0
230
1.0
 70
     8
 71
     3
 72
    20
 73
    16
 74
     0
 42
0.000000000162968
 43
0.0000000001
 40
0.0
 40
0.0
 40
0.0
 40
0.0
 40
0.0624999999999998
 40
0.0624999999999998
 40
0.1249999999999997
 40
0.1249999999999997
 40
0.1562499999999996
 40
0.1562499999999996
 40
0.1874999999999995
 40
0.1874999999999995
 40
0.2499999999999994
 40
0.2499999999999994
 40
0.4999999999999996
 40
0.4999999999999996
 40
1.0
 40
1.0
 40
1.0
 40
1.0
 10
23.54348391695155
 20
351.5249432412753
 30
0.0
 10
22.28969882400724
 20
351.7606114315277
 30
0.0
 10
21.06653753908977
 20
352.2471767344379
 30
0.0
 10
18.92813239844686
 20
353.6167996921217
 30
0.0
 10
17.98406211269557
 20
354.5149845646233
 30
0.0
 10
16.87767878643676
 20
356.0678635428739
 30
0.0
 10
16.56047858496541
 20
356.6165508974193
 30
0.0
 10
16.0303407666357
 20
357.7766944100134
 30
0.0
 10
15.80529915532657
 20
358.3809475670574
 30
0.0
 10
15.10037401895327
 20
360.1715031946654
 30
0.0
 10
14.64795953575453
 20
361.3714607930078
 30
0.0
 10
12.4734278227242
 20
367.4024699231527
 30
0.0
 10
11.01377499894818
 20
372.334186652486
 30
0.0
 10
7.526552002735124
 20
387.209083562599
 30
0.0
 10
6.350003874912233
 20
397.2994396453788
 30
0.0
 10
6.350003874859151
 20
407.567847669686
 30
0.0
  0
SPLINE
  5
A8
330
5E
100
AcDbEntity
  8
410373040_ESCUTC
  6
Continuous
 62
     7
100
AcDbSpline
210
0.0
220
0.0
230
1.0
 70
     8
 71
     3
 72
    28
 73
    24
 74
     0
 42
0.0000000001250434
 43
0.0000000001
 40
0.0841366790913837
 40
0.0841366790913837
 40
0.0841366790913837
 40
0.0841366790913837
 40
0.5000000000000003
 40
0.5000000000000003
 40
0.5625000000000004
 40
0.5625000000000004
 40
0.5937500000000006
 40
0.5937500000000006
 40
0.6250000000000006
 40
0.6250000000000006
 40
0.6562500000000006
 40
0.6562500000000006
 40
0.6875000000000006
 40
0.6875000000000006
 40
0.7500000000000004
 40
0.7500000000000004
 40
0.8750000000000004
 40
0.8750000000000004
 40
0.9375000000000004
 40
0.9375000000000004
 40
0.9687500000000002
 40
0.9687500000000002
 40
1.0
 40
1.0
 40
1.0
 40
1.0
 10
94.425303655882
 20
335.4816197643527
 30
0.0
 10
83.37879926707073
 20
335.8554259733681
 30
0.0
 10
72.49455238406303
 20
337.1481875734898
 30
0.0
 10
60.15465208822366
 20
339.655432541183
 30
0.0
 10
58.54597289386711
 20
340.0032662540791
 30
0.0
 10
56.13838099970644
 20
340.5557565727651
 30
0.0
 10
55.33654807091405
 20
340.7438267400344
 30
0.0
 10
53.73500944944779
 20
341.1321399028819
 30
0.0
 10
52.93304787226794
 20
341.3197188475118
 30
0.0
 10
51.37608170785472
 20
341.965318235964
 30
0.0
 10
50.61641183097902
 20
342.396071304853
 30
0.0
 10
49.078187409035
 20
343.1486284154165
 30
0.0
 10
48.30767808250513
 20
343.5167352172278
 30
0.0
 10
45.990034059189
 20
344.5854560319699
 30
0.0
 10
44.43889794524941
 20
345.2523437505803
 30
0.0
 10
39.75027443132082
 20
347.1363981559556
 30
0.0
 10
36.57578683261385
 20
348.2348045758337
 30
0.0
 10
31.741113104094
 20
349.6465819282364
 30
0.0
 10
30.11742408812012
 20
350.0779503652619
 30
0.0
 10
27.66357637274033
 20
350.6657888766917
 30
0.0
 10
26.8422144988764
 20
350.8519276882471
 30
0.0
 10
25.19580663574116
 20
351.203746745026
 30
0.0
 10
24.3499426845644
 20
351.3733569133265
 30
0.0
 10
23.54348391695155
 20
351.5249432412753
 30
0.0
  0
SPLINE
  5
A9
330
5E
100
AcDbEntity
  8
410373040_ESCUTC
  6
Continuous
 62
     7
100
AcDbSpline
210
0.0
220
0.0
230
1.0
 70
     8
 71
     3
 72
    24
 73
    20
 74
     0
 42
0.0000000001250944
 43
0.0000000001
 40
0.0
 40
0.0
 40
0.0
 40
0.0
 40
0.2500000000000003
 40
0.2500000000000003
 40
0.3125000000000004
 40
0.3125000000000004
 40
0.3437500000000004
 40
0.3437500000000004
 40
0.3750000000000005
 40
0.3750000000000005
 40
0.4062500000000006
 40
0.4062500000000006
 40
0.4375000000000006
 40
0.4375000000000006
 40
0.5000000000000007
 40
0.5000000000000007
 40
0.7500000000000003
 40
0.7500000000000003
 40
0.9160345134723846
 40
0.9160345134723846
 40
0.9160345134723846
 40
0.9160345134723846
 10
178.756513832767
 20
351.5249432412754
 30
0.0
 10
172.2592412537947
 20
350.3036809381267
 30
0.0
 10
165.8930486327758
 20
348.457389132007
 30
0.0
 10
158.1745755427956
 20
345.3832739116176
 30
0.0
 10
156.6420924098709
 20
344.7304027791417
 30
0.0
 10
154.3614526532894
 20
343.6897594506656
 30
0.0
 10
153.6044594275072
 20
343.3319633572
 30
0.0
 10
152.0953430235017
 20
342.5997938332231
 30
0.0
 10
151.3510999241816
 20
342.19914719014
 30
0.0
 10
149.8367236772153
 20
341.4836894585113
 30
0.0
 10
149.0414099066755
 20
341.2533875241628
 30
0.0
 10
147.4327474506605
 20
340.8543845382865
 30
0.0
 10
146.6254441613323
 20
340.6648252996193
 30
0.0
 10
144.2015485428402
 20
340.1024457109159
 30
0.0
 10
142.5794657762451
 20
339.747783931309
 30
0.0
 10
134.4384250757663
 20
338.0752999907106
 30
0.0
 10
127.8049365081628
 20
337.0598963243108
 30
0.0
 10
116.7468718608397
 20
335.9360724233244
 30
0.0
 10
112.3227309568472
 20
335.6350205467373
 30
0.0
 10
107.8874576379984
 20
335.4832746295417
 30
0.0
  0
SPLINE
  5
AA
330
5E
100
AcDbEntity
  8
410373040_ESCUTC
  6
Continuous
 62
     7
100
AcDbSpline
210
0.0
220
0.0
230
1.0
 70
     8
 71
     3
 72
    20
 73
    16
 74
     0
 42
0.0000000001629674
 43
0.0000000001
 40
0.0
 40
0.0
 40
0.0
 40
0.0
 40
0.5000000000000007
 40
0.5000000000000007
 40
0.7500000000000012
 40
0.7500000000000012
 40
0.8125000000000014
 40
0.8125000000000014
 40
0.8437500000000013
 40
0.8437500000000013
 40
0.8750000000000013
 40
0.8750000000000013
 40
0.9375000000000007
 40
0.9375000000000007
 40
1.0
 40
1.0
 40
1.0
 40
1.0
 10
195.9499938748593
 20
407.567847668316
 30
0.0
 10
195.9499938748062
 20
397.2757895380759
 30
0.0
 10
194.7681538309466
 20
387.1852719562521
 30
0.0
 10
191.287605232792
 20
372.3407033827868
 30
0.0
 10
189.8372013911313
 20
367.4339996752038
 30
0.0
 10
187.6569436896104
 20
361.3845595157389
 30
0.0
 10
187.2034019606683
 20
360.1812956982664
 30
0.0
 10
186.4968576124432
 20
358.386334673848
 30
0.0
 10
186.2712941696524
 20
357.7806979729878
 30
0.0
 10
185.7401501493194
 20
356.6175127494869
 30
0.0
 10
185.4222308687619
 20
356.0675572354252
 30
0.0
 10
184.3132108921923
 20
354.5115262530667
 30
0.0
 10
183.3725814721356
 20
353.6160028124888
 30
0.0
 10
181.2187640158186
 20
352.2390277219038
 30
0.0
 10
180.0013814213791
 20
351.7589352494457
 30
0.0
 10
178.756513832767
 20
351.5249432412754
 30
0.0
  0
SPLINE
  5
AB
330
5E
100
AcDbEntity
  8
410373040_ESCUTC
  6
Continuous
 62
     7
100
AcDbSpline
210
0.0
220
0.0
230
1.0
 70
     8
 71
     3
 72
    20
 73
    16
 74
     0
 42
0.000000000162968
 43
0.0000000001
 40
0.0
 40
0.0
 40
0.0
 40
0.0
 40
0.0625
 40
0.0625
 40
0.1249999999999999
 40
0.1249999999999999
 40
0.1562499999999998
 40
0.1562499999999998
 40
0.1874999999999998
 40
0.1874999999999998
 40
0.2499999999999996
 40
0.2499999999999996
 40
0.4999999999999998
 40
0.4999999999999998
 40
1.0
 40
1.0
 40
1.0
 40
1.0
 10
178.756513832767
 20
463.6107520967267
 30
0.0
 10
180.0102989253024
 20
463.3750839065513
 30
0.0
 10
181.2334602095214
 20
462.8885186039827
 30
0.0
 10
183.3718653491319
 20
461.5188956475415
 30
0.0
 10
184.3159356353086
 20
460.6207107749887
 30
0.0
 10
185.4223189609752
 20
459.0678317987638
 30
0.0
 10
185.7395191625594
 20
458.5191444446714
 30
0.0
 10
186.2696569814197
 20
457.3590009323403
 30
0.0
 10
186.4946985927645
 20
456.7547477750226
 30
0.0
 10
187.1996237293516
 20
454.9641921470399
 30
0.0
 10
187.6520382126956
 20
453.764234548418
 30
0.0
 10
189.8265699264547
 20
447.7332254167235
 30
0.0
 10
191.2862227502337
 20
442.8015086874309
 30
0.0
 10
194.773445746533
 20
427.9266117780726
 30
0.0
 10
195.9499938748063
 20
417.8362556945951
 30
0.0
 10
195.9499938748593
 20
407.567847668316
 30
0.0
  0
SPLINE
  5
AC
330
5E
100
AcDbEntity
  8
410373040_ESCUTC
  6
Continuous
 62
     7
100
AcDbSpline
210
0.0
220
0.0
230
1.0
 70
     8
 71
     3
 72
    28
 73
    24
 74
     0
 42
0.0000000001250032
 43
0.0000000001
 40
0.0
 40
0.0
 40
0.0
 40
0.0
 40
0.4999999999999981
 40
0.4999999999999981
 40
0.5624999999999981
 40
0.5624999999999981
 40
0.5937499999999983
 40
0.5937499999999983
 40
0.6249999999999986
 40
0.6249999999999986
 40
0.6562499999999988
 40
0.6562499999999988
 40
0.687499999999999
 40
0.687499999999999
 40
0.7499999999999991
 40
0.7499999999999991
 40
0.8749999999999996
 40
0.8749999999999996
 40
0.9374999999999998
 40
0.9374999999999998
 40
0.9687499999999999
 40
0.9687499999999999
 40
1.0
 40
1.0
 40
1.0
 40
1.0
 10
101.1499988750134
 20
479.7678476763114
 30
0.0
 10
114.5106279486503
 20
479.7670642920555
 30
0.0
 10
127.6350485431951
 20
478.4284932165527
 30
0.0
 10
142.1453456604207
 20
475.4802627970467
 30
0.0
 10
143.7540248547723
 20
475.1324290841611
 30
0.0
 10
146.1616167489325
 20
474.5799387654895
 30
0.0
 10
146.9634496777259
 20
474.3918685982206
 30
0.0
 10
148.5649882991967
 20
474.0035554353893
 30
0.0
 10
149.3669498763818
 20
473.8159764908265
 30
0.0
 10
150.9239160407846
 20
473.1703771025926
 30
0.0
 10
151.6835859176351
 20
472.739624033698
 30
0.0
 10
153.2218103395453
 20
471.9870669231339
 30
0.0
 10
153.9923196660606
 20
471.618960121318
 30
0.0
 10
156.3099636893423
 20
470.5502393065552
 30
0.0
 10
157.8610998032693
 20
469.8833515879268
 30
0.0
 10
162.5497233171784
 20
467.9992971824909
 30
0.0
 10
165.7242109159617
 20
466.9008907625362
 30
0.0
 10
170.5588846447552
 20
465.4891134100025
 30
0.0
 10
172.1825736608469
 20
465.0577449729307
 30
0.0
 10
174.6364213764475
 20
464.4699064614323
 30
0.0
 10
175.4577832503944
 20
464.2837676498536
 30
0.0
 10
177.1041911137382
 20
463.9319485930242
 30
0.0
 10
177.9500550650209
 20
463.7623384247006
 30
0.0
 10
178.756513832767
 20
463.6107520967267
 30
0.0
  0
SPLINE
  5
AD
330
5E
100
AcDbEntity
  8
410373040_ESCUTC
  6
Continuous
 62
     7
100
AcDbSpline
210
0.0
220
0.0
230
1.0
 70
     8
 71
     3
 72
    24
 73
    20
 74
     0
 42
0.0000000001250433
 43
0.0000000001
 40
0.0
 40
0.0
 40
0.0
 40
0.0
 40
0.2500000000000012
 40
0.2500000000000012
 40
0.3125000000000012
 40
0.3125000000000012
 40
0.3437500000000012
 40
0.3437500000000012
 40
0.3750000000000011
 40
0.3750000000000011
 40
0.406250000000001
 40
0.406250000000001
 40
0.4375000000000009
 40
0.4375000000000009
 40
0.5000000000000008
 40
0.5000000000000008
 40
0.7500000000000003
 40
0.7500000000000003
 40
1.0
 40
1.0
 40
1.0
 40
1.0
 10
23.54348391695153
 20
463.6107520967267
 30
0.0
 10
30.04075649718617
 20
464.8320144001127
 30
0.0
 10
36.40694911864595
 20
466.6783062065358
 30
0.0
 10
44.12542220880766
 20
469.7524214271697
 30
0.0
 10
45.65790534174531
 20
470.4052925596876
 30
0.0
 10
47.93854509831119
 20
471.4459358882145
 30
0.0
 10
48.69553832408222
 20
471.8037319816949
 30
0.0
 10
50.20465472805644
 20
472.5359015056865
 30
0.0
 10
50.94889782733377
 20
472.9365481488732
 30
0.0
 10
52.46327407431264
 20
473.6520058801835
 30
0.0
 10
53.25858784488106
 20
473.8823078143154
 30
0.0
 10
54.86725030092396
 20
474.2813108001582
 30
0.0
 10
55.67455359026311
 20
474.4708700388267
 30
0.0
 10
58.0984492087792
 20
475.0332496275103
 30
0.0
 10
59.720531975379
 20
475.3879114071015
 30
0.0
 10
67.86157267582097
 20
477.0603953476086
 30
0.0
 10
74.49506124319088
 20
478.0757990139043
 30
0.0
 10
87.78490173575729
 20
479.42643683898
 30
0.0
 10
94.45475287692459
 20
479.7674551086954
 30
0.0
 10
101.1499988750134
 20
479.7678476763114
 30
0.0
  0
SPLINE
  5
AE
330
5E
100
AcDbEntity
  8
410373040_ESCUTC
  6
Continuous
 62
     7
100
AcDbSpline
210
0.0
220
0.0
230
1.0
 70
     8
 71
     3
 72
    20
 73
    16
 74
     0
 42
0.0000000001629674
 43
0.0000000001
 40
0.0
 40
0.0
 40
0.0
 40
0.0
 40
0.5000000000000006
 40
0.5000000000000006
 40
0.7500000000000007
 40
0.7500000000000007
 40
0.8125000000000004
 40
0.8125000000000004
 40
0.8437500000000001
 40
0.8437500000000001
 40
0.8749999999999999
 40
0.8749999999999999
 40
0.9374999999999999
 40
0.9374999999999999
 40
1.0
 40
1.0
 40
1.0
 40
1.0
 10
6.350003874859151
 20
407.567847669686
 30
0.0
 10
6.350003874912344
 20
417.8599057993254
 30
0.0
 10
7.531843918643643
 20
427.9504233808285
 30
0.0
 10
11.01239251660889
 20
442.7949919540477
 30
0.0
 10
12.46279635822774
 20
447.7016956616504
 30
0.0
 10
14.64305405964124
 20
453.7511358210054
 30
0.0
 10
15.0965957885609
 20
454.9543996384552
 30
0.0
 10
15.80314013675019
 20
456.7493606628384
 30
0.0
 10
16.02870357954743
 20
457.3549973636564
 30
0.0
 10
16.55984759972151
 20
458.5181825872529
 30
0.0
 10
16.87776688022753
 20
459.0681381014162
 30
0.0
 10
17.98678685680119
 20
460.6241690841933
 30
0.0
 10
18.92741627676499
 20
461.519692524864
 30
0.0
 10
21.08123373331411
 20
462.8966676158501
 30
0.0
 10
22.29861632823332
 20
463.3767600885365
 30
0.0
 10
23.54348391695153
 20
463.6107520967267
 30
0.0
  0
SPLINE
  5
AF
330
5E
100
AcDbEntity
  8
410373040_ESCUTC
  6
Continuous
 62
     7
100
AcDbSpline
210
0.0
220
0.0
230
1.0
 70
     8
 71
     3
 72
    44
 73
    40
 74
     0
 42
0.0000000000749367
 43
0.0000000001
 40
0.0452062310787649
 40
0.0452062310787649
 40
0.0452062310787649
 40
0.0452062310787649
 40
0.1249999999999993
 40
0.1249999999999993
 40
0.2499999999999987
 40
0.2499999999999987
 40
0.3124999999999983
 40
0.3124999999999983
 40
0.343749999999998
 40
0.343749999999998
 40
0.351562499999998
 40
0.351562499999998
 40
0.3593749999999981
 40
0.3593749999999981
 40
0.374999999999998
 40
0.374999999999998
 40
0.4999999999999973
 40
0.4999999999999973
 40
0.5624999999999972
 40
0.5624999999999972
 40
0.5781249999999973
 40
0.5781249999999973
 40
0.5937499999999974
 40
0.5937499999999974
 40
0.6249999999999974
 40
0.6249999999999974
 40
0.6328124999999976
 40
0.6328124999999976
 40
0.6406249999999976
 40
0.6406249999999976
 40
0.6562499999999978
 40
0.6562499999999978
 40
0.6874999999999981
 40
0.6874999999999981
 40
0.7499999999999986
 40
0.7499999999999986
 40
0.8749999999999992
 40
0.8749999999999992
 40
1.0
 40
1.0
 40
1.0
 40
1.0
 10
95.09208972798055
 20
340.4624208601297
 30
0.0
 10
91.53150499472115
 20
340.5748940150313
 30
0.0
 10
87.97767890213228
 20
340.7861189254503
 30
0.0
 10
78.87383371640959
 20
341.578722284613
 30
0.0
 10
73.32532353993489
 20
342.3038719691891
 30
0.0
 10
65.07761444553067
 20
343.7502967295555
 30
0.0
 10
62.33955937673633
 20
344.2922365350112
 30
0.0
 10
58.24928666436555
 20
345.1950441027313
 30
0.0
 10
56.88686011603971
 20
345.5090645024343
 30
0.0
 10
55.19326245285968
 20
345.9232097299831
 30
0.0
 10
54.85319957311127
 20
346.0026832589588
 30
0.0
 10
54.18798047564192
 20
346.1987099305044
 30
0.0
 10
53.87337157248418
 20
346.3415150917571
 30
0.0
 10
52.94636564699027
 20
346.8117582296149
 30
0.0
 10
52.32844276408823
 20
347.1254071863166
 30
0.0
 10
46.72674896308143
 20
349.8473063461141
 30
0.0
 10
41.58321826309693
 20
351.8807621228345
 30
0.0
 10
33.67860587159582
 20
354.3189479741006
 30
0.0
 10
31.01113673224383
 20
355.0308999272785
 30
0.0
 10
27.6509531962348
 20
355.7910289412762
 30
0.0
 10
26.97744478718008
 20
355.9366040889251
 30
0.0
 10
25.62747191195075
 20
356.2147993920177
 30
0.0
 10
24.94532569258005
 20
356.3232338837217
 30
0.0
 10
22.93144771100948
 20
356.7865825862284
 30
0.0
 10
21.7265761235691
 20
357.6756748685053
 30
0.0
 10
20.86743199103963
 20
359.1934686110314
 30
0.0
 10
20.7387739361058
 20
359.5174898694412
 30
0.0
 10
20.47905147370865
 20
360.1616847569647
 30
0.0
 10
20.35050345195742
 20
360.4843154634544
 30
0.0
 10
19.96879964749598
 20
361.4538076403661
 30
0.0
 10
19.71954160247846
 20
362.1023825762064
 30
0.0
 10
18.98785117187747
 20
364.0536845474005
 30
0.0
 10
18.5216800660367
 20
365.3614764115108
 30
0.0
 10
17.18782788899065
 20
369.3055581881311
 30
0.0
 10
16.38473913262245
 20
371.9625322599715
 30
0.0
 10
14.23474334549996
 20
380.0164841868552
 30
0.0
 10
13.15739577839548
 20
385.455183934497
 30
0.0
 10
11.71383673158627
 20
396.4505908456191
 30
0.0
 10
11.34960764307628
 20
402.0086872076448
 30
0.0
 10
11.34960764316936
 20
407.5678476689617
 30
0.0
  0
SPLINE
  5
B0
330
5E
100
AcDbEntity
  8
410373040_ESCUTC
  6
Continuous
 62
     7
100
AcDbSpline
210
0.0
220
0.0
230
1.0
 70
     8
 71
     3
 72
    30
 73
    26
 74
     0
 42
0.0000000000751278
 43
0.0000000001
 40
0.0
 40
0.0
 40
0.0
 40
0.0
 40
0.2499999999999897
 40
0.2499999999999897
 40
0.3124999999999872
 40
0.3124999999999872
 40
0.3437499999999859
 40
0.3437499999999859
 40
0.3593749999999852
 40
0.3593749999999852
 40
0.3671874999999849
 40
0.3671874999999849
 40
0.3749999999999846
 40
0.3749999999999846
 40
0.4062499999999842
 40
0.4062499999999842
 40
0.4140624999999842
 40
0.4140624999999842
 40
0.4218749999999841
 40
0.4218749999999841
 40
0.4374999999999843
 40
0.4374999999999843
 40
0.4999999999999857
 40
0.4999999999999857
 40
0.5960391107774492
 40
0.5960391107774492
 40
0.5960391107774492
 40
0.5960391107774492
 10
11.34960764316936
 20
407.5678476689617
 30
0.0
 10
11.34960765077812
 20
418.6323530715821
 30
0.0
 10
12.79521377579683
 20
429.6768444870951
 30
0.0
 10
16.33878856849473
 20
443.0130777939224
 30
0.0
 10
17.1332395947057
 20
445.6548113865198
 30
0.0
 10
18.45359311933455
 20
449.5791225266505
 30
0.0
 10
18.91517396273992
 20
450.8808396918763
 30
0.0
 10
19.63990202772234
 20
452.8237876121878
 30
0.0
 10
19.88682266506429
 20
453.4696904726786
 30
0.0
 10
20.26489385655253
 20
454.4350759050076
 30
0.0
 10
20.39221438261604
 20
454.7563334983244
 30
0.0
 10
20.64944803932871
 20
455.3977740001886
 30
0.0
 10
20.76898088241756
 20
455.7222287926839
 30
0.0
 10
21.54835986407454
 20
457.2696995261119
 30
0.0
 10
22.7104320751435
 20
458.2257311099722
 30
0.0
 10
24.37952424934181
 20
458.6933144624127
 30
0.0
 10
24.72202282999236
 20
458.7461085799717
 30
0.0
 10
25.40149107660963
 20
458.8777806141982
 30
0.0
 10
25.74088680191607
 20
458.9452620910046
 30
0.0
 10
26.75806144671544
 20
459.1526304453669
 30
0.0
 10
27.43495416028328
 20
459.2974698036222
 30
0.0
 10
30.81045567271562
 20
460.0538690829966
 30
0.0
 10
33.48309080583052
 20
460.7618406070574
 30
0.0
 10
40.19228750223722
 20
462.8180654066543
 30
0.0
 10
44.18748146178645
 20
464.3067752573789
 30
0.0
 10
48.10175216177612
 20
466.036180153657
 30
0.0
  0
SPLINE
  5
B1
330
5E
100
AcDbEntity
  8
410373040_ESCUTC
  6
Continuous
 62
     7
100
AcDbSpline
210
0.0
220
0.0
230
1.0
 70
     8
 71
     3
 72
    18
 73
    14
 74
     0
 42
0.0000000000746771
 43
0.0000000001
 40
0.5960391107774492
 40
0.5960391107774492
 40
0.5960391107774492
 40
0.5960391107774492
 40
0.6249999999999882
 40
0.6249999999999882
 40
0.6406249999999886
 40
0.6406249999999886
 40
0.6484374999999887
 40
0.6484374999999887
 40
0.6562499999999888
 40
0.6562499999999888
 40
0.6874999999999898
 40
0.6874999999999898
 40
0.7078177602907979
 40
0.7078177602907979
 40
0.7078177602907979
 40
0.7078177602907979
 10
48.10175216177612
 20
466.036180153657
 30
0.0
 10
49.2821125296694
 20
466.557687518902
 30
0.0
 10
50.45511420105318
 20
467.1010823093596
 30
0.0
 10
52.24914545457214
 20
467.9712445021431
 30
0.0
 10
52.87482811650643
 20
468.2852732103451
 30
0.0
 10
53.81096305746232
 20
468.763522534608
 30
0.0
 10
54.1260725764086
 20
468.9138318026117
 30
0.0
 10
54.78866863164316
 20
469.1180854615722
 30
0.0
 10
55.1280267736384
 20
469.1962294322333
 30
0.0
 10
56.81689814719942
 20
469.6106029562479
 30
0.0
 10
58.17432322759188
 20
469.9235006046953
 30
0.0
 10
60.42097921527976
 20
470.4203542965398
 30
0.0
 10
61.30869696612027
 20
470.6100716535568
 30
0.0
 10
62.19841622652056
 20
470.7936218510753
 30
0.0
  0
SPLINE
  5
B2
330
5E
100
AcDbEntity
  8
410373040_ESCUTC
  6
Continuous
 62
     7
100
AcDbSpline
210
0.0
220
0.0
230
1.0
 70
     8
 71
     3
 72
    10
 73
     6
 74
     0
 42
0.0000000000744147
 43
0.0000000001
 40
0.7078177602907979
 40
0.7078177602907979
 40
0.7078177602907979
 40
0.7078177602907979
 40
0.7499999999999917
 40
0.7499999999999917
 40
1.0
 40
1.0
 40
1.0
 40
1.0
 10
62.19841622652056
 20
470.7936218510753
 30
0.0
 10
64.04558592332376
 20
471.1746952725341
 30
0.0
 10
65.90138272892423
 20
471.5291863798074
 30
0.0
 10
78.78270544931561
 20
473.7928420196137
 30
0.0
 10
89.94810464341334
 20
474.7684708314746
 30
0.0
 10
101.1500584131755
 20
474.769137793697
 30
0.0
  0
SPLINE
  5
B3
330
5E
100
AcDbEntity
  8
410373040_ESCUTC
  6
Continuous
 62
     7
100
AcDbSpline
210
0.0
220
0.0
230
1.0
 70
     8
 71
     3
 72
    44
 73
    40
 74
     0
 42
0.0000000000749198
 43
0.0000000001
 40
0.0
 40
0.0
 40
0.0
 40
0.0
 40
0.1250000000000013
 40
0.1250000000000013
 40
0.2500000000000027
 40
0.2500000000000027
 40
0.3125000000000033
 40
0.3125000000000033
 40
0.3437500000000036
 40
0.3437500000000036
 40
0.3515625000000038
 40
0.3515625000000038
 40
0.3593750000000039
 40
0.3593750000000039
 40
0.3750000000000042
 40
0.3750000000000042
 40
0.5000000000000066
 40
0.5000000000000066
 40
0.5625000000000078
 40
0.5625000000000078
 40
0.5781250000000081
 40
0.5781250000000081
 40
0.5937500000000083
 40
0.5937500000000083
 40
0.6250000000000085
 40
0.6250000000000085
 40
0.6328125000000085
 40
0.6328125000000085
 40
0.6406250000000085
 40
0.6406250000000085
 40
0.6562500000000081
 40
0.6562500000000081
 40
0.6875000000000074
 40
0.6875000000000074
 40
0.7500000000000059
 40
0.7500000000000059
 40
0.875000000000003
 40
0.875000000000003
 40
1.0
 40
1.0
 40
1.0
 40
1.0
 10
101.1500584131755
 20
474.769137793697
 30
0.0
 10
106.7398668118666
 20
474.7688015059069
 30
0.0
 10
112.313002157486
 20
474.5245199539007
 30
0.0
 10
123.4264075550253
 20
473.5569444141851
 30
0.0
 10
128.9749047641982
 20
472.8317894521101
 30
0.0
 10
137.2225940104625
 20
471.3853584014768
 30
0.0
 10
139.9606425107004
 20
470.8434167726692
 30
0.0
 10
144.05090543194
 20
469.9406068281088
 30
0.0
 10
145.4133291929189
 20
469.626587066052
 30
0.0
 10
147.1069217435881
 20
469.2124392484379
 30
0.0
 10
147.446984908186
 20
469.1329684543681
 30
0.0
 10
148.1121943532446
 20
468.9369218211772
 30
0.0
 10
148.4267949320506
 20
468.7940979874453
 30
0.0
 10
149.3537954548979
 20
468.3238475548168
 30
0.0
 10
149.9717200338473
 20
468.0102069201448
 30
0.0
 10
155.5734045709003
 20
465.2883215758865
 30
0.0
 10
160.716927598193
 20
463.2548797440693
 30
0.0
 10
168.6215259995759
 20
460.8167098855566
 30
0.0
 10
171.2889900665111
 20
460.1047628807821
 30
0.0
 10
174.6491671207182
 20
459.3446395006018
 30
0.0
 10
175.3226742272661
 20
459.1990654525005
 30
0.0
 10
176.6726444855556
 20
458.92087229566
 30
0.0
 10
177.3547921137987
 20
458.8124504404029
 30
0.0
 10
179.3686545447558
 20
458.3490554742009
 30
0.0
 10
180.573501805096
 20
457.4599412042129
 30
0.0
 10
181.4326135614568
 20
455.942126674636
 30
0.0
 10
181.5612645357886
 20
455.6181052413968
 30
0.0
 10
181.8209858867559
 20
454.9739115471307
 30
0.0
 10
181.9495333585446
 20
454.6512814396095
 30
0.0
 10
182.3312355302994
 20
453.6817910665918
 30
0.0
 10
182.5804925151541
 20
453.0332173275975
 30
0.0
 10
183.3121797746781
 20
451.0819191357563
 30
0.0
 10
183.7783488638283
 20
449.7741298223617
 30
0.0
 10
185.1121952767357
 20
445.8300557893615
 30
0.0
 10
185.9152805710023
 20
443.1730870017109
 30
0.0
 10
188.0652670865621
 20
435.1191512840315
 30
0.0
 10
189.1426098651789
 20
429.6804634358054
 30
0.0
 10
190.5861626205498
 20
418.6850800966982
 30
0.0
 10
190.950390105848
 20
413.1269959348999
 30
0.0
 10
190.9503901065331
 20
407.5678476692089
 30
0.0
  0
SPLINE
  5
B4
330
5E
100
AcDbEntity
  8
410373040_ESCUTC
  6
Continuous
 62
     7
100
AcDbSpline
210
0.0
220
0.0
230
1.0
 70
     8
 71
     3
 72
    30
 73
    26
 74
     0
 42
0.0000000000751278
 43
0.0000000001
 40
0.0
 40
0.0
 40
0.0
 40
0.0
 40
0.2500000000000064
 40
0.2500000000000064
 40
0.312500000000008
 40
0.312500000000008
 40
0.3437500000000089
 40
0.3437500000000089
 40
0.3593750000000094
 40
0.3593750000000094
 40
0.3671875000000097
 40
0.3671875000000097
 40
0.37500000000001
 40
0.37500000000001
 40
0.4062500000000107
 40
0.4062500000000107
 40
0.4140625000000108
 40
0.4140625000000108
 40
0.4218750000000109
 40
0.4218750000000109
 40
0.4375000000000108
 40
0.4375000000000108
 40
0.5000000000000102
 40
0.5000000000000102
 40
0.5961767433288384
 40
0.5961767433288384
 40
0.5961767433288384
 40
0.5961767433288384
 10
190.9503901065331
 20
407.5678476692089
 30
0.0
 10
190.9503901004733
 20
396.5033664030585
 30
0.0
 10
189.5047903538324
 20
385.4588991820884
 30
0.0
 10
185.9612307802983
 20
372.1226927392786
 30
0.0
 10
185.166783167202
 20
369.4809644095419
 30
0.0
 10
183.8464353326044
 20
365.5566609939179
 30
0.0
 10
183.3848564810824
 20
364.2549463751869
 30
0.0
 10
182.6601315501693
 20
362.3120022310883
 30
0.0
 10
182.4132119547886
 20
361.666100551117
 30
0.0
 10
182.0351423687333
 20
360.7007169010347
 30
0.0
 10
181.9078223834081
 20
360.3794598994799
 30
0.0
 10
181.6505898194059
 20
359.7380205764797
 30
0.0
 10
181.5310585010365
 20
359.413565970705
 30
0.0
 10
180.7517161808223
 20
357.8660842208266
 30
0.0
 10
179.5896695478598
 20
356.9100272150424
 30
0.0
 10
177.920589539525
 20
356.4424049083502
 30
0.0
 10
177.5780921006484
 20
356.3896090663388
 30
0.0
 10
176.8986251806159
 20
356.2579380807927
 30
0.0
 10
176.5592301172364
 20
356.1904571349664
 30
0.0
 10
175.5420574540632
 20
355.9830903937456
 30
0.0
 10
174.865166046249
 20
355.8382521362064
 30
0.0
 10
171.4896708377888
 20
355.0818584485127
 30
0.0
 10
168.8170406363219
 20
354.3738918107758
 30
0.0
 10
162.1020316774839
 20
352.3158955607922
 30
0.0
 10
158.1012178067878
 20
350.8247135677762
 30
0.0
 10
154.1815763661933
 20
349.0921494542789
 30
0.0
  0
SPLINE
  5
B5
330
5E
100
AcDbEntity
  8
410373040_ESCUTC
  6
Continuous
 62
     7
100
AcDbSpline
210
0.0
220
0.0
230
1.0
 70
     8
 71
     3
 72
    18
 73
    14
 74
     0
 42
0.0000000000746771
 43
0.0000000001
 40
0.5961767433288384
 40
0.5961767433288384
 40
0.5961767433288384
 40
0.5961767433288384
 40
0.6250000000000095
 40
0.6250000000000095
 40
0.6406250000000093
 40
0.6406250000000093
 40
0.6484375000000093
 40
0.6484375000000093
 40
0.6562500000000093
 40
0.6562500000000093
 40
0.6875000000000084
 40
0.6875000000000084
 40
0.7078187997753415
 40
0.7078187997753415
 40
0.7078187997753415
 40
0.7078187997753415
 10
154.1815763661933
 20
349.0921494542789
 30
0.0
 10
153.0068970477749
 20
348.5729164420749
 30
0.0
 10
151.8395081823103
 20
348.0320038400018
 30
0.0
 10
150.0510179741997
 20
347.1645322624081
 30
0.0
 10
149.4253343819628
 20
346.8505110841181
 30
0.0
 10
148.4892035475124
 20
346.3722566755446
 30
0.0
 10
148.174099991081
 20
346.2219320370742
 30
0.0
 10
147.5115142762526
 20
346.0176523527907
 30
0.0
 10
147.1721557095991
 20
345.9395120278925
 30
0.0
 10
145.4832892640253
 20
345.5251357381131
 30
0.0
 10
144.1258671341984
 20
345.2122388311454
 30
0.0
 10
141.879171548233
 20
344.7153739080932
 30
0.0
 10
140.9914105134628
 20
344.5256466488296
 30
0.0
 10
140.1016477815012
 20
344.3420871547705
 30
0.0
  0
SPLINE
  5
B6
330
5E
100
AcDbEntity
  8
410373040_ESCUTC
  6
Continuous
 62
     7
100
AcDbSpline
210
0.0
220
0.0
230
1.0
 70
     8
 71
     3
 72
    10
 73
     6
 74
     0
 42
0.0000000000744545
 43
0.0000000001
 40
0.7078187997753415
 40
0.7078187997753415
 40
0.7078187997753415
 40
0.7078187997753415
 40
0.7500000000000068
 40
0.7500000000000068
 40
0.9550381142319798
 40
0.9550381142319798
 40
0.9550381142319798
 40
0.9550381142319798
 10
140.1016477815012
 20
344.3420871547705
 30
0.0
 10
138.2545278549157
 20
343.9610233194231
 30
0.0
 10
136.3987813187303
 20
343.6065403789033
 30
0.0
 10
125.499746560091
 20
341.6912225420307
 30
0.0
 10
116.3636419172147
 20
340.7492657638926
 30
0.0
 10
107.1899800394005
 20
340.4614520948875
 30
0.0
  0
SPLINE
  5
B7
330
5E
100
AcDbEntity
  8
410373040_ESCUTC
  6
Continuous
 62
     7
100
AcDbSpline
210
0.0
220
0.0
230
1.0
 70
     8
 71
     3
 72
     8
 73
     4
 74
     0
 42
0.0000000006524035
 43
0.0000000001
 40
0.0
 40
0.0
 40
0.0
 40
0.0
 40
0.0395904854366426
 40
0.0395904854366426
 40
0.0395904854366426
 40
0.0395904854366426
 10
58.68767308400646
 20
403.7910628880787
 30
0.0
 10
58.87687529134588
 20
403.7178060615641
 30
0.0
 10
59.07100490310674
 20
403.6600868940119
 30
0.0
 10
59.26800661821267
 20
403.6181172823291
 30
0.0
  0
SPLINE
  5
B8
330
5E
100
AcDbEntity
  8
410373040_ESCUTC
  6
Continuous
 62
     7
100
AcDbSpline
210
0.0
220
0.0
230
1.0
 70
     8
 71
     3
 72
    16
 73
    12
 74
     0
 42
0.0000000006351819
 43
0.0000000001
 40
0.0395904854366426
 40
0.0395904854366426
 40
0.0395904854366426
 40
0.0395904854366426
 40
0.1250000000000004
 40
0.1250000000000004
 40
0.2500000000000008
 40
0.2500000000000008
 40
0.5000000000000006
 40
0.5000000000000006
 40
0.7500000000000002
 40
0.7500000000000002
 40
1.0
 40
1.0
 40
1.0
 40
1.0
 10
59.26800661821267
 20
403.6181172823291
 30
0.0
 10
59.69300319680408
 20
403.5275752210053
 30
0.0
 10
60.13136668207551
 20
403.5103323478602
 30
0.0
 10
61.19338418788809
 20
403.6536703554469
 30
0.0
 10
61.79805999516301
 20
403.9008103076655
 30
0.0
 10
63.33042930172524
 20
405.0197407345254
 30
0.0
 10
63.9597771024967
 20
406.2894914502846
 30
0.0
 10
63.96042617334952
 20
408.8440875573908
 30
0.0
 10
63.34404425267557
 20
410.1053526155476
 30
0.0
 10
61.27628158962644
 20
411.6165452640716
 30
0.0
 10
59.88229653550171
 20
411.8071763291196
 30
0.0
 10
58.68767308402145
 20
411.3446324499292
 30
0.0
  0
ARC
  5
B9
330
5E
100
AcDbEntity
  8
410373040_ESCUTC
  6
Continuous
 62
     7
100
AcDbCircle
 10
60.1499988749
 20
407.567847669
 30
0.0
 40
4.050000000000002
100
AcDbArc
 50
111.1658059791
 51
248.8341940207
  0
ARC
  5
BA
330
5E
100
AcDbEntity
  8
410373040_ESCUTC
  6
Continuous
 62
     7
100
AcDbCircle
 10
101.1499988749
 20
407.567847669
 30
0.0
 40
32.0
100
AcDbArc
 50
0.0
 51
75.8920325034
  0
ARC
  5
BB
330
5E
100
AcDbEntity
  8
410373040_ESCUTC
  6
Continuous
 62
     7
100
AcDbCircle
 10
101.1499988749
 20
407.567847669
 30
0.0
 40
32.0
100
AcDbArc
 50
104.107981804
 51
259.5704395296
  0
ARC
  5
BC
330
5E
100
AcDbEntity
  8
410373040_ESCUTC
  6
Continuous
 62
     7
100
AcDbCircle
 10
101.1499988749
 20
407.567847669
 30
0.0
 40
32.0
100
AcDbArc
 50
280.4295463231
 51
0.0
  0
ARC
  5
BD
330
5E
100
AcDbEntity
  8
410373040_ESCUTC
  6
Continuous
 62
     7
100
AcDbCircle
 10
127.0177082638
 20
407.9987894782
 30
0.0
 40
70.10805095205721
100
AcDbArc
 50
277.3260358445
 51
289.6566658991
  0
LINE
  5
C0
330
5E
100
AcDbEntity
  8
DV1_Standard
  6
CENTER2
 62
     7
100
AcDbLine
 10
121.149994553
 20
407.567847669
 30
0.0
 11
81.149995447
 21
407.567847669
 31
0.0
  0
LINE
  5
C1
330
5E
100
AcDbEntity
  8
DV1_Standard
  6
CENTER2
 62
     7
100
AcDbLine
 10
101.149995
 20
427.567847222
 30
0.0
 11
101.149995
 21
387.567848116
 31
0.0
  0
LINE
  5
C2
330
5E
100
AcDbEntity
  8
DV1_Standard
  6
CENTER2
 62
     7
100
AcDbLine
 10
126.1499944412
 20
407.567847669
 30
0.0
 11
113.599995
 21
407.567847669
 31
0.0
  0
LINE
  5
C3
330
5E
100
AcDbEntity
  8
DV1_Standard
  6
CENTER2
 62
     7
100
AcDbLine
 10
101.149995
 20
432.5678471102
 30
0.0
 11
101.149995
 21
420.017847669
 31
0.0
  0
LINE
  5
C4
330
5E
100
AcDbEntity
  8
DV1_Standard
  6
CENTER2
 62
     7
100
AcDbLine
 10
76.1499955588
 20
407.567847669
 30
0.0
 11
88.699995
 21
407.567847669
 31
0.0
  0
LINE
  5
C5
330
5E
100
AcDbEntity
  8
DV1_Standard
  6
CENTER2
 62
     7
100
AcDbLine
 10
101.149995
 20
382.5678482278
 30
0.0
 11
101.149995
 21
395.117847669
 31
0.0
  0
ENDBLK
  5
C7
330
5E
100
AcDbEntity
  8
0
100
AcDbBlockEnd
  0
BLOCK
  5
14B
330
C8
100
AcDbEntity
  8
0
100
AcDbBlockBegin
  2
SE1
 70
     0
 10
0.0
 20
0.0
 30
0.0
  3
SE1
  1

  0
LINE
  5
CB
330
C8
100
AcDbEntity
  8
410064038_SLEEVE
  6
Continuous
 62
     7
100
AcDbLine
 10
304.0650725908
 20
439.317847669
 30
0.0
 11
287.408106764
 21
439.317847669
 31
0.0
  0
LINE
  5
CC
330
C8
100
AcDbEntity
  8
410064038_SLEEVE
  6
Continuous
 62
     7
100
AcDbLine
 10
287.4081203861
 20
375.817847669
 30
0.0
 11
304.0650725908
 21
375.817847669
 31
0.0
  0
ARC
  5
CE
330
C8
100
AcDbEntity
  8
410306038_DIVERT
  6
Continuous
 62
     7
100
AcDbCircle
 10
313.5933265441
 20
344.8599578458
 30
0.0
 40
31.47282213703779
100
AcDbArc
 50
79.989509121
 51
99.0104896454
  0
LINE
  5
CF
330
C8
100
AcDbEntity
  8
410306038_DIVERT
  6
Continuous
 62
     7
100
AcDbLine
 10
305.1650725908
 20
376.4705868945
 30
0.0
 11
305.1650725908
 21
438.6651084435
 31
0.0
  0
LINE
  5
D0
330
C8
100
AcDbEntity
  8
410306038_DIVERT
  6
Continuous
 62
     7
100
AcDbLine
 10
323.1650725908
 20
438.8134651959
 30
0.0
 11
323.1650725908
 21
376.3222301421
 31
0.0
  0
LINE
  5
D1
330
C8
100
AcDbEntity
  8
410306038_DIVERT
  6
Continuous
 62
     7
100
AcDbLine
 10
322.6607093231
 20
439.3134461574
 30
0.0
 11
305.6607093231
 21
439.165089405
 31
0.0
  0
LINE
  5
D2
330
C8
100
AcDbEntity
  8
410306038_DIVERT
  6
Continuous
 62
     7
100
AcDbLine
 10
319.0508643334
 20
375.8537518205
 30
0.0
 11
322.6607093231
 21
375.8222491806
 31
0.0
  0
LINE
  5
D3
330
C8
100
AcDbEntity
  8
410306038_DIVERT
  6
Continuous
 62
     7
100
AcDbLine
 10
305.6607093231
 20
375.970605933
 30
0.0
 11
308.6659291707
 21
375.9443797767
 31
0.0
  0
LINE
  5
D4
330
C8
100
AcDbEntity
  8
410306038_DIVERT
  6
Continuous
 62
     7
100
AcDbLine
 10
304.9668178979
 20
437.5661175265
 30
0.0
 11
304.6650725908
 21
437.5634842351
 31
0.0
  0
LINE
  5
D5
330
C8
100
AcDbEntity
  8
410306038_DIVERT
  6
Continuous
 62
     7
100
AcDbLine
 10
304.6650725908
 20
377.5722111029
 30
0.0
 11
304.9668178979
 21
377.5695778115
 31
0.0
  0
ARC
  5
D6
330
C8
100
AcDbEntity
  8
410306038_DIVERT
  6
Continuous
 62
     7
100
AcDbCircle
 10
304.9650725908
 20
437.7661099111
 30
0.0
 40
0.1999999999999988
100
AcDbArc
 50
270.5
 51
0.0
  0
ARC
  5
D7
330
C8
100
AcDbEntity
  8
410306038_DIVERT
  6
Continuous
 62
     7
100
AcDbCircle
 10
304.9650725908
 20
377.3695854269
 30
0.0
 40
0.2000000000000034
100
AcDbArc
 50
0.0
 51
89.5
  0
ARC
  5
D8
330
C8
100
AcDbEntity
  8
410306038_DIVERT
  6
Continuous
 62
     7
100
AcDbCircle
 10
305.6650725908
 20
438.6651084435
 30
0.0
 40
0.500000000000005
100
AcDbArc
 50
90.5
 51
180.0
  0
ARC
  5
D9
330
C8
100
AcDbEntity
  8
410306038_DIVERT
  6
Continuous
 62
     7
100
AcDbCircle
 10
305.6650725908
 20
376.4705868945
 30
0.0
 40
0.5000000000000004
100
AcDbArc
 50
180.0
 51
269.5
  0
ARC
  5
DA
330
C8
100
AcDbEntity
  8
410306038_DIVERT
  6
Continuous
 62
     7
100
AcDbCircle
 10
322.6650725908
 20
438.8134651959
 30
0.0
 40
0.5000000000000004
100
AcDbArc
 50
0.0
 51
90.5
  0
ARC
  5
DB
330
C8
100
AcDbEntity
  8
410306038_DIVERT
  6
Continuous
 62
     7
100
AcDbCircle
 10
322.6650725908
 20
376.3222301421
 30
0.0
 40
0.4999999999999969
100
AcDbArc
 50
269.5
 51
0.0
  0
LINE
  5
DC
330
C8
100
AcDbEntity
  8
410308038_LEVER_
  6
Continuous
 62
     7
100
AcDbLine
 10
308.5248487773
 20
368.567847669
 30
0.0
 11
319.2052977134
 21
368.567847669
 31
0.0
  0
ARC
  5
DD
330
C8
100
AcDbEntity
  8
410308038_LEVER_
  6
Continuous
 62
     7
100
AcDbCircle
 10
313.8650732453
 20
319.1140349975
 30
0.0
 40
10.00000000000011
100
AcDbArc
 50
165.0939506482
 51
180.0
  0
ARC
  5
DE
330
C8
100
AcDbEntity
  8
410308038_LEVER_
  6
Continuous
 62
     7
100
AcDbCircle
 10
313.8650732453
 20
319.1140349975
 30
0.0
 40
10.0
100
AcDbArc
 50
180.0
 51
14.9060493518
  0
SPLINE
  5
DF
330
C8
100
AcDbEntity
  8
410308038_LEVER_
  6
Continuous
 62
     7
100
AcDbSpline
210
0.0
220
0.0
230
1.0
 70
     8
 71
     3
 72
    14
 73
    10
 74
     0
 42
0.0000000002138255
 43
0.0000000001
 40
0.0
 40
0.0
 40
0.0
 40
0.0
 40
0.1285432121486069
 40
0.2696528521248497
 40
0.4112639307878361
 40
0.5532613041676342
 40
0.7022568853970649
 40
0.8512635312318863
 40
1.0
 40
1.0
 40
1.0
 40
1.0
 10
308.0130488790015
 20
368.0091459835933
 30
0.0
 10
308.2366182440563
 20
365.8172680742057
 30
0.0
 10
308.6179844464215
 20
361.9351088728179
 30
0.0
 10
308.7972245657498
 20
355.3928841012436
 30
0.0
 10
308.6258937633341
 20
348.8130962487811
 30
0.0
 10
308.0825530798892
 20
342.0716581183345
 30
0.0
 10
307.1739456481871
 20
335.3124719465218
 30
0.0
 10
305.8691184615313
 20
328.3310450662962
 30
0.0
 10
304.8280135725286
 20
324.1575878258834
 30
0.0
 10
304.2015839896454
 20
321.686383225314
 30
0.0
  0
SPLINE
  5
E0
330
C8
100
AcDbEntity
  8
410308038_LEVER_
  6
Continuous
 62
     7
100
AcDbSpline
210
0.0
220
0.0
230
1.0
 70
     8
 71
     3
 72
    14
 73
    10
 74
     0
 42
0.0000000002138349
 43
0.0000000001
 40
0.0
 40
0.0
 40
0.0
 40
0.0
 40
0.1419756596607897
 40
0.2842098896539601
 40
0.4264555114468644
 40
0.5685027633635745
 40
0.7169175075613242
 40
0.8647919698948994
 40
1.0
 40
1.0
 40
1.0
 40
1.0
 10
323.5285625010504
 20
321.6863832253129
 30
0.0
 10
322.9293780601756
 20
324.0448268120974
 30
0.0
 10
321.93280363064
 20
328.0275638908221
 30
0.0
 10
320.6639642724755
 20
334.6868588486757
 30
0.0
 10
319.7437578781506
 20
341.2333936502712
 30
0.0
 10
319.1494329314639
 20
347.9717717391983
 30
0.0
 10
318.9281432908726
 20
354.7608723381566
 30
0.0
 10
319.0875799441802
 20
361.6256718097538
 30
0.0
 10
319.4842255147869
 20
365.7013241051042
 30
0.0
 10
319.717688651783
 20
368.0069090523374
 30
0.0
  0
ARC
  5
E1
330
C8
100
AcDbEntity
  8
410308038_LEVER_
  6
Continuous
 62
     7
100
AcDbCircle
 10
308.5248487773
 20
368.067847669
 30
0.0
 40
0.5000000000000004
100
AcDbArc
 50
90.0
 51
186.4363484234
  0
ARC
  5
E2
330
C8
100
AcDbEntity
  8
410308038_LEVER_
  6
Continuous
 62
     7
100
AcDbCircle
 10
319.2052977134
 20
368.067847669
 30
0.0
 40
0.4999999999999962
100
AcDbArc
 50
353.5636515766
 51
90.0
  0
LINE
  5
E3
330
C8
100
AcDbEntity
  8
410308038_LEVER_
  6
Continuous
 62
     7
100
AcDbLine
 10
318.8650732454
 20
368.767847669
 30
0.0
 11
318.8650732454
 21
375.8875525106
 31
0.0
  0
LINE
  5
E4
330
C8
100
AcDbEntity
  8
410308038_LEVER_
  6
Continuous
 62
     7
100
AcDbLine
 10
308.8650732454
 20
375.9750861973
 30
0.0
 11
308.8650732454
 21
368.767847669
 31
0.0
  0
ARC
  5
E5
330
C8
100
AcDbEntity
  8
410308038_LEVER_
  6
Continuous
 62
     7
100
AcDbCircle
 10
308.6650732454
 20
368.767847669
 30
0.0
 40
0.1999999999999988
100
AcDbArc
 50
270.0
 51
0.0
  0
ARC
  5
E6
330
C8
100
AcDbEntity
  8
410308038_LEVER_
  6
Continuous
 62
     7
100
AcDbCircle
 10
319.0650732454
 20
368.767847669
 30
0.0
 40
0.1999999999999988
100
AcDbArc
 50
180.0
 51
270.0
  0
LINE
  5
E7
330
C8
100
AcDbEntity
  8
410317038_HANDLE
  6
Continuous
 62
     7
100
AcDbLine
 10
363.4650725908
 20
420.3590717059
 30
0.0
 11
363.4650725908
 21
394.7766236321
 31
0.0
  0
LINE
  5
E8
330
C8
100
AcDbEntity
  8
410317038_HANDLE
  6
Continuous
 62
     7
100
AcDbLine
 10
323.6521621982
 20
376.0213691476
 30
0.0
 11
323.6521621982
 21
439.1143261904
 31
0.0
  0
ARC
  5
E9
330
C8
100
AcDbEntity
  8
410317038_HANDLE
  6
Continuous
 62
     7
100
AcDbCircle
 10
335.0837377577
 20
469.2127979506
 30
0.0
 40
31.18782258193577
100
AcDbArc
 50
253.7553958731
 51
284.2450911461
  0
LINE
  5
EA
330
C8
100
AcDbEntity
  8
410317038_HANDLE
  6
Continuous
 62
     7
100
AcDbLine
 10
323.1650725908
 20
378.367847669
 30
0.0
 11
323.6521621982
 21
378.367847669
 31
0.0
  0
LINE
  5
EB
330
C8
100
AcDbEntity
  8
410317038_HANDLE
  6
Continuous
 62
     7
100
AcDbLine
 10
323.6521621982
 20
436.767847669
 30
0.0
 11
323.1650725908
 21
436.767847669
 31
0.0
  0
LINE
  5
EC
330
C8
100
AcDbEntity
  8
410317038_HANDLE
  6
Continuous
 62
     7
100
AcDbLine
 10
323.8556526795
 20
375.8213996086
 30
0.0
 11
347.4450636644
 21
376.2331543089
 31
0.0
  0
LINE
  5
ED
330
C8
100
AcDbEntity
  8
410317038_HANDLE
  6
Continuous
 62
     7
100
AcDbLine
 10
326.3599079902
 20
439.2705837904
 30
0.0
 11
323.8556526795
 21
439.3142957294
 31
0.0
  0
LINE
  5
EE
330
C8
100
AcDbEntity
  8
410317038_HANDLE
  6
Continuous
 62
     7
100
AcDbLine
 10
347.4450636644
 20
438.9025410291
 30
0.0
 11
342.754799181
 21
438.9844099002
 31
0.0
  0
ARC
  5
EF
330
C8
100
AcDbEntity
  8
410317038_HANDLE
  6
Continuous
 62
     7
100
AcDbCircle
 10
369.2070102851
 20
375.2500209112
 30
0.0
 40
19.9999999999998
100
AcDbArc
 50
107.7271688632
 51
172.2076593763
  0
ARC
  5
F0
330
C8
100
AcDbEntity
  8
410317038_HANDLE
  6
Continuous
 62
     7
100
AcDbCircle
 10
369.2070102851
 20
439.8856744268
 30
0.0
 40
20.0
100
AcDbArc
 50
187.7923406237
 51
252.2728311368
  0
ARC
  5
F1
330
C8
100
AcDbEntity
  8
410317038_HANDLE
  6
Continuous
 62
     7
100
AcDbCircle
 10
347.4101588515
 20
436.9028456388
 30
0.0
 40
2.000000000000197
100
AcDbArc
 50
7.7923406236
 51
89.0
  0
ARC
  5
F2
330
C8
100
AcDbEntity
  8
410317038_HANDLE
  6
Continuous
 62
     7
100
AcDbCircle
 10
347.4101588515
 20
378.2328496992
 30
0.0
 40
1.999999999999997
100
AcDbArc
 50
271.0
 51
352.2076593764
  0
ARC
  5
F3
330
C8
100
AcDbEntity
  8
410317038_HANDLE
  6
Continuous
 62
     7
100
AcDbCircle
 10
362.9650725908
 20
420.3590717059
 30
0.0
 40
0.5000000000000004
100
AcDbArc
 50
0.0
 51
72.2728311368
  0
ARC
  5
F4
330
C8
100
AcDbEntity
  8
410317038_HANDLE
  6
Continuous
 62
     7
100
AcDbCircle
 10
362.9650725908
 20
394.7766236321
 30
0.0
 40
0.5000000000000018
100
AcDbArc
 50
287.7271688632
 51
0.0
  0
ARC
  5
F5
330
C8
100
AcDbEntity
  8
410317038_HANDLE
  6
Continuous
 62
     7
100
AcDbCircle
 10
323.8521621982
 20
439.1143261904
 30
0.0
 40
0.1999999999999992
100
AcDbArc
 50
89.0
 51
180.0
  0
ARC
  5
F6
330
C8
100
AcDbEntity
  8
410317038_HANDLE
  6
Continuous
 62
     7
100
AcDbCircle
 10
323.8521621982
 20
376.0213691476
 30
0.0
 40
0.1999999999999988
100
AcDbArc
 50
180.0
 51
271.0
  0
ARC
  5
F7
330
C8
100
AcDbEntity
  8
410250038_BUTTON
  6
Continuous
 62
     7
100
AcDbCircle
 10
334.5550725908
 20
403.7084857471
 30
0.0
 40
39.99999999999999
100
AcDbArc
 50
79.7745231662
 51
100.2254768338
  0
LINE
  5
F8
330
C8
100
AcDbEntity
  8
410250038_BUTTON
  6
Continuous
 62
     7
100
AcDbLine
 10
326.7550725908
 20
442.2366572584
 30
0.0
 11
326.7550725908
 21
439.1624116019
 31
0.0
  0
LINE
  5
F9
330
C8
100
AcDbEntity
  8
410250038_BUTTON
  6
Continuous
 62
     7
100
AcDbLine
 10
342.3550725908
 20
438.887478936
 30
0.0
 11
342.3550725908
 21
442.2366572584
 31
0.0
  0
ARC
  5
FA
330
C8
100
AcDbEntity
  8
410250038_BUTTON
  6
Continuous
 62
     7
100
AcDbCircle
 10
341.5050725908
 20
442.2366572584
 30
0.0
 40
0.8499999999999897
100
AcDbArc
 50
0.0
 51
79.7745231662
  0
ARC
  5
FB
330
C8
100
AcDbEntity
  8
410250038_BUTTON
  6
Continuous
 62
     7
100
AcDbCircle
 10
327.6050725908
 20
442.2366572584
 30
0.0
 40
0.8499999999999986
100
AcDbArc
 50
100.2254768338
 51
180.0
  0
SPLINE
  5
FD
330
C8
100
AcDbEntity
  8
410310038_RING_K
  6
Continuous
 62
     7
100
AcDbSpline
210
0.0
220
0.0
230
1.0
 70
     8
 71
     3
 72
     8
 73
     4
 74
     0
 42
0.0000000014391634
 43
0.0000000001
 40
0.0
 40
0.0
 40
0.0
 40
0.0
 40
1.0
 40
1.0
 40
1.0
 40
1.0
 10
364.1359135325831
 20
394.6092119111572
 30
0.0
 10
366.4487765568849
 20
395.4199408732015
 30
0.0
 10
368.6882851051854
 20
395.9819475131456
 30
0.0
 10
370.8544391774848
 20
396.2952318309896
 30
0.0
  0
SPLINE
  5
FE
330
C8
100
AcDbEntity
  8
410310038_RING_K
  6
Continuous
 62
     7
100
AcDbSpline
210
0.0
220
0.0
230
1.0
 70
     8
 71
     3
 72
     8
 73
     4
 74
     0
 42
0.0000000014405003
 43
0.0000000001
 40
0.0
 40
0.0
 40
0.0
 40
0.0
 40
1.0
 40
1.0
 40
1.0
 40
1.0
 10
370.8661686083755
 20
418.8400433909268
 30
0.0
 10
368.0797270655631
 20
419.3119190963778
 30
0.0
 10
365.8412024276102
 20
419.8696438633092
 30
0.0
 10
364.1505946945168
 20
420.5132176917213
 30
0.0
  0
ARC
  5
FF
330
C8
100
AcDbEntity
  8
410310038_RING_K
  6
Continuous
 62
     7
100
AcDbCircle
 10
375.6430874083
 20
404.6281868055
 30
0.0
 40
9.499999999999984
100
AcDbArc
 50
241.8850039707
 51
254.2095579456
  0
ARC
  5
100
330
C8
100
AcDbEntity
  8
410310038_RING_K
  6
Continuous
 62
     7
100
AcDbCircle
 10
375.6430874083
 20
410.5075085325
 30
0.0
 40
9.49999999999999
100
AcDbArc
 50
105.7904420544
 51
118.1149960293
  0
ARC
  5
101
330
C8
100
AcDbEntity
  8
410310038_RING_K
  6
Continuous
 62
     7
100
AcDbCircle
 10
373.1940098532
 20
395.967816194
 30
0.0
 40
0.4999999999999897
100
AcDbArc
 50
254.2095579456
 51
309.8055710923
  0
ARC
  5
102
330
C8
100
AcDbEntity
  8
410310038_RING_K
  6
Continuous
 62
     7
100
AcDbCircle
 10
373.1940098532
 20
419.167879144
 30
0.0
 40
0.5000000000000143
100
AcDbArc
 50
50.1944289077
 51
105.7904420544
  0
LINE
  5
103
330
C8
100
AcDbEntity
  8
410310038_RING_K
  6
Continuous
 62
     7
100
AcDbLine
 10
373.5141020531
 20
395.5837055542
 30
0.0
 11
374.0351647907
 21
396.0179245022
 31
0.0
  0
LINE
  5
104
330
C8
100
AcDbEntity
  8
410310038_RING_K
  6
Continuous
 62
     7
100
AcDbLine
 10
374.0351647907
 20
419.1177708358
 30
0.0
 11
373.5141020531
 21
419.5519897838
 31
0.0
  0
ARC
  5
105
330
C8
100
AcDbEntity
  8
410310038_RING_K
  6
Continuous
 62
     7
100
AcDbCircle
 10
370.930659966
 20
395.8081512273
 30
0.0
 40
0.499999999999997
100
AcDbArc
 50
61.8850039707
 51
98.9249464668
  0
ARC
  5
106
330
C8
100
AcDbEntity
  8
410310038_RING_K
  6
Continuous
 62
     7
100
AcDbCircle
 10
370.930659966
 20
419.3275441107
 30
0.0
 40
0.5000000000000151
100
AcDbArc
 50
261.0750535332
 51
298.1149960293
  0
ARC
  5
107
330
C8
100
AcDbEntity
  8
410310038_RING_K
  6
Continuous
 62
     7
100
AcDbCircle
 10
363.9650725908
 20
395.1136072318
 30
0.0
 40
0.5000000000000004
100
AcDbArc
 50
180.0
 51
288.8443742512
  0
ARC
  5
108
330
C8
100
AcDbEntity
  8
410310038_RING_K
  6
Continuous
 62
     7
100
AcDbCircle
 10
363.9650725908
 20
420.0220881062
 30
0.0
 40
0.4999999999999963
100
AcDbArc
 50
71.1556257488
 51
180.0
  0
ARC
  5
109
330
C8
100
AcDbEntity
  8
410310038_RING_K
  6
Continuous
 62
     7
100
AcDbCircle
 10
373.7150725909
 20
418.733660196
 30
0.0
 40
0.5000000000000004
100
AcDbArc
 50
0.0
 51
50.1944289077
  0
ARC
  5
10A
330
C8
100
AcDbEntity
  8
410310038_RING_K
  6
Continuous
 62
     7
100
AcDbCircle
 10
373.7150725909
 20
396.402035142
 30
0.0
 40
0.5000000000000222
100
AcDbArc
 50
309.8055710923
 51
0.0
  0
LINE
  5
10B
330
C8
100
AcDbEntity
  8
410005038_HANDLE
  6
Continuous
 62
     7
100
AcDbLine
 10
381.0768600384
 20
394.417847669
 30
0.0
 11
377.1911572643
 21
394.417847669
 31
0.0
  0
LINE
  5
10C
330
C8
100
AcDbEntity
  8
410005038_HANDLE
  6
Continuous
 62
     7
100
AcDbLine
 10
381.0768600384
 20
394.417847669
 30
0.0
 11
388.215072065
 21
394.4362757755
 31
0.0
  0
LINE
  5
10D
330
C8
100
AcDbEntity
  8
410005038_HANDLE
  6
Continuous
 62
     7
100
AcDbLine
 10
392.3150725909
 20
397.2900111051
 30
0.0
 11
392.3150725909
 21
417.8456842329
 31
0.0
  0
LINE
  5
10E
330
C8
100
AcDbEntity
  8
410005038_HANDLE
  6
Continuous
 62
     7
100
AcDbLine
 10
374.2150725909
 20
396.3605223825
 30
0.0
 11
374.2150725909
 21
418.7751729555
 31
0.0
  0
ARC
  5
10F
330
C8
100
AcDbEntity
  8
410005038_HANDLE
  6
Continuous
 62
     7
100
AcDbCircle
 10
382.6811481569
 20
407.567847669
 30
0.0
 40
14.25
100
AcDbArc
 50
48.372472413
 51
125.4049048769
  0
ARC
  5
110
330
C8
100
AcDbEntity
  8
410005038_HANDLE
  6
Continuous
 62
     7
100
AcDbCircle
 10
382.6811481569
 20
407.567847669
 30
0.0
 40
14.25
100
AcDbArc
 50
292.8053028575
 51
311.627527587
  0
ARC
  5
111
330
C8
100
AcDbEntity
  8
410005038_HANDLE
  6
Continuous
 62
     7
100
AcDbCircle
 10
382.6811481569
 20
407.567847669
 30
0.0
 40
14.24999999999999
100
AcDbArc
 50
234.5950951231
 51
247.3399612862
  0
ARC
  5
112
330
C8
100
AcDbEntity
  8
410005038_HANDLE
  6
Continuous
 62
     7
100
AcDbCircle
 10
391.8150725909
 20
417.8456842329
 30
0.0
 40
0.5000000000000004
100
AcDbArc
 50
0.0
 51
48.372472413
  0
ARC
  5
113
330
C8
100
AcDbEntity
  8
410005038_HANDLE
  6
Continuous
 62
     7
100
AcDbCircle
 10
391.8150725909
 20
397.2900111051
 30
0.0
 40
0.4999999999999992
100
AcDbArc
 50
311.627527587
 51
0.0
  0
ARC
  5
114
330
C8
100
AcDbEntity
  8
410005038_HANDLE
  6
Continuous
 62
     7
100
AcDbCircle
 10
374.7150725909
 20
396.3605223825
 30
0.0
 40
0.5000000000000004
100
AcDbArc
 50
180.0
 51
234.5950951231
  0
ARC
  5
115
330
C8
100
AcDbEntity
  8
410005038_HANDLE
  6
Continuous
 62
     7
100
AcDbCircle
 10
374.7150725909
 20
418.7751729555
 30
0.0
 40
0.4999999999999993
100
AcDbArc
 50
125.4049048769
 51
180.0
  0
LINE
  5
116
330
C8
100
AcDbEntity
  8
410307038_LEVER_
  6
Continuous
 62
     7
100
AcDbLine
 10
376.8186278518
 20
386.217847669
 30
0.0
 11
388.6115173299
 21
386.217847669
 31
0.0
  0
ARC
  5
117
330
C8
100
AcDbEntity
  8
410307038_LEVER_
  6
Continuous
 62
     7
100
AcDbCircle
 10
276.9331081982
 20
374.6213183228
 30
0.0
 40
100.0
100
AcDbArc
 50
346.0429344828
 51
6.3391368539
  0
ARC
  5
118
330
C8
100
AcDbEntity
  8
410307038_LEVER_
  6
Continuous
 62
     7
100
AcDbCircle
 10
488.4970369835
 20
374.6213183228
 30
0.0
 40
100.0
100
AcDbArc
 50
173.6608631461
 51
193.9570655172
  0
ARC
  5
119
330
C8
100
AcDbEntity
  8
410307038_LEVER_
  6
Continuous
 62
     7
100
AcDbCircle
 10
382.7150725909
 20
348.3310918263
 30
0.0
 40
8.99999999999997
100
AcDbArc
 50
166.0429344828
 51
180.0
  0
ARC
  5
11A
330
C8
100
AcDbEntity
  8
410307038_LEVER_
  6
Continuous
 62
     7
100
AcDbCircle
 10
382.7150725909
 20
348.3310918263
 30
0.0
 40
8.999999999999995
100
AcDbArc
 50
180.0
 51
13.9570655172
  0
ARC
  5
11B
330
C8
100
AcDbEntity
  8
410307038_LEVER_
  6
Continuous
 62
     7
100
AcDbCircle
 10
388.6115173299
 20
385.717847669
 30
0.0
 40
0.4999999999999931
100
AcDbArc
 50
353.6608631461
 51
90.0
  0
ARC
  5
11C
330
C8
100
AcDbEntity
  8
410307038_LEVER_
  6
Continuous
 62
     7
100
AcDbCircle
 10
376.8186278518
 20
385.717847669
 30
0.0
 40
0.4999999999999935
100
AcDbArc
 50
90.0
 51
186.3391368539
  0
LINE
  5
11D
330
C8
100
AcDbEntity
  8
410307038_LEVER_
  6
Continuous
 62
     7
100
AcDbLine
 10
388.0650725909
 20
386.217847669
 30
0.0
 11
388.0650725909
 21
394.4358882713
 31
0.0
  0
LINE
  5
11E
330
C8
100
AcDbEntity
  8
410307038_LEVER_
  6
Continuous
 62
     7
100
AcDbLine
 10
377.3650725909
 20
394.417847669
 30
0.0
 11
377.3650725909
 21
386.217847669
 31
0.0
  0
LINE
  5
120
330
C8
100
AcDbEntity
  8
410006038_DECORA
  6
Continuous
 62
     7
100
AcDbLine
 10
397.2150725909
 20
398.2109577015
 30
0.0
 11
397.2150725909
 21
416.9247376365
 31
0.0
  0
ARC
  5
121
330
C8
100
AcDbEntity
  8
410006038_DECORA
  6
Continuous
 62
     7
100
AcDbCircle
 10
392.8150725909
 20
397.5233110682
 30
0.0
 40
0.5000000000000004
100
AcDbArc
 50
180.0
 51
263.2851563915
  0
ARC
  5
122
330
C8
100
AcDbEntity
  8
410006038_DECORA
  6
Continuous
 62
     7
100
AcDbCircle
 10
392.8150725909
 20
417.6123842698
 30
0.0
 40
0.5000000000000002
100
AcDbArc
 50
96.7148436085
 51
180.0
  0
ARC
  5
123
330
C8
100
AcDbEntity
  8
410006038_DECORA
  6
Continuous
 62
     7
100
AcDbCircle
 10
391.6925634279
 20
387.9891629899
 30
0.0
 40
9.100000333333366
100
AcDbArc
 50
63.7226300101
 51
83.2851563915
  0
ARC
  5
124
330
C8
100
AcDbEntity
  8
410006038_DECORA
  6
Continuous
 62
     7
100
AcDbCircle
 10
391.6925634279
 20
427.1465323481
 30
0.0
 40
9.100000333333366
100
AcDbArc
 50
276.7148436085
 51
296.2773699899
  0
ARC
  5
125
330
C8
100
AcDbEntity
  8
410006038_DECORA
  6
Continuous
 62
     7
100
AcDbCircle
 10
396.0311908875
 20
396.7764446116
 30
0.0
 40
0.7000000000000013
100
AcDbArc
 50
243.7226300103
 51
341.1008225568
  0
ARC
  5
126
330
C8
100
AcDbEntity
  8
410006038_DECORA
  6
Continuous
 62
     7
100
AcDbCircle
 10
396.0311908875
 20
418.3592507264
 30
0.0
 40
0.7000000000000045
100
AcDbArc
 50
18.8991774432
 51
116.2773699897
  0
ARC
  5
127
330
C8
100
AcDbEntity
  8
410006038_DECORA
  6
Continuous
 62
     7
100
AcDbCircle
 10
364.526393588
 20
407.5624423457
 30
0.0
 40
34.00000000000158
100
AcDbArc
 50
341.1008225568
 51
344.0353836123
  0
ARC
  5
128
330
C8
100
AcDbEntity
  8
410006038_DECORA
  6
Continuous
 62
     7
100
AcDbCircle
 10
364.526393588
 20
407.5732529923
 30
0.0
 40
34.00000000000158
100
AcDbArc
 50
15.9646163877
 51
18.8991774432
  0
LINE
  5
129
330
C8
100
AcDbEntity
  8
12080006_MP_HE_P
  6
Continuous
 62
     7
100
AcDbLine
 10
397.2150725909
 20
398.617847669
 30
0.0
 11
397.3561781561
 21
398.617847669
 31
0.0
  0
LINE
  5
12A
330
C8
100
AcDbEntity
  8
12080006_MP_HE_P
  6
Continuous
 62
     7
100
AcDbLine
 10
397.3561781561
 20
416.517847669
 30
0.0
 11
397.2150725909
 21
416.517847669
 31
0.0
  0
ARC
  5
12B
330
C8
100
AcDbEntity
  8
12080006_MP_HE_P
  6
Continuous
 62
     7
100
AcDbCircle
 10
380.2150725909
 20
407.567847669
 30
0.0
 40
19.5
100
AcDbArc
 50
333.2228950132
 51
26.7771049868
  0
ARC
  5
12C
330
C8
100
AcDbEntity
  8
12080006_MP_HE_P
  6
Continuous
 62
     7
100
AcDbCircle
 10
397.3561781561
 20
398.917847669
 30
0.0
 40
0.2999999999999999
100
AcDbArc
 50
270.0
 51
333.2228950132
  0
ARC
  5
12D
330
C8
100
AcDbEntity
  8
12080006_MP_HE_P
  6
Continuous
 62
     7
100
AcDbCircle
 10
397.3561781561
 20
416.217847669
 30
0.0
 40
0.2999999999999987
100
AcDbArc
 50
26.7771049868
 51
90.0
  0
LINE
  5
12E
330
C8
100
AcDbEntity
  8
410373040_ESCUTC
  6
Continuous
 62
     7
100
AcDbLine
 10
275.065072009
 20
407.5678476697
 30
0.0
 11
275.065072009
 21
335.3678476617
 31
0.0
  0
LINE
  5
12F
330
C8
100
AcDbEntity
  8
410373040_ESCUTC
  6
Continuous
 62
     7
100
AcDbLine
 10
275.065072009
 20
479.7678476763
 30
0.0
 11
275.065072009
 21
407.5678476697
 31
0.0
  0
SPLINE
  5
130
330
C8
100
AcDbEntity
  8
410373040_ESCUTC
  6
Continuous
 62
     7
100
AcDbSpline
210
0.0
220
0.0
230
1.0
 70
     8
 71
     3
 72
     8
 73
     4
 74
     0
 42
0.0000000000740208
 43
0.0000000001
 40
0.0
 40
0.0
 40
0.0
 40
0.0
 40
0.0572340416018893
 40
0.0572340416018893
 40
0.0572340416018893
 40
0.0572340416018893
 10
280.3681058132255
 20
407.567847666366
 30
0.0
 10
280.3681058106016
 20
410.1576738583614
 30
0.0
 10
280.3639577896989
 20
412.7350301530639
 30
0.0
 10
280.3557178892241
 20
415.2999870655077
 30
0.0
  0
SPLINE
  5
131
330
C8
100
AcDbEntity
  8
410373040_ESCUTC
  6
Continuous
 62
     7
100
AcDbSpline
210
0.0
220
0.0
230
1.0
 70
     8
 71
     3
 72
    38
 73
    34
 74
     0
 42
0.0000000001533318
 43
0.0000000001
 40
0.0572340416018893
 40
0.0572340416018893
 40
0.0572340416018893
 40
0.0572340416018893
 40
0.2500000000000019
 40
0.2500000000000019
 40
0.3125000000000023
 40
0.3125000000000023
 40
0.3437500000000027
 40
0.3437500000000027
 40
0.3593750000000028
 40
0.3593750000000028
 40
0.3750000000000029
 40
0.3750000000000029
 40
0.4062500000000031
 40
0.4062500000000031
 40
0.4218750000000031
 40
0.4218750000000031
 40
0.4375000000000031
 40
0.4375000000000031
 40
0.5000000000000031
 40
0.5000000000000031
 40
0.6250000000000033
 40
0.6250000000000033
 40
0.6406250000000033
 40
0.6406250000000033
 40
0.6484375000000031
 40
0.6484375000000031
 40
0.656250000000003
 40
0.656250000000003
 40
0.6875000000000027
 40
0.6875000000000027
 40
0.7500000000000021
 40
0.7500000000000021
 40
1.0
 40
1.0
 40
1.0
 40
1.0
 10
280.3557178892241
 20
415.2999870655077
 30
0.0
 10
280.327965658774
 20
423.9388384140863
 30
0.0
 10
280.253796681662
 20
432.4370358223586
 30
0.0
 10
280.0969539906326
 20
443.5078912072536
 30
0.0
 10
280.053823210362
 20
446.2051293120185
 30
0.0
 10
279.9820994074736
 20
450.2241009545797
 30
0.0
 10
279.9570813702305
 20
451.5558793087387
 30
0.0
 10
279.9179094034101
 20
453.5417351890403
 30
0.0
 10
279.9045752951463
 20
454.2018420236863
 30
0.0
 10
279.8773759113187
 20
455.5174256823261
 30
0.0
 10
279.8602951761123
 20
456.1858859475495
 30
0.0
 10
279.8338483634633
 20
458.0806997093163
 30
0.0
 10
279.8576258661876
 20
459.1505102956688
 30
0.0
 10
279.9481948919946
 20
460.1559109877521
 30
0.0
 10
279.987784088699
 20
460.3995205774473
 30
0.0
 10
280.0816039285319
 20
460.6699088318073
 30
0.0
 10
280.1278283125812
 20
460.8039572694903
 30
0.0
 10
280.3507280206953
 20
461.5296373625632
 30
0.0
 10
280.508033974917
 20
462.2234191431338
 30
0.0
 10
280.9145838481149
 20
464.6332656393726
 30
0.0
 10
281.0988385306313
 20
466.6735830964722
 30
0.0
 10
281.2048858813819
 20
469.4708916351935
 30
0.0
 10
281.2155888444956
 20
469.7848935702295
 30
0.0
 10
281.2283768126142
 20
470.2792917387467
 30
0.0
 10
281.2322798959609
 20
470.4458538348475
 30
0.0
 10
281.2450427762963
 20
470.7180475392959
 30
0.0
 10
281.2541226053336
 20
470.8212089468387
 30
0.0
 10
281.3045407947566
 20
471.2688337582115
 30
0.0
 10
281.3455811120161
 20
471.583203522912
 30
0.0
 10
281.4596392404546
 20
472.5217410611969
 30
0.0
 10
281.5284632082765
 20
473.0878585095884
 30
0.0
 10
281.8342350855395
 20
475.6022046156168
 30
0.0
 10
281.9563656307612
 20
476.6106381613046
 30
0.0
 10
281.9563133325291
 20
476.6113317246288
 30
0.0
  0
SPLINE
  5
132
330
C8
100
AcDbEntity
  8
410373040_ESCUTC
  6
Continuous
 62
     7
100
AcDbSpline
210
0.0
220
0.0
230
1.0
 70
     8
 71
     3
 72
    36
 73
    32
 74
     0
 42
0.0000000001444694
 43
0.0000000001
 40
0.0
 40
0.0
 40
0.0
 40
0.0
 40
0.2500000000000002
 40
0.2500000000000002
 40
0.3125000000000002
 40
0.3125000000000002
 40
0.3437500000000002
 40
0.3437500000000002
 40
0.3593750000000001
 40
0.3593750000000001
 40
0.3750000000000001
 40
0.3750000000000001
 40
0.4999999999999998
 40
0.4999999999999998
 40
0.5624999999999998
 40
0.5624999999999998
 40
0.5781249999999999
 40
0.5781249999999999
 40
0.5937500000000001
 40
0.5937500000000001
 40
0.6249999999999999
 40
0.6249999999999999
 40
0.6406249999999998
 40
0.6406249999999998
 40
0.6562499999999997
 40
0.6562499999999997
 40
0.6874999999999996
 40
0.6874999999999996
 40
0.7499999999999996
 40
0.7499999999999996
 40
1.0
 40
1.0
 40
1.0
 40
1.0
 10
281.9563133322281
 20
338.5243636133072
 30
0.0
 10
281.9563676026768
 20
338.5250279196554
 30
0.0
 10
281.8372693643703
 20
339.5086715677285
 30
0.0
 10
281.541355614711
 20
341.9417976802833
 30
0.0
 10
281.4747894040569
 20
342.4893741964495
 30
0.0
 10
281.363730979899
 20
343.4031199712359
 30
0.0
 10
281.3246288975939
 20
343.7203697735052
 30
0.0
 10
281.2636504603337
 20
344.2259434382612
 30
0.0
 10
281.2427098083057
 20
344.3993872613477
 30
0.0
 10
281.2230254567638
 20
345.0038255424132
 30
0.0
 10
281.2155894701195
 20
345.3407618042676
 30
0.0
 10
281.1191849087724
 20
348.1285750960503
 30
0.0
 10
280.9461616705732
 20
350.2053860398667
 30
0.0
 10
280.5565095619777
 20
352.6675200311464
 30
0.0
 10
280.4054888868932
 20
353.3788364480212
 30
0.0
 10
280.1903976297065
 20
354.1311670936649
 30
0.0
 10
280.1460626647428
 20
354.274763036843
 30
0.0
 10
280.0547321776763
 20
354.5481684326455
 30
0.0
 10
280.0059473035791
 20
354.6562133829007
 30
0.0
 10
279.8904809720908
 20
355.3839314336461
 30
0.0
 10
279.8465420222107
 20
356.3065642207644
 30
0.0
 10
279.8452124059079
 20
358.0596573176399
 30
0.0
 10
279.8583849216726
 20
358.7227159305509
 30
0.0
 10
279.8865975373204
 20
360.0595992335188
 30
0.0
 10
279.9004222170663
 20
360.7301228994352
 30
0.0
 10
279.9410467857694
 20
362.747933788803
 30
0.0
 10
279.9669973868989
 20
364.1014591651643
 30
0.0
 10
280.0414086103341
 20
368.1870031114715
 30
0.0
 10
280.086329050288
 20
370.9396504883174
 30
0.0
 10
280.2859323017108
 20
384.7515908041743
 30
0.0
 10
280.3681058249177
 20
396.0385041042327
 30
0.0
 10
280.3681058132255
 20
407.567847666366
 30
0.0
  0
ARC
  5
133
330
C8
100
AcDbEntity
  8
410373040_ESCUTC
  6
Continuous
 62
     7
100
AcDbCircle
 10
283.9501796424
 20
338.3678476398
 30
0.0
 40
2.000000028218742
100
AcDbArc
 50
92.0580747475
 51
175.5115582975
  0
LINE
  5
134
330
C8
100
AcDbEntity
  8
410373040_ESCUTC
  6
Continuous
 62
     7
100
AcDbLine
 10
279.396672978
 20
335.3678476617
 30
0.0
 11
275.065072009
 21
335.3678476617
 31
0.0
  0
SPLINE
  5
135
330
C8
100
AcDbEntity
  8
410373040_ESCUTC
  6
Continuous
 62
     7
100
AcDbSpline
210
0.0
220
0.0
230
1.0
 70
     8
 71
     3
 72
     8
 73
     4
 74
     0
 42
0.0000000151113239
 43
0.0000000001
 40
0.0
 40
0.0
 40
0.0
 40
0.0
 40
0.0015111323930728
 40
0.0015111323930728
 40
0.0015111323930728
 40
0.0015111323930728
 10
281.888815769835
 20
477.465898952583
 30
0.0
 10
281.8888160939698
 20
477.4658947347372
 30
0.0
 10
281.8888118602005
 20
477.4658527265934
 30
0.0
 10
281.8888030684743
 20
477.4657729369977
 30
0.0
  0
LINE
  5
136
330
C8
100
AcDbEntity
  8
410373040_ESCUTC
  6
Continuous
 62
     7
100
AcDbLine
 10
279.3966729782
 20
479.7678476763
 30
0.0
 11
275.065072009
 21
479.7678476763
 31
0.0
  0
ARC
  5
137
330
C8
100
AcDbEntity
  8
410373040_ESCUTC
  6
Continuous
 62
     7
100
AcDbCircle
 10
279.396672979
 20
477.2678476807
 30
0.0
 40
2.499999999289741
100
AcDbArc
 50
4.5437619734
 51
90.0000000161
  0
ARC
  5
138
330
C8
100
AcDbEntity
  8
410373040_ESCUTC
  6
Continuous
 62
     7
100
AcDbCircle
 10
279.3966729614
 20
337.8678476733
 30
0.0
 40
2.500000011593895
100
AcDbArc
 50
270.0000003801
 51
355.4562376951
  0
ARC
  5
139
330
C8
100
AcDbEntity
  8
410373040_ESCUTC
  6
Continuous
 62
     7
100
AcDbCircle
 10
283.9501796217
 20
476.7678476764
 30
0.0
 40
2.000000005518552
100
AcDbArc
 50
184.4884411283
 51
267.9419235136
  0
ARC
  5
13A
330
C8
100
AcDbEntity
  8
410373040_ESCUTC
  6
Continuous
 62
     7
100
AcDbCircle
 10
283.7885734341
 20
472.270750444
 30
0.0
 40
2.500000003052833
100
AcDbArc
 50
4.2033815337
 51
87.9419236155
  0
ARC
  5
13B
330
C8
100
AcDbEntity
  8
410373040_ESCUTC
  6
Continuous
 62
     7
100
AcDbCircle
 10
283.7885736476
 20
342.8649448657
 30
0.0
 40
2.499999967001632
100
AcDbArc
 50
272.0580733674
 51
355.7966185826
  0
ARC
  5
13C
330
C8
100
AcDbEntity
  8
410373040_ESCUTC
  6
Continuous
 62
     7
100
AcDbCircle
 10
-9968.5397289679
 20
407.5678219413
 30
0.0
 40
10255.99742801355
100
AcDbArc
 50
359.7300476185
 51
0.2699526711
  0
ARC
  5
13D
330
C8
100
AcDbEntity
  8
410373040_ESCUTC
  6
Continuous
 62
     7
100
AcDbCircle
 10
-9907.4189197293
 20
407.5678220576
 30
0.0
 40
10194.83255478602
100
AcDbArc
 50
359.7303946568
 51
359.73039731
  0
LINE
  5
13E
330
C8
100
AcDbEntity
  8
410373040_ESCUTC
  6
Continuous
 62
     7
100
AcDbLine
 10
281.9385722576
 20
476.6101111553
 30
0.0
 11
281.879622203
 21
477.4652674146
 31
0.0
  0
LINE
  5
13F
330
C8
100
AcDbEntity
  8
410373040_ESCUTC
  6
Continuous
 62
     7
100
AcDbLine
 10
281.8796226908
 20
337.6704350037
 30
0.0
 11
281.938572767
 21
338.5255915762
 31
0.0
  0
LINE
  5
140
330
C8
100
AcDbEntity
  8
410373040_ESCUTC
  6
Continuous
 62
     7
100
AcDbLine
 10
287.3012620809
 20
455.8565024937
 30
0.0
 11
286.2725759017
 21
472.4534161085
 31
0.0
  0
LINE
  5
141
330
C8
100
AcDbEntity
  8
410373040_ESCUTC
  6
Continuous
 62
     7
100
AcDbLine
 10
286.2725764297
 20
342.6822848852
 30
0.0
 11
287.2997308834
 21
359.2544836147
 31
0.0
  0
LINE
  5
142
330
C8
100
AcDbEntity
  8
410373040_ESCUTC
  6
Continuous
 62
     7
100
AcDbLine
 10
281.8876385917
 20
477.4619350033
 30
0.0
 11
281.8826149711
 21
477.50987121
 31
0.0
  0
ARC
  5
143
330
C8
100
AcDbEntity
  8
410373040_ESCUTC
  6
Continuous
 62
     7
100
AcDbCircle
 10
286.047915042
 20
472.453152341
 30
0.0
 40
0.2333473283256154
100
AcDbArc
 50
359.2330463456
 51
8.72173181
  0
LINE
  5
145
330
C8
100
AcDbEntity
  8
410228031_BEARIN
  6
Continuous
 62
     7
100
AcDbLine
 10
304.6650725908
 20
376.017847669
 30
0.0
 11
304.6650725908
 21
439.117847669
 31
0.0
  0
LINE
  5
146
330
C8
100
AcDbEntity
  8
410228031_BEARIN
  6
Continuous
 62
     7
100
AcDbLine
 10
304.0650725908
 20
376.017847669
 30
0.0
 11
304.6650725908
 21
376.017847669
 31
0.0
  0
LINE
  5
147
330
C8
100
AcDbEntity
  8
410228031_BEARIN
  6
Continuous
 62
     7
100
AcDbLine
 10
304.6650725908
 20
439.117847669
 30
0.0
 11
304.0650725908
 21
439.117847669
 31
0.0
  0
LINE
  5
149
330
C8
100
AcDbEntity
  8
DV2_Standard
  6
CENTER2
 62
     7
100
AcDbLine
 10
295.0650715619
 20
407.5678476697
 30
0.0
 11
255.065072456
 21
407.5678476697
 31
0.0
  0
LINE
  5
14A
330
C8
100
AcDbEntity
  8
DV2_Standard
  6
CENTER2
 62
     7
100
AcDbLine
 10
275.065072009
 20
427.5678472227
 30
0.0
 11
275.065072009
 21
387.5678481167
 31
0.0
  0
ENDBLK
  5
14C
330
C8
100
AcDbEntity
  8
0
100
AcDbBlockEnd
  0
BLOCK
  5
1B1
330
14D
100
AcDbEntity
  8
0
100
AcDbBlockBegin
  2
SE2
 70
     0
 10
0.0
 20
0.0
 30
0.0
  3
SE2
  1

  0
LINE
  5
14F
330
14D
100
AcDbEntity
  8
410064038_SLEEVE
  6
Continuous
 62
     7
100
AcDbLine
 10
69.399995
 20
202.0
 30
0.0
 11
132.899995
 21
202.0
 31
0.0
  0
LINE
  5
150
330
14D
100
AcDbEntity
  8
410064038_SLEEVE
  6
Continuous
 62
     7
100
AcDbLine
 10
132.899995
 20
202.0
 30
0.0
 11
132.899995
 21
218.6730722906
 31
0.0
  0
LINE
  5
151
330
14D
100
AcDbEntity
  8
410064038_SLEEVE
  6
Continuous
 62
     7
100
AcDbLine
 10
69.399995
 20
218.6731173723
 30
0.0
 11
69.399995
 21
202.0
 31
0.0
  0
LINE
  5
152
330
14D
100
AcDbEntity
  8
410306038_DIVERT
  6
Continuous
 62
     7
100
AcDbLine
 10
132.2472557745
 20
200.9
 30
0.0
 11
70.0527342255
 21
200.9
 31
0.0
  0
LINE
  5
153
330
14D
100
AcDbEntity
  8
410306038_DIVERT
  6
Continuous
 62
     7
100
AcDbLine
 10
69.9043774731
 20
182.9
 30
0.0
 11
132.3956125269
 21
182.9
 31
0.0
  0
LINE
  5
154
330
14D
100
AcDbEntity
  8
410306038_DIVERT
  6
Continuous
 62
     7
100
AcDbLine
 10
132.8955934884
 20
183.4043632678
 30
0.0
 11
132.747236736
 21
200.4043632678
 31
0.0
  0
LINE
  5
155
330
14D
100
AcDbEntity
  8
410306038_DIVERT
  6
Continuous
 62
     7
100
AcDbLine
 10
69.552753264
 20
200.4043632678
 30
0.0
 11
69.4043965116
 21
183.4043632678
 31
0.0
  0
LINE
  5
156
330
14D
100
AcDbEntity
  8
410306038_DIVERT
  6
Continuous
 62
     7
100
AcDbLine
 10
131.1482648575
 20
201.0982546929
 30
0.0
 11
131.1456315661
 21
201.4
 31
0.0
  0
LINE
  5
157
330
14D
100
AcDbEntity
  8
410306038_DIVERT
  6
Continuous
 62
     7
100
AcDbLine
 10
71.1543584339
 20
201.4
 30
0.0
 11
71.1517251425
 21
201.0982546929
 31
0.0
  0
ARC
  5
158
330
14D
100
AcDbEntity
  8
410306038_DIVERT
  6
Continuous
 62
     7
100
AcDbCircle
 10
131.3482572421
 20
201.1
 30
0.0
 40
0.1999999999999988
100
AcDbArc
 50
180.5
 51
270.0
  0
ARC
  5
159
330
14D
100
AcDbEntity
  8
410306038_DIVERT
  6
Continuous
 62
     7
100
AcDbCircle
 10
70.9517327579
 20
201.1
 30
0.0
 40
0.2000000000000034
100
AcDbArc
 50
270.0
 51
359.5
  0
ARC
  5
15A
330
14D
100
AcDbEntity
  8
410306038_DIVERT
  6
Continuous
 62
     7
100
AcDbCircle
 10
132.2472557745
 20
200.4
 30
0.0
 40
0.500000000000005
100
AcDbArc
 50
0.5
 51
90.0
  0
ARC
  5
15B
330
14D
100
AcDbEntity
  8
410306038_DIVERT
  6
Continuous
 62
     7
100
AcDbCircle
 10
70.0527342255
 20
200.4
 30
0.0
 40
0.5000000000000004
100
AcDbArc
 50
90.0
 51
179.5
  0
ARC
  5
15C
330
14D
100
AcDbEntity
  8
410306038_DIVERT
  6
Continuous
 62
     7
100
AcDbCircle
 10
132.3956125269
 20
183.4
 30
0.0
 40
0.5000000000000004
100
AcDbArc
 50
270.0
 51
0.5
  0
ARC
  5
15D
330
14D
100
AcDbEntity
  8
410306038_DIVERT
  6
Continuous
 62
     7
100
AcDbCircle
 10
69.9043774731
 20
183.4
 30
0.0
 40
0.4999999999999969
100
AcDbArc
 50
179.5
 51
270.0
  0
LINE
  5
15E
330
14D
100
AcDbEntity
  8
410317038_HANDLE
  6
Continuous
 62
     7
100
AcDbLine
 10
88.3587709631
 20
142.6
 30
0.0
 11
113.9412190369
 21
142.6
 31
0.0
  0
LINE
  5
15F
330
14D
100
AcDbEntity
  8
410317038_HANDLE
  6
Continuous
 62
     7
100
AcDbLine
 10
132.6964735214
 20
182.4129103926
 30
0.0
 11
69.6035164786
 21
182.4129103926
 31
0.0
  0
CIRCLE
  5
160
330
14D
100
AcDbEntity
  8
410317038_HANDLE
  6
Continuous
 62
     7
100
AcDbCircle
 10
101.149995
 20
171.51
 30
0.0
 40
8.000000000000009
  0
LINE
  5
161
330
14D
100
AcDbEntity
  8
410317038_HANDLE
  6
Continuous
 62
     7
100
AcDbLine
 10
71.949995
 20
182.9
 30
0.0
 11
71.949995
 21
182.4129103926
 31
0.0
  0
LINE
  5
162
330
14D
100
AcDbEntity
  8
410317038_HANDLE
  6
Continuous
 62
     7
100
AcDbLine
 10
130.349995
 20
182.4129103926
 30
0.0
 11
130.349995
 21
182.9
 31
0.0
  0
LINE
  5
163
330
14D
100
AcDbEntity
  8
410317038_HANDLE
  6
Continuous
 62
     7
100
AcDbLine
 10
69.4035469396
 20
182.2094199113
 30
0.0
 11
69.8153016399
 21
158.6200089265
 31
0.0
  0
LINE
  5
164
330
14D
100
AcDbEntity
  8
410317038_HANDLE
  6
Continuous
 62
     7
100
AcDbLine
 10
132.4846883601
 20
158.6200089265
 30
0.0
 11
132.8964430604
 21
182.2094199113
 31
0.0
  0
ARC
  5
165
330
14D
100
AcDbEntity
  8
410317038_HANDLE
  6
Continuous
 62
     7
100
AcDbCircle
 10
68.8321682422
 20
136.8580623057
 30
0.0
 40
19.9999999999998
100
AcDbArc
 50
17.7271688632
 51
82.2076593763
  0
ARC
  5
166
330
14D
100
AcDbEntity
  8
410317038_HANDLE
  6
Continuous
 62
     7
100
AcDbCircle
 10
133.4678217578
 20
136.8580623057
 30
0.0
 40
19.99999999999999
100
AcDbArc
 50
97.7923406237
 51
162.2728311368
  0
ARC
  5
167
330
14D
100
AcDbEntity
  8
410317038_HANDLE
  6
Continuous
 62
     7
100
AcDbCircle
 10
130.4849929698
 20
158.6549137394
 30
0.0
 40
2.000000000000197
100
AcDbArc
 50
277.7923406236
 51
359.0
  0
ARC
  5
168
330
14D
100
AcDbEntity
  8
410317038_HANDLE
  6
Continuous
 62
     7
100
AcDbCircle
 10
71.8149970302
 20
158.6549137394
 30
0.0
 40
2.000000000000004
100
AcDbArc
 50
181.0
 51
262.2076593764
  0
ARC
  5
169
330
14D
100
AcDbEntity
  8
410317038_HANDLE
  6
Continuous
 62
     7
100
AcDbCircle
 10
113.9412190369
 20
143.1
 30
0.0
 40
0.5000000000000004
100
AcDbArc
 50
270.0
 51
342.2728311368
  0
ARC
  5
16A
330
14D
100
AcDbEntity
  8
410317038_HANDLE
  6
Continuous
 62
     7
100
AcDbCircle
 10
88.3587709631
 20
143.1
 30
0.0
 40
0.5000000000000018
100
AcDbArc
 50
197.7271688632
 51
270.0
  0
ARC
  5
16B
330
14D
100
AcDbEntity
  8
410317038_HANDLE
  6
Continuous
 62
     7
100
AcDbCircle
 10
132.6964735214
 20
182.2129103926
 30
0.0
 40
0.1999999999999992
100
AcDbArc
 50
359.0
 51
90.0
  0
ARC
  5
16C
330
14D
100
AcDbEntity
  8
410317038_HANDLE
  6
Continuous
 62
     7
100
AcDbCircle
 10
69.6035164786
 20
182.2129103926
 30
0.0
 40
0.1999999999999988
100
AcDbArc
 50
90.0
 51
181.0
  0
SPLINE
  5
16D
330
14D
100
AcDbEntity
  8
410310038_RING_K
  6
Continuous
 62
     7
100
AcDbSpline
210
0.0
220
0.0
230
1.0
 70
     8
 71
     3
 72
     8
 73
     4
 74
     0
 42
0.000000001440906
 43
0.0000000001
 40
0.0
 40
0.0
 40
0.0
 40
0.0
 40
1.0
 40
1.0
 40
1.0
 40
1.0
 10
88.19808279045829
 20
141.9067568127128
 30
0.0
 10
89.00423029293253
 20
139.6088040408141
 30
0.0
 10
89.56496299169139
 20
137.3718571267138
 30
0.0
 10
89.88028088673491
 20
135.1959160704122
 30
0.0
  0
SPLINE
  5
16E
330
14D
100
AcDbEntity
  8
410310038_RING_K
  6
Continuous
 62
     7
100
AcDbSpline
210
0.0
220
0.0
230
1.0
 70
     8
 71
     3
 72
     8
 73
     4
 74
     0
 42
0.0000000014135477
 43
0.0000000001
 40
0.0158698827406583
 40
0.0158698827406583
 40
0.0158698827406583
 40
0.0158698827406583
 40
1.0
 40
1.0
 40
1.0
 40
1.0
 10
112.413144424652
 20
135.1807860675584
 30
0.0
 10
112.8993186478793
 20
138.0066509771153
 30
0.0
 10
113.4601321954989
 20
140.2514492205823
 30
0.0
 10
114.0955850675109
 20
141.9151807979596
 30
0.0
  0
ARC
  5
16F
330
14D
100
AcDbEntity
  8
410310038_RING_K
  6
Continuous
 62
     7
100
AcDbCircle
 10
98.2103341365
 20
130.4219851826
 30
0.0
 40
9.499999999999986
100
AcDbArc
 50
151.8850039707
 51
164.2095579456
  0
ARC
  5
170
330
14D
100
AcDbEntity
  8
410310038_RING_K
  6
Continuous
 62
     7
100
AcDbCircle
 10
104.0896558635
 20
130.4219851826
 30
0.0
 40
9.49999999999999
100
AcDbArc
 50
15.7904420544
 51
28.1149960293
  0
ARC
  5
171
330
14D
100
AcDbEntity
  8
410310038_RING_K
  6
Continuous
 62
     7
100
AcDbCircle
 10
89.549963525
 20
132.8710627376
 30
0.0
 40
0.4999999999999897
100
AcDbArc
 50
164.2095579456
 51
219.8055710923
  0
ARC
  5
172
330
14D
100
AcDbEntity
  8
410310038_RING_K
  6
Continuous
 62
     7
100
AcDbCircle
 10
112.750026475
 20
132.8710627376
 30
0.0
 40
0.5000000000000157
100
AcDbArc
 50
320.1944289077
 51
15.7904420544
  0
LINE
  5
173
330
14D
100
AcDbEntity
  8
410310038_RING_K
  6
Continuous
 62
     7
100
AcDbLine
 10
89.1658528852
 20
132.5509705378
 30
0.0
 11
89.6000718332
 21
132.0299078002
 31
0.0
  0
LINE
  5
174
330
14D
100
AcDbEntity
  8
410310038_RING_K
  6
Continuous
 62
     7
100
AcDbLine
 10
112.6999181668
 20
132.0299078002
 30
0.0
 11
113.1341371148
 21
132.5509705378
 31
0.0
  0
ARC
  5
175
330
14D
100
AcDbEntity
  8
410310038_RING_K
  6
Continuous
 62
     7
100
AcDbCircle
 10
89.3902985583
 20
135.1344126248
 30
0.0
 40
0.499999999999997
100
AcDbArc
 50
331.8850039707
 51
8.9249464668
  0
ARC
  5
176
330
14D
100
AcDbEntity
  8
410310038_RING_K
  6
Continuous
 62
     7
100
AcDbCircle
 10
112.9096914417
 20
135.1344126248
 30
0.0
 40
0.5000000000000151
100
AcDbArc
 50
171.0750535332
 51
208.1149960293
  0
ARC
  5
177
330
14D
100
AcDbEntity
  8
410310038_RING_K
  6
Continuous
 62
     7
100
AcDbCircle
 10
88.6957545628
 20
142.1
 30
0.0
 40
0.5000000000000004
100
AcDbArc
 50
90.0
 51
198.8443742512
  0
ARC
  5
178
330
14D
100
AcDbEntity
  8
410310038_RING_K
  6
Continuous
 62
     7
100
AcDbCircle
 10
113.6042354372
 20
142.1
 30
0.0
 40
0.4999999999999963
100
AcDbArc
 50
341.1556257488
 51
90.0
  0
ARC
  5
179
330
14D
100
AcDbEntity
  8
410310038_RING_K
  6
Continuous
 62
     7
100
AcDbCircle
 10
112.315807527
 20
132.35
 30
0.0
 40
0.5000000000000004
100
AcDbArc
 50
270.0
 51
320.1944289077
  0
ARC
  5
17A
330
14D
100
AcDbEntity
  8
410310038_RING_K
  6
Continuous
 62
     7
100
AcDbCircle
 10
89.984182473
 20
132.35
 30
0.0
 40
0.5000000000000222
100
AcDbArc
 50
219.8055710923
 51
270.0
  0
LINE
  5
17B
330
14D
100
AcDbEntity
  8
410005038_HANDLE
  6
Continuous
 62
     7
100
AcDbLine
 10
90.8721584361
 20
113.75
 30
0.0
 11
111.4278315639
 21
113.75
 31
0.0
  0
LINE
  5
17C
330
14D
100
AcDbEntity
  8
410005038_HANDLE
  6
Continuous
 62
     7
100
AcDbLine
 10
112.3573202865
 20
131.85
 30
0.0
 11
89.9426697135
 21
131.85
 31
0.0
  0
ARC
  5
17D
330
14D
100
AcDbEntity
  8
410005038_HANDLE
  6
Continuous
 62
     7
100
AcDbCircle
 10
101.149995
 20
123.383924434
 30
0.0
 40
14.25
100
AcDbArc
 50
144.5950951231
 51
180.0
  0
ARC
  5
17E
330
14D
100
AcDbEntity
  8
410005038_HANDLE
  6
Continuous
 62
     7
100
AcDbCircle
 10
101.149995
 20
123.383924434
 30
0.0
 40
14.25
100
AcDbArc
 50
318.372472413
 51
35.4049048769
  0
ARC
  5
17F
330
14D
100
AcDbEntity
  8
410005038_HANDLE
  6
Continuous
 62
     7
100
AcDbCircle
 10
101.149995
 20
123.383924434
 30
0.0
 40
14.25
100
AcDbArc
 50
180.0
 51
221.627527587
  0
ARC
  5
180
330
14D
100
AcDbEntity
  8
410005038_HANDLE
  6
Continuous
 62
     7
100
AcDbCircle
 10
111.4278315639
 20
114.25
 30
0.0
 40
0.5000000000000004
100
AcDbArc
 50
270.0
 51
318.372472413
  0
ARC
  5
181
330
14D
100
AcDbEntity
  8
410005038_HANDLE
  6
Continuous
 62
     7
100
AcDbCircle
 10
90.8721584361
 20
114.25
 30
0.0
 40
0.5000000000000097
100
AcDbArc
 50
221.627527587
 51
270.0
  0
ARC
  5
182
330
14D
100
AcDbEntity
  8
410005038_HANDLE
  6
Continuous
 62
     7
100
AcDbCircle
 10
89.9426697135
 20
131.35
 30
0.0
 40
0.5000000000000004
100
AcDbArc
 50
90.0
 51
144.5950951231
  0
ARC
  5
183
330
14D
100
AcDbEntity
  8
410005038_HANDLE
  6
Continuous
 62
     7
100
AcDbCircle
 10
112.3573202865
 20
131.35
 30
0.0
 40
0.4999999999999993
100
AcDbArc
 50
35.4049048769
 51
90.0
  0
LINE
  5
184
330
14D
100
AcDbEntity
  8
410006038_DECORA
  6
Continuous
 62
     7
100
AcDbLine
 10
110.5068849675
 20
108.85
 30
0.0
 11
91.7931050325
 21
108.85
 31
0.0
  0
ARC
  5
185
330
14D
100
AcDbEntity
  8
410006038_DECORA
  6
Continuous
 62
     7
100
AcDbCircle
 10
91.1054583992
 20
113.25
 30
0.0
 40
0.5000000000000004
100
AcDbArc
 50
90.0
 51
173.2851563915
  0
ARC
  5
186
330
14D
100
AcDbEntity
  8
410006038_DECORA
  6
Continuous
 62
     7
100
AcDbCircle
 10
111.1945316008
 20
113.25
 30
0.0
 40
0.5000000000000002
100
AcDbArc
 50
6.7148436085
 51
90.0
  0
ARC
  5
187
330
14D
100
AcDbEntity
  8
410006038_DECORA
  6
Continuous
 62
     7
100
AcDbCircle
 10
81.5713103209
 20
114.3725091629
 30
0.0
 40
9.100000333333368
100
AcDbArc
 50
333.7226300101
 51
353.2851563915
  0
ARC
  5
188
330
14D
100
AcDbEntity
  8
410006038_DECORA
  6
Continuous
 62
     7
100
AcDbCircle
 10
120.7286796791
 20
114.3725091629
 30
0.0
 40
9.100000333333359
100
AcDbArc
 50
186.7148436085
 51
206.2773699899
  0
ARC
  5
189
330
14D
100
AcDbEntity
  8
410006038_DECORA
  6
Continuous
 62
     7
100
AcDbCircle
 10
90.3585919426
 20
110.0338817033
 30
0.0
 40
0.7000000000000013
100
AcDbArc
 50
153.7226300103
 51
251.1008225568
  0
ARC
  5
18A
330
14D
100
AcDbEntity
  8
410006038_DECORA
  6
Continuous
 62
     7
100
AcDbCircle
 10
111.9413980574
 20
110.0338817033
 30
0.0
 40
0.7000000000000045
100
AcDbArc
 50
288.8991774432
 51
26.2773699897
  0
ARC
  5
18B
330
14D
100
AcDbEntity
  8
410006038_DECORA
  6
Continuous
 62
     7
100
AcDbCircle
 10
101.1445896767
 20
141.5386790028
 30
0.0
 40
34.00000000000158
100
AcDbArc
 50
251.1008225568
 51
254.0353836123
  0
ARC
  5
18C
330
14D
100
AcDbEntity
  8
410006038_DECORA
  6
Continuous
 62
     7
100
AcDbCircle
 10
101.1554003233
 20
141.5386790028
 30
0.0
 40
34.00000000000158
100
AcDbArc
 50
285.9646163877
 51
288.8991774432
  0
LINE
  5
18D
330
14D
100
AcDbEntity
  8
12080006_MP_HE_P
  6
Continuous
 62
     7
100
AcDbLine
 10
92.199995
 20
108.85
 30
0.0
 11
92.199995
 21
108.7088944347
 31
0.0
  0
LINE
  5
18E
330
14D
100
AcDbEntity
  8
12080006_MP_HE_P
  6
Continuous
 62
     7
100
AcDbLine
 10
110.099995
 20
108.7088944347
 30
0.0
 11
110.099995
 21
108.85
 31
0.0
  0
ARC
  5
18F
330
14D
100
AcDbEntity
  8
12080006_MP_HE_P
  6
Continuous
 62
     7
100
AcDbCircle
 10
101.149995
 20
125.85
 30
0.0
 40
19.5
100
AcDbArc
 50
243.2228950132
 51
296.7771049868
  0
ARC
  5
190
330
14D
100
AcDbEntity
  8
12080006_MP_HE_P
  6
Continuous
 62
     7
100
AcDbCircle
 10
92.499995
 20
108.7088944347
 30
0.0
 40
0.2999999999999999
100
AcDbArc
 50
180.0
 51
243.2228950132
  0
ARC
  5
191
330
14D
100
AcDbEntity
  8
12080006_MP_HE_P
  6
Continuous
 62
     7
100
AcDbCircle
 10
109.799995
 20
108.7088944347
 30
0.0
 40
0.2999999999999987
100
AcDbArc
 50
296.7771049868
 51
0.0
  0
LINE
  5
192
330
14D
100
AcDbEntity
  8
410373040_ESCUTC
  6
Continuous
 62
     7
100
AcDbLine
 10
195.9499938749
 20
231.0000005819
 30
0.0
 11
101.149998875
 21
231.0000005819
 31
0.0
  0
LINE
  5
193
330
14D
100
AcDbEntity
  8
410373040_ESCUTC
  6
Continuous
 62
     7
100
AcDbLine
 10
101.149998875
 20
231.0000005819
 30
0.0
 11
6.3500038749
 21
231.0000005819
 31
0.0
  0
SPLINE
  5
194
330
14D
100
AcDbEntity
  8
410373040_ESCUTC
  6
Continuous
 62
     7
100
AcDbSpline
210
0.0
220
0.0
230
1.0
 70
     8
 71
     3
 72
     8
 73
     4
 74
     0
 42
0.0000000214380652
 43
0.0000000001
 40
0.0
 40
0.0
 40
0.0
 40
0.0
 40
0.0021438065199386
 40
0.0021438065199386
 40
0.0021438065199386
 40
0.0021438065199386
 10
9.53684618661836
 20
225.6969667776371
 30
0.0
 10
9.536846186591383
 20
225.6969667777354
 30
0.0
 10
9.536953501398242
 20
225.6969725975659
 30
0.0
 10
9.53716810840019
 20
225.6969842341786
 30
0.0
  0
SPLINE
  5
195
330
14D
100
AcDbEntity
  8
410373040_ESCUTC
  6
Continuous
 62
     7
100
AcDbSpline
210
0.0
220
0.0
230
1.0
 70
     8
 71
     3
 72
    18
 73
    14
 74
     0
 42
0.0000000003726255
 43
0.0000000001
 40
0.0021438065199386
 40
0.0021438065199386
 40
0.0021438065199386
 40
0.0021438065199386
 40
0.2500000000000031
 40
0.2500000000000031
 40
0.3125000000000039
 40
0.3125000000000039
 40
0.3437500000000044
 40
0.3437500000000044
 40
0.3593750000000046
 40
0.3593750000000046
 40
0.3750000000000048
 40
0.3750000000000048
 40
0.3804995538023029
 40
0.3804995538023029
 40
0.3804995538023029
 40
0.3804995538023029
 10
9.53716810840019
 20
225.6969842341786
 30
0.0
 10
9.561979897197787
 20
225.6983296011602
 30
0.0
 10
11.02094805847868
 20
225.7774268962968
 30
0.0
 10
14.59980141017014
 20
225.9681186002301
 30
0.0
 10
15.41136405292533
 20
226.0112493805007
 30
0.0
 10
16.76640628529133
 20
226.082973183389
 30
0.0
 10
17.23988751433476
 20
226.1079912206321
 30
0.0
 10
17.98279273460954
 20
226.1471631874525
 30
0.0
 10
18.23592541641937
 20
226.1604972957163
 30
0.0
 10
18.75282484455684
 20
226.1876966795439
 30
0.0
 10
18.98699356260078
 20
226.2047774147503
 30
0.0
 10
19.41678361051026
 20
226.2166958599067
 30
0.0
 10
19.54122566161298
 20
226.2185162327204
 30
0.0
 10
19.67708903151413
 20
226.2190803369726
 30
0.0
  0
SPLINE
  5
196
330
14D
100
AcDbEntity
  8
410373040_ESCUTC
  6
Continuous
 62
     7
100
AcDbSpline
210
0.0
220
0.0
230
1.0
 70
     8
 71
     3
 72
    16
 73
    12
 74
     0
 42
0.0000000000791424
 43
0.0000000001
 40
0.3804995538023029
 40
0.3804995538023029
 40
0.3804995538023029
 40
0.3804995538023029
 40
0.4062500000000051
 40
0.4062500000000051
 40
0.4218750000000051
 40
0.4218750000000051
 40
0.4375000000000052
 40
0.4375000000000052
 40
0.5000000000000056
 40
0.5000000000000056
 40
0.6107323041832821
 40
0.6107323041832821
 40
0.6107323041832821
 40
0.6107323041832821
 10
19.67708903151413
 20
226.2190803369726
 30
0.0
 10
20.31323925799543
 20
226.2217216305607
 30
0.0
 10
21.19978748771358
 20
226.1968208210965
 30
0.0
 10
22.84032380752571
 20
226.116877698868
 30
0.0
 10
23.51829852939295
 20
226.0772885021636
 30
0.0
 10
24.91374741610673
 20
225.9834686623307
 30
0.0
 10
25.61177995175635
 20
225.9372442782814
 30
0.0
 10
29.08955924559756
 20
225.7143445701673
 30
0.0
 10
31.85046860661811
 20
225.5570386159457
 30
0.0
 10
39.40825604613603
 20
225.1814249023483
 30
0.0
 10
44.1283485513157
 20
225.0094268733916
 30
0.0
 10
48.73469947897625
 20
224.9077606648062
 30
0.0
  0
SPLINE
  5
197
330
14D
100
AcDbEntity
  8
410373040_ESCUTC
  6
Continuous
 62
     7
100
AcDbSpline
210
0.0
220
0.0
230
1.0
 70
     8
 71
     3
 72
    18
 73
    14
 74
     0
 42
0.0000000000766198
 43
0.0000000001
 40
0.6107323041832821
 40
0.6107323041832821
 40
0.6107323041832821
 40
0.6107323041832821
 40
0.6250000000000064
 40
0.6250000000000064
 40
0.6406250000000066
 40
0.6406250000000066
 40
0.6484375000000064
 40
0.6484375000000064
 40
0.6562500000000062
 40
0.6562500000000062
 40
0.6875000000000057
 40
0.6875000000000057
 40
0.728239779043937
 40
0.728239779043937
 40
0.728239779043937
 40
0.728239779043937
 10
48.73469947897625
 20
224.9077606648062
 30
0.0
 10
49.32822107455479
 20
224.8946611221783
 30
0.0
 10
49.9198543385515
 20
224.8827292246676
 30
0.0
 10
51.15543484678513
 20
224.8601867094807
 30
0.0
 10
51.80025051278267
 20
224.849483746367
 30
0.0
 10
52.75980470725131
 20
224.8366957782484
 30
0.0
 10
53.07908180224589
 20
224.8327926949017
 30
0.0
 10
53.73772057586996
 20
224.8200298145664
 30
0.0
 10
54.07789591463079
 20
224.810949985529
 30
0.0
 10
55.80126403970929
 20
224.760531796106
 30
0.0
 10
57.19446224310414
 20
224.7194914788466
 30
0.0
 10
60.40531830954715
 20
224.6319072712257
 30
0.0
 10
62.23292731837267
 20
224.5854079351286
 30
0.0
 10
64.06659445191235
 20
224.5421000576869
 30
0.0
  0
SPLINE
  5
198
330
14D
100
AcDbEntity
  8
410373040_ESCUTC
  6
Continuous
 62
     7
100
AcDbSpline
210
0.0
220
0.0
230
1.0
 70
     8
 71
     3
 72
    10
 73
     6
 74
     0
 42
0.0000000000732758
 43
0.0000000001
 40
0.728239779043937
 40
0.728239779043937
 40
0.728239779043937
 40
0.728239779043937
 40
0.7500000000000046
 40
0.7500000000000046
 40
1.0
 40
1.0
 40
1.0
 40
1.0
 10
64.06659445191235
 20
224.5421000576869
 30
0.0
 10
65.04600580175487
 20
224.5189681457232
 30
0.0
 10
66.0271454847993
 20
224.4967467306899
 30
0.0
 10
78.29348927868837
 20
224.2308375053231
 30
0.0
 10
89.6735078616732
 20
224.1087069601014
 30
0.0
 10
101.1498233461212
 20
224.1087592583336
 30
0.0
  0
SPLINE
  5
199
330
14D
100
AcDbEntity
  8
410373040_ESCUTC
  6
Continuous
 62
     7
100
AcDbSpline
210
0.0
220
0.0
230
1.0
 70
     8
 71
     3
 72
     8
 73
     4
 74
     0
 42
0.0000000000736649
 43
0.0000000001
 40
0.0
 40
0.0
 40
0.0
 40
0.0
 40
0.0409604203067225
 40
0.0409604203067225
 40
0.0409604203067225
 40
0.0409604203067225
 10
101.1498233461212
 20
224.1087592583336
 30
0.0
 10
103.0065525598342
 20
224.1087503673184
 30
0.0
 10
104.8600007720402
 20
224.1119400173949
 30
0.0
 10
106.7101789268529
 20
224.1183215244525
 30
0.0
  0
SPLINE
  5
19A
330
14D
100
AcDbEntity
  8
410373040_ESCUTC
  6
Continuous
 62
     7
100
AcDbSpline
210
0.0
220
0.0
230
1.0
 70
     8
 71
     3
 72
    28
 73
    24
 74
     0
 42
0.0000000000770941
 43
0.0000000001
 40
0.0409604203067225
 40
0.0409604203067225
 40
0.0409604203067225
 40
0.0409604203067225
 40
0.2500000000000004
 40
0.2500000000000004
 40
0.3125000000000005
 40
0.3125000000000005
 40
0.3437500000000006
 40
0.3437500000000006
 40
0.3593750000000005
 40
0.3593750000000005
 40
0.3750000000000006
 40
0.3750000000000006
 40
0.5000000000000007
 40
0.5000000000000007
 40
0.562500000000001
 40
0.562500000000001
 40
0.578125000000001
 40
0.578125000000001
 40
0.5937500000000011
 40
0.5937500000000011
 40
0.6250000000000012
 40
0.6250000000000012
 40
0.6262830934159606
 40
0.6262830934159606
 40
0.6262830934159606
 40
0.6262830934159606
 10
106.7101789268529
 20
224.1183215244525
 30
0.0
 10
116.1524761724274
 20
224.1508892457582
 30
0.0
 10
125.5096040129957
 20
224.2665896241542
 30
0.0
 10
137.5556419375413
 20
224.5237169488347
 30
0.0
 10
140.3206880737335
 20
224.5902831542986
 30
0.0
 10
144.4567703963595
 20
224.7013415699408
 30
0.0
 10
145.8338812392808
 20
224.7404436492512
 30
0.0
 10
147.8958736623811
 20
224.8014220819679
 30
0.0
 10
148.5872093021069
 20
224.8223627329205
 30
0.0
 10
149.8622704634864
 20
224.8420470825685
 30
0.0
 10
150.4854942178768
 20
224.8494830676457
 30
0.0
 10
156.1949552874943
 20
224.9458876167809
 30
0.0
 10
161.4479022447959
 20
225.1189108423786
 30
0.0
 10
169.5462396241772
 20
225.5085629287875
 30
0.0
 10
172.2734726503605
 20
225.6595835959247
 30
0.0
 10
175.7172725893134
 20
225.8746748422897
 30
0.0
 10
176.4077436155345
 20
225.9190098050443
 30
0.0
 10
177.7923881673022
 20
226.0103402875975
 30
0.0
 10
178.4925736180761
 20
226.0591251596821
 30
0.0
 10
180.4815829997839
 20
226.1745914873445
 30
0.0
 10
181.6823881928408
 20
226.218530436978
 30
0.0
 10
182.527071528943
 20
226.2194532450349
 30
0.0
 10
182.5595811561307
 20
226.2193978245134
 30
0.0
 10
182.591342453913
 20
226.2192576108888
 30
0.0
  0
SPLINE
  5
19B
330
14D
100
AcDbEntity
  8
410373040_ESCUTC
  6
Continuous
 62
     7
100
AcDbSpline
210
0.0
220
0.0
230
1.0
 70
     8
 71
     3
 72
    16
 73
    12
 74
     0
 42
0.0000000003669064
 43
0.0000000001
 40
0.6262830934159606
 40
0.6262830934159606
 40
0.6262830934159606
 40
0.6262830934159606
 40
0.6406250000000011
 40
0.6406250000000011
 40
0.656250000000001
 40
0.656250000000001
 40
0.6875000000000009
 40
0.6875000000000009
 40
0.7500000000000007
 40
0.7500000000000007
 40
1.0
 40
1.0
 40
1.0
 40
1.0
 10
182.591342453913
 20
226.2192576108888
 30
0.0
 10
182.9463575760516
 20
226.2176903589016
 30
0.0
 10
183.2078773427706
 20
226.2055291609129
 30
0.0
 10
183.7225051320678
 20
226.1784749289581
 30
0.0
 10
183.9851888378517
 20
226.1646502504339
 30
0.0
 10
184.7563141239955
 20
226.1240256856027
 30
0.0
 10
185.2478345922729
 20
226.0980750873307
 30
0.0
 10
186.6546724813077
 20
226.0236638732686
 30
0.0
 10
187.5003982867608
 20
225.9787434406171
 30
0.0
 10
191.2482509524086
 20
225.779140230124
 30
0.0
 10
192.763151561145
 20
225.6969667544066
 30
0.0
 10
192.7631515622928
 20
225.6969668147045
 30
0.0
  0
SPLINE
  5
19C
330
14D
100
AcDbEntity
  8
410373040_ESCUTC
  6
Continuous
 62
     7
100
AcDbSpline
210
0.0
220
0.0
230
1.0
 70
     8
 71
     3
 72
    14
 73
    10
 74
     0
 42
0.0000000034121265
 43
0.0000000001
 40
0.0
 40
0.0
 40
0.0
 40
0.0
 40
0.25
 40
0.25
 40
0.5
 40
0.5
 40
0.75
 40
0.75
 40
1.0
 40
1.0
 40
1.0
 40
1.0
 10
192.7631515622928
 20
225.6969668147045
 30
0.0
 10
192.5213249846714
 20
225.6742758614219
 30
0.0
 10
192.283747626779
 20
225.6070579536565
 30
0.0
 10
191.8480114779111
 20
225.3923164798103
 30
0.0
 10
191.6499798383448
 20
225.2448555770661
 30
0.0
 10
191.319362775324
 20
224.8889451253239
 30
0.0
 10
191.1868738286608
 20
224.6805994339369
 30
0.0
 10
191.0047782259811
 20
224.2302428157947
 30
0.0
 10
190.9552247069663
 20
223.9883633068223
 30
0.0
 10
190.9503901065331
 20
223.7455226190379
 30
0.0
  0
LINE
  5
19D
330
14D
100
AcDbEntity
  8
410373040_ESCUTC
  6
Continuous
 62
     7
100
AcDbLine
 10
6.3500038749
 20
228.2728304556
 30
0.0
 11
6.3500038749
 21
231.0000005819
 31
0.0
  0
LINE
  5
19E
330
14D
100
AcDbEntity
  8
410373040_ESCUTC
  6
Continuous
 62
     7
100
AcDbLine
 10
195.9499938749
 20
228.2728304931
 30
0.0
 11
195.9499938749
 21
231.0000005819
 31
0.0
  0
ARC
  5
19F
330
14D
100
AcDbEntity
  8
410373040_ESCUTC
  6
Continuous
 62
     7
100
AcDbCircle
 10
193.4499938749
 20
228.2728304931
 30
0.0
 40
2.500000000000002
100
AcDbArc
 50
275.4141238415
 51
360.0
  0
ARC
  5
1A0
330
14D
100
AcDbEntity
  8
410373040_ESCUTC
  6
Continuous
 62
     7
100
AcDbCircle
 10
8.8500038749
 20
228.2728304556
 30
0.0
 40
2.499999999999996
100
AcDbArc
 50
180.0
 51
264.5858761818
  0
SPLINE
  5
1A1
330
14D
100
AcDbEntity
  8
410373040_ESCUTC
  6
Continuous
 62
     7
100
AcDbSpline
210
0.0
220
0.0
230
1.0
 70
     8
 71
     3
 72
    14
 73
    10
 74
     0
 42
0.0000000034121265
 43
0.0000000001
 40
0.0
 40
0.0
 40
0.0
 40
0.0
 40
0.25
 40
0.25
 40
0.5
 40
0.5
 40
0.75
 40
0.75
 40
1.0
 40
1.0
 40
1.0
 40
1.0
 10
11.34960764316936
 20
223.7455225827053
 30
0.0
 10
11.34477304263763
 20
223.9883632704878
 30
0.0
 10
11.29521952352479
 20
224.2302427794401
 30
0.0
 10
11.11312392066253
 20
224.6805993975085
 30
0.0
 10
10.98063497391479
 20
224.8889450888419
 30
0.0
 10
10.6500179107497
 20
225.24485554045
 30
0.0
 10
10.45198627112351
 20
225.3923164431139
 30
0.0
 10
10.01625012216861
 20
225.6070579167834
 30
0.0
 10
9.778672764248943
 20
225.6742758244525
 30
0.0
 10
9.53684618661836
 20
225.6969667776371
 30
0.0
  0
ARC
  5
1A2
330
14D
100
AcDbEntity
  8
410373040_ESCUTC
  6
Continuous
 62
     7
100
AcDbCircle
 10
188.4508853961
 20
223.7952840765
 30
0.0
 40
2.500000000000001
100
AcDbArc
 50
275.1009610637
 51
358.8594760826
  0
SPLINE
  5
1A3
330
14D
100
AcDbEntity
  8
410373040_ESCUTC
  6
Continuous
 62
     7
100
AcDbSpline
210
0.0
220
0.0
230
1.0
 70
     8
 71
     3
 72
    14
 73
    10
 74
     0
 42
0.0000000027211518
 43
0.0000000001
 40
0.0
 40
0.0
 40
0.0
 40
0.0
 40
0.2499999999999999
 40
0.2499999999999999
 40
0.4999999999999998
 40
0.4999999999999998
 40
0.7499999999999999
 40
0.7499999999999999
 40
1.0
 40
1.0
 40
1.0
 40
1.0
 10
13.62683484413436
 20
221.3051851056268
 30
0.0
 10
13.3234864549166
 20
221.332263356808
 30
0.0
 10
13.02523011164843
 20
221.4153740579175
 30
0.0
 10
12.47795576838395
 20
221.6827776871312
 30
0.0
 10
12.22909945568573
 20
221.8669916132303
 30
0.0
 10
11.81353426581654
 20
222.3123223674807
 30
0.0
 10
11.64694816365516
 20
222.5733076266531
 30
0.0
 10
11.41798204510561
 20
223.1377440041737
 30
0.0
 10
11.35566967470442
 20
223.4410283648545
 30
0.0
 10
11.34960764316936
 20
223.7455225827053
 30
0.0
  0
SPLINE
  5
1A4
330
14D
100
AcDbEntity
  8
410373040_ESCUTC
  6
Continuous
 62
     7
100
AcDbSpline
210
0.0
220
0.0
230
1.0
 70
     8
 71
     3
 72
    38
 73
    34
 74
     0
 42
0.0000000000511357
 43
0.0000000001
 40
0.0016605734312975
 40
0.0016605734312975
 40
0.0016605734312975
 40
0.0016605734312975
 40
0.03125
 40
0.03125
 40
0.0625
 40
0.0625
 40
0.09375
 40
0.09375
 40
0.1250000000000001
 40
0.1250000000000001
 40
0.1562500000000001
 40
0.1562500000000001
 40
0.1875000000000001
 40
0.1875000000000001
 40
0.2187500000000001
 40
0.2187500000000001
 40
0.2500000000000001
 40
0.2500000000000001
 40
0.2812500000000001
 40
0.2812500000000001
 40
0.3125000000000001
 40
0.3125000000000001
 40
0.3437500000000001
 40
0.3437500000000001
 40
0.3750000000000001
 40
0.3750000000000001
 40
0.4062500000000001
 40
0.4062500000000001
 40
0.4375000000000001
 40
0.4375000000000001
 40
0.4687500000000001
 40
0.4687500000000001
 40
0.4995295516370681
 40
0.4995295516370681
 40
0.4995295516370681
 40
0.4995295516370681
 10
52.47036307124744
 20
218.6074050181777
 30
0.0
 10
52.5029834365314
 20
218.6075609815582
 30
0.0
 10
52.82575995681026
 20
218.6091019529679
 30
0.0
 10
54.05148436639134
 20
218.6147945355942
 30
0.0
 10
54.98048422940469
 20
218.6190614758497
 30
0.0
 10
57.43708649325431
 20
218.6297715329189
 30
0.0
 10
58.97295921850458
 20
218.6362379248248
 30
0.0
 10
62.5166822899055
 20
218.6500643375217
 30
0.0
 10
64.53670927030711
 20
218.6574834109847
 30
0.0
 10
69.08960030982519
 20
218.6724978099745
 30
0.0
 10
71.55776604727808
 20
218.6798681482423
 30
0.0
 10
76.8304896785271
 20
218.6934447597729
 30
0.0
 10
79.67148370616134
 20
218.6997227836874
 30
0.0
 10
85.55873706630716
 20
218.7100980898276
 30
0.0
 10
88.5848760609231
 20
218.7141859977599
 30
0.0
 10
94.79978333764163
 20
218.7197576294833
 30
0.0
 10
98.01292425150703
 20
218.7212170046667
 30
0.0
 10
104.3414711530566
 20
218.7212006918294
 30
0.0
 10
107.4856300562568
 20
218.7197711567252
 30
0.0
 10
113.7329495804787
 20
218.7141694764376
 30
0.0
 10
116.8038558700473
 20
218.7099990040275
 30
0.0
 10
122.6471629942057
 20
218.6996783617103
 30
0.0
 10
125.4588152889974
 20
218.6934774512785
 30
0.0
 10
130.7937369457364
 20
218.6797300851529
 30
0.0
 10
133.2476932062411
 20
218.672376446113
 30
0.0
 10
137.7419741030909
 20
218.6575517747407
 30
0.0
 10
139.8012013796856
 20
218.6499986217779
 30
0.0
 10
143.3567856188168
 20
218.6361174448167
 30
0.0
 10
144.8592020359904
 20
218.6297869803035
 30
0.0
 10
147.3137363126294
 20
218.6190871523883
 30
0.0
 10
148.2625067027009
 20
218.6147302640427
 30
0.0
 10
149.5092669401728
 20
218.6089384313094
 30
0.0
 10
149.825276268025
 20
218.6074260161612
 30
0.0
 10
149.8322633856704
 20
218.6073924636344
 30
0.0
  0
LINE
  5
1A5
330
14D
100
AcDbEntity
  8
410373040_ESCUTC
  6
Continuous
 62
     7
100
AcDbLine
 10
192.7627780096
 20
225.7009855147
 30
0.0
 11
193.6856258076
 21
225.7866987804
 31
0.0
  0
LINE
  5
1A6
330
14D
100
AcDbEntity
  8
410373040_ESCUTC
  6
Continuous
 62
     7
100
AcDbLine
 10
8.6142354023
 20
225.7852115397
 30
0.0
 11
9.5369684664
 21
225.6982627576
 31
0.0
  0
ARC
  5
1A7
330
14D
100
AcDbEntity
  8
410373040_ESCUTC
  6
Continuous
 62
     7
100
AcDbCircle
 10
116.2177443018
 20
1002.8319831702
 30
0.0
 40
784.8653347441027
100
AcDbArc
 50
272.4519398361
 51
275.2967701805
  0
ARC
  5
1A8
330
14D
100
AcDbEntity
  8
410373040_ESCUTC
  6
Continuous
 62
     7
100
AcDbCircle
 10
86.0478474878
 20
1002.4101541723
 30
0.0
 40
784.442130863151
100
AcDbArc
 50
264.7028879283
 51
267.5468458281
  0
ARC
  5
1A9
330
14D
100
AcDbEntity
  8
410373040_ESCUTC
  6
Continuous
 62
     7
100
AcDbCircle
 10
158.1012133958
 20
-210.1956725403
 30
0.0
 40
435.178432319104
100
AcDbArc
 50
90.8384311048
 51
91.9902103073
  0
ARC
  5
1AA
330
14D
100
AcDbEntity
  8
410373040_ESCUTC
  6
Continuous
 62
     7
100
AcDbCircle
 10
52.5422098858
 20
219.5198782571
 30
0.0
 40
0.9132217653910926
100
AcDbArc
 50
270.5958068968
 51
272.1652751039
  0
LINE
  5
1AB
330
14D
100
AcDbEntity
  8
410228031_BEARIN
  6
Continuous
 62
     7
100
AcDbLine
 10
69.599995
 20
201.4
 30
0.0
 11
132.699995
 21
201.4
 31
0.0
  0
LINE
  5
1AC
330
14D
100
AcDbEntity
  8
410228031_BEARIN
  6
Continuous
 62
     7
100
AcDbLine
 10
69.599995
 20
202.0
 30
0.0
 11
69.599995
 21
201.4
 31
0.0
  0
LINE
  5
1AD
330
14D
100
AcDbEntity
  8
410228031_BEARIN
  6
Continuous
 62
     7
100
AcDbLine
 10
132.699995
 20
201.4
 30
0.0
 11
132.699995
 21
202.0
 31
0.0
  0
LINE
  5
1AF
330
14D
100
AcDbEntity
  8
DV3_Standard
  6
CENTER2
 62
     7
100
AcDbLine
 10
121.149998428
 20
231.0000005819
 30
0.0
 11
81.149999322
 21
231.0000005819
 31
0.0
  0
LINE
  5
1B0
330
14D
100
AcDbEntity
  8
DV3_Standard
  6
CENTER2
 62
     7
100
AcDbLine
 10
101.149998875
 20
251.0000001349
 30
0.0
 11
101.149998875
 21
211.0000010289
 31
0.0
  0
ENDBLK
  5
1B2
330
14D
100
AcDbEntity
  8
0
100
AcDbBlockEnd
  0
ENDSEC
  0
SECTION
  2
ENTITIES
  0
INSERT
  5
5F
330
1F
100
AcDbEntity
  8
Default
100
AcDbBlockReference
  2
SE
 10
0.0
 20
0.0
 30
0.0
  0
INSERT
  5
C9
330
1F
100
AcDbEntity
  8
Default
100
AcDbBlockReference
  2
SE1
 10
0.0
 20
0.0
 30
0.0
  0
INSERT
  5
14E
330
1F
100
AcDbEntity
  8
Default
100
AcDbBlockReference
  2
SE2
 10
0.0
 20
0.0
 30
0.0
  0
TEXT
  5
1B4
330
1F
100
AcDbEntity
  8
Default
  6
Continuous
 62
     7
100
AcDbText
 10
5.9362635081
 20
53.4225120485
 30
0.0
 40
10.0
  1
Grohe AG^J
  7
SEACAD_seiso_ttf
 11
5.9362635081
 21
63.4225120485
 31
0.0
100
AcDbText
 73
     3
  0
TEXT
  5
1B5
330
1F
100
AcDbEntity
  8
Default
  6
Continuous
 62
     7
100
AcDbText
 10
5.9362635081
 20
37.0588756849
 30
0.0
 40
10.0
  1
 
  7
SEACAD_seiso_ttf
 11
5.9362635081
 21
47.0588756849
 31
0.0
100
AcDbText
 73
     3
  0
TEXT
  5
1B6
330
1F
100
AcDbEntity
  8
Default
  6
Continuous
 62
     7
100
AcDbText
 10
5.9362635081
 20
20.6952393213
 30
0.0
 40
10.0
  1
ecn: 
  7
SEACAD_seiso_ttf
 11
5.9362635081
 21
30.6952393213
 31
0.0
100
AcDbText
 73
     3
  0
TEXT
  5
1B7
330
1F
100
AcDbEntity
  8
Default
  6
Continuous
 62
     7
100
AcDbText
 10
5.9362635081
 20
4.3316029576
 30
0.0
 40
10.0
  1
unit: mm
  7
SEACAD_seiso_ttf
 11
5.9362635081
 21
14.3316029576
 31
0.0
100
AcDbText
 73
     3
  0
LINE
  5
1B8
330
1F
100
AcDbEntity
  8
Default
  6
Continuous
 62
     7
100
AcDbLine
 10
0.0
 20
0.0
 30
0.0
 11
100.0
 21
0.0
 31
0.0
  0
LINE
  5
1B9
330
1F
100
AcDbEntity
  8
Default
  6
Continuous
 62
     7
100
AcDbLine
 10
0.0
 20
0.0
 30
0.0
 11
0.0
 21
100.0
 31
0.0
  0
TEXT
  5
1BA
330
1F
100
AcDbEntity
  8
Default
  6
Continuous
 62
     7
100
AcDbText
 10
24.3923665681
 20
-18.2375342018
 30
0.0
 40
10.0
  1
100 mm
  7
SEACAD_seiso_ttf
 11
24.3923665681
 21
-8.2375342018
 31
0.0
100
AcDbText
 73
     3
  0
TEXT
  5
1BB
330
1F
100
AcDbEntity
  8
Default
  6
Continuous
 62
     7
100
AcDbText
 10
-7.6150308803
 20
24.6231930421
 30
0.0
 40
10.0
  1
100 mm
 50
90.0
  7
SEACAD_seiso_ttf
 11
-17.6150308803
 21
24.6231930421
 31
0.0
100
AcDbText
 73
     3
  0
TEXT
  5
1BC
330
1F
100
AcDbEntity
  8
Default
  6
Continuous
 62
     7
100
AcDbText
 10
28.4878128572
 20
20.0907663715
 30
0.0
 40
10.0
  1
219326
  7
SEACAD_seiso_ttf
 11
28.4878128572
 21
30.0907663715
 31
0.0
100
AcDbText
 73
     3
  0
TEXT
  5
1BD
330
1F
100
AcDbEntity
  8
Default
  6
Continuous
 62
     7
100
AcDbText
 10
5.9012241913
 20
36.7242780188
 30
0.0
 40
10.0
  1
19825000
  7
SEACAD_seiso_ttf
 11
5.9012241913
 21
46.7242780188
 31
0.0
100
AcDbText
 73
     3
  0
ENDSEC
  0
SECTION
  2
OBJECTS
  0
DICTIONARY
  5
C
330
0
100
AcDbDictionary
281
     1
  3
ACAD_GROUP
350
D
  3
ACAD_LAYOUT
350
1A
  3
ACAD_MLEADERSTYLE
350
1C1
  3
ACAD_MLINESTYLE
350
17
  3
ACAD_PLOTSETTINGS
350
19
  3
ACAD_PLOTSTYLENAME
350
E
  3
ACAD_SCALELIST
350
3B
  3
ACAD_TABLESTYLE
350
1C0
  3
ACAD_VISUALSTYLE
350
2A
  3
AcDbVariableDictionary
350
1BE
  0
DICTIONARY
  5
D
102
{ACAD_REACTORS
330
C
102
}
330
C
100
AcDbDictionary
281
     1
  0
DICTIONARY
  5
1A
102
{ACAD_REACTORS
330
C
102
}
330
C
100
AcDbDictionary
281
     1
  3
Layout1
350
1E
  3
Model
350
22
  0
DICTIONARY
  5
1C1
102
{ACAD_REACTORS
330
C
102
}
330
C
100
AcDbDictionary
281
     1
  0
DICTIONARY
  5
17
102
{ACAD_REACTORS
330
C
102
}
330
C
100
AcDbDictionary
281
     1
  3
Standard
350
18
  0
DICTIONARY
  5
19
102
{ACAD_REACTORS
330
C
102
}
330
C
100
AcDbDictionary
281
     1
  0
ACDBDICTIONARYWDFLT
  5
E
102
{ACAD_REACTORS
330
C
102
}
330
C
100
AcDbDictionary
281
     1
  3
Normal
350
F
100
AcDbDictionaryWithDefault
340
F
  0
DICTIONARY
  5
3B
102
{ACAD_REACTORS
330
C
102
}
330
C
100
AcDbDictionary
281
     1
  3
A0
350
3C
  3
A1
350
3D
  3
A2
350
3E
  3
A3
350
3F
  3
A4
350
40
  3
A5
350
41
  3
A6
350
42
  3
A7
350
43
  3
A8
350
44
  3
A9
350
45
  3
B0
350
46
  3
B1
350
47
  3
B2
350
48
  3
B3
350
49
  3
B4
350
4A
  3
B5
350
4B
  3
B6
350
4C
  3
B7
350
4D
  3
B8
350
4E
  3
B9
350
4F
  3
C0
350
50
  3
C1
350
51
  3
C2
350
52
  3
C3
350
53
  3
C4
350
54
  3
C5
350
55
  3
C6
350
56
  3
C7
350
57
  3
C8
350
58
  3
C9
350
59
  3
D0
350
5A
  3
D1
350
5B
  3
D2
350
5C
  0
DICTIONARY
  5
1C0
102
{ACAD_REACTORS
330
C
102
}
330
C
100
AcDbDictionary
281
     1
  0
DICTIONARY
  5
2A
102
{ACAD_REACTORS
330
C
102
}
330
C
100
AcDbDictionary
281
     1
  3
2dWireframe
350
2F
  3
3D Hidden
350
31
  3
3dWireframe
350
30
  3
Basic
350
32
  3
Brighten
350
36
  3
ColorChange
350
3A
  3
Conceptual
350
34
  3
Dim
350
35
  3
Facepattern
350
39
  3
Flat
350
2B
  3
FlatWithEdges
350
2C
  3
Gouraud
350
2D
  3
GouraudWithEdges
350
2E
  3
Linepattern
350
38
  3
Realistic
350
33
  3
Thicken
350
37
  0
DICTIONARY
  5
1BE
102
{ACAD_REACTORS
330
C
102
}
330
C
100
AcDbDictionary
281
     1
  3
CANNOSCALE
350
1BF
  3
PSOLHEIGHT
350
1C3
  3
PSOLWIDTH
350
1C2
  0
LAYOUT
  5
1E
102
{ACAD_REACTORS
330
1A
102
}
330
1A
100
AcDbPlotSettings
  1

  2
none_device
  4

  6

 40
0.0
 41
0.0
 42
0.0
 43
0.0
 44
0.0
 45
0.0
 46
0.0
 47
0.0
 48
0.0
 49
0.0
140
0.0
141
0.0
142
1.0
143
1.0
 70
   688
 72
     0
 73
     0
 74
     5
  7

 75
    16
147
1.0
148
0.0
149
0.0
100
AcDbLayout
  1
Layout1
 70
     1
 71
     1
 10
0.0
 20
0.0
 11
1682.0
 21
2378.0
 12
0.0
 22
0.0
 32
0.0
 14
0.0
 24
0.0
 34
0.0
 15
1682.0
 25
2378.0
 35
0.0
146
0.0
 13
0.0
 23
0.0
 33
0.0
 16
1.0
 26
0.0
 36
0.0
 17
0.0
 27
1.0
 37
0.0
 76
     0
330
1B
  0
LAYOUT
  5
22
102
{ACAD_REACTORS
330
1A
102
}
330
1A
100
AcDbPlotSettings
  1

  2
none_device
  4

  6

 40
0.0
 41
0.0
 42
0.0
 43
0.0
 44
0.0
 45
0.0
 46
0.0
 47
0.0
 48
0.0
 49
0.0
140
0.0
141
0.0
142
1.0
143
1.0
 70
  1712
 72
     0
 73
     0
 74
     0
  7

 75
     0
147
1.0
148
0.0
149
0.0
100
AcDbLayout
  1
Model
 70
     1
 71
     0
 10
0.0
 20
0.0
 11
1682.0
 21
2378.0
 12
0.0
 22
0.0
 32
0.0
 14
0.0
 24
0.0
 34
0.0
 15
1682.0
 25
2378.0
 35
0.0
146
0.0
 13
0.0
 23
0.0
 33
0.0
 16
1.0
 26
0.0
 36
0.0
 17
0.0
 27
1.0
 37
0.0
 76
     0
330
1F
331
29
  0
MLINESTYLE
  5
18
102
{ACAD_REACTORS
330
17
102
}
330
17
100
AcDbMlineStyle
  2
Standard
 70
     0
  3

 62
   256
 51
90.0
 52
90.0
 71
     2
 49
0.5
 62
   256
  6
BYLAYER
 49
-0.5
 62
   256
  6
BYLAYER
  0
ACDBPLACEHOLDER
  5
F
102
{ACAD_REACTORS
330
E
102
}
330
E
  0
SCALE
  5
3C
102
{ACAD_REACTORS
330
3B
102
}
330
3B
100
AcDbScale
 70
     0
300
1:1
140
1.0
141
1.0
290
     1
  0
SCALE
  5
3D
102
{ACAD_REACTORS
330
3B
102
}
330
3B
100
AcDbScale
 70
     0
300
1:2
140
1.0
141
2.0
290
     0
  0
SCALE
  5
3E
102
{ACAD_REACTORS
330
3B
102
}
330
3B
100
AcDbScale
 70
     0
300
1:4
140
1.0
141
4.0
290
     0
  0
SCALE
  5
3F
102
{ACAD_REACTORS
330
3B
102
}
330
3B
100
AcDbScale
 70
     0
300
1:5
140
1.0
141
5.0
290
     0
  0
SCALE
  5
40
102
{ACAD_REACTORS
330
3B
102
}
330
3B
100
AcDbScale
 70
     0
300
1:8
140
1.0
141
8.0
290
     0
  0
SCALE
  5
41
102
{ACAD_REACTORS
330
3B
102
}
330
3B
100
AcDbScale
 70
     0
300
1:10
140
1.0
141
10.0
290
     0
  0
SCALE
  5
42
102
{ACAD_REACTORS
330
3B
102
}
330
3B
100
AcDbScale
 70
     0
300
1:16
140
1.0
141
16.0
290
     0
  0
SCALE
  5
43
102
{ACAD_REACTORS
330
3B
102
}
330
3B
100
AcDbScale
 70
     0
300
1:20
140
1.0
141
20.0
290
     0
  0
SCALE
  5
44
102
{ACAD_REACTORS
330
3B
102
}
330
3B
100
AcDbScale
 70
     0
300
1:30
140
1.0
141
30.0
290
     0
  0
SCALE
  5
45
102
{ACAD_REACTORS
330
3B
102
}
330
3B
100
AcDbScale
 70
     0
300
1:40
140
1.0
141
40.0
290
     0
  0
SCALE
  5
46
102
{ACAD_REACTORS
330
3B
102
}
330
3B
100
AcDbScale
 70
     0
300
1:50
140
1.0
141
50.0
290
     0
  0
SCALE
  5
47
102
{ACAD_REACTORS
330
3B
102
}
330
3B
100
AcDbScale
 70
     0
300
1:100
140
1.0
141
100.0
290
     0
  0
SCALE
  5
48
102
{ACAD_REACTORS
330
3B
102
}
330
3B
100
AcDbScale
 70
     0
300
2:1
140
2.0
141
1.0
290
     0
  0
SCALE
  5
49
102
{ACAD_REACTORS
330
3B
102
}
330
3B
100
AcDbScale
 70
     0
300
4:1
140
4.0
141
1.0
290
     0
  0
SCALE
  5
4A
102
{ACAD_REACTORS
330
3B
102
}
330
3B
100
AcDbScale
 70
     0
300
8:1
140
8.0
141
1.0
290
     0
  0
SCALE
  5
4B
102
{ACAD_REACTORS
330
3B
102
}
330
3B
100
AcDbScale
 70
     0
300
10:1
140
10.0
141
1.0
290
     0
  0
SCALE
  5
4C
102
{ACAD_REACTORS
330
3B
102
}
330
3B
100
AcDbScale
 70
     0
300
100:1
140
100.0
141
1.0
290
     0
  0
SCALE
  5
4D
102
{ACAD_REACTORS
330
3B
102
}
330
3B
100
AcDbScale
 70
     0
300
1/128" = 1'-0"
140
0.0078125
141
12.0
290
     0
  0
SCALE
  5
4E
102
{ACAD_REACTORS
330
3B
102
}
330
3B
100
AcDbScale
 70
     0
300
1/64" = 1'-0"
140
0.015625
141
12.0
290
     0
  0
SCALE
  5
4F
102
{ACAD_REACTORS
330
3B
102
}
330
3B
100
AcDbScale
 70
     0
300
1/32" = 1'-0"
140
0.03125
141
12.0
290
     0
  0
SCALE
  5
50
102
{ACAD_REACTORS
330
3B
102
}
330
3B
100
AcDbScale
 70
     0
300
1/16" = 1'-0"
140
0.0625
141
12.0
290
     0
  0
SCALE
  5
51
102
{ACAD_REACTORS
330
3B
102
}
330
3B
100
AcDbScale
 70
     0
300
3/32" = 1'-0"
140
0.09375
141
12.0
290
     0
  0
SCALE
  5
52
102
{ACAD_REACTORS
330
3B
102
}
330
3B
100
AcDbScale
 70
     0
300
1/8" = 1'-0"
140
0.125
141
12.0
290
     0
  0
SCALE
  5
53
102
{ACAD_REACTORS
330
3B
102
}
330
3B
100
AcDbScale
 70
     0
300
3/16" = 1'-0"
140
0.1875
141
12.0
290
     0
  0
SCALE
  5
54
102
{ACAD_REACTORS
330
3B
102
}
330
3B
100
AcDbScale
 70
     0
300
1/4" = 1'-0"
140
0.25
141
12.0
290
     0
  0
SCALE
  5
55
102
{ACAD_REACTORS
330
3B
102
}
330
3B
100
AcDbScale
 70
     0
300
3/8" = 1'-0"
140
0.375
141
12.0
290
     0
  0
SCALE
  5
56
102
{ACAD_REACTORS
330
3B
102
}
330
3B
100
AcDbScale
 70
     0
300
1/2" = 1'-0"
140
0.5
141
12.0
290
     0
  0
SCALE
  5
57
102
{ACAD_REACTORS
330
3B
102
}
330
3B
100
AcDbScale
 70
     0
300
3/4" = 1'-0"
140
0.75
141
12.0
290
     0
  0
SCALE
  5
58
102
{ACAD_REACTORS
330
3B
102
}
330
3B
100
AcDbScale
 70
     0
300
1" = 1'-0"
140
1.0
141
12.0
290
     0
  0
SCALE
  5
59
102
{ACAD_REACTORS
330
3B
102
}
330
3B
100
AcDbScale
 70
     0
300
1-1/2" = 1'-0"
140
1.5
141
12.0
290
     0
  0
SCALE
  5
5A
102
{ACAD_REACTORS
330
3B
102
}
330
3B
100
AcDbScale
 70
     0
300
3" = 1'-0"
140
3.0
141
12.0
290
     0
  0
SCALE
  5
5B
102
{ACAD_REACTORS
330
3B
102
}
330
3B
100
AcDbScale
 70
     0
300
6" = 1'-0"
140
6.0
141
12.0
290
     0
  0
SCALE
  5
5C
102
{ACAD_REACTORS
330
3B
102
}
330
3B
100
AcDbScale
 70
     0
300
1'-0" = 1'-0"
140
12.0
141
12.0
290
     0
  0
VISUALSTYLE
  5
2F
102
{ACAD_REACTORS
330
2A
102
}
330
2A
100
AcDbVisualStyle
  2
2dWireframe
 70
     4
 71
     0
 72
     2
 73
     0
 90
        0
 40
-0.6
 41
-30.0
 62
     5
 63
     7
 74
     1
 91
        4
 64
     7
 65
   257
 75
     1
175
     1
 42
1.0
 92
        0
 66
   257
 43
1.0
 76
     1
 77
     6
 78
     2
 67
     7
 79
     5
170
     0
171
     0
290
     0
174
     0
 93
        1
 44
0.0
173
     0
291
     0
 45
0.0
1001
ACAD
1000
AcDbSavedByObjectVersion
1070
     0
  0
VISUALSTYLE
  5
31
102
{ACAD_REACTORS
330
2A
102
}
330
2A
100
AcDbVisualStyle
  2
3D Hidden
 70
     6
 71
     1
 72
     2
 73
     2
 90
        0
 40
-0.6
 41
-30.0
 62
     5
 63
     7
 74
     2
 91
        2
 64
     7
 65
   257
 75
     2
175
     1
 42
40.0
 92
        0
 66
   257
 43
1.0
 76
     1
 77
     6
 78
     2
 67
     7
 79
     3
170
     0
171
     0
290
     0
174
     0
 93
        1
 44
0.0
173
     0
291
     0
 45
0.0
1001
ACAD
1000
AcDbSavedByObjectVersion
1070
     0
  0
VISUALSTYLE
  5
30
102
{ACAD_REACTORS
330
2A
102
}
330
2A
100
AcDbVisualStyle
  2
3dWireframe
 70
     5
 71
     0
 72
     2
 73
     0
 90
        0
 40
-0.6
 41
-30.0
 62
     5
 63
     7
 74
     1
 91
        4
 64
     7
 65
   257
 75
     1
175
     1
 42
1.0
 92
        0
 66
   257
 43
1.0
 76
     1
 77
     6
 78
     2
 67
     7
 79
     5
170
     0
171
     0
290
     0
174
     0
 93
        1
 44
0.0
173
     0
291
     0
 45
0.0
1001
ACAD
1000
AcDbSavedByObjectVersion
1070
     0
  0
VISUALSTYLE
  5
32
102
{ACAD_REACTORS
330
2A
102
}
330
2A
100
AcDbVisualStyle
  2
Basic
 70
     7
 71
     1
 72
     0
 73
     1
 90
        0
 40
-0.6
 41
-30.0
 62
     5
 63
     7
 74
     0
 91
        4
 64
     7
 65
   257
 75
     1
175
     1
 42
1.0
 92
        8
 66
     7
 43
1.0
 76
     1
 77
     6
 78
     2
 67
     7
 79
     5
170
     0
171
     0
290
     0
174
     0
 93
        1
 44
0.0
173
     0
291
     1
 45
0.0
1001
ACAD
1000
AcDbSavedByObjectVersion
1070
     0
  0
VISUALSTYLE
  5
36
102
{ACAD_REACTORS
330
2A
102
}
330
2A
100
AcDbVisualStyle
  2
Brighten
 70
    12
 71
     2
 72
     2
 73
     0
 90
        0
 40
-0.6
 41
-30.0
 62
     5
 63
     7
 74
     1
 91
        4
 64
     7
 65
   257
 75
     1
175
     1
 42
1.0
 92
        8
 66
     7
 43
1.0
 76
     1
 77
     6
 78
     2
 67
     7
 79
     5
170
     0
171
     0
290
     0
174
     0
 93
        1
 44
50.0
173
     0
291
     1
 45
0.0
1001
ACAD
1000
AcDbSavedByObjectVersion
1070
     0
  0
VISUALSTYLE
  5
3A
102
{ACAD_REACTORS
330
2A
102
}
330
2A
100
AcDbVisualStyle
  2
ColorChange
 70
    16
 71
     2
 72
     2
 73
     3
 90
        0
 40
-0.6
 41
-30.0
 62
     5
 63
     8
 74
     1
 91
        4
 64
     7
 65
   257
 75
     1
175
     1
 42
1.0
 92
        8
 66
     8
 43
1.0
 76
     1
 77
     6
 78
     2
 67
     7
 79
     5
170
     0
171
     0
290
     0
174
     0
 93
        1
 44
0.0
173
     0
291
     1
 45
0.0
1001
ACAD
1000
AcDbSavedByObjectVersion
1070
     0
  0
VISUALSTYLE
  5
34
102
{ACAD_REACTORS
330
2A
102
}
330
2A
100
AcDbVisualStyle
  2
Conceptual
 70
     9
 71
     3
 72
     2
 73
     0
 90
        0
 40
-0.6
 41
-30.0
 62
     5
 63
     7
 74
     2
 91
        2
 64
     7
 65
   257
 75
     1
175
     1
 42
40.0
 92
        8
 66
     7
 43
1.0
 76
     1
 77
     6
 78
     2
 67
     7
 79
     3
170
     0
171
     0
290
     0
174
     0
 93
        1
 44
0.0
173
     0
291
     0
 45
0.0
1001
ACAD
1000
AcDbSavedByObjectVersion
1070
     0
  0
VISUALSTYLE
  5
35
102
{ACAD_REACTORS
330
2A
102
}
330
2A
100
AcDbVisualStyle
  2
Dim
 70
    11
 71
     2
 72
     2
 73
     0
 90
        0
 40
-0.6
 41
-30.0
 62
     5
 63
     7
 74
     1
 91
        4
 64
     7
 65
   257
 75
     1
175
     1
 42
1.0
 92
        8
 66
     7
 43
1.0
 76
     1
 77
     6
 78
     2
 67
     7
 79
     5
170
     0
171
     0
290
     0
174
     0
 93
        1
 44
-50.0
173
     0
291
     1
 45
0.0
1001
ACAD
1000
AcDbSavedByObjectVersion
1070
     0
  0
VISUALSTYLE
  5
39
102
{ACAD_REACTORS
330
2A
102
}
330
2A
100
AcDbVisualStyle
  2
Facepattern
 70
    15
 71
     2
 72
     2
 73
     0
 90
        0
 40
-0.6
 41
-30.0
 62
     5
 63
     7
 74
     1
 91
        4
 64
     7
 65
   257
 75
     1
175
     1
 42
1.0
 92
        8
 66
     7
 43
1.0
 76
     1
 77
     6
 78
     2
 67
     7
 79
     5
170
     0
171
     0
290
     0
174
     0
 93
        1
 44
0.0
173
     0
291
     1
 45
0.0
1001
ACAD
1000
AcDbSavedByObjectVersion
1070
     0
  0
VISUALSTYLE
  5
2B
102
{ACAD_REACTORS
330
2A
102
}
330
2A
100
AcDbVisualStyle
  2
Flat
 70
     0
 71
     2
 72
     1
 73
     1
 90
        2
 40
-0.6
 41
30.0
 62
     5
 63
     7
 74
     0
 91
        4
 64
     7
 65
   257
 75
     1
175
     1
 42
1.0
 92
        8
 66
     7
 43
1.0
 76
     1
 77
     6
 78
     2
 67
     7
 79
     5
170
     0
171
     0
290
     0
174
     0
 93
       13
 44
0.0
173
     0
291
     1
 45
0.0
1001
ACAD
1000
AcDbSavedByObjectVersion
1070
     0
  0
VISUALSTYLE
  5
2C
102
{ACAD_REACTORS
330
2A
102
}
330
2A
100
AcDbVisualStyle
  2
FlatWithEdges
 70
     1
 71
     2
 72
     1
 73
     1
 90
        2
 40
-0.6
 41
30.0
 62
     5
 63
     7
 74
     1
 91
        4
 64
     7
 65
   257
 75
     1
175
     1
 42
1.0
 92
        0
 66
   257
 43
1.0
 76
     1
 77
     6
 78
     2
 67
     7
 79
     5
170
     0
171
     0
290
     0
174
     0
 93
       13
 44
0.0
173
     0
291
     1
 45
0.0
1001
ACAD
1000
AcDbSavedByObjectVersion
1070
     0
  0
VISUALSTYLE
  5
2D
102
{ACAD_REACTORS
330
2A
102
}
330
2A
100
AcDbVisualStyle
  2
Gouraud
 70
     2
 71
     2
 72
     2
 73
     1
 90
        2
 40
-0.6
 41
30.0
 62
     5
 63
     7
 74
     0
 91
        4
 64
     7
 65
   257
 75
     1
175
     1
 42
1.0
 92
        0
 66
     7
 43
1.0
 76
     1
 77
     6
 78
     2
 67
     7
 79
     5
170
     0
171
     0
290
     0
174
     0
 93
       13
 44
0.0
173
     0
291
     1
 45
0.0
1001
ACAD
1000
AcDbSavedByObjectVersion
1070
     0
  0
VISUALSTYLE
  5
2E
102
{ACAD_REACTORS
330
2A
102
}
330
2A
100
AcDbVisualStyle
  2
GouraudWithEdges
 70
     3
 71
     2
 72
     2
 73
     1
 90
        2
 40
-0.6
 41
30.0
 62
     5
 63
     7
 74
     1
 91
        4
 64
     7
 65
   257
 75
     1
175
     1
 42
1.0
 92
        0
 66
   257
 43
1.0
 76
     1
 77
     6
 78
     2
 67
     7
 79
     5
170
     0
171
     0
290
     0
174
     0
 93
       13
 44
0.0
173
     0
291
     1
 45
0.0
1001
ACAD
1000
AcDbSavedByObjectVersion
1070
     0
  0
VISUALSTYLE
  5
38
102
{ACAD_REACTORS
330
2A
102
}
330
2A
100
AcDbVisualStyle
  2
Linepattern
 70
    14
 71
     2
 72
     2
 73
     0
 90
        0
 40
-0.6
 41
-30.0
 62
     5
 63
     7
 74
     1
 91
        4
 64
     7
 65
   257
 75
     7
175
     7
 42
1.0
 92
        8
 66
     7
 43
1.0
 76
     1
 77
     6
 78
     2
 67
     7
 79
     5
170
     0
171
     0
290
     0
174
     0
 93
        1
 44
0.0
173
     0
291
     1
 45
0.0
1001
ACAD
1000
AcDbSavedByObjectVersion
1070
     0
  0
VISUALSTYLE
  5
33
102
{ACAD_REACTORS
330
2A
102
}
330
2A
100
AcDbVisualStyle
  2
Realistic
 70
     8
 71
     2
 72
     2
 73
     0
 90
        0
 40
-0.6
 41
-30.0
 62
     5
 63
     7
 74
     1
 91
        0
 64
     7
 65
   257
 75
     1
175
     1
 42
1.0
 92
        8
 66
     8
 43
1.0
 76
     1
 77
     6
 78
     2
 67
     7
 79
     5
170
     0
171
     0
290
     0
174
     0
 93
       13
 44
0.0
173
     0
291
     0
 45
0.0
1001
ACAD
1000
AcDbSavedByObjectVersion
1070
     0
  0
VISUALSTYLE
  5
37
102
{ACAD_REACTORS
330
2A
102
}
330
2A
100
AcDbVisualStyle
  2
Thicken
 70
    13
 71
     2
 72
     2
 73
     0
 90
        0
 40
-0.6
 41
-30.0
 62
     5
 63
     7
 74
     1
 91
        4
 64
     7
 65
   257
 75
     1
175
     1
 42
1.0
 92
       12
 66
     7
 43
1.0
 76
     1
 77
     6
 78
     2
 67
     7
 79
     5
170
     0
171
     0
290
     0
174
     0
 93
        1
 44
0.0
173
     0
291
     1
 45
0.0
1001
ACAD
1000
AcDbSavedByObjectVersion
1070
     0
  0
DICTIONARYVAR
  5
1BF
102
{ACAD_REACTORS
330
1BE
102
}
330
1BE
100
DictionaryVariables
280
     0
  1
1:1
  0
DICTIONARYVAR
  5
1C3
102
{ACAD_REACTORS
330
1BE
102
}
330
1BE
100
DictionaryVariables
280
     0
  1
80.000000
  0
DICTIONARYVAR
  5
1C2
102
{ACAD_REACTORS
330
1BE
102
}
330
1BE
100
DictionaryVariables
280
     0
  1
5.000000
  0
ENDSEC
  0
EOF
