  0
SECTION
  2
HEADER
  9
$ACADVER
  1
AC1015
  9
$ACADMAINTVER
 70
     6
  9
$DWGCODEPAGE
  3
ANSI_1252
  9
$INSBASE
 10
0.0
 20
0.0
 30
0.0
  9
$EXTMIN
 10
0.0
 20
0.0
 30
0.0
  9
$EXTMAX
 10
1682.0
 20
2378.0
 30
0.0
  9
$LIMMIN
 10
0.0
 20
0.0
  9
$LIMMAX
 10
1682.0
 20
2378.0
  9
$ORTHOMODE
 70
     0
  9
$REGENMODE
 70
     1
  9
$FILLMODE
 70
     1
  9
$QTEXTMODE
 70
     0
  9
$MIRRTEXT
 70
     1
  9
$LTSCALE
 40
1.0
  9
$ATTMODE
 70
     1
  9
$TEXTSIZE
 40
2.5
  9
$TRACEWID
 40
1.0
  9
$TEXTSTYLE
  7
Standard
  9
$CLAYER
  8
0
  9
$CELTYPE
  6
ByLayer
  9
$CECOLOR
 62
   256
  9
$CELTSCALE
 40
1.0
  9
$DISPSILH
 70
     0
  9
$DIMSCALE
 40
1.0
  9
$DIMASZ
 40
2.5
  9
$DIMEXO
 40
0.625
  9
$DIMDLI
 40
3.75
  9
$DIMRND
 40
0.0
  9
$DIMDLE
 40
0.0
  9
$DIMEXE
 40
1.25
  9
$DIMTP
 40
0.0
  9
$DIMTM
 40
0.0
  9
$DIMTXT
 40
2.5
  9
$DIMCEN
 40
2.5
  9
$DIMTSZ
 40
0.0
  9
$DIMTOL
 70
     0
  9
$DIMLIM
 70
     0
  9
$DIMTIH
 70
     0
  9
$DIMTOH
 70
     0
  9
$DIMSE1
 70
     0
  9
$DIMSE2
 70
     0
  9
$DIMTAD
 70
     1
  9
$DIMZIN
 70
     8
  9
$DIMBLK
  1

  9
$DIMASO
 70
     1
  9
$DIMSHO
 70
     1
  9
$DIMPOST
  1

  9
$DIMAPOST
  1

  9
$DIMALT
 70
     0
  9
$DIMALTD
 70
     3
  9
$DIMALTF
 40
0.0393700787
  9
$DIMLFAC
 40
1.0
  9
$DIMTOFL
 70
     1
  9
$DIMTVP
 40
0.0
  9
$DIMTIX
 70
     0
  9
$DIMSOXD
 70
     0
  9
$DIMSAH
 70
     0
  9
$DIMBLK1
  1

  9
$DIMBLK2
  1

  9
$DIMSTYLE
  2
ISO-25
  9
$DIMCLRD
 70
     0
  9
$DIMCLRE
 70
     0
  9
$DIMCLRT
 70
     0
  9
$DIMTFAC
 40
1.0
  9
$DIMGAP
 40
0.625
  9
$DIMJUST
 70
     0
  9
$DIMSD1
 70
     0
  9
$DIMSD2
 70
     0
  9
$DIMTOLJ
 70
     0
  9
$DIMTZIN
 70
     8
  9
$DIMALTZ
 70
     0
  9
$DIMALTTZ
 70
     0
  9
$DIMUPT
 70
     0
  9
$DIMDEC
 70
     2
  9
$DIMTDEC
 70
     2
  9
$DIMALTU
 70
     2
  9
$DIMALTTD
 70
     3
  9
$DIMTXSTY
  7
Standard
  9
$DIMAUNIT
 70
     0
  9
$DIMADEC
 70
     0
  9
$DIMALTRND
 40
0.0
  9
$DIMAZIN
 70
     0
  9
$DIMDSEP
 70
    44
  9
$DIMATFIT
 70
     3
  9
$DIMFRAC
 70
     0
  9
$DIMLDRBLK
  1

  9
$DIMLUNIT
 70
     2
  9
$DIMLWD
 70
    -2
  9
$DIMLWE
 70
    -2
  9
$DIMTMOVE
 70
     0
  9
$LUNITS
 70
     2
  9
$LUPREC
 70
     4
  9
$SKETCHINC
 40
1.0
  9
$FILLETRAD
 40
10.0
  9
$AUNITS
 70
     0
  9
$AUPREC
 70
     0
  9
$MENU
  1
.
  9
$ELEVATION
 40
0.0
  9
$PELEVATION
 40
0.0
  9
$THICKNESS
 40
0.0
  9
$LIMCHECK
 70
     0
  9
$CHAMFERA
 40
10.0
  9
$CHAMFERB
 40
10.0
  9
$CHAMFERC
 40
20.0
  9
$CHAMFERD
 40
0.0
  9
$SKPOLY
 70
     0
  9
$TDCREATE
 40
2455748.365879005
  9
$TDUCREATE
 40
2455748.282545671
  9
$TDUPDATE
 40
2455748.365879016
  9
$TDUUPDATE
 40
2455748.282545683
  9
$TDINDWG
 40
0.0000000116
  9
$TDUSRTIMER
 40
0.0000000116
  9
$USRTIMER
 70
     1
  9
$ANGBASE
 50
0.0
  9
$ANGDIR
 70
     0
  9
$PDMODE
 70
     0
  9
$PDSIZE
 40
0.0
  9
$PLINEWID
 40
0.0
  9
$SPLFRAME
 70
     0
  9
$SPLINETYPE
 70
     6
  9
$SPLINESEGS
 70
     8
  9
$HANDSEED
  5
1B5
  9
$SURFTAB1
 70
     6
  9
$SURFTAB2
 70
     6
  9
$SURFTYPE
 70
     6
  9
$SURFU
 70
     6
  9
$SURFV
 70
     6
  9
$UCSBASE
  2

  9
$UCSNAME
  2

  9
$UCSORG
 10
0.0
 20
0.0
 30
0.0
  9
$UCSXDIR
 10
1.0
 20
0.0
 30
0.0
  9
$UCSYDIR
 10
0.0
 20
1.0
 30
0.0
  9
$UCSORTHOREF
  2

  9
$UCSORTHOVIEW
 70
     0
  9
$UCSORGTOP
 10
0.0
 20
0.0
 30
0.0
  9
$UCSORGBOTTOM
 10
0.0
 20
0.0
 30
0.0
  9
$UCSORGLEFT
 10
0.0
 20
0.0
 30
0.0
  9
$UCSORGRIGHT
 10
0.0
 20
0.0
 30
0.0
  9
$UCSORGFRONT
 10
0.0
 20
0.0
 30
0.0
  9
$UCSORGBACK
 10
0.0
 20
0.0
 30
0.0
  9
$PUCSBASE
  2

  9
$PUCSNAME
  2

  9
$PUCSORG
 10
0.0
 20
0.0
 30
0.0
  9
$PUCSXDIR
 10
1.0
 20
0.0
 30
0.0
  9
$PUCSYDIR
 10
0.0
 20
1.0
 30
0.0
  9
$PUCSORTHOREF
  2

  9
$PUCSORTHOVIEW
 70
     0
  9
$PUCSORGTOP
 10
0.0
 20
0.0
 30
0.0
  9
$PUCSORGBOTTOM
 10
0.0
 20
0.0
 30
0.0
  9
$PUCSORGLEFT
 10
0.0
 20
0.0
 30
0.0
  9
$PUCSORGRIGHT
 10
0.0
 20
0.0
 30
0.0
  9
$PUCSORGFRONT
 10
0.0
 20
0.0
 30
0.0
  9
$PUCSORGBACK
 10
0.0
 20
0.0
 30
0.0
  9
$USERI1
 70
     0
  9
$USERI2
 70
     0
  9
$USERI3
 70
     0
  9
$USERI4
 70
     0
  9
$USERI5
 70
     0
  9
$USERR1
 40
0.0
  9
$USERR2
 40
0.0
  9
$USERR3
 40
0.0
  9
$USERR4
 40
0.0
  9
$USERR5
 40
0.0
  9
$WORLDVIEW
 70
     1
  9
$SHADEDGE
 70
     3
  9
$SHADEDIF
 70
    70
  9
$TILEMODE
 70
     1
  9
$MAXACTVP
 70
    64
  9
$PINSBASE
 10
0.0
 20
0.0
 30
0.0
  9
$PLIMCHECK
 70
     0
  9
$PEXTMIN
 10
0.0
 20
0.0
 30
0.0
  9
$PEXTMAX
 10
1682.0
 20
2378.0
 30
0.0
  9
$PLIMMIN
 10
0.0
 20
0.0
  9
$PLIMMAX
 10
1682.0
 20
2378.0
  9
$UNITMODE
 70
     0
  9
$VISRETAIN
 70
     1
  9
$PLINEGEN
 70
     0
  9
$PSLTSCALE
 70
     1
  9
$TREEDEPTH
 70
  3020
  9
$CMLSTYLE
  2
Standard
  9
$CMLJUST
 70
     0
  9
$CMLSCALE
 40
20.0
  9
$PROXYGRAPHICS
 70
     1
  9
$MEASUREMENT
 70
     1
  9
$CELWEIGHT
370
    -1
  9
$ENDCAPS
280
     0
  9
$JOINSTYLE
280
     0
  9
$LWDISPLAY
290
     0
  9
$INSUNITS
 70
     4
  9
$HYPERLINKBASE
  1

  9
$STYLESHEET
  1

  9
$XEDIT
290
     1
  9
$CEPSNTYPE
380
     0
  9
$PSTYLEMODE
290
     1
  9
$FINGERPRINTGUID
  2
{07664E8D-296C-483C-9ABF-A1514A79079B}
  9
$VERSIONGUID
  2
{FAEB1C32-E019-11D5-929B-00C0DF256EC4}
  9
$EXTNAMES
290
     1
  9
$PSVPSCALE
 40
0.0
  9
$OLESTARTUP
290
     0
  0
ENDSEC
  0
SECTION
  2
CLASSES
  0
CLASS
  1
ACDBDICTIONARYWDFLT
  2
AcDbDictionaryWithDefault
  3
ObjectDBX Classes
 90
        0
280
     0
281
     0
  0
CLASS
  1
VISUALSTYLE
  2
AcDbVisualStyle
  3
ObjectDBX Classes
 90
     4095
280
     0
281
     0
  0
CLASS
  1
SCALE
  2
AcDbScale
  3
ObjectDBX Classes
 90
     1153
280
     0
281
     0
  0
CLASS
  1
DICTIONARYVAR
  2
AcDbDictionaryVar
  3
ObjectDBX Classes
 90
        0
280
     0
281
     0
  0
CLASS
  1
ACDBPLACEHOLDER
  2
AcDbPlaceHolder
  3
ObjectDBX Classes
 90
        0
280
     0
281
     0
  0
CLASS
  1
LAYOUT
  2
AcDbLayout
  3
ObjectDBX Classes
 90
        0
280
     0
281
     0
  0
ENDSEC
  0
SECTION
  2
TABLES
  0
TABLE
  2
VPORT
  5
8
330
0
100
AcDbSymbolTable
 70
     1
  0
VPORT
  5
29
330
8
100
AcDbSymbolTableRecord
100
AcDbViewportTableRecord
  2
*Active
 70
     0
 10
0.0
 20
0.0
 11
1.0
 21
1.0
 12
344.1869158879
 22
148.5
 13
0.0
 23
0.0
 14
10.0
 24
10.0
 15
10.0
 25
10.0
 16
0.0
 26
0.0
 36
1.0
 17
0.0
 27
0.0
 37
0.0
 40
297.0
 41
1.9729729729
 42
50.0
 43
0.0
 44
0.0
 50
0.0
 51
0.0
 71
     0
 72
   100
 73
     1
 74
     3
 75
     0
 76
     0
 77
     0
 78
     0
281
     0
 65
     1
110
0.0
120
0.0
130
0.0
111
1.0
121
0.0
131
0.0
112
0.0
122
1.0
132
0.0
 79
     0
146
0.0
  0
ENDTAB
  0
TABLE
  2
LTYPE
  5
5
330
0
100
AcDbSymbolTable
 70
     2
  0
LTYPE
  5
14
330
5
100
AcDbSymbolTableRecord
100
AcDbLinetypeTableRecord
  2
ByBlock
 70
     0
  3

 72
    65
 73
     0
 40
0.0
  0
LTYPE
  5
15
330
5
100
AcDbSymbolTableRecord
100
AcDbLinetypeTableRecord
  2
ByLayer
 70
     0
  3

 72
    65
 73
     0
 40
0.0
  0
LTYPE
  5
16
330
5
100
AcDbSymbolTableRecord
100
AcDbLinetypeTableRecord
  2
Continuous
 70
     0
  3
Solid line
 72
    65
 73
     0
 40
0.0
  0
LTYPE
  5
B5
330
5
100
AcDbSymbolTableRecord
100
AcDbLinetypeTableRecord
  2
CENTER2
 70
     0
  3
Center (.5x) ___ _ ___ _ ___ _ ___ _ ___ _ ___
 72
    65
 73
     4
 40
28.575
 49
19.05
 74
     4
 75
     0
340
0
 46
0.0
 50
0.0
 44
0.0
 45
0.0
 49
-3.175
 74
     4
 75
     0
340
0
 46
0.0
 50
0.0
 44
0.0
 45
0.0
 49
3.175
 74
     4
 75
     0
340
0
 46
0.0
 50
0.0
 44
0.0
 45
0.0
 49
-3.175
 74
     4
 75
     0
340
0
 46
0.0
 50
0.0
 44
0.0
 45
0.0
  0
ENDTAB
  0
TABLE
  2
LAYER
  5
2
330
0
100
AcDbSymbolTable
 70
    17
  0
LAYER
  5
10
330
2
100
AcDbSymbolTableRecord
100
AcDbLayerTableRecord
  2
0
 70
     0
 62
     7
  6
Continuous
370
    -3
390
F
  0
LAYER
  5
5D
330
2
100
AcDbSymbolTableRecord
100
AcDbLayerTableRecord
  2
Default
 70
     0
 62
     7
  6
Continuous
370
    -3
390
F
  0
LAYER
  5
60
330
2
100
AcDbSymbolTableRecord
100
AcDbLayerTableRecord
  2
410308038_LEVER_
 70
     0
 62
     7
  6
Continuous
370
    -3
390
F
  0
LAYER
  5
65
330
2
100
AcDbSymbolTableRecord
100
AcDbLayerTableRecord
  2
410005038_HANDLE
 70
     0
 62
     7
  6
Continuous
370
    -3
390
F
  0
LAYER
  5
68
330
2
100
AcDbSymbolTableRecord
100
AcDbLayerTableRecord
  2
410307038_LEVER_
 70
     0
 62
     7
  6
Continuous
370
    -3
390
F
  0
LAYER
  5
72
330
2
100
AcDbSymbolTableRecord
100
AcDbLayerTableRecord
  2
02080010_M4X55_S
 70
     0
 62
     7
  6
Continuous
370
    -3
390
F
  0
LAYER
  5
9C
330
2
100
AcDbSymbolTableRecord
100
AcDbLayerTableRecord
  2
12080006_MP_HE_P
 70
     0
 62
     7
  6
Continuous
370
    -3
390
F
  0
LAYER
  5
9E
330
2
100
AcDbSymbolTableRecord
100
AcDbLayerTableRecord
  2
410375040_ESCUTC
 70
     0
 62
     7
  6
Continuous
370
    -3
390
F
  0
LAYER
  5
B4
330
2
100
AcDbSymbolTableRecord
100
AcDbLayerTableRecord
  2
DV1_Standard
 70
     0
 62
     7
  6
Continuous
370
    -3
390
F
  0
LAYER
  5
C0
330
2
100
AcDbSymbolTableRecord
100
AcDbLayerTableRecord
  2
410064038_SLEEVE
 70
     0
 62
     7
  6
Continuous
370
    -3
390
F
  0
LAYER
  5
C3
330
2
100
AcDbSymbolTableRecord
100
AcDbLayerTableRecord
  2
410306038_DIVERT
 70
     0
 62
     7
  6
Continuous
370
    -3
390
F
  0
LAYER
  5
D2
330
2
100
AcDbSymbolTableRecord
100
AcDbLayerTableRecord
  2
410316038_HANDLE
 70
     0
 62
     7
  6
Continuous
370
    -3
390
F
  0
LAYER
  5
F0
330
2
100
AcDbSymbolTableRecord
100
AcDbLayerTableRecord
  2
410310038_RING_K
 70
     0
 62
     7
  6
Continuous
370
    -3
390
F
  0
LAYER
  5
113
330
2
100
AcDbSymbolTableRecord
100
AcDbLayerTableRecord
  2
410006038_DECORA
 70
     0
 62
     7
  6
Continuous
370
    -3
390
F
  0
LAYER
  5
138
330
2
100
AcDbSymbolTableRecord
100
AcDbLayerTableRecord
  2
410228031_BEARIN
 70
     0
 62
     7
  6
Continuous
370
    -3
390
F
  0
LAYER
  5
13C
330
2
100
AcDbSymbolTableRecord
100
AcDbLayerTableRecord
  2
DV2_Standard
 70
     0
 62
     7
  6
Continuous
370
    -3
390
F
  0
LAYER
  5
19F
330
2
100
AcDbSymbolTableRecord
100
AcDbLayerTableRecord
  2
DV3_Standard
 70
     0
 62
     7
  6
Continuous
370
    -3
390
F
  0
ENDTAB
  0
TABLE
  2
STYLE
  5
3
330
0
100
AcDbSymbolTable
 70
     2
  0
STYLE
  5
11
330
3
100
AcDbSymbolTableRecord
100
AcDbTextStyleTableRecord
  2
Standard
 70
     0
 40
0.0
 41
1.0
 50
0.0
 71
     0
 42
2.5
  3
txt
  4

  0
STYLE
  5
1A4
330
3
100
AcDbSymbolTableRecord
100
AcDbTextStyleTableRecord
  2
SEACAD_seiso_ttf
 70
     0
 40
0.0
 41
1.0
 50
0.0
 71
     0
 42
0.2
  3
seiso.ttf
  4

  0
ENDTAB
  0
TABLE
  2
VIEW
  5
6
330
0
100
AcDbSymbolTable
 70
     0
  0
ENDTAB
  0
TABLE
  2
UCS
  5
7
330
0
100
AcDbSymbolTable
 70
     0
  0
ENDTAB
  0
TABLE
  2
APPID
  5
9
330
0
100
AcDbSymbolTable
 70
     1
  0
APPID
  5
12
330
9
100
AcDbSymbolTableRecord
100
AcDbRegAppTableRecord
  2
ACAD
 70
     0
  0
ENDTAB
  0
TABLE
  2
DIMSTYLE
  5
A
330
0
100
AcDbSymbolTable
 70
     1
100
AcDbDimStyleTable
  0
DIMSTYLE
105
27
330
A
100
AcDbSymbolTableRecord
100
AcDbDimStyleTableRecord
  2
ISO-25
 70
     0
 41
2.5
 42
0.625
 43
3.75
 44
1.25
 73
     0
 74
     0
 77
     1
 78
     8
140
2.5
141
2.5
143
0.0393700787
147
0.625
171
     3
172
     1
271
     2
272
     2
274
     3
278
    44
283
     0
284
     8
340
11
  0
ENDTAB
  0
TABLE
  2
BLOCK_RECORD
  5
1
330
0
100
AcDbSymbolTable
 70
     4
  0
BLOCK_RECORD
  5
1F
330
1
100
AcDbSymbolTableRecord
100
AcDbBlockTableRecord
  2
*Model_Space
340
22
  0
BLOCK_RECORD
  5
1B
330
1
100
AcDbSymbolTableRecord
100
AcDbBlockTableRecord
  2
*Paper_Space
340
1E
  0
BLOCK_RECORD
  5
5E
330
1
100
AcDbSymbolTableRecord
100
AcDbBlockTableRecord
  2
SE
340
0
102
{BLKREFS
331
5F
102
}
  0
BLOCK_RECORD
  5
BE
330
1
100
AcDbSymbolTableRecord
100
AcDbBlockTableRecord
  2
SE1
340
0
102
{BLKREFS
331
BF
102
}
  0
BLOCK_RECORD
  5
141
330
1
100
AcDbSymbolTableRecord
100
AcDbBlockTableRecord
  2
SE2
340
0
102
{BLKREFS
331
142
102
}
  0
ENDTAB
  0
ENDSEC
  0
SECTION
  2
BLOCKS
  0
BLOCK
  5
20
330
1F
100
AcDbEntity
  8
0
100
AcDbBlockBegin
  2
*Model_Space
 70
     0
 10
0.0
 20
0.0
 30
0.0
  3
*Model_Space
  1

  0
ENDBLK
  5
21
330
1F
100
AcDbEntity
  8
0
100
AcDbBlockEnd
  0
BLOCK
  5
1C
330
1B
100
AcDbEntity
 67
     1
  8
0
100
AcDbBlockBegin
  2
*Paper_Space
 70
     0
 10
0.0
 20
0.0
 30
0.0
  3
*Paper_Space
  1

  0
ENDBLK
  5
1D
330
1B
100
AcDbEntity
 67
     1
  8
0
100
AcDbBlockEnd
  0
BLOCK
  5
BC
330
5E
100
AcDbEntity
  8
0
100
AcDbBlockBegin
  2
SE
 70
     0
 10
0.0
 20
0.0
 30
0.0
  3
SE
  1

  0
ARC
  5
61
330
5E
100
AcDbEntity
  8
410308038_LEVER_
  6
Continuous
 62
     7
100
AcDbCircle
 10
101.7227843911
 20
289.745830798
 30
0.0
 40
10.0000000000001
100
AcDbArc
 50
165.0939506482
 51
270.0
  0
ARC
  5
62
330
5E
100
AcDbEntity
  8
410308038_LEVER_
  6
Continuous
 62
     7
100
AcDbCircle
 10
101.7227843911
 20
289.745830798
 30
0.0
 40
9.999999999999995
100
AcDbArc
 50
270.0
 51
14.9060493518
  0
SPLINE
  5
63
330
5E
100
AcDbEntity
  8
410308038_LEVER_
  6
Continuous
 62
     7
100
AcDbSpline
210
0.0
220
0.0
230
1.0
 70
     8
 71
     3
 72
    10
 73
     6
 74
     0
 42
0.0000000002138362
 43
0.0000000001
 40
0.5656013748926986
 40
0.5656013748926986
 40
0.5656013748926986
 40
0.5656013748926986
 40
0.7022568853970649
 40
0.8512635312318865
 40
1.0
 40
1.0
 40
1.0
 40
1.0
 10
95.8306112193969
 20
312.2552936350377
 30
0.0
 10
95.59563473888473
 20
310.1428513628891
 30
0.0
 10
94.99561411411715
 20
305.751422796936
 30
0.0
 10
93.72682960725994
 20
298.9628408667169
 30
0.0
 10
92.68572471825732
 20
294.789383626304
 30
0.0
 10
92.05929513537437
 20
292.3181790257347
 30
0.0
  0
SPLINE
  5
64
330
5E
100
AcDbEntity
  8
410308038_LEVER_
  6
Continuous
 62
     7
100
AcDbSpline
210
0.0
220
0.0
230
1.0
 70
     8
 71
     3
 72
    11
 73
     7
 74
     0
 42
0.0000000002138658
 43
0.0000000001
 40
0.0
 40
0.0
 40
0.0
 40
0.0
 40
0.1419756596607897
 40
0.2842098896539604
 40
0.4264555114468647
 40
0.4330883592623714
 40
0.4330883592623714
 40
0.4330883592623714
 40
0.4330883592623714
 10
111.3862736467794
 20
292.3181790257347
 30
0.0
 10
110.7870892059044
 20
294.6766226125192
 30
0.0
 10
109.7905147763686
 20
298.6593596912439
 30
0.0
 10
108.5216754182038
 20
305.3186546490973
 30
0.0
 10
107.8936173995758
 20
309.7867866917827
 30
0.0
 10
107.6335405074648
 20
312.0893162072293
 30
0.0
 10
107.6220753310285
 20
312.1919311910033
 30
0.0
  0
ARC
  5
66
330
5E
100
AcDbEntity
  8
410005038_HANDLE
  6
Continuous
 62
     7
100
AcDbCircle
 10
101.7295879971
 20
-318.4862107775
 30
0.0
 40
683.5621545246171
100
AcDbArc
 50
89.539590332
 51
90.4610706023
  0
ARC
  5
67
330
5E
100
AcDbEntity
  8
410005038_HANDLE
  6
Continuous
 62
     7
100
AcDbCircle
 10
101.7227843911
 20
378.1996434694
 30
0.0
 40
14.25
100
AcDbArc
 50
292.632651512
 51
247.3745483541
  0
LINE
  5
69
330
5E
100
AcDbEntity
  8
410307038_LEVER_
  6
Continuous
 62
     7
100
AcDbLine
 10
107.6192291301
 20
356.8496434694
 30
0.0
 11
95.826339652
 21
356.8496434694
 31
0.0
  0
ARC
  5
6A
330
5E
100
AcDbEntity
  8
410307038_LEVER_
  6
Continuous
 62
     7
100
AcDbCircle
 10
-4.0591800016
 20
345.2531141232
 30
0.0
 40
100.0
100
AcDbArc
 50
346.0429344828
 51
6.3391368539
  0
ARC
  5
6B
330
5E
100
AcDbEntity
  8
410307038_LEVER_
  6
Continuous
 62
     7
100
AcDbCircle
 10
207.5047487837
 20
345.2531141232
 30
0.0
 40
100.0
100
AcDbArc
 50
173.6608631461
 51
193.9570655172
  0
ARC
  5
6C
330
5E
100
AcDbEntity
  8
410307038_LEVER_
  6
Continuous
 62
     7
100
AcDbCircle
 10
101.7227843911
 20
318.9628876268
 30
0.0
 40
8.999999999999991
100
AcDbArc
 50
166.0429344828
 51
180.0
  0
ARC
  5
6D
330
5E
100
AcDbEntity
  8
410307038_LEVER_
  6
Continuous
 62
     7
100
AcDbCircle
 10
101.7227843911
 20
318.9628876268
 30
0.0
 40
9.0
100
AcDbArc
 50
180.0
 51
13.9570655172
  0
ARC
  5
6E
330
5E
100
AcDbEntity
  8
410307038_LEVER_
  6
Continuous
 62
     7
100
AcDbCircle
 10
107.6192291301
 20
356.3496434694
 30
0.0
 40
0.4999999999999974
100
AcDbArc
 50
353.6608631461
 51
90.0
  0
ARC
  5
6F
330
5E
100
AcDbEntity
  8
410307038_LEVER_
  6
Continuous
 62
     7
100
AcDbCircle
 10
95.826339652
 20
356.3496434694
 30
0.0
 40
0.4999999999999935
100
AcDbArc
 50
90.0
 51
186.3391368539
  0
LINE
  5
70
330
5E
100
AcDbEntity
  8
410307038_LEVER_
  6
Continuous
 62
     7
100
AcDbLine
 10
107.0727843911
 20
356.8496434694
 30
0.0
 11
107.0727843911
 21
365.0570252452
 31
0.0
  0
LINE
  5
71
330
5E
100
AcDbEntity
  8
410307038_LEVER_
  6
Continuous
 62
     7
100
AcDbLine
 10
96.3727843911
 20
365.0570076401
 30
0.0
 11
96.3727843911
 21
356.8496434694
 31
0.0
  0
ARC
  5
73
330
5E
100
AcDbEntity
  8
02080010_M4X55_S
  6
Continuous
 62
     7
100
AcDbCircle
 10
60.7227843911
 20
378.1996434694
 30
0.0
 40
2.359581272915712
100
AcDbArc
 50
258.9029606255
 51
281.0970393745
  0
ARC
  5
74
330
5E
100
AcDbEntity
  8
02080010_M4X55_S
  6
Continuous
 62
     7
100
AcDbCircle
 10
60.7227843911
 20
378.1996434694
 30
0.0
 40
2.359581272915713
100
AcDbArc
 50
78.9029606255
 51
101.0970393745
  0
ELLIPSE
  5
75
330
5E
100
AcDbEntity
  8
02080010_M4X55_S
  6
Continuous
 62
     7
100
AcDbEllipse
 10
60.7350168824
 20
378.1996434694
 30
0.0
 11
0.0
 21
1.543768918886998
 31
0.0
210
0.0
220
0.0
230
1.0
 40
1.0
 41
-0.3084064732198177
 42
-0.1885875889197157
  0
ELLIPSE
  5
76
330
5E
100
AcDbEntity
  8
02080010_M4X55_S
  6
Continuous
 62
     7
100
AcDbEllipse
 10
61.2166301943
 20
378.4042010988
 30
0.0
 11
-2.123224080502695
 21
5.125916371112485
 31
0.0
210
0.0
220
0.0
230
1.0
 40
0.0871557427
 41
-1.494819759406485
 42
-1.357409741810159
  0
ELLIPSE
  5
77
330
5E
100
AcDbEntity
  8
02080010_M4X55_S
  6
Continuous
 62
     7
100
AcDbEllipse
 10
60.9273420205
 20
378.6934892727
 30
0.0
 11
5.125916371063065
 21
-2.123224080483698
 31
0.0
210
0.0
220
0.0
230
1.0
 40
0.0871557427
 41
1.357409741811072
 42
1.494819759408708
  0
ELLIPSE
  5
78
330
5E
100
AcDbEntity
  8
02080010_M4X55_S
  6
Continuous
 62
     7
100
AcDbEllipse
 10
60.722784391
 20
378.2118759608
 30
0.0
 11
5.574124406210565
 21
4.103415537589673E-12
 31
0.0
210
0.0
220
0.0
230
1.0
 40
0.0871557427
 41
1.142419358104112
 42
1.303747867339027
  0
ARC
  5
79
330
5E
100
AcDbEntity
  8
02080010_M4X55_S
  6
Continuous
 62
     7
100
AcDbCircle
 10
60.7227843911
 20
378.1996434694
 30
0.0
 40
2.359581272915716
100
AcDbArc
 50
348.9029606255
 51
11.0970393745
  0
ELLIPSE
  5
7A
330
5E
100
AcDbEntity
  8
02080010_M4X55_S
  6
Continuous
 62
     7
100
AcDbEllipse
 10
60.7227843911
 20
378.1874109781
 30
0.0
 11
5.574124406137887
 21
-3.047065502475785E-13
 31
0.0
210
0.0
220
0.0
230
1.0
 40
0.0871557427
 41
-1.30374786734386
 42
-1.142419358107054
  0
ELLIPSE
  5
7B
330
5E
100
AcDbEntity
  8
02080010_M4X55_S
  6
Continuous
 62
     7
100
AcDbEllipse
 10
60.9273420205
 20
377.7057976662
 30
0.0
 11
5.125916371062203
 21
2.123224080483258
 31
0.0
210
0.0
220
0.0
230
0.9999999999999999
 40
0.0871557427
 41
-1.494819759408487
 42
-1.357409741810832
  0
ELLIPSE
  5
7C
330
5E
100
AcDbEntity
  8
02080010_M4X55_S
  6
Continuous
 62
     7
100
AcDbEllipse
 10
61.2166301943
 20
377.99508584
 30
0.0
 11
-2.123224080482871
 21
-5.125916371060921
 31
0.0
210
0.0
220
0.0
230
1.0
 40
0.0871557427
 41
1.357409741811009
 42
1.494819759408763
  0
ELLIPSE
  5
7D
330
5E
100
AcDbEntity
  8
02080010_M4X55_S
  6
Continuous
 62
     7
100
AcDbEllipse
 10
60.7350168824
 20
378.1996434694
 30
0.0
 11
1.075528555105620E-12
 21
-5.574124406149879
 31
0.0
210
0.0
220
0.0
230
1.0
 40
0.0871557427
 41
1.14241935810626
 42
1.303747867342826
  0
ELLIPSE
  5
7E
330
5E
100
AcDbEntity
  8
02080010_M4X55_S
  6
Continuous
 62
     7
100
AcDbEllipse
 10
60.7105518997
 20
378.1996434694
 30
0.0
 11
-5.481726184086710E-13
 21
-5.57412440614235
 31
0.0
210
0.0
220
0.0
230
1.0
 40
0.0871557427
 41
-1.303747867343543
 42
-1.142419358106851
  0
ELLIPSE
  5
7F
330
5E
100
AcDbEntity
  8
02080010_M4X55_S
  6
Continuous
 62
     7
100
AcDbEllipse
 10
60.2289385878
 20
377.99508584
 30
0.0
 11
2.123224080458293
 21
-5.125916370997204
 31
0.0
210
0.0
220
0.0
230
1.0
 40
0.0871557427
 41
-1.494819759411404
 42
-1.357409741811945
  0
ELLIPSE
  5
80
330
5E
100
AcDbEntity
  8
02080010_M4X55_S
  6
Continuous
 62
     7
100
AcDbEllipse
 10
60.5182267616
 20
377.7057976662
 30
0.0
 11
-5.125916370954887
 21
2.123224080441978
 31
0.0
210
0.0
220
0.0
230
1.0
 40
0.0871557427
 41
1.357409741812627
 42
1.494819759413065
  0
ELLIPSE
  5
81
330
5E
100
AcDbEntity
  8
02080010_M4X55_S
  6
Continuous
 62
     7
100
AcDbEllipse
 10
60.7227843911
 20
378.1874109781
 30
0.0
 11
-5.574124406186528
 21
-2.902609115519247E-12
 31
0.0
210
0.0
220
0.0
230
1.0
 40
0.0871557427
 41
1.142419358104786
 42
1.303747867340416
  0
ARC
  5
82
330
5E
100
AcDbEntity
  8
02080010_M4X55_S
  6
Continuous
 62
     7
100
AcDbCircle
 10
60.7227843911
 20
378.1996434694
 30
0.0
 40
2.359581272915713
100
AcDbArc
 50
168.9029606255
 51
191.0970393745
  0
ELLIPSE
  5
83
330
5E
100
AcDbEntity
  8
02080010_M4X55_S
  6
Continuous
 62
     7
100
AcDbEllipse
 10
60.7227843911
 20
378.2118759608
 30
0.0
 11
-5.574124406147019
 21
8.304226311586436E-13
 31
0.0
210
0.0
220
0.0
230
1.0
 40
0.0871557427
 41
-1.303747867343112
 42
-1.142419358106499
  0
ELLIPSE
  5
84
330
5E
100
AcDbEntity
  8
02080010_M4X55_S
  6
Continuous
 62
     7
100
AcDbEllipse
 10
60.5182267617
 20
378.6934892727
 30
0.0
 11
-5.125916371062106
 21
-2.123224080483369
 31
0.0
210
0.0
220
0.0
230
1.0
 40
0.0871557427
 41
-1.494819759408672
 42
-1.357409741810921
  0
ELLIPSE
  5
85
330
5E
100
AcDbEntity
  8
02080010_M4X55_S
  6
Continuous
 62
     7
100
AcDbEllipse
 10
60.2289385878
 20
378.4042010988
 30
0.0
 11
2.123224080483662
 21
5.125916371063055
 31
0.0
210
0.0
220
0.0
230
0.9999999999999999
 40
0.0871557427
 41
1.357409741810977
 42
1.494819759408687
  0
ELLIPSE
  5
86
330
5E
100
AcDbEntity
  8
02080010_M4X55_S
  6
Continuous
 62
     7
100
AcDbEllipse
 10
60.7105518997
 20
378.1996434694
 30
0.0
 11
0.0
 21
2.357257433293089
 31
0.0
210
0.0
220
0.0
230
1.0
 40
1.0
 41
0.1885875889193767
 42
0.3084064732197511
  0
CIRCLE
  5
87
330
5E
100
AcDbEntity
  8
02080010_M4X55_S
  6
Continuous
 62
     7
100
AcDbCircle
 10
142.7227882659
 20
378.1996434694
 30
0.0
 40
3.75
  0
ARC
  5
88
330
5E
100
AcDbEntity
  8
02080010_M4X55_S
  6
Continuous
 62
     7
100
AcDbCircle
 10
142.7227882659
 20
378.1996434694
 30
0.0
 40
2.359581272915712
100
AcDbArc
 50
258.9029606255
 51
281.0970393745
  0
ARC
  5
89
330
5E
100
AcDbEntity
  8
02080010_M4X55_S
  6
Continuous
 62
     7
100
AcDbCircle
 10
142.7227882659
 20
378.1996434694
 30
0.0
 40
2.359581272915714
100
AcDbArc
 50
78.9029606255
 51
101.0970393745
  0
ELLIPSE
  5
8A
330
5E
100
AcDbEntity
  8
02080010_M4X55_S
  6
Continuous
 62
     7
100
AcDbEllipse
 10
142.7350207573
 20
378.1996434694
 30
0.0
 11
0.0
 21
1.543768918885354
 31
0.0
210
0.0
220
0.0
230
1.0
 40
1.0
 41
-0.3084064732202343
 42
-0.1885875889199196
  0
ELLIPSE
  5
8B
330
5E
100
AcDbEntity
  8
02080010_M4X55_S
  6
Continuous
 62
     7
100
AcDbEllipse
 10
143.2166340692
 20
378.4042010988
 30
0.0
 11
-2.123224080503181
 21
5.125916371113959
 31
0.0
210
0.0
220
0.0
230
1.0
 40
0.0871557427
 41
-1.494819759406386
 42
-1.357409741810019
  0
ELLIPSE
  5
8C
330
5E
100
AcDbEntity
  8
02080010_M4X55_S
  6
Continuous
 62
     7
100
AcDbEllipse
 10
142.9273458954
 20
378.6934892727
 30
0.0
 11
5.125916370952069
 21
-2.12322408044089
 31
0.0
210
0.0
220
0.0
230
0.9999999999999999
 40
0.0871557427
 41
1.35740974181245
 42
1.494819759413019
  0
ELLIPSE
  5
8D
330
5E
100
AcDbEntity
  8
02080010_M4X55_S
  6
Continuous
 62
     7
100
AcDbEllipse
 10
142.7227882659
 20
378.2118759608
 30
0.0
 11
5.57412440617043
 21
2.006473668312615E-12
 31
0.0
210
0.0
220
0.0
230
1.0
 40
0.0871557427
 41
1.142419358105928
 42
1.303747867341833
  0
ARC
  5
8E
330
5E
100
AcDbEntity
  8
02080010_M4X55_S
  6
Continuous
 62
     7
100
AcDbCircle
 10
142.7227882659
 20
378.1996434694
 30
0.0
 40
2.359581272915716
100
AcDbArc
 50
348.9029606255
 51
11.0970393745
  0
ELLIPSE
  5
8F
330
5E
100
AcDbEntity
  8
02080010_M4X55_S
  6
Continuous
 62
     7
100
AcDbEllipse
 10
142.722788266
 20
378.187410978
 30
0.0
 11
5.574124406089773
 21
2.101234632253743E-12
 31
0.0
210
0.0
220
0.0
230
1.0
 40
0.0871557427
 41
-1.303747867347036
 42
-1.142419358109025
  0
ELLIPSE
  5
90
330
5E
100
AcDbEntity
  8
02080010_M4X55_S
  6
Continuous
 62
     7
100
AcDbEllipse
 10
142.9273458954
 20
377.7057976662
 30
0.0
 11
5.125916371058276
 21
2.123224080481921
 31
0.0
210
0.0
220
0.0
230
1.0
 40
0.0871557427
 41
-1.494819759408849
 42
-1.35740974181102
  0
ELLIPSE
  5
91
330
5E
100
AcDbEntity
  8
02080010_M4X55_S
  6
Continuous
 62
     7
100
AcDbEllipse
 10
143.2166340692
 20
377.99508584
 30
0.0
 11
-2.123224080483425
 21
-5.125916371062416
 31
0.0
210
0.0
220
0.0
230
1.0
 40
0.0871557427
 41
1.357409741810871
 42
1.49481975940868
  0
ELLIPSE
  5
92
330
5E
100
AcDbEntity
  8
02080010_M4X55_S
  6
Continuous
 62
     7
100
AcDbEllipse
 10
142.7350207573
 20
378.1996434694
 30
0.0
 11
1.366962099069724E-12
 21
-5.574124406156005
 31
0.0
210
0.0
220
0.0
230
1.0
 40
0.0871557427
 41
1.142419358106208
 42
1.303747867342562
  0
ELLIPSE
  5
93
330
5E
100
AcDbEntity
  8
02080010_M4X55_S
  6
Continuous
 62
     7
100
AcDbEllipse
 10
142.7105557746
 20
378.1996434694
 30
0.0
 11
-7.285838599102590E-13
 21
-5.574124406145745
 31
0.0
210
0.0
220
0.0
230
1.0
 40
0.0871557427
 41
-1.30374786734321
 42
-1.142419358106554
  0
ELLIPSE
  5
94
330
5E
100
AcDbEntity
  8
02080010_M4X55_S
  6
Continuous
 62
     7
100
AcDbEllipse
 10
142.2289424627
 20
377.99508584
 30
0.0
 11
2.12322408047879
 21
-5.125916371050242
 31
0.0
210
0.0
220
0.0
230
1.0
 40
0.0871557427
 41
-1.494819759409055
 42
-1.357409741810853
  0
ELLIPSE
  5
95
330
5E
100
AcDbEntity
  8
02080010_M4X55_S
  6
Continuous
 62
     7
100
AcDbEllipse
 10
142.5182306365
 20
377.7057976662
 30
0.0
 11
-5.125916370956329
 21
2.123224080442556
 31
0.0
210
0.0
220
0.0
230
1.0
 40
0.0871557427
 41
1.357409741812321
 42
1.494819759412901
  0
ELLIPSE
  5
96
330
5E
100
AcDbEntity
  8
02080010_M4X55_S
  6
Continuous
 62
     7
100
AcDbEllipse
 10
142.722788266
 20
378.1874109781
 30
0.0
 11
-5.574124406167461
 21
-1.882471432966375E-12
 31
0.0
210
0.0
220
0.0
230
1.0
 40
0.0871557427
 41
1.142419358105754
 42
1.303747867341827
  0
ARC
  5
97
330
5E
100
AcDbEntity
  8
02080010_M4X55_S
  6
Continuous
 62
     7
100
AcDbCircle
 10
142.7227882659
 20
378.1996434694
 30
0.0
 40
2.359581272915712
100
AcDbArc
 50
168.9029606255
 51
191.0970393745
  0
ELLIPSE
  5
98
330
5E
100
AcDbEntity
  8
02080010_M4X55_S
  6
Continuous
 62
     7
100
AcDbEllipse
 10
142.7227882659
 20
378.2118759608
 30
0.0
 11
-5.574124406130497
 21
1.470449196433465E-15
 31
0.0
210
0.0
220
0.0
230
1.0
 40
0.0871557427
 41
-1.303747867344113
 42
-1.142419358107026
  0
ELLIPSE
  5
99
330
5E
100
AcDbEntity
  8
02080010_M4X55_S
  6
Continuous
 62
     7
100
AcDbEllipse
 10
142.5182306365
 20
378.6934892727
 30
0.0
 11
-5.125916370987269
 21
-2.12322408045442
 31
0.0
210
0.0
220
0.0
230
1.0
 40
0.0871557427
 41
-1.494819759411557
 42
-1.357409741811814
  0
ELLIPSE
  5
9A
330
5E
100
AcDbEntity
  8
02080010_M4X55_S
  6
Continuous
 62
     7
100
AcDbEllipse
 10
142.2289424627
 20
378.4042010988
 30
0.0
 11
2.123224080483009
 21
5.125916371061734
 31
0.0
210
0.0
220
0.0
230
1.0
 40
0.0871557427
 41
1.357409741811022
 42
1.49481975940879
  0
ELLIPSE
  5
9B
330
5E
100
AcDbEntity
  8
02080010_M4X55_S
  6
Continuous
 62
     7
100
AcDbEllipse
 10
142.7105557746
 20
378.1996434694
 30
0.0
 11
0.0
 21
2.357257433295316
 31
0.0
210
0.0
220
0.0
230
1.0
 40
1.0
 41
0.1885875889194388
 42
0.3084064732196816
  0
CIRCLE
  5
9D
330
5E
100
AcDbEntity
  8
12080006_MP_HE_P
  6
Continuous
 62
     7
100
AcDbCircle
 10
101.7227843911
 20
378.1996434694
 30
0.0
 40
8.949999999999989
  0
SPLINE
  5
9F
330
5E
100
AcDbEntity
  8
410375040_ESCUTC
  6
Continuous
 62
     7
100
AcDbSpline
210
0.0
220
0.0
230
1.0
 70
     8
 71
     3
 72
    20
 73
    16
 74
     0
 42
0.000000000162968
 43
0.0000000001
 40
0.0
 40
0.0
 40
0.0
 40
0.0
 40
0.0624999999999998
 40
0.0624999999999998
 40
0.1249999999999997
 40
0.1249999999999997
 40
0.1562499999999996
 40
0.1562499999999996
 40
0.1874999999999995
 40
0.1874999999999995
 40
0.2499999999999994
 40
0.2499999999999994
 40
0.4999999999999996
 40
0.4999999999999996
 40
1.0
 40
1.0
 40
1.0
 40
1.0
 10
24.11627330802818
 20
322.1567390416891
 30
0.0
 10
22.86248821508387
 20
322.3924072319414
 30
0.0
 10
21.6393269301664
 20
322.8789725348516
 30
0.0
 10
19.50092178952349
 20
324.2485954925355
 30
0.0
 10
18.5568515037722
 20
325.146780365037
 30
0.0
 10
17.45046817751339
 20
326.6996593432876
 30
0.0
 10
17.13326797604205
 20
327.248346697833
 30
0.0
 10
16.60313015771234
 20
328.4084902104271
 30
0.0
 10
16.3780885464032
 20
329.0127433674711
 30
0.0
 10
15.6731634100299
 20
330.8032989950792
 30
0.0
 10
15.22074892683116
 20
332.0032565934215
 30
0.0
 10
13.04621721380084
 20
338.0342657235664
 30
0.0
 10
11.58656439002481
 20
342.9659824528997
 30
0.0
 10
8.099341393811757
 20
357.8408793630128
 30
0.0
 10
6.922793265988866
 20
367.9312354457925
 30
0.0
 10
6.922793265935784
 20
378.1996434700998
 30
0.0
  0
SPLINE
  5
A0
330
5E
100
AcDbEntity
  8
410375040_ESCUTC
  6
Continuous
 62
     7
100
AcDbSpline
210
0.0
220
0.0
230
1.0
 70
     8
 71
     3
 72
    28
 73
    24
 74
     0
 42
0.0000000001250434
 43
0.0000000001
 40
0.0841366790913978
 40
0.0841366790913978
 40
0.0841366790913978
 40
0.0841366790913978
 40
0.4999999999999999
 40
0.4999999999999999
 40
0.5625
 40
0.5625
 40
0.5937500000000001
 40
0.5937500000000001
 40
0.6250000000000002
 40
0.6250000000000002
 40
0.6562500000000003
 40
0.6562500000000003
 40
0.6875000000000004
 40
0.6875000000000004
 40
0.7500000000000003
 40
0.7500000000000003
 40
0.8750000000000004
 40
0.8750000000000004
 40
0.9375000000000004
 40
0.9375000000000004
 40
0.9687500000000002
 40
0.9687500000000002
 40
1.0
 40
1.0
 40
1.0
 40
1.0
 10
94.99809304695751
 20
306.1134155647666
 30
0.0
 10
83.95158865814663
 20
306.487221773782
 30
0.0
 10
73.0673417751393
 20
307.7799833739036
 30
0.0
 10
60.7274414793003
 20
310.2872283415968
 30
0.0
 10
59.11876228494372
 20
310.6350620544928
 30
0.0
 10
56.71117039078305
 20
311.1875523731788
 30
0.0
 10
55.9093374619907
 20
311.3756225404481
 30
0.0
 10
54.30779884052443
 20
311.7639357032957
 30
0.0
 10
53.50583726334458
 20
311.9515146479255
 30
0.0
 10
51.94887109893135
 20
312.5971140363778
 30
0.0
 10
51.18920122205568
 20
313.0278671052666
 30
0.0
 10
49.65097680011166
 20
313.7804242158303
 30
0.0
 10
48.88046747358175
 20
314.1485310176416
 30
0.0
 10
46.56282345026561
 20
315.2172518323836
 30
0.0
 10
45.01168733632606
 20
315.8841395509941
 30
0.0
 10
40.32306382239744
 20
317.7681939563694
 30
0.0
 10
37.14857622369051
 20
318.8666003762475
 30
0.0
 10
32.31390249517063
 20
320.2783777286501
 30
0.0
 10
30.69021347919677
 20
320.7097461656757
 30
0.0
 10
28.23636576381697
 20
321.2975846771055
 30
0.0
 10
27.41500388995303
 20
321.4837234886608
 30
0.0
 10
25.76859602681779
 20
321.8355425454398
 30
0.0
 10
24.92273207564104
 20
322.0051527137402
 30
0.0
 10
24.11627330802818
 20
322.1567390416891
 30
0.0
  0
SPLINE
  5
A1
330
5E
100
AcDbEntity
  8
410375040_ESCUTC
  6
Continuous
 62
     7
100
AcDbSpline
210
0.0
220
0.0
230
1.0
 70
     8
 71
     3
 72
    24
 73
    20
 74
     0
 42
0.0000000001250944
 43
0.0000000001
 40
0.0
 40
0.0
 40
0.0
 40
0.0
 40
0.2500000000000003
 40
0.2500000000000003
 40
0.3125000000000004
 40
0.3125000000000004
 40
0.3437500000000004
 40
0.3437500000000004
 40
0.3750000000000005
 40
0.3750000000000005
 40
0.4062500000000006
 40
0.4062500000000006
 40
0.4375000000000006
 40
0.4375000000000006
 40
0.5000000000000007
 40
0.5000000000000007
 40
0.7500000000000003
 40
0.7500000000000003
 40
0.916034513472373
 40
0.916034513472373
 40
0.916034513472373
 40
0.916034513472373
 10
179.3293032238436
 20
322.1567390416891
 30
0.0
 10
172.8320306448713
 20
320.9354767385403
 30
0.0
 10
166.4658380238524
 20
319.0891849324207
 30
0.0
 10
158.7473649338723
 20
316.0150697120313
 30
0.0
 10
157.2148818009475
 20
315.3621985795555
 30
0.0
 10
154.934242044366
 20
314.3215552510794
 30
0.0
 10
154.1772488185838
 20
313.9637591576137
 30
0.0
 10
152.6681324145783
 20
313.2315896336368
 30
0.0
 10
151.9238893152582
 20
312.8309429905538
 30
0.0
 10
150.4095130682919
 20
312.115485258925
 30
0.0
 10
149.6141992977522
 20
311.8851833245765
 30
0.0
 10
148.0055368417372
 20
311.4861803387003
 30
0.0
 10
147.1982335524089
 20
311.296621100033
 30
0.0
 10
144.7743379339168
 20
310.7342415113297
 30
0.0
 10
143.1522551673218
 20
310.3795797317227
 30
0.0
 10
135.011214466843
 20
308.7070957911244
 30
0.0
 10
128.3777258992394
 20
307.6916921247246
 30
0.0
 10
117.3196612519167
 20
306.5678682237382
 30
0.0
 10
112.8955203479244
 20
306.266816347151
 30
0.0
 10
108.460247029076
 20
306.1150704299554
 30
0.0
  0
SPLINE
  5
A2
330
5E
100
AcDbEntity
  8
410375040_ESCUTC
  6
Continuous
 62
     7
100
AcDbSpline
210
0.0
220
0.0
230
1.0
 70
     8
 71
     3
 72
    20
 73
    16
 74
     0
 42
0.0000000001629674
 43
0.0000000001
 40
0.0
 40
0.0
 40
0.0
 40
0.0
 40
0.5000000000000007
 40
0.5000000000000007
 40
0.7500000000000012
 40
0.7500000000000012
 40
0.8125000000000014
 40
0.8125000000000014
 40
0.8437500000000013
 40
0.8437500000000013
 40
0.8750000000000013
 40
0.8750000000000013
 40
0.9375000000000007
 40
0.9375000000000007
 40
1.0
 40
1.0
 40
1.0
 40
1.0
 10
196.522783265936
 20
378.1996434687297
 30
0.0
 10
196.5227832658828
 20
367.9075853384896
 30
0.0
 10
195.3409432220232
 20
357.8170677566659
 30
0.0
 10
191.8603946238686
 20
342.9724991832006
 30
0.0
 10
190.4099907822079
 20
338.0657954756176
 30
0.0
 10
188.2297330806871
 20
332.0163553161527
 30
0.0
 10
187.776191351745
 20
330.8130914986801
 30
0.0
 10
187.0696470035199
 20
329.0181304742617
 30
0.0
 10
186.844083560729
 20
328.4124937734014
 30
0.0
 10
186.3129395403961
 20
327.2493085499007
 30
0.0
 10
185.9950202598386
 20
326.699353035839
 30
0.0
 10
184.8860002832689
 20
325.1433220534804
 30
0.0
 10
183.9453708632122
 20
324.2477986129026
 30
0.0
 10
181.7915534068952
 20
322.8708235223176
 30
0.0
 10
180.5741708124557
 20
322.3907310498594
 30
0.0
 10
179.3293032238436
 20
322.1567390416891
 30
0.0
  0
SPLINE
  5
A3
330
5E
100
AcDbEntity
  8
410375040_ESCUTC
  6
Continuous
 62
     7
100
AcDbSpline
210
0.0
220
0.0
230
1.0
 70
     8
 71
     3
 72
    20
 73
    16
 74
     0
 42
0.000000000162968
 43
0.0000000001
 40
0.0
 40
0.0
 40
0.0
 40
0.0
 40
0.0625
 40
0.0625
 40
0.1249999999999999
 40
0.1249999999999999
 40
0.1562499999999998
 40
0.1562499999999998
 40
0.1874999999999998
 40
0.1874999999999998
 40
0.2499999999999996
 40
0.2499999999999996
 40
0.4999999999999998
 40
0.4999999999999998
 40
1.0
 40
1.0
 40
1.0
 40
1.0
 10
179.3293032238436
 20
434.2425478971405
 30
0.0
 10
180.583088316379
 20
434.006879706965
 30
0.0
 10
181.806249600598
 20
433.5203144043964
 30
0.0
 10
183.9446547402085
 20
432.1506914479552
 30
0.0
 10
184.8887250263853
 20
431.2525065754024
 30
0.0
 10
185.9951083520519
 20
429.6996275991776
 30
0.0
 10
186.3123085536361
 20
429.1509402450852
 30
0.0
 10
186.8424463724963
 20
427.990796732754
 30
0.0
 10
187.0674879838411
 20
427.3865435754363
 30
0.0
 10
187.7724131204282
 20
425.5959879474536
 30
0.0
 10
188.2248276037722
 20
424.3960303488317
 30
0.0
 10
190.3993593175313
 20
418.3650212171373
 30
0.0
 10
191.8590121413103
 20
413.4333044878447
 30
0.0
 10
195.3462351376097
 20
398.5584075784863
 30
0.0
 10
196.5227832658829
 20
388.4680514950089
 30
0.0
 10
196.522783265936
 20
378.1996434687297
 30
0.0
  0
SPLINE
  5
A4
330
5E
100
AcDbEntity
  8
410375040_ESCUTC
  6
Continuous
 62
     7
100
AcDbSpline
210
0.0
220
0.0
230
1.0
 70
     8
 71
     3
 72
    28
 73
    24
 74
     0
 42
0.0000000001250032
 43
0.0000000001
 40
0.0
 40
0.0
 40
0.0
 40
0.0
 40
0.4999999999999981
 40
0.4999999999999981
 40
0.5624999999999981
 40
0.5624999999999981
 40
0.5937499999999983
 40
0.5937499999999983
 40
0.6249999999999986
 40
0.6249999999999986
 40
0.6562499999999988
 40
0.6562499999999988
 40
0.687499999999999
 40
0.687499999999999
 40
0.7499999999999991
 40
0.7499999999999991
 40
0.8749999999999996
 40
0.8749999999999996
 40
0.9374999999999998
 40
0.9374999999999998
 40
0.9687499999999999
 40
0.9687499999999999
 40
1.0
 40
1.0
 40
1.0
 40
1.0
 10
101.7227882660901
 20
450.3996434767252
 30
0.0
 10
115.0834173397269
 20
450.3988600924692
 30
0.0
 10
128.2078379342717
 20
449.0602890169664
 30
0.0
 10
142.7181350514973
 20
446.1120585974604
 30
0.0
 10
144.3268142458489
 20
445.7642248845748
 30
0.0
 10
146.7344061400091
 20
445.2117345659033
 30
0.0
 10
147.5362390688026
 20
445.0236643986343
 30
0.0
 10
149.1377776902733
 20
444.6353512358031
 30
0.0
 10
149.9397392674584
 20
444.4477722912402
 30
0.0
 10
151.4967054318613
 20
443.8021729030064
 30
0.0
 10
152.2563753087117
 20
443.3714198341117
 30
0.0
 10
153.7945997306219
 20
442.6188627235477
 30
0.0
 10
154.5651090571372
 20
442.2507559217318
 30
0.0
 10
156.882753080419
 20
441.1820351069689
 30
0.0
 10
158.4338891943459
 20
440.5151473883405
 30
0.0
 10
163.122512708255
 20
438.6310929829046
 30
0.0
 10
166.2970003070383
 20
437.5326865629499
 30
0.0
 10
171.1316740358318
 20
436.1209092104163
 30
0.0
 10
172.7553630519235
 20
435.6895407733444
 30
0.0
 10
175.2092107675242
 20
435.101702261846
 30
0.0
 10
176.030572641471
 20
434.9155634502673
 30
0.0
 10
177.6769805048148
 20
434.563744393438
 30
0.0
 10
178.5228444560976
 20
434.3941342251144
 30
0.0
 10
179.3293032238436
 20
434.2425478971405
 30
0.0
  0
SPLINE
  5
A5
330
5E
100
AcDbEntity
  8
410375040_ESCUTC
  6
Continuous
 62
     7
100
AcDbSpline
210
0.0
220
0.0
230
1.0
 70
     8
 71
     3
 72
    24
 73
    20
 74
     0
 42
0.0000000001250433
 43
0.0000000001
 40
0.0
 40
0.0
 40
0.0
 40
0.0
 40
0.2500000000000012
 40
0.2500000000000012
 40
0.3125000000000012
 40
0.3125000000000012
 40
0.3437500000000012
 40
0.3437500000000012
 40
0.3750000000000011
 40
0.3750000000000011
 40
0.406250000000001
 40
0.406250000000001
 40
0.4375000000000009
 40
0.4375000000000009
 40
0.5000000000000008
 40
0.5000000000000008
 40
0.7500000000000003
 40
0.7500000000000003
 40
1.0
 40
1.0
 40
1.0
 40
1.0
 10
24.11627330802817
 20
434.2425478971405
 30
0.0
 10
30.6135458882628
 20
435.4638102005265
 30
0.0
 10
36.97973850972258
 20
437.3101020069495
 30
0.0
 10
44.69821159988429
 20
440.3842172275833
 30
0.0
 10
46.23069473282194
 20
441.0370883601013
 30
0.0
 10
48.51133448938782
 20
442.0777316886282
 30
0.0
 10
49.26832771515885
 20
442.4355277821086
 30
0.0
 10
50.77744411913308
 20
443.1676973061003
 30
0.0
 10
51.52168721841039
 20
443.5683439492869
 30
0.0
 10
53.03606346538929
 20
444.2838016805973
 30
0.0
 10
53.83137723595769
 20
444.5141036147292
 30
0.0
 10
55.44003969200059
 20
444.913106600572
 30
0.0
 10
56.24734298133974
 20
445.1026658392404
 30
0.0
 10
58.67123859985583
 20
445.665045427924
 30
0.0
 10
60.29332136645564
 20
446.0197072075152
 30
0.0
 10
68.43436206689759
 20
447.6921911480223
 30
0.0
 10
75.0678506342675
 20
448.707594814318
 30
0.0
 10
88.35769112683393
 20
450.0582326393937
 30
0.0
 10
95.02754226800123
 20
450.3992509091091
 30
0.0
 10
101.7227882660901
 20
450.3996434767252
 30
0.0
  0
SPLINE
  5
A6
330
5E
100
AcDbEntity
  8
410375040_ESCUTC
  6
Continuous
 62
     7
100
AcDbSpline
210
0.0
220
0.0
230
1.0
 70
     8
 71
     3
 72
    20
 73
    16
 74
     0
 42
0.0000000001629674
 43
0.0000000001
 40
0.0
 40
0.0
 40
0.0
 40
0.0
 40
0.5000000000000006
 40
0.5000000000000006
 40
0.7500000000000007
 40
0.7500000000000007
 40
0.8125000000000004
 40
0.8125000000000004
 40
0.8437500000000001
 40
0.8437500000000001
 40
0.8749999999999999
 40
0.8749999999999999
 40
0.9374999999999999
 40
0.9374999999999999
 40
1.0
 40
1.0
 40
1.0
 40
1.0
 10
6.922793265935784
 20
378.1996434700998
 30
0.0
 10
6.922793265988977
 20
388.4917015997391
 30
0.0
 10
8.104633309720278
 20
398.5822191812422
 30
0.0
 10
11.58518190768552
 20
413.4267877544614
 30
0.0
 10
13.03558574930437
 20
418.3334914620642
 30
0.0
 10
15.21584345071787
 20
424.3829316214192
 30
0.0
 10
15.66938517963754
 20
425.586195438869
 30
0.0
 10
16.37592952782682
 20
427.3811564632521
 30
0.0
 10
16.60149297062406
 20
427.9867931640701
 30
0.0
 10
17.13263699079814
 20
429.1499783876667
 30
0.0
 10
17.45055627130417
 20
429.6999339018299
 30
0.0
 10
18.55957624787782
 20
431.2559648846071
 30
0.0
 10
19.50020566784162
 20
432.1514883252777
 30
0.0
 10
21.65402312439074
 20
433.5284634162639
 30
0.0
 10
22.87140571930995
 20
434.0085558889502
 30
0.0
 10
24.11627330802817
 20
434.2425478971405
 30
0.0
  0
SPLINE
  5
A7
330
5E
100
AcDbEntity
  8
410375040_ESCUTC
  6
Continuous
 62
     7
100
AcDbSpline
210
0.0
220
0.0
230
1.0
 70
     8
 71
     3
 72
    44
 73
    40
 74
     0
 42
0.0000000000749367
 43
0.0000000001
 40
0.0452062310787732
 40
0.0452062310787732
 40
0.0452062310787732
 40
0.0452062310787732
 40
0.1249999999999993
 40
0.1249999999999993
 40
0.2499999999999987
 40
0.2499999999999987
 40
0.3124999999999983
 40
0.3124999999999983
 40
0.343749999999998
 40
0.343749999999998
 40
0.351562499999998
 40
0.351562499999998
 40
0.3593749999999981
 40
0.3593749999999981
 40
0.374999999999998
 40
0.374999999999998
 40
0.4999999999999973
 40
0.4999999999999973
 40
0.5624999999999972
 40
0.5624999999999972
 40
0.5781249999999973
 40
0.5781249999999973
 40
0.5937499999999974
 40
0.5937499999999974
 40
0.6249999999999974
 40
0.6249999999999974
 40
0.6328124999999976
 40
0.6328124999999976
 40
0.6406249999999976
 40
0.6406249999999976
 40
0.6562499999999978
 40
0.6562499999999978
 40
0.6874999999999981
 40
0.6874999999999981
 40
0.7499999999999986
 40
0.7499999999999986
 40
0.8749999999999992
 40
0.8749999999999992
 40
1.0
 40
1.0
 40
1.0
 40
1.0
 10
95.66487911905607
 20
311.0942166605435
 30
0.0
 10
92.10429438579703
 20
311.2066898154451
 30
0.0
 10
88.55046829320855
 20
311.4179147258641
 30
0.0
 10
79.44662310748622
 20
312.2105180850268
 30
0.0
 10
73.89811293101153
 20
312.9356677696028
 30
0.0
 10
65.65040383660731
 20
314.3820925299692
 30
0.0
 10
62.91234876781296
 20
314.924032335425
 30
0.0
 10
58.82207605544218
 20
315.826839903145
 30
0.0
 10
57.45964950711635
 20
316.1408603028481
 30
0.0
 10
55.76605184393632
 20
316.5550055303968
 30
0.0
 10
55.42598896418791
 20
316.6344790593726
 30
0.0
 10
54.76076986671856
 20
316.8305057309182
 30
0.0
 10
54.44616096356081
 20
316.9733108921707
 30
0.0
 10
53.51915503806691
 20
317.4435540300287
 30
0.0
 10
52.90123215516487
 20
317.7572029867304
 30
0.0
 10
47.29953835415806
 20
320.4791021465278
 30
0.0
 10
42.15600765417356
 20
322.5125579232483
 30
0.0
 10
34.25139526267246
 20
324.9507437745144
 30
0.0
 10
31.58392612332046
 20
325.6626957276922
 30
0.0
 10
28.22374258731143
 20
326.4228247416899
 30
0.0
 10
27.55023417825671
 20
326.5683998893388
 30
0.0
 10
26.20026130302738
 20
326.8465951924314
 30
0.0
 10
25.51811508365669
 20
326.9550296841355
 30
0.0
 10
23.50423710208612
 20
327.4183783866422
 30
0.0
 10
22.29936551464573
 20
328.307470668919
 30
0.0
 10
21.44022138211626
 20
329.8252644114452
 30
0.0
 10
21.31156332718244
 20
330.149285669855
 30
0.0
 10
21.05184086478529
 20
330.7934805573785
 30
0.0
 10
20.92329284303406
 20
331.1161112638682
 30
0.0
 10
20.54158903857262
 20
332.0856034407799
 30
0.0
 10
20.2923309935551
 20
332.7341783766201
 30
0.0
 10
19.56064056295411
 20
334.6854803478142
 30
0.0
 10
19.09446945711334
 20
335.9932722119244
 30
0.0
 10
17.76061728006728
 20
339.9373539885448
 30
0.0
 10
16.95752852369908
 20
342.5943280603852
 30
0.0
 10
14.80753273657659
 20
350.648279987269
 30
0.0
 10
13.73018516947211
 20
356.0869797349108
 30
0.0
 10
12.2866261226629
 20
367.0823866460328
 30
0.0
 10
11.92239703415292
 20
372.6404830080585
 30
0.0
 10
11.922397034246
 20
378.1996434693755
 30
0.0
  0
SPLINE
  5
A8
330
5E
100
AcDbEntity
  8
410375040_ESCUTC
  6
Continuous
 62
     7
100
AcDbSpline
210
0.0
220
0.0
230
1.0
 70
     8
 71
     3
 72
    30
 73
    26
 74
     0
 42
0.0000000000751278
 43
0.0000000001
 40
0.0
 40
0.0
 40
0.0
 40
0.0
 40
0.2499999999999897
 40
0.2499999999999897
 40
0.3124999999999872
 40
0.3124999999999872
 40
0.3437499999999859
 40
0.3437499999999859
 40
0.3593749999999852
 40
0.3593749999999852
 40
0.3671874999999849
 40
0.3671874999999849
 40
0.3749999999999846
 40
0.3749999999999846
 40
0.4062499999999842
 40
0.4062499999999842
 40
0.4140624999999842
 40
0.4140624999999842
 40
0.4218749999999841
 40
0.4218749999999841
 40
0.4374999999999843
 40
0.4374999999999843
 40
0.4999999999999857
 40
0.4999999999999857
 40
0.5960391107774335
 40
0.5960391107774335
 40
0.5960391107774335
 40
0.5960391107774335
 10
11.922397034246
 20
378.1996434693755
 30
0.0
 10
11.92239704185476
 20
389.2641488719958
 30
0.0
 10
13.36800316687346
 20
400.3086402875089
 30
0.0
 10
16.91157795957136
 20
413.6448735943361
 30
0.0
 10
17.70602898578233
 20
416.2866071869336
 30
0.0
 10
19.02638251041118
 20
420.2109183270642
 30
0.0
 10
19.48796335381656
 20
421.5126354922901
 30
0.0
 10
20.21269141879897
 20
423.4555834126015
 30
0.0
 10
20.45961205614093
 20
424.1014862730923
 30
0.0
 10
20.83768324762916
 20
425.0668717054214
 30
0.0
 10
20.96500377369268
 20
425.3881292987381
 30
0.0
 10
21.22223743040534
 20
426.0295698006024
 30
0.0
 10
21.34177027349419
 20
426.3540245930976
 30
0.0
 10
22.12114925515117
 20
427.9014953265257
 30
0.0
 10
23.28322146622014
 20
428.8575269103859
 30
0.0
 10
24.95231364041845
 20
429.3251102628265
 30
0.0
 10
25.29481222106899
 20
429.3779043803854
 30
0.0
 10
25.97428046768627
 20
429.509576414612
 30
0.0
 10
26.3136761929927
 20
429.5770578914183
 30
0.0
 10
27.33085083779208
 20
429.7844262457806
 30
0.0
 10
28.00774355135992
 20
429.9292656040359
 30
0.0
 10
31.38324506379225
 20
430.6856648834103
 30
0.0
 10
34.05588019690715
 20
431.3936364074711
 30
0.0
 10
40.76507689331319
 20
433.4498612070678
 30
0.0
 10
44.76027085286179
 20
434.9385710577922
 30
0.0
 10
48.67454155285083
 20
436.6679759540699
 30
0.0
  0
SPLINE
  5
A9
330
5E
100
AcDbEntity
  8
410375040_ESCUTC
  6
Continuous
 62
     7
100
AcDbSpline
210
0.0
220
0.0
230
1.0
 70
     8
 71
     3
 72
    18
 73
    14
 74
     0
 42
0.0000000000746771
 43
0.0000000001
 40
0.5960391107774335
 40
0.5960391107774335
 40
0.5960391107774335
 40
0.5960391107774335
 40
0.6249999999999882
 40
0.6249999999999882
 40
0.6406249999999886
 40
0.6406249999999886
 40
0.6484374999999887
 40
0.6484374999999887
 40
0.6562499999999888
 40
0.6562499999999888
 40
0.6874999999999898
 40
0.6874999999999898
 40
0.7078177602908032
 40
0.7078177602908032
 40
0.7078177602908032
 40
0.7078177602908032
 10
48.67454155285083
 20
436.6679759540699
 30
0.0
 10
49.85490192074477
 20
437.1894833193152
 30
0.0
 10
51.02790359212918
 20
437.7328781097731
 30
0.0
 10
52.82193484564877
 20
438.6030403025568
 30
0.0
 10
53.44761750758306
 20
438.9170690107589
 30
0.0
 10
54.38375244853896
 20
439.3953183350218
 30
0.0
 10
54.69886196748523
 20
439.5456276030254
 30
0.0
 10
55.36145802271979
 20
439.7498812619859
 30
0.0
 10
55.70081616471503
 20
439.828025232647
 30
0.0
 10
57.38968753827605
 20
440.2423987566616
 30
0.0
 10
58.74711261866851
 20
440.5552964051091
 30
0.0
 10
60.99376860635663
 20
441.0521500969536
 30
0.0
 10
61.88148635719737
 20
441.2418674539707
 30
0.0
 10
62.7712056175979
 20
441.4254176514892
 30
0.0
  0
SPLINE
  5
AA
330
5E
100
AcDbEntity
  8
410375040_ESCUTC
  6
Continuous
 62
     7
100
AcDbSpline
210
0.0
220
0.0
230
1.0
 70
     8
 71
     3
 72
    10
 73
     6
 74
     0
 42
0.0000000000744147
 43
0.0000000001
 40
0.7078177602908032
 40
0.7078177602908032
 40
0.7078177602908032
 40
0.7078177602908032
 40
0.7499999999999917
 40
0.7499999999999917
 40
1.0
 40
1.0
 40
1.0
 40
1.0
 10
62.7712056175979
 20
441.4254176514892
 30
0.0
 10
64.61837531440086
 20
441.8064910729479
 30
0.0
 10
66.47417212000109
 20
442.1609821802211
 30
0.0
 10
79.35549484039225
 20
444.4246378200274
 30
0.0
 10
90.52089403448998
 20
445.4002666318884
 30
0.0
 10
101.7228478042521
 20
445.4009335941108
 30
0.0
  0
SPLINE
  5
AB
330
5E
100
AcDbEntity
  8
410375040_ESCUTC
  6
Continuous
 62
     7
100
AcDbSpline
210
0.0
220
0.0
230
1.0
 70
     8
 71
     3
 72
    44
 73
    40
 74
     0
 42
0.0000000000749198
 43
0.0000000001
 40
0.0
 40
0.0
 40
0.0
 40
0.0
 40
0.1250000000000013
 40
0.1250000000000013
 40
0.2500000000000027
 40
0.2500000000000027
 40
0.3125000000000033
 40
0.3125000000000033
 40
0.3437500000000036
 40
0.3437500000000036
 40
0.3515625000000038
 40
0.3515625000000038
 40
0.3593750000000039
 40
0.3593750000000039
 40
0.3750000000000042
 40
0.3750000000000042
 40
0.5000000000000066
 40
0.5000000000000066
 40
0.5625000000000078
 40
0.5625000000000078
 40
0.5781250000000081
 40
0.5781250000000081
 40
0.5937500000000083
 40
0.5937500000000083
 40
0.6250000000000085
 40
0.6250000000000085
 40
0.6328125000000085
 40
0.6328125000000085
 40
0.6406250000000085
 40
0.6406250000000085
 40
0.6562500000000081
 40
0.6562500000000081
 40
0.6875000000000074
 40
0.6875000000000074
 40
0.7500000000000059
 40
0.7500000000000059
 40
0.875000000000003
 40
0.875000000000003
 40
1.0
 40
1.0
 40
1.0
 40
1.0
 10
101.7228478042521
 20
445.4009335941108
 30
0.0
 10
107.3126562029432
 20
445.4005973063207
 30
0.0
 10
112.8857915485627
 20
445.1563157543144
 30
0.0
 10
123.9991969461019
 20
444.1887402145988
 30
0.0
 10
129.5476941552748
 20
443.4635852525238
 30
0.0
 10
137.7953834015392
 20
442.0171542018905
 30
0.0
 10
140.533431901777
 20
441.4752125730828
 30
0.0
 10
144.6236948230166
 20
440.5724026285225
 30
0.0
 10
145.9861185839955
 20
440.2583828664658
 30
0.0
 10
147.6797111346647
 20
439.8442350488517
 30
0.0
 10
148.0197742992626
 20
439.7647642547818
 30
0.0
 10
148.6849837443213
 20
439.5687176215909
 30
0.0
 10
148.9995843231273
 20
439.425893787859
 30
0.0
 10
149.9265848459745
 20
438.9556433552305
 30
0.0
 10
150.544509424924
 20
438.6420027205585
 30
0.0
 10
156.1461939619769
 20
435.9201173763002
 30
0.0
 10
161.2897169892696
 20
433.8866755444831
 30
0.0
 10
169.1943153906525
 20
431.4485056859703
 30
0.0
 10
171.8617794575877
 20
430.7365586811958
 30
0.0
 10
175.2219565117948
 20
429.9764353010155
 30
0.0
 10
175.8954636183427
 20
429.8308612529142
 30
0.0
 10
177.2454338766322
 20
429.5526680960737
 30
0.0
 10
177.9275815048754
 20
429.4442462408166
 30
0.0
 10
179.9414439358324
 20
428.9808512746147
 30
0.0
 10
181.1462911961726
 20
428.0917370046267
 30
0.0
 10
182.0054029525334
 20
426.5739224750496
 30
0.0
 10
182.1340539268653
 20
426.2499010418105
 30
0.0
 10
182.3937752778326
 20
425.6057073475445
 30
0.0
 10
182.5223227496212
 20
425.2830772400233
 30
0.0
 10
182.904024921376
 20
424.3135868670055
 30
0.0
 10
183.1532819062307
 20
423.6650131280113
 30
0.0
 10
183.8849691657547
 20
421.71371493617
 30
0.0
 10
184.3511382549049
 20
420.4059256227753
 30
0.0
 10
185.6849846678124
 20
416.4618515897752
 30
0.0
 10
186.488069962079
 20
413.8048828021246
 30
0.0
 10
188.6380564776388
 20
405.7509470844453
 30
0.0
 10
189.7153992562556
 20
400.3122592362192
 30
0.0
 10
191.1589520116264
 20
389.316875897112
 30
0.0
 10
191.5231794969246
 20
383.7587917353137
 30
0.0
 10
191.5231794976097
 20
378.1996434696226
 30
0.0
  0
SPLINE
  5
AC
330
5E
100
AcDbEntity
  8
410375040_ESCUTC
  6
Continuous
 62
     7
100
AcDbSpline
210
0.0
220
0.0
230
1.0
 70
     8
 71
     3
 72
    30
 73
    26
 74
     0
 42
0.0000000000751278
 43
0.0000000001
 40
0.0
 40
0.0
 40
0.0
 40
0.0
 40
0.2500000000000064
 40
0.2500000000000064
 40
0.312500000000008
 40
0.312500000000008
 40
0.3437500000000089
 40
0.3437500000000089
 40
0.3593750000000094
 40
0.3593750000000094
 40
0.3671875000000097
 40
0.3671875000000097
 40
0.37500000000001
 40
0.37500000000001
 40
0.4062500000000107
 40
0.4062500000000107
 40
0.4140625000000108
 40
0.4140625000000108
 40
0.4218750000000109
 40
0.4218750000000109
 40
0.4375000000000108
 40
0.4375000000000108
 40
0.5000000000000102
 40
0.5000000000000102
 40
0.5961767433288376
 40
0.5961767433288376
 40
0.5961767433288376
 40
0.5961767433288376
 10
191.5231794976097
 20
378.1996434696226
 30
0.0
 10
191.5231794915499
 20
367.1351622034722
 30
0.0
 10
190.0775797449091
 20
356.0906949825022
 30
0.0
 10
186.5340201713749
 20
342.7544885396924
 30
0.0
 10
185.7395725582786
 20
340.1127602099557
 30
0.0
 10
184.4192247236811
 20
336.1884567943316
 30
0.0
 10
183.957645872159
 20
334.8867421756006
 30
0.0
 10
183.232920941246
 20
332.9437980315021
 30
0.0
 10
182.9860013458652
 20
332.2978963515308
 30
0.0
 10
182.6079317598099
 20
331.3325127014484
 30
0.0
 10
182.4806117744847
 20
331.0112556998936
 30
0.0
 10
182.2233792104826
 20
330.3698163768934
 30
0.0
 10
182.1038478921132
 20
330.0453617711187
 30
0.0
 10
181.3245055718989
 20
328.4978800212403
 30
0.0
 10
180.1624589389364
 20
327.5418230154561
 30
0.0
 10
178.4933789306017
 20
327.0742007087639
 30
0.0
 10
178.1508814917251
 20
327.0214048667525
 30
0.0
 10
177.4714145716925
 20
326.8897338812064
 30
0.0
 10
177.132019508313
 20
326.8222529353802
 30
0.0
 10
176.1148468451398
 20
326.6148861941593
 30
0.0
 10
175.4379554373257
 20
326.4700479366202
 30
0.0
 10
172.0624602288655
 20
325.7136542489264
 30
0.0
 10
169.3898300273985
 20
325.0056876111896
 30
0.0
 10
162.6748210685605
 20
322.947691361206
 30
0.0
 10
158.6740071978645
 20
321.45650936819
 30
0.0
 10
154.75436575727
 20
319.7239452546926
 30
0.0
  0
SPLINE
  5
AD
330
5E
100
AcDbEntity
  8
410375040_ESCUTC
  6
Continuous
 62
     7
100
AcDbSpline
210
0.0
220
0.0
230
1.0
 70
     8
 71
     3
 72
    18
 73
    14
 74
     0
 42
0.0000000000746771
 43
0.0000000001
 40
0.5961767433288376
 40
0.5961767433288376
 40
0.5961767433288376
 40
0.5961767433288376
 40
0.6250000000000095
 40
0.6250000000000095
 40
0.6406250000000093
 40
0.6406250000000093
 40
0.6484375000000093
 40
0.6484375000000093
 40
0.6562500000000093
 40
0.6562500000000093
 40
0.6875000000000084
 40
0.6875000000000084
 40
0.7078187997753432
 40
0.7078187997753432
 40
0.7078187997753432
 40
0.7078187997753432
 10
154.75436575727
 20
319.7239452546926
 30
0.0
 10
153.5796864388516
 20
319.2047122424887
 30
0.0
 10
152.412297573387
 20
318.6637996404156
 30
0.0
 10
150.6238073652763
 20
317.7963280628219
 30
0.0
 10
149.9981237730394
 20
317.4823068845319
 30
0.0
 10
149.061992938589
 20
317.0040524759584
 30
0.0
 10
148.7468893821577
 20
316.853727837488
 30
0.0
 10
148.0843036673292
 20
316.6494481532043
 30
0.0
 10
147.7449451006757
 20
316.5713078283062
 30
0.0
 10
146.0560786551019
 20
316.1569315385267
 30
0.0
 10
144.6986565252751
 20
315.8440346315591
 30
0.0
 10
142.4519609393096
 20
315.3471697085069
 30
0.0
 10
141.5641999045393
 20
315.1574424492434
 30
0.0
 10
140.6744371725775
 20
314.9738829551843
 30
0.0
  0
SPLINE
  5
AE
330
5E
100
AcDbEntity
  8
410375040_ESCUTC
  6
Continuous
 62
     7
100
AcDbSpline
210
0.0
220
0.0
230
1.0
 70
     8
 71
     3
 72
    10
 73
     6
 74
     0
 42
0.0000000000744545
 43
0.0000000001
 40
0.7078187997753432
 40
0.7078187997753432
 40
0.7078187997753432
 40
0.7078187997753432
 40
0.7500000000000068
 40
0.7500000000000068
 40
0.9550381142319729
 40
0.9550381142319729
 40
0.9550381142319729
 40
0.9550381142319729
 10
140.6744371725775
 20
314.9738829551843
 30
0.0
 10
138.8273172459921
 20
314.5928191198368
 30
0.0
 10
136.9715707098069
 20
314.238336179317
 30
0.0
 10
126.0725359511679
 20
312.3230183424445
 30
0.0
 10
116.936431308292
 20
311.3810615643063
 30
0.0
 10
107.7627694304781
 20
311.0932478953013
 30
0.0
  0
SPLINE
  5
AF
330
5E
100
AcDbEntity
  8
410375040_ESCUTC
  6
Continuous
 62
     7
100
AcDbSpline
210
0.0
220
0.0
230
1.0
 70
     8
 71
     3
 72
     8
 73
     4
 74
     0
 42
0.0000000006524035
 43
0.0000000001
 40
0.0
 40
0.0
 40
0.0
 40
0.0
 40
0.0395904854366373
 40
0.0395904854366373
 40
0.0395904854366373
 40
0.0395904854366373
 10
59.2604624750831
 20
374.4228586884924
 30
0.0
 10
59.44966468242249
 20
374.3496018619779
 30
0.0
 10
59.64379429418332
 20
374.2918826944256
 30
0.0
 10
59.84079600928922
 20
374.2499130827429
 30
0.0
  0
SPLINE
  5
B0
330
5E
100
AcDbEntity
  8
410375040_ESCUTC
  6
Continuous
 62
     7
100
AcDbSpline
210
0.0
220
0.0
230
1.0
 70
     8
 71
     3
 72
    16
 73
    12
 74
     0
 42
0.0000000006351819
 43
0.0000000001
 40
0.0395904854366373
 40
0.0395904854366373
 40
0.0395904854366373
 40
0.0395904854366373
 40
0.1250000000000004
 40
0.1250000000000004
 40
0.2500000000000008
 40
0.2500000000000008
 40
0.5000000000000006
 40
0.5000000000000006
 40
0.7500000000000002
 40
0.7500000000000002
 40
1.0
 40
1.0
 40
1.0
 40
1.0
 10
59.84079600928922
 20
374.2499130827429
 30
0.0
 10
60.26579258788066
 20
374.1593710214191
 30
0.0
 10
60.70415607315211
 20
374.1421281482739
 30
0.0
 10
61.76617357896472
 20
374.2854661558607
 30
0.0
 10
62.37084938623964
 20
374.5326061080793
 30
0.0
 10
63.90321869280187
 20
375.6515365349392
 30
0.0
 10
64.53256649357334
 20
376.9212872506984
 30
0.0
 10
64.53321556442614
 20
379.4758833578046
 30
0.0
 10
63.9168336437522
 20
380.7371484159614
 30
0.0
 10
61.84907098070308
 20
382.2483410644854
 30
0.0
 10
60.45508592657834
 20
382.4389721295333
 30
0.0
 10
59.26046247509809
 20
381.976428250343
 30
0.0
  0
ARC
  5
B1
330
5E
100
AcDbEntity
  8
410375040_ESCUTC
  6
Continuous
 62
     7
100
AcDbCircle
 10
60.7227882659
 20
378.1996434694
 30
0.0
 40
4.050000000000002
100
AcDbArc
 50
111.1658059791
 51
248.8341940207
  0
ARC
  5
B2
330
5E
100
AcDbEntity
  8
410375040_ESCUTC
  6
Continuous
 62
     7
100
AcDbCircle
 10
101.7227882659
 20
378.1996434694
 30
0.0
 40
32.0
100
AcDbArc
 50
0.0
 51
259.5704395296
  0
ARC
  5
B3
330
5E
100
AcDbEntity
  8
410375040_ESCUTC
  6
Continuous
 62
     7
100
AcDbCircle
 10
101.7227882659
 20
378.1996434694
 30
0.0
 40
32.0
100
AcDbArc
 50
280.4295463231
 51
0.0
  0
LINE
  5
B6
330
5E
100
AcDbEntity
  8
DV1_Standard
  6
CENTER2
 62
     7
100
AcDbLine
 10
121.722783944
 20
378.1996434694
 30
0.0
 11
81.7227848381
 21
378.1996434694
 31
0.0
  0
LINE
  5
B7
330
5E
100
AcDbEntity
  8
DV1_Standard
  6
CENTER2
 62
     7
100
AcDbLine
 10
101.7227843911
 20
398.1996430224
 30
0.0
 11
101.7227843911
 21
358.1996439164
 31
0.0
  0
LINE
  5
B8
330
5E
100
AcDbEntity
  8
DV1_Standard
  6
CENTER2
 62
     7
100
AcDbLine
 10
126.7227838323
 20
378.1996434694
 30
0.0
 11
114.1727843911
 21
378.1996434694
 31
0.0
  0
LINE
  5
B9
330
5E
100
AcDbEntity
  8
DV1_Standard
  6
CENTER2
 62
     7
100
AcDbLine
 10
101.7227843911
 20
403.1996429106
 30
0.0
 11
101.7227843911
 21
390.6496434694
 31
0.0
  0
LINE
  5
BA
330
5E
100
AcDbEntity
  8
DV1_Standard
  6
CENTER2
 62
     7
100
AcDbLine
 10
76.7227849499
 20
378.1996434694
 30
0.0
 11
89.2727843911
 21
378.1996434694
 31
0.0
  0
LINE
  5
BB
330
5E
100
AcDbEntity
  8
DV1_Standard
  6
CENTER2
 62
     7
100
AcDbLine
 10
101.7227843911
 20
353.1996440282
 30
0.0
 11
101.7227843911
 21
365.7496434694
 31
0.0
  0
ENDBLK
  5
BD
330
5E
100
AcDbEntity
  8
0
100
AcDbBlockEnd
  0
BLOCK
  5
13F
330
BE
100
AcDbEntity
  8
0
100
AcDbBlockBegin
  2
SE1
 70
     0
 10
0.0
 20
0.0
 30
0.0
  3
SE1
  1

  0
LINE
  5
C1
330
BE
100
AcDbEntity
  8
410064038_SLEEVE
  6
Continuous
 62
     7
100
AcDbLine
 10
304.1029244012
 20
409.9496434694
 30
0.0
 11
287.4459585744
 21
409.9496434694
 31
0.0
  0
LINE
  5
C2
330
BE
100
AcDbEntity
  8
410064038_SLEEVE
  6
Continuous
 62
     7
100
AcDbLine
 10
287.4459721965
 20
346.4496434694
 30
0.0
 11
304.1029244012
 21
346.4496434694
 31
0.0
  0
ARC
  5
C4
330
BE
100
AcDbEntity
  8
410306038_DIVERT
  6
Continuous
 62
     7
100
AcDbCircle
 10
313.5311783545
 20
315.4917536462
 30
0.0
 40
31.47282213703803
100
AcDbArc
 50
79.989509121
 51
99.0104896454
  0
LINE
  5
C5
330
BE
100
AcDbEntity
  8
410306038_DIVERT
  6
Continuous
 62
     7
100
AcDbLine
 10
305.1029244012
 20
347.1023826949
 30
0.0
 11
305.1029244012
 21
409.2969042439
 31
0.0
  0
LINE
  5
C6
330
BE
100
AcDbEntity
  8
410306038_DIVERT
  6
Continuous
 62
     7
100
AcDbLine
 10
323.1029244012
 20
409.4452609963
 30
0.0
 11
323.1029244012
 21
346.9540259425
 31
0.0
  0
LINE
  5
C7
330
BE
100
AcDbEntity
  8
410306038_DIVERT
  6
Continuous
 62
     7
100
AcDbLine
 10
322.5985611335
 20
409.9452419579
 30
0.0
 11
305.5985611335
 21
409.7968852054
 31
0.0
  0
LINE
  5
C8
330
BE
100
AcDbEntity
  8
410306038_DIVERT
  6
Continuous
 62
     7
100
AcDbLine
 10
318.9887161438
 20
346.4855476209
 30
0.0
 11
322.5985611335
 21
346.454044981
 31
0.0
  0
LINE
  5
C9
330
BE
100
AcDbEntity
  8
410306038_DIVERT
  6
Continuous
 62
     7
100
AcDbLine
 10
305.5985611335
 20
346.6024017334
 30
0.0
 11
308.603780981
 21
346.5761755771
 31
0.0
  0
LINE
  5
CA
330
BE
100
AcDbEntity
  8
410306038_DIVERT
  6
Continuous
 62
     7
100
AcDbLine
 10
304.9046697083
 20
408.1979133269
 30
0.0
 11
304.7029244012
 21
408.1961527223
 31
0.0
  0
LINE
  5
CB
330
BE
100
AcDbEntity
  8
410306038_DIVERT
  6
Continuous
 62
     7
100
AcDbLine
 10
304.7029244012
 20
348.2031342165
 30
0.0
 11
304.9046697083
 21
348.2013736119
 31
0.0
  0
ARC
  5
CC
330
BE
100
AcDbEntity
  8
410306038_DIVERT
  6
Continuous
 62
     7
100
AcDbCircle
 10
304.9029244012
 20
408.3979057115
 30
0.0
 40
0.1999999999999988
100
AcDbArc
 50
270.5
 51
0.0
  0
ARC
  5
CD
330
BE
100
AcDbEntity
  8
410306038_DIVERT
  6
Continuous
 62
     7
100
AcDbCircle
 10
304.9029244012
 20
348.0013812273
 30
0.0
 40
0.2000000000000034
100
AcDbArc
 50
0.0
 51
89.5
  0
ARC
  5
CE
330
BE
100
AcDbEntity
  8
410306038_DIVERT
  6
Continuous
 62
     7
100
AcDbCircle
 10
305.6029244012
 20
409.2969042439
 30
0.0
 40
0.500000000000005
100
AcDbArc
 50
90.5
 51
180.0
  0
ARC
  5
CF
330
BE
100
AcDbEntity
  8
410306038_DIVERT
  6
Continuous
 62
     7
100
AcDbCircle
 10
305.6029244012
 20
347.1023826949
 30
0.0
 40
0.5000000000000004
100
AcDbArc
 50
180.0
 51
269.5
  0
ARC
  5
D0
330
BE
100
AcDbEntity
  8
410306038_DIVERT
  6
Continuous
 62
     7
100
AcDbCircle
 10
322.6029244012
 20
409.4452609963
 30
0.0
 40
0.5000000000000004
100
AcDbArc
 50
0.0
 51
90.5
  0
ARC
  5
D1
330
BE
100
AcDbEntity
  8
410306038_DIVERT
  6
Continuous
 62
     7
100
AcDbCircle
 10
322.6029244012
 20
346.9540259425
 30
0.0
 40
0.4999999999999969
100
AcDbArc
 50
269.5
 51
0.0
  0
LINE
  5
D3
330
BE
100
AcDbEntity
  8
410316038_HANDLE
  6
Continuous
 62
     7
100
AcDbLine
 10
363.3112045697
 20
391.0050766871
 30
0.0
 11
363.3112045697
 21
365.3942102517
 31
0.0
  0
ARC
  5
D4
330
BE
100
AcDbEntity
  8
410316038_HANDLE
  6
Continuous
 62
     7
100
AcDbCircle
 10
328.1028944655
 20
442.0849266416
 30
0.0
 40
32.22328477276592
100
AcDbArc
 50
265.7680681007
 51
274.2320320178
  0
LINE
  5
D5
330
BE
100
AcDbEntity
  8
410316038_HANDLE
  6
Continuous
 62
     7
100
AcDbLine
 10
323.7029244012
 20
346.6496434694
 30
0.0
 11
323.7029244012
 21
409.7496434694
 31
0.0
  0
LINE
  5
D6
330
BE
100
AcDbEntity
  8
410316038_HANDLE
  6
Continuous
 62
     7
100
AcDbLine
 10
323.9029244012
 20
346.4496434694
 30
0.0
 11
347.8866542674
 21
346.4496434694
 31
0.0
  0
LINE
  5
D7
330
BE
100
AcDbEntity
  8
410316038_HANDLE
  6
Continuous
 62
     7
100
AcDbLine
 10
325.727089288
 20
409.9496434694
 30
0.0
 11
323.9029244012
 21
409.9496434694
 31
0.0
  0
LINE
  5
D8
330
BE
100
AcDbEntity
  8
410316038_HANDLE
  6
Continuous
 62
     7
100
AcDbLine
 10
347.8866542674
 20
409.9496434694
 30
0.0
 11
330.4532093718
 21
409.9496434694
 31
0.0
  0
ARC
  5
D9
330
BE
100
AcDbEntity
  8
410316038_HANDLE
  6
Continuous
 62
     7
100
AcDbCircle
 10
369.7617280409
 20
346.1084584262
 30
0.0
 40
20.00000000000007
100
AcDbArc
 50
109.8190009703
 51
173.8911589414
  0
ARC
  5
DA
330
BE
100
AcDbEntity
  8
410316038_HANDLE
  6
Continuous
 62
     7
100
AcDbCircle
 10
369.7617280409
 20
410.2908285127
 30
0.0
 40
20.0
100
AcDbArc
 50
186.1088410586
 51
250.1809990297
  0
ARC
  5
DB
330
BE
100
AcDbEntity
  8
410316038_HANDLE
  6
Continuous
 62
     7
100
AcDbCircle
 10
362.8112045697
 20
391.0050766871
 30
0.0
 40
0.5000000000000004
100
AcDbArc
 50
0.0
 51
70.1809990298
  0
ARC
  5
DC
330
BE
100
AcDbEntity
  8
410316038_HANDLE
  6
Continuous
 62
     7
100
AcDbCircle
 10
362.8112045697
 20
365.3942102517
 30
0.0
 40
0.4999999999999972
100
AcDbArc
 50
289.8190009702
 51
0.0
  0
SPLINE
  5
DD
330
BE
100
AcDbEntity
  8
410316038_HANDLE
  6
Continuous
 62
     7
100
AcDbSpline
210
0.0
220
0.0
230
1.0
 70
     8
 71
     3
 72
    15
 73
    11
 74
     0
 42
0.0000000035032064
 43
0.0000000001
 40
0.1825237106615969
 40
0.1825237106615969
 40
0.1825237106615969
 40
0.1825237106615969
 40
0.1914972222717215
 40
0.259496031865364
 40
0.3772705240804117
 40
0.5026266838933716
 40
0.6268704977754851
 40
0.7521041847556178
 40
0.8769501902703432
 40
1.0
 40
1.0
 40
1.0
 40
1.0
 10
330.3918937062613
 20
409.9464246972691
 30
0.0
 10
330.3919349667773
 20
409.9464276696492
 30
0.0
 10
330.3889832751396
 20
409.9462180977489
 30
0.0
 10
330.357972130673
 20
409.9440449363335
 30
0.0
 10
330.2287972659824
 20
409.9350452130931
 30
0.0
 10
329.9601671302646
 20
409.9181511390666
 30
0.0
 10
329.5800830595116
 20
409.898104297441
 30
0.0
 10
329.1204846573482
 20
409.8800612257262
 30
0.0
 10
328.593055777032
 20
409.8672253584693
 30
0.0
 10
328.2569182571069
 20
409.865865021045
 30
0.0
 10
328.0604371025132
 20
409.8652407961144
 30
0.0
  0
SPLINE
  5
DE
330
BE
100
AcDbEntity
  8
410316038_HANDLE
  6
Continuous
 62
     7
100
AcDbSpline
210
0.0
220
0.0
230
1.0
 70
     8
 71
     3
 72
    15
 73
    11
 74
     0
 42
0.0000000036053524
 43
0.0000000001
 40
0.0
 40
0.0
 40
0.0
 40
0.0
 40
0.0670737989030044
 40
0.1962009099398234
 40
0.3260096890833711
 40
0.4563800918499005
 40
0.5858486716173738
 40
0.7146254983240723
 40
0.7793271400724917
 40
0.8099587060540329
 40
0.8099587060540329
 40
0.8099587060540329
 40
0.8099587060540329
 10
328.0604371025132
 20
409.8652407961144
 30
0.0
 10
327.9554880479761
 20
409.8656351910461
 30
0.0
 10
327.6943819827741
 20
409.8667860281739
 30
0.0
 10
327.229688240043
 20
409.8756235531549
 30
0.0
 10
326.742965836397
 20
409.8928409334519
 30
0.0
 10
326.3307613333264
 20
409.9132334420007
 30
0.0
 10
326.0246193005487
 20
409.9318689277074
 30
0.0
 10
325.872174780162
 20
409.9423346674029
 30
0.0
 10
325.8226777826807
 20
409.9458106152495
 30
0.0
 10
325.8167891396265
 20
409.9462186456873
 30
0.0
 10
325.8158521589021
 20
409.9462918999854
 30
0.0
  0
ARC
  5
DF
330
BE
100
AcDbEntity
  8
410316038_HANDLE
  6
Continuous
 62
     7
100
AcDbCircle
 10
347.8866542674
 20
407.9496434694
 30
0.0
 40
1.999999999999928
100
AcDbArc
 50
6.1088410587
 51
90.0
  0
ARC
  5
E0
330
BE
100
AcDbEntity
  8
410316038_HANDLE
  6
Continuous
 62
     7
100
AcDbCircle
 10
347.8866542674
 20
348.4496434694
 30
0.0
 40
2.000000000000005
100
AcDbArc
 50
270.0
 51
353.8911589413
  0
ARC
  5
E1
330
BE
100
AcDbEntity
  8
410316038_HANDLE
  6
Continuous
 62
     7
100
AcDbCircle
 10
323.9029244012
 20
409.7496434694
 30
0.0
 40
0.1999999999999988
100
AcDbArc
 50
90.0
 51
180.0
  0
ARC
  5
E2
330
BE
100
AcDbEntity
  8
410316038_HANDLE
  6
Continuous
 62
     7
100
AcDbCircle
 10
323.9029244012
 20
346.6496434694
 30
0.0
 40
0.1999999999999988
100
AcDbArc
 50
180.0
 51
270.0
  0
LINE
  5
E3
330
BE
100
AcDbEntity
  8
410316038_HANDLE
  6
Continuous
 62
     7
100
AcDbLine
 10
323.1029244012
 20
348.9996434694
 30
0.0
 11
323.7029244012
 21
348.9996434694
 31
0.0
  0
LINE
  5
E4
330
BE
100
AcDbEntity
  8
410316038_HANDLE
  6
Continuous
 62
     7
100
AcDbLine
 10
323.7029244012
 20
407.3996434694
 30
0.0
 11
323.1029244012
 21
407.3996434694
 31
0.0
  0
LINE
  5
E5
330
BE
100
AcDbEntity
  8
410308038_LEVER_
  6
Continuous
 62
     7
100
AcDbLine
 10
308.4627005877
 20
339.1996434694
 30
0.0
 11
319.1431495237
 21
339.1996434694
 31
0.0
  0
ARC
  5
E6
330
BE
100
AcDbEntity
  8
410308038_LEVER_
  6
Continuous
 62
     7
100
AcDbCircle
 10
313.8029250557
 20
289.745830798
 30
0.0
 40
10.00000000000011
100
AcDbArc
 50
165.0939506482
 51
270.0
  0
ARC
  5
E7
330
BE
100
AcDbEntity
  8
410308038_LEVER_
  6
Continuous
 62
     7
100
AcDbCircle
 10
313.8029250557
 20
289.745830798
 30
0.0
 40
9.999999999999995
100
AcDbArc
 50
270.0
 51
14.9060493518
  0
SPLINE
  5
E8
330
BE
100
AcDbEntity
  8
410308038_LEVER_
  6
Continuous
 62
     7
100
AcDbSpline
210
0.0
220
0.0
230
1.0
 70
     8
 71
     3
 72
    14
 73
    10
 74
     0
 42
0.000000000213831
 43
0.0000000001
 40
0.0
 40
0.0
 40
0.0
 40
0.0
 40
0.1285207046968703
 40
0.269633989166398
 40
0.4112487252735202
 40
0.553249766074437
 40
0.7022491954704093
 40
0.8512596897575424
 40
1.0
 40
1.0
 40
1.0
 40
1.0
 10
307.9510066149905
 20
338.6397391473024
 30
0.0
 10
308.1745278807582
 20
336.4483013025583
 30
0.0
 10
308.5558552993613
 20
332.5665035089286
 30
0.0
 10
308.735074199847
 20
326.0246771970249
 30
0.0
 10
308.5637461585715
 20
319.4448927760512
 30
0.0
 10
308.020404724692
 20
312.703453712979
 30
0.0
 10
307.1117975040565
 20
305.9442678034753
 30
0.0
 10
305.8069702589405
 20
298.9628408505957
 30
0.0
 10
304.7658653829098
 20
294.7893836263041
 30
0.0
 10
304.1394358000268
 20
292.3181790257347
 30
0.0
  0
SPLINE
  5
E9
330
BE
100
AcDbEntity
  8
410308038_LEVER_
  6
Continuous
 62
     7
100
AcDbSpline
210
0.0
220
0.0
230
1.0
 70
     8
 71
     3
 72
    14
 73
    10
 74
     0
 42
0.0000000002138186
 43
0.0000000001
 40
0.0
 40
0.0
 40
0.0
 40
0.0
 40
0.141964880330237
 40
0.2841883113612146
 40
0.4264231333270173
 40
0.5684596004776191
 40
0.7168630764650965
 40
0.8647263116086477
 40
1.0
 40
1.0
 40
1.0
 40
1.0
 10
323.4664143114318
 20
292.3181790257347
 30
0.0
 10
322.8672298705569
 20
294.6766226125192
 30
0.0
 10
321.8706554062658
 20
298.6593597323507
 30
0.0
 10
320.6018162047414
 20
305.3186545049373
 30
0.0
 10
319.6816092360684
 20
311.8651899858439
 30
0.0
 10
319.0872864591747
 20
318.603565508442
 30
0.0
 10
318.8659883816723
 20
325.3926760861786
 30
0.0
 10
319.0254838527218
 20
332.2586471565594
 30
0.0
 10
319.4222429051233
 20
336.3353621020097
 30
0.0
 10
319.6558469346503
 20
338.6422408190753
 30
0.0
  0
ARC
  5
EA
330
BE
100
AcDbEntity
  8
410308038_LEVER_
  6
Continuous
 62
     7
100
AcDbCircle
 10
308.4627005877
 20
338.6996434694
 30
0.0
 40
0.5000000000000004
100
AcDbArc
 50
90.0
 51
186.4363484234
  0
ARC
  5
EB
330
BE
100
AcDbEntity
  8
410308038_LEVER_
  6
Continuous
 62
     7
100
AcDbCircle
 10
319.1431495237
 20
338.6996434694
 30
0.0
 40
0.5
100
AcDbArc
 50
353.5636515766
 51
90.0
  0
LINE
  5
EC
330
BE
100
AcDbEntity
  8
410308038_LEVER_
  6
Continuous
 62
     7
100
AcDbLine
 10
318.8029250557
 20
339.3996434694
 30
0.0
 11
318.8029250557
 21
346.519348311
 31
0.0
  0
LINE
  5
ED
330
BE
100
AcDbEntity
  8
410308038_LEVER_
  6
Continuous
 62
     7
100
AcDbLine
 10
308.8029250557
 20
346.6068819977
 30
0.0
 11
308.8029250557
 21
339.3996434694
 31
0.0
  0
ARC
  5
EE
330
BE
100
AcDbEntity
  8
410308038_LEVER_
  6
Continuous
 62
     7
100
AcDbCircle
 10
308.6029250557
 20
339.3996434694
 30
0.0
 40
0.1999999999999988
100
AcDbArc
 50
270.0
 51
0.0
  0
ARC
  5
EF
330
BE
100
AcDbEntity
  8
410308038_LEVER_
  6
Continuous
 62
     7
100
AcDbCircle
 10
319.0029250557
 20
339.3996434694
 30
0.0
 40
0.1999999999999988
100
AcDbArc
 50
180.0
 51
270.0
  0
SPLINE
  5
F1
330
BE
100
AcDbEntity
  8
410310038_RING_K
  6
Continuous
 62
     7
100
AcDbSpline
210
0.0
220
0.0
230
1.0
 70
     8
 71
     3
 72
     8
 73
     4
 74
     0
 42
0.0000000014391823
 43
0.0000000001
 40
0.0
 40
0.0
 40
0.0
 40
0.0
 40
1.0
 40
1.0
 40
1.0
 40
1.0
 10
363.9882053080905
 20
365.2428564409939
 30
0.0
 10
366.2969593820332
 20
366.0523626706942
 30
0.0
 10
368.5364879231306
 20
366.6141618386386
 30
0.0
 10
370.7067909313826
 20
366.9282539448272
 30
0.0
  0
SPLINE
  5
F2
330
BE
100
AcDbEntity
  8
410310038_RING_K
  6
Continuous
 62
     7
100
AcDbSpline
210
0.0
220
0.0
230
1.0
 70
     8
 71
     3
 72
     8
 73
     4
 74
     0
 42
0.0000000014404802
 43
0.0000000001
 40
0.0
 40
0.0
 40
0.0
 40
0.0
 40
1.0
 40
1.0
 40
1.0
 40
1.0
 10
370.7150273402212
 20
389.4712683418871
 30
0.0
 10
367.9267726068211
 20
389.9435424406704
 30
0.0
 10
365.6881942726338
 20
390.5011897619292
 30
0.0
 10
363.9992923376593
 20
391.1442103056634
 30
0.0
  0
ARC
  5
F3
330
BE
100
AcDbEntity
  8
410310038_RING_K
  6
Continuous
 62
     7
100
AcDbCircle
 10
375.4892193871
 20
375.2599826059
 30
0.0
 40
9.499999999999986
100
AcDbArc
 50
241.8850039707
 51
254.2095579456
  0
ARC
  5
F4
330
BE
100
AcDbEntity
  8
410310038_RING_K
  6
Continuous
 62
     7
100
AcDbCircle
 10
375.4892193871
 20
381.1393043329
 30
0.0
 40
9.49999999999999
100
AcDbArc
 50
105.7904420544
 51
118.1149960293
  0
ARC
  5
F5
330
BE
100
AcDbEntity
  8
410310038_RING_K
  6
Continuous
 62
     7
100
AcDbCircle
 10
373.0401418321
 20
366.5996119944
 30
0.0
 40
0.4999999999999897
100
AcDbArc
 50
254.2095579456
 51
309.8055710923
  0
ARC
  5
F6
330
BE
100
AcDbEntity
  8
410310038_RING_K
  6
Continuous
 62
     7
100
AcDbCircle
 10
373.0401418321
 20
389.7996749444
 30
0.0
 40
0.5000000000000157
100
AcDbArc
 50
50.1944289077
 51
105.7904420544
  0
LINE
  5
F7
330
BE
100
AcDbEntity
  8
410310038_RING_K
  6
Continuous
 62
     7
100
AcDbLine
 10
373.3602340319
 20
366.2155013546
 30
0.0
 11
373.8812967695
 21
366.6497203026
 31
0.0
  0
LINE
  5
F8
330
BE
100
AcDbEntity
  8
410310038_RING_K
  6
Continuous
 62
     7
100
AcDbLine
 10
373.8812967695
 20
389.7495666362
 30
0.0
 11
373.3602340319
 21
390.1837855842
 31
0.0
  0
ARC
  5
F9
330
BE
100
AcDbEntity
  8
410310038_RING_K
  6
Continuous
 62
     7
100
AcDbCircle
 10
370.7767919449
 20
366.4399470277
 30
0.0
 40
0.499999999999997
100
AcDbArc
 50
61.8850039707
 51
98.9249464668
  0
ARC
  5
FA
330
BE
100
AcDbEntity
  8
410310038_RING_K
  6
Continuous
 62
     7
100
AcDbCircle
 10
370.7767919449
 20
389.9593399111
 30
0.0
 40
0.5000000000000151
100
AcDbArc
 50
261.0750535332
 51
298.1149960293
  0
ARC
  5
FB
330
BE
100
AcDbEntity
  8
410310038_RING_K
  6
Continuous
 62
     7
100
AcDbCircle
 10
363.8112045697
 20
365.7454030322
 30
0.0
 40
0.5000000000000004
100
AcDbArc
 50
180.0
 51
288.8443742512
  0
ARC
  5
FC
330
BE
100
AcDbEntity
  8
410310038_RING_K
  6
Continuous
 62
     7
100
AcDbCircle
 10
363.8112045697
 20
390.6538839066
 30
0.0
 40
0.4999999999999963
100
AcDbArc
 50
71.1556257488
 51
180.0
  0
ARC
  5
FD
330
BE
100
AcDbEntity
  8
410310038_RING_K
  6
Continuous
 62
     7
100
AcDbCircle
 10
373.5612045697
 20
389.3654559964
 30
0.0
 40
0.5000000000000004
100
AcDbArc
 50
0.0
 51
50.1944289077
  0
ARC
  5
FE
330
BE
100
AcDbEntity
  8
410310038_RING_K
  6
Continuous
 62
     7
100
AcDbCircle
 10
373.5612045697
 20
367.0338309424
 30
0.0
 40
0.5000000000000222
100
AcDbArc
 50
309.8055710923
 51
0.0
  0
LINE
  5
FF
330
BE
100
AcDbEntity
  8
410005038_HANDLE
  6
Continuous
 62
     7
100
AcDbLine
 10
380.9229920173
 20
365.0496434694
 30
0.0
 11
377.0372892432
 21
365.0496434694
 31
0.0
  0
LINE
  5
100
330
BE
100
AcDbEntity
  8
410005038_HANDLE
  6
Continuous
 62
     7
100
AcDbLine
 10
380.9229920173
 20
365.0496434694
 30
0.0
 11
388.0612040438
 21
365.0680715759
 31
0.0
  0
LINE
  5
101
330
BE
100
AcDbEntity
  8
410005038_HANDLE
  6
Continuous
 62
     7
100
AcDbLine
 10
392.1612045697
 20
388.4774800333
 30
0.0
 11
392.1612045697
 21
367.9218069055
 31
0.0
  0
LINE
  5
102
330
BE
100
AcDbEntity
  8
410005038_HANDLE
  6
Continuous
 62
     7
100
AcDbLine
 10
374.0612045697
 20
366.9923181829
 30
0.0
 11
374.0612045697
 21
389.4069687559
 31
0.0
  0
ARC
  5
103
330
BE
100
AcDbEntity
  8
410005038_HANDLE
  6
Continuous
 62
     7
100
AcDbCircle
 10
382.5272801357
 20
378.1996434694
 30
0.0
 40
14.25
100
AcDbArc
 50
234.5950951231
 51
247.3399612862
  0
ARC
  5
104
330
BE
100
AcDbEntity
  8
410005038_HANDLE
  6
Continuous
 62
     7
100
AcDbCircle
 10
382.5272801357
 20
378.1996434694
 30
0.0
 40
14.25
100
AcDbArc
 50
48.372472413
 51
125.4049048769
  0
ARC
  5
105
330
BE
100
AcDbEntity
  8
410005038_HANDLE
  6
Continuous
 62
     7
100
AcDbCircle
 10
382.5272801357
 20
378.1996434694
 30
0.0
 40
14.25
100
AcDbArc
 50
292.8026017952
 51
311.627527587
  0
ARC
  5
106
330
BE
100
AcDbEntity
  8
410005038_HANDLE
  6
Continuous
 62
     7
100
AcDbCircle
 10
391.6612045697
 20
388.4774800333
 30
0.0
 40
0.5000000000000004
100
AcDbArc
 50
0.0
 51
48.372472413
  0
ARC
  5
107
330
BE
100
AcDbEntity
  8
410005038_HANDLE
  6
Continuous
 62
     7
100
AcDbCircle
 10
391.6612045697
 20
367.9218069055
 30
0.0
 40
0.4999999999999992
100
AcDbArc
 50
311.627527587
 51
0.0
  0
ARC
  5
108
330
BE
100
AcDbEntity
  8
410005038_HANDLE
  6
Continuous
 62
     7
100
AcDbCircle
 10
374.5612045697
 20
366.9923181829
 30
0.0
 40
0.5000000000000004
100
AcDbArc
 50
180.0
 51
234.5950951231
  0
ARC
  5
109
330
BE
100
AcDbEntity
  8
410005038_HANDLE
  6
Continuous
 62
     7
100
AcDbCircle
 10
374.5612045697
 20
389.4069687559
 30
0.0
 40
0.4999999999999993
100
AcDbArc
 50
125.4049048769
 51
180.0
  0
LINE
  5
10A
330
BE
100
AcDbEntity
  8
410307038_LEVER_
  6
Continuous
 62
     7
100
AcDbLine
 10
376.6647598306
 20
356.8496434694
 30
0.0
 11
388.4576493087
 21
356.8496434694
 31
0.0
  0
ARC
  5
10B
330
BE
100
AcDbEntity
  8
410307038_LEVER_
  6
Continuous
 62
     7
100
AcDbCircle
 10
276.779240177
 20
345.2531141232
 30
0.0
 40
100.0
100
AcDbArc
 50
346.0429344828
 51
6.3391368539
  0
ARC
  5
10C
330
BE
100
AcDbEntity
  8
410307038_LEVER_
  6
Continuous
 62
     7
100
AcDbCircle
 10
488.3431689623
 20
345.2531141232
 30
0.0
 40
100.0
100
AcDbArc
 50
173.6608631461
 51
193.9570655172
  0
ARC
  5
10D
330
BE
100
AcDbEntity
  8
410307038_LEVER_
  6
Continuous
 62
     7
100
AcDbCircle
 10
382.5612045697
 20
318.9628876268
 30
0.0
 40
8.999999999999984
100
AcDbArc
 50
166.0429344828
 51
270.0
  0
ARC
  5
10E
330
BE
100
AcDbEntity
  8
410307038_LEVER_
  6
Continuous
 62
     7
100
AcDbCircle
 10
382.5612045697
 20
318.9628876268
 30
0.0
 40
8.999999999999988
100
AcDbArc
 50
270.0
 51
13.9570655172
  0
ARC
  5
10F
330
BE
100
AcDbEntity
  8
410307038_LEVER_
  6
Continuous
 62
     7
100
AcDbCircle
 10
388.4576493087
 20
356.3496434694
 30
0.0
 40
0.4999999999999931
100
AcDbArc
 50
353.6608631461
 51
90.0
  0
ARC
  5
110
330
BE
100
AcDbEntity
  8
410307038_LEVER_
  6
Continuous
 62
     7
100
AcDbCircle
 10
376.6647598306
 20
356.3496434694
 30
0.0
 40
0.4999999999999935
100
AcDbArc
 50
90.0
 51
186.3391368539
  0
LINE
  5
111
330
BE
100
AcDbEntity
  8
410307038_LEVER_
  6
Continuous
 62
     7
100
AcDbLine
 10
387.9112045697
 20
356.8496434694
 30
0.0
 11
387.9112045697
 21
365.0676840717
 31
0.0
  0
LINE
  5
112
330
BE
100
AcDbEntity
  8
410307038_LEVER_
  6
Continuous
 62
     7
100
AcDbLine
 10
377.2112045697
 20
365.0496434694
 30
0.0
 11
377.2112045697
 21
356.8496434694
 31
0.0
  0
LINE
  5
114
330
BE
100
AcDbEntity
  8
410006038_DECORA
  6
Continuous
 62
     7
100
AcDbLine
 10
397.0612045697
 20
368.8427535019
 30
0.0
 11
397.0612045697
 21
387.5565334369
 31
0.0
  0
ARC
  5
115
330
BE
100
AcDbEntity
  8
410006038_DECORA
  6
Continuous
 62
     7
100
AcDbCircle
 10
392.6612045697
 20
368.1551068686
 30
0.0
 40
0.5000000000000004
100
AcDbArc
 50
180.0
 51
263.2851563915
  0
ARC
  5
116
330
BE
100
AcDbEntity
  8
410006038_DECORA
  6
Continuous
 62
     7
100
AcDbCircle
 10
392.6612045697
 20
388.2441800702
 30
0.0
 40
0.5000000000000002
100
AcDbArc
 50
96.7148436085
 51
180.0
  0
ARC
  5
117
330
BE
100
AcDbEntity
  8
410006038_DECORA
  6
Continuous
 62
     7
100
AcDbCircle
 10
391.5386954068
 20
358.6209587903
 30
0.0
 40
9.100000333333364
100
AcDbArc
 50
63.7226300101
 51
83.2851563915
  0
ARC
  5
118
330
BE
100
AcDbEntity
  8
410006038_DECORA
  6
Continuous
 62
     7
100
AcDbCircle
 10
391.5386954068
 20
397.7783281486
 30
0.0
 40
9.100000333333364
100
AcDbArc
 50
276.7148436085
 51
296.2773699899
  0
ARC
  5
119
330
BE
100
AcDbEntity
  8
410006038_DECORA
  6
Continuous
 62
     7
100
AcDbCircle
 10
395.8773228663
 20
367.408240412
 30
0.0
 40
0.7000000000000013
100
AcDbArc
 50
243.7226300103
 51
341.1008225568
  0
ARC
  5
11A
330
BE
100
AcDbEntity
  8
410006038_DECORA
  6
Continuous
 62
     7
100
AcDbCircle
 10
395.8773228663
 20
388.9910465268
 30
0.0
 40
0.7000000000000041
100
AcDbArc
 50
18.8991774432
 51
116.2773699897
  0
ARC
  5
11B
330
BE
100
AcDbEntity
  8
410006038_DECORA
  6
Continuous
 62
     7
100
AcDbCircle
 10
364.3725255669
 20
378.1942381461
 30
0.0
 40
34.00000000000158
100
AcDbArc
 50
341.1008225568
 51
344.0353836123
  0
ARC
  5
11C
330
BE
100
AcDbEntity
  8
410006038_DECORA
  6
Continuous
 62
     7
100
AcDbCircle
 10
364.3725255669
 20
378.2050487928
 30
0.0
 40
34.00000000000158
100
AcDbArc
 50
15.9646163877
 51
18.8991774432
  0
LINE
  5
11D
330
BE
100
AcDbEntity
  8
12080006_MP_HE_P
  6
Continuous
 62
     7
100
AcDbLine
 10
397.0612045697
 20
369.2496434694
 30
0.0
 11
397.202310135
 21
369.2496434694
 31
0.0
  0
LINE
  5
11E
330
BE
100
AcDbEntity
  8
12080006_MP_HE_P
  6
Continuous
 62
     7
100
AcDbLine
 10
397.202310135
 20
387.1496434694
 30
0.0
 11
397.0612045697
 21
387.1496434694
 31
0.0
  0
ARC
  5
11F
330
BE
100
AcDbEntity
  8
12080006_MP_HE_P
  6
Continuous
 62
     7
100
AcDbCircle
 10
380.0612045697
 20
378.1996434694
 30
0.0
 40
19.5
100
AcDbArc
 50
333.2228950132
 51
26.7771049868
  0
ARC
  5
120
330
BE
100
AcDbEntity
  8
12080006_MP_HE_P
  6
Continuous
 62
     7
100
AcDbCircle
 10
397.202310135
 20
369.5496434694
 30
0.0
 40
0.2999999999999999
100
AcDbArc
 50
270.0
 51
333.2228950132
  0
ARC
  5
121
330
BE
100
AcDbEntity
  8
12080006_MP_HE_P
  6
Continuous
 62
     7
100
AcDbCircle
 10
397.202310135
 20
386.8496434694
 30
0.0
 40
0.2999999999999987
100
AcDbArc
 50
26.7771049868
 51
90.0
  0
LINE
  5
122
330
BE
100
AcDbEntity
  8
410375040_ESCUTC
  6
Continuous
 62
     7
100
AcDbLine
 10
275.1029238193
 20
378.1996434701
 30
0.0
 11
275.1029238193
 21
305.9996434621
 31
0.0
  0
LINE
  5
123
330
BE
100
AcDbEntity
  8
410375040_ESCUTC
  6
Continuous
 62
     7
100
AcDbLine
 10
275.1029238193
 20
450.3996434767
 30
0.0
 11
275.1029238193
 21
378.1996434701
 31
0.0
  0
SPLINE
  5
124
330
BE
100
AcDbEntity
  8
410375040_ESCUTC
  6
Continuous
 62
     7
100
AcDbSpline
210
0.0
220
0.0
230
1.0
 70
     8
 71
     3
 72
     8
 73
     4
 74
     0
 42
0.0000000000740208
 43
0.0000000001
 40
0.0
 40
0.0
 40
0.0
 40
0.0
 40
0.0572340416018766
 40
0.0572340416018766
 40
0.0572340416018766
 40
0.0572340416018766
 10
280.4059576236054
 20
378.1996434667797
 30
0.0
 10
280.4059576209815
 20
380.7894696587745
 30
0.0
 10
280.4018096000787
 20
383.3668259534765
 30
0.0
 10
280.3935696996039
 20
385.9317828659197
 30
0.0
  0
SPLINE
  5
125
330
BE
100
AcDbEntity
  8
410375040_ESCUTC
  6
Continuous
 62
     7
100
AcDbSpline
210
0.0
220
0.0
230
1.0
 70
     8
 71
     3
 72
    38
 73
    34
 74
     0
 42
0.0000000001533318
 43
0.0000000001
 40
0.0572340416018766
 40
0.0572340416018766
 40
0.0572340416018766
 40
0.0572340416018766
 40
0.2500000000000019
 40
0.2500000000000019
 40
0.3125000000000023
 40
0.3125000000000023
 40
0.3437500000000027
 40
0.3437500000000027
 40
0.3593750000000028
 40
0.3593750000000028
 40
0.3750000000000029
 40
0.3750000000000029
 40
0.4062500000000031
 40
0.4062500000000031
 40
0.4218750000000031
 40
0.4218750000000031
 40
0.4375000000000031
 40
0.4375000000000031
 40
0.5000000000000031
 40
0.5000000000000031
 40
0.6250000000000033
 40
0.6250000000000033
 40
0.6406250000000033
 40
0.6406250000000033
 40
0.6484375000000031
 40
0.6484375000000031
 40
0.656250000000003
 40
0.656250000000003
 40
0.6875000000000027
 40
0.6875000000000027
 40
0.7500000000000021
 40
0.7500000000000021
 40
1.0
 40
1.0
 40
1.0
 40
1.0
 10
280.3935696996039
 20
385.9317828659197
 30
0.0
 10
280.3658174691538
 20
394.570634214499
 30
0.0
 10
280.2916484920419
 20
403.0688316227718
 30
0.0
 10
280.1348058010124
 20
414.1396870076674
 30
0.0
 10
280.0916750207418
 20
416.8369251124323
 30
0.0
 10
280.0199512178535
 20
420.8558967549935
 30
0.0
 10
279.9949331806104
 20
422.1876751091525
 30
0.0
 10
279.9557612137899
 20
424.173530989454
 30
0.0
 10
279.9424271055262
 20
424.8336378241
 30
0.0
 10
279.9152277216986
 20
426.1492214827398
 30
0.0
 10
279.8981469864921
 20
426.8176817479632
 30
0.0
 10
279.8717001738432
 20
428.71249550973
 30
0.0
 10
279.8954776765673
 20
429.7823060960826
 30
0.0
 10
279.9860467023745
 20
430.7877067881658
 30
0.0
 10
280.0256358990788
 20
431.0313163778611
 30
0.0
 10
280.1194557389118
 20
431.301704632221
 30
0.0
 10
280.1656801229611
 20
431.4357530699041
 30
0.0
 10
280.3885798310751
 20
432.1614331629769
 30
0.0
 10
280.5458857852968
 20
432.8552149435475
 30
0.0
 10
280.9524356584948
 20
435.2650614397863
 30
0.0
 10
281.1366903410111
 20
437.3053788968859
 30
0.0
 10
281.2427376917618
 20
440.1026874356072
 30
0.0
 10
281.2534406548755
 20
440.4166893706433
 30
0.0
 10
281.266228622994
 20
440.9110875391605
 30
0.0
 10
281.2701317063407
 20
441.0776496352613
 30
0.0
 10
281.2828945866761
 20
441.3498433397097
 30
0.0
 10
281.2919744157135
 20
441.4530047472525
 30
0.0
 10
281.3423926051364
 20
441.9006295586253
 30
0.0
 10
281.3834329223959
 20
442.2149993233257
 30
0.0
 10
281.4974910508344
 20
443.1535368616106
 30
0.0
 10
281.5663150186564
 20
443.7196543100022
 30
0.0
 10
281.8720868959194
 20
446.2340004160304
 30
0.0
 10
281.9942174411411
 20
447.2424339617183
 30
0.0
 10
281.9941651429089
 20
447.2431275250426
 30
0.0
  0
SPLINE
  5
126
330
BE
100
AcDbEntity
  8
410375040_ESCUTC
  6
Continuous
 62
     7
100
AcDbSpline
210
0.0
220
0.0
230
1.0
 70
     8
 71
     3
 72
    36
 73
    32
 74
     0
 42
0.0000000001444694
 43
0.0000000001
 40
0.0
 40
0.0
 40
0.0
 40
0.0
 40
0.2500000000000002
 40
0.2500000000000002
 40
0.3125000000000002
 40
0.3125000000000002
 40
0.3437500000000002
 40
0.3437500000000002
 40
0.3593750000000001
 40
0.3593750000000001
 40
0.3750000000000001
 40
0.3750000000000001
 40
0.4999999999999998
 40
0.4999999999999998
 40
0.5624999999999998
 40
0.5624999999999998
 40
0.5781249999999999
 40
0.5781249999999999
 40
0.5937500000000001
 40
0.5937500000000001
 40
0.6249999999999999
 40
0.6249999999999999
 40
0.6406249999999998
 40
0.6406249999999998
 40
0.6562499999999997
 40
0.6562499999999997
 40
0.6874999999999996
 40
0.6874999999999996
 40
0.7499999999999996
 40
0.7499999999999996
 40
1.0
 40
1.0
 40
1.0
 40
1.0
 10
281.9941651426079
 20
309.156159413721
 30
0.0
 10
281.9942194130566
 20
309.1568237200692
 30
0.0
 10
281.8751211747502
 20
310.1404673681422
 30
0.0
 10
281.5792074250908
 20
312.573593480697
 30
0.0
 10
281.5126412144368
 20
313.1211699968632
 30
0.0
 10
281.4015827902789
 20
314.0349157716497
 30
0.0
 10
281.3624807079736
 20
314.3521655739189
 30
0.0
 10
281.3015022707136
 20
314.8577392386749
 30
0.0
 10
281.2805616186855
 20
315.0311830617615
 30
0.0
 10
281.2608772671436
 20
315.635621342827
 30
0.0
 10
281.2534412804993
 20
315.9725576046814
 30
0.0
 10
281.1570367191522
 20
318.7603708964641
 30
0.0
 10
280.9840134809531
 20
320.8371818402804
 30
0.0
 10
280.5943613723576
 20
323.2993158315602
 30
0.0
 10
280.4433406972731
 20
324.0106322484349
 30
0.0
 10
280.2282494400864
 20
324.7629628940786
 30
0.0
 10
280.1839144751226
 20
324.9065588372567
 30
0.0
 10
280.0925839880561
 20
325.1799642330593
 30
0.0
 10
280.0437991139589
 20
325.2880091833144
 30
0.0
 10
279.9283327824706
 20
326.0157272340599
 30
0.0
 10
279.8843938325905
 20
326.9383600211781
 30
0.0
 10
279.8830642162877
 20
328.6914531180536
 30
0.0
 10
279.8962367320524
 20
329.3545117309646
 30
0.0
 10
279.9244493477003
 20
330.6913950339325
 30
0.0
 10
279.9382740274461
 20
331.361918699849
 30
0.0
 10
279.9788985961493
 20
333.3797295892168
 30
0.0
 10
280.0048491972788
 20
334.7332549655781
 30
0.0
 10
280.079260420714
 20
338.8187989118853
 30
0.0
 10
280.1241808606678
 20
341.5714462887311
 30
0.0
 10
280.3237841120906
 20
355.383386604588
 30
0.0
 10
280.4059576352976
 20
366.6702999046465
 30
0.0
 10
280.4059576236054
 20
378.1996434667797
 30
0.0
  0
ARC
  5
127
330
BE
100
AcDbEntity
  8
410375040_ESCUTC
  6
Continuous
 62
     7
100
AcDbCircle
 10
283.9880314528
 20
308.9996434402
 30
0.0
 40
2.000000028218742
100
AcDbArc
 50
92.0580747475
 51
175.5115582975
  0
LINE
  5
128
330
BE
100
AcDbEntity
  8
410375040_ESCUTC
  6
Continuous
 62
     7
100
AcDbLine
 10
279.4345247884
 20
305.9996434621
 30
0.0
 11
275.1029238193
 21
305.9996434621
 31
0.0
  0
SPLINE
  5
129
330
BE
100
AcDbEntity
  8
410375040_ESCUTC
  6
Continuous
 62
     7
100
AcDbSpline
210
0.0
220
0.0
230
1.0
 70
     8
 71
     3
 72
     8
 73
     4
 74
     0
 42
0.0000000151113239
 43
0.0000000001
 40
0.0
 40
0.0
 40
0.0
 40
0.0
 40
0.0015111323930702
 40
0.0015111323930702
 40
0.0015111323930702
 40
0.0015111323930702
 10
281.9266675802148
 20
448.0976947529966
 30
0.0
 10
281.9266679043496
 20
448.0976905351509
 30
0.0
 10
281.9266636705804
 20
448.0976485270071
 30
0.0
 10
281.926654878854
 20
448.0975687374114
 30
0.0
  0
LINE
  5
12A
330
BE
100
AcDbEntity
  8
410375040_ESCUTC
  6
Continuous
 62
     7
100
AcDbLine
 10
279.4345247886
 20
450.3996434767
 30
0.0
 11
275.1029238193
 21
450.3996434767
 31
0.0
  0
ARC
  5
12B
330
BE
100
AcDbEntity
  8
410375040_ESCUTC
  6
Continuous
 62
     7
100
AcDbCircle
 10
279.4345247893
 20
447.8996434811
 30
0.0
 40
2.499999999289755
100
AcDbArc
 50
4.5437619734
 51
90.0000000161
  0
ARC
  5
12C
330
BE
100
AcDbEntity
  8
410375040_ESCUTC
  6
Continuous
 62
     7
100
AcDbCircle
 10
279.4345247718
 20
308.4996434737
 30
0.0
 40
2.500000011593895
100
AcDbArc
 50
270.0000003801
 51
355.4562376951
  0
ARC
  5
12D
330
BE
100
AcDbEntity
  8
410375040_ESCUTC
  6
Continuous
 62
     7
100
AcDbCircle
 10
283.988031432
 20
447.3996434768
 30
0.0
 40
2.000000005518552
100
AcDbArc
 50
184.4884411283
 51
267.9419235136
  0
ARC
  5
12E
330
BE
100
AcDbEntity
  8
410375040_ESCUTC
  6
Continuous
 62
     7
100
AcDbCircle
 10
283.8264252445
 20
442.9025462444
 30
0.0
 40
2.500000003052833
100
AcDbArc
 50
4.2033815337
 51
87.9419236155
  0
ARC
  5
12F
330
BE
100
AcDbEntity
  8
410375040_ESCUTC
  6
Continuous
 62
     7
100
AcDbCircle
 10
283.826425458
 20
313.4967406661
 30
0.0
 40
2.499999967001632
100
AcDbArc
 50
272.0580733674
 51
355.7966185826
  0
ARC
  5
130
330
BE
100
AcDbEntity
  8
410375040_ESCUTC
  6
Continuous
 62
     7
100
AcDbCircle
 10
-9968.5018771576
 20
378.1996177417
 30
0.0
 40
10255.99742801355
100
AcDbArc
 50
359.7300476185
 51
0.2699526711
  0
ARC
  5
131
330
BE
100
AcDbEntity
  8
410375040_ESCUTC
  6
Continuous
 62
     7
100
AcDbCircle
 10
-9907.381067919
 20
378.1996178581
 30
0.0
 40
10194.83255478602
100
AcDbArc
 50
359.7303946568
 51
359.73039731
  0
LINE
  5
132
330
BE
100
AcDbEntity
  8
410375040_ESCUTC
  6
Continuous
 62
     7
100
AcDbLine
 10
281.976424068
 20
447.2419069557
 30
0.0
 11
281.9174740134
 21
448.097063215
 31
0.0
  0
LINE
  5
133
330
BE
100
AcDbEntity
  8
410375040_ESCUTC
  6
Continuous
 62
     7
100
AcDbLine
 10
281.9174745012
 20
308.3022308041
 30
0.0
 11
281.9764245774
 21
309.1573873766
 31
0.0
  0
LINE
  5
134
330
BE
100
AcDbEntity
  8
410375040_ESCUTC
  6
Continuous
 62
     7
100
AcDbLine
 10
287.3391138913
 20
426.4882982941
 30
0.0
 11
286.310427712
 21
443.0852119089
 31
0.0
  0
LINE
  5
135
330
BE
100
AcDbEntity
  8
410375040_ESCUTC
  6
Continuous
 62
     7
100
AcDbLine
 10
286.3104282401
 20
313.3140806856
 30
0.0
 11
287.3375826938
 21
329.8862794151
 31
0.0
  0
LINE
  5
136
330
BE
100
AcDbEntity
  8
410375040_ESCUTC
  6
Continuous
 62
     7
100
AcDbLine
 10
281.9254904021
 20
448.0937308037
 30
0.0
 11
281.9204667815
 21
448.1416670104
 31
0.0
  0
ARC
  5
137
330
BE
100
AcDbEntity
  8
410375040_ESCUTC
  6
Continuous
 62
     7
100
AcDbCircle
 10
286.0857668577
 20
443.0849481468
 30
0.0
 40
0.2333473226618601
100
AcDbArc
 50
359.2330449191
 51
8.7217299992
  0
LINE
  5
139
330
BE
100
AcDbEntity
  8
410228031_BEARIN
  6
Continuous
 62
     7
100
AcDbLine
 10
304.7029244012
 20
346.6496434694
 30
0.0
 11
304.7029244012
 21
409.7496434694
 31
0.0
  0
LINE
  5
13A
330
BE
100
AcDbEntity
  8
410228031_BEARIN
  6
Continuous
 62
     7
100
AcDbLine
 10
304.1029244012
 20
346.6496434694
 30
0.0
 11
304.7029244012
 21
346.6496434694
 31
0.0
  0
LINE
  5
13B
330
BE
100
AcDbEntity
  8
410228031_BEARIN
  6
Continuous
 62
     7
100
AcDbLine
 10
304.7029244012
 20
409.7496434694
 30
0.0
 11
304.1029244012
 21
409.7496434694
 31
0.0
  0
LINE
  5
13D
330
BE
100
AcDbEntity
  8
DV2_Standard
  6
CENTER2
 62
     7
100
AcDbLine
 10
295.1029233723
 20
378.1996434701
 30
0.0
 11
255.1029242664
 21
378.1996434701
 31
0.0
  0
LINE
  5
13E
330
BE
100
AcDbEntity
  8
DV2_Standard
  6
CENTER2
 62
     7
100
AcDbLine
 10
275.1029238193
 20
398.1996430231
 30
0.0
 11
275.1029238193
 21
358.1996439171
 31
0.0
  0
ENDBLK
  5
140
330
BE
100
AcDbEntity
  8
0
100
AcDbBlockEnd
  0
BLOCK
  5
1A2
330
141
100
AcDbEntity
  8
0
100
AcDbBlockBegin
  2
SE2
 70
     0
 10
0.0
 20
0.0
 30
0.0
  3
SE2
  1

  0
LINE
  5
143
330
141
100
AcDbEntity
  8
410064038_SLEEVE
  6
Continuous
 62
     7
100
AcDbLine
 10
133.4727843911
 20
201.8082801685
 30
0.0
 11
133.4727843911
 21
218.481352459
 31
0.0
  0
LINE
  5
144
330
141
100
AcDbEntity
  8
410064038_SLEEVE
  6
Continuous
 62
     7
100
AcDbLine
 10
69.9727843911
 20
218.4813975407
 30
0.0
 11
69.9727843911
 21
201.8082801685
 31
0.0
  0
LINE
  5
145
330
141
100
AcDbEntity
  8
410306038_DIVERT
  6
Continuous
 62
     7
100
AcDbLine
 10
132.8200451655
 20
200.8082801685
 30
0.0
 11
70.6255236166
 21
200.8082801685
 31
0.0
  0
LINE
  5
146
330
141
100
AcDbEntity
  8
410306038_DIVERT
  6
Continuous
 62
     7
100
AcDbLine
 10
70.4771668642
 20
182.8082801685
 30
0.0
 11
132.968401918
 21
182.8082801685
 31
0.0
  0
LINE
  5
147
330
141
100
AcDbEntity
  8
410306038_DIVERT
  6
Continuous
 62
     7
100
AcDbLine
 10
133.4683828795
 20
183.3126434362
 30
0.0
 11
133.3200261271
 21
200.3126434362
 31
0.0
  0
LINE
  5
148
330
141
100
AcDbEntity
  8
410306038_DIVERT
  6
Continuous
 62
     7
100
AcDbLine
 10
70.1255426551
 20
200.3126434362
 30
0.0
 11
69.9771859026
 21
183.3126434362
 31
0.0
  0
LINE
  5
149
330
141
100
AcDbEntity
  8
410306038_DIVERT
  6
Continuous
 62
     7
100
AcDbLine
 10
131.7210542486
 20
201.0065348614
 30
0.0
 11
131.719293644
 21
201.2082801685
 31
0.0
  0
LINE
  5
14A
330
141
100
AcDbEntity
  8
410306038_DIVERT
  6
Continuous
 62
     7
100
AcDbLine
 10
71.7262751382
 20
201.2082801685
 30
0.0
 11
71.7245145336
 21
201.0065348614
 31
0.0
  0
ARC
  5
14B
330
141
100
AcDbEntity
  8
410306038_DIVERT
  6
Continuous
 62
     7
100
AcDbCircle
 10
131.9210466332
 20
201.0082801685
 30
0.0
 40
0.1999999999999988
100
AcDbArc
 50
180.5
 51
270.0
  0
ARC
  5
14C
330
141
100
AcDbEntity
  8
410306038_DIVERT
  6
Continuous
 62
     7
100
AcDbCircle
 10
71.524522149
 20
201.0082801685
 30
0.0
 40
0.2000000000000034
100
AcDbArc
 50
270.0
 51
359.5
  0
ARC
  5
14D
330
141
100
AcDbEntity
  8
410306038_DIVERT
  6
Continuous
 62
     7
100
AcDbCircle
 10
132.8200451655
 20
200.3082801685
 30
0.0
 40
0.500000000000005
100
AcDbArc
 50
0.5
 51
90.0
  0
ARC
  5
14E
330
141
100
AcDbEntity
  8
410306038_DIVERT
  6
Continuous
 62
     7
100
AcDbCircle
 10
70.6255236166
 20
200.3082801685
 30
0.0
 40
0.5000000000000004
100
AcDbArc
 50
90.0
 51
179.5
  0
ARC
  5
14F
330
141
100
AcDbEntity
  8
410306038_DIVERT
  6
Continuous
 62
     7
100
AcDbCircle
 10
132.968401918
 20
183.3082801685
 30
0.0
 40
0.5000000000000004
100
AcDbArc
 50
270.0
 51
0.5
  0
ARC
  5
150
330
141
100
AcDbEntity
  8
410306038_DIVERT
  6
Continuous
 62
     7
100
AcDbCircle
 10
70.4771668642
 20
183.3082801685
 30
0.0
 40
0.5000000000000003
100
AcDbArc
 50
179.5
 51
270.0
  0
LINE
  5
151
330
141
100
AcDbEntity
  8
410316038_HANDLE
  6
Continuous
 62
     7
100
AcDbLine
 10
88.9173511734
 20
142.6
 30
0.0
 11
114.5282176088
 21
142.6
 31
0.0
  0
LINE
  5
152
330
141
100
AcDbEntity
  8
410316038_HANDLE
  6
Continuous
 62
     7
100
AcDbLine
 10
133.2727843911
 20
182.2082801685
 30
0.0
 11
70.1727843911
 21
182.2082801685
 31
0.0
  0
LINE
  5
153
330
141
100
AcDbEntity
  8
410316038_HANDLE
  6
Continuous
 62
     7
100
AcDbLine
 10
69.9727843911
 20
182.0082801685
 30
0.0
 11
69.9727843911
 21
158.0245503023
 31
0.0
  0
LINE
  5
154
330
141
100
AcDbEntity
  8
410316038_HANDLE
  6
Continuous
 62
     7
100
AcDbLine
 10
133.4727843911
 20
158.0245503023
 30
0.0
 11
133.4727843911
 21
182.0082801685
 31
0.0
  0
ARC
  5
155
330
141
100
AcDbEntity
  8
410316038_HANDLE
  6
Continuous
 62
     7
100
AcDbCircle
 10
69.6315993478
 20
136.1494765288
 30
0.0
 40
20.00000000000007
100
AcDbArc
 50
19.8190009703
 51
83.8911589414
  0
ARC
  5
156
330
141
100
AcDbEntity
  8
410316038_HANDLE
  6
Continuous
 62
     7
100
AcDbCircle
 10
133.8139694343
 20
136.1494765288
 30
0.0
 40
20.0
100
AcDbArc
 50
96.1088410587
 51
160.1809990297
  0
ARC
  5
157
330
141
100
AcDbEntity
  8
410316038_HANDLE
  6
Continuous
 62
     7
100
AcDbCircle
 10
114.5282176088
 20
143.1
 30
0.0
 40
0.5000000000000004
100
AcDbArc
 50
270.0
 51
340.1809990298
  0
ARC
  5
158
330
141
100
AcDbEntity
  8
410316038_HANDLE
  6
Continuous
 62
     7
100
AcDbCircle
 10
88.9173511734
 20
143.1
 30
0.0
 40
0.4999999999999972
100
AcDbArc
 50
199.8190009702
 51
270.0
  0
ARC
  5
159
330
141
100
AcDbEntity
  8
410316038_HANDLE
  6
Continuous
 62
     7
100
AcDbCircle
 10
131.4727843911
 20
158.0245503023
 30
0.0
 40
1.999999999999929
100
AcDbArc
 50
276.1088410587
 51
0.0
  0
ARC
  5
15A
330
141
100
AcDbEntity
  8
410316038_HANDLE
  6
Continuous
 62
     7
100
AcDbCircle
 10
71.9727843911
 20
158.0245503023
 30
0.0
 40
1.999999999999998
100
AcDbArc
 50
180.0
 51
263.8911589413
  0
ARC
  5
15B
330
141
100
AcDbEntity
  8
410316038_HANDLE
  6
Continuous
 62
     7
100
AcDbCircle
 10
133.2727843911
 20
182.0082801685
 30
0.0
 40
0.1999999999999988
100
AcDbArc
 50
0.0
 51
90.0
  0
ARC
  5
15C
330
141
100
AcDbEntity
  8
410316038_HANDLE
  6
Continuous
 62
     7
100
AcDbCircle
 10
70.1727843911
 20
182.0082801685
 30
0.0
 40
0.1999999999999919
100
AcDbArc
 50
90.0
 51
180.0
  0
LINE
  5
15D
330
141
100
AcDbEntity
  8
410316038_HANDLE
  6
Continuous
 62
     7
100
AcDbLine
 10
72.5227843911
 20
182.8082801685
 30
0.0
 11
72.5227843911
 21
182.2082801685
 31
0.0
  0
LINE
  5
15E
330
141
100
AcDbEntity
  8
410316038_HANDLE
  6
Continuous
 62
     7
100
AcDbLine
 10
130.9227843911
 20
182.2082801685
 30
0.0
 11
130.9227843911
 21
182.8082801685
 31
0.0
  0
SPLINE
  5
15F
330
141
100
AcDbEntity
  8
410310038_RING_K
  6
Continuous
 62
     7
100
AcDbSpline
210
0.0
220
0.0
230
1.0
 70
     8
 71
     3
 72
     8
 73
     4
 74
     0
 42
0.0000000014411616
 43
0.0000000001
 40
0.0
 40
0.0
 40
0.0
 40
0.0
 40
1.0
 40
1.0
 40
1.0
 40
1.0
 10
88.77106795128456
 20
141.9061045258827
 30
0.0
 10
89.57706577180193
 20
139.6085818574974
 30
0.0
 10
90.1376979128574
 20
137.3720314171286
 30
0.0
 10
90.45296437445099
 20
135.1964532047762
 30
0.0
  0
SPLINE
  5
160
330
141
100
AcDbEntity
  8
410310038_RING_K
  6
Continuous
 62
     7
100
AcDbSpline
210
0.0
220
0.0
230
1.0
 70
     8
 71
     3
 72
     8
 73
     4
 74
     0
 42
0.0000000014101317
 43
0.0000000001
 40
0.0158691824085665
 40
0.0158691824085665
 40
0.0158691824085665
 40
0.0158691824085665
 40
1.0
 40
1.0
 40
1.0
 40
1.0
 10
112.9859183473184
 20
135.1807881705027
 30
0.0
 10
113.4718259223869
 20
138.0069063741892
 30
0.0
 10
114.0343211605219
 20
140.2570593659804
 30
0.0
 10
114.6734040617235
 20
141.9312471458763
 30
0.0
  0
ARC
  5
161
330
141
100
AcDbEntity
  8
410310038_RING_K
  6
Continuous
 62
     7
100
AcDbCircle
 10
98.7831235276
 20
130.4219851826
 30
0.0
 40
9.499999999999988
100
AcDbArc
 50
151.8850039707
 51
164.2095579456
  0
ARC
  5
162
330
141
100
AcDbEntity
  8
410310038_RING_K
  6
Continuous
 62
     7
100
AcDbCircle
 10
104.6624452545
 20
130.4219851826
 30
0.0
 40
9.499999999999988
100
AcDbArc
 50
15.7904420544
 51
28.1149960293
  0
ARC
  5
163
330
141
100
AcDbEntity
  8
410310038_RING_K
  6
Continuous
 62
     7
100
AcDbCircle
 10
90.1227529161
 20
132.8710627376
 30
0.0
 40
0.4999999999999897
100
AcDbArc
 50
164.2095579456
 51
219.8055710923
  0
ARC
  5
164
330
141
100
AcDbEntity
  8
410310038_RING_K
  6
Continuous
 62
     7
100
AcDbCircle
 10
113.3228158661
 20
132.8710627376
 30
0.0
 40
0.5000000000000157
100
AcDbArc
 50
320.1944289077
 51
15.7904420544
  0
LINE
  5
165
330
141
100
AcDbEntity
  8
410310038_RING_K
  6
Continuous
 62
     7
100
AcDbLine
 10
89.7386422763
 20
132.5509705378
 30
0.0
 11
90.1728612243
 21
132.0299078002
 31
0.0
  0
LINE
  5
166
330
141
100
AcDbEntity
  8
410310038_RING_K
  6
Continuous
 62
     7
100
AcDbLine
 10
113.2727075579
 20
132.0299078002
 30
0.0
 11
113.7069265059
 21
132.5509705378
 31
0.0
  0
ARC
  5
167
330
141
100
AcDbEntity
  8
410310038_RING_K
  6
Continuous
 62
     7
100
AcDbCircle
 10
89.9630879494
 20
135.1344126248
 30
0.0
 40
0.499999999999997
100
AcDbArc
 50
331.8850039707
 51
8.9249464668
  0
ARC
  5
168
330
141
100
AcDbEntity
  8
410310038_RING_K
  6
Continuous
 62
     7
100
AcDbCircle
 10
113.4824808328
 20
135.1344126248
 30
0.0
 40
0.5000000000000151
100
AcDbArc
 50
171.0750535332
 51
208.1149960293
  0
ARC
  5
169
330
141
100
AcDbEntity
  8
410310038_RING_K
  6
Continuous
 62
     7
100
AcDbCircle
 10
89.2685439538
 20
142.1
 30
0.0
 40
0.5000000000000004
100
AcDbArc
 50
90.0
 51
198.8443742512
  0
ARC
  5
16A
330
141
100
AcDbEntity
  8
410310038_RING_K
  6
Continuous
 62
     7
100
AcDbCircle
 10
114.1770248283
 20
142.1
 30
0.0
 40
0.4999999999999963
100
AcDbArc
 50
341.1556257488
 51
90.0
  0
ARC
  5
16B
330
141
100
AcDbEntity
  8
410310038_RING_K
  6
Continuous
 62
     7
100
AcDbCircle
 10
112.8885969181
 20
132.35
 30
0.0
 40
0.5000000000000004
100
AcDbArc
 50
270.0
 51
320.1944289077
  0
ARC
  5
16C
330
141
100
AcDbEntity
  8
410310038_RING_K
  6
Continuous
 62
     7
100
AcDbCircle
 10
90.5569718641
 20
132.35
 30
0.0
 40
0.5000000000000222
100
AcDbArc
 50
219.8055710923
 51
270.0
  0
LINE
  5
16D
330
141
100
AcDbEntity
  8
410005038_HANDLE
  6
Continuous
 62
     7
100
AcDbLine
 10
91.4449478272
 20
113.75
 30
0.0
 11
112.000620955
 21
113.75
 31
0.0
  0
LINE
  5
16E
330
141
100
AcDbEntity
  8
410005038_HANDLE
  6
Continuous
 62
     7
100
AcDbLine
 10
112.9301096775
 20
131.85
 30
0.0
 11
90.5154591046
 21
131.85
 31
0.0
  0
ARC
  5
16F
330
141
100
AcDbEntity
  8
410005038_HANDLE
  6
Continuous
 62
     7
100
AcDbCircle
 10
101.7227843911
 20
123.383924434
 30
0.0
 40
14.25
100
AcDbArc
 50
144.5950951231
 51
221.627527587
  0
ARC
  5
170
330
141
100
AcDbEntity
  8
410005038_HANDLE
  6
Continuous
 62
     7
100
AcDbCircle
 10
101.7227843911
 20
123.383924434
 30
0.0
 40
14.25
100
AcDbArc
 50
318.372472413
 51
35.4049048769
  0
ARC
  5
171
330
141
100
AcDbEntity
  8
410005038_HANDLE
  6
Continuous
 62
     7
100
AcDbCircle
 10
112.000620955
 20
114.25
 30
0.0
 40
0.5000000000000004
100
AcDbArc
 50
270.0
 51
318.372472413
  0
ARC
  5
172
330
141
100
AcDbEntity
  8
410005038_HANDLE
  6
Continuous
 62
     7
100
AcDbCircle
 10
91.4449478272
 20
114.25
 30
0.0
 40
0.4999999999999992
100
AcDbArc
 50
221.627527587
 51
270.0
  0
ARC
  5
173
330
141
100
AcDbEntity
  8
410005038_HANDLE
  6
Continuous
 62
     7
100
AcDbCircle
 10
90.5154591046
 20
131.35
 30
0.0
 40
0.5000000000000004
100
AcDbArc
 50
90.0
 51
144.5950951231
  0
ARC
  5
174
330
141
100
AcDbEntity
  8
410005038_HANDLE
  6
Continuous
 62
     7
100
AcDbCircle
 10
112.9301096775
 20
131.35
 30
0.0
 40
0.4999999999999993
100
AcDbArc
 50
35.4049048769
 51
90.0
  0
LINE
  5
175
330
141
100
AcDbEntity
  8
410006038_DECORA
  6
Continuous
 62
     7
100
AcDbLine
 10
111.0796743586
 20
108.85
 30
0.0
 11
92.3658944236
 21
108.85
 31
0.0
  0
ARC
  5
176
330
141
100
AcDbEntity
  8
410006038_DECORA
  6
Continuous
 62
     7
100
AcDbCircle
 10
91.6782477902
 20
113.25
 30
0.0
 40
0.5000000000000004
100
AcDbArc
 50
90.0
 51
173.2851563915
  0
ARC
  5
177
330
141
100
AcDbEntity
  8
410006038_DECORA
  6
Continuous
 62
     7
100
AcDbCircle
 10
111.7673209919
 20
113.25
 30
0.0
 40
0.5000000000000002
100
AcDbArc
 50
6.7148436085
 51
90.0
  0
ARC
  5
178
330
141
100
AcDbEntity
  8
410006038_DECORA
  6
Continuous
 62
     7
100
AcDbCircle
 10
82.1440997119
 20
114.3725091629
 30
0.0
 40
9.100000333333368
100
AcDbArc
 50
333.7226300101
 51
353.2851563915
  0
ARC
  5
179
330
141
100
AcDbEntity
  8
410006038_DECORA
  6
Continuous
 62
     7
100
AcDbCircle
 10
121.3014690702
 20
114.3725091629
 30
0.0
 40
9.100000333333359
100
AcDbArc
 50
186.7148436085
 51
206.2773699899
  0
ARC
  5
17A
330
141
100
AcDbEntity
  8
410006038_DECORA
  6
Continuous
 62
     7
100
AcDbCircle
 10
90.9313813337
 20
110.0338817033
 30
0.0
 40
0.7000000000000013
100
AcDbArc
 50
153.7226300103
 51
251.1008225568
  0
ARC
  5
17B
330
141
100
AcDbEntity
  8
410006038_DECORA
  6
Continuous
 62
     7
100
AcDbCircle
 10
112.5141874485
 20
110.0338817033
 30
0.0
 40
0.7000000000000045
100
AcDbArc
 50
288.8991774432
 51
26.2773699897
  0
ARC
  5
17C
330
141
100
AcDbEntity
  8
410006038_DECORA
  6
Continuous
 62
     7
100
AcDbCircle
 10
101.7173790677
 20
141.5386790028
 30
0.0
 40
34.00000000000158
100
AcDbArc
 50
251.1008225568
 51
254.0353836123
  0
ARC
  5
17D
330
141
100
AcDbEntity
  8
410006038_DECORA
  6
Continuous
 62
     7
100
AcDbCircle
 10
101.7281897144
 20
141.5386790028
 30
0.0
 40
34.00000000000158
100
AcDbArc
 50
285.9646163877
 51
288.8991774432
  0
LINE
  5
17E
330
141
100
AcDbEntity
  8
12080006_MP_HE_P
  6
Continuous
 62
     7
100
AcDbLine
 10
92.7727843911
 20
108.85
 30
0.0
 11
92.7727843911
 21
108.7088944347
 31
0.0
  0
LINE
  5
17F
330
141
100
AcDbEntity
  8
12080006_MP_HE_P
  6
Continuous
 62
     7
100
AcDbLine
 10
110.6727843911
 20
108.7088944347
 30
0.0
 11
110.6727843911
 21
108.85
 31
0.0
  0
ARC
  5
180
330
141
100
AcDbEntity
  8
12080006_MP_HE_P
  6
Continuous
 62
     7
100
AcDbCircle
 10
101.7227843911
 20
125.85
 30
0.0
 40
19.5
100
AcDbArc
 50
243.2228950132
 51
270.0
  0
ARC
  5
181
330
141
100
AcDbEntity
  8
12080006_MP_HE_P
  6
Continuous
 62
     7
100
AcDbCircle
 10
101.7227843911
 20
125.85
 30
0.0
 40
19.5
100
AcDbArc
 50
270.0
 51
296.7771049868
  0
ARC
  5
182
330
141
100
AcDbEntity
  8
12080006_MP_HE_P
  6
Continuous
 62
     7
100
AcDbCircle
 10
93.0727843911
 20
108.7088944347
 30
0.0
 40
0.2999999999999999
100
AcDbArc
 50
180.0
 51
243.2228950132
  0
ARC
  5
183
330
141
100
AcDbEntity
  8
12080006_MP_HE_P
  6
Continuous
 62
     7
100
AcDbCircle
 10
110.3727843911
 20
108.7088944347
 30
0.0
 40
0.2999999999999987
100
AcDbArc
 50
296.7771049868
 51
0.0
  0
LINE
  5
184
330
141
100
AcDbEntity
  8
410375040_ESCUTC
  6
Continuous
 62
     7
100
AcDbLine
 10
196.5227832659
 20
230.8082807504
 30
0.0
 11
101.7227882661
 21
230.8082807504
 31
0.0
  0
LINE
  5
185
330
141
100
AcDbEntity
  8
410375040_ESCUTC
  6
Continuous
 62
     7
100
AcDbLine
 10
101.7227882661
 20
230.8082807504
 30
0.0
 11
6.9227932659
 21
230.8082807504
 31
0.0
  0
SPLINE
  5
186
330
141
100
AcDbEntity
  8
410375040_ESCUTC
  6
Continuous
 62
     7
100
AcDbSpline
210
0.0
220
0.0
230
1.0
 70
     8
 71
     3
 72
     8
 73
     4
 74
     0
 42
0.0000000214380652
 43
0.0000000001
 40
0.0
 40
0.0
 40
0.0
 40
0.0
 40
0.0021438065199386
 40
0.0021438065199386
 40
0.0021438065199386
 40
0.0021438065199386
 10
10.10963557769498
 20
225.5052469460829
 30
0.0
 10
10.109635577668
 20
225.5052469461812
 30
0.0
 10
10.10974289247486
 20
225.5052527660117
 30
0.0
 10
10.10995749947681
 20
225.5052644026243
 30
0.0
  0
SPLINE
  5
187
330
141
100
AcDbEntity
  8
410375040_ESCUTC
  6
Continuous
 62
     7
100
AcDbSpline
210
0.0
220
0.0
230
1.0
 70
     8
 71
     3
 72
    18
 73
    14
 74
     0
 42
0.0000000003726255
 43
0.0000000001
 40
0.0021438065199386
 40
0.0021438065199386
 40
0.0021438065199386
 40
0.0021438065199386
 40
0.2500000000000031
 40
0.2500000000000031
 40
0.3125000000000039
 40
0.3125000000000039
 40
0.3437500000000044
 40
0.3437500000000044
 40
0.3593750000000046
 40
0.3593750000000046
 40
0.3750000000000048
 40
0.3750000000000048
 40
0.3804995538023029
 40
0.3804995538023029
 40
0.3804995538023029
 40
0.3804995538023029
 10
10.10995749947681
 20
225.5052644026243
 30
0.0
 10
10.13476928827441
 20
225.506609769606
 30
0.0
 10
11.5937374495553
 20
225.5857070647426
 30
0.0
 10
15.17259080124676
 20
225.7763987686759
 30
0.0
 10
15.98415344400195
 20
225.8195295489464
 30
0.0
 10
17.33919567636795
 20
225.8912533518348
 30
0.0
 10
17.81267690541138
 20
225.9162713890779
 30
0.0
 10
18.55558212568616
 20
225.9554433558983
 30
0.0
 10
18.80871480749599
 20
225.9687774641621
 30
0.0
 10
19.32561423563346
 20
225.9959768479897
 30
0.0
 10
19.5597829536774
 20
226.0130575831961
 30
0.0
 10
19.98957300158688
 20
226.0249760283524
 30
0.0
 10
20.1140150526896
 20
226.0267964011662
 30
0.0
 10
20.24987842259075
 20
226.0273605054184
 30
0.0
  0
SPLINE
  5
188
330
141
100
AcDbEntity
  8
410375040_ESCUTC
  6
Continuous
 62
     7
100
AcDbSpline
210
0.0
220
0.0
230
1.0
 70
     8
 71
     3
 72
    16
 73
    12
 74
     0
 42
0.0000000000791424
 43
0.0000000001
 40
0.3804995538023029
 40
0.3804995538023029
 40
0.3804995538023029
 40
0.3804995538023029
 40
0.4062500000000051
 40
0.4062500000000051
 40
0.4218750000000051
 40
0.4218750000000051
 40
0.4375000000000052
 40
0.4375000000000052
 40
0.5000000000000056
 40
0.5000000000000056
 40
0.6107323041832821
 40
0.6107323041832821
 40
0.6107323041832821
 40
0.6107323041832821
 10
20.24987842259075
 20
226.0273605054184
 30
0.0
 10
20.88602864907205
 20
226.0300017990065
 30
0.0
 10
21.7725768787902
 20
226.0051009895422
 30
0.0
 10
23.41311319860233
 20
225.9251578673138
 30
0.0
 10
24.09108792046957
 20
225.8855686706094
 30
0.0
 10
25.48653680718335
 20
225.7917488307765
 30
0.0
 10
26.18456934283298
 20
225.7455244467271
 30
0.0
 10
29.66234863667418
 20
225.5226247386131
 30
0.0
 10
32.42325799769473
 20
225.3653187843915
 30
0.0
 10
39.98104543721265
 20
224.9897050707941
 30
0.0
 10
44.70113794239232
 20
224.8177070418374
 30
0.0
 10
49.30748887005286
 20
224.716040833252
 30
0.0
  0
SPLINE
  5
189
330
141
100
AcDbEntity
  8
410375040_ESCUTC
  6
Continuous
 62
     7
100
AcDbSpline
210
0.0
220
0.0
230
1.0
 70
     8
 71
     3
 72
    18
 73
    14
 74
     0
 42
0.0000000000766198
 43
0.0000000001
 40
0.6107323041832821
 40
0.6107323041832821
 40
0.6107323041832821
 40
0.6107323041832821
 40
0.6250000000000064
 40
0.6250000000000064
 40
0.6406250000000066
 40
0.6406250000000066
 40
0.6484375000000064
 40
0.6484375000000064
 40
0.6562500000000062
 40
0.6562500000000062
 40
0.6875000000000057
 40
0.6875000000000057
 40
0.728239779043937
 40
0.728239779043937
 40
0.728239779043937
 40
0.728239779043937
 10
49.30748887005286
 20
224.716040833252
 30
0.0
 10
49.90101046563141
 20
224.7029412906241
 30
0.0
 10
50.49264372962812
 20
224.6910093931134
 30
0.0
 10
51.72822423786175
 20
224.6684668779265
 30
0.0
 10
52.37303990385929
 20
224.6577639148127
 30
0.0
 10
53.33259409832792
 20
224.6449759466942
 30
0.0
 10
53.65187119332251
 20
224.6410728633475
 30
0.0
 10
54.31050996694658
 20
224.6283099830121
 30
0.0
 10
54.65068530570741
 20
224.6192301539748
 30
0.0
 10
56.37405343078591
 20
224.5688119645518
 30
0.0
 10
57.76725163418076
 20
224.5277716472924
 30
0.0
 10
60.97810770062377
 20
224.4401874396715
 30
0.0
 10
62.80571670944929
 20
224.3936881035743
 30
0.0
 10
64.63938384298898
 20
224.3503802261327
 30
0.0
  0
SPLINE
  5
18A
330
141
100
AcDbEntity
  8
410375040_ESCUTC
  6
Continuous
 62
     7
100
AcDbSpline
210
0.0
220
0.0
230
1.0
 70
     8
 71
     3
 72
    10
 73
     6
 74
     0
 42
0.0000000000732758
 43
0.0000000001
 40
0.728239779043937
 40
0.728239779043937
 40
0.728239779043937
 40
0.728239779043937
 40
0.7500000000000046
 40
0.7500000000000046
 40
1.0
 40
1.0
 40
1.0
 40
1.0
 10
64.63938384298898
 20
224.3503802261327
 30
0.0
 10
65.61879519283148
 20
224.3272483141689
 30
0.0
 10
66.59993487587593
 20
224.3050268991357
 30
0.0
 10
78.86627866976498
 20
224.0391176737689
 30
0.0
 10
90.24629725274983
 20
223.9169871285471
 30
0.0
 10
101.7226127371978
 20
223.9170394267794
 30
0.0
  0
SPLINE
  5
18B
330
141
100
AcDbEntity
  8
410375040_ESCUTC
  6
Continuous
 62
     7
100
AcDbSpline
210
0.0
220
0.0
230
1.0
 70
     8
 71
     3
 72
     8
 73
     4
 74
     0
 42
0.0000000000736649
 43
0.0000000001
 40
0.0
 40
0.0
 40
0.0
 40
0.0
 40
0.0409604203067225
 40
0.0409604203067225
 40
0.0409604203067225
 40
0.0409604203067225
 10
101.7226127371978
 20
223.9170394267794
 30
0.0
 10
103.5793419509109
 20
223.9170305357642
 30
0.0
 10
105.4327901631168
 20
223.9202201858407
 30
0.0
 10
107.2829683179295
 20
223.9266016928982
 30
0.0
  0
SPLINE
  5
18C
330
141
100
AcDbEntity
  8
410375040_ESCUTC
  6
Continuous
 62
     7
100
AcDbSpline
210
0.0
220
0.0
230
1.0
 70
     8
 71
     3
 72
    28
 73
    24
 74
     0
 42
0.0000000000770941
 43
0.0000000001
 40
0.0409604203067225
 40
0.0409604203067225
 40
0.0409604203067225
 40
0.0409604203067225
 40
0.2500000000000004
 40
0.2500000000000004
 40
0.3125000000000005
 40
0.3125000000000005
 40
0.3437500000000006
 40
0.3437500000000006
 40
0.3593750000000005
 40
0.3593750000000005
 40
0.3750000000000006
 40
0.3750000000000006
 40
0.5000000000000007
 40
0.5000000000000007
 40
0.562500000000001
 40
0.562500000000001
 40
0.578125000000001
 40
0.578125000000001
 40
0.5937500000000011
 40
0.5937500000000011
 40
0.6250000000000012
 40
0.6250000000000012
 40
0.6262830934159606
 40
0.6262830934159606
 40
0.6262830934159606
 40
0.6262830934159606
 10
107.2829683179295
 20
223.9266016928982
 30
0.0
 10
116.725265563504
 20
223.959169414204
 30
0.0
 10
126.0823934040723
 20
224.0748697925999
 30
0.0
 10
138.1284313286179
 20
224.3319971172805
 30
0.0
 10
140.8934774648102
 20
224.3985633227444
 30
0.0
 10
145.0295597874361
 20
224.5096217383866
 30
0.0
 10
146.4066706303574
 20
224.548723817697
 30
0.0
 10
148.4686630534577
 20
224.6097022504136
 30
0.0
 10
149.1599986931835
 20
224.6306429013663
 30
0.0
 10
150.435059854563
 20
224.6503272510143
 30
0.0
 10
151.0582836089534
 20
224.6577632360915
 30
0.0
 10
156.7677446785709
 20
224.7541677852267
 30
0.0
 10
162.0206916358726
 20
224.9271910108244
 30
0.0
 10
170.1190290152538
 20
225.3168430972333
 30
0.0
 10
172.8462620414371
 20
225.4678637643705
 30
0.0
 10
176.29006198039
 20
225.6829550107355
 30
0.0
 10
176.9805330066111
 20
225.7272899734901
 30
0.0
 10
178.3651775583788
 20
225.8186204560433
 30
0.0
 10
179.0653630091527
 20
225.8674053281279
 30
0.0
 10
181.0543723908604
 20
225.9828716557903
 30
0.0
 10
182.2551775839175
 20
226.0268106054238
 30
0.0
 10
183.0998609200196
 20
226.0277334134807
 30
0.0
 10
183.1323705472073
 20
226.0276779929592
 30
0.0
 10
183.1641318449896
 20
226.0275377793346
 30
0.0
  0
SPLINE
  5
18D
330
141
100
AcDbEntity
  8
410375040_ESCUTC
  6
Continuous
 62
     7
100
AcDbSpline
210
0.0
220
0.0
230
1.0
 70
     8
 71
     3
 72
    16
 73
    12
 74
     0
 42
0.0000000003669064
 43
0.0000000001
 40
0.6262830934159606
 40
0.6262830934159606
 40
0.6262830934159606
 40
0.6262830934159606
 40
0.6406250000000011
 40
0.6406250000000011
 40
0.656250000000001
 40
0.656250000000001
 40
0.6875000000000009
 40
0.6875000000000009
 40
0.7500000000000007
 40
0.7500000000000007
 40
1.0
 40
1.0
 40
1.0
 40
1.0
 10
183.1641318449896
 20
226.0275377793346
 30
0.0
 10
183.5191469671282
 20
226.0259705273474
 30
0.0
 10
183.7806667338472
 20
226.0138093293587
 30
0.0
 10
184.2952945231444
 20
225.9867550974039
 30
0.0
 10
184.5579782289283
 20
225.9729304188797
 30
0.0
 10
185.3291035150721
 20
225.9323058540485
 30
0.0
 10
185.8206239833495
 20
225.9063552557764
 30
0.0
 10
187.2274618723843
 20
225.8319440417144
 30
0.0
 10
188.0731876778374
 20
225.7870236090628
 30
0.0
 10
191.8210403434852
 20
225.5874203985697
 30
0.0
 10
193.3359409522216
 20
225.5052469228524
 30
0.0
 10
193.3359409533694
 20
225.5052469831503
 30
0.0
  0
SPLINE
  5
18E
330
141
100
AcDbEntity
  8
410375040_ESCUTC
  6
Continuous
 62
     7
100
AcDbSpline
210
0.0
220
0.0
230
1.0
 70
     8
 71
     3
 72
    14
 73
    10
 74
     0
 42
0.0000000034121265
 43
0.0000000001
 40
0.0
 40
0.0
 40
0.0
 40
0.0
 40
0.25
 40
0.25
 40
0.5
 40
0.5
 40
0.75
 40
0.75
 40
1.0
 40
1.0
 40
1.0
 40
1.0
 10
193.3359409533694
 20
225.5052469831503
 30
0.0
 10
193.094114375748
 20
225.4825560298677
 30
0.0
 10
192.8565370178556
 20
225.4153381221023
 30
0.0
 10
192.4208008689878
 20
225.2005966482561
 30
0.0
 10
192.2227692294214
 20
225.0531357455119
 30
0.0
 10
191.8921521664006
 20
224.6972252937697
 30
0.0
 10
191.7596632197374
 20
224.4888796023827
 30
0.0
 10
191.5775676170577
 20
224.0385229842404
 30
0.0
 10
191.5280140980429
 20
223.796643475268
 30
0.0
 10
191.5231794976097
 20
223.5538027874836
 30
0.0
  0
LINE
  5
18F
330
141
100
AcDbEntity
  8
410375040_ESCUTC
  6
Continuous
 62
     7
100
AcDbLine
 10
6.9227932659
 20
228.081110624
 30
0.0
 11
6.9227932659
 21
230.8082807504
 31
0.0
  0
LINE
  5
190
330
141
100
AcDbEntity
  8
410375040_ESCUTC
  6
Continuous
 62
     7
100
AcDbLine
 10
196.5227832659
 20
228.0811106616
 30
0.0
 11
196.5227832659
 21
230.8082807504
 31
0.0
  0
ARC
  5
191
330
141
100
AcDbEntity
  8
410375040_ESCUTC
  6
Continuous
 62
     7
100
AcDbCircle
 10
194.0227832659
 20
228.0811106616
 30
0.0
 40
2.500000000000002
100
AcDbArc
 50
275.4141238415
 51
360.0
  0
ARC
  5
192
330
141
100
AcDbEntity
  8
410375040_ESCUTC
  6
Continuous
 62
     7
100
AcDbCircle
 10
9.4227932659
 20
228.081110624
 30
0.0
 40
2.499999999999996
100
AcDbArc
 50
180.0
 51
264.5858761818
  0
SPLINE
  5
193
330
141
100
AcDbEntity
  8
410375040_ESCUTC
  6
Continuous
 62
     7
100
AcDbSpline
210
0.0
220
0.0
230
1.0
 70
     8
 71
     3
 72
    14
 73
    10
 74
     0
 42
0.0000000034121265
 43
0.0000000001
 40
0.0
 40
0.0
 40
0.0
 40
0.0
 40
0.25
 40
0.25
 40
0.5
 40
0.5
 40
0.75
 40
0.75
 40
1.0
 40
1.0
 40
1.0
 40
1.0
 10
11.92239703424598
 20
223.5538027511511
 30
0.0
 10
11.91756243371425
 20
223.7966434389335
 30
0.0
 10
11.86800891460141
 20
224.0385229478859
 30
0.0
 10
11.68591331173915
 20
224.4888795659543
 30
0.0
 10
11.5534243649914
 20
224.6972252572876
 30
0.0
 10
11.22280730182631
 20
225.0531357088958
 30
0.0
 10
11.02477566220013
 20
225.2005966115597
 30
0.0
 10
10.58903951324523
 20
225.4153380852292
 30
0.0
 10
10.35146215532556
 20
225.4825559928983
 30
0.0
 10
10.10963557769498
 20
225.5052469460829
 30
0.0
  0
ARC
  5
194
330
141
100
AcDbEntity
  8
410375040_ESCUTC
  6
Continuous
 62
     7
100
AcDbCircle
 10
189.0236747872
 20
223.6035642449
 30
0.0
 40
2.500000000000001
100
AcDbArc
 50
275.1009610637
 51
358.8594760826
  0
SPLINE
  5
195
330
141
100
AcDbEntity
  8
410375040_ESCUTC
  6
Continuous
 62
     7
100
AcDbSpline
210
0.0
220
0.0
230
1.0
 70
     8
 71
     3
 72
    14
 73
    10
 74
     0
 42
0.0000000027211518
 43
0.0000000001
 40
0.0
 40
0.0
 40
0.0
 40
0.0
 40
0.2499999999999999
 40
0.2499999999999999
 40
0.4999999999999998
 40
0.4999999999999998
 40
0.7499999999999999
 40
0.7499999999999999
 40
1.0
 40
1.0
 40
1.0
 40
1.0
 10
14.19962423521098
 20
221.1134652740726
 30
0.0
 10
13.89627584599322
 20
221.1405435252537
 30
0.0
 10
13.59801950272504
 20
221.2236542263633
 30
0.0
 10
13.05074515946057
 20
221.4910578555769
 30
0.0
 10
12.80188884676235
 20
221.6752717816761
 30
0.0
 10
12.38632365689316
 20
222.1206025359265
 30
0.0
 10
12.21973755473178
 20
222.3815877950989
 30
0.0
 10
11.99077143618223
 20
222.9460241726194
 30
0.0
 10
11.92845906578104
 20
223.2493085333003
 30
0.0
 10
11.92239703424598
 20
223.5538027511511
 30
0.0
  0
SPLINE
  5
196
330
141
100
AcDbEntity
  8
410375040_ESCUTC
  6
Continuous
 62
     7
100
AcDbSpline
210
0.0
220
0.0
230
1.0
 70
     8
 71
     3
 72
    38
 73
    34
 74
     0
 42
0.0000000000511712
 43
0.0000000001
 40
0.0016605734312975
 40
0.0016605734312975
 40
0.0016605734312975
 40
0.0016605734312975
 40
0.03125
 40
0.03125
 40
0.0625
 40
0.0625
 40
0.09375
 40
0.09375
 40
0.1250000000000001
 40
0.1250000000000001
 40
0.1562500000000001
 40
0.1562500000000001
 40
0.1875000000000001
 40
0.1875000000000001
 40
0.2187500000000001
 40
0.2187500000000001
 40
0.2500000000000001
 40
0.2500000000000001
 40
0.2812500000000001
 40
0.2812500000000001
 40
0.3125000000000001
 40
0.3125000000000001
 40
0.3437500000000001
 40
0.3437500000000001
 40
0.3750000000000001
 40
0.3750000000000001
 40
0.4062500000000001
 40
0.4062500000000001
 40
0.4375000000000001
 40
0.4375000000000001
 40
0.4687500000000001
 40
0.4687500000000001
 40
0.4998756049745966
 40
0.4998756049745966
 40
0.4998756049745966
 40
0.4998756049745966
 10
53.04315246232406
 20
218.4156851866235
 30
0.0
 10
53.07577282760803
 20
218.4158411500039
 30
0.0
 10
53.39854934788688
 20
218.4173821214137
 30
0.0
 10
54.62427375746796
 20
218.42307470404
 30
0.0
 10
55.55327362048131
 20
218.4273416442955
 30
0.0
 10
58.00987588433093
 20
218.4380517013647
 30
0.0
 10
59.5457486095812
 20
218.4445180932706
 30
0.0
 10
63.08947168098211
 20
218.4583445059675
 30
0.0
 10
65.10949866138372
 20
218.4657635794305
 30
0.0
 10
69.6623897009018
 20
218.4807779784203
 30
0.0
 10
72.1305554383547
 20
218.4881483166881
 30
0.0
 10
77.40327906960371
 20
218.5017249282187
 30
0.0
 10
80.24427309723795
 20
218.5080029521332
 30
0.0
 10
86.13152645738379
 20
218.5183782582734
 30
0.0
 10
89.15766545199972
 20
218.5224661662056
 30
0.0
 10
95.37257272871824
 20
218.5280377979291
 30
0.0
 10
98.58571364258364
 20
218.5294971731124
 30
0.0
 10
104.9142605441332
 20
218.5294808602752
 30
0.0
 10
108.0584194473334
 20
218.528051325171
 30
0.0
 10
114.3057389715553
 20
218.5224496448834
 30
0.0
 10
117.3766452611239
 20
218.5182791724733
 30
0.0
 10
123.2199523852823
 20
218.5079585301561
 30
0.0
 10
126.031604680074
 20
218.5017576197243
 30
0.0
 10
131.366526336813
 20
218.4880102535986
 30
0.0
 10
133.8204825973177
 20
218.4806566145588
 30
0.0
 10
138.3147634941675
 20
218.4658319431865
 30
0.0
 10
140.3739907707622
 20
218.4582787902237
 30
0.0
 10
143.9295750098934
 20
218.4443976132625
 30
0.0
 10
145.431991427067
 20
218.4380671487493
 30
0.0
 10
147.886525703706
 20
218.4273673208341
 30
0.0
 10
148.8352960937775
 20
218.4230104324884
 30
0.0
 10
150.0890118150453
 20
218.4171862880103
 30
0.0
 10
150.4051331656618
 20
218.4156723486582
 30
0.0
 10
150.4051712502648
 20
218.4156720613609
 30
0.0
  0
LINE
  5
197
330
141
100
AcDbEntity
  8
410375040_ESCUTC
  6
Continuous
 62
     7
100
AcDbLine
 10
193.3355674006
 20
225.5092656832
 30
0.0
 11
194.2584151987
 21
225.5949789489
 31
0.0
  0
LINE
  5
198
330
141
100
AcDbEntity
  8
410375040_ESCUTC
  6
Continuous
 62
     7
100
AcDbLine
 10
9.1870247934
 20
225.5934917082
 30
0.0
 11
10.1097578575
 21
225.5065429261
 31
0.0
  0
ARC
  5
199
330
141
100
AcDbEntity
  8
410375040_ESCUTC
  6
Continuous
 62
     7
100
AcDbCircle
 10
116.7905336928
 20
1002.6402633387
 30
0.0
 40
784.8653347441132
100
AcDbArc
 50
272.4519398361
 51
275.2967701805
  0
ARC
  5
19A
330
141
100
AcDbEntity
  8
410375040_ESCUTC
  6
Continuous
 62
     7
100
AcDbCircle
 10
86.6206368789
 20
1002.2184343408
 30
0.0
 40
784.4421308631316
100
AcDbArc
 50
264.7028879283
 51
267.5468458281
  0
ARC
  5
19B
330
141
100
AcDbEntity
  8
410375040_ESCUTC
  6
Continuous
 62
     7
100
AcDbCircle
 10
53.1149992769
 20
219.3281584255
 30
0.0
 40
0.9132217653743754
100
AcDbArc
 50
270.5958068968
 51
272.1652751039
  0
LINE
  5
19C
330
141
100
AcDbEntity
  8
410228031_BEARIN
  6
Continuous
 62
     7
100
AcDbLine
 10
70.1727843911
 20
201.2082801685
 30
0.0
 11
133.2727843911
 21
201.2082801685
 31
0.0
  0
LINE
  5
19D
330
141
100
AcDbEntity
  8
410228031_BEARIN
  6
Continuous
 62
     7
100
AcDbLine
 10
70.1727843911
 20
201.8082801685
 30
0.0
 11
70.1727843911
 21
201.2082801685
 31
0.0
  0
LINE
  5
19E
330
141
100
AcDbEntity
  8
410228031_BEARIN
  6
Continuous
 62
     7
100
AcDbLine
 10
133.2727843911
 20
201.2082801685
 30
0.0
 11
133.2727843911
 21
201.8082801685
 31
0.0
  0
LINE
  5
1A0
330
141
100
AcDbEntity
  8
DV3_Standard
  6
CENTER2
 62
     7
100
AcDbLine
 10
121.7227878191
 20
230.8082807504
 30
0.0
 11
81.7227887131
 21
230.8082807504
 31
0.0
  0
LINE
  5
1A1
330
141
100
AcDbEntity
  8
DV3_Standard
  6
CENTER2
 62
     7
100
AcDbLine
 10
101.7227882661
 20
250.8082803033
 30
0.0
 11
101.7227882661
 21
210.8082811974
 31
0.0
  0
ENDBLK
  5
1A3
330
141
100
AcDbEntity
  8
0
100
AcDbBlockEnd
  0
ENDSEC
  0
SECTION
  2
ENTITIES
  0
INSERT
  5
5F
330
1F
100
AcDbEntity
  8
Default
100
AcDbBlockReference
  2
SE
 10
0.0
 20
0.0
 30
0.0
  0
INSERT
  5
BF
330
1F
100
AcDbEntity
  8
Default
100
AcDbBlockReference
  2
SE1
 10
0.0
 20
0.0
 30
0.0
  0
INSERT
  5
142
330
1F
100
AcDbEntity
  8
Default
100
AcDbBlockReference
  2
SE2
 10
0.0
 20
0.0
 30
0.0
  0
TEXT
  5
1A5
330
1F
100
AcDbEntity
  8
Default
  6
Continuous
 62
     7
100
AcDbText
 10
5.9362635081
 20
53.4225120485
 30
0.0
 40
10.0
  1
Grohe AG^J
  7
SEACAD_seiso_ttf
 11
5.9362635081
 21
63.4225120485
 31
0.0
100
AcDbText
 73
     3
  0
TEXT
  5
1A6
330
1F
100
AcDbEntity
  8
Default
  6
Continuous
 62
     7
100
AcDbText
 10
5.9362635081
 20
37.0588756849
 30
0.0
 40
10.0
  1
 
  7
SEACAD_seiso_ttf
 11
5.9362635081
 21
47.0588756849
 31
0.0
100
AcDbText
 73
     3
  0
TEXT
  5
1A7
330
1F
100
AcDbEntity
  8
Default
  6
Continuous
 62
     7
100
AcDbText
 10
5.9362635081
 20
20.6952393213
 30
0.0
 40
10.0
  1
ecn: 
  7
SEACAD_seiso_ttf
 11
5.9362635081
 21
30.6952393213
 31
0.0
100
AcDbText
 73
     3
  0
TEXT
  5
1A8
330
1F
100
AcDbEntity
  8
Default
  6
Continuous
 62
     7
100
AcDbText
 10
5.9362635081
 20
4.3316029576
 30
0.0
 40
10.0
  1
unit: mm
  7
SEACAD_seiso_ttf
 11
5.9362635081
 21
14.3316029576
 31
0.0
100
AcDbText
 73
     3
  0
LINE
  5
1A9
330
1F
100
AcDbEntity
  8
Default
  6
Continuous
 62
     7
100
AcDbLine
 10
0.0
 20
0.0
 30
0.0
 11
100.0
 21
0.0
 31
0.0
  0
LINE
  5
1AA
330
1F
100
AcDbEntity
  8
Default
  6
Continuous
 62
     7
100
AcDbLine
 10
0.0
 20
0.0
 30
0.0
 11
0.0
 21
100.0
 31
0.0
  0
TEXT
  5
1AB
330
1F
100
AcDbEntity
  8
Default
  6
Continuous
 62
     7
100
AcDbText
 10
24.3923665681
 20
-18.2375342018
 30
0.0
 40
10.0
  1
100 mm
  7
SEACAD_seiso_ttf
 11
24.3923665681
 21
-8.2375342018
 31
0.0
100
AcDbText
 73
     3
  0
TEXT
  5
1AC
330
1F
100
AcDbEntity
  8
Default
  6
Continuous
 62
     7
100
AcDbText
 10
-7.6150308803
 20
24.6231930421
 30
0.0
 40
10.0
  1
100 mm
 50
90.0
  7
SEACAD_seiso_ttf
 11
-17.6150308803
 21
24.6231930421
 31
0.0
100
AcDbText
 73
     3
  0
TEXT
  5
1AD
330
1F
100
AcDbEntity
  8
Default
  6
Continuous
 62
     7
100
AcDbText
 10
28.4878128572
 20
20.0907663715
 30
0.0
 40
10.0
  1
219326
  7
SEACAD_seiso_ttf
 11
28.4878128572
 21
30.0907663715
 31
0.0
100
AcDbText
 73
     3
  0
TEXT
  5
1AE
330
1F
100
AcDbEntity
  8
Default
  6
Continuous
 62
     7
100
AcDbText
 10
5.9012241913
 20
36.7242780188
 30
0.0
 40
10.0
  1
19844000
  7
SEACAD_seiso_ttf
 11
5.9012241913
 21
46.7242780188
 31
0.0
100
AcDbText
 73
     3
  0
ENDSEC
  0
SECTION
  2
OBJECTS
  0
DICTIONARY
  5
C
330
0
100
AcDbDictionary
281
     1
  3
ACAD_GROUP
350
D
  3
ACAD_LAYOUT
350
1A
  3
ACAD_MLEADERSTYLE
350
1B2
  3
ACAD_MLINESTYLE
350
17
  3
ACAD_PLOTSETTINGS
350
19
  3
ACAD_PLOTSTYLENAME
350
E
  3
ACAD_SCALELIST
350
3B
  3
ACAD_TABLESTYLE
350
1B1
  3
ACAD_VISUALSTYLE
350
2A
  3
AcDbVariableDictionary
350
1AF
  0
DICTIONARY
  5
D
102
{ACAD_REACTORS
330
C
102
}
330
C
100
AcDbDictionary
281
     1
  0
DICTIONARY
  5
1A
102
{ACAD_REACTORS
330
C
102
}
330
C
100
AcDbDictionary
281
     1
  3
Layout1
350
1E
  3
Model
350
22
  0
DICTIONARY
  5
1B2
102
{ACAD_REACTORS
330
C
102
}
330
C
100
AcDbDictionary
281
     1
  0
DICTIONARY
  5
17
102
{ACAD_REACTORS
330
C
102
}
330
C
100
AcDbDictionary
281
     1
  3
Standard
350
18
  0
DICTIONARY
  5
19
102
{ACAD_REACTORS
330
C
102
}
330
C
100
AcDbDictionary
281
     1
  0
ACDBDICTIONARYWDFLT
  5
E
102
{ACAD_REACTORS
330
C
102
}
330
C
100
AcDbDictionary
281
     1
  3
Normal
350
F
100
AcDbDictionaryWithDefault
340
F
  0
DICTIONARY
  5
3B
102
{ACAD_REACTORS
330
C
102
}
330
C
100
AcDbDictionary
281
     1
  3
A0
350
3C
  3
A1
350
3D
  3
A2
350
3E
  3
A3
350
3F
  3
A4
350
40
  3
A5
350
41
  3
A6
350
42
  3
A7
350
43
  3
A8
350
44
  3
A9
350
45
  3
B0
350
46
  3
B1
350
47
  3
B2
350
48
  3
B3
350
49
  3
B4
350
4A
  3
B5
350
4B
  3
B6
350
4C
  3
B7
350
4D
  3
B8
350
4E
  3
B9
350
4F
  3
C0
350
50
  3
C1
350
51
  3
C2
350
52
  3
C3
350
53
  3
C4
350
54
  3
C5
350
55
  3
C6
350
56
  3
C7
350
57
  3
C8
350
58
  3
C9
350
59
  3
D0
350
5A
  3
D1
350
5B
  3
D2
350
5C
  0
DICTIONARY
  5
1B1
102
{ACAD_REACTORS
330
C
102
}
330
C
100
AcDbDictionary
281
     1
  0
DICTIONARY
  5
2A
102
{ACAD_REACTORS
330
C
102
}
330
C
100
AcDbDictionary
281
     1
  3
2dWireframe
350
2F
  3
3D Hidden
350
31
  3
3dWireframe
350
30
  3
Basic
350
32
  3
Brighten
350
36
  3
ColorChange
350
3A
  3
Conceptual
350
34
  3
Dim
350
35
  3
Facepattern
350
39
  3
Flat
350
2B
  3
FlatWithEdges
350
2C
  3
Gouraud
350
2D
  3
GouraudWithEdges
350
2E
  3
Linepattern
350
38
  3
Realistic
350
33
  3
Thicken
350
37
  0
DICTIONARY
  5
1AF
102
{ACAD_REACTORS
330
C
102
}
330
C
100
AcDbDictionary
281
     1
  3
CANNOSCALE
350
1B0
  3
PSOLHEIGHT
350
1B4
  3
PSOLWIDTH
350
1B3
  0
LAYOUT
  5
1E
102
{ACAD_REACTORS
330
1A
102
}
330
1A
100
AcDbPlotSettings
  1

  2
none_device
  4

  6

 40
0.0
 41
0.0
 42
0.0
 43
0.0
 44
0.0
 45
0.0
 46
0.0
 47
0.0
 48
0.0
 49
0.0
140
0.0
141
0.0
142
1.0
143
1.0
 70
   688
 72
     0
 73
     0
 74
     5
  7

 75
    16
147
1.0
148
0.0
149
0.0
100
AcDbLayout
  1
Layout1
 70
     1
 71
     1
 10
0.0
 20
0.0
 11
1682.0
 21
2378.0
 12
0.0
 22
0.0
 32
0.0
 14
0.0
 24
0.0
 34
0.0
 15
1682.0
 25
2378.0
 35
0.0
146
0.0
 13
0.0
 23
0.0
 33
0.0
 16
1.0
 26
0.0
 36
0.0
 17
0.0
 27
1.0
 37
0.0
 76
     0
330
1B
  0
LAYOUT
  5
22
102
{ACAD_REACTORS
330
1A
102
}
330
1A
100
AcDbPlotSettings
  1

  2
none_device
  4

  6

 40
0.0
 41
0.0
 42
0.0
 43
0.0
 44
0.0
 45
0.0
 46
0.0
 47
0.0
 48
0.0
 49
0.0
140
0.0
141
0.0
142
1.0
143
1.0
 70
  1712
 72
     0
 73
     0
 74
     0
  7

 75
     0
147
1.0
148
0.0
149
0.0
100
AcDbLayout
  1
Model
 70
     1
 71
     0
 10
0.0
 20
0.0
 11
1682.0
 21
2378.0
 12
0.0
 22
0.0
 32
0.0
 14
0.0
 24
0.0
 34
0.0
 15
1682.0
 25
2378.0
 35
0.0
146
0.0
 13
0.0
 23
0.0
 33
0.0
 16
1.0
 26
0.0
 36
0.0
 17
0.0
 27
1.0
 37
0.0
 76
     0
330
1F
331
29
  0
MLINESTYLE
  5
18
102
{ACAD_REACTORS
330
17
102
}
330
17
100
AcDbMlineStyle
  2
Standard
 70
     0
  3

 62
   256
 51
90.0
 52
90.0
 71
     2
 49
0.5
 62
   256
  6
BYLAYER
 49
-0.5
 62
   256
  6
BYLAYER
  0
ACDBPLACEHOLDER
  5
F
102
{ACAD_REACTORS
330
E
102
}
330
E
  0
SCALE
  5
3C
102
{ACAD_REACTORS
330
3B
102
}
330
3B
100
AcDbScale
 70
     0
300
1:1
140
1.0
141
1.0
290
     1
  0
SCALE
  5
3D
102
{ACAD_REACTORS
330
3B
102
}
330
3B
100
AcDbScale
 70
     0
300
1:2
140
1.0
141
2.0
290
     0
  0
SCALE
  5
3E
102
{ACAD_REACTORS
330
3B
102
}
330
3B
100
AcDbScale
 70
     0
300
1:4
140
1.0
141
4.0
290
     0
  0
SCALE
  5
3F
102
{ACAD_REACTORS
330
3B
102
}
330
3B
100
AcDbScale
 70
     0
300
1:5
140
1.0
141
5.0
290
     0
  0
SCALE
  5
40
102
{ACAD_REACTORS
330
3B
102
}
330
3B
100
AcDbScale
 70
     0
300
1:8
140
1.0
141
8.0
290
     0
  0
SCALE
  5
41
102
{ACAD_REACTORS
330
3B
102
}
330
3B
100
AcDbScale
 70
     0
300
1:10
140
1.0
141
10.0
290
     0
  0
SCALE
  5
42
102
{ACAD_REACTORS
330
3B
102
}
330
3B
100
AcDbScale
 70
     0
300
1:16
140
1.0
141
16.0
290
     0
  0
SCALE
  5
43
102
{ACAD_REACTORS
330
3B
102
}
330
3B
100
AcDbScale
 70
     0
300
1:20
140
1.0
141
20.0
290
     0
  0
SCALE
  5
44
102
{ACAD_REACTORS
330
3B
102
}
330
3B
100
AcDbScale
 70
     0
300
1:30
140
1.0
141
30.0
290
     0
  0
SCALE
  5
45
102
{ACAD_REACTORS
330
3B
102
}
330
3B
100
AcDbScale
 70
     0
300
1:40
140
1.0
141
40.0
290
     0
  0
SCALE
  5
46
102
{ACAD_REACTORS
330
3B
102
}
330
3B
100
AcDbScale
 70
     0
300
1:50
140
1.0
141
50.0
290
     0
  0
SCALE
  5
47
102
{ACAD_REACTORS
330
3B
102
}
330
3B
100
AcDbScale
 70
     0
300
1:100
140
1.0
141
100.0
290
     0
  0
SCALE
  5
48
102
{ACAD_REACTORS
330
3B
102
}
330
3B
100
AcDbScale
 70
     0
300
2:1
140
2.0
141
1.0
290
     0
  0
SCALE
  5
49
102
{ACAD_REACTORS
330
3B
102
}
330
3B
100
AcDbScale
 70
     0
300
4:1
140
4.0
141
1.0
290
     0
  0
SCALE
  5
4A
102
{ACAD_REACTORS
330
3B
102
}
330
3B
100
AcDbScale
 70
     0
300
8:1
140
8.0
141
1.0
290
     0
  0
SCALE
  5
4B
102
{ACAD_REACTORS
330
3B
102
}
330
3B
100
AcDbScale
 70
     0
300
10:1
140
10.0
141
1.0
290
     0
  0
SCALE
  5
4C
102
{ACAD_REACTORS
330
3B
102
}
330
3B
100
AcDbScale
 70
     0
300
100:1
140
100.0
141
1.0
290
     0
  0
SCALE
  5
4D
102
{ACAD_REACTORS
330
3B
102
}
330
3B
100
AcDbScale
 70
     0
300
1/128" = 1'-0"
140
0.0078125
141
12.0
290
     0
  0
SCALE
  5
4E
102
{ACAD_REACTORS
330
3B
102
}
330
3B
100
AcDbScale
 70
     0
300
1/64" = 1'-0"
140
0.015625
141
12.0
290
     0
  0
SCALE
  5
4F
102
{ACAD_REACTORS
330
3B
102
}
330
3B
100
AcDbScale
 70
     0
300
1/32" = 1'-0"
140
0.03125
141
12.0
290
     0
  0
SCALE
  5
50
102
{ACAD_REACTORS
330
3B
102
}
330
3B
100
AcDbScale
 70
     0
300
1/16" = 1'-0"
140
0.0625
141
12.0
290
     0
  0
SCALE
  5
51
102
{ACAD_REACTORS
330
3B
102
}
330
3B
100
AcDbScale
 70
     0
300
3/32" = 1'-0"
140
0.09375
141
12.0
290
     0
  0
SCALE
  5
52
102
{ACAD_REACTORS
330
3B
102
}
330
3B
100
AcDbScale
 70
     0
300
1/8" = 1'-0"
140
0.125
141
12.0
290
     0
  0
SCALE
  5
53
102
{ACAD_REACTORS
330
3B
102
}
330
3B
100
AcDbScale
 70
     0
300
3/16" = 1'-0"
140
0.1875
141
12.0
290
     0
  0
SCALE
  5
54
102
{ACAD_REACTORS
330
3B
102
}
330
3B
100
AcDbScale
 70
     0
300
1/4" = 1'-0"
140
0.25
141
12.0
290
     0
  0
SCALE
  5
55
102
{ACAD_REACTORS
330
3B
102
}
330
3B
100
AcDbScale
 70
     0
300
3/8" = 1'-0"
140
0.375
141
12.0
290
     0
  0
SCALE
  5
56
102
{ACAD_REACTORS
330
3B
102
}
330
3B
100
AcDbScale
 70
     0
300
1/2" = 1'-0"
140
0.5
141
12.0
290
     0
  0
SCALE
  5
57
102
{ACAD_REACTORS
330
3B
102
}
330
3B
100
AcDbScale
 70
     0
300
3/4" = 1'-0"
140
0.75
141
12.0
290
     0
  0
SCALE
  5
58
102
{ACAD_REACTORS
330
3B
102
}
330
3B
100
AcDbScale
 70
     0
300
1" = 1'-0"
140
1.0
141
12.0
290
     0
  0
SCALE
  5
59
102
{ACAD_REACTORS
330
3B
102
}
330
3B
100
AcDbScale
 70
     0
300
1-1/2" = 1'-0"
140
1.5
141
12.0
290
     0
  0
SCALE
  5
5A
102
{ACAD_REACTORS
330
3B
102
}
330
3B
100
AcDbScale
 70
     0
300
3" = 1'-0"
140
3.0
141
12.0
290
     0
  0
SCALE
  5
5B
102
{ACAD_REACTORS
330
3B
102
}
330
3B
100
AcDbScale
 70
     0
300
6" = 1'-0"
140
6.0
141
12.0
290
     0
  0
SCALE
  5
5C
102
{ACAD_REACTORS
330
3B
102
}
330
3B
100
AcDbScale
 70
     0
300
1'-0" = 1'-0"
140
12.0
141
12.0
290
     0
  0
VISUALSTYLE
  5
2F
102
{ACAD_REACTORS
330
2A
102
}
330
2A
100
AcDbVisualStyle
  2
2dWireframe
 70
     4
 71
     0
 72
     2
 73
     0
 90
        0
 40
-0.6
 41
-30.0
 62
     5
 63
     7
 74
     1
 91
        4
 64
     7
 65
   257
 75
     1
175
     1
 42
1.0
 92
        0
 66
   257
 43
1.0
 76
     1
 77
     6
 78
     2
 67
     7
 79
     5
170
     0
171
     0
290
     0
174
     0
 93
        1
 44
0.0
173
     0
291
     0
 45
0.0
1001
ACAD
1000
AcDbSavedByObjectVersion
1070
     0
  0
VISUALSTYLE
  5
31
102
{ACAD_REACTORS
330
2A
102
}
330
2A
100
AcDbVisualStyle
  2
3D Hidden
 70
     6
 71
     1
 72
     2
 73
     2
 90
        0
 40
-0.6
 41
-30.0
 62
     5
 63
     7
 74
     2
 91
        2
 64
     7
 65
   257
 75
     2
175
     1
 42
40.0
 92
        0
 66
   257
 43
1.0
 76
     1
 77
     6
 78
     2
 67
     7
 79
     3
170
     0
171
     0
290
     0
174
     0
 93
        1
 44
0.0
173
     0
291
     0
 45
0.0
1001
ACAD
1000
AcDbSavedByObjectVersion
1070
     0
  0
VISUALSTYLE
  5
30
102
{ACAD_REACTORS
330
2A
102
}
330
2A
100
AcDbVisualStyle
  2
3dWireframe
 70
     5
 71
     0
 72
     2
 73
     0
 90
        0
 40
-0.6
 41
-30.0
 62
     5
 63
     7
 74
     1
 91
        4
 64
     7
 65
   257
 75
     1
175
     1
 42
1.0
 92
        0
 66
   257
 43
1.0
 76
     1
 77
     6
 78
     2
 67
     7
 79
     5
170
     0
171
     0
290
     0
174
     0
 93
        1
 44
0.0
173
     0
291
     0
 45
0.0
1001
ACAD
1000
AcDbSavedByObjectVersion
1070
     0
  0
VISUALSTYLE
  5
32
102
{ACAD_REACTORS
330
2A
102
}
330
2A
100
AcDbVisualStyle
  2
Basic
 70
     7
 71
     1
 72
     0
 73
     1
 90
        0
 40
-0.6
 41
-30.0
 62
     5
 63
     7
 74
     0
 91
        4
 64
     7
 65
   257
 75
     1
175
     1
 42
1.0
 92
        8
 66
     7
 43
1.0
 76
     1
 77
     6
 78
     2
 67
     7
 79
     5
170
     0
171
     0
290
     0
174
     0
 93
        1
 44
0.0
173
     0
291
     1
 45
0.0
1001
ACAD
1000
AcDbSavedByObjectVersion
1070
     0
  0
VISUALSTYLE
  5
36
102
{ACAD_REACTORS
330
2A
102
}
330
2A
100
AcDbVisualStyle
  2
Brighten
 70
    12
 71
     2
 72
     2
 73
     0
 90
        0
 40
-0.6
 41
-30.0
 62
     5
 63
     7
 74
     1
 91
        4
 64
     7
 65
   257
 75
     1
175
     1
 42
1.0
 92
        8
 66
     7
 43
1.0
 76
     1
 77
     6
 78
     2
 67
     7
 79
     5
170
     0
171
     0
290
     0
174
     0
 93
        1
 44
50.0
173
     0
291
     1
 45
0.0
1001
ACAD
1000
AcDbSavedByObjectVersion
1070
     0
  0
VISUALSTYLE
  5
3A
102
{ACAD_REACTORS
330
2A
102
}
330
2A
100
AcDbVisualStyle
  2
ColorChange
 70
    16
 71
     2
 72
     2
 73
     3
 90
        0
 40
-0.6
 41
-30.0
 62
     5
 63
     8
 74
     1
 91
        4
 64
     7
 65
   257
 75
     1
175
     1
 42
1.0
 92
        8
 66
     8
 43
1.0
 76
     1
 77
     6
 78
     2
 67
     7
 79
     5
170
     0
171
     0
290
     0
174
     0
 93
        1
 44
0.0
173
     0
291
     1
 45
0.0
1001
ACAD
1000
AcDbSavedByObjectVersion
1070
     0
  0
VISUALSTYLE
  5
34
102
{ACAD_REACTORS
330
2A
102
}
330
2A
100
AcDbVisualStyle
  2
Conceptual
 70
     9
 71
     3
 72
     2
 73
     0
 90
        0
 40
-0.6
 41
-30.0
 62
     5
 63
     7
 74
     2
 91
        2
 64
     7
 65
   257
 75
     1
175
     1
 42
40.0
 92
        8
 66
     7
 43
1.0
 76
     1
 77
     6
 78
     2
 67
     7
 79
     3
170
     0
171
     0
290
     0
174
     0
 93
        1
 44
0.0
173
     0
291
     0
 45
0.0
1001
ACAD
1000
AcDbSavedByObjectVersion
1070
     0
  0
VISUALSTYLE
  5
35
102
{ACAD_REACTORS
330
2A
102
}
330
2A
100
AcDbVisualStyle
  2
Dim
 70
    11
 71
     2
 72
     2
 73
     0
 90
        0
 40
-0.6
 41
-30.0
 62
     5
 63
     7
 74
     1
 91
        4
 64
     7
 65
   257
 75
     1
175
     1
 42
1.0
 92
        8
 66
     7
 43
1.0
 76
     1
 77
     6
 78
     2
 67
     7
 79
     5
170
     0
171
     0
290
     0
174
     0
 93
        1
 44
-50.0
173
     0
291
     1
 45
0.0
1001
ACAD
1000
AcDbSavedByObjectVersion
1070
     0
  0
VISUALSTYLE
  5
39
102
{ACAD_REACTORS
330
2A
102
}
330
2A
100
AcDbVisualStyle
  2
Facepattern
 70
    15
 71
     2
 72
     2
 73
     0
 90
        0
 40
-0.6
 41
-30.0
 62
     5
 63
     7
 74
     1
 91
        4
 64
     7
 65
   257
 75
     1
175
     1
 42
1.0
 92
        8
 66
     7
 43
1.0
 76
     1
 77
     6
 78
     2
 67
     7
 79
     5
170
     0
171
     0
290
     0
174
     0
 93
        1
 44
0.0
173
     0
291
     1
 45
0.0
1001
ACAD
1000
AcDbSavedByObjectVersion
1070
     0
  0
VISUALSTYLE
  5
2B
102
{ACAD_REACTORS
330
2A
102
}
330
2A
100
AcDbVisualStyle
  2
Flat
 70
     0
 71
     2
 72
     1
 73
     1
 90
        2
 40
-0.6
 41
30.0
 62
     5
 63
     7
 74
     0
 91
        4
 64
     7
 65
   257
 75
     1
175
     1
 42
1.0
 92
        8
 66
     7
 43
1.0
 76
     1
 77
     6
 78
     2
 67
     7
 79
     5
170
     0
171
     0
290
     0
174
     0
 93
       13
 44
0.0
173
     0
291
     1
 45
0.0
1001
ACAD
1000
AcDbSavedByObjectVersion
1070
     0
  0
VISUALSTYLE
  5
2C
102
{ACAD_REACTORS
330
2A
102
}
330
2A
100
AcDbVisualStyle
  2
FlatWithEdges
 70
     1
 71
     2
 72
     1
 73
     1
 90
        2
 40
-0.6
 41
30.0
 62
     5
 63
     7
 74
     1
 91
        4
 64
     7
 65
   257
 75
     1
175
     1
 42
1.0
 92
        0
 66
   257
 43
1.0
 76
     1
 77
     6
 78
     2
 67
     7
 79
     5
170
     0
171
     0
290
     0
174
     0
 93
       13
 44
0.0
173
     0
291
     1
 45
0.0
1001
ACAD
1000
AcDbSavedByObjectVersion
1070
     0
  0
VISUALSTYLE
  5
2D
102
{ACAD_REACTORS
330
2A
102
}
330
2A
100
AcDbVisualStyle
  2
Gouraud
 70
     2
 71
     2
 72
     2
 73
     1
 90
        2
 40
-0.6
 41
30.0
 62
     5
 63
     7
 74
     0
 91
        4
 64
     7
 65
   257
 75
     1
175
     1
 42
1.0
 92
        0
 66
     7
 43
1.0
 76
     1
 77
     6
 78
     2
 67
     7
 79
     5
170
     0
171
     0
290
     0
174
     0
 93
       13
 44
0.0
173
     0
291
     1
 45
0.0
1001
ACAD
1000
AcDbSavedByObjectVersion
1070
     0
  0
VISUALSTYLE
  5
2E
102
{ACAD_REACTORS
330
2A
102
}
330
2A
100
AcDbVisualStyle
  2
GouraudWithEdges
 70
     3
 71
     2
 72
     2
 73
     1
 90
        2
 40
-0.6
 41
30.0
 62
     5
 63
     7
 74
     1
 91
        4
 64
     7
 65
   257
 75
     1
175
     1
 42
1.0
 92
        0
 66
   257
 43
1.0
 76
     1
 77
     6
 78
     2
 67
     7
 79
     5
170
     0
171
     0
290
     0
174
     0
 93
       13
 44
0.0
173
     0
291
     1
 45
0.0
1001
ACAD
1000
AcDbSavedByObjectVersion
1070
     0
  0
VISUALSTYLE
  5
38
102
{ACAD_REACTORS
330
2A
102
}
330
2A
100
AcDbVisualStyle
  2
Linepattern
 70
    14
 71
     2
 72
     2
 73
     0
 90
        0
 40
-0.6
 41
-30.0
 62
     5
 63
     7
 74
     1
 91
        4
 64
     7
 65
   257
 75
     7
175
     7
 42
1.0
 92
        8
 66
     7
 43
1.0
 76
     1
 77
     6
 78
     2
 67
     7
 79
     5
170
     0
171
     0
290
     0
174
     0
 93
        1
 44
0.0
173
     0
291
     1
 45
0.0
1001
ACAD
1000
AcDbSavedByObjectVersion
1070
     0
  0
VISUALSTYLE
  5
33
102
{ACAD_REACTORS
330
2A
102
}
330
2A
100
AcDbVisualStyle
  2
Realistic
 70
     8
 71
     2
 72
     2
 73
     0
 90
        0
 40
-0.6
 41
-30.0
 62
     5
 63
     7
 74
     1
 91
        0
 64
     7
 65
   257
 75
     1
175
     1
 42
1.0
 92
        8
 66
     8
 43
1.0
 76
     1
 77
     6
 78
     2
 67
     7
 79
     5
170
     0
171
     0
290
     0
174
     0
 93
       13
 44
0.0
173
     0
291
     0
 45
0.0
1001
ACAD
1000
AcDbSavedByObjectVersion
1070
     0
  0
VISUALSTYLE
  5
37
102
{ACAD_REACTORS
330
2A
102
}
330
2A
100
AcDbVisualStyle
  2
Thicken
 70
    13
 71
     2
 72
     2
 73
     0
 90
        0
 40
-0.6
 41
-30.0
 62
     5
 63
     7
 74
     1
 91
        4
 64
     7
 65
   257
 75
     1
175
     1
 42
1.0
 92
       12
 66
     7
 43
1.0
 76
     1
 77
     6
 78
     2
 67
     7
 79
     5
170
     0
171
     0
290
     0
174
     0
 93
        1
 44
0.0
173
     0
291
     1
 45
0.0
1001
ACAD
1000
AcDbSavedByObjectVersion
1070
     0
  0
DICTIONARYVAR
  5
1B0
102
{ACAD_REACTORS
330
1AF
102
}
330
1AF
100
DictionaryVariables
280
     0
  1
1:1
  0
DICTIONARYVAR
  5
1B4
102
{ACAD_REACTORS
330
1AF
102
}
330
1AF
100
DictionaryVariables
280
     0
  1
80.000000
  0
DICTIONARYVAR
  5
1B3
102
{ACAD_REACTORS
330
1AF
102
}
330
1AF
100
DictionaryVariables
280
     0
  1
5.000000
  0
ENDSEC
  0
EOF
