  0
SECTION
  2
HEADER
  9
$ACADVER
  1
AC1015
  9
$ACADMAINTVER
 70
     6
  9
$DWGCODEPAGE
  3
ANSI_1252
  9
$INSBASE
 10
0.0
 20
0.0
 30
0.0
  9
$EXTMIN
 10
0.0
 20
0.0
 30
0.0
  9
$EXTMAX
 10
1682.0
 20
2378.0
 30
0.0
  9
$LIMMIN
 10
0.0
 20
0.0
  9
$LIMMAX
 10
1682.0
 20
2378.0
  9
$ORTHOMODE
 70
     0
  9
$REGENMODE
 70
     1
  9
$FILLMODE
 70
     1
  9
$QTEXTMODE
 70
     0
  9
$MIRRTEXT
 70
     1
  9
$LTSCALE
 40
1.0
  9
$ATTMODE
 70
     1
  9
$TEXTSIZE
 40
2.5
  9
$TRACEWID
 40
1.0
  9
$TEXTSTYLE
  7
Standard
  9
$CLAYER
  8
0
  9
$CELTYPE
  6
ByLayer
  9
$CECOLOR
 62
   256
  9
$CELTSCALE
 40
1.0
  9
$DISPSILH
 70
     0
  9
$DIMSCALE
 40
1.0
  9
$DIMASZ
 40
2.5
  9
$DIMEXO
 40
0.625
  9
$DIMDLI
 40
3.75
  9
$DIMRND
 40
0.0
  9
$DIMDLE
 40
0.0
  9
$DIMEXE
 40
1.25
  9
$DIMTP
 40
0.0
  9
$DIMTM
 40
0.0
  9
$DIMTXT
 40
2.5
  9
$DIMCEN
 40
2.5
  9
$DIMTSZ
 40
0.0
  9
$DIMTOL
 70
     0
  9
$DIMLIM
 70
     0
  9
$DIMTIH
 70
     0
  9
$DIMTOH
 70
     0
  9
$DIMSE1
 70
     0
  9
$DIMSE2
 70
     0
  9
$DIMTAD
 70
     1
  9
$DIMZIN
 70
     8
  9
$DIMBLK
  1

  9
$DIMASO
 70
     1
  9
$DIMSHO
 70
     1
  9
$DIMPOST
  1

  9
$DIMAPOST
  1

  9
$DIMALT
 70
     0
  9
$DIMALTD
 70
     3
  9
$DIMALTF
 40
0.0393700787
  9
$DIMLFAC
 40
1.0
  9
$DIMTOFL
 70
     1
  9
$DIMTVP
 40
0.0
  9
$DIMTIX
 70
     0
  9
$DIMSOXD
 70
     0
  9
$DIMSAH
 70
     0
  9
$DIMBLK1
  1

  9
$DIMBLK2
  1

  9
$DIMSTYLE
  2
ISO-25
  9
$DIMCLRD
 70
     0
  9
$DIMCLRE
 70
     0
  9
$DIMCLRT
 70
     0
  9
$DIMTFAC
 40
1.0
  9
$DIMGAP
 40
0.625
  9
$DIMJUST
 70
     0
  9
$DIMSD1
 70
     0
  9
$DIMSD2
 70
     0
  9
$DIMTOLJ
 70
     0
  9
$DIMTZIN
 70
     8
  9
$DIMALTZ
 70
     0
  9
$DIMALTTZ
 70
     0
  9
$DIMUPT
 70
     0
  9
$DIMDEC
 70
     2
  9
$DIMTDEC
 70
     2
  9
$DIMALTU
 70
     2
  9
$DIMALTTD
 70
     3
  9
$DIMTXSTY
  7
Standard
  9
$DIMAUNIT
 70
     0
  9
$DIMADEC
 70
     0
  9
$DIMALTRND
 40
0.0
  9
$DIMAZIN
 70
     0
  9
$DIMDSEP
 70
    44
  9
$DIMATFIT
 70
     3
  9
$DIMFRAC
 70
     0
  9
$DIMLDRBLK
  1

  9
$DIMLUNIT
 70
     2
  9
$DIMLWD
 70
    -2
  9
$DIMLWE
 70
    -2
  9
$DIMTMOVE
 70
     0
  9
$LUNITS
 70
     2
  9
$LUPREC
 70
     4
  9
$SKETCHINC
 40
1.0
  9
$FILLETRAD
 40
10.0
  9
$AUNITS
 70
     0
  9
$AUPREC
 70
     0
  9
$MENU
  1
.
  9
$ELEVATION
 40
0.0
  9
$PELEVATION
 40
0.0
  9
$THICKNESS
 40
0.0
  9
$LIMCHECK
 70
     0
  9
$CHAMFERA
 40
10.0
  9
$CHAMFERB
 40
10.0
  9
$CHAMFERC
 40
20.0
  9
$CHAMFERD
 40
0.0
  9
$SKPOLY
 70
     0
  9
$TDCREATE
 40
2455748.381387072
  9
$TDUCREATE
 40
2455748.298053738
  9
$TDUPDATE
 40
2455748.381387083
  9
$TDUUPDATE
 40
2455748.29805375
  9
$TDINDWG
 40
0.0000000116
  9
$TDUSRTIMER
 40
0.0000000116
  9
$USRTIMER
 70
     1
  9
$ANGBASE
 50
0.0
  9
$ANGDIR
 70
     0
  9
$PDMODE
 70
     0
  9
$PDSIZE
 40
0.0
  9
$PLINEWID
 40
0.0
  9
$SPLFRAME
 70
     0
  9
$SPLINETYPE
 70
     6
  9
$SPLINESEGS
 70
     8
  9
$HANDSEED
  5
151
  9
$SURFTAB1
 70
     6
  9
$SURFTAB2
 70
     6
  9
$SURFTYPE
 70
     6
  9
$SURFU
 70
     6
  9
$SURFV
 70
     6
  9
$UCSBASE
  2

  9
$UCSNAME
  2

  9
$UCSORG
 10
0.0
 20
0.0
 30
0.0
  9
$UCSXDIR
 10
1.0
 20
0.0
 30
0.0
  9
$UCSYDIR
 10
0.0
 20
1.0
 30
0.0
  9
$UCSORTHOREF
  2

  9
$UCSORTHOVIEW
 70
     0
  9
$UCSORGTOP
 10
0.0
 20
0.0
 30
0.0
  9
$UCSORGBOTTOM
 10
0.0
 20
0.0
 30
0.0
  9
$UCSORGLEFT
 10
0.0
 20
0.0
 30
0.0
  9
$UCSORGRIGHT
 10
0.0
 20
0.0
 30
0.0
  9
$UCSORGFRONT
 10
0.0
 20
0.0
 30
0.0
  9
$UCSORGBACK
 10
0.0
 20
0.0
 30
0.0
  9
$PUCSBASE
  2

  9
$PUCSNAME
  2

  9
$PUCSORG
 10
0.0
 20
0.0
 30
0.0
  9
$PUCSXDIR
 10
1.0
 20
0.0
 30
0.0
  9
$PUCSYDIR
 10
0.0
 20
1.0
 30
0.0
  9
$PUCSORTHOREF
  2

  9
$PUCSORTHOVIEW
 70
     0
  9
$PUCSORGTOP
 10
0.0
 20
0.0
 30
0.0
  9
$PUCSORGBOTTOM
 10
0.0
 20
0.0
 30
0.0
  9
$PUCSORGLEFT
 10
0.0
 20
0.0
 30
0.0
  9
$PUCSORGRIGHT
 10
0.0
 20
0.0
 30
0.0
  9
$PUCSORGFRONT
 10
0.0
 20
0.0
 30
0.0
  9
$PUCSORGBACK
 10
0.0
 20
0.0
 30
0.0
  9
$USERI1
 70
     0
  9
$USERI2
 70
     0
  9
$USERI3
 70
     0
  9
$USERI4
 70
     0
  9
$USERI5
 70
     0
  9
$USERR1
 40
0.0
  9
$USERR2
 40
0.0
  9
$USERR3
 40
0.0
  9
$USERR4
 40
0.0
  9
$USERR5
 40
0.0
  9
$WORLDVIEW
 70
     1
  9
$SHADEDGE
 70
     3
  9
$SHADEDIF
 70
    70
  9
$TILEMODE
 70
     1
  9
$MAXACTVP
 70
    64
  9
$PINSBASE
 10
0.0
 20
0.0
 30
0.0
  9
$PLIMCHECK
 70
     0
  9
$PEXTMIN
 10
0.0
 20
0.0
 30
0.0
  9
$PEXTMAX
 10
1682.0
 20
2378.0
 30
0.0
  9
$PLIMMIN
 10
0.0
 20
0.0
  9
$PLIMMAX
 10
1682.0
 20
2378.0
  9
$UNITMODE
 70
     0
  9
$VISRETAIN
 70
     1
  9
$PLINEGEN
 70
     0
  9
$PSLTSCALE
 70
     1
  9
$TREEDEPTH
 70
  3020
  9
$CMLSTYLE
  2
Standard
  9
$CMLJUST
 70
     0
  9
$CMLSCALE
 40
20.0
  9
$PROXYGRAPHICS
 70
     1
  9
$MEASUREMENT
 70
     1
  9
$CELWEIGHT
370
    -1
  9
$ENDCAPS
280
     0
  9
$JOINSTYLE
280
     0
  9
$LWDISPLAY
290
     0
  9
$INSUNITS
 70
     4
  9
$HYPERLINKBASE
  1

  9
$STYLESHEET
  1

  9
$XEDIT
290
     1
  9
$CEPSNTYPE
380
     0
  9
$PSTYLEMODE
290
     1
  9
$FINGERPRINTGUID
  2
{C2691082-F498-48DD-B53B-24A94AF7B14E}
  9
$VERSIONGUID
  2
{FAEB1C32-E019-11D5-929B-00C0DF256EC4}
  9
$EXTNAMES
290
     1
  9
$PSVPSCALE
 40
0.0
  9
$OLESTARTUP
290
     0
  0
ENDSEC
  0
SECTION
  2
CLASSES
  0
CLASS
  1
ACDBDICTIONARYWDFLT
  2
AcDbDictionaryWithDefault
  3
ObjectDBX Classes
 90
        0
280
     0
281
     0
  0
CLASS
  1
VISUALSTYLE
  2
AcDbVisualStyle
  3
ObjectDBX Classes
 90
     4095
280
     0
281
     0
  0
CLASS
  1
SCALE
  2
AcDbScale
  3
ObjectDBX Classes
 90
     1153
280
     0
281
     0
  0
CLASS
  1
DICTIONARYVAR
  2
AcDbDictionaryVar
  3
ObjectDBX Classes
 90
        0
280
     0
281
     0
  0
CLASS
  1
ACDBPLACEHOLDER
  2
AcDbPlaceHolder
  3
ObjectDBX Classes
 90
        0
280
     0
281
     0
  0
CLASS
  1
LAYOUT
  2
AcDbLayout
  3
ObjectDBX Classes
 90
        0
280
     0
281
     0
  0
ENDSEC
  0
SECTION
  2
TABLES
  0
TABLE
  2
VPORT
  5
8
330
0
100
AcDbSymbolTable
 70
     1
  0
VPORT
  5
29
330
8
100
AcDbSymbolTableRecord
100
AcDbViewportTableRecord
  2
*Active
 70
     0
 10
0.0
 20
0.0
 11
1.0
 21
1.0
 12
344.1869158879
 22
148.5
 13
0.0
 23
0.0
 14
10.0
 24
10.0
 15
10.0
 25
10.0
 16
0.0
 26
0.0
 36
1.0
 17
0.0
 27
0.0
 37
0.0
 40
297.0
 41
1.9729729729
 42
50.0
 43
0.0
 44
0.0
 50
0.0
 51
0.0
 71
     0
 72
   100
 73
     1
 74
     3
 75
     0
 76
     0
 77
     0
 78
     0
281
     0
 65
     1
110
0.0
120
0.0
130
0.0
111
1.0
121
0.0
131
0.0
112
0.0
122
1.0
132
0.0
 79
     0
146
0.0
  0
ENDTAB
  0
TABLE
  2
LTYPE
  5
5
330
0
100
AcDbSymbolTable
 70
     2
  0
LTYPE
  5
14
330
5
100
AcDbSymbolTableRecord
100
AcDbLinetypeTableRecord
  2
ByBlock
 70
     0
  3

 72
    65
 73
     0
 40
0.0
  0
LTYPE
  5
15
330
5
100
AcDbSymbolTableRecord
100
AcDbLinetypeTableRecord
  2
ByLayer
 70
     0
  3

 72
    65
 73
     0
 40
0.0
  0
LTYPE
  5
16
330
5
100
AcDbSymbolTableRecord
100
AcDbLinetypeTableRecord
  2
Continuous
 70
     0
  3
Solid line
 72
    65
 73
     0
 40
0.0
  0
LTYPE
  5
87
330
5
100
AcDbSymbolTableRecord
100
AcDbLinetypeTableRecord
  2
CENTER2
 70
     0
  3
Center (.5x) ___ _ ___ _ ___ _ ___ _ ___ _ ___
 72
    65
 73
     4
 40
28.575
 49
19.05
 74
     4
 75
     0
340
0
 46
0.0
 50
0.0
 44
0.0
 45
0.0
 49
-3.175
 74
     4
 75
     0
340
0
 46
0.0
 50
0.0
 44
0.0
 45
0.0
 49
3.175
 74
     4
 75
     0
340
0
 46
0.0
 50
0.0
 44
0.0
 45
0.0
 49
-3.175
 74
     4
 75
     0
340
0
 46
0.0
 50
0.0
 44
0.0
 45
0.0
  0
ENDTAB
  0
TABLE
  2
LAYER
  5
2
330
0
100
AcDbSymbolTable
 70
    14
  0
LAYER
  5
10
330
2
100
AcDbSymbolTableRecord
100
AcDbLayerTableRecord
  2
0
 70
     0
 62
     7
  6
Continuous
370
    -3
390
F
  0
LAYER
  5
5D
330
2
100
AcDbSymbolTableRecord
100
AcDbLayerTableRecord
  2
Default
 70
     0
 62
     7
  6
Continuous
370
    -3
390
F
  0
LAYER
  5
60
330
2
100
AcDbSymbolTableRecord
100
AcDbLayerTableRecord
  2
410312038_LEVER_
 70
     0
 62
     7
  6
Continuous
370
    -3
390
F
  0
LAYER
  5
66
330
2
100
AcDbSymbolTableRecord
100
AcDbLayerTableRecord
  2
410332038_BUTTON
 70
     0
 62
     7
  6
Continuous
370
    -3
390
F
  0
LAYER
  5
6C
330
2
100
AcDbSymbolTableRecord
100
AcDbLayerTableRecord
  2
410319038_HANDLE
 70
     0
 62
     7
  6
Continuous
370
    -3
390
F
  0
LAYER
  5
72
330
2
100
AcDbSymbolTableRecord
100
AcDbLayerTableRecord
  2
11218038_GRIFF__
 70
     0
 62
     7
  6
Continuous
370
    -3
390
F
  0
LAYER
  5
81
330
2
100
AcDbSymbolTableRecord
100
AcDbLayerTableRecord
  2
410364040_ESCUTC
 70
     0
 62
     7
  6
Continuous
370
    -3
390
F
  0
LAYER
  5
86
330
2
100
AcDbSymbolTableRecord
100
AcDbLayerTableRecord
  2
DV1_Standard
 70
     0
 62
     7
  6
Continuous
370
    -3
390
F
  0
LAYER
  5
92
330
2
100
AcDbSymbolTableRecord
100
AcDbLayerTableRecord
  2
410064038_SLEEVE
 70
     0
 62
     7
  6
Continuous
370
    -3
390
F
  0
LAYER
  5
95
330
2
100
AcDbSymbolTableRecord
100
AcDbLayerTableRecord
  2
410306038_DIVERT
 70
     0
 62
     7
  6
Continuous
370
    -3
390
F
  0
LAYER
  5
A9
330
2
100
AcDbSymbolTableRecord
100
AcDbLayerTableRecord
  2
11232031_STIFT_G
 70
     0
 62
     7
  6
Continuous
370
    -3
390
F
  0
LAYER
  5
F1
330
2
100
AcDbSymbolTableRecord
100
AcDbLayerTableRecord
  2
410228031_BEARIN
 70
     0
 62
     7
  6
Continuous
370
    -3
390
F
  0
LAYER
  5
F5
330
2
100
AcDbSymbolTableRecord
100
AcDbLayerTableRecord
  2
DV2_Standard
 70
     0
 62
     7
  6
Continuous
370
    -3
390
F
  0
LAYER
  5
13B
330
2
100
AcDbSymbolTableRecord
100
AcDbLayerTableRecord
  2
DV3_Standard
 70
     0
 62
     7
  6
Continuous
370
    -3
390
F
  0
ENDTAB
  0
TABLE
  2
STYLE
  5
3
330
0
100
AcDbSymbolTable
 70
     2
  0
STYLE
  5
11
330
3
100
AcDbSymbolTableRecord
100
AcDbTextStyleTableRecord
  2
Standard
 70
     0
 40
0.0
 41
1.0
 50
0.0
 71
     0
 42
2.5
  3
txt
  4

  0
STYLE
  5
140
330
3
100
AcDbSymbolTableRecord
100
AcDbTextStyleTableRecord
  2
SEACAD_seiso_ttf
 70
     0
 40
0.0
 41
1.0
 50
0.0
 71
     0
 42
0.2
  3
seiso.ttf
  4

  0
ENDTAB
  0
TABLE
  2
VIEW
  5
6
330
0
100
AcDbSymbolTable
 70
     0
  0
ENDTAB
  0
TABLE
  2
UCS
  5
7
330
0
100
AcDbSymbolTable
 70
     0
  0
ENDTAB
  0
TABLE
  2
APPID
  5
9
330
0
100
AcDbSymbolTable
 70
     1
  0
APPID
  5
12
330
9
100
AcDbSymbolTableRecord
100
AcDbRegAppTableRecord
  2
ACAD
 70
     0
  0
ENDTAB
  0
TABLE
  2
DIMSTYLE
  5
A
330
0
100
AcDbSymbolTable
 70
     1
100
AcDbDimStyleTable
  0
DIMSTYLE
105
27
330
A
100
AcDbSymbolTableRecord
100
AcDbDimStyleTableRecord
  2
ISO-25
 70
     0
 41
2.5
 42
0.625
 43
3.75
 44
1.25
 73
     0
 74
     0
 77
     1
 78
     8
140
2.5
141
2.5
143
0.0393700787
147
0.625
171
     3
172
     1
271
     2
272
     2
274
     3
278
    44
283
     0
284
     8
340
11
  0
ENDTAB
  0
TABLE
  2
BLOCK_RECORD
  5
1
330
0
100
AcDbSymbolTable
 70
     4
  0
BLOCK_RECORD
  5
1F
330
1
100
AcDbSymbolTableRecord
100
AcDbBlockTableRecord
  2
*Model_Space
340
22
  0
BLOCK_RECORD
  5
1B
330
1
100
AcDbSymbolTableRecord
100
AcDbBlockTableRecord
  2
*Paper_Space
340
1E
  0
BLOCK_RECORD
  5
5E
330
1
100
AcDbSymbolTableRecord
100
AcDbBlockTableRecord
  2
SE
340
0
102
{BLKREFS
331
5F
102
}
  0
BLOCK_RECORD
  5
90
330
1
100
AcDbSymbolTableRecord
100
AcDbBlockTableRecord
  2
SE1
340
0
102
{BLKREFS
331
91
102
}
  0
BLOCK_RECORD
  5
FA
330
1
100
AcDbSymbolTableRecord
100
AcDbBlockTableRecord
  2
SE2
340
0
102
{BLKREFS
331
FB
102
}
  0
ENDTAB
  0
ENDSEC
  0
SECTION
  2
BLOCKS
  0
BLOCK
  5
20
330
1F
100
AcDbEntity
  8
0
100
AcDbBlockBegin
  2
*Model_Space
 70
     0
 10
0.0
 20
0.0
 30
0.0
  3
*Model_Space
  1

  0
ENDBLK
  5
21
330
1F
100
AcDbEntity
  8
0
100
AcDbBlockEnd
  0
BLOCK
  5
1C
330
1B
100
AcDbEntity
 67
     1
  8
0
100
AcDbBlockBegin
  2
*Paper_Space
 70
     0
 10
0.0
 20
0.0
 30
0.0
  3
*Paper_Space
  1

  0
ENDBLK
  5
1D
330
1B
100
AcDbEntity
 67
     1
  8
0
100
AcDbBlockEnd
  0
BLOCK
  5
8E
330
5E
100
AcDbEntity
  8
0
100
AcDbBlockBegin
  2
SE
 70
     0
 10
0.0
 20
0.0
 30
0.0
  3
SE
  1

  0
LINE
  5
61
330
5E
100
AcDbEntity
  8
410312038_LEVER_
  6
Continuous
 62
     7
100
AcDbLine
 10
86.75
 20
284.9643832301
 30
0.0
 11
96.15
 21
284.9643832301
 31
0.0
  0
ARC
  5
62
330
5E
100
AcDbEntity
  8
410312038_LEVER_
  6
Continuous
 62
     7
100
AcDbCircle
 10
96.15
 20
285.2643832301
 30
0.0
 40
0.2999999999999947
100
AcDbArc
 50
270.0
 51
0.0
  0
ARC
  5
63
330
5E
100
AcDbEntity
  8
410312038_LEVER_
  6
Continuous
 62
     7
100
AcDbCircle
 10
86.75
 20
285.2643832301
 30
0.0
 40
0.2999999999999999
100
AcDbArc
 50
180.0
 51
270.0
  0
LINE
  5
64
330
5E
100
AcDbEntity
  8
410312038_LEVER_
  6
Continuous
 62
     7
100
AcDbLine
 10
96.45
 20
285.2643832301
 30
0.0
 11
96.45
 21
310.1643832301
 31
0.0
  0
LINE
  5
65
330
5E
100
AcDbEntity
  8
410312038_LEVER_
  6
Continuous
 62
     7
100
AcDbLine
 10
86.45
 20
310.1643832301
 30
0.0
 11
86.45
 21
285.2643832301
 31
0.0
  0
LINE
  5
67
330
5E
100
AcDbEntity
  8
410332038_BUTTON
  6
Continuous
 62
     7
100
AcDbLine
 10
96.95
 20
407.5250213083
 30
0.0
 11
85.95
 21
407.5250213083
 31
0.0
  0
ARC
  5
68
330
5E
100
AcDbEntity
  8
410332038_BUTTON
  6
Continuous
 62
     7
100
AcDbCircle
 10
96.95
 20
407.0250213083
 30
0.0
 40
0.5000000000000004
100
AcDbArc
 50
0.0
 51
90.0
  0
ARC
  5
69
330
5E
100
AcDbEntity
  8
410332038_BUTTON
  6
Continuous
 62
     7
100
AcDbCircle
 10
85.95
 20
407.0250213083
 30
0.0
 40
0.5000000000000004
100
AcDbArc
 50
90.0
 51
180.0
  0
LINE
  5
6A
330
5E
100
AcDbEntity
  8
410332038_BUTTON
  6
Continuous
 62
     7
100
AcDbLine
 10
97.45
 20
401.3423000945
 30
0.0
 11
97.45
 21
407.0250213083
 31
0.0
  0
LINE
  5
6B
330
5E
100
AcDbEntity
  8
410332038_BUTTON
  6
Continuous
 62
     7
100
AcDbLine
 10
85.45
 20
407.0250213083
 30
0.0
 11
85.45
 21
401.3423000945
 31
0.0
  0
ARC
  5
6D
330
5E
100
AcDbEntity
  8
410319038_HANDLE
  6
Continuous
 62
     7
100
AcDbCircle
 10
91.45
 20
370.1643832301
 30
0.0
 40
22.99999999999989
100
AcDbArc
 50
285.1216653149
 51
0.0
  0
ARC
  5
6E
330
5E
100
AcDbEntity
  8
410319038_HANDLE
  6
Continuous
 62
     7
100
AcDbCircle
 10
91.45
 20
370.1643832301
 30
0.0
 40
22.99999999999989
100
AcDbArc
 50
0.0
 51
254.8783346851
  0
ARC
  5
6F
330
5E
100
AcDbEntity
  8
410319038_HANDLE
  6
Continuous
 62
     7
100
AcDbCircle
 10
91.45
 20
370.1643832301
 30
0.0
 40
31.74999999999993
100
AcDbArc
 50
280.8930528194
 51
0.0
  0
ARC
  5
70
330
5E
100
AcDbEntity
  8
410319038_HANDLE
  6
Continuous
 62
     7
100
AcDbCircle
 10
91.45
 20
370.1643832301
 30
0.0
 40
31.74999999999993
100
AcDbArc
 50
0.0
 51
259.1069471806
  0
ARC
  5
71
330
5E
100
AcDbEntity
  8
410319038_HANDLE
  6
Continuous
 62
     7
100
AcDbCircle
 10
91.45
 20
370.1643832301
 30
0.0
 40
31.75000000000025
100
AcDbArc
 50
101.7022750705
 51
101.7038176576
  0
LINE
  5
73
330
5E
100
AcDbEntity
  8
11218038_GRIFF__
  6
Continuous
 62
     7
100
AcDbLine
 10
85.95
 20
310.1643832301
 30
0.0
 11
96.95
 21
310.1643832301
 31
0.0
  0
ARC
  5
74
330
5E
100
AcDbEntity
  8
11218038_GRIFF__
  6
Continuous
 62
     7
100
AcDbCircle
 10
91.45
 20
370.1643832301
 30
0.0
 40
11.0
100
AcDbArc
 50
122.9261300415
 51
237.0738699585
  0
LINE
  5
75
330
5E
100
AcDbEntity
  8
11218038_GRIFF__
  6
Continuous
 62
     7
100
AcDbLine
 10
85.45
 20
378.7812271999
 30
0.0
 11
85.45
 21
361.5475392603
 31
0.0
  0
ARC
  5
76
330
5E
100
AcDbEntity
  8
11218038_GRIFF__
  6
Continuous
 62
     7
100
AcDbCircle
 10
91.45
 20
370.1643832301
 30
0.0
 40
11.0
100
AcDbArc
 50
302.9261300415
 51
57.0738699585
  0
LINE
  5
77
330
5E
100
AcDbEntity
  8
11218038_GRIFF__
  6
Continuous
 62
     7
100
AcDbLine
 10
97.45
 20
361.5475392603
 30
0.0
 11
97.45
 21
378.7812271999
 31
0.0
  0
LINE
  5
78
330
5E
100
AcDbEntity
  8
11218038_GRIFF__
  6
Continuous
 62
     7
100
AcDbLine
 10
96.95
 20
386.1643832301
 30
0.0
 11
85.95
 21
386.1643832301
 31
0.0
  0
LINE
  5
79
330
5E
100
AcDbEntity
  8
11218038_GRIFF__
  6
Continuous
 62
     7
100
AcDbLine
 10
85.45
 20
361.5475392603
 30
0.0
 11
85.45
 21
310.6643832301
 31
0.0
  0
LINE
  5
7A
330
5E
100
AcDbEntity
  8
11218038_GRIFF__
  6
Continuous
 62
     7
100
AcDbLine
 10
85.45
 20
385.6643832301
 30
0.0
 11
85.45
 21
378.7812271999
 31
0.0
  0
LINE
  5
7B
330
5E
100
AcDbEntity
  8
11218038_GRIFF__
  6
Continuous
 62
     7
100
AcDbLine
 10
97.45
 20
378.7812271999
 30
0.0
 11
97.45
 21
385.6643832301
 31
0.0
  0
LINE
  5
7C
330
5E
100
AcDbEntity
  8
11218038_GRIFF__
  6
Continuous
 62
     7
100
AcDbLine
 10
97.45
 20
310.6643832301
 30
0.0
 11
97.45
 21
361.5475392603
 31
0.0
  0
ARC
  5
7D
330
5E
100
AcDbEntity
  8
11218038_GRIFF__
  6
Continuous
 62
     7
100
AcDbCircle
 10
96.95
 20
310.6643832301
 30
0.0
 40
0.5000000000000004
100
AcDbArc
 50
270.0
 51
0.0
  0
ARC
  5
7E
330
5E
100
AcDbEntity
  8
11218038_GRIFF__
  6
Continuous
 62
     7
100
AcDbCircle
 10
85.95
 20
310.6643832301
 30
0.0
 40
0.4999999999999996
100
AcDbArc
 50
180.0
 51
270.0
  0
ARC
  5
7F
330
5E
100
AcDbEntity
  8
11218038_GRIFF__
  6
Continuous
 62
     7
100
AcDbCircle
 10
96.95
 20
385.6643832301
 30
0.0
 40
0.4999999999999996
100
AcDbArc
 50
0.0
 51
90.0
  0
ARC
  5
80
330
5E
100
AcDbEntity
  8
11218038_GRIFF__
  6
Continuous
 62
     7
100
AcDbCircle
 10
85.95
 20
385.6643832301
 30
0.0
 40
0.5000000000000022
100
AcDbArc
 50
90.0
 51
180.0
  0
ARC
  5
82
330
5E
100
AcDbEntity
  8
410364040_ESCUTC
  6
Continuous
 62
     7
100
AcDbCircle
 10
91.45
 20
370.1643832301
 30
0.0
 40
79.0
100
AcDbArc
 50
273.6287405633
 51
0.0
  0
ARC
  5
83
330
5E
100
AcDbEntity
  8
410364040_ESCUTC
  6
Continuous
 62
     7
100
AcDbCircle
 10
91.45
 20
370.1643832301
 30
0.0
 40
79.0
100
AcDbArc
 50
0.0
 51
266.3712594366
  0
ARC
  5
84
330
5E
100
AcDbEntity
  8
410364040_ESCUTC
  6
Continuous
 62
     7
100
AcDbCircle
 10
91.45
 20
370.1643832301
 30
0.0
 40
85.0
100
AcDbArc
 50
273.3722866834
 51
0.0
  0
ARC
  5
85
330
5E
100
AcDbEntity
  8
410364040_ESCUTC
  6
Continuous
 62
     7
100
AcDbCircle
 10
91.45
 20
370.1643832301
 30
0.0
 40
85.0
100
AcDbArc
 50
0.0
 51
266.6277133166
  0
LINE
  5
88
330
5E
100
AcDbEntity
  8
DV1_Standard
  6
CENTER2
 62
     7
100
AcDbLine
 10
111.449999553
 20
370.1643832301
 30
0.0
 11
71.450000447
 21
370.1643832301
 31
0.0
  0
LINE
  5
89
330
5E
100
AcDbEntity
  8
DV1_Standard
  6
CENTER2
 62
     7
100
AcDbLine
 10
91.45
 20
390.1643827831
 30
0.0
 11
91.45
 21
350.1643836772
 31
0.0
  0
LINE
  5
8A
330
5E
100
AcDbEntity
  8
DV1_Standard
  6
CENTER2
 62
     7
100
AcDbLine
 10
116.4499994412
 20
370.1643832301
 30
0.0
 11
105.95
 21
370.1643832301
 31
0.0
  0
LINE
  5
8B
330
5E
100
AcDbEntity
  8
DV1_Standard
  6
CENTER2
 62
     7
100
AcDbLine
 10
91.45
 20
395.1643826713
 30
0.0
 11
91.45
 21
384.6643832301
 31
0.0
  0
LINE
  5
8C
330
5E
100
AcDbEntity
  8
DV1_Standard
  6
CENTER2
 62
     7
100
AcDbLine
 10
66.4500005588
 20
370.1643832301
 30
0.0
 11
76.95
 21
370.1643832301
 31
0.0
  0
LINE
  5
8D
330
5E
100
AcDbEntity
  8
DV1_Standard
  6
CENTER2
 62
     7
100
AcDbLine
 10
91.45
 20
345.1643837889
 30
0.0
 11
91.45
 21
355.6643832301
 31
0.0
  0
ENDBLK
  5
8F
330
5E
100
AcDbEntity
  8
0
100
AcDbBlockEnd
  0
BLOCK
  5
F8
330
90
100
AcDbEntity
  8
0
100
AcDbBlockBegin
  2
SE1
 70
     0
 10
0.0
 20
0.0
 30
0.0
  3
SE1
  1

  0
LINE
  5
93
330
90
100
AcDbEntity
  8
410064038_SLEEVE
  6
Continuous
 62
     7
100
AcDbLine
 10
264.5883077715
 20
401.9143832301
 30
0.0
 11
247.2895475314
 21
401.9143832301
 31
0.0
  0
LINE
  5
94
330
90
100
AcDbEntity
  8
410064038_SLEEVE
  6
Continuous
 62
     7
100
AcDbLine
 10
247.2895475314
 20
338.4143832301
 30
0.0
 11
264.5883077715
 21
338.4143832301
 31
0.0
  0
ARC
  5
96
330
90
100
AcDbEntity
  8
410306038_DIVERT
  6
Continuous
 62
     7
100
AcDbCircle
 10
274.1165617247
 20
307.4564934069
 30
0.0
 40
31.47282213703802
100
AcDbArc
 50
79.989509121
 51
99.0104896454
  0
LINE
  5
97
330
90
100
AcDbEntity
  8
410306038_DIVERT
  6
Continuous
 62
     7
100
AcDbLine
 10
265.6883077715
 20
339.0671224556
 30
0.0
 11
265.6883077715
 21
401.2616440046
 31
0.0
  0
LINE
  5
98
330
90
100
AcDbEntity
  8
410306038_DIVERT
  6
Continuous
 62
     7
100
AcDbLine
 10
283.6883077715
 20
401.410000757
 30
0.0
 11
283.6883077715
 21
338.9187657032
 31
0.0
  0
LINE
  5
99
330
90
100
AcDbEntity
  8
410306038_DIVERT
  6
Continuous
 62
     7
100
AcDbLine
 10
283.1839445037
 20
401.9099817186
 30
0.0
 11
266.1839445037
 21
401.7616249661
 31
0.0
  0
LINE
  5
9A
330
90
100
AcDbEntity
  8
410306038_DIVERT
  6
Continuous
 62
     7
100
AcDbLine
 10
279.574099514
 20
338.4502873816
 30
0.0
 11
283.1839445037
 21
338.4187847417
 31
0.0
  0
LINE
  5
9B
330
90
100
AcDbEntity
  8
410306038_DIVERT
  6
Continuous
 62
     7
100
AcDbLine
 10
266.1839445037
 20
338.5671414941
 30
0.0
 11
269.1891643513
 21
338.5409153378
 31
0.0
  0
LINE
  5
9C
330
90
100
AcDbEntity
  8
410306038_DIVERT
  6
Continuous
 62
     7
100
AcDbLine
 10
265.4900530786
 20
400.1626530876
 30
0.0
 11
265.1883077715
 21
400.1600197962
 31
0.0
  0
LINE
  5
9D
330
90
100
AcDbEntity
  8
410306038_DIVERT
  6
Continuous
 62
     7
100
AcDbLine
 10
265.1883077715
 20
340.168746664
 30
0.0
 11
265.4900530786
 21
340.1661133726
 31
0.0
  0
ARC
  5
9E
330
90
100
AcDbEntity
  8
410306038_DIVERT
  6
Continuous
 62
     7
100
AcDbCircle
 10
265.4883077715
 20
400.3626454722
 30
0.0
 40
0.1999999999999988
100
AcDbArc
 50
270.5
 51
0.0
  0
ARC
  5
9F
330
90
100
AcDbEntity
  8
410306038_DIVERT
  6
Continuous
 62
     7
100
AcDbCircle
 10
265.4883077715
 20
339.966120988
 30
0.0
 40
0.2000000000000034
100
AcDbArc
 50
0.0
 51
89.5
  0
ARC
  5
A0
330
90
100
AcDbEntity
  8
410306038_DIVERT
  6
Continuous
 62
     7
100
AcDbCircle
 10
266.1883077715
 20
401.2616440046
 30
0.0
 40
0.5000000000000083
100
AcDbArc
 50
90.5
 51
180.0
  0
ARC
  5
A1
330
90
100
AcDbEntity
  8
410306038_DIVERT
  6
Continuous
 62
     7
100
AcDbCircle
 10
266.1883077715
 20
339.0671224556
 30
0.0
 40
0.5000000000000004
100
AcDbArc
 50
180.0
 51
269.5
  0
ARC
  5
A2
330
90
100
AcDbEntity
  8
410306038_DIVERT
  6
Continuous
 62
     7
100
AcDbCircle
 10
283.1883077715
 20
401.410000757
 30
0.0
 40
0.5000000000000004
100
AcDbArc
 50
0.0
 51
90.5
  0
ARC
  5
A3
330
90
100
AcDbEntity
  8
410306038_DIVERT
  6
Continuous
 62
     7
100
AcDbCircle
 10
283.1883077715
 20
338.9187657032
 30
0.0
 40
0.4999999999999969
100
AcDbArc
 50
269.5
 51
0.0
  0
LINE
  5
A4
330
90
100
AcDbEntity
  8
410312038_LEVER_
  6
Continuous
 62
     7
100
AcDbLine
 10
269.688308426
 20
284.9643832301
 30
0.0
 11
279.088308426
 21
284.9643832301
 31
0.0
  0
ARC
  5
A5
330
90
100
AcDbEntity
  8
410312038_LEVER_
  6
Continuous
 62
     7
100
AcDbCircle
 10
279.088308426
 20
285.2643832301
 30
0.0
 40
0.2999999999999947
100
AcDbArc
 50
270.0
 51
0.0
  0
ARC
  5
A6
330
90
100
AcDbEntity
  8
410312038_LEVER_
  6
Continuous
 62
     7
100
AcDbCircle
 10
269.688308426
 20
285.2643832301
 30
0.0
 40
0.2999999999999947
100
AcDbArc
 50
180.0
 51
270.0
  0
LINE
  5
A7
330
90
100
AcDbEntity
  8
410312038_LEVER_
  6
Continuous
 62
     7
100
AcDbLine
 10
279.388308426
 20
285.2643832301
 30
0.0
 11
279.388308426
 21
338.4840880717
 31
0.0
  0
LINE
  5
A8
330
90
100
AcDbEntity
  8
410312038_LEVER_
  6
Continuous
 62
     7
100
AcDbLine
 10
269.388308426
 20
338.5716217584
 30
0.0
 11
269.388308426
 21
285.2643832301
 31
0.0
  0
LINE
  5
AA
330
90
100
AcDbEntity
  8
11232031_STIFT_G
  6
Continuous
 62
     7
100
AcDbLine
 10
337.3883077715
 20
369.0096826917
 30
0.0
 11
336.3883077715
 21
369.5870329609
 31
0.0
  0
LINE
  5
AB
330
90
100
AcDbEntity
  8
11232031_STIFT_G
  6
Continuous
 62
     7
100
AcDbLine
 10
336.3883077715
 20
369.5870329609
 30
0.0
 11
336.3883077715
 21
370.7417334993
 31
0.0
  0
LINE
  5
AC
330
90
100
AcDbEntity
  8
11232031_STIFT_G
  6
Continuous
 62
     7
100
AcDbLine
 10
336.3883077715
 20
370.7417334993
 30
0.0
 11
337.3883077715
 21
371.3190837685
 31
0.0
  0
LINE
  5
AD
330
90
100
AcDbEntity
  8
11232031_STIFT_G
  6
Continuous
 62
     7
100
AcDbLine
 10
337.3883077715
 20
371.3190837685
 30
0.0
 11
338.3883077715
 21
370.7417334993
 31
0.0
  0
LINE
  5
AE
330
90
100
AcDbEntity
  8
11232031_STIFT_G
  6
Continuous
 62
     7
100
AcDbLine
 10
338.3883077715
 20
370.7417334993
 30
0.0
 11
338.3883077715
 21
369.5870329609
 31
0.0
  0
LINE
  5
AF
330
90
100
AcDbEntity
  8
11232031_STIFT_G
  6
Continuous
 62
     7
100
AcDbLine
 10
338.3883077715
 20
369.5870329609
 30
0.0
 11
337.3883077715
 21
369.0096826917
 31
0.0
  0
LINE
  5
B0
330
90
100
AcDbEntity
  8
410332038_BUTTON
  6
Continuous
 62
     7
100
AcDbLine
 10
291.1883077715
 20
407.5250213083
 30
0.0
 11
302.1883077715
 21
407.5250213083
 31
0.0
  0
ARC
  5
B1
330
90
100
AcDbEntity
  8
410332038_BUTTON
  6
Continuous
 62
     7
100
AcDbCircle
 10
302.1883077715
 20
407.0250213083
 30
0.0
 40
0.5000000000000004
100
AcDbArc
 50
0.0
 51
90.0
  0
ARC
  5
B2
330
90
100
AcDbEntity
  8
410332038_BUTTON
  6
Continuous
 62
     7
100
AcDbCircle
 10
291.1883077715
 20
407.0250213083
 30
0.0
 40
0.5000000000000004
100
AcDbArc
 50
90.0
 51
180.0
  0
LINE
  5
B3
330
90
100
AcDbEntity
  8
410332038_BUTTON
  6
Continuous
 62
     7
100
AcDbLine
 10
302.6883077715
 20
401.8353415955
 30
0.0
 11
302.6883077715
 21
407.0250213083
 31
0.0
  0
LINE
  5
B4
330
90
100
AcDbEntity
  8
410332038_BUTTON
  6
Continuous
 62
     7
100
AcDbLine
 10
290.6883077715
 20
407.0250213083
 30
0.0
 11
290.6883077715
 21
401.8357044369
 31
0.0
  0
LINE
  5
B5
330
90
100
AcDbEntity
  8
410319038_HANDLE
  6
Continuous
 62
     7
100
AcDbLine
 10
321.8883077715
 20
347.6643832301
 30
0.0
 11
321.8883077715
 21
392.6643832301
 31
0.0
  0
LINE
  5
B6
330
90
100
AcDbEntity
  8
410319038_HANDLE
  6
Continuous
 62
     7
100
AcDbLine
 10
313.8883077715
 20
338.9143832301
 30
0.0
 11
313.8883077715
 21
401.4143832301
 31
0.0
  0
LINE
  5
B7
330
90
100
AcDbEntity
  8
410319038_HANDLE
  6
Continuous
 62
     7
100
AcDbLine
 10
284.1883077715
 20
338.6143832301
 30
0.0
 11
284.1883077715
 21
401.7143832301
 31
0.0
  0
ARC
  5
B8
330
90
100
AcDbEntity
  8
410319038_HANDLE
  6
Continuous
 62
     7
100
AcDbCircle
 10
296.6883077661
 20
432.6279435188
 30
0.0
 40
31.37328139575846
100
AcDbArc
 50
258.2293124554
 51
281.7706865746
  0
LINE
  5
B9
330
90
100
AcDbEntity
  8
410319038_HANDLE
  6
Continuous
 62
     7
100
AcDbLine
 10
283.9883077715
 20
399.3643832301
 30
0.0
 11
283.6883077715
 21
399.3643832301
 31
0.0
  0
LINE
  5
BA
330
90
100
AcDbEntity
  8
410319038_HANDLE
  6
Continuous
 62
     7
100
AcDbLine
 10
283.6883077715
 20
340.9643832301
 30
0.0
 11
283.9883077715
 21
340.9643832301
 31
0.0
  0
LINE
  5
BB
330
90
100
AcDbEntity
  8
410319038_HANDLE
  6
Continuous
 62
     7
100
AcDbLine
 10
321.3883077715
 20
393.1643832301
 30
0.0
 11
314.3883077715
 21
393.1643832301
 31
0.0
  0
LINE
  5
BC
330
90
100
AcDbEntity
  8
410319038_HANDLE
  6
Continuous
 62
     7
100
AcDbLine
 10
314.3883077715
 20
347.1643832301
 30
0.0
 11
321.3883077715
 21
347.1643832301
 31
0.0
  0
ARC
  5
BD
330
90
100
AcDbEntity
  8
410319038_HANDLE
  6
Continuous
 62
     7
100
AcDbCircle
 10
321.3883077715
 20
347.6643832301
 30
0.0
 40
0.5000000000000004
100
AcDbArc
 50
270.0
 51
0.0
  0
ARC
  5
BE
330
90
100
AcDbEntity
  8
410319038_HANDLE
  6
Continuous
 62
     7
100
AcDbCircle
 10
321.3883077715
 20
392.6643832301
 30
0.0
 40
0.5000000000000004
100
AcDbArc
 50
0.0
 51
90.0
  0
ARC
  5
BF
330
90
100
AcDbEntity
  8
410319038_HANDLE
  6
Continuous
 62
     7
100
AcDbCircle
 10
313.3883077715
 20
338.9143832301
 30
0.0
 40
0.5000000000000039
100
AcDbArc
 50
270.0
 51
0.0
  0
ARC
  5
C0
330
90
100
AcDbEntity
  8
410319038_HANDLE
  6
Continuous
 62
     7
100
AcDbCircle
 10
313.3883077715
 20
401.4143832301
 30
0.0
 40
0.5000000000000004
100
AcDbArc
 50
0.0
 51
90.0
  0
ARC
  5
C1
330
90
100
AcDbEntity
  8
410319038_HANDLE
  6
Continuous
 62
     7
100
AcDbCircle
 10
314.3883077715
 20
346.6643832301
 30
0.0
 40
0.5000000000000004
100
AcDbArc
 50
90.0
 51
180.0
  0
ARC
  5
C2
330
90
100
AcDbEntity
  8
410319038_HANDLE
  6
Continuous
 62
     7
100
AcDbCircle
 10
314.3883077715
 20
393.6643832301
 30
0.0
 40
0.5000000000000004
100
AcDbArc
 50
180.0
 51
270.0
  0
ARC
  5
C3
330
90
100
AcDbEntity
  8
410319038_HANDLE
  6
Continuous
 62
     7
100
AcDbCircle
 10
284.3883077715
 20
401.7143832301
 30
0.0
 40
0.1999999999999988
100
AcDbArc
 50
90.0
 51
180.0
  0
ARC
  5
C4
330
90
100
AcDbEntity
  8
410319038_HANDLE
  6
Continuous
 62
     7
100
AcDbCircle
 10
284.3883077715
 20
338.6143832301
 30
0.0
 40
0.1999999999999988
100
AcDbArc
 50
180.0
 51
270.0
  0
LINE
  5
C5
330
90
100
AcDbEntity
  8
410319038_HANDLE
  6
Continuous
 62
     7
100
AcDbLine
 10
290.2883077715
 20
401.9143832301
 30
0.0
 11
284.3883077715
 21
401.9143832301
 31
0.0
  0
LINE
  5
C6
330
90
100
AcDbEntity
  8
410319038_HANDLE
  6
Continuous
 62
     7
100
AcDbLine
 10
313.3883077715
 20
401.9143832301
 30
0.0
 11
303.0725621637
 21
401.9143832301
 31
0.0
  0
LINE
  5
C7
330
90
100
AcDbEntity
  8
410319038_HANDLE
  6
Continuous
 62
     7
100
AcDbLine
 10
284.3883077715
 20
338.4143832301
 30
0.0
 11
313.3883077715
 21
338.4143832301
 31
0.0
  0
ARC
  5
C8
330
90
100
AcDbEntity
  8
410319038_HANDLE
  6
Continuous
 62
     7
100
AcDbCircle
 10
283.9883077715
 20
399.5643832301
 30
0.0
 40
0.1999999999999988
100
AcDbArc
 50
270.0
 51
0.0
  0
ARC
  5
C9
330
90
100
AcDbEntity
  8
410319038_HANDLE
  6
Continuous
 62
     7
100
AcDbCircle
 10
283.9883077715
 20
340.7643832301
 30
0.0
 40
0.1999999999999988
100
AcDbArc
 50
0.0
 51
90.0
  0
LINE
  5
CA
330
90
100
AcDbEntity
  8
11218038_GRIFF__
  6
Continuous
 62
     7
100
AcDbLine
 10
336.8883077715
 20
310.1643832301
 30
0.0
 11
347.8883077715
 21
310.1643832301
 31
0.0
  0
LINE
  5
CB
330
90
100
AcDbEntity
  8
11218038_GRIFF__
  6
Continuous
 62
     7
100
AcDbLine
 10
342.3883077715
 20
378.7812271999
 30
0.0
 11
342.3883077715
 21
361.5475392603
 31
0.0
  0
SPLINE
  5
CC
330
90
100
AcDbEntity
  8
11218038_GRIFF__
  6
Continuous
 62
     7
100
AcDbSpline
210
0.0
220
0.0
230
1.0
 70
     8
 71
     3
 72
    10
 73
     6
 74
     0
 42
0.000000011169161
 43
0.0000000001
 40
0.0
 40
0.0
 40
0.0
 40
0.0
 40
0.5
 40
0.5
 40
1.0
 40
1.0
 40
1.0
 40
1.0
 10
341.8883077714584
 20
379.3974758864254
 30
0.0
 10
342.0347881793961
 20
379.3895435276053
 30
0.0
 10
342.1695098554181
 20
379.3066948111695
 30
0.0
 10
342.3447251577526
 20
379.0743252516281
 30
0.0
 10
342.3883077714584
 20
378.9278383872307
 30
0.0
 10
342.3883077714584
 20
378.7812271999227
 30
0.0
  0
SPLINE
  5
CD
330
90
100
AcDbEntity
  8
11218038_GRIFF__
  6
Continuous
 62
     7
100
AcDbSpline
210
0.0
220
0.0
230
1.0
 70
     8
 71
     3
 72
    12
 73
     8
 74
     0
 42
0.000000011240689
 43
0.0000000001
 40
0.0
 40
0.0
 40
0.0
 40
0.0
 40
0.2499999999999994
 40
0.2499999999999994
 40
0.4999999999999988
 40
0.4999999999999988
 40
1.0
 40
1.0
 40
1.0
 40
1.0
 10
342.3883077714584
 20
361.5475392603086
 30
0.0
 10
342.3883077714584
 20
361.4740686532656
 30
0.0
 10
342.3777403634223
 20
361.4024755974147
 30
0.0
 10
342.3342523925141
 20
361.2632612904183
 30
0.0
 10
342.3014765687662
 20
361.1973643916489
 30
0.0
 10
342.1708478935818
 20
361.0232954726413
 30
0.0
 10
342.0353830896443
 20
360.9392551488223
 30
0.0
 10
341.8883077714584
 20
360.931290573806
 30
0.0
  0
ARC
  5
CE
330
90
100
AcDbEntity
  8
11218038_GRIFF__
  6
Continuous
 62
     7
100
AcDbCircle
 10
343.2822531017
 20
347.1486317214
 30
0.0
 40
13.85296966807075
100
AcDbArc
 50
95.7751213805
 51
119.84471751
  0
ARC
  5
CF
330
90
100
AcDbEntity
  8
11218038_GRIFF__
  6
Continuous
 62
     7
100
AcDbCircle
 10
343.0496678002
 20
392.4561456653
 30
0.0
 40
13.11021027712966
100
AcDbArc
 50
239.4623443057
 51
264.917826471
  0
LINE
  5
D0
330
90
100
AcDbEntity
  8
11218038_GRIFF__
  6
Continuous
 62
     7
100
AcDbLine
 10
336.8883077715
 20
386.1643832301
 30
0.0
 11
347.8883077715
 21
386.1643832301
 31
0.0
  0
SPLINE
  5
D1
330
90
100
AcDbEntity
  8
11218038_GRIFF__
  6
Continuous
 62
     7
100
AcDbSpline
210
0.0
220
0.0
230
1.0
 70
    11
 71
     3
 72
    23
 73
    19
 74
     0
 42
0.0000000006733821
 43
0.0000000001
 40
0.0
 40
0.0
 40
0.0
 40
0.0
 40
0.0630484027574542
 40
0.1258329689286031
 40
0.1881132937972724
 40
0.2500188456740683
 40
0.3119463369418708
 40
0.37421707812588
 40
0.437024260798644
 40
0.5001521810563537
 40
0.5631401449612009
 40
0.6258377230521525
 40
0.6881349695067841
 40
0.7501017421845739
 40
0.8120650950476952
 40
0.8743497271529233
 40
0.9370281041933408
 40
1.0
 40
1.0
 40
1.0
 40
1.0
 10
335.0883077714583
 20
370.1643832301157
 30
0.0
 10
335.0884790996832
 20
370.4712257569357
 30
0.0
 10
335.212587861797
 20
371.0834758771088
 30
0.0
 10
335.7170300490777
 20
371.8633515332338
 30
0.0
 10
336.4827967004194
 20
372.3799238736608
 30
0.0
 10
337.3887831216175
 20
372.5704528180473
 30
0.0
 10
338.2945345723702
 20
372.379383351016
 30
0.0
 10
339.0604623717761
 20
371.8626805750156
 30
0.0
 10
339.5643921069645
 20
371.0818909882635
 30
0.0
 10
339.7503573242572
 20
370.1626031392364
 30
0.0
 10
339.5646188375887
 20
369.243567294489
 30
0.0
 10
339.0589870471479
 20
368.4651366191545
 30
0.0
 10
338.2931148734863
 20
367.949197812125
 30
0.0
 10
337.3866444697056
 20
367.7580556202486
 30
0.0
 10
336.4802989458436
 20
367.9499975377037
 30
0.0
 10
335.7155833090568
 20
368.4673733001492
 30
0.0
 10
335.2112323659574
 20
369.24625066927
 30
0.0
 10
335.0881366511341
 20
369.8579130455768
 30
0.0
 10
335.0883077714583
 20
370.1643832301157
 30
0.0
  0
LINE
  5
D2
330
90
100
AcDbEntity
  8
11218038_GRIFF__
  6
Continuous
 62
     7
100
AcDbLine
 10
321.8883077715
 20
359.1643832301
 30
0.0
 11
336.4061698243
 21
359.1643832301
 31
0.0
  0
LINE
  5
D3
330
90
100
AcDbEntity
  8
11218038_GRIFF__
  6
Continuous
 62
     7
100
AcDbLine
 10
336.4094818203
 20
381.1643832301
 30
0.0
 11
321.8883077715
 21
381.1643832301
 31
0.0
  0
LINE
  5
D4
330
90
100
AcDbEntity
  8
11218038_GRIFF__
  6
Continuous
 62
     7
100
AcDbLine
 10
336.3883077715
 20
359.1740978433
 30
0.0
 11
336.3883077715
 21
310.6643832301
 31
0.0
  0
LINE
  5
D5
330
90
100
AcDbEntity
  8
11218038_GRIFF__
  6
Continuous
 62
     7
100
AcDbLine
 10
336.3883077715
 20
385.6643832301
 30
0.0
 11
336.3883077715
 21
381.1528486092
 31
0.0
  0
LINE
  5
D6
330
90
100
AcDbEntity
  8
11218038_GRIFF__
  6
Continuous
 62
     7
100
AcDbLine
 10
348.3883077715
 20
310.6643832301
 30
0.0
 11
348.3883077715
 21
385.6643832301
 31
0.0
  0
ARC
  5
D7
330
90
100
AcDbEntity
  8
11218038_GRIFF__
  6
Continuous
 62
     7
100
AcDbCircle
 10
347.8883077715
 20
310.6643832301
 30
0.0
 40
0.5000000000000004
100
AcDbArc
 50
270.0
 51
0.0
  0
ARC
  5
D8
330
90
100
AcDbEntity
  8
11218038_GRIFF__
  6
Continuous
 62
     7
100
AcDbCircle
 10
336.8883077715
 20
310.6643832301
 30
0.0
 40
0.5000000000000004
100
AcDbArc
 50
180.0
 51
270.0
  0
ARC
  5
D9
330
90
100
AcDbEntity
  8
11218038_GRIFF__
  6
Continuous
 62
     7
100
AcDbCircle
 10
347.8883077715
 20
385.6643832301
 30
0.0
 40
0.5000000000000004
100
AcDbArc
 50
0.0
 51
90.0
  0
ARC
  5
DA
330
90
100
AcDbEntity
  8
11218038_GRIFF__
  6
Continuous
 62
     7
100
AcDbCircle
 10
336.8883077715
 20
385.6643832301
 30
0.0
 40
0.5000000000000022
100
AcDbArc
 50
90.0
 51
180.0
  0
LINE
  5
DB
330
90
100
AcDbEntity
  8
410364040_ESCUTC
  6
Continuous
 62
     7
100
AcDbLine
 10
241.5764577767
 20
454.6643832301
 30
0.0
 11
241.5764577767
 21
285.6643832301
 31
0.0
  0
LINE
  5
DC
330
90
100
AcDbEntity
  8
410364040_ESCUTC
  6
Continuous
 62
     7
100
AcDbLine
 10
235.5764577767
 20
454.6643832301
 30
0.0
 11
235.5764577767
 21
285.9147541508
 31
0.0
  0
LINE
  5
DD
330
90
100
AcDbEntity
  8
410364040_ESCUTC
  6
Continuous
 62
     7
100
AcDbLine
 10
236.9764577767
 20
285.4147541508
 30
0.0
 11
236.9764577767
 21
285.4162356356
 31
0.0
  0
LINE
  5
DE
330
90
100
AcDbEntity
  8
410364040_ESCUTC
  6
Continuous
 62
     7
100
AcDbLine
 10
245.3703111221
 20
449.1643832301
 30
0.0
 11
242.0764577767
 21
449.1643832301
 31
0.0
  0
LINE
  5
DF
330
90
100
AcDbEntity
  8
410364040_ESCUTC
  6
Continuous
 62
     7
100
AcDbLine
 10
242.0764577767
 20
291.1643832301
 30
0.0
 11
245.3703111221
 21
291.1643832301
 31
0.0
  0
ARC
  5
E0
330
90
100
AcDbEntity
  8
410364040_ESCUTC
  6
Continuous
 62
     7
100
AcDbCircle
 10
-1559.6735422232
 20
370.1643832301
 30
0.0
 40
1807.249999999848
100
AcDbArc
 50
357.5098187432
 51
358.978986886
  0
ARC
  5
E1
330
90
100
AcDbEntity
  8
410364040_ESCUTC
  6
Continuous
 62
     7
100
AcDbCircle
 10
-1559.6735422232
 20
370.1643832301
 30
0.0
 40
1807.249999999848
100
AcDbArc
 50
1.021013114
 51
2.4901812568
  0
LINE
  5
E2
330
90
100
AcDbEntity
  8
410364040_ESCUTC
  6
Continuous
 62
     7
100
AcDbLine
 10
247.2895475314
 20
337.9643832301
 30
0.0
 11
247.2895475314
 21
402.3643832301
 31
0.0
  0
ARC
  5
E3
330
90
100
AcDbEntity
  8
410364040_ESCUTC
  6
Continuous
 62
     7
100
AcDbCircle
 10
245.3703111221
 20
291.6643832301
 30
0.0
 40
0.5000000000000004
100
AcDbArc
 50
270.0
 51
357.5098187426
  0
ARC
  5
E4
330
90
100
AcDbEntity
  8
410364040_ESCUTC
  6
Continuous
 62
     7
100
AcDbCircle
 10
245.3703111221
 20
448.6643832301
 30
0.0
 40
0.4999999999997695
100
AcDbArc
 50
2.4901812574
 51
90.0
  0
ARC
  5
E5
330
90
100
AcDbEntity
  8
410364040_ESCUTC
  6
Continuous
 62
     7
100
AcDbCircle
 10
241.0764577767
 20
454.6643832301
 30
0.0
 40
0.5000000000000004
100
AcDbArc
 50
0.0
 51
90.0
  0
ARC
  5
E6
330
90
100
AcDbEntity
  8
410364040_ESCUTC
  6
Continuous
 62
     7
100
AcDbCircle
 10
241.0764577767
 20
285.6643832301
 30
0.0
 40
0.5000000000000004
100
AcDbArc
 50
270.0
 51
0.0
  0
ARC
  5
E7
330
90
100
AcDbEntity
  8
410364040_ESCUTC
  6
Continuous
 62
     7
100
AcDbCircle
 10
242.0764577767
 20
449.6643832301
 30
0.0
 40
0.5000000000000004
100
AcDbArc
 50
180.0
 51
270.0
  0
ARC
  5
E8
330
90
100
AcDbEntity
  8
410364040_ESCUTC
  6
Continuous
 62
     7
100
AcDbCircle
 10
242.0764577767
 20
290.6643832301
 30
0.0
 40
0.4999999999999996
100
AcDbArc
 50
90.0
 51
180.0
  0
LINE
  5
E9
330
90
100
AcDbEntity
  8
410364040_ESCUTC
  6
Continuous
 62
     7
100
AcDbLine
 10
241.0764577767
 20
455.1643832301
 30
0.0
 11
236.0764577767
 21
455.1643832301
 31
0.0
  0
LINE
  5
EA
330
90
100
AcDbEntity
  8
410364040_ESCUTC
  6
Continuous
 62
     7
100
AcDbLine
 10
238.4764577767
 20
285.1643832301
 30
0.0
 11
241.0764577767
 21
285.1643832301
 31
0.0
  0
ARC
  5
EB
330
90
100
AcDbEntity
  8
410364040_ESCUTC
  6
Continuous
 62
     7
100
AcDbCircle
 10
236.0764577767
 20
454.6643832301
 30
0.0
 40
0.5000000000000004
100
AcDbArc
 50
90.0
 51
180.0
  0
ARC
  5
EC
330
90
100
AcDbEntity
  8
410364040_ESCUTC
  6
Continuous
 62
     7
100
AcDbCircle
 10
236.0764577767
 20
285.9147541508
 30
0.0
 40
0.5
100
AcDbArc
 50
180.0
 51
270.0
  0
LINE
  5
ED
330
90
100
AcDbEntity
  8
410364040_ESCUTC
  6
Continuous
 62
     7
100
AcDbLine
 10
236.0764577767
 20
285.4147541508
 30
0.0
 11
236.9764577767
 21
285.4147541508
 31
0.0
  0
SPLINE
  5
EE
330
90
100
AcDbEntity
  8
410364040_ESCUTC
  6
Continuous
 62
     7
100
AcDbSpline
210
0.0
220
0.0
230
1.0
 70
     8
 71
     3
 72
    14
 73
    10
 74
     0
 42
0.0000000052568392
 43
0.0000000001
 40
0.0
 40
0.0
 40
0.0
 40
0.0
 40
0.051647219026735
 40
0.2066995941950819
 40
0.3610570525863891
 40
0.5139137320855983
 40
0.6332098194298953
 40
0.6988071976936333
 40
0.7019511030922096
 40
0.7019511030922096
 40
0.7019511030922096
 40
0.7019511030922096
 10
236.9765431536415
 20
285.4137347434032
 30
0.0
 10
237.0273113011435
 20
285.414058775217
 30
0.0
 10
237.2018063970929
 20
285.4150794680746
 30
0.0
 10
237.5298500034611
 20
285.4077066145098
 30
0.0
 10
237.8873752789887
 20
285.3924403036279
 30
0.0
 10
238.1470632399389
 20
285.3727875844839
 30
0.0
 10
238.2790889009297
 20
285.3561869694401
 30
0.0
 10
238.3085058219707
 20
285.3502457534316
 30
0.0
 10
238.3090239294253
 20
285.350048408971
 30
0.0
 10
238.3090252111456
 20
285.3500442430181
 30
0.0
  0
SPLINE
  5
EF
330
90
100
AcDbEntity
  8
410364040_ESCUTC
  6
Continuous
 62
     7
100
AcDbSpline
210
0.0
220
0.0
230
1.0
 70
     8
 71
     3
 72
    13
 73
     9
 74
     0
 42
0.0000000039744275
 43
0.0000000001
 40
0.7759635079242259
 40
0.7759635079242259
 40
0.7759635079242259
 40
0.7759635079242259
 40
0.7800629497928508
 40
0.8160012592877253
 40
0.8685534993306161
 40
0.9311765251904572
 40
0.9991269845562538
 40
1.0
 40
1.0
 40
1.0
 40
1.0
 10
238.2598447321225
 20
285.3676327774385
 30
0.0
 10
238.2579024045132
 20
285.3684943221697
 30
0.0
 10
238.2383900501981
 20
285.37733326086
 30
0.0
 10
238.1812519360784
 20
285.4079112792087
 30
0.0
 10
238.0828325728534
 20
285.4929579796529
 30
0.0
 10
238.0041950243677
 20
285.630187837752
 30
0.0
 10
237.9659680154707
 20
285.7529767070641
 30
0.0
 10
237.9767445838605
 20
285.8096169197779
 30
0.0
 10
237.9769030737642
 20
285.8104489903383
 30
0.0
  0
ARC
  5
F0
330
90
100
AcDbEntity
  8
410364040_ESCUTC
  6
Continuous
 62
     7
100
AcDbCircle
 10
238.4764577767
 20
285.6643832301
 30
0.0
 40
0.4999999999999996
100
AcDbArc
 50
215.9993721326
 51
270.0
  0
LINE
  5
F2
330
90
100
AcDbEntity
  8
410228031_BEARIN
  6
Continuous
 62
     7
100
AcDbLine
 10
265.1883077715
 20
338.6143832301
 30
0.0
 11
265.1883077715
 21
401.7143832301
 31
0.0
  0
LINE
  5
F3
330
90
100
AcDbEntity
  8
410228031_BEARIN
  6
Continuous
 62
     7
100
AcDbLine
 10
264.5883077715
 20
338.6143832301
 30
0.0
 11
265.1883077715
 21
338.6143832301
 31
0.0
  0
LINE
  5
F4
330
90
100
AcDbEntity
  8
410228031_BEARIN
  6
Continuous
 62
     7
100
AcDbLine
 10
265.1883077715
 20
401.7143832301
 30
0.0
 11
264.5883077715
 21
401.7143832301
 31
0.0
  0
LINE
  5
F6
330
90
100
AcDbEntity
  8
DV2_Standard
  6
CENTER2
 62
     7
100
AcDbLine
 10
255.5764573296
 20
370.2895686905
 30
0.0
 11
215.5764582237
 21
370.2895686905
 31
0.0
  0
LINE
  5
F7
330
90
100
AcDbEntity
  8
DV2_Standard
  6
CENTER2
 62
     7
100
AcDbLine
 10
235.5764577767
 20
390.2895682434
 30
0.0
 11
235.5764577767
 21
350.2895691375
 31
0.0
  0
ENDBLK
  5
F9
330
90
100
AcDbEntity
  8
0
100
AcDbBlockEnd
  0
BLOCK
  5
13E
330
FA
100
AcDbEntity
  8
0
100
AcDbBlockBegin
  2
SE2
 70
     0
 10
0.0
 20
0.0
 30
0.0
  3
SE2
  1

  0
LINE
  5
FC
330
FA
100
AcDbEntity
  8
410064038_SLEEVE
  6
Continuous
 62
     7
100
AcDbLine
 10
123.2
 20
190.15
 30
0.0
 11
123.2
 21
207.4487602401
 31
0.0
  0
LINE
  5
FD
330
FA
100
AcDbEntity
  8
410064038_SLEEVE
  6
Continuous
 62
     7
100
AcDbLine
 10
59.7
 20
207.4487602401
 30
0.0
 11
59.7
 21
190.15
 31
0.0
  0
LINE
  5
FE
330
FA
100
AcDbEntity
  8
410306038_DIVERT
  6
Continuous
 62
     7
100
AcDbLine
 10
122.5472607745
 20
189.05
 30
0.0
 11
60.3527392255
 21
189.05
 31
0.0
  0
LINE
  5
FF
330
FA
100
AcDbEntity
  8
410306038_DIVERT
  6
Continuous
 62
     7
100
AcDbLine
 10
60.2043824731
 20
171.05
 30
0.0
 11
122.6956175269
 21
171.05
 31
0.0
  0
LINE
  5
100
330
FA
100
AcDbEntity
  8
410306038_DIVERT
  6
Continuous
 62
     7
100
AcDbLine
 10
123.1955984884
 20
171.5543632677
 30
0.0
 11
123.047241736
 21
188.5543632677
 31
0.0
  0
LINE
  5
101
330
FA
100
AcDbEntity
  8
410306038_DIVERT
  6
Continuous
 62
     7
100
AcDbLine
 10
59.852758264
 20
188.5543632677
 30
0.0
 11
59.7044015116
 21
171.5543632677
 31
0.0
  0
LINE
  5
102
330
FA
100
AcDbEntity
  8
410306038_DIVERT
  6
Continuous
 62
     7
100
AcDbLine
 10
121.4482698575
 20
189.2482546929
 30
0.0
 11
121.4456365661
 21
189.55
 31
0.0
  0
LINE
  5
103
330
FA
100
AcDbEntity
  8
410306038_DIVERT
  6
Continuous
 62
     7
100
AcDbLine
 10
61.4543634339
 20
189.55
 30
0.0
 11
61.4517301425
 21
189.2482546929
 31
0.0
  0
ARC
  5
104
330
FA
100
AcDbEntity
  8
410306038_DIVERT
  6
Continuous
 62
     7
100
AcDbCircle
 10
121.6482622421
 20
189.25
 30
0.0
 40
0.1999999999999988
100
AcDbArc
 50
180.5
 51
270.0
  0
ARC
  5
105
330
FA
100
AcDbEntity
  8
410306038_DIVERT
  6
Continuous
 62
     7
100
AcDbCircle
 10
61.2517377579
 20
189.25
 30
0.0
 40
0.2000000000000034
100
AcDbArc
 50
270.0
 51
359.5
  0
ARC
  5
106
330
FA
100
AcDbEntity
  8
410306038_DIVERT
  6
Continuous
 62
     7
100
AcDbCircle
 10
122.5472607745
 20
188.55
 30
0.0
 40
0.5000000000000014
100
AcDbArc
 50
0.5
 51
90.0
  0
ARC
  5
107
330
FA
100
AcDbEntity
  8
410306038_DIVERT
  6
Continuous
 62
     7
100
AcDbCircle
 10
60.3527392255
 20
188.55
 30
0.0
 40
0.5000000000000004
100
AcDbArc
 50
90.0
 51
179.5
  0
ARC
  5
108
330
FA
100
AcDbEntity
  8
410306038_DIVERT
  6
Continuous
 62
     7
100
AcDbCircle
 10
122.6956175269
 20
171.55
 30
0.0
 40
0.5000000000000004
100
AcDbArc
 50
270.0
 51
0.5
  0
ARC
  5
109
330
FA
100
AcDbEntity
  8
410306038_DIVERT
  6
Continuous
 62
     7
100
AcDbCircle
 10
60.2043824731
 20
171.55
 30
0.0
 40
0.5000000000000003
100
AcDbArc
 50
179.5
 51
270.0
  0
LINE
  5
10A
330
FA
100
AcDbEntity
  8
410319038_HANDLE
  6
Continuous
 62
     7
100
AcDbLine
 10
68.95
 20
132.85
 30
0.0
 11
113.95
 21
132.85
 31
0.0
  0
LINE
  5
10B
330
FA
100
AcDbEntity
  8
410319038_HANDLE
  6
Continuous
 62
     7
100
AcDbLine
 10
60.2
 20
140.85
 30
0.0
 11
122.7
 21
140.85
 31
0.0
  0
LINE
  5
10C
330
FA
100
AcDbEntity
  8
410319038_HANDLE
  6
Continuous
 62
     7
100
AcDbLine
 10
123.0
 20
170.55
 30
0.0
 11
59.9
 21
170.55
 31
0.0
  0
CIRCLE
  5
10D
330
FA
100
AcDbEntity
  8
410319038_HANDLE
  6
Continuous
 62
     7
100
AcDbCircle
 10
91.45
 20
158.05
 30
0.0
 40
6.200000000000001
  0
LINE
  5
10E
330
FA
100
AcDbEntity
  8
410319038_HANDLE
  6
Continuous
 62
     7
100
AcDbLine
 10
120.65
 20
170.75
 30
0.0
 11
120.65
 21
171.05
 31
0.0
  0
LINE
  5
10F
330
FA
100
AcDbEntity
  8
410319038_HANDLE
  6
Continuous
 62
     7
100
AcDbLine
 10
62.25
 20
171.05
 30
0.0
 11
62.25
 21
170.75
 31
0.0
  0
LINE
  5
110
330
FA
100
AcDbEntity
  8
410319038_HANDLE
  6
Continuous
 62
     7
100
AcDbLine
 10
114.45
 20
133.35
 30
0.0
 11
114.45
 21
140.35
 31
0.0
  0
LINE
  5
111
330
FA
100
AcDbEntity
  8
410319038_HANDLE
  6
Continuous
 62
     7
100
AcDbLine
 10
68.45
 20
140.35
 30
0.0
 11
68.45
 21
133.35
 31
0.0
  0
ARC
  5
112
330
FA
100
AcDbEntity
  8
410319038_HANDLE
  6
Continuous
 62
     7
100
AcDbCircle
 10
68.95
 20
133.35
 30
0.0
 40
0.5000000000000004
100
AcDbArc
 50
180.0
 51
270.0
  0
ARC
  5
113
330
FA
100
AcDbEntity
  8
410319038_HANDLE
  6
Continuous
 62
     7
100
AcDbCircle
 10
113.95
 20
133.35
 30
0.0
 40
0.5000000000000004
100
AcDbArc
 50
270.0
 51
0.0
  0
ARC
  5
114
330
FA
100
AcDbEntity
  8
410319038_HANDLE
  6
Continuous
 62
     7
100
AcDbCircle
 10
60.2
 20
141.35
 30
0.0
 40
0.5000000000000004
100
AcDbArc
 50
180.0
 51
270.0
  0
ARC
  5
115
330
FA
100
AcDbEntity
  8
410319038_HANDLE
  6
Continuous
 62
     7
100
AcDbCircle
 10
122.7
 20
141.35
 30
0.0
 40
0.5000000000000004
100
AcDbArc
 50
270.0
 51
0.0
  0
ARC
  5
116
330
FA
100
AcDbEntity
  8
410319038_HANDLE
  6
Continuous
 62
     7
100
AcDbCircle
 10
67.95
 20
140.35
 30
0.0
 40
0.5000000000000004
100
AcDbArc
 50
0.0
 51
90.0
  0
ARC
  5
117
330
FA
100
AcDbEntity
  8
410319038_HANDLE
  6
Continuous
 62
     7
100
AcDbCircle
 10
114.95
 20
140.35
 30
0.0
 40
0.5000000000000004
100
AcDbArc
 50
90.0
 51
180.0
  0
ARC
  5
118
330
FA
100
AcDbEntity
  8
410319038_HANDLE
  6
Continuous
 62
     7
100
AcDbCircle
 10
123.0
 20
170.35
 30
0.0
 40
0.2000000000000057
100
AcDbArc
 50
0.0
 51
90.0
  0
ARC
  5
119
330
FA
100
AcDbEntity
  8
410319038_HANDLE
  6
Continuous
 62
     7
100
AcDbCircle
 10
59.9
 20
170.35
 30
0.0
 40
0.1999999999999988
100
AcDbArc
 50
90.0
 51
180.0
  0
LINE
  5
11A
330
FA
100
AcDbEntity
  8
410319038_HANDLE
  6
Continuous
 62
     7
100
AcDbLine
 10
123.2
 20
141.35
 30
0.0
 11
123.2
 21
170.35
 31
0.0
  0
LINE
  5
11B
330
FA
100
AcDbEntity
  8
410319038_HANDLE
  6
Continuous
 62
     7
100
AcDbLine
 10
59.7
 20
170.35
 30
0.0
 11
59.7
 21
141.35
 31
0.0
  0
ARC
  5
11C
330
FA
100
AcDbEntity
  8
410319038_HANDLE
  6
Continuous
 62
     7
100
AcDbCircle
 10
120.85
 20
170.75
 30
0.0
 40
0.1999999999999988
100
AcDbArc
 50
180.0
 51
270.0
  0
ARC
  5
11D
330
FA
100
AcDbEntity
  8
410319038_HANDLE
  6
Continuous
 62
     7
100
AcDbCircle
 10
62.05
 20
170.75
 30
0.0
 40
0.1999999999999988
100
AcDbArc
 50
270.0
 51
0.0
  0
LINE
  5
11E
330
FA
100
AcDbEntity
  8
11218038_GRIFF__
  6
Continuous
 62
     7
100
AcDbLine
 10
85.45
 20
112.35
 30
0.0
 11
80.95
 21
112.35
 31
0.0
  0
LINE
  5
11F
330
FA
100
AcDbEntity
  8
11218038_GRIFF__
  6
Continuous
 62
     7
100
AcDbLine
 10
97.45
 20
112.35
 30
0.0
 11
101.95
 21
112.35
 31
0.0
  0
CIRCLE
  5
120
330
FA
100
AcDbEntity
  8
11218038_GRIFF__
  6
Continuous
 62
     7
100
AcDbCircle
 10
91.45
 20
112.35
 30
0.0
 40
5.999999999999999
  0
ARC
  5
121
330
FA
100
AcDbEntity
  8
11218038_GRIFF__
  6
Continuous
 62
     7
100
AcDbCircle
 10
70.0863778288
 20
117.3500000149
 30
0.0
 40
10.61577432116657
100
AcDbArc
 50
347.4871486534
 51
12.5128584701
  0
LINE
  5
122
330
FA
100
AcDbEntity
  8
11218038_GRIFF__
  6
Continuous
 62
     7
100
AcDbLine
 10
80.45
 20
115.0504966507
 30
0.0
 11
80.45
 21
112.85
 31
0.0
  0
LINE
  5
123
330
FA
100
AcDbEntity
  8
11218038_GRIFF__
  6
Continuous
 62
     7
100
AcDbLine
 10
80.45
 20
132.85
 30
0.0
 11
80.45
 21
119.65
 31
0.0
  0
LINE
  5
124
330
FA
100
AcDbEntity
  8
11218038_GRIFF__
  6
Continuous
 62
     7
100
AcDbLine
 10
102.45
 20
112.85
 30
0.0
 11
102.45
 21
132.85
 31
0.0
  0
ARC
  5
125
330
FA
100
AcDbEntity
  8
11218038_GRIFF__
  6
Continuous
 62
     7
100
AcDbCircle
 10
80.95
 20
112.85
 30
0.0
 40
0.5000000000000004
100
AcDbArc
 50
180.0
 51
270.0
  0
ARC
  5
126
330
FA
100
AcDbEntity
  8
11218038_GRIFF__
  6
Continuous
 62
     7
100
AcDbCircle
 10
101.95
 20
112.85
 30
0.0
 40
0.5000000000000004
100
AcDbArc
 50
270.0
 51
0.0
  0
LINE
  5
127
330
FA
100
AcDbEntity
  8
410364040_ESCUTC
  6
Continuous
 62
     7
100
AcDbLine
 10
6.95
 20
213.1618499948
 30
0.0
 11
175.95
 21
213.1618499948
 31
0.0
  0
LINE
  5
128
330
FA
100
AcDbEntity
  8
410364040_ESCUTC
  6
Continuous
 62
     7
100
AcDbLine
 10
6.95
 20
219.1618499948
 30
0.0
 11
175.95
 21
219.1618499948
 31
0.0
  0
LINE
  5
129
330
FA
100
AcDbEntity
  8
410364040_ESCUTC
  6
Continuous
 62
     7
100
AcDbLine
 10
170.45
 20
209.3679966494
 30
0.0
 11
170.45
 21
212.6618499948
 31
0.0
  0
LINE
  5
12A
330
FA
100
AcDbEntity
  8
410364040_ESCUTC
  6
Continuous
 62
     7
100
AcDbLine
 10
12.45
 20
212.6618499948
 30
0.0
 11
12.45
 21
209.3679966494
 31
0.0
  0
ARC
  5
12B
330
FA
100
AcDbEntity
  8
410364040_ESCUTC
  6
Continuous
 62
     7
100
AcDbCircle
 10
91.4499999999
 20
2014.4118499946
 30
0.0
 40
1807.249999999848
100
AcDbArc
 50
267.5098187432
 51
268.978986886
  0
ARC
  5
12C
330
FA
100
AcDbEntity
  8
410364040_ESCUTC
  6
Continuous
 62
     7
100
AcDbCircle
 10
91.4499999999
 20
2014.4118499946
 30
0.0
 40
1807.249999999849
100
AcDbArc
 50
271.021013114
 51
272.4901812568
  0
LINE
  5
12D
330
FA
100
AcDbEntity
  8
410364040_ESCUTC
  6
Continuous
 62
     7
100
AcDbLine
 10
59.25
 20
207.4487602401
 30
0.0
 11
123.65
 21
207.4487602401
 31
0.0
  0
ARC
  5
12E
330
FA
100
AcDbEntity
  8
410364040_ESCUTC
  6
Continuous
 62
     7
100
AcDbCircle
 10
12.95
 20
209.3679966494
 30
0.0
 40
0.5000000000000004
100
AcDbArc
 50
180.0
 51
267.5098187397
  0
ARC
  5
12F
330
FA
100
AcDbEntity
  8
410364040_ESCUTC
  6
Continuous
 62
     7
100
AcDbCircle
 10
169.95
 20
209.3679966494
 30
0.0
 40
0.4999999999986559
100
AcDbArc
 50
272.4901812545
 51
0.0
  0
ARC
  5
130
330
FA
100
AcDbEntity
  8
410364040_ESCUTC
  6
Continuous
 62
     7
100
AcDbCircle
 10
175.95
 20
213.6618499948
 30
0.0
 40
0.5000000000000004
100
AcDbArc
 50
270.0
 51
0.0
  0
ARC
  5
131
330
FA
100
AcDbEntity
  8
410364040_ESCUTC
  6
Continuous
 62
     7
100
AcDbCircle
 10
6.95
 20
213.6618499948
 30
0.0
 40
0.5000000000000004
100
AcDbArc
 50
180.0
 51
270.0
  0
ARC
  5
132
330
FA
100
AcDbEntity
  8
410364040_ESCUTC
  6
Continuous
 62
     7
100
AcDbCircle
 10
170.95
 20
212.6618499948
 30
0.0
 40
0.5000000000000004
100
AcDbArc
 50
90.0
 51
180.0
  0
ARC
  5
133
330
FA
100
AcDbEntity
  8
410364040_ESCUTC
  6
Continuous
 62
     7
100
AcDbCircle
 10
11.95
 20
212.6618499948
 30
0.0
 40
0.4999999999999996
100
AcDbArc
 50
0.0
 51
90.0
  0
LINE
  5
134
330
FA
100
AcDbEntity
  8
410364040_ESCUTC
  6
Continuous
 62
     7
100
AcDbLine
 10
176.45
 20
213.6618499948
 30
0.0
 11
176.45
 21
218.6618499948
 31
0.0
  0
LINE
  5
135
330
FA
100
AcDbEntity
  8
410364040_ESCUTC
  6
Continuous
 62
     7
100
AcDbLine
 10
6.45
 20
218.6618499948
 30
0.0
 11
6.45
 21
213.6618499948
 31
0.0
  0
ARC
  5
136
330
FA
100
AcDbEntity
  8
410364040_ESCUTC
  6
Continuous
 62
     7
100
AcDbCircle
 10
6.95
 20
218.6618499948
 30
0.0
 40
0.5000000000000002
100
AcDbArc
 50
90.0
 51
180.0
  0
ARC
  5
137
330
FA
100
AcDbEntity
  8
410364040_ESCUTC
  6
Continuous
 62
     7
100
AcDbCircle
 10
175.95
 20
218.6618499948
 30
0.0
 40
0.5000000000000004
100
AcDbArc
 50
0.0
 51
90.0
  0
LINE
  5
138
330
FA
100
AcDbEntity
  8
410228031_BEARIN
  6
Continuous
 62
     7
100
AcDbLine
 10
59.9
 20
189.55
 30
0.0
 11
123.0
 21
189.55
 31
0.0
  0
LINE
  5
139
330
FA
100
AcDbEntity
  8
410228031_BEARIN
  6
Continuous
 62
     7
100
AcDbLine
 10
59.9
 20
190.15
 30
0.0
 11
59.9
 21
189.55
 31
0.0
  0
LINE
  5
13A
330
FA
100
AcDbEntity
  8
410228031_BEARIN
  6
Continuous
 62
     7
100
AcDbLine
 10
123.0
 20
189.55
 30
0.0
 11
123.0
 21
190.15
 31
0.0
  0
LINE
  5
13C
330
FA
100
AcDbEntity
  8
DV3_Standard
  6
CENTER2
 62
     7
100
AcDbLine
 10
111.449999553
 20
219.1618499948
 30
0.0
 11
71.450000447
 21
219.1618499948
 31
0.0
  0
LINE
  5
13D
330
FA
100
AcDbEntity
  8
DV3_Standard
  6
CENTER2
 62
     7
100
AcDbLine
 10
91.45
 20
239.1618495478
 30
0.0
 11
91.45
 21
199.1618504418
 31
0.0
  0
ENDBLK
  5
13F
330
FA
100
AcDbEntity
  8
0
100
AcDbBlockEnd
  0
ENDSEC
  0
SECTION
  2
ENTITIES
  0
INSERT
  5
5F
330
1F
100
AcDbEntity
  8
Default
100
AcDbBlockReference
  2
SE
 10
0.0
 20
0.0
 30
0.0
  0
INSERT
  5
91
330
1F
100
AcDbEntity
  8
Default
100
AcDbBlockReference
  2
SE1
 10
0.0
 20
0.0
 30
0.0
  0
INSERT
  5
FB
330
1F
100
AcDbEntity
  8
Default
100
AcDbBlockReference
  2
SE2
 10
0.0
 20
0.0
 30
0.0
  0
TEXT
  5
141
330
1F
100
AcDbEntity
  8
Default
  6
Continuous
 62
     7
100
AcDbText
 10
5.9362635081
 20
53.4225120485
 30
0.0
 40
10.0
  1
Grohe AG^J
  7
SEACAD_seiso_ttf
 11
5.9362635081
 21
63.4225120485
 31
0.0
100
AcDbText
 73
     3
  0
TEXT
  5
142
330
1F
100
AcDbEntity
  8
Default
  6
Continuous
 62
     7
100
AcDbText
 10
5.9362635081
 20
37.0588756849
 30
0.0
 40
10.0
  1
 
  7
SEACAD_seiso_ttf
 11
5.9362635081
 21
47.0588756849
 31
0.0
100
AcDbText
 73
     3
  0
TEXT
  5
143
330
1F
100
AcDbEntity
  8
Default
  6
Continuous
 62
     7
100
AcDbText
 10
5.9362635081
 20
20.6952393213
 30
0.0
 40
10.0
  1
ecn: 
  7
SEACAD_seiso_ttf
 11
5.9362635081
 21
30.6952393213
 31
0.0
100
AcDbText
 73
     3
  0
TEXT
  5
144
330
1F
100
AcDbEntity
  8
Default
  6
Continuous
 62
     7
100
AcDbText
 10
5.9362635081
 20
4.3316029576
 30
0.0
 40
10.0
  1
unit: mm
  7
SEACAD_seiso_ttf
 11
5.9362635081
 21
14.3316029576
 31
0.0
100
AcDbText
 73
     3
  0
LINE
  5
145
330
1F
100
AcDbEntity
  8
Default
  6
Continuous
 62
     7
100
AcDbLine
 10
0.0
 20
0.0
 30
0.0
 11
100.0
 21
0.0
 31
0.0
  0
LINE
  5
146
330
1F
100
AcDbEntity
  8
Default
  6
Continuous
 62
     7
100
AcDbLine
 10
0.0
 20
0.0
 30
0.0
 11
0.0
 21
100.0
 31
0.0
  0
TEXT
  5
147
330
1F
100
AcDbEntity
  8
Default
  6
Continuous
 62
     7
100
AcDbText
 10
24.3923665681
 20
-18.2375342018
 30
0.0
 40
10.0
  1
100 mm
  7
SEACAD_seiso_ttf
 11
24.3923665681
 21
-8.2375342018
 31
0.0
100
AcDbText
 73
     3
  0
TEXT
  5
148
330
1F
100
AcDbEntity
  8
Default
  6
Continuous
 62
     7
100
AcDbText
 10
-7.6150308803
 20
24.6231930421
 30
0.0
 40
10.0
  1
100 mm
 50
90.0
  7
SEACAD_seiso_ttf
 11
-17.6150308803
 21
24.6231930421
 31
0.0
100
AcDbText
 73
     3
  0
TEXT
  5
149
330
1F
100
AcDbEntity
  8
Default
  6
Continuous
 62
     7
100
AcDbText
 10
28.4878128572
 20
20.0907663715
 30
0.0
 40
10.0
  1
219326
  7
SEACAD_seiso_ttf
 11
28.4878128572
 21
30.0907663715
 31
0.0
100
AcDbText
 73
     3
  0
TEXT
  5
14A
330
1F
100
AcDbEntity
  8
Default
  6
Continuous
 62
     7
100
AcDbText
 10
5.9012241913
 20
36.7242780188
 30
0.0
 40
10.0
  1
19848000
  7
SEACAD_seiso_ttf
 11
5.9012241913
 21
46.7242780188
 31
0.0
100
AcDbText
 73
     3
  0
ENDSEC
  0
SECTION
  2
OBJECTS
  0
DICTIONARY
  5
C
330
0
100
AcDbDictionary
281
     1
  3
ACAD_GROUP
350
D
  3
ACAD_LAYOUT
350
1A
  3
ACAD_MLEADERSTYLE
350
14E
  3
ACAD_MLINESTYLE
350
17
  3
ACAD_PLOTSETTINGS
350
19
  3
ACAD_PLOTSTYLENAME
350
E
  3
ACAD_SCALELIST
350
3B
  3
ACAD_TABLESTYLE
350
14D
  3
ACAD_VISUALSTYLE
350
2A
  3
AcDbVariableDictionary
350
14B
  0
DICTIONARY
  5
D
102
{ACAD_REACTORS
330
C
102
}
330
C
100
AcDbDictionary
281
     1
  0
DICTIONARY
  5
1A
102
{ACAD_REACTORS
330
C
102
}
330
C
100
AcDbDictionary
281
     1
  3
Layout1
350
1E
  3
Model
350
22
  0
DICTIONARY
  5
14E
102
{ACAD_REACTORS
330
C
102
}
330
C
100
AcDbDictionary
281
     1
  0
DICTIONARY
  5
17
102
{ACAD_REACTORS
330
C
102
}
330
C
100
AcDbDictionary
281
     1
  3
Standard
350
18
  0
DICTIONARY
  5
19
102
{ACAD_REACTORS
330
C
102
}
330
C
100
AcDbDictionary
281
     1
  0
ACDBDICTIONARYWDFLT
  5
E
102
{ACAD_REACTORS
330
C
102
}
330
C
100
AcDbDictionary
281
     1
  3
Normal
350
F
100
AcDbDictionaryWithDefault
340
F
  0
DICTIONARY
  5
3B
102
{ACAD_REACTORS
330
C
102
}
330
C
100
AcDbDictionary
281
     1
  3
A0
350
3C
  3
A1
350
3D
  3
A2
350
3E
  3
A3
350
3F
  3
A4
350
40
  3
A5
350
41
  3
A6
350
42
  3
A7
350
43
  3
A8
350
44
  3
A9
350
45
  3
B0
350
46
  3
B1
350
47
  3
B2
350
48
  3
B3
350
49
  3
B4
350
4A
  3
B5
350
4B
  3
B6
350
4C
  3
B7
350
4D
  3
B8
350
4E
  3
B9
350
4F
  3
C0
350
50
  3
C1
350
51
  3
C2
350
52
  3
C3
350
53
  3
C4
350
54
  3
C5
350
55
  3
C6
350
56
  3
C7
350
57
  3
C8
350
58
  3
C9
350
59
  3
D0
350
5A
  3
D1
350
5B
  3
D2
350
5C
  0
DICTIONARY
  5
14D
102
{ACAD_REACTORS
330
C
102
}
330
C
100
AcDbDictionary
281
     1
  0
DICTIONARY
  5
2A
102
{ACAD_REACTORS
330
C
102
}
330
C
100
AcDbDictionary
281
     1
  3
2dWireframe
350
2F
  3
3D Hidden
350
31
  3
3dWireframe
350
30
  3
Basic
350
32
  3
Brighten
350
36
  3
ColorChange
350
3A
  3
Conceptual
350
34
  3
Dim
350
35
  3
Facepattern
350
39
  3
Flat
350
2B
  3
FlatWithEdges
350
2C
  3
Gouraud
350
2D
  3
GouraudWithEdges
350
2E
  3
Linepattern
350
38
  3
Realistic
350
33
  3
Thicken
350
37
  0
DICTIONARY
  5
14B
102
{ACAD_REACTORS
330
C
102
}
330
C
100
AcDbDictionary
281
     1
  3
CANNOSCALE
350
14C
  3
PSOLHEIGHT
350
150
  3
PSOLWIDTH
350
14F
  0
LAYOUT
  5
1E
102
{ACAD_REACTORS
330
1A
102
}
330
1A
100
AcDbPlotSettings
  1

  2
none_device
  4

  6

 40
0.0
 41
0.0
 42
0.0
 43
0.0
 44
0.0
 45
0.0
 46
0.0
 47
0.0
 48
0.0
 49
0.0
140
0.0
141
0.0
142
1.0
143
1.0
 70
   688
 72
     0
 73
     0
 74
     5
  7

 75
    16
147
1.0
148
0.0
149
0.0
100
AcDbLayout
  1
Layout1
 70
     1
 71
     1
 10
0.0
 20
0.0
 11
1682.0
 21
2378.0
 12
0.0
 22
0.0
 32
0.0
 14
0.0
 24
0.0
 34
0.0
 15
1682.0
 25
2378.0
 35
0.0
146
0.0
 13
0.0
 23
0.0
 33
0.0
 16
1.0
 26
0.0
 36
0.0
 17
0.0
 27
1.0
 37
0.0
 76
     0
330
1B
  0
LAYOUT
  5
22
102
{ACAD_REACTORS
330
1A
102
}
330
1A
100
AcDbPlotSettings
  1

  2
none_device
  4

  6

 40
0.0
 41
0.0
 42
0.0
 43
0.0
 44
0.0
 45
0.0
 46
0.0
 47
0.0
 48
0.0
 49
0.0
140
0.0
141
0.0
142
1.0
143
1.0
 70
  1712
 72
     0
 73
     0
 74
     0
  7

 75
     0
147
1.0
148
0.0
149
0.0
100
AcDbLayout
  1
Model
 70
     1
 71
     0
 10
0.0
 20
0.0
 11
1682.0
 21
2378.0
 12
0.0
 22
0.0
 32
0.0
 14
0.0
 24
0.0
 34
0.0
 15
1682.0
 25
2378.0
 35
0.0
146
0.0
 13
0.0
 23
0.0
 33
0.0
 16
1.0
 26
0.0
 36
0.0
 17
0.0
 27
1.0
 37
0.0
 76
     0
330
1F
331
29
  0
MLINESTYLE
  5
18
102
{ACAD_REACTORS
330
17
102
}
330
17
100
AcDbMlineStyle
  2
Standard
 70
     0
  3

 62
   256
 51
90.0
 52
90.0
 71
     2
 49
0.5
 62
   256
  6
BYLAYER
 49
-0.5
 62
   256
  6
BYLAYER
  0
ACDBPLACEHOLDER
  5
F
102
{ACAD_REACTORS
330
E
102
}
330
E
  0
SCALE
  5
3C
102
{ACAD_REACTORS
330
3B
102
}
330
3B
100
AcDbScale
 70
     0
300
1:1
140
1.0
141
1.0
290
     1
  0
SCALE
  5
3D
102
{ACAD_REACTORS
330
3B
102
}
330
3B
100
AcDbScale
 70
     0
300
1:2
140
1.0
141
2.0
290
     0
  0
SCALE
  5
3E
102
{ACAD_REACTORS
330
3B
102
}
330
3B
100
AcDbScale
 70
     0
300
1:4
140
1.0
141
4.0
290
     0
  0
SCALE
  5
3F
102
{ACAD_REACTORS
330
3B
102
}
330
3B
100
AcDbScale
 70
     0
300
1:5
140
1.0
141
5.0
290
     0
  0
SCALE
  5
40
102
{ACAD_REACTORS
330
3B
102
}
330
3B
100
AcDbScale
 70
     0
300
1:8
140
1.0
141
8.0
290
     0
  0
SCALE
  5
41
102
{ACAD_REACTORS
330
3B
102
}
330
3B
100
AcDbScale
 70
     0
300
1:10
140
1.0
141
10.0
290
     0
  0
SCALE
  5
42
102
{ACAD_REACTORS
330
3B
102
}
330
3B
100
AcDbScale
 70
     0
300
1:16
140
1.0
141
16.0
290
     0
  0
SCALE
  5
43
102
{ACAD_REACTORS
330
3B
102
}
330
3B
100
AcDbScale
 70
     0
300
1:20
140
1.0
141
20.0
290
     0
  0
SCALE
  5
44
102
{ACAD_REACTORS
330
3B
102
}
330
3B
100
AcDbScale
 70
     0
300
1:30
140
1.0
141
30.0
290
     0
  0
SCALE
  5
45
102
{ACAD_REACTORS
330
3B
102
}
330
3B
100
AcDbScale
 70
     0
300
1:40
140
1.0
141
40.0
290
     0
  0
SCALE
  5
46
102
{ACAD_REACTORS
330
3B
102
}
330
3B
100
AcDbScale
 70
     0
300
1:50
140
1.0
141
50.0
290
     0
  0
SCALE
  5
47
102
{ACAD_REACTORS
330
3B
102
}
330
3B
100
AcDbScale
 70
     0
300
1:100
140
1.0
141
100.0
290
     0
  0
SCALE
  5
48
102
{ACAD_REACTORS
330
3B
102
}
330
3B
100
AcDbScale
 70
     0
300
2:1
140
2.0
141
1.0
290
     0
  0
SCALE
  5
49
102
{ACAD_REACTORS
330
3B
102
}
330
3B
100
AcDbScale
 70
     0
300
4:1
140
4.0
141
1.0
290
     0
  0
SCALE
  5
4A
102
{ACAD_REACTORS
330
3B
102
}
330
3B
100
AcDbScale
 70
     0
300
8:1
140
8.0
141
1.0
290
     0
  0
SCALE
  5
4B
102
{ACAD_REACTORS
330
3B
102
}
330
3B
100
AcDbScale
 70
     0
300
10:1
140
10.0
141
1.0
290
     0
  0
SCALE
  5
4C
102
{ACAD_REACTORS
330
3B
102
}
330
3B
100
AcDbScale
 70
     0
300
100:1
140
100.0
141
1.0
290
     0
  0
SCALE
  5
4D
102
{ACAD_REACTORS
330
3B
102
}
330
3B
100
AcDbScale
 70
     0
300
1/128" = 1'-0"
140
0.0078125
141
12.0
290
     0
  0
SCALE
  5
4E
102
{ACAD_REACTORS
330
3B
102
}
330
3B
100
AcDbScale
 70
     0
300
1/64" = 1'-0"
140
0.015625
141
12.0
290
     0
  0
SCALE
  5
4F
102
{ACAD_REACTORS
330
3B
102
}
330
3B
100
AcDbScale
 70
     0
300
1/32" = 1'-0"
140
0.03125
141
12.0
290
     0
  0
SCALE
  5
50
102
{ACAD_REACTORS
330
3B
102
}
330
3B
100
AcDbScale
 70
     0
300
1/16" = 1'-0"
140
0.0625
141
12.0
290
     0
  0
SCALE
  5
51
102
{ACAD_REACTORS
330
3B
102
}
330
3B
100
AcDbScale
 70
     0
300
3/32" = 1'-0"
140
0.09375
141
12.0
290
     0
  0
SCALE
  5
52
102
{ACAD_REACTORS
330
3B
102
}
330
3B
100
AcDbScale
 70
     0
300
1/8" = 1'-0"
140
0.125
141
12.0
290
     0
  0
SCALE
  5
53
102
{ACAD_REACTORS
330
3B
102
}
330
3B
100
AcDbScale
 70
     0
300
3/16" = 1'-0"
140
0.1875
141
12.0
290
     0
  0
SCALE
  5
54
102
{ACAD_REACTORS
330
3B
102
}
330
3B
100
AcDbScale
 70
     0
300
1/4" = 1'-0"
140
0.25
141
12.0
290
     0
  0
SCALE
  5
55
102
{ACAD_REACTORS
330
3B
102
}
330
3B
100
AcDbScale
 70
     0
300
3/8" = 1'-0"
140
0.375
141
12.0
290
     0
  0
SCALE
  5
56
102
{ACAD_REACTORS
330
3B
102
}
330
3B
100
AcDbScale
 70
     0
300
1/2" = 1'-0"
140
0.5
141
12.0
290
     0
  0
SCALE
  5
57
102
{ACAD_REACTORS
330
3B
102
}
330
3B
100
AcDbScale
 70
     0
300
3/4" = 1'-0"
140
0.75
141
12.0
290
     0
  0
SCALE
  5
58
102
{ACAD_REACTORS
330
3B
102
}
330
3B
100
AcDbScale
 70
     0
300
1" = 1'-0"
140
1.0
141
12.0
290
     0
  0
SCALE
  5
59
102
{ACAD_REACTORS
330
3B
102
}
330
3B
100
AcDbScale
 70
     0
300
1-1/2" = 1'-0"
140
1.5
141
12.0
290
     0
  0
SCALE
  5
5A
102
{ACAD_REACTORS
330
3B
102
}
330
3B
100
AcDbScale
 70
     0
300
3" = 1'-0"
140
3.0
141
12.0
290
     0
  0
SCALE
  5
5B
102
{ACAD_REACTORS
330
3B
102
}
330
3B
100
AcDbScale
 70
     0
300
6" = 1'-0"
140
6.0
141
12.0
290
     0
  0
SCALE
  5
5C
102
{ACAD_REACTORS
330
3B
102
}
330
3B
100
AcDbScale
 70
     0
300
1'-0" = 1'-0"
140
12.0
141
12.0
290
     0
  0
VISUALSTYLE
  5
2F
102
{ACAD_REACTORS
330
2A
102
}
330
2A
100
AcDbVisualStyle
  2
2dWireframe
 70
     4
 71
     0
 72
     2
 73
     0
 90
        0
 40
-0.6
 41
-30.0
 62
     5
 63
     7
 74
     1
 91
        4
 64
     7
 65
   257
 75
     1
175
     1
 42
1.0
 92
        0
 66
   257
 43
1.0
 76
     1
 77
     6
 78
     2
 67
     7
 79
     5
170
     0
171
     0
290
     0
174
     0
 93
        1
 44
0.0
173
     0
291
     0
 45
0.0
1001
ACAD
1000
AcDbSavedByObjectVersion
1070
     0
  0
VISUALSTYLE
  5
31
102
{ACAD_REACTORS
330
2A
102
}
330
2A
100
AcDbVisualStyle
  2
3D Hidden
 70
     6
 71
     1
 72
     2
 73
     2
 90
        0
 40
-0.6
 41
-30.0
 62
     5
 63
     7
 74
     2
 91
        2
 64
     7
 65
   257
 75
     2
175
     1
 42
40.0
 92
        0
 66
   257
 43
1.0
 76
     1
 77
     6
 78
     2
 67
     7
 79
     3
170
     0
171
     0
290
     0
174
     0
 93
        1
 44
0.0
173
     0
291
     0
 45
0.0
1001
ACAD
1000
AcDbSavedByObjectVersion
1070
     0
  0
VISUALSTYLE
  5
30
102
{ACAD_REACTORS
330
2A
102
}
330
2A
100
AcDbVisualStyle
  2
3dWireframe
 70
     5
 71
     0
 72
     2
 73
     0
 90
        0
 40
-0.6
 41
-30.0
 62
     5
 63
     7
 74
     1
 91
        4
 64
     7
 65
   257
 75
     1
175
     1
 42
1.0
 92
        0
 66
   257
 43
1.0
 76
     1
 77
     6
 78
     2
 67
     7
 79
     5
170
     0
171
     0
290
     0
174
     0
 93
        1
 44
0.0
173
     0
291
     0
 45
0.0
1001
ACAD
1000
AcDbSavedByObjectVersion
1070
     0
  0
VISUALSTYLE
  5
32
102
{ACAD_REACTORS
330
2A
102
}
330
2A
100
AcDbVisualStyle
  2
Basic
 70
     7
 71
     1
 72
     0
 73
     1
 90
        0
 40
-0.6
 41
-30.0
 62
     5
 63
     7
 74
     0
 91
        4
 64
     7
 65
   257
 75
     1
175
     1
 42
1.0
 92
        8
 66
     7
 43
1.0
 76
     1
 77
     6
 78
     2
 67
     7
 79
     5
170
     0
171
     0
290
     0
174
     0
 93
        1
 44
0.0
173
     0
291
     1
 45
0.0
1001
ACAD
1000
AcDbSavedByObjectVersion
1070
     0
  0
VISUALSTYLE
  5
36
102
{ACAD_REACTORS
330
2A
102
}
330
2A
100
AcDbVisualStyle
  2
Brighten
 70
    12
 71
     2
 72
     2
 73
     0
 90
        0
 40
-0.6
 41
-30.0
 62
     5
 63
     7
 74
     1
 91
        4
 64
     7
 65
   257
 75
     1
175
     1
 42
1.0
 92
        8
 66
     7
 43
1.0
 76
     1
 77
     6
 78
     2
 67
     7
 79
     5
170
     0
171
     0
290
     0
174
     0
 93
        1
 44
50.0
173
     0
291
     1
 45
0.0
1001
ACAD
1000
AcDbSavedByObjectVersion
1070
     0
  0
VISUALSTYLE
  5
3A
102
{ACAD_REACTORS
330
2A
102
}
330
2A
100
AcDbVisualStyle
  2
ColorChange
 70
    16
 71
     2
 72
     2
 73
     3
 90
        0
 40
-0.6
 41
-30.0
 62
     5
 63
     8
 74
     1
 91
        4
 64
     7
 65
   257
 75
     1
175
     1
 42
1.0
 92
        8
 66
     8
 43
1.0
 76
     1
 77
     6
 78
     2
 67
     7
 79
     5
170
     0
171
     0
290
     0
174
     0
 93
        1
 44
0.0
173
     0
291
     1
 45
0.0
1001
ACAD
1000
AcDbSavedByObjectVersion
1070
     0
  0
VISUALSTYLE
  5
34
102
{ACAD_REACTORS
330
2A
102
}
330
2A
100
AcDbVisualStyle
  2
Conceptual
 70
     9
 71
     3
 72
     2
 73
     0
 90
        0
 40
-0.6
 41
-30.0
 62
     5
 63
     7
 74
     2
 91
        2
 64
     7
 65
   257
 75
     1
175
     1
 42
40.0
 92
        8
 66
     7
 43
1.0
 76
     1
 77
     6
 78
     2
 67
     7
 79
     3
170
     0
171
     0
290
     0
174
     0
 93
        1
 44
0.0
173
     0
291
     0
 45
0.0
1001
ACAD
1000
AcDbSavedByObjectVersion
1070
     0
  0
VISUALSTYLE
  5
35
102
{ACAD_REACTORS
330
2A
102
}
330
2A
100
AcDbVisualStyle
  2
Dim
 70
    11
 71
     2
 72
     2
 73
     0
 90
        0
 40
-0.6
 41
-30.0
 62
     5
 63
     7
 74
     1
 91
        4
 64
     7
 65
   257
 75
     1
175
     1
 42
1.0
 92
        8
 66
     7
 43
1.0
 76
     1
 77
     6
 78
     2
 67
     7
 79
     5
170
     0
171
     0
290
     0
174
     0
 93
        1
 44
-50.0
173
     0
291
     1
 45
0.0
1001
ACAD
1000
AcDbSavedByObjectVersion
1070
     0
  0
VISUALSTYLE
  5
39
102
{ACAD_REACTORS
330
2A
102
}
330
2A
100
AcDbVisualStyle
  2
Facepattern
 70
    15
 71
     2
 72
     2
 73
     0
 90
        0
 40
-0.6
 41
-30.0
 62
     5
 63
     7
 74
     1
 91
        4
 64
     7
 65
   257
 75
     1
175
     1
 42
1.0
 92
        8
 66
     7
 43
1.0
 76
     1
 77
     6
 78
     2
 67
     7
 79
     5
170
     0
171
     0
290
     0
174
     0
 93
        1
 44
0.0
173
     0
291
     1
 45
0.0
1001
ACAD
1000
AcDbSavedByObjectVersion
1070
     0
  0
VISUALSTYLE
  5
2B
102
{ACAD_REACTORS
330
2A
102
}
330
2A
100
AcDbVisualStyle
  2
Flat
 70
     0
 71
     2
 72
     1
 73
     1
 90
        2
 40
-0.6
 41
30.0
 62
     5
 63
     7
 74
     0
 91
        4
 64
     7
 65
   257
 75
     1
175
     1
 42
1.0
 92
        8
 66
     7
 43
1.0
 76
     1
 77
     6
 78
     2
 67
     7
 79
     5
170
     0
171
     0
290
     0
174
     0
 93
       13
 44
0.0
173
     0
291
     1
 45
0.0
1001
ACAD
1000
AcDbSavedByObjectVersion
1070
     0
  0
VISUALSTYLE
  5
2C
102
{ACAD_REACTORS
330
2A
102
}
330
2A
100
AcDbVisualStyle
  2
FlatWithEdges
 70
     1
 71
     2
 72
     1
 73
     1
 90
        2
 40
-0.6
 41
30.0
 62
     5
 63
     7
 74
     1
 91
        4
 64
     7
 65
   257
 75
     1
175
     1
 42
1.0
 92
        0
 66
   257
 43
1.0
 76
     1
 77
     6
 78
     2
 67
     7
 79
     5
170
     0
171
     0
290
     0
174
     0
 93
       13
 44
0.0
173
     0
291
     1
 45
0.0
1001
ACAD
1000
AcDbSavedByObjectVersion
1070
     0
  0
VISUALSTYLE
  5
2D
102
{ACAD_REACTORS
330
2A
102
}
330
2A
100
AcDbVisualStyle
  2
Gouraud
 70
     2
 71
     2
 72
     2
 73
     1
 90
        2
 40
-0.6
 41
30.0
 62
     5
 63
     7
 74
     0
 91
        4
 64
     7
 65
   257
 75
     1
175
     1
 42
1.0
 92
        0
 66
     7
 43
1.0
 76
     1
 77
     6
 78
     2
 67
     7
 79
     5
170
     0
171
     0
290
     0
174
     0
 93
       13
 44
0.0
173
     0
291
     1
 45
0.0
1001
ACAD
1000
AcDbSavedByObjectVersion
1070
     0
  0
VISUALSTYLE
  5
2E
102
{ACAD_REACTORS
330
2A
102
}
330
2A
100
AcDbVisualStyle
  2
GouraudWithEdges
 70
     3
 71
     2
 72
     2
 73
     1
 90
        2
 40
-0.6
 41
30.0
 62
     5
 63
     7
 74
     1
 91
        4
 64
     7
 65
   257
 75
     1
175
     1
 42
1.0
 92
        0
 66
   257
 43
1.0
 76
     1
 77
     6
 78
     2
 67
     7
 79
     5
170
     0
171
     0
290
     0
174
     0
 93
       13
 44
0.0
173
     0
291
     1
 45
0.0
1001
ACAD
1000
AcDbSavedByObjectVersion
1070
     0
  0
VISUALSTYLE
  5
38
102
{ACAD_REACTORS
330
2A
102
}
330
2A
100
AcDbVisualStyle
  2
Linepattern
 70
    14
 71
     2
 72
     2
 73
     0
 90
        0
 40
-0.6
 41
-30.0
 62
     5
 63
     7
 74
     1
 91
        4
 64
     7
 65
   257
 75
     7
175
     7
 42
1.0
 92
        8
 66
     7
 43
1.0
 76
     1
 77
     6
 78
     2
 67
     7
 79
     5
170
     0
171
     0
290
     0
174
     0
 93
        1
 44
0.0
173
     0
291
     1
 45
0.0
1001
ACAD
1000
AcDbSavedByObjectVersion
1070
     0
  0
VISUALSTYLE
  5
33
102
{ACAD_REACTORS
330
2A
102
}
330
2A
100
AcDbVisualStyle
  2
Realistic
 70
     8
 71
     2
 72
     2
 73
     0
 90
        0
 40
-0.6
 41
-30.0
 62
     5
 63
     7
 74
     1
 91
        0
 64
     7
 65
   257
 75
     1
175
     1
 42
1.0
 92
        8
 66
     8
 43
1.0
 76
     1
 77
     6
 78
     2
 67
     7
 79
     5
170
     0
171
     0
290
     0
174
     0
 93
       13
 44
0.0
173
     0
291
     0
 45
0.0
1001
ACAD
1000
AcDbSavedByObjectVersion
1070
     0
  0
VISUALSTYLE
  5
37
102
{ACAD_REACTORS
330
2A
102
}
330
2A
100
AcDbVisualStyle
  2
Thicken
 70
    13
 71
     2
 72
     2
 73
     0
 90
        0
 40
-0.6
 41
-30.0
 62
     5
 63
     7
 74
     1
 91
        4
 64
     7
 65
   257
 75
     1
175
     1
 42
1.0
 92
       12
 66
     7
 43
1.0
 76
     1
 77
     6
 78
     2
 67
     7
 79
     5
170
     0
171
     0
290
     0
174
     0
 93
        1
 44
0.0
173
     0
291
     1
 45
0.0
1001
ACAD
1000
AcDbSavedByObjectVersion
1070
     0
  0
DICTIONARYVAR
  5
14C
102
{ACAD_REACTORS
330
14B
102
}
330
14B
100
DictionaryVariables
280
     0
  1
1:1
  0
DICTIONARYVAR
  5
150
102
{ACAD_REACTORS
330
14B
102
}
330
14B
100
DictionaryVariables
280
     0
  1
80.000000
  0
DICTIONARYVAR
  5
14F
102
{ACAD_REACTORS
330
14B
102
}
330
14B
100
DictionaryVariables
280
     0
  1
5.000000
  0
ENDSEC
  0
EOF
