  0
SECTION
  2
HEADER
  9
$ACADVER
  1
AC1015
  9
$ACADMAINTVER
 70
     6
  9
$DWGCODEPAGE
  3
ANSI_1252
  9
$INSBASE
 10
0.0
 20
0.0
 30
0.0
  9
$EXTMIN
 10
0.0
 20
0.0
 30
0.0
  9
$EXTMAX
 10
1682.0
 20
2378.0
 30
0.0
  9
$LIMMIN
 10
0.0
 20
0.0
  9
$LIMMAX
 10
1682.0
 20
2378.0
  9
$ORTHOMODE
 70
     0
  9
$REGENMODE
 70
     1
  9
$FILLMODE
 70
     1
  9
$QTEXTMODE
 70
     0
  9
$MIRRTEXT
 70
     1
  9
$LTSCALE
 40
1.0
  9
$ATTMODE
 70
     1
  9
$TEXTSIZE
 40
2.5
  9
$TRACEWID
 40
1.0
  9
$TEXTSTYLE
  7
Standard
  9
$CLAYER
  8
0
  9
$CELTYPE
  6
ByLayer
  9
$CECOLOR
 62
   256
  9
$CELTSCALE
 40
1.0
  9
$DISPSILH
 70
     0
  9
$DIMSCALE
 40
1.0
  9
$DIMASZ
 40
2.5
  9
$DIMEXO
 40
0.625
  9
$DIMDLI
 40
3.75
  9
$DIMRND
 40
0.0
  9
$DIMDLE
 40
0.0
  9
$DIMEXE
 40
1.25
  9
$DIMTP
 40
0.0
  9
$DIMTM
 40
0.0
  9
$DIMTXT
 40
2.5
  9
$DIMCEN
 40
2.5
  9
$DIMTSZ
 40
0.0
  9
$DIMTOL
 70
     0
  9
$DIMLIM
 70
     0
  9
$DIMTIH
 70
     0
  9
$DIMTOH
 70
     0
  9
$DIMSE1
 70
     0
  9
$DIMSE2
 70
     0
  9
$DIMTAD
 70
     1
  9
$DIMZIN
 70
     8
  9
$DIMBLK
  1

  9
$DIMASO
 70
     1
  9
$DIMSHO
 70
     1
  9
$DIMPOST
  1

  9
$DIMAPOST
  1

  9
$DIMALT
 70
     0
  9
$DIMALTD
 70
     3
  9
$DIMALTF
 40
0.0393700787
  9
$DIMLFAC
 40
1.0
  9
$DIMTOFL
 70
     1
  9
$DIMTVP
 40
0.0
  9
$DIMTIX
 70
     0
  9
$DIMSOXD
 70
     0
  9
$DIMSAH
 70
     0
  9
$DIMBLK1
  1

  9
$DIMBLK2
  1

  9
$DIMSTYLE
  2
ISO-25
  9
$DIMCLRD
 70
     0
  9
$DIMCLRE
 70
     0
  9
$DIMCLRT
 70
     0
  9
$DIMTFAC
 40
1.0
  9
$DIMGAP
 40
0.625
  9
$DIMJUST
 70
     0
  9
$DIMSD1
 70
     0
  9
$DIMSD2
 70
     0
  9
$DIMTOLJ
 70
     0
  9
$DIMTZIN
 70
     8
  9
$DIMALTZ
 70
     0
  9
$DIMALTTZ
 70
     0
  9
$DIMUPT
 70
     0
  9
$DIMDEC
 70
     2
  9
$DIMTDEC
 70
     2
  9
$DIMALTU
 70
     2
  9
$DIMALTTD
 70
     3
  9
$DIMTXSTY
  7
Standard
  9
$DIMAUNIT
 70
     0
  9
$DIMADEC
 70
     0
  9
$DIMALTRND
 40
0.0
  9
$DIMAZIN
 70
     0
  9
$DIMDSEP
 70
    44
  9
$DIMATFIT
 70
     3
  9
$DIMFRAC
 70
     0
  9
$DIMLDRBLK
  1

  9
$DIMLUNIT
 70
     2
  9
$DIMLWD
 70
    -2
  9
$DIMLWE
 70
    -2
  9
$DIMTMOVE
 70
     0
  9
$LUNITS
 70
     2
  9
$LUPREC
 70
     4
  9
$SKETCHINC
 40
1.0
  9
$FILLETRAD
 40
10.0
  9
$AUNITS
 70
     0
  9
$AUPREC
 70
     0
  9
$MENU
  1
.
  9
$ELEVATION
 40
0.0
  9
$PELEVATION
 40
0.0
  9
$THICKNESS
 40
0.0
  9
$LIMCHECK
 70
     0
  9
$CHAMFERA
 40
10.0
  9
$CHAMFERB
 40
10.0
  9
$CHAMFERC
 40
20.0
  9
$CHAMFERD
 40
0.0
  9
$SKPOLY
 70
     0
  9
$TDCREATE
 40
2455748.471430741
  9
$TDUCREATE
 40
2455748.388097407
  9
$TDUPDATE
 40
2455748.471430752
  9
$TDUUPDATE
 40
2455748.388097419
  9
$TDINDWG
 40
0.0000000116
  9
$TDUSRTIMER
 40
0.0000000116
  9
$USRTIMER
 70
     1
  9
$ANGBASE
 50
0.0
  9
$ANGDIR
 70
     0
  9
$PDMODE
 70
     0
  9
$PDSIZE
 40
0.0
  9
$PLINEWID
 40
0.0
  9
$SPLFRAME
 70
     0
  9
$SPLINETYPE
 70
     6
  9
$SPLINESEGS
 70
     8
  9
$HANDSEED
  5
145
  9
$SURFTAB1
 70
     6
  9
$SURFTAB2
 70
     6
  9
$SURFTYPE
 70
     6
  9
$SURFU
 70
     6
  9
$SURFV
 70
     6
  9
$UCSBASE
  2

  9
$UCSNAME
  2

  9
$UCSORG
 10
0.0
 20
0.0
 30
0.0
  9
$UCSXDIR
 10
1.0
 20
0.0
 30
0.0
  9
$UCSYDIR
 10
0.0
 20
1.0
 30
0.0
  9
$UCSORTHOREF
  2

  9
$UCSORTHOVIEW
 70
     0
  9
$UCSORGTOP
 10
0.0
 20
0.0
 30
0.0
  9
$UCSORGBOTTOM
 10
0.0
 20
0.0
 30
0.0
  9
$UCSORGLEFT
 10
0.0
 20
0.0
 30
0.0
  9
$UCSORGRIGHT
 10
0.0
 20
0.0
 30
0.0
  9
$UCSORGFRONT
 10
0.0
 20
0.0
 30
0.0
  9
$UCSORGBACK
 10
0.0
 20
0.0
 30
0.0
  9
$PUCSBASE
  2

  9
$PUCSNAME
  2

  9
$PUCSORG
 10
0.0
 20
0.0
 30
0.0
  9
$PUCSXDIR
 10
1.0
 20
0.0
 30
0.0
  9
$PUCSYDIR
 10
0.0
 20
1.0
 30
0.0
  9
$PUCSORTHOREF
  2

  9
$PUCSORTHOVIEW
 70
     0
  9
$PUCSORGTOP
 10
0.0
 20
0.0
 30
0.0
  9
$PUCSORGBOTTOM
 10
0.0
 20
0.0
 30
0.0
  9
$PUCSORGLEFT
 10
0.0
 20
0.0
 30
0.0
  9
$PUCSORGRIGHT
 10
0.0
 20
0.0
 30
0.0
  9
$PUCSORGFRONT
 10
0.0
 20
0.0
 30
0.0
  9
$PUCSORGBACK
 10
0.0
 20
0.0
 30
0.0
  9
$USERI1
 70
     0
  9
$USERI2
 70
     0
  9
$USERI3
 70
     0
  9
$USERI4
 70
     0
  9
$USERI5
 70
     0
  9
$USERR1
 40
0.0
  9
$USERR2
 40
0.0
  9
$USERR3
 40
0.0
  9
$USERR4
 40
0.0
  9
$USERR5
 40
0.0
  9
$WORLDVIEW
 70
     1
  9
$SHADEDGE
 70
     3
  9
$SHADEDIF
 70
    70
  9
$TILEMODE
 70
     1
  9
$MAXACTVP
 70
    64
  9
$PINSBASE
 10
0.0
 20
0.0
 30
0.0
  9
$PLIMCHECK
 70
     0
  9
$PEXTMIN
 10
0.0
 20
0.0
 30
0.0
  9
$PEXTMAX
 10
1682.0
 20
2378.0
 30
0.0
  9
$PLIMMIN
 10
0.0
 20
0.0
  9
$PLIMMAX
 10
1682.0
 20
2378.0
  9
$UNITMODE
 70
     0
  9
$VISRETAIN
 70
     1
  9
$PLINEGEN
 70
     0
  9
$PSLTSCALE
 70
     1
  9
$TREEDEPTH
 70
  3020
  9
$CMLSTYLE
  2
Standard
  9
$CMLJUST
 70
     0
  9
$CMLSCALE
 40
20.0
  9
$PROXYGRAPHICS
 70
     1
  9
$MEASUREMENT
 70
     1
  9
$CELWEIGHT
370
    -1
  9
$ENDCAPS
280
     0
  9
$JOINSTYLE
280
     0
  9
$LWDISPLAY
290
     0
  9
$INSUNITS
 70
     4
  9
$HYPERLINKBASE
  1

  9
$STYLESHEET
  1

  9
$XEDIT
290
     1
  9
$CEPSNTYPE
380
     0
  9
$PSTYLEMODE
290
     1
  9
$FINGERPRINTGUID
  2
{1B166956-DF87-4A52-ADE1-027E357D144E}
  9
$VERSIONGUID
  2
{FAEB1C32-E019-11D5-929B-00C0DF256EC4}
  9
$EXTNAMES
290
     1
  9
$PSVPSCALE
 40
0.0
  9
$OLESTARTUP
290
     0
  0
ENDSEC
  0
SECTION
  2
CLASSES
  0
CLASS
  1
ACDBDICTIONARYWDFLT
  2
AcDbDictionaryWithDefault
  3
ObjectDBX Classes
 90
        0
280
     0
281
     0
  0
CLASS
  1
VISUALSTYLE
  2
AcDbVisualStyle
  3
ObjectDBX Classes
 90
     4095
280
     0
281
     0
  0
CLASS
  1
SCALE
  2
AcDbScale
  3
ObjectDBX Classes
 90
     1153
280
     0
281
     0
  0
CLASS
  1
DICTIONARYVAR
  2
AcDbDictionaryVar
  3
ObjectDBX Classes
 90
        0
280
     0
281
     0
  0
CLASS
  1
ACDBPLACEHOLDER
  2
AcDbPlaceHolder
  3
ObjectDBX Classes
 90
        0
280
     0
281
     0
  0
CLASS
  1
LAYOUT
  2
AcDbLayout
  3
ObjectDBX Classes
 90
        0
280
     0
281
     0
  0
ENDSEC
  0
SECTION
  2
TABLES
  0
TABLE
  2
VPORT
  5
8
330
0
100
AcDbSymbolTable
 70
     1
  0
VPORT
  5
29
330
8
100
AcDbSymbolTableRecord
100
AcDbViewportTableRecord
  2
*Active
 70
     0
 10
0.0
 20
0.0
 11
1.0
 21
1.0
 12
344.1869158879
 22
148.5
 13
0.0
 23
0.0
 14
10.0
 24
10.0
 15
10.0
 25
10.0
 16
0.0
 26
0.0
 36
1.0
 17
0.0
 27
0.0
 37
0.0
 40
297.0
 41
1.9729729729
 42
50.0
 43
0.0
 44
0.0
 50
0.0
 51
0.0
 71
     0
 72
   100
 73
     1
 74
     3
 75
     0
 76
     0
 77
     0
 78
     0
281
     0
 65
     1
110
0.0
120
0.0
130
0.0
111
1.0
121
0.0
131
0.0
112
0.0
122
1.0
132
0.0
 79
     0
146
0.0
  0
ENDTAB
  0
TABLE
  2
LTYPE
  5
5
330
0
100
AcDbSymbolTable
 70
     2
  0
LTYPE
  5
14
330
5
100
AcDbSymbolTableRecord
100
AcDbLinetypeTableRecord
  2
ByBlock
 70
     0
  3

 72
    65
 73
     0
 40
0.0
  0
LTYPE
  5
15
330
5
100
AcDbSymbolTableRecord
100
AcDbLinetypeTableRecord
  2
ByLayer
 70
     0
  3

 72
    65
 73
     0
 40
0.0
  0
LTYPE
  5
16
330
5
100
AcDbSymbolTableRecord
100
AcDbLinetypeTableRecord
  2
Continuous
 70
     0
  3
Solid line
 72
    65
 73
     0
 40
0.0
  0
LTYPE
  5
60
330
5
100
AcDbSymbolTableRecord
100
AcDbLinetypeTableRecord
  2
CENTER2
 70
     0
  3
Center (.5x) ___ _ ___ _ ___ _ ___ _ ___ _ ___
 72
    65
 73
     4
 40
28.575
 49
19.05
 74
     4
 75
     0
340
0
 46
0.0
 50
0.0
 44
0.0
 45
0.0
 49
-3.175
 74
     4
 75
     0
340
0
 46
0.0
 50
0.0
 44
0.0
 45
0.0
 49
3.175
 74
     4
 75
     0
340
0
 46
0.0
 50
0.0
 44
0.0
 45
0.0
 49
-3.175
 74
     4
 75
     0
340
0
 46
0.0
 50
0.0
 44
0.0
 45
0.0
  0
ENDTAB
  0
TABLE
  2
LAYER
  5
2
330
0
100
AcDbSymbolTable
 70
    12
  0
LAYER
  5
10
330
2
100
AcDbSymbolTableRecord
100
AcDbLayerTableRecord
  2
0
 70
     0
 62
     7
  6
Continuous
370
    -3
390
F
  0
LAYER
  5
5D
330
2
100
AcDbSymbolTableRecord
100
AcDbLayerTableRecord
  2
Default
 70
     0
 62
     7
  6
Continuous
370
    -3
390
F
  0
LAYER
  5
67
330
2
100
AcDbSymbolTableRecord
100
AcDbLayerTableRecord
  2
410318038_HANDLE
 70
     0
 62
     7
  6
Continuous
370
    -3
390
F
  0
LAYER
  5
6A
330
2
100
AcDbSymbolTableRecord
100
AcDbLayerTableRecord
  2
410312038_LEVER_
 70
     0
 62
     7
  6
Continuous
370
    -3
390
F
  0
LAYER
  5
70
330
2
100
AcDbSymbolTableRecord
100
AcDbLayerTableRecord
  2
11218038_GRIFF__
 70
     0
 62
     7
  6
Continuous
370
    -3
390
F
  0
LAYER
  5
7F
330
2
100
AcDbSymbolTableRecord
100
AcDbLayerTableRecord
  2
410367040_ESCUTC
 70
     0
 62
     7
  6
Continuous
370
    -3
390
F
  0
LAYER
  5
86
330
2
100
AcDbSymbolTableRecord
100
AcDbLayerTableRecord
  2
DV1_Standard
 70
     0
 62
     7
  6
Continuous
370
    -3
390
F
  0
LAYER
  5
91
330
2
100
AcDbSymbolTableRecord
100
AcDbLayerTableRecord
  2
410306038_DIVERT
 70
     0
 62
     7
  6
Continuous
370
    -3
390
F
  0
LAYER
  5
B3
330
2
100
AcDbSymbolTableRecord
100
AcDbLayerTableRecord
  2
410064038_SLEEVE
 70
     0
 62
     7
  6
Continuous
370
    -3
390
F
  0
LAYER
  5
BB
330
2
100
AcDbSymbolTableRecord
100
AcDbLayerTableRecord
  2
11232031_STIFT_G
 70
     0
 62
     7
  6
Continuous
370
    -3
390
F
  0
LAYER
  5
C3
330
2
100
AcDbSymbolTableRecord
100
AcDbLayerTableRecord
  2
410228031_BEARIN
 70
     0
 62
     7
  6
Continuous
370
    -3
390
F
  0
LAYER
  5
12F
330
2
100
AcDbSymbolTableRecord
100
AcDbLayerTableRecord
  2
DV3_Standard
 70
     0
 62
     7
  6
Continuous
370
    -3
390
F
  0
ENDTAB
  0
TABLE
  2
STYLE
  5
3
330
0
100
AcDbSymbolTable
 70
     2
  0
STYLE
  5
11
330
3
100
AcDbSymbolTableRecord
100
AcDbTextStyleTableRecord
  2
Standard
 70
     0
 40
0.0
 41
1.0
 50
0.0
 71
     0
 42
2.5
  3
txt
  4

  0
STYLE
  5
134
330
3
100
AcDbSymbolTableRecord
100
AcDbTextStyleTableRecord
  2
SEACAD_seiso_ttf
 70
     0
 40
0.0
 41
1.0
 50
0.0
 71
     0
 42
0.2
  3
seiso.ttf
  4

  0
ENDTAB
  0
TABLE
  2
VIEW
  5
6
330
0
100
AcDbSymbolTable
 70
     0
  0
ENDTAB
  0
TABLE
  2
UCS
  5
7
330
0
100
AcDbSymbolTable
 70
     0
  0
ENDTAB
  0
TABLE
  2
APPID
  5
9
330
0
100
AcDbSymbolTable
 70
     1
  0
APPID
  5
12
330
9
100
AcDbSymbolTableRecord
100
AcDbRegAppTableRecord
  2
ACAD
 70
     0
  0
ENDTAB
  0
TABLE
  2
DIMSTYLE
  5
A
330
0
100
AcDbSymbolTable
 70
     1
100
AcDbDimStyleTable
  0
DIMSTYLE
105
27
330
A
100
AcDbSymbolTableRecord
100
AcDbDimStyleTableRecord
  2
ISO-25
 70
     0
 41
2.5
 42
0.625
 43
3.75
 44
1.25
 73
     0
 74
     0
 77
     1
 78
     8
140
2.5
141
2.5
143
0.0393700787
147
0.625
171
     3
172
     1
271
     2
272
     2
274
     3
278
    44
283
     0
284
     8
340
11
  0
ENDTAB
  0
TABLE
  2
BLOCK_RECORD
  5
1
330
0
100
AcDbSymbolTable
 70
     5
  0
BLOCK_RECORD
  5
1F
330
1
100
AcDbSymbolTableRecord
100
AcDbBlockTableRecord
  2
*Model_Space
340
22
  0
BLOCK_RECORD
  5
1B
330
1
100
AcDbSymbolTableRecord
100
AcDbBlockTableRecord
  2
*Paper_Space
340
1E
  0
BLOCK_RECORD
  5
5E
330
1
100
AcDbSymbolTableRecord
100
AcDbBlockTableRecord
  2
SEANNOT_GROUP
340
0
102
{BLKREFS
331
5F
102
}
  0
BLOCK_RECORD
  5
65
330
1
100
AcDbSymbolTableRecord
100
AcDbBlockTableRecord
  2
SE
340
0
102
{BLKREFS
331
66
102
}
  0
BLOCK_RECORD
  5
8F
330
1
100
AcDbSymbolTableRecord
100
AcDbBlockTableRecord
  2
SE1
340
0
102
{BLKREFS
331
90
102
}
  0
BLOCK_RECORD
  5
EF
330
1
100
AcDbSymbolTableRecord
100
AcDbBlockTableRecord
  2
SE2
340
0
102
{BLKREFS
331
F0
102
}
  0
ENDTAB
  0
ENDSEC
  0
SECTION
  2
BLOCKS
  0
BLOCK
  5
20
330
1F
100
AcDbEntity
  8
0
100
AcDbBlockBegin
  2
*Model_Space
 70
     0
 10
0.0
 20
0.0
 30
0.0
  3
*Model_Space
  1

  0
ENDBLK
  5
21
330
1F
100
AcDbEntity
  8
0
100
AcDbBlockEnd
  0
BLOCK
  5
1C
330
1B
100
AcDbEntity
 67
     1
  8
0
100
AcDbBlockBegin
  2
*Paper_Space
 70
     0
 10
0.0
 20
0.0
 30
0.0
  3
*Paper_Space
  1

  0
ENDBLK
  5
1D
330
1B
100
AcDbEntity
 67
     1
  8
0
100
AcDbBlockEnd
  0
BLOCK
  5
63
330
5E
100
AcDbEntity
  8
0
100
AcDbBlockBegin
  2
SEANNOT_GROUP
 70
     0
 10
0.0
 20
0.0
 30
0.0
  3
SEANNOT_GROUP
  1

  0
LINE
  5
61
330
5E
100
AcDbEntity
  8
Default
  6
CENTER2
 62
     7
100
AcDbLine
 10
315.6684032896
 20
370.5613731145
 30
0.0
 11
275.6684041837
 21
370.5613731145
 31
0.0
  0
LINE
  5
62
330
5E
100
AcDbEntity
  8
Default
  6
CENTER2
 62
     7
100
AcDbLine
 10
295.6684037367
 20
390.5613726674
 30
0.0
 11
295.6684037367
 21
350.5613735615
 31
0.0
  0
ENDBLK
  5
64
330
5E
100
AcDbEntity
  8
0
100
AcDbBlockEnd
  0
BLOCK
  5
8D
330
65
100
AcDbEntity
  8
0
100
AcDbBlockBegin
  2
SE
 70
     0
 10
0.0
 20
0.0
 30
0.0
  3
SE
  1

  0
ARC
  5
68
330
65
100
AcDbEntity
  8
410318038_HANDLE
  6
Continuous
 62
     7
100
AcDbCircle
 10
91.45
 20
370.4361876541
 30
0.0
 40
23.0
100
AcDbArc
 50
285.1216653149
 51
0.0
  0
ARC
  5
69
330
65
100
AcDbEntity
  8
410318038_HANDLE
  6
Continuous
 62
     7
100
AcDbCircle
 10
91.45
 20
370.4361876541
 30
0.0
 40
23.0
100
AcDbArc
 50
0.0
 51
254.8783346851
  0
LINE
  5
6B
330
65
100
AcDbEntity
  8
410312038_LEVER_
  6
Continuous
 62
     7
100
AcDbLine
 10
86.75
 20
285.2361876541
 30
0.0
 11
96.15
 21
285.2361876541
 31
0.0
  0
ARC
  5
6C
330
65
100
AcDbEntity
  8
410312038_LEVER_
  6
Continuous
 62
     7
100
AcDbCircle
 10
96.15
 20
285.5361876541
 30
0.0
 40
0.2999999999999947
100
AcDbArc
 50
270.0
 51
0.0
  0
ARC
  5
6D
330
65
100
AcDbEntity
  8
410312038_LEVER_
  6
Continuous
 62
     7
100
AcDbCircle
 10
86.75
 20
285.5361876541
 30
0.0
 40
0.2999999999999999
100
AcDbArc
 50
180.0
 51
270.0
  0
LINE
  5
6E
330
65
100
AcDbEntity
  8
410312038_LEVER_
  6
Continuous
 62
     7
100
AcDbLine
 10
96.45
 20
285.5361876541
 30
0.0
 11
96.45
 21
310.4361876541
 31
0.0
  0
LINE
  5
6F
330
65
100
AcDbEntity
  8
410312038_LEVER_
  6
Continuous
 62
     7
100
AcDbLine
 10
86.45
 20
310.4361876541
 30
0.0
 11
86.45
 21
285.5361876541
 31
0.0
  0
LINE
  5
71
330
65
100
AcDbEntity
  8
11218038_GRIFF__
  6
Continuous
 62
     7
100
AcDbLine
 10
85.95
 20
310.4361876541
 30
0.0
 11
96.95
 21
310.4361876541
 31
0.0
  0
ARC
  5
72
330
65
100
AcDbEntity
  8
11218038_GRIFF__
  6
Continuous
 62
     7
100
AcDbCircle
 10
91.45
 20
370.4361876541
 30
0.0
 40
11.0
100
AcDbArc
 50
122.9261300415
 51
237.0738699585
  0
LINE
  5
73
330
65
100
AcDbEntity
  8
11218038_GRIFF__
  6
Continuous
 62
     7
100
AcDbLine
 10
85.45
 20
379.0530316239
 30
0.0
 11
85.45
 21
361.8193436843
 31
0.0
  0
ARC
  5
74
330
65
100
AcDbEntity
  8
11218038_GRIFF__
  6
Continuous
 62
     7
100
AcDbCircle
 10
91.45
 20
370.4361876541
 30
0.0
 40
11.0
100
AcDbArc
 50
302.9261300415
 51
57.0738699585
  0
LINE
  5
75
330
65
100
AcDbEntity
  8
11218038_GRIFF__
  6
Continuous
 62
     7
100
AcDbLine
 10
97.45
 20
361.8193436843
 30
0.0
 11
97.45
 21
379.0530316239
 31
0.0
  0
LINE
  5
76
330
65
100
AcDbEntity
  8
11218038_GRIFF__
  6
Continuous
 62
     7
100
AcDbLine
 10
96.95
 20
386.4361876541
 30
0.0
 11
85.95
 21
386.4361876541
 31
0.0
  0
LINE
  5
77
330
65
100
AcDbEntity
  8
11218038_GRIFF__
  6
Continuous
 62
     7
100
AcDbLine
 10
85.45
 20
361.8193436843
 30
0.0
 11
85.45
 21
310.9361876541
 31
0.0
  0
LINE
  5
78
330
65
100
AcDbEntity
  8
11218038_GRIFF__
  6
Continuous
 62
     7
100
AcDbLine
 10
85.45
 20
385.9361876541
 30
0.0
 11
85.45
 21
379.0530316239
 31
0.0
  0
LINE
  5
79
330
65
100
AcDbEntity
  8
11218038_GRIFF__
  6
Continuous
 62
     7
100
AcDbLine
 10
97.45
 20
379.0530316239
 30
0.0
 11
97.45
 21
385.9361876541
 31
0.0
  0
LINE
  5
7A
330
65
100
AcDbEntity
  8
11218038_GRIFF__
  6
Continuous
 62
     7
100
AcDbLine
 10
97.45
 20
310.9361876541
 30
0.0
 11
97.45
 21
361.8193436843
 31
0.0
  0
ARC
  5
7B
330
65
100
AcDbEntity
  8
11218038_GRIFF__
  6
Continuous
 62
     7
100
AcDbCircle
 10
96.95
 20
310.9361876541
 30
0.0
 40
0.5000000000000004
100
AcDbArc
 50
270.0
 51
0.0
  0
ARC
  5
7C
330
65
100
AcDbEntity
  8
11218038_GRIFF__
  6
Continuous
 62
     7
100
AcDbCircle
 10
85.95
 20
310.9361876541
 30
0.0
 40
0.4999999999999996
100
AcDbArc
 50
180.0
 51
270.0
  0
ARC
  5
7D
330
65
100
AcDbEntity
  8
11218038_GRIFF__
  6
Continuous
 62
     7
100
AcDbCircle
 10
96.95
 20
385.9361876541
 30
0.0
 40
0.4999999999999996
100
AcDbArc
 50
0.0
 51
90.0
  0
ARC
  5
7E
330
65
100
AcDbEntity
  8
11218038_GRIFF__
  6
Continuous
 62
     7
100
AcDbCircle
 10
85.95
 20
385.9361876541
 30
0.0
 40
0.5000000000000039
100
AcDbArc
 50
90.0
 51
180.0
  0
ARC
  5
80
330
65
100
AcDbEntity
  8
410367040_ESCUTC
  6
Continuous
 62
     7
100
AcDbCircle
 10
91.45
 20
370.4361876541
 30
0.0
 40
32.0
100
AcDbArc
 50
0.0
 51
259.1930771251
  0
ARC
  5
81
330
65
100
AcDbEntity
  8
410367040_ESCUTC
  6
Continuous
 62
     7
100
AcDbCircle
 10
91.45
 20
370.4361876541
 30
0.0
 40
32.0
100
AcDbArc
 50
280.8069228749
 51
0.0
  0
ARC
  5
82
330
65
100
AcDbEntity
  8
410367040_ESCUTC
  6
Continuous
 62
     7
100
AcDbCircle
 10
91.45
 20
370.4361876541
 30
0.0
 40
79.0
100
AcDbArc
 50
273.6287405634
 51
360.0
  0
ARC
  5
83
330
65
100
AcDbEntity
  8
410367040_ESCUTC
  6
Continuous
 62
     7
100
AcDbCircle
 10
91.45
 20
370.4361876541
 30
0.0
 40
79.0
100
AcDbArc
 50
0.0
 51
266.3712594367
  0
ARC
  5
84
330
65
100
AcDbEntity
  8
410367040_ESCUTC
  6
Continuous
 62
     7
100
AcDbCircle
 10
91.45
 20
370.4361876541
 30
0.0
 40
85.0
100
AcDbArc
 50
273.3722866834
 51
360.0
  0
ARC
  5
85
330
65
100
AcDbEntity
  8
410367040_ESCUTC
  6
Continuous
 62
     7
100
AcDbCircle
 10
91.45
 20
370.4361876541
 30
0.0
 40
85.0
100
AcDbArc
 50
0.0
 51
266.6277133166
  0
LINE
  5
87
330
65
100
AcDbEntity
  8
DV1_Standard
  6
CENTER2
 62
     7
100
AcDbLine
 10
111.449999553
 20
370.4361876541
 30
0.0
 11
71.450000447
 21
370.4361876541
 31
0.0
  0
LINE
  5
88
330
65
100
AcDbEntity
  8
DV1_Standard
  6
CENTER2
 62
     7
100
AcDbLine
 10
91.45
 20
390.4361872071
 30
0.0
 11
91.45
 21
350.4361881011
 31
0.0
  0
LINE
  5
89
330
65
100
AcDbEntity
  8
DV1_Standard
  6
CENTER2
 62
     7
100
AcDbLine
 10
116.4499994412
 20
370.4361876541
 30
0.0
 11
117.95
 21
370.4361876541
 31
0.0
  0
LINE
  5
8A
330
65
100
AcDbEntity
  8
DV1_Standard
  6
CENTER2
 62
     7
100
AcDbLine
 10
91.45
 20
395.4361870953
 30
0.0
 11
91.45
 21
396.9361876541
 31
0.0
  0
LINE
  5
8B
330
65
100
AcDbEntity
  8
DV1_Standard
  6
CENTER2
 62
     7
100
AcDbLine
 10
66.4500005588
 20
370.4361876541
 30
0.0
 11
64.95
 21
370.4361876541
 31
0.0
  0
LINE
  5
8C
330
65
100
AcDbEntity
  8
DV1_Standard
  6
CENTER2
 62
     7
100
AcDbLine
 10
91.45
 20
345.4361882129
 30
0.0
 11
91.45
 21
343.9361876541
 31
0.0
  0
ENDBLK
  5
8E
330
65
100
AcDbEntity
  8
0
100
AcDbBlockEnd
  0
BLOCK
  5
ED
330
8F
100
AcDbEntity
  8
0
100
AcDbBlockBegin
  2
SE1
 70
     0
 10
0.0
 20
0.0
 30
0.0
  3
SE1
  1

  0
ARC
  5
92
330
8F
100
AcDbEntity
  8
410306038_DIVERT
  6
Continuous
 62
     7
100
AcDbCircle
 10
334.0966583399
 20
307.7282978309
 30
0.0
 40
31.47282213703769
100
AcDbArc
 50
79.989509121
 51
99.0104896454
  0
LINE
  5
93
330
8F
100
AcDbEntity
  8
410306038_DIVERT
  6
Continuous
 62
     7
100
AcDbLine
 10
325.6684043866
 20
339.3389268796
 30
0.0
 11
325.6684043866
 21
401.5334484286
 31
0.0
  0
LINE
  5
94
330
8F
100
AcDbEntity
  8
410306038_DIVERT
  6
Continuous
 62
     7
100
AcDbLine
 10
343.6684043866
 20
339.1905701272
 30
0.0
 11
343.6684043866
 21
401.681805181
 31
0.0
  0
LINE
  5
95
330
8F
100
AcDbEntity
  8
410306038_DIVERT
  6
Continuous
 62
     7
100
AcDbLine
 10
343.1640411189
 20
402.1817861425
 30
0.0
 11
326.1640411189
 21
402.0334293901
 31
0.0
  0
LINE
  5
96
330
8F
100
AcDbEntity
  8
410306038_DIVERT
  6
Continuous
 62
     7
100
AcDbLine
 10
339.5541961292
 20
338.7220918056
 30
0.0
 11
343.1640411189
 21
338.6905891657
 31
0.0
  0
LINE
  5
97
330
8F
100
AcDbEntity
  8
410306038_DIVERT
  6
Continuous
 62
     7
100
AcDbLine
 10
326.1640411189
 20
338.8389459181
 30
0.0
 11
329.1692609665
 21
338.8127197618
 31
0.0
  0
LINE
  5
98
330
8F
100
AcDbEntity
  8
410306038_DIVERT
  6
Continuous
 62
     7
100
AcDbLine
 10
325.4701496937
 20
400.4344575116
 30
0.0
 11
325.2684043866
 21
400.432696907
 31
0.0
  0
LINE
  5
99
330
8F
100
AcDbEntity
  8
410306038_DIVERT
  6
Continuous
 62
     7
100
AcDbLine
 10
325.2684043866
 20
340.4396784012
 30
0.0
 11
325.4701496937
 21
340.4379177966
 31
0.0
  0
ARC
  5
9A
330
8F
100
AcDbEntity
  8
410306038_DIVERT
  6
Continuous
 62
     7
100
AcDbCircle
 10
325.4684043866
 20
400.6344498962
 30
0.0
 40
0.1999999999999988
100
AcDbArc
 50
270.5
 51
0.0
  0
ARC
  5
9B
330
8F
100
AcDbEntity
  8
410306038_DIVERT
  6
Continuous
 62
     7
100
AcDbCircle
 10
325.4684043866
 20
340.237925412
 30
0.0
 40
0.2000000000000034
100
AcDbArc
 50
0.0
 51
89.5
  0
ARC
  5
9C
330
8F
100
AcDbEntity
  8
410306038_DIVERT
  6
Continuous
 62
     7
100
AcDbCircle
 10
326.1684043866
 20
401.5334484286
 30
0.0
 40
0.5000000000000014
100
AcDbArc
 50
90.5
 51
180.0
  0
ARC
  5
9D
330
8F
100
AcDbEntity
  8
410306038_DIVERT
  6
Continuous
 62
     7
100
AcDbCircle
 10
326.1684043866
 20
339.3389268796
 30
0.0
 40
0.5000000000000004
100
AcDbArc
 50
180.0
 51
269.5
  0
ARC
  5
9E
330
8F
100
AcDbEntity
  8
410306038_DIVERT
  6
Continuous
 62
     7
100
AcDbCircle
 10
343.1684043866
 20
401.681805181
 30
0.0
 40
0.5000000000000004
100
AcDbArc
 50
0.0
 51
90.5
  0
ARC
  5
9F
330
8F
100
AcDbEntity
  8
410306038_DIVERT
  6
Continuous
 62
     7
100
AcDbCircle
 10
343.1684043866
 20
339.1905701272
 30
0.0
 40
0.5000000000000003
100
AcDbArc
 50
269.5
 51
0.0
  0
LINE
  5
A0
330
8F
100
AcDbEntity
  8
410318038_HANDLE
  6
Continuous
 62
     7
100
AcDbLine
 10
375.1184043866
 20
347.9361876541
 30
0.0
 11
375.1184043866
 21
392.9361876541
 31
0.0
  0
LINE
  5
A1
330
8F
100
AcDbEntity
  8
410318038_HANDLE
  6
Continuous
 62
     7
100
AcDbLine
 10
344.2684043866
 20
338.8861876541
 30
0.0
 11
344.2684043866
 21
401.9861876541
 31
0.0
  0
LINE
  5
A2
330
8F
100
AcDbEntity
  8
410318038_HANDLE
  6
Continuous
 62
     7
100
AcDbLine
 10
367.1184043866
 20
339.1861876541
 30
0.0
 11
367.1184043866
 21
401.6861876541
 31
0.0
  0
LINE
  5
A3
330
8F
100
AcDbEntity
  8
410318038_HANDLE
  6
Continuous
 62
     7
100
AcDbLine
 10
344.4684043866
 20
338.6861876541
 30
0.0
 11
366.6184043866
 21
338.6861876541
 31
0.0
  0
LINE
  5
A4
330
8F
100
AcDbEntity
  8
410318038_HANDLE
  6
Continuous
 62
     7
100
AcDbLine
 10
366.6184043866
 20
402.1861876541
 30
0.0
 11
344.4684043866
 21
402.1861876541
 31
0.0
  0
LINE
  5
A5
330
8F
100
AcDbEntity
  8
410318038_HANDLE
  6
Continuous
 62
     7
100
AcDbLine
 10
374.6184043866
 20
393.4361876541
 30
0.0
 11
367.6184043866
 21
393.4361876541
 31
0.0
  0
LINE
  5
A6
330
8F
100
AcDbEntity
  8
410318038_HANDLE
  6
Continuous
 62
     7
100
AcDbLine
 10
367.6184043866
 20
347.4361876541
 30
0.0
 11
374.6184043866
 21
347.4361876541
 31
0.0
  0
ARC
  5
A7
330
8F
100
AcDbEntity
  8
410318038_HANDLE
  6
Continuous
 62
     7
100
AcDbCircle
 10
374.6184043866
 20
347.9361876541
 30
0.0
 40
0.499999999999997
100
AcDbArc
 50
270.0
 51
0.0
  0
ARC
  5
A8
330
8F
100
AcDbEntity
  8
410318038_HANDLE
  6
Continuous
 62
     7
100
AcDbCircle
 10
374.6184043866
 20
392.9361876541
 30
0.0
 40
0.5000000000000004
100
AcDbArc
 50
0.0
 51
90.0
  0
ARC
  5
A9
330
8F
100
AcDbEntity
  8
410318038_HANDLE
  6
Continuous
 62
     7
100
AcDbCircle
 10
367.6184043866
 20
346.9361876541
 30
0.0
 40
0.5000000000000004
100
AcDbArc
 50
90.0
 51
180.0
  0
ARC
  5
AA
330
8F
100
AcDbEntity
  8
410318038_HANDLE
  6
Continuous
 62
     7
100
AcDbCircle
 10
367.6184043866
 20
393.9361876541
 30
0.0
 40
0.5000000000000039
100
AcDbArc
 50
180.0
 51
270.0
  0
ARC
  5
AB
330
8F
100
AcDbEntity
  8
410318038_HANDLE
  6
Continuous
 62
     7
100
AcDbCircle
 10
344.4684043866
 20
338.8861876541
 30
0.0
 40
0.2000000000000057
100
AcDbArc
 50
180.0
 51
270.0
  0
ARC
  5
AC
330
8F
100
AcDbEntity
  8
410318038_HANDLE
  6
Continuous
 62
     7
100
AcDbCircle
 10
344.4684043866
 20
401.9861876541
 30
0.0
 40
0.1999999999999988
100
AcDbArc
 50
90.0
 51
180.0
  0
ARC
  5
AD
330
8F
100
AcDbEntity
  8
410318038_HANDLE
  6
Continuous
 62
     7
100
AcDbCircle
 10
366.6184043866
 20
339.1861876541
 30
0.0
 40
0.5000000000000004
100
AcDbArc
 50
270.0
 51
0.0
  0
ARC
  5
AE
330
8F
100
AcDbEntity
  8
410318038_HANDLE
  6
Continuous
 62
     7
100
AcDbCircle
 10
366.6184043866
 20
401.6861876541
 30
0.0
 40
0.5000000000000004
100
AcDbArc
 50
0.0
 51
90.0
  0
LINE
  5
AF
330
8F
100
AcDbEntity
  8
410318038_HANDLE
  6
Continuous
 62
     7
100
AcDbLine
 10
343.6684043866
 20
341.2361876541
 30
0.0
 11
344.0684043866
 21
341.2361876541
 31
0.0
  0
LINE
  5
B0
330
8F
100
AcDbEntity
  8
410318038_HANDLE
  6
Continuous
 62
     7
100
AcDbLine
 10
344.0684043866
 20
399.6361876541
 30
0.0
 11
343.6684043866
 21
399.6361876541
 31
0.0
  0
ARC
  5
B1
330
8F
100
AcDbEntity
  8
410318038_HANDLE
  6
Continuous
 62
     7
100
AcDbCircle
 10
344.0684043866
 20
341.0361876541
 30
0.0
 40
0.1999999999999988
100
AcDbArc
 50
0.0
 51
90.0
  0
ARC
  5
B2
330
8F
100
AcDbEntity
  8
410318038_HANDLE
  6
Continuous
 62
     7
100
AcDbCircle
 10
344.0684043866
 20
399.8361876541
 30
0.0
 40
0.2000000000000057
100
AcDbArc
 50
270.0
 51
0.0
  0
LINE
  5
B4
330
8F
100
AcDbEntity
  8
410064038_SLEEVE
  6
Continuous
 62
     7
100
AcDbLine
 10
324.6684043866
 20
402.1861876541
 30
0.0
 11
307.3814934914
 21
402.1861876541
 31
0.0
  0
LINE
  5
B5
330
8F
100
AcDbEntity
  8
410064038_SLEEVE
  6
Continuous
 62
     7
100
AcDbLine
 10
307.3814934914
 20
338.6861876541
 30
0.0
 11
324.6684043866
 21
338.6861876541
 31
0.0
  0
LINE
  5
B6
330
8F
100
AcDbEntity
  8
410312038_LEVER_
  6
Continuous
 62
     7
100
AcDbLine
 10
329.6684050411
 20
285.2361876541
 30
0.0
 11
339.0684050411
 21
285.2361876541
 31
0.0
  0
ARC
  5
B7
330
8F
100
AcDbEntity
  8
410312038_LEVER_
  6
Continuous
 62
     7
100
AcDbCircle
 10
339.0684050411
 20
285.5361876541
 30
0.0
 40
0.2999999999999947
100
AcDbArc
 50
270.0
 51
0.0
  0
ARC
  5
B8
330
8F
100
AcDbEntity
  8
410312038_LEVER_
  6
Continuous
 62
     7
100
AcDbCircle
 10
329.6684050411
 20
285.5361876541
 30
0.0
 40
0.2999999999999947
100
AcDbArc
 50
180.0
 51
270.0
  0
LINE
  5
B9
330
8F
100
AcDbEntity
  8
410312038_LEVER_
  6
Continuous
 62
     7
100
AcDbLine
 10
339.3684050411
 20
285.5361876541
 30
0.0
 11
339.3684050411
 21
338.7558924957
 31
0.0
  0
LINE
  5
BA
330
8F
100
AcDbEntity
  8
410312038_LEVER_
  6
Continuous
 62
     7
100
AcDbLine
 10
329.3684050411
 20
338.8434261824
 30
0.0
 11
329.3684050411
 21
285.5361876541
 31
0.0
  0
CIRCLE
  5
BC
330
8F
100
AcDbEntity
  8
11232031_STIFT_G
  6
Continuous
 62
     7
100
AcDbCircle
 10
390.6184043866
 20
370.4361876541
 30
0.0
 40
2.0
  0
LINE
  5
BD
330
8F
100
AcDbEntity
  8
11232031_STIFT_G
  6
Continuous
 62
     7
100
AcDbLine
 10
390.6184043866
 20
371.5908881925
 30
0.0
 11
391.6184043866
 21
371.0135379233
 31
0.0
  0
LINE
  5
BE
330
8F
100
AcDbEntity
  8
11232031_STIFT_G
  6
Continuous
 62
     7
100
AcDbLine
 10
391.6184043866
 20
371.0135379233
 30
0.0
 11
391.6184043866
 21
369.8588373849
 31
0.0
  0
LINE
  5
BF
330
8F
100
AcDbEntity
  8
11232031_STIFT_G
  6
Continuous
 62
     7
100
AcDbLine
 10
391.6184043866
 20
369.8588373849
 30
0.0
 11
390.6184043866
 21
369.2814871157
 31
0.0
  0
LINE
  5
C0
330
8F
100
AcDbEntity
  8
11232031_STIFT_G
  6
Continuous
 62
     7
100
AcDbLine
 10
390.6184043866
 20
369.2814871157
 30
0.0
 11
389.6184043866
 21
369.8588373849
 31
0.0
  0
LINE
  5
C1
330
8F
100
AcDbEntity
  8
11232031_STIFT_G
  6
Continuous
 62
     7
100
AcDbLine
 10
389.6184043866
 20
369.8588373849
 30
0.0
 11
389.6184043866
 21
371.0135379233
 31
0.0
  0
LINE
  5
C2
330
8F
100
AcDbEntity
  8
11232031_STIFT_G
  6
Continuous
 62
     7
100
AcDbLine
 10
389.6184043866
 20
371.0135379233
 30
0.0
 11
390.6184043866
 21
371.5908881925
 31
0.0
  0
LINE
  5
C4
330
8F
100
AcDbEntity
  8
410228031_BEARIN
  6
Continuous
 62
     7
100
AcDbLine
 10
325.2684043866
 20
338.8861876541
 30
0.0
 11
325.2684043866
 21
401.9861876541
 31
0.0
  0
LINE
  5
C5
330
8F
100
AcDbEntity
  8
410228031_BEARIN
  6
Continuous
 62
     7
100
AcDbLine
 10
324.6684043866
 20
338.8861876541
 30
0.0
 11
325.2684043866
 21
338.8861876541
 31
0.0
  0
LINE
  5
C6
330
8F
100
AcDbEntity
  8
410228031_BEARIN
  6
Continuous
 62
     7
100
AcDbLine
 10
325.2684043866
 20
401.9861876541
 30
0.0
 11
324.6684043866
 21
401.9861876541
 31
0.0
  0
LINE
  5
C7
330
8F
100
AcDbEntity
  8
11218038_GRIFF__
  6
Continuous
 62
     7
100
AcDbLine
 10
401.1184043866
 20
310.4361876541
 30
0.0
 11
390.1184043866
 21
310.4361876541
 31
0.0
  0
LINE
  5
C8
330
8F
100
AcDbEntity
  8
11218038_GRIFF__
  6
Continuous
 62
     7
100
AcDbLine
 10
395.6184043866
 20
379.0530316239
 30
0.0
 11
395.6184043866
 21
361.8193436843
 31
0.0
  0
SPLINE
  5
C9
330
8F
100
AcDbEntity
  8
11218038_GRIFF__
  6
Continuous
 62
     7
100
AcDbSpline
210
0.0
220
0.0
230
1.0
 70
     8
 71
     3
 72
    10
 73
     6
 74
     0
 42
0.000000011169161
 43
0.0000000001
 40
0.0
 40
0.0
 40
0.0
 40
0.0
 40
0.5
 40
0.5
 40
1.0
 40
1.0
 40
1.0
 40
1.0
 10
395.1184043866376
 20
379.6692803104095
 30
0.0
 10
395.2648847945753
 20
379.6613479515894
 30
0.0
 10
395.3996064705974
 20
379.5784992351535
 30
0.0
 10
395.5748217729318
 20
379.3461296756121
 30
0.0
 10
395.6184043866376
 20
379.1996428112149
 30
0.0
 10
395.6184043866376
 20
379.0530316239069
 30
0.0
  0
SPLINE
  5
CA
330
8F
100
AcDbEntity
  8
11218038_GRIFF__
  6
Continuous
 62
     7
100
AcDbSpline
210
0.0
220
0.0
230
1.0
 70
     8
 71
     3
 72
    12
 73
     8
 74
     0
 42
0.000000011240689
 43
0.0000000001
 40
0.0
 40
0.0
 40
0.0
 40
0.0
 40
0.2499999999999994
 40
0.2499999999999994
 40
0.4999999999999988
 40
0.4999999999999988
 40
1.0
 40
1.0
 40
1.0
 40
1.0
 10
395.6184043866376
 20
361.8193436842927
 30
0.0
 10
395.6184043866376
 20
361.7458730772497
 30
0.0
 10
395.6078369786015
 20
361.6742800213987
 30
0.0
 10
395.5643490076934
 20
361.5350657144024
 30
0.0
 10
395.5315731839456
 20
361.469168815633
 30
0.0
 10
395.400944508761
 20
361.2950998966255
 30
0.0
 10
395.2654797048235
 20
361.2110595728063
 30
0.0
 10
395.1184043866376
 20
361.2030949977901
 30
0.0
  0
ARC
  5
CB
330
8F
100
AcDbEntity
  8
11218038_GRIFF__
  6
Continuous
 62
     7
100
AcDbCircle
 10
396.5123497169
 20
347.4204361454
 30
0.0
 40
13.85296966807067
100
AcDbArc
 50
95.7751213805
 51
119.84471751
  0
ARC
  5
CC
330
8F
100
AcDbEntity
  8
11218038_GRIFF__
  6
Continuous
 62
     7
100
AcDbCircle
 10
396.2797644153
 20
392.7279500893
 30
0.0
 40
13.11021027712979
100
AcDbArc
 50
239.4623443057
 51
264.917826471
  0
LINE
  5
CD
330
8F
100
AcDbEntity
  8
11218038_GRIFF__
  6
Continuous
 62
     7
100
AcDbLine
 10
390.1184043866
 20
386.4361876541
 30
0.0
 11
401.1184043866
 21
386.4361876541
 31
0.0
  0
LINE
  5
CE
330
8F
100
AcDbEntity
  8
11218038_GRIFF__
  6
Continuous
 62
     7
100
AcDbLine
 10
375.1184043866
 20
359.4361876541
 30
0.0
 11
389.6362664395
 21
359.4361876541
 31
0.0
  0
LINE
  5
CF
330
8F
100
AcDbEntity
  8
11218038_GRIFF__
  6
Continuous
 62
     7
100
AcDbLine
 10
389.6395784355
 20
381.4361876541
 30
0.0
 11
375.1184043866
 21
381.4361876541
 31
0.0
  0
LINE
  5
D0
330
8F
100
AcDbEntity
  8
11218038_GRIFF__
  6
Continuous
 62
     7
100
AcDbLine
 10
389.6184043866
 20
359.4459022673
 30
0.0
 11
389.6184043866
 21
310.9361876541
 31
0.0
  0
LINE
  5
D1
330
8F
100
AcDbEntity
  8
11218038_GRIFF__
  6
Continuous
 62
     7
100
AcDbLine
 10
389.6184043866
 20
385.9361876541
 30
0.0
 11
389.6184043866
 21
381.4246530332
 31
0.0
  0
LINE
  5
D2
330
8F
100
AcDbEntity
  8
11218038_GRIFF__
  6
Continuous
 62
     7
100
AcDbLine
 10
401.6184043866
 20
310.9361876541
 30
0.0
 11
401.6184043866
 21
385.9361876541
 31
0.0
  0
ARC
  5
D3
330
8F
100
AcDbEntity
  8
11218038_GRIFF__
  6
Continuous
 62
     7
100
AcDbCircle
 10
401.1184043866
 20
310.9361876541
 30
0.0
 40
0.5000000000000004
100
AcDbArc
 50
270.0
 51
0.0
  0
ARC
  5
D4
330
8F
100
AcDbEntity
  8
11218038_GRIFF__
  6
Continuous
 62
     7
100
AcDbCircle
 10
390.1184043866
 20
310.9361876541
 30
0.0
 40
0.4999999999999866
100
AcDbArc
 50
180.0
 51
270.0
  0
ARC
  5
D5
330
8F
100
AcDbEntity
  8
11218038_GRIFF__
  6
Continuous
 62
     7
100
AcDbCircle
 10
401.1184043866
 20
385.9361876541
 30
0.0
 40
0.5000000000000004
100
AcDbArc
 50
0.0
 51
90.0
  0
ARC
  5
D6
330
8F
100
AcDbEntity
  8
11218038_GRIFF__
  6
Continuous
 62
     7
100
AcDbCircle
 10
390.1184043866
 20
385.9361876541
 30
0.0
 40
0.5000000000000039
100
AcDbArc
 50
90.0
 51
180.0
  0
LINE
  5
D7
330
8F
100
AcDbEntity
  8
410367040_ESCUTC
  6
Continuous
 62
     7
100
AcDbLine
 10
301.6684037367
 20
454.9361876541
 30
0.0
 11
301.6684037367
 21
285.9361876541
 31
0.0
  0
LINE
  5
D8
330
8F
100
AcDbEntity
  8
410367040_ESCUTC
  6
Continuous
 62
     7
100
AcDbLine
 10
295.6684037367
 20
454.9361876541
 30
0.0
 11
295.6684037367
 21
286.1865585748
 31
0.0
  0
LINE
  5
D9
330
8F
100
AcDbEntity
  8
410367040_ESCUTC
  6
Continuous
 62
     7
100
AcDbLine
 10
297.0684037367
 20
285.6865585748
 30
0.0
 11
297.0684037367
 21
285.6880400595
 31
0.0
  0
LINE
  5
DA
330
8F
100
AcDbEntity
  8
410367040_ESCUTC
  6
Continuous
 62
     7
100
AcDbLine
 10
305.4622570821
 20
449.4361876541
 30
0.0
 11
302.1684037367
 21
449.4361876541
 31
0.0
  0
LINE
  5
DB
330
8F
100
AcDbEntity
  8
410367040_ESCUTC
  6
Continuous
 62
     7
100
AcDbLine
 10
302.1684037367
 20
291.4361876541
 30
0.0
 11
305.4622570821
 21
291.4361876541
 31
0.0
  0
ARC
  5
DC
330
8F
100
AcDbEntity
  8
410367040_ESCUTC
  6
Continuous
 62
     7
100
AcDbCircle
 10
-1499.5815962632
 20
370.4361876541
 30
0.0
 40
1807.249999999848
100
AcDbArc
 50
357.5098187432
 51
358.978986886
  0
ARC
  5
DD
330
8F
100
AcDbEntity
  8
410367040_ESCUTC
  6
Continuous
 62
     7
100
AcDbCircle
 10
-1499.5815962632
 20
370.4361876541
 30
0.0
 40
1807.249999999848
100
AcDbArc
 50
1.021013114
 51
2.4901812568
  0
LINE
  5
DE
330
8F
100
AcDbEntity
  8
410367040_ESCUTC
  6
Continuous
 62
     7
100
AcDbLine
 10
307.3814934914
 20
338.2361876541
 30
0.0
 11
307.3814934914
 21
402.6361876541
 31
0.0
  0
ARC
  5
DF
330
8F
100
AcDbEntity
  8
410367040_ESCUTC
  6
Continuous
 62
     7
100
AcDbCircle
 10
305.4622570821
 20
291.9361876541
 30
0.0
 40
0.5000000000000004
100
AcDbArc
 50
270.0
 51
357.5098187426
  0
ARC
  5
E0
330
8F
100
AcDbEntity
  8
410367040_ESCUTC
  6
Continuous
 62
     7
100
AcDbCircle
 10
305.4622570821
 20
448.9361876541
 30
0.0
 40
0.4999999999997695
100
AcDbArc
 50
2.4901812574
 51
90.0
  0
ARC
  5
E1
330
8F
100
AcDbEntity
  8
410367040_ESCUTC
  6
Continuous
 62
     7
100
AcDbCircle
 10
301.1684037367
 20
454.9361876541
 30
0.0
 40
0.5000000000000004
100
AcDbArc
 50
0.0
 51
90.0
  0
ARC
  5
E2
330
8F
100
AcDbEntity
  8
410367040_ESCUTC
  6
Continuous
 62
     7
100
AcDbCircle
 10
301.1684037367
 20
285.9361876541
 30
0.0
 40
0.5000000000000004
100
AcDbArc
 50
270.0
 51
0.0
  0
ARC
  5
E3
330
8F
100
AcDbEntity
  8
410367040_ESCUTC
  6
Continuous
 62
     7
100
AcDbCircle
 10
302.1684037367
 20
449.9361876541
 30
0.0
 40
0.5000000000000004
100
AcDbArc
 50
180.0
 51
270.0
  0
ARC
  5
E4
330
8F
100
AcDbEntity
  8
410367040_ESCUTC
  6
Continuous
 62
     7
100
AcDbCircle
 10
302.1684037367
 20
290.9361876541
 30
0.0
 40
0.4999999999999996
100
AcDbArc
 50
90.0
 51
180.0
  0
LINE
  5
E5
330
8F
100
AcDbEntity
  8
410367040_ESCUTC
  6
Continuous
 62
     7
100
AcDbLine
 10
301.1684037367
 20
455.4361876541
 30
0.0
 11
296.1684037367
 21
455.4361876541
 31
0.0
  0
LINE
  5
E6
330
8F
100
AcDbEntity
  8
410367040_ESCUTC
  6
Continuous
 62
     7
100
AcDbLine
 10
298.5684037367
 20
285.4361876541
 30
0.0
 11
301.1684037367
 21
285.4361876541
 31
0.0
  0
ARC
  5
E7
330
8F
100
AcDbEntity
  8
410367040_ESCUTC
  6
Continuous
 62
     7
100
AcDbCircle
 10
296.1684037367
 20
454.9361876541
 30
0.0
 40
0.5000000000000004
100
AcDbArc
 50
90.0
 51
180.0
  0
ARC
  5
E8
330
8F
100
AcDbEntity
  8
410367040_ESCUTC
  6
Continuous
 62
     7
100
AcDbCircle
 10
296.1684037367
 20
286.1865585748
 30
0.0
 40
0.5
100
AcDbArc
 50
180.0
 51
270.0
  0
LINE
  5
E9
330
8F
100
AcDbEntity
  8
410367040_ESCUTC
  6
Continuous
 62
     7
100
AcDbLine
 10
296.1684037367
 20
285.6865585748
 30
0.0
 11
297.0684037367
 21
285.6865585748
 31
0.0
  0
SPLINE
  5
EA
330
8F
100
AcDbEntity
  8
410367040_ESCUTC
  6
Continuous
 62
     7
100
AcDbSpline
210
0.0
220
0.0
230
1.0
 70
     8
 71
     3
 72
    14
 73
    10
 74
     0
 42
0.0000000052568392
 43
0.0000000001
 40
0.0
 40
0.0
 40
0.0
 40
0.0
 40
0.0516472190267371
 40
0.2066995941950601
 40
0.3610570525864135
 40
0.5139137320856726
 40
0.6332098194300114
 40
0.6988071976939026
 40
0.7019511030920111
 40
0.7019511030920111
 40
0.7019511030920111
 40
0.7019511030920111
 10
297.0684891136464
 20
285.6855391673892
 30
0.0
 10
297.1192572611484
 20
285.685863199203
 30
0.0
 10
297.2937523570978
 20
285.6868838920606
 30
0.0
 10
297.6217959634661
 20
285.6795110384958
 30
0.0
 10
297.9793212389937
 20
285.6642447276139
 30
0.0
 10
298.2390091999438
 20
285.6445920084699
 30
0.0
 10
298.3710348609346
 20
285.6279913934261
 30
0.0
 10
298.400451781976
 20
285.6220501774174
 30
0.0
 10
298.4009698894301
 20
285.621852832957
 30
0.0
 10
298.4009711711506
 20
285.6218486670041
 30
0.0
  0
SPLINE
  5
EB
330
8F
100
AcDbEntity
  8
410367040_ESCUTC
  6
Continuous
 62
     7
100
AcDbSpline
210
0.0
220
0.0
230
1.0
 70
     8
 71
     3
 72
    13
 73
     9
 74
     0
 42
0.0000000039744275
 43
0.0000000001
 40
0.7759635079240551
 40
0.7759635079240551
 40
0.7759635079240551
 40
0.7759635079240551
 40
0.7800629497926537
 40
0.8160012592877577
 40
0.8685534993306903
 40
0.9311765251905215
 40
0.9991269845563555
 40
1.0
 40
1.0
 40
1.0
 40
1.0
 10
298.3517906921274
 20
285.6394372014245
 30
0.0
 10
298.3498483645181
 20
285.6402987461557
 30
0.0
 10
298.3303360102032
 20
285.649137684846
 30
0.0
 10
298.273197896083
 20
285.6797157031949
 30
0.0
 10
298.1747785328582
 20
285.764762403639
 30
0.0
 10
298.0961409843724
 20
285.9019922617385
 30
0.0
 10
298.0579139754756
 20
286.0247811310502
 30
0.0
 10
298.0686905438654
 20
286.0814213437642
 30
0.0
 10
298.0688490337691
 20
286.0822534143246
 30
0.0
  0
ARC
  5
EC
330
8F
100
AcDbEntity
  8
410367040_ESCUTC
  6
Continuous
 62
     7
100
AcDbCircle
 10
298.5684037367
 20
285.9361876541
 30
0.0
 40
0.4999999999999996
100
AcDbArc
 50
215.9993721326
 51
270.0
  0
ENDBLK
  5
EE
330
8F
100
AcDbEntity
  8
0
100
AcDbBlockEnd
  0
BLOCK
  5
132
330
EF
100
AcDbEntity
  8
0
100
AcDbBlockBegin
  2
SE2
 70
     0
 10
0.0
 20
0.0
 30
0.0
  3
SE2
  1

  0
LINE
  5
F1
330
EF
100
AcDbEntity
  8
410306038_DIVERT
  6
Continuous
 62
     7
100
AcDbLine
 10
122.5472607745
 20
182.3
 30
0.0
 11
60.3527392255
 21
182.3
 31
0.0
  0
LINE
  5
F2
330
EF
100
AcDbEntity
  8
410306038_DIVERT
  6
Continuous
 62
     7
100
AcDbLine
 10
60.2043824731
 20
164.3
 30
0.0
 11
122.6956175269
 21
164.3
 31
0.0
  0
LINE
  5
F3
330
EF
100
AcDbEntity
  8
410306038_DIVERT
  6
Continuous
 62
     7
100
AcDbLine
 10
123.1955984884
 20
164.8043632677
 30
0.0
 11
123.047241736
 21
181.8043632677
 31
0.0
  0
LINE
  5
F4
330
EF
100
AcDbEntity
  8
410306038_DIVERT
  6
Continuous
 62
     7
100
AcDbLine
 10
59.852758264
 20
181.8043632677
 30
0.0
 11
59.7044015116
 21
164.8043632677
 31
0.0
  0
LINE
  5
F5
330
EF
100
AcDbEntity
  8
410306038_DIVERT
  6
Continuous
 62
     7
100
AcDbLine
 10
121.4482698575
 20
182.4982546929
 30
0.0
 11
121.4465092529
 21
182.7
 31
0.0
  0
LINE
  5
F6
330
EF
100
AcDbEntity
  8
410306038_DIVERT
  6
Continuous
 62
     7
100
AcDbLine
 10
61.4534907471
 20
182.7
 30
0.0
 11
61.4517301425
 21
182.4982546929
 31
0.0
  0
ARC
  5
F7
330
EF
100
AcDbEntity
  8
410306038_DIVERT
  6
Continuous
 62
     7
100
AcDbCircle
 10
121.6482622421
 20
182.5
 30
0.0
 40
0.1999999999999988
100
AcDbArc
 50
180.5
 51
270.0
  0
ARC
  5
F8
330
EF
100
AcDbEntity
  8
410306038_DIVERT
  6
Continuous
 62
     7
100
AcDbCircle
 10
61.2517377579
 20
182.5
 30
0.0
 40
0.2000000000000034
100
AcDbArc
 50
270.0
 51
359.5
  0
ARC
  5
F9
330
EF
100
AcDbEntity
  8
410306038_DIVERT
  6
Continuous
 62
     7
100
AcDbCircle
 10
122.5472607745
 20
181.8
 30
0.0
 40
0.4999999999999979
100
AcDbArc
 50
0.5
 51
90.0
  0
ARC
  5
FA
330
EF
100
AcDbEntity
  8
410306038_DIVERT
  6
Continuous
 62
     7
100
AcDbCircle
 10
60.3527392255
 20
181.8
 30
0.0
 40
0.5000000000000004
100
AcDbArc
 50
90.0
 51
179.5
  0
ARC
  5
FB
330
EF
100
AcDbEntity
  8
410306038_DIVERT
  6
Continuous
 62
     7
100
AcDbCircle
 10
122.6956175269
 20
164.8
 30
0.0
 40
0.5000000000000004
100
AcDbArc
 50
270.0
 51
0.5
  0
ARC
  5
FC
330
EF
100
AcDbEntity
  8
410306038_DIVERT
  6
Continuous
 62
     7
100
AcDbCircle
 10
60.2043824731
 20
164.8
 30
0.0
 40
0.5000000000000038
100
AcDbArc
 50
179.5
 51
270.0
  0
LINE
  5
FD
330
EF
100
AcDbEntity
  8
410318038_HANDLE
  6
Continuous
 62
     7
100
AcDbLine
 10
68.95
 20
132.85
 30
0.0
 11
113.95
 21
132.85
 31
0.0
  0
LINE
  5
FE
330
EF
100
AcDbEntity
  8
410318038_HANDLE
  6
Continuous
 62
     7
100
AcDbLine
 10
123.0
 20
163.7
 30
0.0
 11
59.9
 21
163.7
 31
0.0
  0
LINE
  5
FF
330
EF
100
AcDbEntity
  8
410318038_HANDLE
  6
Continuous
 62
     7
100
AcDbLine
 10
60.2
 20
140.85
 30
0.0
 11
122.7
 21
140.85
 31
0.0
  0
LINE
  5
100
330
EF
100
AcDbEntity
  8
410318038_HANDLE
  6
Continuous
 62
     7
100
AcDbLine
 10
59.7
 20
163.5
 30
0.0
 11
59.7
 21
141.35
 31
0.0
  0
LINE
  5
101
330
EF
100
AcDbEntity
  8
410318038_HANDLE
  6
Continuous
 62
     7
100
AcDbLine
 10
123.2
 20
141.35
 30
0.0
 11
123.2
 21
163.5
 31
0.0
  0
LINE
  5
102
330
EF
100
AcDbEntity
  8
410318038_HANDLE
  6
Continuous
 62
     7
100
AcDbLine
 10
114.45
 20
133.35
 30
0.0
 11
114.45
 21
140.35
 31
0.0
  0
LINE
  5
103
330
EF
100
AcDbEntity
  8
410318038_HANDLE
  6
Continuous
 62
     7
100
AcDbLine
 10
68.45
 20
140.35
 30
0.0
 11
68.45
 21
133.35
 31
0.0
  0
ARC
  5
104
330
EF
100
AcDbEntity
  8
410318038_HANDLE
  6
Continuous
 62
     7
100
AcDbCircle
 10
68.95
 20
133.35
 30
0.0
 40
0.5000000000000004
100
AcDbArc
 50
180.0
 51
270.0
  0
ARC
  5
105
330
EF
100
AcDbEntity
  8
410318038_HANDLE
  6
Continuous
 62
     7
100
AcDbCircle
 10
113.95
 20
133.35
 30
0.0
 40
0.5000000000000004
100
AcDbArc
 50
270.0
 51
0.0
  0
ARC
  5
106
330
EF
100
AcDbEntity
  8
410318038_HANDLE
  6
Continuous
 62
     7
100
AcDbCircle
 10
67.95
 20
140.35
 30
0.0
 40
0.5000000000000004
100
AcDbArc
 50
0.0
 51
90.0
  0
ARC
  5
107
330
EF
100
AcDbEntity
  8
410318038_HANDLE
  6
Continuous
 62
     7
100
AcDbCircle
 10
114.95
 20
140.35
 30
0.0
 40
0.5000000000000004
100
AcDbArc
 50
90.0
 51
180.0
  0
ARC
  5
108
330
EF
100
AcDbEntity
  8
410318038_HANDLE
  6
Continuous
 62
     7
100
AcDbCircle
 10
59.9
 20
163.5
 30
0.0
 40
0.1999999999999988
100
AcDbArc
 50
90.0
 51
180.0
  0
ARC
  5
109
330
EF
100
AcDbEntity
  8
410318038_HANDLE
  6
Continuous
 62
     7
100
AcDbCircle
 10
123.0
 20
163.5
 30
0.0
 40
0.1999999999999988
100
AcDbArc
 50
0.0
 51
90.0
  0
ARC
  5
10A
330
EF
100
AcDbEntity
  8
410318038_HANDLE
  6
Continuous
 62
     7
100
AcDbCircle
 10
60.2
 20
141.35
 30
0.0
 40
0.5000000000000004
100
AcDbArc
 50
180.0
 51
270.0
  0
ARC
  5
10B
330
EF
100
AcDbEntity
  8
410318038_HANDLE
  6
Continuous
 62
     7
100
AcDbCircle
 10
122.7
 20
141.35
 30
0.0
 40
0.5000000000000004
100
AcDbArc
 50
270.0
 51
0.0
  0
LINE
  5
10C
330
EF
100
AcDbEntity
  8
410318038_HANDLE
  6
Continuous
 62
     7
100
AcDbLine
 10
62.25
 20
164.3
 30
0.0
 11
62.25
 21
163.9
 31
0.0
  0
LINE
  5
10D
330
EF
100
AcDbEntity
  8
410318038_HANDLE
  6
Continuous
 62
     7
100
AcDbLine
 10
120.65
 20
163.9
 30
0.0
 11
120.65
 21
164.3
 31
0.0
  0
ARC
  5
10E
330
EF
100
AcDbEntity
  8
410318038_HANDLE
  6
Continuous
 62
     7
100
AcDbCircle
 10
62.05
 20
163.9
 30
0.0
 40
0.1999999999999988
100
AcDbArc
 50
270.0
 51
0.0
  0
ARC
  5
10F
330
EF
100
AcDbEntity
  8
410318038_HANDLE
  6
Continuous
 62
     7
100
AcDbCircle
 10
120.85
 20
163.9
 30
0.0
 40
0.1999999999999988
100
AcDbArc
 50
180.0
 51
270.0
  0
LINE
  5
110
330
EF
100
AcDbEntity
  8
410064038_SLEEVE
  6
Continuous
 62
     7
100
AcDbLine
 10
123.2
 20
183.3
 30
0.0
 11
123.2
 21
200.5869108953
 31
0.0
  0
LINE
  5
111
330
EF
100
AcDbEntity
  8
410064038_SLEEVE
  6
Continuous
 62
     7
100
AcDbLine
 10
59.7
 20
200.5869108953
 30
0.0
 11
59.7
 21
183.3
 31
0.0
  0
LINE
  5
112
330
EF
100
AcDbEntity
  8
410228031_BEARIN
  6
Continuous
 62
     7
100
AcDbLine
 10
59.9
 20
182.7
 30
0.0
 11
123.0
 21
182.7
 31
0.0
  0
LINE
  5
113
330
EF
100
AcDbEntity
  8
410228031_BEARIN
  6
Continuous
 62
     7
100
AcDbLine
 10
59.9
 20
183.3
 30
0.0
 11
59.9
 21
182.7
 31
0.0
  0
LINE
  5
114
330
EF
100
AcDbEntity
  8
410228031_BEARIN
  6
Continuous
 62
     7
100
AcDbLine
 10
123.0
 20
182.7
 30
0.0
 11
123.0
 21
183.3
 31
0.0
  0
LINE
  5
115
330
EF
100
AcDbEntity
  8
11218038_GRIFF__
  6
Continuous
 62
     7
100
AcDbLine
 10
85.45
 20
112.35
 30
0.0
 11
80.95
 21
112.35
 31
0.0
  0
LINE
  5
116
330
EF
100
AcDbEntity
  8
11218038_GRIFF__
  6
Continuous
 62
     7
100
AcDbLine
 10
97.45
 20
112.35
 30
0.0
 11
101.95
 21
112.35
 31
0.0
  0
CIRCLE
  5
117
330
EF
100
AcDbEntity
  8
11218038_GRIFF__
  6
Continuous
 62
     7
100
AcDbCircle
 10
91.45
 20
112.35
 30
0.0
 40
5.999999999999999
  0
ARC
  5
118
330
EF
100
AcDbEntity
  8
11218038_GRIFF__
  6
Continuous
 62
     7
100
AcDbCircle
 10
70.0863778288
 20
117.3500000149
 30
0.0
 40
10.6157743211666
100
AcDbArc
 50
347.4871486534
 51
12.5128584701
  0
LINE
  5
119
330
EF
100
AcDbEntity
  8
11218038_GRIFF__
  6
Continuous
 62
     7
100
AcDbLine
 10
80.45
 20
115.0504966507
 30
0.0
 11
80.45
 21
112.85
 31
0.0
  0
LINE
  5
11A
330
EF
100
AcDbEntity
  8
11218038_GRIFF__
  6
Continuous
 62
     7
100
AcDbLine
 10
80.45
 20
132.85
 30
0.0
 11
80.45
 21
119.65
 31
0.0
  0
LINE
  5
11B
330
EF
100
AcDbEntity
  8
11218038_GRIFF__
  6
Continuous
 62
     7
100
AcDbLine
 10
102.45
 20
112.85
 30
0.0
 11
102.45
 21
132.85
 31
0.0
  0
ARC
  5
11C
330
EF
100
AcDbEntity
  8
11218038_GRIFF__
  6
Continuous
 62
     7
100
AcDbCircle
 10
80.95
 20
112.85
 30
0.0
 40
0.5000000000000004
100
AcDbArc
 50
180.0
 51
270.0
  0
ARC
  5
11D
330
EF
100
AcDbEntity
  8
11218038_GRIFF__
  6
Continuous
 62
     7
100
AcDbCircle
 10
101.95
 20
112.85
 30
0.0
 40
0.5000000000000004
100
AcDbArc
 50
270.0
 51
0.0
  0
LINE
  5
11E
330
EF
100
AcDbEntity
  8
410367040_ESCUTC
  6
Continuous
 62
     7
100
AcDbLine
 10
6.95
 20
206.30000065
 30
0.0
 11
175.95
 21
206.30000065
 31
0.0
  0
LINE
  5
11F
330
EF
100
AcDbEntity
  8
410367040_ESCUTC
  6
Continuous
 62
     7
100
AcDbLine
 10
6.95
 20
212.30000065
 30
0.0
 11
175.95
 21
212.30000065
 31
0.0
  0
LINE
  5
120
330
EF
100
AcDbEntity
  8
410367040_ESCUTC
  6
Continuous
 62
     7
100
AcDbLine
 10
170.45
 20
202.5061473046
 30
0.0
 11
170.45
 21
205.80000065
 31
0.0
  0
LINE
  5
121
330
EF
100
AcDbEntity
  8
410367040_ESCUTC
  6
Continuous
 62
     7
100
AcDbLine
 10
12.45
 20
205.80000065
 30
0.0
 11
12.45
 21
202.5061473046
 31
0.0
  0
ARC
  5
122
330
EF
100
AcDbEntity
  8
410367040_ESCUTC
  6
Continuous
 62
     7
100
AcDbCircle
 10
91.4499999999
 20
2007.5500006498
 30
0.0
 40
1807.249999999848
100
AcDbArc
 50
267.5098187432
 51
268.978986886
  0
ARC
  5
123
330
EF
100
AcDbEntity
  8
410367040_ESCUTC
  6
Continuous
 62
     7
100
AcDbCircle
 10
91.4499999999
 20
2007.5500006498
 30
0.0
 40
1807.249999999848
100
AcDbArc
 50
271.021013114
 51
272.4901812568
  0
LINE
  5
124
330
EF
100
AcDbEntity
  8
410367040_ESCUTC
  6
Continuous
 62
     7
100
AcDbLine
 10
59.25
 20
200.5869108953
 30
0.0
 11
123.65
 21
200.5869108953
 31
0.0
  0
ARC
  5
125
330
EF
100
AcDbEntity
  8
410367040_ESCUTC
  6
Continuous
 62
     7
100
AcDbCircle
 10
12.95
 20
202.5061473046
 30
0.0
 40
0.5000000000000004
100
AcDbArc
 50
180.0
 51
267.5098187397
  0
ARC
  5
126
330
EF
100
AcDbEntity
  8
410367040_ESCUTC
  6
Continuous
 62
     7
100
AcDbCircle
 10
169.95
 20
202.5061473046
 30
0.0
 40
0.4999999999986553
100
AcDbArc
 50
272.4901812545
 51
0.0
  0
ARC
  5
127
330
EF
100
AcDbEntity
  8
410367040_ESCUTC
  6
Continuous
 62
     7
100
AcDbCircle
 10
175.95
 20
206.80000065
 30
0.0
 40
0.5000000000000004
100
AcDbArc
 50
270.0
 51
0.0
  0
ARC
  5
128
330
EF
100
AcDbEntity
  8
410367040_ESCUTC
  6
Continuous
 62
     7
100
AcDbCircle
 10
6.95
 20
206.80000065
 30
0.0
 40
0.5000000000000004
100
AcDbArc
 50
180.0
 51
270.0
  0
ARC
  5
129
330
EF
100
AcDbEntity
  8
410367040_ESCUTC
  6
Continuous
 62
     7
100
AcDbCircle
 10
170.95
 20
205.80000065
 30
0.0
 40
0.5000000000000004
100
AcDbArc
 50
90.0
 51
180.0
  0
ARC
  5
12A
330
EF
100
AcDbEntity
  8
410367040_ESCUTC
  6
Continuous
 62
     7
100
AcDbCircle
 10
11.95
 20
205.80000065
 30
0.0
 40
0.4999999999999996
100
AcDbArc
 50
0.0
 51
90.0
  0
LINE
  5
12B
330
EF
100
AcDbEntity
  8
410367040_ESCUTC
  6
Continuous
 62
     7
100
AcDbLine
 10
176.45
 20
206.80000065
 30
0.0
 11
176.45
 21
211.80000065
 31
0.0
  0
LINE
  5
12C
330
EF
100
AcDbEntity
  8
410367040_ESCUTC
  6
Continuous
 62
     7
100
AcDbLine
 10
6.45
 20
211.80000065
 30
0.0
 11
6.45
 21
206.80000065
 31
0.0
  0
ARC
  5
12D
330
EF
100
AcDbEntity
  8
410367040_ESCUTC
  6
Continuous
 62
     7
100
AcDbCircle
 10
6.95
 20
211.80000065
 30
0.0
 40
0.5000000000000002
100
AcDbArc
 50
90.0
 51
180.0
  0
ARC
  5
12E
330
EF
100
AcDbEntity
  8
410367040_ESCUTC
  6
Continuous
 62
     7
100
AcDbCircle
 10
175.95
 20
211.80000065
 30
0.0
 40
0.5000000000000004
100
AcDbArc
 50
0.0
 51
90.0
  0
LINE
  5
130
330
EF
100
AcDbEntity
  8
DV3_Standard
  6
CENTER2
 62
     7
100
AcDbLine
 10
111.449999553
 20
212.30000065
 30
0.0
 11
71.450000447
 21
212.30000065
 31
0.0
  0
LINE
  5
131
330
EF
100
AcDbEntity
  8
DV3_Standard
  6
CENTER2
 62
     7
100
AcDbLine
 10
91.45
 20
232.3000002029
 30
0.0
 11
91.45
 21
192.300001097
 31
0.0
  0
ENDBLK
  5
133
330
EF
100
AcDbEntity
  8
0
100
AcDbBlockEnd
  0
ENDSEC
  0
SECTION
  2
ENTITIES
  0
INSERT
  5
5F
330
1F
100
AcDbEntity
  8
Default
100
AcDbBlockReference
  2
SEANNOT_GROUP
 10
0.0
 20
0.0
 30
0.0
  0
INSERT
  5
66
330
1F
100
AcDbEntity
  8
Default
100
AcDbBlockReference
  2
SE
 10
0.0
 20
0.0
 30
0.0
  0
INSERT
  5
90
330
1F
100
AcDbEntity
  8
Default
100
AcDbBlockReference
  2
SE1
 10
0.0
 20
0.0
 30
0.0
  0
INSERT
  5
F0
330
1F
100
AcDbEntity
  8
Default
100
AcDbBlockReference
  2
SE2
 10
0.0
 20
0.0
 30
0.0
  0
TEXT
  5
135
330
1F
100
AcDbEntity
  8
Default
  6
Continuous
 62
     7
100
AcDbText
 10
5.9362635081
 20
53.4225120485
 30
0.0
 40
10.0
  1
Grohe AG^J
  7
SEACAD_seiso_ttf
 11
5.9362635081
 21
63.4225120485
 31
0.0
100
AcDbText
 73
     3
  0
TEXT
  5
136
330
1F
100
AcDbEntity
  8
Default
  6
Continuous
 62
     7
100
AcDbText
 10
5.9362635081
 20
37.0588756849
 30
0.0
 40
10.0
  1
 
  7
SEACAD_seiso_ttf
 11
5.9362635081
 21
47.0588756849
 31
0.0
100
AcDbText
 73
     3
  0
TEXT
  5
137
330
1F
100
AcDbEntity
  8
Default
  6
Continuous
 62
     7
100
AcDbText
 10
5.9362635081
 20
20.6952393213
 30
0.0
 40
10.0
  1
ecn: 
  7
SEACAD_seiso_ttf
 11
5.9362635081
 21
30.6952393213
 31
0.0
100
AcDbText
 73
     3
  0
TEXT
  5
138
330
1F
100
AcDbEntity
  8
Default
  6
Continuous
 62
     7
100
AcDbText
 10
5.9362635081
 20
4.3316029576
 30
0.0
 40
10.0
  1
unit: mm
  7
SEACAD_seiso_ttf
 11
5.9362635081
 21
14.3316029576
 31
0.0
100
AcDbText
 73
     3
  0
LINE
  5
139
330
1F
100
AcDbEntity
  8
Default
  6
Continuous
 62
     7
100
AcDbLine
 10
0.0
 20
0.0
 30
0.0
 11
100.0
 21
0.0
 31
0.0
  0
LINE
  5
13A
330
1F
100
AcDbEntity
  8
Default
  6
Continuous
 62
     7
100
AcDbLine
 10
0.0
 20
0.0
 30
0.0
 11
0.0
 21
100.0
 31
0.0
  0
TEXT
  5
13B
330
1F
100
AcDbEntity
  8
Default
  6
Continuous
 62
     7
100
AcDbText
 10
24.3923665681
 20
-18.2375342018
 30
0.0
 40
10.0
  1
100 mm
  7
SEACAD_seiso_ttf
 11
24.3923665681
 21
-8.2375342018
 31
0.0
100
AcDbText
 73
     3
  0
TEXT
  5
13C
330
1F
100
AcDbEntity
  8
Default
  6
Continuous
 62
     7
100
AcDbText
 10
-7.6150308803
 20
24.6231930421
 30
0.0
 40
10.0
  1
100 mm
 50
90.0
  7
SEACAD_seiso_ttf
 11
-17.6150308803
 21
24.6231930421
 31
0.0
100
AcDbText
 73
     3
  0
TEXT
  5
13D
330
1F
100
AcDbEntity
  8
Default
  6
Continuous
 62
     7
100
AcDbText
 10
28.4878128572
 20
20.0907663715
 30
0.0
 40
10.0
  1
219326
  7
SEACAD_seiso_ttf
 11
28.4878128572
 21
30.0907663715
 31
0.0
100
AcDbText
 73
     3
  0
TEXT
  5
13E
330
1F
100
AcDbEntity
  8
Default
  6
Continuous
 62
     7
100
AcDbText
 10
5.9012241913
 20
36.7242780188
 30
0.0
 40
10.0
  1
19867000
  7
SEACAD_seiso_ttf
 11
5.9012241913
 21
46.7242780188
 31
0.0
100
AcDbText
 73
     3
  0
ENDSEC
  0
SECTION
  2
OBJECTS
  0
DICTIONARY
  5
C
330
0
100
AcDbDictionary
281
     1
  3
ACAD_GROUP
350
D
  3
ACAD_LAYOUT
350
1A
  3
ACAD_MLEADERSTYLE
350
142
  3
ACAD_MLINESTYLE
350
17
  3
ACAD_PLOTSETTINGS
350
19
  3
ACAD_PLOTSTYLENAME
350
E
  3
ACAD_SCALELIST
350
3B
  3
ACAD_TABLESTYLE
350
141
  3
ACAD_VISUALSTYLE
350
2A
  3
AcDbVariableDictionary
350
13F
  0
DICTIONARY
  5
D
102
{ACAD_REACTORS
330
C
102
}
330
C
100
AcDbDictionary
281
     1
  0
DICTIONARY
  5
1A
102
{ACAD_REACTORS
330
C
102
}
330
C
100
AcDbDictionary
281
     1
  3
Layout1
350
1E
  3
Model
350
22
  0
DICTIONARY
  5
142
102
{ACAD_REACTORS
330
C
102
}
330
C
100
AcDbDictionary
281
     1
  0
DICTIONARY
  5
17
102
{ACAD_REACTORS
330
C
102
}
330
C
100
AcDbDictionary
281
     1
  3
Standard
350
18
  0
DICTIONARY
  5
19
102
{ACAD_REACTORS
330
C
102
}
330
C
100
AcDbDictionary
281
     1
  0
ACDBDICTIONARYWDFLT
  5
E
102
{ACAD_REACTORS
330
C
102
}
330
C
100
AcDbDictionary
281
     1
  3
Normal
350
F
100
AcDbDictionaryWithDefault
340
F
  0
DICTIONARY
  5
3B
102
{ACAD_REACTORS
330
C
102
}
330
C
100
AcDbDictionary
281
     1
  3
A0
350
3C
  3
A1
350
3D
  3
A2
350
3E
  3
A3
350
3F
  3
A4
350
40
  3
A5
350
41
  3
A6
350
42
  3
A7
350
43
  3
A8
350
44
  3
A9
350
45
  3
B0
350
46
  3
B1
350
47
  3
B2
350
48
  3
B3
350
49
  3
B4
350
4A
  3
B5
350
4B
  3
B6
350
4C
  3
B7
350
4D
  3
B8
350
4E
  3
B9
350
4F
  3
C0
350
50
  3
C1
350
51
  3
C2
350
52
  3
C3
350
53
  3
C4
350
54
  3
C5
350
55
  3
C6
350
56
  3
C7
350
57
  3
C8
350
58
  3
C9
350
59
  3
D0
350
5A
  3
D1
350
5B
  3
D2
350
5C
  0
DICTIONARY
  5
141
102
{ACAD_REACTORS
330
C
102
}
330
C
100
AcDbDictionary
281
     1
  0
DICTIONARY
  5
2A
102
{ACAD_REACTORS
330
C
102
}
330
C
100
AcDbDictionary
281
     1
  3
2dWireframe
350
2F
  3
3D Hidden
350
31
  3
3dWireframe
350
30
  3
Basic
350
32
  3
Brighten
350
36
  3
ColorChange
350
3A
  3
Conceptual
350
34
  3
Dim
350
35
  3
Facepattern
350
39
  3
Flat
350
2B
  3
FlatWithEdges
350
2C
  3
Gouraud
350
2D
  3
GouraudWithEdges
350
2E
  3
Linepattern
350
38
  3
Realistic
350
33
  3
Thicken
350
37
  0
DICTIONARY
  5
13F
102
{ACAD_REACTORS
330
C
102
}
330
C
100
AcDbDictionary
281
     1
  3
CANNOSCALE
350
140
  3
PSOLHEIGHT
350
144
  3
PSOLWIDTH
350
143
  0
LAYOUT
  5
1E
102
{ACAD_REACTORS
330
1A
102
}
330
1A
100
AcDbPlotSettings
  1

  2
none_device
  4

  6

 40
0.0
 41
0.0
 42
0.0
 43
0.0
 44
0.0
 45
0.0
 46
0.0
 47
0.0
 48
0.0
 49
0.0
140
0.0
141
0.0
142
1.0
143
1.0
 70
   688
 72
     0
 73
     0
 74
     5
  7

 75
    16
147
1.0
148
0.0
149
0.0
100
AcDbLayout
  1
Layout1
 70
     1
 71
     1
 10
0.0
 20
0.0
 11
1682.0
 21
2378.0
 12
0.0
 22
0.0
 32
0.0
 14
0.0
 24
0.0
 34
0.0
 15
1682.0
 25
2378.0
 35
0.0
146
0.0
 13
0.0
 23
0.0
 33
0.0
 16
1.0
 26
0.0
 36
0.0
 17
0.0
 27
1.0
 37
0.0
 76
     0
330
1B
  0
LAYOUT
  5
22
102
{ACAD_REACTORS
330
1A
102
}
330
1A
100
AcDbPlotSettings
  1

  2
none_device
  4

  6

 40
0.0
 41
0.0
 42
0.0
 43
0.0
 44
0.0
 45
0.0
 46
0.0
 47
0.0
 48
0.0
 49
0.0
140
0.0
141
0.0
142
1.0
143
1.0
 70
  1712
 72
     0
 73
     0
 74
     0
  7

 75
     0
147
1.0
148
0.0
149
0.0
100
AcDbLayout
  1
Model
 70
     1
 71
     0
 10
0.0
 20
0.0
 11
1682.0
 21
2378.0
 12
0.0
 22
0.0
 32
0.0
 14
0.0
 24
0.0
 34
0.0
 15
1682.0
 25
2378.0
 35
0.0
146
0.0
 13
0.0
 23
0.0
 33
0.0
 16
1.0
 26
0.0
 36
0.0
 17
0.0
 27
1.0
 37
0.0
 76
     0
330
1F
331
29
  0
MLINESTYLE
  5
18
102
{ACAD_REACTORS
330
17
102
}
330
17
100
AcDbMlineStyle
  2
Standard
 70
     0
  3

 62
   256
 51
90.0
 52
90.0
 71
     2
 49
0.5
 62
   256
  6
BYLAYER
 49
-0.5
 62
   256
  6
BYLAYER
  0
ACDBPLACEHOLDER
  5
F
102
{ACAD_REACTORS
330
E
102
}
330
E
  0
SCALE
  5
3C
102
{ACAD_REACTORS
330
3B
102
}
330
3B
100
AcDbScale
 70
     0
300
1:1
140
1.0
141
1.0
290
     1
  0
SCALE
  5
3D
102
{ACAD_REACTORS
330
3B
102
}
330
3B
100
AcDbScale
 70
     0
300
1:2
140
1.0
141
2.0
290
     0
  0
SCALE
  5
3E
102
{ACAD_REACTORS
330
3B
102
}
330
3B
100
AcDbScale
 70
     0
300
1:4
140
1.0
141
4.0
290
     0
  0
SCALE
  5
3F
102
{ACAD_REACTORS
330
3B
102
}
330
3B
100
AcDbScale
 70
     0
300
1:5
140
1.0
141
5.0
290
     0
  0
SCALE
  5
40
102
{ACAD_REACTORS
330
3B
102
}
330
3B
100
AcDbScale
 70
     0
300
1:8
140
1.0
141
8.0
290
     0
  0
SCALE
  5
41
102
{ACAD_REACTORS
330
3B
102
}
330
3B
100
AcDbScale
 70
     0
300
1:10
140
1.0
141
10.0
290
     0
  0
SCALE
  5
42
102
{ACAD_REACTORS
330
3B
102
}
330
3B
100
AcDbScale
 70
     0
300
1:16
140
1.0
141
16.0
290
     0
  0
SCALE
  5
43
102
{ACAD_REACTORS
330
3B
102
}
330
3B
100
AcDbScale
 70
     0
300
1:20
140
1.0
141
20.0
290
     0
  0
SCALE
  5
44
102
{ACAD_REACTORS
330
3B
102
}
330
3B
100
AcDbScale
 70
     0
300
1:30
140
1.0
141
30.0
290
     0
  0
SCALE
  5
45
102
{ACAD_REACTORS
330
3B
102
}
330
3B
100
AcDbScale
 70
     0
300
1:40
140
1.0
141
40.0
290
     0
  0
SCALE
  5
46
102
{ACAD_REACTORS
330
3B
102
}
330
3B
100
AcDbScale
 70
     0
300
1:50
140
1.0
141
50.0
290
     0
  0
SCALE
  5
47
102
{ACAD_REACTORS
330
3B
102
}
330
3B
100
AcDbScale
 70
     0
300
1:100
140
1.0
141
100.0
290
     0
  0
SCALE
  5
48
102
{ACAD_REACTORS
330
3B
102
}
330
3B
100
AcDbScale
 70
     0
300
2:1
140
2.0
141
1.0
290
     0
  0
SCALE
  5
49
102
{ACAD_REACTORS
330
3B
102
}
330
3B
100
AcDbScale
 70
     0
300
4:1
140
4.0
141
1.0
290
     0
  0
SCALE
  5
4A
102
{ACAD_REACTORS
330
3B
102
}
330
3B
100
AcDbScale
 70
     0
300
8:1
140
8.0
141
1.0
290
     0
  0
SCALE
  5
4B
102
{ACAD_REACTORS
330
3B
102
}
330
3B
100
AcDbScale
 70
     0
300
10:1
140
10.0
141
1.0
290
     0
  0
SCALE
  5
4C
102
{ACAD_REACTORS
330
3B
102
}
330
3B
100
AcDbScale
 70
     0
300
100:1
140
100.0
141
1.0
290
     0
  0
SCALE
  5
4D
102
{ACAD_REACTORS
330
3B
102
}
330
3B
100
AcDbScale
 70
     0
300
1/128" = 1'-0"
140
0.0078125
141
12.0
290
     0
  0
SCALE
  5
4E
102
{ACAD_REACTORS
330
3B
102
}
330
3B
100
AcDbScale
 70
     0
300
1/64" = 1'-0"
140
0.015625
141
12.0
290
     0
  0
SCALE
  5
4F
102
{ACAD_REACTORS
330
3B
102
}
330
3B
100
AcDbScale
 70
     0
300
1/32" = 1'-0"
140
0.03125
141
12.0
290
     0
  0
SCALE
  5
50
102
{ACAD_REACTORS
330
3B
102
}
330
3B
100
AcDbScale
 70
     0
300
1/16" = 1'-0"
140
0.0625
141
12.0
290
     0
  0
SCALE
  5
51
102
{ACAD_REACTORS
330
3B
102
}
330
3B
100
AcDbScale
 70
     0
300
3/32" = 1'-0"
140
0.09375
141
12.0
290
     0
  0
SCALE
  5
52
102
{ACAD_REACTORS
330
3B
102
}
330
3B
100
AcDbScale
 70
     0
300
1/8" = 1'-0"
140
0.125
141
12.0
290
     0
  0
SCALE
  5
53
102
{ACAD_REACTORS
330
3B
102
}
330
3B
100
AcDbScale
 70
     0
300
3/16" = 1'-0"
140
0.1875
141
12.0
290
     0
  0
SCALE
  5
54
102
{ACAD_REACTORS
330
3B
102
}
330
3B
100
AcDbScale
 70
     0
300
1/4" = 1'-0"
140
0.25
141
12.0
290
     0
  0
SCALE
  5
55
102
{ACAD_REACTORS
330
3B
102
}
330
3B
100
AcDbScale
 70
     0
300
3/8" = 1'-0"
140
0.375
141
12.0
290
     0
  0
SCALE
  5
56
102
{ACAD_REACTORS
330
3B
102
}
330
3B
100
AcDbScale
 70
     0
300
1/2" = 1'-0"
140
0.5
141
12.0
290
     0
  0
SCALE
  5
57
102
{ACAD_REACTORS
330
3B
102
}
330
3B
100
AcDbScale
 70
     0
300
3/4" = 1'-0"
140
0.75
141
12.0
290
     0
  0
SCALE
  5
58
102
{ACAD_REACTORS
330
3B
102
}
330
3B
100
AcDbScale
 70
     0
300
1" = 1'-0"
140
1.0
141
12.0
290
     0
  0
SCALE
  5
59
102
{ACAD_REACTORS
330
3B
102
}
330
3B
100
AcDbScale
 70
     0
300
1-1/2" = 1'-0"
140
1.5
141
12.0
290
     0
  0
SCALE
  5
5A
102
{ACAD_REACTORS
330
3B
102
}
330
3B
100
AcDbScale
 70
     0
300
3" = 1'-0"
140
3.0
141
12.0
290
     0
  0
SCALE
  5
5B
102
{ACAD_REACTORS
330
3B
102
}
330
3B
100
AcDbScale
 70
     0
300
6" = 1'-0"
140
6.0
141
12.0
290
     0
  0
SCALE
  5
5C
102
{ACAD_REACTORS
330
3B
102
}
330
3B
100
AcDbScale
 70
     0
300
1'-0" = 1'-0"
140
12.0
141
12.0
290
     0
  0
VISUALSTYLE
  5
2F
102
{ACAD_REACTORS
330
2A
102
}
330
2A
100
AcDbVisualStyle
  2
2dWireframe
 70
     4
 71
     0
 72
     2
 73
     0
 90
        0
 40
-0.6
 41
-30.0
 62
     5
 63
     7
 74
     1
 91
        4
 64
     7
 65
   257
 75
     1
175
     1
 42
1.0
 92
        0
 66
   257
 43
1.0
 76
     1
 77
     6
 78
     2
 67
     7
 79
     5
170
     0
171
     0
290
     0
174
     0
 93
        1
 44
0.0
173
     0
291
     0
 45
0.0
1001
ACAD
1000
AcDbSavedByObjectVersion
1070
     0
  0
VISUALSTYLE
  5
31
102
{ACAD_REACTORS
330
2A
102
}
330
2A
100
AcDbVisualStyle
  2
3D Hidden
 70
     6
 71
     1
 72
     2
 73
     2
 90
        0
 40
-0.6
 41
-30.0
 62
     5
 63
     7
 74
     2
 91
        2
 64
     7
 65
   257
 75
     2
175
     1
 42
40.0
 92
        0
 66
   257
 43
1.0
 76
     1
 77
     6
 78
     2
 67
     7
 79
     3
170
     0
171
     0
290
     0
174
     0
 93
        1
 44
0.0
173
     0
291
     0
 45
0.0
1001
ACAD
1000
AcDbSavedByObjectVersion
1070
     0
  0
VISUALSTYLE
  5
30
102
{ACAD_REACTORS
330
2A
102
}
330
2A
100
AcDbVisualStyle
  2
3dWireframe
 70
     5
 71
     0
 72
     2
 73
     0
 90
        0
 40
-0.6
 41
-30.0
 62
     5
 63
     7
 74
     1
 91
        4
 64
     7
 65
   257
 75
     1
175
     1
 42
1.0
 92
        0
 66
   257
 43
1.0
 76
     1
 77
     6
 78
     2
 67
     7
 79
     5
170
     0
171
     0
290
     0
174
     0
 93
        1
 44
0.0
173
     0
291
     0
 45
0.0
1001
ACAD
1000
AcDbSavedByObjectVersion
1070
     0
  0
VISUALSTYLE
  5
32
102
{ACAD_REACTORS
330
2A
102
}
330
2A
100
AcDbVisualStyle
  2
Basic
 70
     7
 71
     1
 72
     0
 73
     1
 90
        0
 40
-0.6
 41
-30.0
 62
     5
 63
     7
 74
     0
 91
        4
 64
     7
 65
   257
 75
     1
175
     1
 42
1.0
 92
        8
 66
     7
 43
1.0
 76
     1
 77
     6
 78
     2
 67
     7
 79
     5
170
     0
171
     0
290
     0
174
     0
 93
        1
 44
0.0
173
     0
291
     1
 45
0.0
1001
ACAD
1000
AcDbSavedByObjectVersion
1070
     0
  0
VISUALSTYLE
  5
36
102
{ACAD_REACTORS
330
2A
102
}
330
2A
100
AcDbVisualStyle
  2
Brighten
 70
    12
 71
     2
 72
     2
 73
     0
 90
        0
 40
-0.6
 41
-30.0
 62
     5
 63
     7
 74
     1
 91
        4
 64
     7
 65
   257
 75
     1
175
     1
 42
1.0
 92
        8
 66
     7
 43
1.0
 76
     1
 77
     6
 78
     2
 67
     7
 79
     5
170
     0
171
     0
290
     0
174
     0
 93
        1
 44
50.0
173
     0
291
     1
 45
0.0
1001
ACAD
1000
AcDbSavedByObjectVersion
1070
     0
  0
VISUALSTYLE
  5
3A
102
{ACAD_REACTORS
330
2A
102
}
330
2A
100
AcDbVisualStyle
  2
ColorChange
 70
    16
 71
     2
 72
     2
 73
     3
 90
        0
 40
-0.6
 41
-30.0
 62
     5
 63
     8
 74
     1
 91
        4
 64
     7
 65
   257
 75
     1
175
     1
 42
1.0
 92
        8
 66
     8
 43
1.0
 76
     1
 77
     6
 78
     2
 67
     7
 79
     5
170
     0
171
     0
290
     0
174
     0
 93
        1
 44
0.0
173
     0
291
     1
 45
0.0
1001
ACAD
1000
AcDbSavedByObjectVersion
1070
     0
  0
VISUALSTYLE
  5
34
102
{ACAD_REACTORS
330
2A
102
}
330
2A
100
AcDbVisualStyle
  2
Conceptual
 70
     9
 71
     3
 72
     2
 73
     0
 90
        0
 40
-0.6
 41
-30.0
 62
     5
 63
     7
 74
     2
 91
        2
 64
     7
 65
   257
 75
     1
175
     1
 42
40.0
 92
        8
 66
     7
 43
1.0
 76
     1
 77
     6
 78
     2
 67
     7
 79
     3
170
     0
171
     0
290
     0
174
     0
 93
        1
 44
0.0
173
     0
291
     0
 45
0.0
1001
ACAD
1000
AcDbSavedByObjectVersion
1070
     0
  0
VISUALSTYLE
  5
35
102
{ACAD_REACTORS
330
2A
102
}
330
2A
100
AcDbVisualStyle
  2
Dim
 70
    11
 71
     2
 72
     2
 73
     0
 90
        0
 40
-0.6
 41
-30.0
 62
     5
 63
     7
 74
     1
 91
        4
 64
     7
 65
   257
 75
     1
175
     1
 42
1.0
 92
        8
 66
     7
 43
1.0
 76
     1
 77
     6
 78
     2
 67
     7
 79
     5
170
     0
171
     0
290
     0
174
     0
 93
        1
 44
-50.0
173
     0
291
     1
 45
0.0
1001
ACAD
1000
AcDbSavedByObjectVersion
1070
     0
  0
VISUALSTYLE
  5
39
102
{ACAD_REACTORS
330
2A
102
}
330
2A
100
AcDbVisualStyle
  2
Facepattern
 70
    15
 71
     2
 72
     2
 73
     0
 90
        0
 40
-0.6
 41
-30.0
 62
     5
 63
     7
 74
     1
 91
        4
 64
     7
 65
   257
 75
     1
175
     1
 42
1.0
 92
        8
 66
     7
 43
1.0
 76
     1
 77
     6
 78
     2
 67
     7
 79
     5
170
     0
171
     0
290
     0
174
     0
 93
        1
 44
0.0
173
     0
291
     1
 45
0.0
1001
ACAD
1000
AcDbSavedByObjectVersion
1070
     0
  0
VISUALSTYLE
  5
2B
102
{ACAD_REACTORS
330
2A
102
}
330
2A
100
AcDbVisualStyle
  2
Flat
 70
     0
 71
     2
 72
     1
 73
     1
 90
        2
 40
-0.6
 41
30.0
 62
     5
 63
     7
 74
     0
 91
        4
 64
     7
 65
   257
 75
     1
175
     1
 42
1.0
 92
        8
 66
     7
 43
1.0
 76
     1
 77
     6
 78
     2
 67
     7
 79
     5
170
     0
171
     0
290
     0
174
     0
 93
       13
 44
0.0
173
     0
291
     1
 45
0.0
1001
ACAD
1000
AcDbSavedByObjectVersion
1070
     0
  0
VISUALSTYLE
  5
2C
102
{ACAD_REACTORS
330
2A
102
}
330
2A
100
AcDbVisualStyle
  2
FlatWithEdges
 70
     1
 71
     2
 72
     1
 73
     1
 90
        2
 40
-0.6
 41
30.0
 62
     5
 63
     7
 74
     1
 91
        4
 64
     7
 65
   257
 75
     1
175
     1
 42
1.0
 92
        0
 66
   257
 43
1.0
 76
     1
 77
     6
 78
     2
 67
     7
 79
     5
170
     0
171
     0
290
     0
174
     0
 93
       13
 44
0.0
173
     0
291
     1
 45
0.0
1001
ACAD
1000
AcDbSavedByObjectVersion
1070
     0
  0
VISUALSTYLE
  5
2D
102
{ACAD_REACTORS
330
2A
102
}
330
2A
100
AcDbVisualStyle
  2
Gouraud
 70
     2
 71
     2
 72
     2
 73
     1
 90
        2
 40
-0.6
 41
30.0
 62
     5
 63
     7
 74
     0
 91
        4
 64
     7
 65
   257
 75
     1
175
     1
 42
1.0
 92
        0
 66
     7
 43
1.0
 76
     1
 77
     6
 78
     2
 67
     7
 79
     5
170
     0
171
     0
290
     0
174
     0
 93
       13
 44
0.0
173
     0
291
     1
 45
0.0
1001
ACAD
1000
AcDbSavedByObjectVersion
1070
     0
  0
VISUALSTYLE
  5
2E
102
{ACAD_REACTORS
330
2A
102
}
330
2A
100
AcDbVisualStyle
  2
GouraudWithEdges
 70
     3
 71
     2
 72
     2
 73
     1
 90
        2
 40
-0.6
 41
30.0
 62
     5
 63
     7
 74
     1
 91
        4
 64
     7
 65
   257
 75
     1
175
     1
 42
1.0
 92
        0
 66
   257
 43
1.0
 76
     1
 77
     6
 78
     2
 67
     7
 79
     5
170
     0
171
     0
290
     0
174
     0
 93
       13
 44
0.0
173
     0
291
     1
 45
0.0
1001
ACAD
1000
AcDbSavedByObjectVersion
1070
     0
  0
VISUALSTYLE
  5
38
102
{ACAD_REACTORS
330
2A
102
}
330
2A
100
AcDbVisualStyle
  2
Linepattern
 70
    14
 71
     2
 72
     2
 73
     0
 90
        0
 40
-0.6
 41
-30.0
 62
     5
 63
     7
 74
     1
 91
        4
 64
     7
 65
   257
 75
     7
175
     7
 42
1.0
 92
        8
 66
     7
 43
1.0
 76
     1
 77
     6
 78
     2
 67
     7
 79
     5
170
     0
171
     0
290
     0
174
     0
 93
        1
 44
0.0
173
     0
291
     1
 45
0.0
1001
ACAD
1000
AcDbSavedByObjectVersion
1070
     0
  0
VISUALSTYLE
  5
33
102
{ACAD_REACTORS
330
2A
102
}
330
2A
100
AcDbVisualStyle
  2
Realistic
 70
     8
 71
     2
 72
     2
 73
     0
 90
        0
 40
-0.6
 41
-30.0
 62
     5
 63
     7
 74
     1
 91
        0
 64
     7
 65
   257
 75
     1
175
     1
 42
1.0
 92
        8
 66
     8
 43
1.0
 76
     1
 77
     6
 78
     2
 67
     7
 79
     5
170
     0
171
     0
290
     0
174
     0
 93
       13
 44
0.0
173
     0
291
     0
 45
0.0
1001
ACAD
1000
AcDbSavedByObjectVersion
1070
     0
  0
VISUALSTYLE
  5
37
102
{ACAD_REACTORS
330
2A
102
}
330
2A
100
AcDbVisualStyle
  2
Thicken
 70
    13
 71
     2
 72
     2
 73
     0
 90
        0
 40
-0.6
 41
-30.0
 62
     5
 63
     7
 74
     1
 91
        4
 64
     7
 65
   257
 75
     1
175
     1
 42
1.0
 92
       12
 66
     7
 43
1.0
 76
     1
 77
     6
 78
     2
 67
     7
 79
     5
170
     0
171
     0
290
     0
174
     0
 93
        1
 44
0.0
173
     0
291
     1
 45
0.0
1001
ACAD
1000
AcDbSavedByObjectVersion
1070
     0
  0
DICTIONARYVAR
  5
140
102
{ACAD_REACTORS
330
13F
102
}
330
13F
100
DictionaryVariables
280
     0
  1
1:1
  0
DICTIONARYVAR
  5
144
102
{ACAD_REACTORS
330
13F
102
}
330
13F
100
DictionaryVariables
280
     0
  1
80.000000
  0
DICTIONARYVAR
  5
143
102
{ACAD_REACTORS
330
13F
102
}
330
13F
100
DictionaryVariables
280
     0
  1
5.000000
  0
ENDSEC
  0
EOF
