  0
SECTION
  2
HEADER
  9
$ACADVER
  1
AC1015
  9
$ACADMAINTVER
 70
     6
  9
$DWGCODEPAGE
  3
ANSI_1252
  9
$INSBASE
 10
0.0
 20
0.0
 30
0.0
  9
$EXTMIN
 10
0.0
 20
0.0
 30
0.0
  9
$EXTMAX
 10
1682.0
 20
2378.0
 30
0.0
  9
$LIMMIN
 10
0.0
 20
0.0
  9
$LIMMAX
 10
1682.0
 20
2378.0
  9
$ORTHOMODE
 70
     0
  9
$REGENMODE
 70
     1
  9
$FILLMODE
 70
     1
  9
$QTEXTMODE
 70
     0
  9
$MIRRTEXT
 70
     1
  9
$LTSCALE
 40
1.0
  9
$ATTMODE
 70
     1
  9
$TEXTSIZE
 40
2.5
  9
$TRACEWID
 40
1.0
  9
$TEXTSTYLE
  7
Standard
  9
$CLAYER
  8
0
  9
$CELTYPE
  6
ByLayer
  9
$CECOLOR
 62
   256
  9
$CELTSCALE
 40
1.0
  9
$DISPSILH
 70
     0
  9
$DIMSCALE
 40
1.0
  9
$DIMASZ
 40
2.5
  9
$DIMEXO
 40
0.625
  9
$DIMDLI
 40
3.75
  9
$DIMRND
 40
0.0
  9
$DIMDLE
 40
0.0
  9
$DIMEXE
 40
1.25
  9
$DIMTP
 40
0.0
  9
$DIMTM
 40
0.0
  9
$DIMTXT
 40
2.5
  9
$DIMCEN
 40
2.5
  9
$DIMTSZ
 40
0.0
  9
$DIMTOL
 70
     0
  9
$DIMLIM
 70
     0
  9
$DIMTIH
 70
     0
  9
$DIMTOH
 70
     0
  9
$DIMSE1
 70
     0
  9
$DIMSE2
 70
     0
  9
$DIMTAD
 70
     1
  9
$DIMZIN
 70
     8
  9
$DIMBLK
  1

  9
$DIMASO
 70
     1
  9
$DIMSHO
 70
     1
  9
$DIMPOST
  1

  9
$DIMAPOST
  1

  9
$DIMALT
 70
     0
  9
$DIMALTD
 70
     3
  9
$DIMALTF
 40
0.0393700787
  9
$DIMLFAC
 40
1.0
  9
$DIMTOFL
 70
     1
  9
$DIMTVP
 40
0.0
  9
$DIMTIX
 70
     0
  9
$DIMSOXD
 70
     0
  9
$DIMSAH
 70
     0
  9
$DIMBLK1
  1

  9
$DIMBLK2
  1

  9
$DIMSTYLE
  2
ISO-25
  9
$DIMCLRD
 70
     0
  9
$DIMCLRE
 70
     0
  9
$DIMCLRT
 70
     0
  9
$DIMTFAC
 40
1.0
  9
$DIMGAP
 40
0.625
  9
$DIMJUST
 70
     0
  9
$DIMSD1
 70
     0
  9
$DIMSD2
 70
     0
  9
$DIMTOLJ
 70
     0
  9
$DIMTZIN
 70
     8
  9
$DIMALTZ
 70
     0
  9
$DIMALTTZ
 70
     0
  9
$DIMUPT
 70
     0
  9
$DIMDEC
 70
     2
  9
$DIMTDEC
 70
     2
  9
$DIMALTU
 70
     2
  9
$DIMALTTD
 70
     3
  9
$DIMTXSTY
  7
Standard
  9
$DIMAUNIT
 70
     0
  9
$DIMADEC
 70
     0
  9
$DIMALTRND
 40
0.0
  9
$DIMAZIN
 70
     0
  9
$DIMDSEP
 70
    44
  9
$DIMATFIT
 70
     3
  9
$DIMFRAC
 70
     0
  9
$DIMLDRBLK
  1

  9
$DIMLUNIT
 70
     2
  9
$DIMLWD
 70
    -2
  9
$DIMLWE
 70
    -2
  9
$DIMTMOVE
 70
     0
  9
$LUNITS
 70
     2
  9
$LUPREC
 70
     4
  9
$SKETCHINC
 40
1.0
  9
$FILLETRAD
 40
10.0
  9
$AUNITS
 70
     0
  9
$AUPREC
 70
     0
  9
$MENU
  1
.
  9
$ELEVATION
 40
0.0
  9
$PELEVATION
 40
0.0
  9
$THICKNESS
 40
0.0
  9
$LIMCHECK
 70
     0
  9
$CHAMFERA
 40
10.0
  9
$CHAMFERB
 40
10.0
  9
$CHAMFERC
 40
20.0
  9
$CHAMFERD
 40
0.0
  9
$SKPOLY
 70
     0
  9
$TDCREATE
 40
2455748.515359896
  9
$TDUCREATE
 40
2455748.432026562
  9
$TDUPDATE
 40
2455748.515359907
  9
$TDUUPDATE
 40
2455748.432026574
  9
$TDINDWG
 40
0.0000000116
  9
$TDUSRTIMER
 40
0.0000000116
  9
$USRTIMER
 70
     1
  9
$ANGBASE
 50
0.0
  9
$ANGDIR
 70
     0
  9
$PDMODE
 70
     0
  9
$PDSIZE
 40
0.0
  9
$PLINEWID
 40
0.0
  9
$SPLFRAME
 70
     0
  9
$SPLINETYPE
 70
     6
  9
$SPLINESEGS
 70
     8
  9
$HANDSEED
  5
106
  9
$SURFTAB1
 70
     6
  9
$SURFTAB2
 70
     6
  9
$SURFTYPE
 70
     6
  9
$SURFU
 70
     6
  9
$SURFV
 70
     6
  9
$UCSBASE
  2

  9
$UCSNAME
  2

  9
$UCSORG
 10
0.0
 20
0.0
 30
0.0
  9
$UCSXDIR
 10
1.0
 20
0.0
 30
0.0
  9
$UCSYDIR
 10
0.0
 20
1.0
 30
0.0
  9
$UCSORTHOREF
  2

  9
$UCSORTHOVIEW
 70
     0
  9
$UCSORGTOP
 10
0.0
 20
0.0
 30
0.0
  9
$UCSORGBOTTOM
 10
0.0
 20
0.0
 30
0.0
  9
$UCSORGLEFT
 10
0.0
 20
0.0
 30
0.0
  9
$UCSORGRIGHT
 10
0.0
 20
0.0
 30
0.0
  9
$UCSORGFRONT
 10
0.0
 20
0.0
 30
0.0
  9
$UCSORGBACK
 10
0.0
 20
0.0
 30
0.0
  9
$PUCSBASE
  2

  9
$PUCSNAME
  2

  9
$PUCSORG
 10
0.0
 20
0.0
 30
0.0
  9
$PUCSXDIR
 10
1.0
 20
0.0
 30
0.0
  9
$PUCSYDIR
 10
0.0
 20
1.0
 30
0.0
  9
$PUCSORTHOREF
  2

  9
$PUCSORTHOVIEW
 70
     0
  9
$PUCSORGTOP
 10
0.0
 20
0.0
 30
0.0
  9
$PUCSORGBOTTOM
 10
0.0
 20
0.0
 30
0.0
  9
$PUCSORGLEFT
 10
0.0
 20
0.0
 30
0.0
  9
$PUCSORGRIGHT
 10
0.0
 20
0.0
 30
0.0
  9
$PUCSORGFRONT
 10
0.0
 20
0.0
 30
0.0
  9
$PUCSORGBACK
 10
0.0
 20
0.0
 30
0.0
  9
$USERI1
 70
     0
  9
$USERI2
 70
     0
  9
$USERI3
 70
     0
  9
$USERI4
 70
     0
  9
$USERI5
 70
     0
  9
$USERR1
 40
0.0
  9
$USERR2
 40
0.0
  9
$USERR3
 40
0.0
  9
$USERR4
 40
0.0
  9
$USERR5
 40
0.0
  9
$WORLDVIEW
 70
     1
  9
$SHADEDGE
 70
     3
  9
$SHADEDIF
 70
    70
  9
$TILEMODE
 70
     1
  9
$MAXACTVP
 70
    64
  9
$PINSBASE
 10
0.0
 20
0.0
 30
0.0
  9
$PLIMCHECK
 70
     0
  9
$PEXTMIN
 10
0.0
 20
0.0
 30
0.0
  9
$PEXTMAX
 10
1682.0
 20
2378.0
 30
0.0
  9
$PLIMMIN
 10
0.0
 20
0.0
  9
$PLIMMAX
 10
1682.0
 20
2378.0
  9
$UNITMODE
 70
     0
  9
$VISRETAIN
 70
     1
  9
$PLINEGEN
 70
     0
  9
$PSLTSCALE
 70
     1
  9
$TREEDEPTH
 70
  3020
  9
$CMLSTYLE
  2
Standard
  9
$CMLJUST
 70
     0
  9
$CMLSCALE
 40
20.0
  9
$PROXYGRAPHICS
 70
     1
  9
$MEASUREMENT
 70
     1
  9
$CELWEIGHT
370
    -1
  9
$ENDCAPS
280
     0
  9
$JOINSTYLE
280
     0
  9
$LWDISPLAY
290
     0
  9
$INSUNITS
 70
     4
  9
$HYPERLINKBASE
  1

  9
$STYLESHEET
  1

  9
$XEDIT
290
     1
  9
$CEPSNTYPE
380
     0
  9
$PSTYLEMODE
290
     1
  9
$FINGERPRINTGUID
  2
{4F70DF96-C291-48C0-A5E5-EFF1100C84A3}
  9
$VERSIONGUID
  2
{FAEB1C32-E019-11D5-929B-00C0DF256EC4}
  9
$EXTNAMES
290
     1
  9
$PSVPSCALE
 40
0.0
  9
$OLESTARTUP
290
     0
  0
ENDSEC
  0
SECTION
  2
CLASSES
  0
CLASS
  1
ACDBDICTIONARYWDFLT
  2
AcDbDictionaryWithDefault
  3
ObjectDBX Classes
 90
        0
280
     0
281
     0
  0
CLASS
  1
VISUALSTYLE
  2
AcDbVisualStyle
  3
ObjectDBX Classes
 90
     4095
280
     0
281
     0
  0
CLASS
  1
SCALE
  2
AcDbScale
  3
ObjectDBX Classes
 90
     1153
280
     0
281
     0
  0
CLASS
  1
DICTIONARYVAR
  2
AcDbDictionaryVar
  3
ObjectDBX Classes
 90
        0
280
     0
281
     0
  0
CLASS
  1
ACDBPLACEHOLDER
  2
AcDbPlaceHolder
  3
ObjectDBX Classes
 90
        0
280
     0
281
     0
  0
CLASS
  1
LAYOUT
  2
AcDbLayout
  3
ObjectDBX Classes
 90
        0
280
     0
281
     0
  0
ENDSEC
  0
SECTION
  2
TABLES
  0
TABLE
  2
VPORT
  5
8
330
0
100
AcDbSymbolTable
 70
     1
  0
VPORT
  5
29
330
8
100
AcDbSymbolTableRecord
100
AcDbViewportTableRecord
  2
*Active
 70
     0
 10
0.0
 20
0.0
 11
1.0
 21
1.0
 12
344.1869158879
 22
148.5
 13
0.0
 23
0.0
 14
10.0
 24
10.0
 15
10.0
 25
10.0
 16
0.0
 26
0.0
 36
1.0
 17
0.0
 27
0.0
 37
0.0
 40
297.0
 41
1.9729729729
 42
50.0
 43
0.0
 44
0.0
 50
0.0
 51
0.0
 71
     0
 72
   100
 73
     1
 74
     3
 75
     0
 76
     0
 77
     0
 78
     0
281
     0
 65
     1
110
0.0
120
0.0
130
0.0
111
1.0
121
0.0
131
0.0
112
0.0
122
1.0
132
0.0
 79
     0
146
0.0
  0
ENDTAB
  0
TABLE
  2
LTYPE
  5
5
330
0
100
AcDbSymbolTable
 70
     2
  0
LTYPE
  5
14
330
5
100
AcDbSymbolTableRecord
100
AcDbLinetypeTableRecord
  2
ByBlock
 70
     0
  3

 72
    65
 73
     0
 40
0.0
  0
LTYPE
  5
15
330
5
100
AcDbSymbolTableRecord
100
AcDbLinetypeTableRecord
  2
ByLayer
 70
     0
  3

 72
    65
 73
     0
 40
0.0
  0
LTYPE
  5
16
330
5
100
AcDbSymbolTableRecord
100
AcDbLinetypeTableRecord
  2
Continuous
 70
     0
  3
Solid line
 72
    65
 73
     0
 40
0.0
  0
LTYPE
  5
60
330
5
100
AcDbSymbolTableRecord
100
AcDbLinetypeTableRecord
  2
CENTER2
 70
     0
  3
Center (.5x) ___ _ ___ _ ___ _ ___ _ ___ _ ___
 72
    65
 73
     4
 40
28.575
 49
19.05
 74
     4
 75
     0
340
0
 46
0.0
 50
0.0
 44
0.0
 45
0.0
 49
-3.175
 74
     4
 75
     0
340
0
 46
0.0
 50
0.0
 44
0.0
 45
0.0
 49
3.175
 74
     4
 75
     0
340
0
 46
0.0
 50
0.0
 44
0.0
 45
0.0
 49
-3.175
 74
     4
 75
     0
340
0
 46
0.0
 50
0.0
 44
0.0
 45
0.0
  0
ENDTAB
  0
TABLE
  2
LAYER
  5
2
330
0
100
AcDbSymbolTable
 70
     8
  0
LAYER
  5
10
330
2
100
AcDbSymbolTableRecord
100
AcDbLayerTableRecord
  2
0
 70
     0
 62
     7
  6
Continuous
370
    -3
390
F
  0
LAYER
  5
5D
330
2
100
AcDbSymbolTableRecord
100
AcDbLayerTableRecord
  2
Default
 70
     0
 62
     7
  6
Continuous
370
    -3
390
F
  0
LAYER
  5
77
330
2
100
AcDbSymbolTableRecord
100
AcDbLayerTableRecord
  2
410330038_CLIP_R
 70
     0
 62
     7
  6
Continuous
370
    -3
390
F
  0
LAYER
  5
82
330
2
100
AcDbSymbolTableRecord
100
AcDbLayerTableRecord
  2
410290038_SLEEVE
 70
     0
 62
     7
  6
Continuous
370
    -3
390
F
  0
LAYER
  5
85
330
2
100
AcDbSymbolTableRecord
100
AcDbLayerTableRecord
  2
410334038_BUTTON
 70
     0
 62
     7
  6
Continuous
370
    -3
390
F
  0
LAYER
  5
8D
330
2
100
AcDbSymbolTableRecord
100
AcDbLayerTableRecord
  2
410331038_HANDLE
 70
     0
 62
     7
  6
Continuous
370
    -3
390
F
  0
LAYER
  5
93
330
2
100
AcDbSymbolTableRecord
100
AcDbLayerTableRecord
  2
410277040_ESCUTC
 70
     0
 62
     7
  6
Continuous
370
    -3
390
F
  0
LAYER
  5
A2
330
2
100
AcDbSymbolTableRecord
100
AcDbLayerTableRecord
  2
410228031_BEARIN
 70
     0
 62
     7
  6
Continuous
370
    -3
390
F
  0
ENDTAB
  0
TABLE
  2
STYLE
  5
3
330
0
100
AcDbSymbolTable
 70
     2
  0
STYLE
  5
11
330
3
100
AcDbSymbolTableRecord
100
AcDbTextStyleTableRecord
  2
Standard
 70
     0
 40
0.0
 41
1.0
 50
0.0
 71
     0
 42
2.5
  3
txt
  4

  0
STYLE
  5
F5
330
3
100
AcDbSymbolTableRecord
100
AcDbTextStyleTableRecord
  2
SEACAD_seiso_ttf
 70
     0
 40
0.0
 41
1.0
 50
0.0
 71
     0
 42
0.2
  3
seiso.ttf
  4

  0
ENDTAB
  0
TABLE
  2
VIEW
  5
6
330
0
100
AcDbSymbolTable
 70
     0
  0
ENDTAB
  0
TABLE
  2
UCS
  5
7
330
0
100
AcDbSymbolTable
 70
     0
  0
ENDTAB
  0
TABLE
  2
APPID
  5
9
330
0
100
AcDbSymbolTable
 70
     1
  0
APPID
  5
12
330
9
100
AcDbSymbolTableRecord
100
AcDbRegAppTableRecord
  2
ACAD
 70
     0
  0
ENDTAB
  0
TABLE
  2
DIMSTYLE
  5
A
330
0
100
AcDbSymbolTable
 70
     1
100
AcDbDimStyleTable
  0
DIMSTYLE
105
27
330
A
100
AcDbSymbolTableRecord
100
AcDbDimStyleTableRecord
  2
ISO-25
 70
     0
 41
2.5
 42
0.625
 43
3.75
 44
1.25
 73
     0
 74
     0
 77
     1
 78
     8
140
2.5
141
2.5
143
0.0393700787
147
0.625
171
     3
172
     1
271
     2
272
     2
274
     3
278
    44
283
     0
284
     8
340
11
  0
ENDTAB
  0
TABLE
  2
BLOCK_RECORD
  5
1
330
0
100
AcDbSymbolTable
 70
     7
  0
BLOCK_RECORD
  5
1F
330
1
100
AcDbSymbolTableRecord
100
AcDbBlockTableRecord
  2
*Model_Space
340
22
  0
BLOCK_RECORD
  5
1B
330
1
100
AcDbSymbolTableRecord
100
AcDbBlockTableRecord
  2
*Paper_Space
340
1E
  0
BLOCK_RECORD
  5
5E
330
1
100
AcDbSymbolTableRecord
100
AcDbBlockTableRecord
  2
SEANNOT_GROUP
340
0
102
{BLKREFS
331
5F
102
}
  0
BLOCK_RECORD
  5
69
330
1
100
AcDbSymbolTableRecord
100
AcDbBlockTableRecord
  2
SEANNOT_GROUP1
340
0
102
{BLKREFS
331
6A
102
}
  0
BLOCK_RECORD
  5
6F
330
1
100
AcDbSymbolTableRecord
100
AcDbBlockTableRecord
  2
SEANNOT_GROUP2
340
0
102
{BLKREFS
331
70
102
}
  0
BLOCK_RECORD
  5
75
330
1
100
AcDbSymbolTableRecord
100
AcDbBlockTableRecord
  2
SE
340
0
102
{BLKREFS
331
76
102
}
  0
BLOCK_RECORD
  5
97
330
1
100
AcDbSymbolTableRecord
100
AcDbBlockTableRecord
  2
SE1
340
0
102
{BLKREFS
331
98
102
}
  0
BLOCK_RECORD
  5
D0
330
1
100
AcDbSymbolTableRecord
100
AcDbBlockTableRecord
  2
SE2
340
0
102
{BLKREFS
331
D1
102
}
  0
ENDTAB
  0
ENDSEC
  0
SECTION
  2
BLOCKS
  0
BLOCK
  5
20
330
1F
100
AcDbEntity
  8
0
100
AcDbBlockBegin
  2
*Model_Space
 70
     0
 10
0.0
 20
0.0
 30
0.0
  3
*Model_Space
  1

  0
ENDBLK
  5
21
330
1F
100
AcDbEntity
  8
0
100
AcDbBlockEnd
  0
BLOCK
  5
1C
330
1B
100
AcDbEntity
 67
     1
  8
0
100
AcDbBlockBegin
  2
*Paper_Space
 70
     0
 10
0.0
 20
0.0
 30
0.0
  3
*Paper_Space
  1

  0
ENDBLK
  5
1D
330
1B
100
AcDbEntity
 67
     1
  8
0
100
AcDbBlockEnd
  0
BLOCK
  5
67
330
5E
100
AcDbEntity
  8
0
100
AcDbBlockBegin
  2
SEANNOT_GROUP
 70
     0
 10
0.0
 20
0.0
 30
0.0
  3
SEANNOT_GROUP
  1

  0
LINE
  5
61
330
5E
100
AcDbEntity
  8
Default
  6
CENTER2
 62
     7
100
AcDbLine
 10
193.3562543249
 20
335.4021270769
 30
0.0
 11
153.356255219
 21
335.4021270769
 31
0.0
  0
LINE
  5
62
330
5E
100
AcDbEntity
  8
Default
  6
CENTER2
 62
     7
100
AcDbLine
 10
173.3562547719
 20
355.4021266299
 30
0.0
 11
173.3562547719
 21
315.402127524
 31
0.0
  0
LINE
  5
63
330
5E
100
AcDbEntity
  8
Default
  6
CENTER2
 62
     7
100
AcDbLine
 10
198.3562542132
 20
335.4021270769
 30
0.0
 11
261.8562547719
 21
335.4021270769
 31
0.0
  0
LINE
  5
64
330
5E
100
AcDbEntity
  8
Default
  6
CENTER2
 62
     7
100
AcDbLine
 10
173.3562547719
 20
360.4021265181
 30
0.0
 11
173.3562547719
 21
423.9021270769
 31
0.0
  0
LINE
  5
65
330
5E
100
AcDbEntity
  8
Default
  6
CENTER2
 62
     7
100
AcDbLine
 10
148.3562553307
 20
335.4021270769
 30
0.0
 11
84.8562547719
 21
335.4021270769
 31
0.0
  0
LINE
  5
66
330
5E
100
AcDbEntity
  8
Default
  6
CENTER2
 62
     7
100
AcDbLine
 10
173.3562547719
 20
310.4021276357
 30
0.0
 11
173.3562547719
 21
246.9021270769
 31
0.0
  0
ENDBLK
  5
68
330
5E
100
AcDbEntity
  8
0
100
AcDbBlockEnd
  0
BLOCK
  5
6D
330
69
100
AcDbEntity
  8
0
100
AcDbBlockBegin
  2
SEANNOT_GROUP1
 70
     0
 10
0.0
 20
0.0
 30
0.0
  3
SEANNOT_GROUP1
  1

  0
LINE
  5
6B
330
69
100
AcDbEntity
  8
Default
  6
CENTER2
 62
     7
100
AcDbLine
 10
193.3562543249
 20
194.4700381047
 30
0.0
 11
153.356255219
 21
194.4700381047
 31
0.0
  0
LINE
  5
6C
330
69
100
AcDbEntity
  8
Default
  6
CENTER2
 62
     7
100
AcDbLine
 10
173.3562547719
 20
214.4700376577
 30
0.0
 11
173.3562547719
 21
174.4700385517
 31
0.0
  0
ENDBLK
  5
6E
330
69
100
AcDbEntity
  8
0
100
AcDbBlockEnd
  0
BLOCK
  5
73
330
6F
100
AcDbEntity
  8
0
100
AcDbBlockBegin
  2
SEANNOT_GROUP2
 70
     0
 10
0.0
 20
0.0
 30
0.0
  3
SEANNOT_GROUP2
  1

  0
LINE
  5
71
330
6F
100
AcDbEntity
  8
Default
  6
CENTER2
 62
     7
100
AcDbLine
 10
400.0882631051
 20
335.5085180929
 30
0.0
 11
360.0882639992
 21
335.5085180929
 31
0.0
  0
LINE
  5
72
330
6F
100
AcDbEntity
  8
Default
  6
CENTER2
 62
     7
100
AcDbLine
 10
380.0882635522
 20
355.5085176458
 30
0.0
 11
380.0882635522
 21
315.5085185399
 31
0.0
  0
ENDBLK
  5
74
330
6F
100
AcDbEntity
  8
0
100
AcDbBlockEnd
  0
BLOCK
  5
95
330
75
100
AcDbEntity
  8
0
100
AcDbBlockBegin
  2
SE
 70
     0
 10
0.0
 20
0.0
 30
0.0
  3
SE
  1

  0
ARC
  5
78
330
75
100
AcDbEntity
  8
410330038_CLIP_R
  6
Continuous
 62
     7
100
AcDbCircle
 10
173.356254772
 20
335.4021270769
 30
0.0
 40
29.60276056029636
100
AcDbArc
 50
135.5239973411
 51
210.4710952485
  0
ARC
  5
79
330
75
100
AcDbEntity
  8
410330038_CLIP_R
  6
Continuous
 62
     7
100
AcDbCircle
 10
792.2138286546
 20
902.4806143025
 30
0.0
 40
868.3570132692083
100
AcDbArc
 50
222.092930491
 51
222.907069509
  0
ARC
  5
7A
330
75
100
AcDbEntity
  8
410330038_CLIP_R
  6
Continuous
 62
     7
100
AcDbCircle
 10
173.356254772
 20
335.4021270769
 30
0.0
 40
29.60276056029637
100
AcDbArc
 50
234.5289047515
 51
309.4760026589
  0
ARC
  5
7B
330
75
100
AcDbEntity
  8
410330038_CLIP_R
  6
Continuous
 62
     7
100
AcDbCircle
 10
173.356254772
 20
335.4021270769
 30
0.0
 40
29.58539657644027
100
AcDbArc
 50
309.4759885746
 51
315.5858037409
  0
LINE
  5
7C
330
75
100
AcDbEntity
  8
410330038_CLIP_R
  6
Continuous
 62
     7
100
AcDbLine
 10
194.4890828691
 20
314.6970729306
 30
0.0
 11
194.5014677522
 21
314.6849023398
 31
0.0
  0
LINE
  5
7D
330
75
100
AcDbEntity
  8
410330038_CLIP_R
  6
Continuous
 62
     7
100
AcDbLine
 10
192.1763573074
 20
312.5520248158
 30
0.0
 11
192.1653124545
 21
312.5654232938
 31
0.0
  0
ARC
  5
7E
330
75
100
AcDbEntity
  8
410330038_CLIP_R
  6
Continuous
 62
     7
100
AcDbCircle
 10
173.356254772
 20
335.4021270769
 30
0.0
 40
29.60276056029637
100
AcDbArc
 50
315.5857534112
 51
129.4142465888
  0
ARC
  5
7F
330
75
100
AcDbEntity
  8
410330038_CLIP_R
  6
Continuous
 62
     7
100
AcDbCircle
 10
173.356254772
 20
335.4021270769
 30
0.0
 40
29.58539657644027
100
AcDbArc
 50
129.4141962591
 51
135.5240114254
  0
LINE
  5
80
330
75
100
AcDbEntity
  8
410330038_CLIP_R
  6
Continuous
 62
     7
100
AcDbLine
 10
154.5607920725
 20
358.2725012476
 30
0.0
 11
154.5718369368
 21
358.2591027557
 31
0.0
  0
LINE
  5
81
330
75
100
AcDbEntity
  8
410330038_CLIP_R
  6
Continuous
 62
     7
100
AcDbLine
 10
152.245768934
 20
356.1299604965
 30
0.0
 11
152.2333840636
 21
356.1421310747
 31
0.0
  0
ARC
  5
83
330
75
100
AcDbEntity
  8
410290038_SLEEVE
  6
Continuous
 62
     7
100
AcDbCircle
 10
173.3562547719
 20
335.4021270769
 30
0.0
 40
31.75
100
AcDbArc
 50
0.0
 51
72.0214202071
  0
ARC
  5
84
330
75
100
AcDbEntity
  8
410290038_SLEEVE
  6
Continuous
 62
     7
100
AcDbCircle
 10
173.3562547719
 20
335.4021270769
 30
0.0
 40
31.75
100
AcDbArc
 50
107.9785797929
 51
0.0
  0
ARC
  5
86
330
75
100
AcDbEntity
  8
410334038_BUTTON
  6
Continuous
 62
     7
100
AcDbCircle
 10
173.3550602805
 20
335.5021271094
 30
0.0
 40
41.49999999999774
100
AcDbArc
 50
97.0030446076
 51
103.1087511423
  0
ARC
  5
87
330
75
100
AcDbEntity
  8
410334038_BUTTON
  6
Continuous
 62
     7
100
AcDbCircle
 10
173.3550602805
 20
335.5021271094
 30
0.0
 40
41.50000000000001
100
AcDbArc
 50
82.9935917833
 51
97.0030446076
  0
ARC
  5
88
330
75
100
AcDbEntity
  8
410334038_BUTTON
  6
Continuous
 62
     7
100
AcDbCircle
 10
173.3550602805
 20
335.5021271094
 30
0.0
 40
41.50000000000612
100
AcDbArc
 50
76.887821007
 51
82.9935917833
  0
LINE
  5
89
330
75
100
AcDbEntity
  8
410334038_BUTTON
  6
Continuous
 62
     7
100
AcDbLine
 10
183.1562547719
 20
365.4127844175
 30
0.0
 11
183.1562547719
 21
375.4360095299
 31
0.0
  0
LINE
  5
8A
330
75
100
AcDbEntity
  8
410334038_BUTTON
  6
Continuous
 62
     7
100
AcDbLine
 10
163.5562547719
 20
375.4365654811
 30
0.0
 11
163.5562547719
 21
365.4126694682
 31
0.0
  0
SPLINE
  5
8B
330
75
100
AcDbEntity
  8
410334038_BUTTON
  6
Continuous
 62
     7
100
AcDbSpline
210
0.0
220
0.0
230
1.0
 70
     8
 71
     3
 72
    12
 73
     8
 74
     0
 42
0.0000000166260769
 43
0.0000000001
 40
0.0
 40
0.0
 40
0.0
 40
0.0
 40
0.1063553946519345
 40
0.4346049888050049
 40
0.6869140889244434
 40
0.9790049537546448
 40
1.0
 40
1.0
 40
1.0
 40
1.0
 10
163.8694157591117
 20
375.897287190626
 30
0.0
 10
163.8483413073627
 20
375.8880696323064
 30
0.0
 10
163.7752597909547
 20
375.8550405556505
 30
0.0
 10
163.6648402652341
 20
375.7614965813518
 30
0.0
 10
163.5837487113306
 20
375.6134599093019
 30
0.0
 10
163.5483563804991
 20
375.4969128272457
 30
0.0
 10
163.5579934082576
 20
375.4393014636893
 30
0.0
 10
163.5587483682992
 20
375.4348235663238
 30
0.0
  0
SPLINE
  5
8C
330
75
100
AcDbEntity
  8
410334038_BUTTON
  6
Continuous
 62
     7
100
AcDbSpline
210
0.0
220
0.0
230
1.0
 70
     8
 71
     3
 72
    14
 73
    10
 74
     0
 42
0.0000000167277379
 43
0.0000000001
 40
0.0
 40
0.0
 40
0.0
 40
0.0
 40
0.0328787515769633
 40
0.2985281401643328
 40
0.5165432284624438
 40
0.7009115044304258
 40
0.8536820352517842
 40
0.9735839465519704
 40
1.0
 40
1.0
 40
1.0
 40
1.0
 10
183.1527150355014
 20
375.4345895149415
 30
0.0
 10
183.153840225726
 20
375.4416228500949
 30
0.0
 10
183.1625287550009
 20
375.4966832273355
 30
0.0
 10
183.1313387328425
 20
375.6024329030192
 30
0.0
 10
183.0726452008069
 20
375.7186206445517
 30
0.0
 10
182.9987811010532
 20
375.8017648391872
 30
0.0
 10
182.9272729227971
 20
375.8554637893967
 30
0.0
 10
182.8738230586857
 20
375.8848843734882
 30
0.0
 10
182.8483902301954
 20
375.894379466049
 30
0.0
 10
182.8430259623935
 20
375.8963643996153
 30
0.0
  0
SPLINE
  5
8E
330
75
100
AcDbEntity
  8
410331038_HANDLE
  6
Continuous
 62
     7
100
AcDbSpline
210
0.0
220
0.0
230
1.0
 70
     8
 71
     3
 72
     8
 73
     4
 74
     0
 42
0.0000000026026009
 43
0.0000000001
 40
0.3693545548873157
 40
0.3693545548873157
 40
0.3693545548873157
 40
0.3693545548873157
 40
0.4972171687367355
 40
0.4972171687367355
 40
0.4972171687367355
 40
0.4972171687367355
 10
183.1655455321583
 20
365.461566580498
 30
0.0
 10
183.4510689253784
 20
365.3610123149585
 30
0.0
 10
183.6121202066634
 20
365.2948180629554
 30
0.0
 10
183.6208542066844
 20
365.2833045787872
 30
0.0
  0
SPLINE
  5
8F
330
75
100
AcDbEntity
  8
410331038_HANDLE
  6
Continuous
 62
     7
100
AcDbSpline
210
0.0
220
0.0
230
1.0
 70
     8
 71
     3
 72
    10
 73
     6
 74
     0
 42
0.0000000009159908
 43
0.0000000001
 40
0.5062176472598006
 40
0.5062176472598006
 40
0.5062176472598006
 40
0.5062176472598006
 40
0.7499999999999998
 40
0.7499999999999998
 40
1.0
 40
1.0
 40
1.0
 40
1.0
 10
183.620434180972
 20
365.2816899285407
 30
0.0
 10
183.5962657806267
 20
365.2744659942181
 30
0.0
 10
183.0223573382727
 20
365.4650326453733
 30
0.0
 10
181.0961669875356
 20
365.9963471392538
 30
0.0
 10
179.7685462697799
 20
366.3106800309291
 30
0.0
 10
178.3881652047542
 20
366.533795406846
 30
0.0
  0
SPLINE
  5
90
330
75
100
AcDbEntity
  8
410331038_HANDLE
  6
Continuous
 62
     7
100
AcDbSpline
210
0.0
220
0.0
230
1.0
 70
     8
 71
     3
 72
    12
 73
     8
 74
     0
 42
0.0000000010699744
 43
0.0000000001
 40
0.0
 40
0.0
 40
0.0
 40
0.0
 40
0.25
 40
0.25
 40
0.5
 40
0.5
 40
0.6323365128888534
 40
0.6323365128888534
 40
0.6323365128888534
 40
0.6323365128888534
 10
168.3243443391407
 20
366.533795406846
 30
0.0
 10
166.9440973392036
 20
366.3107017002951
 30
0.0
 10
165.6116054421493
 20
365.9949418521281
 30
0.0
 10
163.6775901232218
 20
365.4616658206875
 30
0.0
 10
163.0909458575287
 20
365.2658994178301
 30
0.0
 10
163.091455704591
 20
365.2912188688631
 30
0.0
 10
163.2546047013621
 20
365.3588857883321
 30
0.0
 10
163.5524128858977
 20
365.4636198317282
 30
0.0
  0
ARC
  5
91
330
75
100
AcDbEntity
  8
410331038_HANDLE
  6
Continuous
 62
     7
100
AcDbCircle
 10
173.3562547719
 20
335.4021270769
 30
0.0
 40
31.53572097859134
100
AcDbArc
 50
80.8185079957
 51
90.0
  0
ARC
  5
92
330
75
100
AcDbEntity
  8
410331038_HANDLE
  6
Continuous
 62
     7
100
AcDbCircle
 10
173.3562547719
 20
335.4021270769
 30
0.0
 40
31.53572097859132
100
AcDbArc
 50
90.0
 51
99.1814920043
  0
CIRCLE
  5
94
330
75
100
AcDbEntity
  8
410277040_ESCUTC
  6
Continuous
 62
     7
100
AcDbCircle
 10
173.3562547719
 20
335.4021270769
 30
0.0
 40
85.0
  0
ENDBLK
  5
96
330
75
100
AcDbEntity
  8
0
100
AcDbBlockEnd
  0
BLOCK
  5
CE
330
97
100
AcDbEntity
  8
0
100
AcDbBlockBegin
  2
SE1
 70
     0
 10
0.0
 20
0.0
 30
0.0
  3
SE1
  1

  0
ARC
  5
99
330
97
100
AcDbEntity
  8
410330038_CLIP_R
  6
Continuous
 62
     7
100
AcDbCircle
 10
377.0723648332
 20
315.8847753433
 30
0.0
 40
88.57294159763244
100
AcDbArc
 50
357.4456028225
 51
2.5543971775
  0
SPLINE
  5
9A
330
97
100
AcDbEntity
  8
410330038_CLIP_R
  6
Continuous
 62
     7
100
AcDbSpline
210
0.0
220
0.0
230
1.0
 70
     8
 71
     3
 72
    14
 73
    10
 74
     0
 42
0.0000000157326711
 43
0.0000000001
 40
0.0
 40
0.0
 40
0.0
 40
0.0
 40
0.4665322925457978
 40
0.4665322925457978
 40
0.4665322925457978
 40
0.6329059813584603
 40
0.6329059813584603
 40
0.6329059813584603
 40
0.7057707392294826
 40
0.7057707392294826
 40
0.7057707392294826
 40
0.7057707392294826
 10
465.5572966936556
 20
319.8322830254234
 30
0.0
 10
465.5529110032152
 20
319.9305277258348
 30
0.0
 10
465.5441328316444
 20
320.0287702293255
 30
0.0
 10
465.5263326393121
 20
320.1258715097555
 30
0.0
 10
465.5199776957073
 20
320.1605381666973
 30
0.0
 10
465.5124196691625
 20
320.19508638727
 30
0.0
 10
465.5029083520792
 20
320.2292849379958
 30
0.0
 10
465.49874261486
 20
320.2442631134001
 30
0.0
 10
465.4942033003284
 20
320.2591874708804
 30
0.0
 10
465.4891325007875
 20
320.2739973684489
 30
0.0
  0
ARC
  5
9B
330
97
100
AcDbEntity
  8
410330038_CLIP_R
  6
Continuous
 62
     7
100
AcDbCircle
 10
382.7136821325
 20
333.9809128578
 30
0.0
 40
84.47609278313398
100
AcDbArc
 50
11.2338065744
 51
11.5108790733
  0
SPLINE
  5
9C
330
97
100
AcDbEntity
  8
410330038_CLIP_R
  6
Continuous
 62
     7
100
AcDbSpline
210
0.0
220
0.0
230
1.0
 70
     8
 71
     3
 72
     8
 73
     4
 74
     0
 42
0.0000000023871029
 43
0.0000000001
 40
0.280194780135777
 40
0.280194780135777
 40
0.280194780135777
 40
0.280194780135777
 40
0.2851430209951358
 40
0.2851430209951358
 40
0.2851430209951358
 40
0.2851430209951358
 10
465.4888396107443
 20
344.9097915522885
 30
0.0
 10
465.4924029929774
 20
344.9042400863382
 30
0.0
 10
465.4959705590145
 20
344.8983227157619
 30
0.0
 10
465.4995406516106
 20
344.8920439815666
 30
0.0
  0
ARC
  5
9D
330
97
100
AcDbEntity
  8
410330038_CLIP_R
  6
Continuous
 62
     7
100
AcDbCircle
 10
302.2506032195
 20
335.3139605829
 30
0.0
 40
165.9138934125488
100
AcDbArc
 50
0.0311229611
 51
10.2225421997
  0
ARC
  5
9E
330
97
100
AcDbEntity
  8
410330038_CLIP_R
  6
Continuous
 62
     7
100
AcDbCircle
 10
302.2076628109
 20
335.3851462053
 30
0.0
 40
165.9568104241353
100
AcDbArc
 50
349.8129577104
 51
0.0065384221
  0
SPLINE
  5
9F
330
97
100
AcDbEntity
  8
410330038_CLIP_R
  6
Continuous
 62
     7
100
AcDbSpline
210
0.0
220
0.0
230
1.0
 70
     8
 71
     3
 72
     8
 73
     4
 74
     0
 42
0.0000000143571663
 43
0.0000000001
 40
0.5616124565227101
 40
0.5616124565227101
 40
0.5616124565227101
 40
0.5616124565227101
 40
0.7935590251330014
 40
0.7935590251330014
 40
0.7935590251330014
 40
0.7935590251330014
 10
465.4928590261216
 20
350.7286791240196
 30
0.0
 10
465.5157879506368
 20
350.6794222950137
 30
0.0
 10
465.5335671551029
 20
350.6276363547689
 30
0.0
 10
465.5460621988707
 20
350.5766762601232
 30
0.0
  0
LINE
  5
A0
330
97
100
AcDbEntity
  8
410290038_SLEEVE
  6
Continuous
 62
     7
100
AcDbLine
 10
427.5882616192
 20
367.1521270769
 30
0.0
 11
391.8013533069
 21
367.1521270769
 31
0.0
  0
LINE
  5
A1
330
97
100
AcDbEntity
  8
410290038_SLEEVE
  6
Continuous
 62
     7
100
AcDbLine
 10
391.8013533069
 20
303.6521270769
 30
0.0
 11
427.5882616192
 21
303.6521270769
 31
0.0
  0
LINE
  5
A3
330
97
100
AcDbEntity
  8
410228031_BEARIN
  6
Continuous
 62
     7
100
AcDbLine
 10
428.1882616192
 20
303.8521270769
 30
0.0
 11
428.1882616192
 21
366.9521270769
 31
0.0
  0
LINE
  5
A4
330
97
100
AcDbEntity
  8
410228031_BEARIN
  6
Continuous
 62
     7
100
AcDbLine
 10
427.5882616192
 20
303.8521270769
 30
0.0
 11
428.1882616192
 21
303.8521270769
 31
0.0
  0
LINE
  5
A5
330
97
100
AcDbEntity
  8
410228031_BEARIN
  6
Continuous
 62
     7
100
AcDbLine
 10
428.1882616192
 20
366.9521270769
 30
0.0
 11
427.5882616192
 21
366.9521270769
 31
0.0
  0
LINE
  5
A6
330
97
100
AcDbEntity
  8
410334038_BUTTON
  6
Continuous
 62
     7
100
AcDbLine
 10
447.2882616192
 20
376.1962537555
 30
0.0
 11
447.2882616192
 21
366.1510648636
 31
0.0
  0
LINE
  5
A7
330
97
100
AcDbEntity
  8
410334038_BUTTON
  6
Continuous
 62
     7
100
AcDbLine
 10
447.2882616192
 20
376.1962537555
 30
0.0
 11
447.2882616192
 21
376.5021271094
 31
0.0
  0
LINE
  5
A8
330
97
100
AcDbEntity
  8
410334038_BUTTON
  6
Continuous
 62
     7
100
AcDbLine
 10
437.6882616192
 20
376.1962537555
 30
0.0
 11
437.6882616192
 21
366.2666645892
 31
0.0
  0
LINE
  5
A9
330
97
100
AcDbEntity
  8
410334038_BUTTON
  6
Continuous
 62
     7
100
AcDbLine
 10
437.6882616192
 20
376.5021271094
 30
0.0
 11
437.6882616192
 21
376.1962537555
 31
0.0
  0
LINE
  5
AA
330
97
100
AcDbEntity
  8
410334038_BUTTON
  6
Continuous
 62
     7
100
AcDbLine
 10
446.7882616192
 20
377.0021271094
 30
0.0
 11
438.1882616192
 21
377.0021271094
 31
0.0
  0
ARC
  5
AB
330
97
100
AcDbEntity
  8
410334038_BUTTON
  6
Continuous
 62
     7
100
AcDbCircle
 10
446.7882616192
 20
376.5021271094
 30
0.0
 40
0.5000000000000004
100
AcDbArc
 50
0.0
 51
90.0
  0
ARC
  5
AC
330
97
100
AcDbEntity
  8
410334038_BUTTON
  6
Continuous
 62
     7
100
AcDbCircle
 10
438.1882616192
 20
376.5021271094
 30
0.0
 40
0.5000000000000004
100
AcDbArc
 50
90.0
 51
180.0
  0
LINE
  5
AD
330
97
100
AcDbEntity
  8
410331038_HANDLE
  6
Continuous
 62
     7
100
AcDbLine
 10
465.4882616192
 20
365.7483406655
 30
0.0
 11
465.4882616192
 21
305.0559134883
 31
0.0
  0
SPLINE
  5
AE
330
97
100
AcDbEntity
  8
410331038_HANDLE
  6
Continuous
 62
     7
100
AcDbSpline
210
0.0
220
0.0
230
1.0
 70
     8
 71
     3
 72
    14
 73
    10
 74
     0
 42
0.0000000008141134
 43
0.0000000001
 40
0.0719162864612176
 40
0.0719162864612176
 40
0.0719162864612176
 40
0.0719162864612176
 40
0.25
 40
0.25
 40
0.5
 40
0.5
 40
0.75
 40
0.75
 40
0.931903246979458
 40
0.931903246979458
 40
0.931903246979458
 40
0.931903246979458
 10
447.557064238984
 20
366.3216370552384
 30
0.0
 10
447.3397905464253
 20
366.1331003871015
 30
0.0
 10
446.8647790363883
 20
365.9182393884482
 30
0.0
 10
445.2376089867505
 20
365.4616658206875
 30
0.0
 10
443.8682135976669
 20
365.2658994178301
 30
0.0
 10
441.1105628005857
 20
365.2990108918582
 30
0.0
 10
439.7467418931236
 20
365.525779630389
 30
0.0
 10
438.096789810602
 20
366.026382299996
 30
0.0
 10
437.6183740369817
 20
366.2558807822983
 30
0.0
 10
437.4093037933466
 20
366.4508912123742
 30
0.0
  0
LINE
  5
AF
330
97
100
AcDbEntity
  8
410331038_HANDLE
  6
Continuous
 62
     7
100
AcDbLine
 10
447.4882616192
 20
366.3363703883
 30
0.0
 11
447.4882616192
 21
366.7378480555
 31
0.0
  0
LINE
  5
B0
330
97
100
AcDbEntity
  8
410331038_HANDLE
  6
Continuous
 62
     7
100
AcDbLine
 10
437.4882616192
 20
366.8551306642
 30
0.0
 11
437.4882616192
 21
366.455169354
 31
0.0
  0
LINE
  5
B1
330
97
100
AcDbEntity
  8
410331038_HANDLE
  6
Continuous
 62
     7
100
AcDbLine
 10
428.6882616192
 20
303.8543952288
 30
0.0
 11
428.6882616192
 21
366.9498589251
 31
0.0
  0
LINE
  5
B2
330
97
100
AcDbEntity
  8
410331038_HANDLE
  6
Continuous
 62
     7
100
AcDbLine
 10
428.8905169105
 20
303.654407945
 30
0.0
 11
464.4995380761
 21
304.0559770696
 31
0.0
  0
LINE
  5
B3
330
97
100
AcDbEntity
  8
410331038_HANDLE
  6
Continuous
 62
     7
100
AcDbLine
 10
437.2905169105
 20
367.055117948
 30
0.0
 11
428.8905169105
 21
367.1498462088
 31
0.0
  0
LINE
  5
B4
330
97
100
AcDbEntity
  8
410331038_HANDLE
  6
Continuous
 62
     7
100
AcDbLine
 10
464.4995380761
 20
366.7482770843
 30
0.0
 11
447.6905169105
 21
366.9378353393
 31
0.0
  0
ARC
  5
B5
330
97
100
AcDbEntity
  8
410331038_HANDLE
  6
Continuous
 62
     7
100
AcDbCircle
 10
464.4882616192
 20
365.7483406655
 30
0.0
 40
1.000000000000001
100
AcDbArc
 50
0.0
 51
89.3538929185
  0
ARC
  5
B6
330
97
100
AcDbEntity
  8
410331038_HANDLE
  6
Continuous
 62
     7
100
AcDbCircle
 10
464.4882616192
 20
305.0559134883
 30
0.0
 40
1.000000000000002
100
AcDbArc
 50
270.6461070815
 51
0.0
  0
ARC
  5
B7
330
97
100
AcDbEntity
  8
410331038_HANDLE
  6
Continuous
 62
     7
100
AcDbCircle
 10
447.6882616192
 20
366.7378480555
 30
0.0
 40
0.2000000000000074
100
AcDbArc
 50
89.3538929184
 51
180.0
  0
ARC
  5
B8
330
97
100
AcDbEntity
  8
410331038_HANDLE
  6
Continuous
 62
     7
100
AcDbCircle
 10
437.2882616192
 20
366.8551306642
 30
0.0
 40
0.2000000000000057
100
AcDbArc
 50
0.0
 51
89.3538929186
  0
SPLINE
  5
B9
330
97
100
AcDbEntity
  8
410331038_HANDLE
  6
Continuous
 62
     7
100
AcDbSpline
210
0.0
220
0.0
230
1.0
 70
     8
 71
     3
 72
     8
 73
     4
 74
     0
 42
0.000000073556861
 43
0.0000000001
 40
0.0
 40
0.0
 40
0.0
 40
0.0
 40
0.7221766811735273
 40
0.7221766811735273
 40
0.7221766811735273
 40
0.7221766811735273
 10
437.5492952905807
 20
366.399200859046
 30
0.0
 10
437.5072410669037
 20
366.4460792898297
 30
0.0
 10
437.4849689694566
 20
366.4679709193053
 30
0.0
 10
437.4824789982394
 20
366.4648757474728
 30
0.0
  0
SPLINE
  5
BA
330
97
100
AcDbEntity
  8
410331038_HANDLE
  6
Continuous
 62
     7
100
AcDbSpline
210
0.0
220
0.0
230
1.0
 70
     8
 71
     3
 72
     8
 73
     4
 74
     0
 42
0.0000000672555236
 43
0.0000000001
 40
0.2802726638578154
 40
0.2802726638578154
 40
0.2802726638578154
 40
0.2802726638578154
 40
1.0
 40
1.0
 40
1.0
 40
1.0
 10
447.4944874672858
 20
366.3483719902981
 30
0.0
 10
447.4914846592465
 20
366.3508408503749
 30
0.0
 10
447.4668024326972
 20
366.3267632836466
 30
0.0
 10
447.4204407876382
 20
366.2761392901133
 30
0.0
  0
LINE
  5
BB
330
97
100
AcDbEntity
  8
410331038_HANDLE
  6
Continuous
 62
     7
100
AcDbLine
 10
428.1882616192
 20
306.2021270769
 30
0.0
 11
428.4882616192
 21
306.2021270769
 31
0.0
  0
LINE
  5
BC
330
97
100
AcDbEntity
  8
410331038_HANDLE
  6
Continuous
 62
     7
100
AcDbLine
 10
428.4882616192
 20
364.6021270769
 30
0.0
 11
428.1882616192
 21
364.6021270769
 31
0.0
  0
ARC
  5
BD
330
97
100
AcDbEntity
  8
410331038_HANDLE
  6
Continuous
 62
     7
100
AcDbCircle
 10
428.4882616192
 20
306.0021270769
 30
0.0
 40
0.1999999999999988
100
AcDbArc
 50
0.0
 51
90.0
  0
ARC
  5
BE
330
97
100
AcDbEntity
  8
410331038_HANDLE
  6
Continuous
 62
     7
100
AcDbCircle
 10
428.4882616192
 20
364.8021270769
 30
0.0
 40
0.1999999999999988
100
AcDbArc
 50
270.0
 51
0.0
  0
ARC
  5
BF
330
97
100
AcDbEntity
  8
410331038_HANDLE
  6
Continuous
 62
     7
100
AcDbCircle
 10
428.8882616192
 20
303.8543952288
 30
0.0
 40
0.1999999999999988
100
AcDbArc
 50
180.0
 51
270.6461070816
  0
ARC
  5
C0
330
97
100
AcDbEntity
  8
410331038_HANDLE
  6
Continuous
 62
     7
100
AcDbCircle
 10
428.8882616192
 20
366.9498589251
 30
0.0
 40
0.1999999999999988
100
AcDbArc
 50
89.3538929184
 51
180.0
  0
LINE
  5
C1
330
97
100
AcDbEntity
  8
410277040_ESCUTC
  6
Continuous
 62
     7
100
AcDbLine
 10
383.5882635522
 20
250.5493133345
 30
0.0
 11
383.5882635522
 21
250.4021270769
 31
0.0
  0
LINE
  5
C2
330
97
100
AcDbEntity
  8
410277040_ESCUTC
  6
Continuous
 62
     7
100
AcDbLine
 10
382.5882635522
 20
250.614156232
 30
0.0
 11
380.3882635522
 21
250.614156232
 31
0.0
  0
SPLINE
  5
C3
330
97
100
AcDbEntity
  8
410277040_ESCUTC
  6
Continuous
 62
     7
100
AcDbSpline
210
0.0
220
0.0
230
1.0
 70
     8
 71
     3
 72
    12
 73
     8
 74
     0
 42
0.0000000098262414
 43
0.0000000001
 40
0.0
 40
0.0
 40
0.0
 40
0.0
 40
0.25
 40
0.25
 40
0.5
 40
0.5
 40
1.0
 40
1.0
 40
1.0
 40
1.0
 10
382.5882635521579
 20
250.6141562320088
 30
0.0
 10
382.7204550156678
 20
250.6141562320088
 30
0.0
 10
382.8501736880292
 20
250.6123022591103
 30
0.0
 10
383.0923686666513
 20
250.6052868171894
 30
0.0
 10
383.2032694378328
 20
250.6001371790972
 30
0.0
 10
383.479809429199
 20
250.5815237119212
 30
0.0
 10
383.5882635521579
 20
250.5648643696163
 30
0.0
 10
383.5882635521579
 20
250.549313334549
 30
0.0
  0
SPLINE
  5
C4
330
97
100
AcDbEntity
  8
410277040_ESCUTC
  6
Continuous
 62
     7
100
AcDbSpline
210
0.0
220
0.0
230
1.0
 70
     8
 71
     3
 72
    10
 73
     6
 74
     0
 42
0.0000000206696438
 43
0.0000000001
 40
0.0
 40
0.0
 40
0.0
 40
0.0
 40
0.5000000000000001
 40
0.5000000000000001
 40
1.0
 40
1.0
 40
1.0
 40
1.0
 10
380.3882635521579
 20
250.6141562320088
 30
0.0
 10
380.3089304053595
 20
250.6141562320088
 30
0.0
 10
380.2313784368337
 20
250.6468286959957
 30
0.0
 10
380.1207694235753
 20
250.7577751135328
 30
0.0
 10
380.0882635521564
 20
250.835581550272
 30
0.0
 10
380.0882635521579
 20
250.914909108771
 30
0.0
  0
LINE
  5
C5
330
97
100
AcDbEntity
  8
410277040_ESCUTC
  6
Continuous
 62
     7
100
AcDbLine
 10
380.0882635522
 20
250.9149091088
 30
0.0
 11
380.0882635522
 21
420.1021270769
 31
0.0
  0
LINE
  5
C6
330
97
100
AcDbEntity
  8
410277040_ESCUTC
  6
Continuous
 62
     7
100
AcDbLine
 10
388.6566614237
 20
420.4021270769
 30
0.0
 11
380.3882635522
 21
420.4021270769
 31
0.0
  0
LINE
  5
C7
330
97
100
AcDbEntity
  8
410277040_ESCUTC
  6
Continuous
 62
     7
100
AcDbLine
 10
383.5882635522
 20
250.4021270769
 30
0.0
 11
388.6566614237
 21
250.4021270769
 31
0.0
  0
ARC
  5
C8
330
97
100
AcDbEntity
  8
410277040_ESCUTC
  6
Continuous
 62
     7
100
AcDbCircle
 10
388.6566614237
 20
418.9021270769
 30
0.0
 40
1.499999999999892
100
AcDbArc
 50
2.6503692081
 51
90.0
  0
ARC
  5
C9
330
97
100
AcDbEntity
  8
410277040_ESCUTC
  6
Continuous
 62
     7
100
AcDbCircle
 10
388.6566614237
 20
251.9021270769
 30
0.0
 40
1.500000000000001
100
AcDbArc
 50
270.0
 51
357.3496307919
  0
ARC
  5
CA
330
97
100
AcDbEntity
  8
410277040_ESCUTC
  6
Continuous
 62
     7
100
AcDbCircle
 10
-1415.1617364477
 20
335.4021270769
 30
0.0
 40
1807.249999999847
100
AcDbArc
 50
357.349630792
 51
358.978986886
  0
ARC
  5
CB
330
97
100
AcDbEntity
  8
410277040_ESCUTC
  6
Continuous
 62
     7
100
AcDbCircle
 10
-1415.1617364477
 20
335.4021270769
 30
0.0
 40
1807.249999999848
100
AcDbArc
 50
1.021013114
 51
2.650369208
  0
LINE
  5
CC
330
97
100
AcDbEntity
  8
410277040_ESCUTC
  6
Continuous
 62
     7
100
AcDbLine
 10
391.8013533069
 20
303.2021270769
 30
0.0
 11
391.8013533069
 21
367.6021270769
 31
0.0
  0
ARC
  5
CD
330
97
100
AcDbEntity
  8
410277040_ESCUTC
  6
Continuous
 62
     7
100
AcDbCircle
 10
380.3882635522
 20
420.1021270769
 30
0.0
 40
0.2999999999999947
100
AcDbArc
 50
90.0
 51
180.0
  0
ENDBLK
  5
CF
330
97
100
AcDbEntity
  8
0
100
AcDbBlockEnd
  0
BLOCK
  5
F3
330
D0
100
AcDbEntity
  8
0
100
AcDbBlockBegin
  2
SE2
 70
     0
 10
0.0
 20
0.0
 30
0.0
  3
SE2
  1

  0
ARC
  5
D2
330
D0
100
AcDbEntity
  8
410330038_CLIP_R
  6
Continuous
 62
     7
100
AcDbCircle
 10
173.3098396861
 20
271.8798357853
 30
0.0
 40
165.4860134050768
100
AcDbArc
 50
259.7985688242
 51
270.0168098401
  0
ARC
  5
D3
330
D0
100
AcDbEntity
  8
410330038_CLIP_R
  6
Continuous
 62
     7
100
AcDbCircle
 10
173.2688862731
 20
272.1764418119
 30
0.0
 40
165.782636471
100
AcDbArc
 50
270.0309335855
 51
280.2327086277
  0
LINE
  5
D4
330
D0
100
AcDbEntity
  8
410290038_SLEEVE
  6
Continuous
 62
     7
100
AcDbLine
 10
205.1062547719
 20
146.9700400377
 30
0.0
 11
205.1062547719
 21
182.75694835
 31
0.0
  0
LINE
  5
D5
330
D0
100
AcDbEntity
  8
410290038_SLEEVE
  6
Continuous
 62
     7
100
AcDbLine
 10
141.6062547719
 20
182.75694835
 30
0.0
 11
141.6062547719
 21
146.9700400377
 31
0.0
  0
LINE
  5
D6
330
D0
100
AcDbEntity
  8
410228031_BEARIN
  6
Continuous
 62
     7
100
AcDbLine
 10
141.8062547719
 20
146.3700400377
 30
0.0
 11
204.9062547719
 21
146.3700400377
 31
0.0
  0
LINE
  5
D7
330
D0
100
AcDbEntity
  8
410228031_BEARIN
  6
Continuous
 62
     7
100
AcDbLine
 10
141.8062547719
 20
146.9700400377
 30
0.0
 11
141.8062547719
 21
146.3700400377
 31
0.0
  0
LINE
  5
D8
330
D0
100
AcDbEntity
  8
410228031_BEARIN
  6
Continuous
 62
     7
100
AcDbLine
 10
204.9062547719
 20
146.3700400377
 30
0.0
 11
204.9062547719
 21
146.9700400377
 31
0.0
  0
LINE
  5
D9
330
D0
100
AcDbEntity
  8
410331038_HANDLE
  6
Continuous
 62
     7
100
AcDbLine
 10
143.0100411833
 20
109.0700400377
 30
0.0
 11
203.7024683606
 21
109.0700400377
 31
0.0
  0
ARC
  5
DA
330
D0
100
AcDbEntity
  8
410331038_HANDLE
  6
Continuous
 62
     7
100
AcDbCircle
 10
168.3562547719
 20
132.0700400377
 30
0.0
 40
5.000000000000004
100
AcDbArc
 50
90.0
 51
270.0
  0
LINE
  5
DB
330
D0
100
AcDbEntity
  8
410331038_HANDLE
  6
Continuous
 62
     7
100
AcDbLine
 10
168.3562547719
 20
127.0700400377
 30
0.0
 11
178.3562547719
 21
127.0700400377
 31
0.0
  0
LINE
  5
DC
330
D0
100
AcDbEntity
  8
410331038_HANDLE
  6
Continuous
 62
     7
100
AcDbLine
 10
178.3562547719
 20
137.0700400377
 30
0.0
 11
168.3562547719
 21
137.0700400377
 31
0.0
  0
ARC
  5
DD
330
D0
100
AcDbEntity
  8
410331038_HANDLE
  6
Continuous
 62
     7
100
AcDbCircle
 10
178.3562547719
 20
132.0700400377
 30
0.0
 40
5.000000000000008
100
AcDbArc
 50
270.0
 51
90.0
  0
LINE
  5
DE
330
D0
100
AcDbEntity
  8
410331038_HANDLE
  6
Continuous
 62
     7
100
AcDbLine
 10
141.8085229238
 20
145.8700400377
 30
0.0
 11
204.9039866201
 21
145.8700400377
 31
0.0
  0
LINE
  5
DF
330
D0
100
AcDbEntity
  8
410331038_HANDLE
  6
Continuous
 62
     7
100
AcDbLine
 10
141.60853564
 20
145.6677847463
 30
0.0
 11
142.0101047646
 21
110.0587635808
 31
0.0
  0
LINE
  5
E0
330
D0
100
AcDbEntity
  8
410331038_HANDLE
  6
Continuous
 62
     7
100
AcDbLine
 10
204.7024047793
 20
110.0587635808
 30
0.0
 11
205.1039739039
 21
145.6677847463
 31
0.0
  0
ARC
  5
E1
330
D0
100
AcDbEntity
  8
410331038_HANDLE
  6
Continuous
 62
     7
100
AcDbCircle
 10
203.7024683606
 20
110.0700400377
 30
0.0
 40
1.000000000000001
100
AcDbArc
 50
270.0
 51
359.3538929185
  0
ARC
  5
E2
330
D0
100
AcDbEntity
  8
410331038_HANDLE
  6
Continuous
 62
     7
100
AcDbCircle
 10
143.0100411833
 20
110.0700400377
 30
0.0
 40
0.9999999999999989
100
AcDbArc
 50
180.6461070815
 51
270.0
  0
LINE
  5
E3
330
D0
100
AcDbEntity
  8
410331038_HANDLE
  6
Continuous
 62
     7
100
AcDbLine
 10
144.1562547719
 20
146.3700400377
 30
0.0
 11
144.1562547719
 21
146.0700400377
 31
0.0
  0
LINE
  5
E4
330
D0
100
AcDbEntity
  8
410331038_HANDLE
  6
Continuous
 62
     7
100
AcDbLine
 10
202.5562547719
 20
146.0700400377
 30
0.0
 11
202.5562547719
 21
146.3700400377
 31
0.0
  0
ARC
  5
E5
330
D0
100
AcDbEntity
  8
410331038_HANDLE
  6
Continuous
 62
     7
100
AcDbCircle
 10
143.9562547719
 20
146.0700400377
 30
0.0
 40
0.1999999999999988
100
AcDbArc
 50
270.0
 51
0.0
  0
ARC
  5
E6
330
D0
100
AcDbEntity
  8
410331038_HANDLE
  6
Continuous
 62
     7
100
AcDbCircle
 10
202.7562547719
 20
146.0700400377
 30
0.0
 40
0.1999999999999988
100
AcDbArc
 50
180.0
 51
270.0
  0
ARC
  5
E7
330
D0
100
AcDbEntity
  8
410331038_HANDLE
  6
Continuous
 62
     7
100
AcDbCircle
 10
141.8085229238
 20
145.6700400377
 30
0.0
 40
0.1999999999999988
100
AcDbArc
 50
90.0
 51
180.6461070816
  0
ARC
  5
E8
330
D0
100
AcDbEntity
  8
410331038_HANDLE
  6
Continuous
 62
     7
100
AcDbCircle
 10
204.9039866201
 20
145.6700400377
 30
0.0
 40
0.1999999999999988
100
AcDbArc
 50
359.3538929184
 51
90.0
  0
LINE
  5
E9
330
D0
100
AcDbEntity
  8
410277040_ESCUTC
  6
Continuous
 62
     7
100
AcDbLine
 10
88.6562547719
 20
194.4700381047
 30
0.0
 11
258.0562547719
 21
194.4700381047
 31
0.0
  0
LINE
  5
EA
330
D0
100
AcDbEntity
  8
410277040_ESCUTC
  6
Continuous
 62
     7
100
AcDbLine
 10
258.3562547719
 20
185.9016402331
 30
0.0
 11
258.3562547719
 21
194.1700381047
 31
0.0
  0
LINE
  5
EB
330
D0
100
AcDbEntity
  8
410277040_ESCUTC
  6
Continuous
 62
     7
100
AcDbLine
 10
88.3562547719
 20
194.1700381047
 30
0.0
 11
88.3562547719
 21
185.9016402331
 31
0.0
  0
ARC
  5
EC
330
D0
100
AcDbEntity
  8
410277040_ESCUTC
  6
Continuous
 62
     7
100
AcDbCircle
 10
256.8562547719
 20
185.9016402331
 30
0.0
 40
1.49999999999989
100
AcDbArc
 50
272.6503692081
 51
0.0
  0
ARC
  5
ED
330
D0
100
AcDbEntity
  8
410277040_ESCUTC
  6
Continuous
 62
     7
100
AcDbCircle
 10
89.8562547719
 20
185.9016402331
 30
0.0
 40
1.500000000000001
100
AcDbArc
 50
180.0
 51
267.3496307919
  0
ARC
  5
EE
330
D0
100
AcDbEntity
  8
410277040_ESCUTC
  6
Continuous
 62
     7
100
AcDbCircle
 10
173.3562547719
 20
1989.7200381045
 30
0.0
 40
1807.249999999846
100
AcDbArc
 50
267.349630792
 51
268.978986886
  0
ARC
  5
EF
330
D0
100
AcDbEntity
  8
410277040_ESCUTC
  6
Continuous
 62
     7
100
AcDbCircle
 10
173.3562547719
 20
1989.7200381045
 30
0.0
 40
1807.249999999849
100
AcDbArc
 50
271.021013114
 51
272.650369208
  0
LINE
  5
F0
330
D0
100
AcDbEntity
  8
410277040_ESCUTC
  6
Continuous
 62
     7
100
AcDbLine
 10
141.1562547719
 20
182.75694835
 30
0.0
 11
205.5562547719
 21
182.75694835
 31
0.0
  0
ARC
  5
F1
330
D0
100
AcDbEntity
  8
410277040_ESCUTC
  6
Continuous
 62
     7
100
AcDbCircle
 10
88.6562547719
 20
194.1700381047
 30
0.0
 40
0.3000000000000008
100
AcDbArc
 50
90.0
 51
180.0
  0
ARC
  5
F2
330
D0
100
AcDbEntity
  8
410277040_ESCUTC
  6
Continuous
 62
     7
100
AcDbCircle
 10
258.0562547719
 20
194.1700381047
 30
0.0
 40
0.2999999999999947
100
AcDbArc
 50
0.0
 51
90.0
  0
ENDBLK
  5
F4
330
D0
100
AcDbEntity
  8
0
100
AcDbBlockEnd
  0
ENDSEC
  0
SECTION
  2
ENTITIES
  0
INSERT
  5
5F
330
1F
100
AcDbEntity
  8
Default
100
AcDbBlockReference
  2
SEANNOT_GROUP
 10
0.0
 20
0.0
 30
0.0
  0
INSERT
  5
6A
330
1F
100
AcDbEntity
  8
Default
100
AcDbBlockReference
  2
SEANNOT_GROUP1
 10
0.0
 20
0.0
 30
0.0
  0
INSERT
  5
70
330
1F
100
AcDbEntity
  8
Default
100
AcDbBlockReference
  2
SEANNOT_GROUP2
 10
0.0
 20
0.0
 30
0.0
  0
INSERT
  5
76
330
1F
100
AcDbEntity
  8
Default
100
AcDbBlockReference
  2
SE
 10
0.0
 20
0.0
 30
0.0
  0
INSERT
  5
98
330
1F
100
AcDbEntity
  8
Default
100
AcDbBlockReference
  2
SE1
 10
0.0
 20
0.0
 30
0.0
  0
INSERT
  5
D1
330
1F
100
AcDbEntity
  8
Default
100
AcDbBlockReference
  2
SE2
 10
0.0
 20
0.0
 30
0.0
  0
TEXT
  5
F6
330
1F
100
AcDbEntity
  8
Default
  6
Continuous
 62
     7
100
AcDbText
 10
5.9362635081
 20
53.4225120485
 30
0.0
 40
10.0
  1
Grohe AG^J
  7
SEACAD_seiso_ttf
 11
5.9362635081
 21
63.4225120485
 31
0.0
100
AcDbText
 73
     3
  0
TEXT
  5
F7
330
1F
100
AcDbEntity
  8
Default
  6
Continuous
 62
     7
100
AcDbText
 10
5.9362635081
 20
37.0588756849
 30
0.0
 40
10.0
  1
 
  7
SEACAD_seiso_ttf
 11
5.9362635081
 21
47.0588756849
 31
0.0
100
AcDbText
 73
     3
  0
TEXT
  5
F8
330
1F
100
AcDbEntity
  8
Default
  6
Continuous
 62
     7
100
AcDbText
 10
5.9362635081
 20
20.6952393213
 30
0.0
 40
10.0
  1
ecn: 
  7
SEACAD_seiso_ttf
 11
5.9362635081
 21
30.6952393213
 31
0.0
100
AcDbText
 73
     3
  0
TEXT
  5
F9
330
1F
100
AcDbEntity
  8
Default
  6
Continuous
 62
     7
100
AcDbText
 10
5.9362635081
 20
4.3316029576
 30
0.0
 40
10.0
  1
unit: mm
  7
SEACAD_seiso_ttf
 11
5.9362635081
 21
14.3316029576
 31
0.0
100
AcDbText
 73
     3
  0
LINE
  5
FA
330
1F
100
AcDbEntity
  8
Default
  6
Continuous
 62
     7
100
AcDbLine
 10
0.0
 20
0.0
 30
0.0
 11
100.0
 21
0.0
 31
0.0
  0
LINE
  5
FB
330
1F
100
AcDbEntity
  8
Default
  6
Continuous
 62
     7
100
AcDbLine
 10
0.0
 20
0.0
 30
0.0
 11
0.0
 21
100.0
 31
0.0
  0
TEXT
  5
FC
330
1F
100
AcDbEntity
  8
Default
  6
Continuous
 62
     7
100
AcDbText
 10
24.3923665681
 20
-18.2375342018
 30
0.0
 40
10.0
  1
100 mm
  7
SEACAD_seiso_ttf
 11
24.3923665681
 21
-8.2375342018
 31
0.0
100
AcDbText
 73
     3
  0
TEXT
  5
FD
330
1F
100
AcDbEntity
  8
Default
  6
Continuous
 62
     7
100
AcDbText
 10
-7.6150308803
 20
24.6231930421
 30
0.0
 40
10.0
  1
100 mm
 50
90.0
  7
SEACAD_seiso_ttf
 11
-17.6150308803
 21
24.6231930421
 31
0.0
100
AcDbText
 73
     3
  0
TEXT
  5
FE
330
1F
100
AcDbEntity
  8
Default
  6
Continuous
 62
     7
100
AcDbText
 10
28.4878128572
 20
20.0907663715
 30
0.0
 40
10.0
  1
219326
  7
SEACAD_seiso_ttf
 11
28.4878128572
 21
30.0907663715
 31
0.0
100
AcDbText
 73
     3
  0
TEXT
  5
FF
330
1F
100
AcDbEntity
  8
Default
  6
Continuous
 62
     7
100
AcDbText
 10
5.9012241913
 20
36.7242780188
 30
0.0
 40
10.0
  1
19879000
  7
SEACAD_seiso_ttf
 11
5.9012241913
 21
46.7242780188
 31
0.0
100
AcDbText
 73
     3
  0
ENDSEC
  0
SECTION
  2
OBJECTS
  0
DICTIONARY
  5
C
330
0
100
AcDbDictionary
281
     1
  3
ACAD_GROUP
350
D
  3
ACAD_LAYOUT
350
1A
  3
ACAD_MLEADERSTYLE
350
103
  3
ACAD_MLINESTYLE
350
17
  3
ACAD_PLOTSETTINGS
350
19
  3
ACAD_PLOTSTYLENAME
350
E
  3
ACAD_SCALELIST
350
3B
  3
ACAD_TABLESTYLE
350
102
  3
ACAD_VISUALSTYLE
350
2A
  3
AcDbVariableDictionary
350
100
  0
DICTIONARY
  5
D
102
{ACAD_REACTORS
330
C
102
}
330
C
100
AcDbDictionary
281
     1
  0
DICTIONARY
  5
1A
102
{ACAD_REACTORS
330
C
102
}
330
C
100
AcDbDictionary
281
     1
  3
Layout1
350
1E
  3
Model
350
22
  0
DICTIONARY
  5
103
102
{ACAD_REACTORS
330
C
102
}
330
C
100
AcDbDictionary
281
     1
  0
DICTIONARY
  5
17
102
{ACAD_REACTORS
330
C
102
}
330
C
100
AcDbDictionary
281
     1
  3
Standard
350
18
  0
DICTIONARY
  5
19
102
{ACAD_REACTORS
330
C
102
}
330
C
100
AcDbDictionary
281
     1
  0
ACDBDICTIONARYWDFLT
  5
E
102
{ACAD_REACTORS
330
C
102
}
330
C
100
AcDbDictionary
281
     1
  3
Normal
350
F
100
AcDbDictionaryWithDefault
340
F
  0
DICTIONARY
  5
3B
102
{ACAD_REACTORS
330
C
102
}
330
C
100
AcDbDictionary
281
     1
  3
A0
350
3C
  3
A1
350
3D
  3
A2
350
3E
  3
A3
350
3F
  3
A4
350
40
  3
A5
350
41
  3
A6
350
42
  3
A7
350
43
  3
A8
350
44
  3
A9
350
45
  3
B0
350
46
  3
B1
350
47
  3
B2
350
48
  3
B3
350
49
  3
B4
350
4A
  3
B5
350
4B
  3
B6
350
4C
  3
B7
350
4D
  3
B8
350
4E
  3
B9
350
4F
  3
C0
350
50
  3
C1
350
51
  3
C2
350
52
  3
C3
350
53
  3
C4
350
54
  3
C5
350
55
  3
C6
350
56
  3
C7
350
57
  3
C8
350
58
  3
C9
350
59
  3
D0
350
5A
  3
D1
350
5B
  3
D2
350
5C
  0
DICTIONARY
  5
102
102
{ACAD_REACTORS
330
C
102
}
330
C
100
AcDbDictionary
281
     1
  0
DICTIONARY
  5
2A
102
{ACAD_REACTORS
330
C
102
}
330
C
100
AcDbDictionary
281
     1
  3
2dWireframe
350
2F
  3
3D Hidden
350
31
  3
3dWireframe
350
30
  3
Basic
350
32
  3
Brighten
350
36
  3
ColorChange
350
3A
  3
Conceptual
350
34
  3
Dim
350
35
  3
Facepattern
350
39
  3
Flat
350
2B
  3
FlatWithEdges
350
2C
  3
Gouraud
350
2D
  3
GouraudWithEdges
350
2E
  3
Linepattern
350
38
  3
Realistic
350
33
  3
Thicken
350
37
  0
DICTIONARY
  5
100
102
{ACAD_REACTORS
330
C
102
}
330
C
100
AcDbDictionary
281
     1
  3
CANNOSCALE
350
101
  3
PSOLHEIGHT
350
105
  3
PSOLWIDTH
350
104
  0
LAYOUT
  5
1E
102
{ACAD_REACTORS
330
1A
102
}
330
1A
100
AcDbPlotSettings
  1

  2
none_device
  4

  6

 40
0.0
 41
0.0
 42
0.0
 43
0.0
 44
0.0
 45
0.0
 46
0.0
 47
0.0
 48
0.0
 49
0.0
140
0.0
141
0.0
142
1.0
143
1.0
 70
   688
 72
     0
 73
     0
 74
     5
  7

 75
    16
147
1.0
148
0.0
149
0.0
100
AcDbLayout
  1
Layout1
 70
     1
 71
     1
 10
0.0
 20
0.0
 11
1682.0
 21
2378.0
 12
0.0
 22
0.0
 32
0.0
 14
0.0
 24
0.0
 34
0.0
 15
1682.0
 25
2378.0
 35
0.0
146
0.0
 13
0.0
 23
0.0
 33
0.0
 16
1.0
 26
0.0
 36
0.0
 17
0.0
 27
1.0
 37
0.0
 76
     0
330
1B
  0
LAYOUT
  5
22
102
{ACAD_REACTORS
330
1A
102
}
330
1A
100
AcDbPlotSettings
  1

  2
none_device
  4

  6

 40
0.0
 41
0.0
 42
0.0
 43
0.0
 44
0.0
 45
0.0
 46
0.0
 47
0.0
 48
0.0
 49
0.0
140
0.0
141
0.0
142
1.0
143
1.0
 70
  1712
 72
     0
 73
     0
 74
     0
  7

 75
     0
147
1.0
148
0.0
149
0.0
100
AcDbLayout
  1
Model
 70
     1
 71
     0
 10
0.0
 20
0.0
 11
1682.0
 21
2378.0
 12
0.0
 22
0.0
 32
0.0
 14
0.0
 24
0.0
 34
0.0
 15
1682.0
 25
2378.0
 35
0.0
146
0.0
 13
0.0
 23
0.0
 33
0.0
 16
1.0
 26
0.0
 36
0.0
 17
0.0
 27
1.0
 37
0.0
 76
     0
330
1F
331
29
  0
MLINESTYLE
  5
18
102
{ACAD_REACTORS
330
17
102
}
330
17
100
AcDbMlineStyle
  2
Standard
 70
     0
  3

 62
   256
 51
90.0
 52
90.0
 71
     2
 49
0.5
 62
   256
  6
BYLAYER
 49
-0.5
 62
   256
  6
BYLAYER
  0
ACDBPLACEHOLDER
  5
F
102
{ACAD_REACTORS
330
E
102
}
330
E
  0
SCALE
  5
3C
102
{ACAD_REACTORS
330
3B
102
}
330
3B
100
AcDbScale
 70
     0
300
1:1
140
1.0
141
1.0
290
     1
  0
SCALE
  5
3D
102
{ACAD_REACTORS
330
3B
102
}
330
3B
100
AcDbScale
 70
     0
300
1:2
140
1.0
141
2.0
290
     0
  0
SCALE
  5
3E
102
{ACAD_REACTORS
330
3B
102
}
330
3B
100
AcDbScale
 70
     0
300
1:4
140
1.0
141
4.0
290
     0
  0
SCALE
  5
3F
102
{ACAD_REACTORS
330
3B
102
}
330
3B
100
AcDbScale
 70
     0
300
1:5
140
1.0
141
5.0
290
     0
  0
SCALE
  5
40
102
{ACAD_REACTORS
330
3B
102
}
330
3B
100
AcDbScale
 70
     0
300
1:8
140
1.0
141
8.0
290
     0
  0
SCALE
  5
41
102
{ACAD_REACTORS
330
3B
102
}
330
3B
100
AcDbScale
 70
     0
300
1:10
140
1.0
141
10.0
290
     0
  0
SCALE
  5
42
102
{ACAD_REACTORS
330
3B
102
}
330
3B
100
AcDbScale
 70
     0
300
1:16
140
1.0
141
16.0
290
     0
  0
SCALE
  5
43
102
{ACAD_REACTORS
330
3B
102
}
330
3B
100
AcDbScale
 70
     0
300
1:20
140
1.0
141
20.0
290
     0
  0
SCALE
  5
44
102
{ACAD_REACTORS
330
3B
102
}
330
3B
100
AcDbScale
 70
     0
300
1:30
140
1.0
141
30.0
290
     0
  0
SCALE
  5
45
102
{ACAD_REACTORS
330
3B
102
}
330
3B
100
AcDbScale
 70
     0
300
1:40
140
1.0
141
40.0
290
     0
  0
SCALE
  5
46
102
{ACAD_REACTORS
330
3B
102
}
330
3B
100
AcDbScale
 70
     0
300
1:50
140
1.0
141
50.0
290
     0
  0
SCALE
  5
47
102
{ACAD_REACTORS
330
3B
102
}
330
3B
100
AcDbScale
 70
     0
300
1:100
140
1.0
141
100.0
290
     0
  0
SCALE
  5
48
102
{ACAD_REACTORS
330
3B
102
}
330
3B
100
AcDbScale
 70
     0
300
2:1
140
2.0
141
1.0
290
     0
  0
SCALE
  5
49
102
{ACAD_REACTORS
330
3B
102
}
330
3B
100
AcDbScale
 70
     0
300
4:1
140
4.0
141
1.0
290
     0
  0
SCALE
  5
4A
102
{ACAD_REACTORS
330
3B
102
}
330
3B
100
AcDbScale
 70
     0
300
8:1
140
8.0
141
1.0
290
     0
  0
SCALE
  5
4B
102
{ACAD_REACTORS
330
3B
102
}
330
3B
100
AcDbScale
 70
     0
300
10:1
140
10.0
141
1.0
290
     0
  0
SCALE
  5
4C
102
{ACAD_REACTORS
330
3B
102
}
330
3B
100
AcDbScale
 70
     0
300
100:1
140
100.0
141
1.0
290
     0
  0
SCALE
  5
4D
102
{ACAD_REACTORS
330
3B
102
}
330
3B
100
AcDbScale
 70
     0
300
1/128" = 1'-0"
140
0.0078125
141
12.0
290
     0
  0
SCALE
  5
4E
102
{ACAD_REACTORS
330
3B
102
}
330
3B
100
AcDbScale
 70
     0
300
1/64" = 1'-0"
140
0.015625
141
12.0
290
     0
  0
SCALE
  5
4F
102
{ACAD_REACTORS
330
3B
102
}
330
3B
100
AcDbScale
 70
     0
300
1/32" = 1'-0"
140
0.03125
141
12.0
290
     0
  0
SCALE
  5
50
102
{ACAD_REACTORS
330
3B
102
}
330
3B
100
AcDbScale
 70
     0
300
1/16" = 1'-0"
140
0.0625
141
12.0
290
     0
  0
SCALE
  5
51
102
{ACAD_REACTORS
330
3B
102
}
330
3B
100
AcDbScale
 70
     0
300
3/32" = 1'-0"
140
0.09375
141
12.0
290
     0
  0
SCALE
  5
52
102
{ACAD_REACTORS
330
3B
102
}
330
3B
100
AcDbScale
 70
     0
300
1/8" = 1'-0"
140
0.125
141
12.0
290
     0
  0
SCALE
  5
53
102
{ACAD_REACTORS
330
3B
102
}
330
3B
100
AcDbScale
 70
     0
300
3/16" = 1'-0"
140
0.1875
141
12.0
290
     0
  0
SCALE
  5
54
102
{ACAD_REACTORS
330
3B
102
}
330
3B
100
AcDbScale
 70
     0
300
1/4" = 1'-0"
140
0.25
141
12.0
290
     0
  0
SCALE
  5
55
102
{ACAD_REACTORS
330
3B
102
}
330
3B
100
AcDbScale
 70
     0
300
3/8" = 1'-0"
140
0.375
141
12.0
290
     0
  0
SCALE
  5
56
102
{ACAD_REACTORS
330
3B
102
}
330
3B
100
AcDbScale
 70
     0
300
1/2" = 1'-0"
140
0.5
141
12.0
290
     0
  0
SCALE
  5
57
102
{ACAD_REACTORS
330
3B
102
}
330
3B
100
AcDbScale
 70
     0
300
3/4" = 1'-0"
140
0.75
141
12.0
290
     0
  0
SCALE
  5
58
102
{ACAD_REACTORS
330
3B
102
}
330
3B
100
AcDbScale
 70
     0
300
1" = 1'-0"
140
1.0
141
12.0
290
     0
  0
SCALE
  5
59
102
{ACAD_REACTORS
330
3B
102
}
330
3B
100
AcDbScale
 70
     0
300
1-1/2" = 1'-0"
140
1.5
141
12.0
290
     0
  0
SCALE
  5
5A
102
{ACAD_REACTORS
330
3B
102
}
330
3B
100
AcDbScale
 70
     0
300
3" = 1'-0"
140
3.0
141
12.0
290
     0
  0
SCALE
  5
5B
102
{ACAD_REACTORS
330
3B
102
}
330
3B
100
AcDbScale
 70
     0
300
6" = 1'-0"
140
6.0
141
12.0
290
     0
  0
SCALE
  5
5C
102
{ACAD_REACTORS
330
3B
102
}
330
3B
100
AcDbScale
 70
     0
300
1'-0" = 1'-0"
140
12.0
141
12.0
290
     0
  0
VISUALSTYLE
  5
2F
102
{ACAD_REACTORS
330
2A
102
}
330
2A
100
AcDbVisualStyle
  2
2dWireframe
 70
     4
 71
     0
 72
     2
 73
     0
 90
        0
 40
-0.6
 41
-30.0
 62
     5
 63
     7
 74
     1
 91
        4
 64
     7
 65
   257
 75
     1
175
     1
 42
1.0
 92
        0
 66
   257
 43
1.0
 76
     1
 77
     6
 78
     2
 67
     7
 79
     5
170
     0
171
     0
290
     0
174
     0
 93
        1
 44
0.0
173
     0
291
     0
 45
0.0
1001
ACAD
1000
AcDbSavedByObjectVersion
1070
     0
  0
VISUALSTYLE
  5
31
102
{ACAD_REACTORS
330
2A
102
}
330
2A
100
AcDbVisualStyle
  2
3D Hidden
 70
     6
 71
     1
 72
     2
 73
     2
 90
        0
 40
-0.6
 41
-30.0
 62
     5
 63
     7
 74
     2
 91
        2
 64
     7
 65
   257
 75
     2
175
     1
 42
40.0
 92
        0
 66
   257
 43
1.0
 76
     1
 77
     6
 78
     2
 67
     7
 79
     3
170
     0
171
     0
290
     0
174
     0
 93
        1
 44
0.0
173
     0
291
     0
 45
0.0
1001
ACAD
1000
AcDbSavedByObjectVersion
1070
     0
  0
VISUALSTYLE
  5
30
102
{ACAD_REACTORS
330
2A
102
}
330
2A
100
AcDbVisualStyle
  2
3dWireframe
 70
     5
 71
     0
 72
     2
 73
     0
 90
        0
 40
-0.6
 41
-30.0
 62
     5
 63
     7
 74
     1
 91
        4
 64
     7
 65
   257
 75
     1
175
     1
 42
1.0
 92
        0
 66
   257
 43
1.0
 76
     1
 77
     6
 78
     2
 67
     7
 79
     5
170
     0
171
     0
290
     0
174
     0
 93
        1
 44
0.0
173
     0
291
     0
 45
0.0
1001
ACAD
1000
AcDbSavedByObjectVersion
1070
     0
  0
VISUALSTYLE
  5
32
102
{ACAD_REACTORS
330
2A
102
}
330
2A
100
AcDbVisualStyle
  2
Basic
 70
     7
 71
     1
 72
     0
 73
     1
 90
        0
 40
-0.6
 41
-30.0
 62
     5
 63
     7
 74
     0
 91
        4
 64
     7
 65
   257
 75
     1
175
     1
 42
1.0
 92
        8
 66
     7
 43
1.0
 76
     1
 77
     6
 78
     2
 67
     7
 79
     5
170
     0
171
     0
290
     0
174
     0
 93
        1
 44
0.0
173
     0
291
     1
 45
0.0
1001
ACAD
1000
AcDbSavedByObjectVersion
1070
     0
  0
VISUALSTYLE
  5
36
102
{ACAD_REACTORS
330
2A
102
}
330
2A
100
AcDbVisualStyle
  2
Brighten
 70
    12
 71
     2
 72
     2
 73
     0
 90
        0
 40
-0.6
 41
-30.0
 62
     5
 63
     7
 74
     1
 91
        4
 64
     7
 65
   257
 75
     1
175
     1
 42
1.0
 92
        8
 66
     7
 43
1.0
 76
     1
 77
     6
 78
     2
 67
     7
 79
     5
170
     0
171
     0
290
     0
174
     0
 93
        1
 44
50.0
173
     0
291
     1
 45
0.0
1001
ACAD
1000
AcDbSavedByObjectVersion
1070
     0
  0
VISUALSTYLE
  5
3A
102
{ACAD_REACTORS
330
2A
102
}
330
2A
100
AcDbVisualStyle
  2
ColorChange
 70
    16
 71
     2
 72
     2
 73
     3
 90
        0
 40
-0.6
 41
-30.0
 62
     5
 63
     8
 74
     1
 91
        4
 64
     7
 65
   257
 75
     1
175
     1
 42
1.0
 92
        8
 66
     8
 43
1.0
 76
     1
 77
     6
 78
     2
 67
     7
 79
     5
170
     0
171
     0
290
     0
174
     0
 93
        1
 44
0.0
173
     0
291
     1
 45
0.0
1001
ACAD
1000
AcDbSavedByObjectVersion
1070
     0
  0
VISUALSTYLE
  5
34
102
{ACAD_REACTORS
330
2A
102
}
330
2A
100
AcDbVisualStyle
  2
Conceptual
 70
     9
 71
     3
 72
     2
 73
     0
 90
        0
 40
-0.6
 41
-30.0
 62
     5
 63
     7
 74
     2
 91
        2
 64
     7
 65
   257
 75
     1
175
     1
 42
40.0
 92
        8
 66
     7
 43
1.0
 76
     1
 77
     6
 78
     2
 67
     7
 79
     3
170
     0
171
     0
290
     0
174
     0
 93
        1
 44
0.0
173
     0
291
     0
 45
0.0
1001
ACAD
1000
AcDbSavedByObjectVersion
1070
     0
  0
VISUALSTYLE
  5
35
102
{ACAD_REACTORS
330
2A
102
}
330
2A
100
AcDbVisualStyle
  2
Dim
 70
    11
 71
     2
 72
     2
 73
     0
 90
        0
 40
-0.6
 41
-30.0
 62
     5
 63
     7
 74
     1
 91
        4
 64
     7
 65
   257
 75
     1
175
     1
 42
1.0
 92
        8
 66
     7
 43
1.0
 76
     1
 77
     6
 78
     2
 67
     7
 79
     5
170
     0
171
     0
290
     0
174
     0
 93
        1
 44
-50.0
173
     0
291
     1
 45
0.0
1001
ACAD
1000
AcDbSavedByObjectVersion
1070
     0
  0
VISUALSTYLE
  5
39
102
{ACAD_REACTORS
330
2A
102
}
330
2A
100
AcDbVisualStyle
  2
Facepattern
 70
    15
 71
     2
 72
     2
 73
     0
 90
        0
 40
-0.6
 41
-30.0
 62
     5
 63
     7
 74
     1
 91
        4
 64
     7
 65
   257
 75
     1
175
     1
 42
1.0
 92
        8
 66
     7
 43
1.0
 76
     1
 77
     6
 78
     2
 67
     7
 79
     5
170
     0
171
     0
290
     0
174
     0
 93
        1
 44
0.0
173
     0
291
     1
 45
0.0
1001
ACAD
1000
AcDbSavedByObjectVersion
1070
     0
  0
VISUALSTYLE
  5
2B
102
{ACAD_REACTORS
330
2A
102
}
330
2A
100
AcDbVisualStyle
  2
Flat
 70
     0
 71
     2
 72
     1
 73
     1
 90
        2
 40
-0.6
 41
30.0
 62
     5
 63
     7
 74
     0
 91
        4
 64
     7
 65
   257
 75
     1
175
     1
 42
1.0
 92
        8
 66
     7
 43
1.0
 76
     1
 77
     6
 78
     2
 67
     7
 79
     5
170
     0
171
     0
290
     0
174
     0
 93
       13
 44
0.0
173
     0
291
     1
 45
0.0
1001
ACAD
1000
AcDbSavedByObjectVersion
1070
     0
  0
VISUALSTYLE
  5
2C
102
{ACAD_REACTORS
330
2A
102
}
330
2A
100
AcDbVisualStyle
  2
FlatWithEdges
 70
     1
 71
     2
 72
     1
 73
     1
 90
        2
 40
-0.6
 41
30.0
 62
     5
 63
     7
 74
     1
 91
        4
 64
     7
 65
   257
 75
     1
175
     1
 42
1.0
 92
        0
 66
   257
 43
1.0
 76
     1
 77
     6
 78
     2
 67
     7
 79
     5
170
     0
171
     0
290
     0
174
     0
 93
       13
 44
0.0
173
     0
291
     1
 45
0.0
1001
ACAD
1000
AcDbSavedByObjectVersion
1070
     0
  0
VISUALSTYLE
  5
2D
102
{ACAD_REACTORS
330
2A
102
}
330
2A
100
AcDbVisualStyle
  2
Gouraud
 70
     2
 71
     2
 72
     2
 73
     1
 90
        2
 40
-0.6
 41
30.0
 62
     5
 63
     7
 74
     0
 91
        4
 64
     7
 65
   257
 75
     1
175
     1
 42
1.0
 92
        0
 66
     7
 43
1.0
 76
     1
 77
     6
 78
     2
 67
     7
 79
     5
170
     0
171
     0
290
     0
174
     0
 93
       13
 44
0.0
173
     0
291
     1
 45
0.0
1001
ACAD
1000
AcDbSavedByObjectVersion
1070
     0
  0
VISUALSTYLE
  5
2E
102
{ACAD_REACTORS
330
2A
102
}
330
2A
100
AcDbVisualStyle
  2
GouraudWithEdges
 70
     3
 71
     2
 72
     2
 73
     1
 90
        2
 40
-0.6
 41
30.0
 62
     5
 63
     7
 74
     1
 91
        4
 64
     7
 65
   257
 75
     1
175
     1
 42
1.0
 92
        0
 66
   257
 43
1.0
 76
     1
 77
     6
 78
     2
 67
     7
 79
     5
170
     0
171
     0
290
     0
174
     0
 93
       13
 44
0.0
173
     0
291
     1
 45
0.0
1001
ACAD
1000
AcDbSavedByObjectVersion
1070
     0
  0
VISUALSTYLE
  5
38
102
{ACAD_REACTORS
330
2A
102
}
330
2A
100
AcDbVisualStyle
  2
Linepattern
 70
    14
 71
     2
 72
     2
 73
     0
 90
        0
 40
-0.6
 41
-30.0
 62
     5
 63
     7
 74
     1
 91
        4
 64
     7
 65
   257
 75
     7
175
     7
 42
1.0
 92
        8
 66
     7
 43
1.0
 76
     1
 77
     6
 78
     2
 67
     7
 79
     5
170
     0
171
     0
290
     0
174
     0
 93
        1
 44
0.0
173
     0
291
     1
 45
0.0
1001
ACAD
1000
AcDbSavedByObjectVersion
1070
     0
  0
VISUALSTYLE
  5
33
102
{ACAD_REACTORS
330
2A
102
}
330
2A
100
AcDbVisualStyle
  2
Realistic
 70
     8
 71
     2
 72
     2
 73
     0
 90
        0
 40
-0.6
 41
-30.0
 62
     5
 63
     7
 74
     1
 91
        0
 64
     7
 65
   257
 75
     1
175
     1
 42
1.0
 92
        8
 66
     8
 43
1.0
 76
     1
 77
     6
 78
     2
 67
     7
 79
     5
170
     0
171
     0
290
     0
174
     0
 93
       13
 44
0.0
173
     0
291
     0
 45
0.0
1001
ACAD
1000
AcDbSavedByObjectVersion
1070
     0
  0
VISUALSTYLE
  5
37
102
{ACAD_REACTORS
330
2A
102
}
330
2A
100
AcDbVisualStyle
  2
Thicken
 70
    13
 71
     2
 72
     2
 73
     0
 90
        0
 40
-0.6
 41
-30.0
 62
     5
 63
     7
 74
     1
 91
        4
 64
     7
 65
   257
 75
     1
175
     1
 42
1.0
 92
       12
 66
     7
 43
1.0
 76
     1
 77
     6
 78
     2
 67
     7
 79
     5
170
     0
171
     0
290
     0
174
     0
 93
        1
 44
0.0
173
     0
291
     1
 45
0.0
1001
ACAD
1000
AcDbSavedByObjectVersion
1070
     0
  0
DICTIONARYVAR
  5
101
102
{ACAD_REACTORS
330
100
102
}
330
100
100
DictionaryVariables
280
     0
  1
1:1
  0
DICTIONARYVAR
  5
105
102
{ACAD_REACTORS
330
100
102
}
330
100
100
DictionaryVariables
280
     0
  1
80.000000
  0
DICTIONARYVAR
  5
104
102
{ACAD_REACTORS
330
100
102
}
330
100
100
DictionaryVariables
280
     0
  1
5.000000
  0
ENDSEC
  0
EOF
