  0
SECTION
  2
HEADER
  9
$ACADVER
  1
AC1015
  9
$ACADMAINTVER
 70
     6
  9
$DWGCODEPAGE
  3
ANSI_1252
  9
$INSBASE
 10
0.0
 20
0.0
 30
0.0
  9
$EXTMIN
 10
0.0
 20
0.0
 30
0.0
  9
$EXTMAX
 10
3000.0
 20
4500.0
 30
0.0
  9
$LIMMIN
 10
0.0
 20
0.0
  9
$LIMMAX
 10
3000.0
 20
4500.0
  9
$ORTHOMODE
 70
     0
  9
$REGENMODE
 70
     1
  9
$FILLMODE
 70
     1
  9
$QTEXTMODE
 70
     0
  9
$MIRRTEXT
 70
     1
  9
$LTSCALE
 40
1.0
  9
$ATTMODE
 70
     1
  9
$TEXTSIZE
 40
2.5
  9
$TRACEWID
 40
1.0
  9
$TEXTSTYLE
  7
Standard
  9
$CLAYER
  8
0
  9
$CELTYPE
  6
ByLayer
  9
$CECOLOR
 62
   256
  9
$CELTSCALE
 40
1.0
  9
$DISPSILH
 70
     0
  9
$DIMSCALE
 40
1.0
  9
$DIMASZ
 40
2.5
  9
$DIMEXO
 40
0.625
  9
$DIMDLI
 40
3.75
  9
$DIMRND
 40
0.0
  9
$DIMDLE
 40
0.0
  9
$DIMEXE
 40
1.25
  9
$DIMTP
 40
0.0
  9
$DIMTM
 40
0.0
  9
$DIMTXT
 40
2.5
  9
$DIMCEN
 40
2.5
  9
$DIMTSZ
 40
0.0
  9
$DIMTOL
 70
     0
  9
$DIMLIM
 70
     0
  9
$DIMTIH
 70
     0
  9
$DIMTOH
 70
     0
  9
$DIMSE1
 70
     0
  9
$DIMSE2
 70
     0
  9
$DIMTAD
 70
     1
  9
$DIMZIN
 70
     8
  9
$DIMBLK
  1

  9
$DIMASO
 70
     1
  9
$DIMSHO
 70
     1
  9
$DIMPOST
  1

  9
$DIMAPOST
  1

  9
$DIMALT
 70
     0
  9
$DIMALTD
 70
     3
  9
$DIMALTF
 40
0.0393700787
  9
$DIMLFAC
 40
1.0
  9
$DIMTOFL
 70
     1
  9
$DIMTVP
 40
0.0
  9
$DIMTIX
 70
     0
  9
$DIMSOXD
 70
     0
  9
$DIMSAH
 70
     0
  9
$DIMBLK1
  1

  9
$DIMBLK2
  1

  9
$DIMSTYLE
  2
ISO-25
  9
$DIMCLRD
 70
     0
  9
$DIMCLRE
 70
     0
  9
$DIMCLRT
 70
     0
  9
$DIMTFAC
 40
1.0
  9
$DIMGAP
 40
0.625
  9
$DIMJUST
 70
     0
  9
$DIMSD1
 70
     0
  9
$DIMSD2
 70
     0
  9
$DIMTOLJ
 70
     0
  9
$DIMTZIN
 70
     8
  9
$DIMALTZ
 70
     0
  9
$DIMALTTZ
 70
     0
  9
$DIMUPT
 70
     0
  9
$DIMDEC
 70
     2
  9
$DIMTDEC
 70
     2
  9
$DIMALTU
 70
     2
  9
$DIMALTTD
 70
     3
  9
$DIMTXSTY
  7
Standard
  9
$DIMAUNIT
 70
     0
  9
$DIMADEC
 70
     0
  9
$DIMALTRND
 40
0.0
  9
$DIMAZIN
 70
     0
  9
$DIMDSEP
 70
    44
  9
$DIMATFIT
 70
     3
  9
$DIMFRAC
 70
     0
  9
$DIMLDRBLK
  1

  9
$DIMLUNIT
 70
     2
  9
$DIMLWD
 70
    -2
  9
$DIMLWE
 70
    -2
  9
$DIMTMOVE
 70
     0
  9
$LUNITS
 70
     2
  9
$LUPREC
 70
     4
  9
$SKETCHINC
 40
1.0
  9
$FILLETRAD
 40
10.0
  9
$AUNITS
 70
     0
  9
$AUPREC
 70
     0
  9
$MENU
  1
.
  9
$ELEVATION
 40
0.0
  9
$PELEVATION
 40
0.0
  9
$THICKNESS
 40
0.0
  9
$LIMCHECK
 70
     0
  9
$CHAMFERA
 40
10.0
  9
$CHAMFERB
 40
10.0
  9
$CHAMFERC
 40
20.0
  9
$CHAMFERD
 40
0.0
  9
$SKPOLY
 70
     0
  9
$TDCREATE
 40
2456238.518010324
  9
$TDUCREATE
 40
2456238.476343657
  9
$TDUPDATE
 40
2456238.518010336
  9
$TDUUPDATE
 40
2456238.476343669
  9
$TDINDWG
 40
0.0000000116
  9
$TDUSRTIMER
 40
0.0000000116
  9
$USRTIMER
 70
     1
  9
$ANGBASE
 50
0.0
  9
$ANGDIR
 70
     0
  9
$PDMODE
 70
     0
  9
$PDSIZE
 40
0.0
  9
$PLINEWID
 40
0.0
  9
$SPLFRAME
 70
     0
  9
$SPLINETYPE
 70
     6
  9
$SPLINESEGS
 70
     8
  9
$HANDSEED
  5
18A
  9
$SURFTAB1
 70
     6
  9
$SURFTAB2
 70
     6
  9
$SURFTYPE
 70
     6
  9
$SURFU
 70
     6
  9
$SURFV
 70
     6
  9
$UCSBASE
  2

  9
$UCSNAME
  2

  9
$UCSORG
 10
0.0
 20
0.0
 30
0.0
  9
$UCSXDIR
 10
1.0
 20
0.0
 30
0.0
  9
$UCSYDIR
 10
0.0
 20
1.0
 30
0.0
  9
$UCSORTHOREF
  2

  9
$UCSORTHOVIEW
 70
     0
  9
$UCSORGTOP
 10
0.0
 20
0.0
 30
0.0
  9
$UCSORGBOTTOM
 10
0.0
 20
0.0
 30
0.0
  9
$UCSORGLEFT
 10
0.0
 20
0.0
 30
0.0
  9
$UCSORGRIGHT
 10
0.0
 20
0.0
 30
0.0
  9
$UCSORGFRONT
 10
0.0
 20
0.0
 30
0.0
  9
$UCSORGBACK
 10
0.0
 20
0.0
 30
0.0
  9
$PUCSBASE
  2

  9
$PUCSNAME
  2

  9
$PUCSORG
 10
0.0
 20
0.0
 30
0.0
  9
$PUCSXDIR
 10
1.0
 20
0.0
 30
0.0
  9
$PUCSYDIR
 10
0.0
 20
1.0
 30
0.0
  9
$PUCSORTHOREF
  2

  9
$PUCSORTHOVIEW
 70
     0
  9
$PUCSORGTOP
 10
0.0
 20
0.0
 30
0.0
  9
$PUCSORGBOTTOM
 10
0.0
 20
0.0
 30
0.0
  9
$PUCSORGLEFT
 10
0.0
 20
0.0
 30
0.0
  9
$PUCSORGRIGHT
 10
0.0
 20
0.0
 30
0.0
  9
$PUCSORGFRONT
 10
0.0
 20
0.0
 30
0.0
  9
$PUCSORGBACK
 10
0.0
 20
0.0
 30
0.0
  9
$USERI1
 70
     0
  9
$USERI2
 70
     0
  9
$USERI3
 70
     0
  9
$USERI4
 70
     0
  9
$USERI5
 70
     0
  9
$USERR1
 40
0.0
  9
$USERR2
 40
0.0
  9
$USERR3
 40
0.0
  9
$USERR4
 40
0.0
  9
$USERR5
 40
0.0
  9
$WORLDVIEW
 70
     1
  9
$SHADEDGE
 70
     3
  9
$SHADEDIF
 70
    70
  9
$TILEMODE
 70
     1
  9
$MAXACTVP
 70
    64
  9
$PINSBASE
 10
0.0
 20
0.0
 30
0.0
  9
$PLIMCHECK
 70
     0
  9
$PEXTMIN
 10
0.0
 20
0.0
 30
0.0
  9
$PEXTMAX
 10
3000.0
 20
4500.0
 30
0.0
  9
$PLIMMIN
 10
0.0
 20
0.0
  9
$PLIMMAX
 10
3000.0
 20
4500.0
  9
$UNITMODE
 70
     0
  9
$VISRETAIN
 70
     1
  9
$PLINEGEN
 70
     0
  9
$PSLTSCALE
 70
     1
  9
$TREEDEPTH
 70
  3020
  9
$CMLSTYLE
  2
Standard
  9
$CMLJUST
 70
     0
  9
$CMLSCALE
 40
20.0
  9
$PROXYGRAPHICS
 70
     1
  9
$MEASUREMENT
 70
     1
  9
$CELWEIGHT
370
    -1
  9
$ENDCAPS
280
     0
  9
$JOINSTYLE
280
     0
  9
$LWDISPLAY
290
     0
  9
$INSUNITS
 70
     4
  9
$HYPERLINKBASE
  1

  9
$STYLESHEET
  1

  9
$XEDIT
290
     1
  9
$CEPSNTYPE
380
     0
  9
$PSTYLEMODE
290
     1
  9
$FINGERPRINTGUID
  2
{994656FF-F4DF-4ECF-B518-AA7933738B67}
  9
$VERSIONGUID
  2
{FAEB1C32-E019-11D5-929B-00C0DF256EC4}
  9
$EXTNAMES
290
     1
  9
$PSVPSCALE
 40
0.0
  9
$OLESTARTUP
290
     0
  0
ENDSEC
  0
SECTION
  2
CLASSES
  0
CLASS
  1
ACDBDICTIONARYWDFLT
  2
AcDbDictionaryWithDefault
  3
ObjectDBX Classes
 90
        0
280
     0
281
     0
  0
CLASS
  1
VISUALSTYLE
  2
AcDbVisualStyle
  3
ObjectDBX Classes
 90
     4095
280
     0
281
     0
  0
CLASS
  1
SCALE
  2
AcDbScale
  3
ObjectDBX Classes
 90
     1153
280
     0
281
     0
  0
CLASS
  1
DICTIONARYVAR
  2
AcDbDictionaryVar
  3
ObjectDBX Classes
 90
        0
280
     0
281
     0
  0
CLASS
  1
ACDBPLACEHOLDER
  2
AcDbPlaceHolder
  3
ObjectDBX Classes
 90
        0
280
     0
281
     0
  0
CLASS
  1
LAYOUT
  2
AcDbLayout
  3
ObjectDBX Classes
 90
        0
280
     0
281
     0
  0
ENDSEC
  0
SECTION
  2
TABLES
  0
TABLE
  2
VPORT
  5
8
330
0
100
AcDbSymbolTable
 70
     1
  0
VPORT
  5
29
330
8
100
AcDbSymbolTableRecord
100
AcDbViewportTableRecord
  2
*Active
 70
     0
 10
0.0
 20
0.0
 11
1.0
 21
1.0
 12
344.1869158879
 22
148.5
 13
0.0
 23
0.0
 14
10.0
 24
10.0
 15
10.0
 25
10.0
 16
0.0
 26
0.0
 36
1.0
 17
0.0
 27
0.0
 37
0.0
 40
297.0
 41
1.9729729729
 42
50.0
 43
0.0
 44
0.0
 50
0.0
 51
0.0
 71
     0
 72
   100
 73
     1
 74
     3
 75
     0
 76
     0
 77
     0
 78
     0
281
     0
 65
     1
110
0.0
120
0.0
130
0.0
111
1.0
121
0.0
131
0.0
112
0.0
122
1.0
132
0.0
 79
     0
146
0.0
  0
ENDTAB
  0
TABLE
  2
LTYPE
  5
5
330
0
100
AcDbSymbolTable
 70
     2
  0
LTYPE
  5
14
330
5
100
AcDbSymbolTableRecord
100
AcDbLinetypeTableRecord
  2
ByBlock
 70
     0
  3

 72
    65
 73
     0
 40
0.0
  0
LTYPE
  5
15
330
5
100
AcDbSymbolTableRecord
100
AcDbLinetypeTableRecord
  2
ByLayer
 70
     0
  3

 72
    65
 73
     0
 40
0.0
  0
LTYPE
  5
16
330
5
100
AcDbSymbolTableRecord
100
AcDbLinetypeTableRecord
  2
Continuous
 70
     0
  3
Solid line
 72
    65
 73
     0
 40
0.0
  0
LTYPE
  5
16E
330
5
100
AcDbSymbolTableRecord
100
AcDbLinetypeTableRecord
  2
CENTER2
 70
     0
  3
Center (.5x) ___ _ ___ _ ___ _ ___ _ ___ _ ___
 72
    65
 73
     4
 40
28.575
 49
19.05
 74
     4
 75
     0
340
0
 46
0.0
 50
0.0
 44
0.0
 45
0.0
 49
-3.175
 74
     4
 75
     0
340
0
 46
0.0
 50
0.0
 44
0.0
 45
0.0
 49
3.175
 74
     4
 75
     0
340
0
 46
0.0
 50
0.0
 44
0.0
 45
0.0
 49
-3.175
 74
     4
 75
     0
340
0
 46
0.0
 50
0.0
 44
0.0
 45
0.0
  0
ENDTAB
  0
TABLE
  2
LAYER
  5
2
330
0
100
AcDbSymbolTable
 70
     3
  0
LAYER
  5
10
330
2
100
AcDbSymbolTableRecord
100
AcDbLayerTableRecord
  2
0
 70
     0
 62
     7
  6
Continuous
370
    -3
390
F
  0
LAYER
  5
5D
330
2
100
AcDbSymbolTableRecord
100
AcDbLayerTableRecord
  2
Standard
 70
     0
 62
     7
  6
Continuous
370
    -3
390
F
  0
LAYER
  5
D2
330
2
100
AcDbSymbolTableRecord
100
AcDbLayerTableRecord
  2
Default
 70
     0
 62
     7
  6
Continuous
370
    -3
390
F
  0
ENDTAB
  0
TABLE
  2
STYLE
  5
3
330
0
100
AcDbSymbolTable
 70
     2
  0
STYLE
  5
11
330
3
100
AcDbSymbolTableRecord
100
AcDbTextStyleTableRecord
  2
Standard
 70
     0
 40
0.0
 41
1.0
 50
0.0
 71
     0
 42
2.5
  3
txt
  4

  0
STYLE
  5
179
330
3
100
AcDbSymbolTableRecord
100
AcDbTextStyleTableRecord
  2
SEACAD_seiso_ttf
 70
     0
 40
0.0
 41
1.0
 50
0.0
 71
     0
 42
0.2
  3
seiso.ttf
  4

  0
ENDTAB
  0
TABLE
  2
VIEW
  5
6
330
0
100
AcDbSymbolTable
 70
     0
  0
ENDTAB
  0
TABLE
  2
UCS
  5
7
330
0
100
AcDbSymbolTable
 70
     0
  0
ENDTAB
  0
TABLE
  2
APPID
  5
9
330
0
100
AcDbSymbolTable
 70
     1
  0
APPID
  5
12
330
9
100
AcDbSymbolTableRecord
100
AcDbRegAppTableRecord
  2
ACAD
 70
     0
  0
ENDTAB
  0
TABLE
  2
DIMSTYLE
  5
A
330
0
100
AcDbSymbolTable
 70
     1
100
AcDbDimStyleTable
  0
DIMSTYLE
105
27
330
A
100
AcDbSymbolTableRecord
100
AcDbDimStyleTableRecord
  2
ISO-25
 70
     0
 41
2.5
 42
0.625
 43
3.75
 44
1.25
 73
     0
 74
     0
 77
     1
 78
     8
140
2.5
141
2.5
143
0.0393700787
147
0.625
171
     3
172
     1
271
     2
272
     2
274
     3
278
    44
283
     0
284
     8
340
11
  0
ENDTAB
  0
TABLE
  2
BLOCK_RECORD
  5
1
330
0
100
AcDbSymbolTable
 70
     3
  0
BLOCK_RECORD
  5
1F
330
1
100
AcDbSymbolTableRecord
100
AcDbBlockTableRecord
  2
*Model_Space
340
22
  0
BLOCK_RECORD
  5
1B
330
1
100
AcDbSymbolTableRecord
100
AcDbBlockTableRecord
  2
*Paper_Space
340
1E
  0
BLOCK_RECORD
  5
16C
330
1
100
AcDbSymbolTableRecord
100
AcDbBlockTableRecord
  2
SEANNOT_GROUP
340
0
102
{BLKREFS
331
16D
102
}
  0
BLOCK_RECORD
  5
173
330
1
100
AcDbSymbolTableRecord
100
AcDbBlockTableRecord
  2
SEANNOT_GROUP1
340
0
102
{BLKREFS
331
174
102
}
  0
ENDTAB
  0
ENDSEC
  0
SECTION
  2
BLOCKS
  0
BLOCK
  5
20
330
1F
100
AcDbEntity
  8
0
100
AcDbBlockBegin
  2
*Model_Space
 70
     0
 10
0.0
 20
0.0
 30
0.0
  3
*Model_Space
  1

  0
ENDBLK
  5
21
330
1F
100
AcDbEntity
  8
0
100
AcDbBlockEnd
  0
BLOCK
  5
1C
330
1B
100
AcDbEntity
 67
     1
  8
0
100
AcDbBlockBegin
  2
*Paper_Space
 70
     0
 10
0.0
 20
0.0
 30
0.0
  3
*Paper_Space
  1

  0
ENDBLK
  5
1D
330
1B
100
AcDbEntity
 67
     1
  8
0
100
AcDbBlockEnd
  0
BLOCK
  5
171
330
16C
100
AcDbEntity
  8
0
100
AcDbBlockBegin
  2
SEANNOT_GROUP
 70
     0
 10
0.0
 20
0.0
 30
0.0
  3
SEANNOT_GROUP
  1

  0
LINE
  5
16F
330
16C
100
AcDbEntity
  8
Default
  6
CENTER2
 62
     7
100
AcDbLine
 10
337.3697302577
 20
415.7786752251
 30
0.0
 11
297.3697311518
 21
415.7786752251
 31
0.0
  0
LINE
  5
170
330
16C
100
AcDbEntity
  8
Default
  6
CENTER2
 62
     7
100
AcDbLine
 10
317.3697307048
 20
435.7786747781
 30
0.0
 11
317.3697307048
 21
395.7786756721
 31
0.0
  0
ENDBLK
  5
172
330
16C
100
AcDbEntity
  8
0
100
AcDbBlockEnd
  0
BLOCK
  5
177
330
173
100
AcDbEntity
  8
0
100
AcDbBlockBegin
  2
SEANNOT_GROUP1
 70
     0
 10
0.0
 20
0.0
 30
0.0
  3
SEANNOT_GROUP1
  1

  0
LINE
  5
175
330
173
100
AcDbEntity
  8
Default
  6
CENTER2
 62
     7
100
AcDbLine
 10
134.0681752799
 20
240.6158399153
 30
0.0
 11
94.0681761739
 21
240.6158399153
 31
0.0
  0
LINE
  5
176
330
173
100
AcDbEntity
  8
Default
  6
CENTER2
 62
     7
100
AcDbLine
 10
114.0681757269
 20
260.6158394683
 30
0.0
 11
114.0681757269
 21
220.6158403624
 31
0.0
  0
ENDBLK
  5
178
330
173
100
AcDbEntity
  8
0
100
AcDbBlockEnd
  0
ENDSEC
  0
SECTION
  2
ENTITIES
  0
LINE
  5
5E
330
1F
100
AcDbEntity
  8
Standard
  6
Continuous
 62
     7
100
AcDbLine
 10
203.6700943783
 20
324.7786752251
 30
0.0
 11
119.0681757269
 21
324.7786752251
 31
0.0
  0
LINE
  5
5F
330
1F
100
AcDbEntity
  8
Standard
  6
Continuous
 62
     7
100
AcDbLine
 10
24.4662570756
 20
506.7786752251
 30
0.0
 11
203.6700943783
 21
506.7786752251
 31
0.0
  0
LINE
  5
60
330
1F
100
AcDbEntity
  8
Standard
  6
Continuous
 62
     7
100
AcDbLine
 10
205.0681757269
 20
505.3805938764
 30
0.0
 11
205.0681757269
 21
326.1767565738
 31
0.0
  0
LINE
  5
61
330
1F
100
AcDbEntity
  8
Standard
  6
Continuous
 62
     7
100
AcDbLine
 10
23.0681757269
 20
326.1767565738
 30
0.0
 11
23.0681757269
 21
505.3805938764
 31
0.0
  0
ELLIPSE
  5
62
330
1F
100
AcDbEntity
  8
Standard
  6
Continuous
 62
     7
100
AcDbEllipse
 10
203.6662544425
 20
505.3767539407
 30
0.0
 11
-0.9926647408090936
 21
-0.9926647408090934
 31
0.0
210
0.0
220
0.0
230
0.9999999999999999
 40
0.9972646886
 41
2.357564018062679
 42
3.925621289116988
  0
ELLIPSE
  5
63
330
1F
100
AcDbEntity
  8
Standard
  6
Continuous
 62
     7
100
AcDbEllipse
 10
203.6662544425
 20
326.1805965095
 30
0.0
 11
-0.9926647408090934
 21
0.9926647408090936
 31
0.0
210
0.0
220
0.0
230
0.9999999999999999
 40
0.9972646886
 41
2.357564018062781
 42
3.925621289116806
  0
ELLIPSE
  5
64
330
1F
100
AcDbEntity
  8
Standard
  6
Continuous
 62
     7
100
AcDbEllipse
 10
24.4700970113
 20
505.3767539407
 30
0.0
 11
0.9926647408090934
 21
-0.9926647408090936
 31
0.0
210
0.0
220
0.0
230
0.9999999999999999
 40
0.9972646886
 41
2.35756401806267
 42
3.925621289116917
  0
ELLIPSE
  5
65
330
1F
100
AcDbEntity
  8
Standard
  6
Continuous
 62
     7
100
AcDbEllipse
 10
24.4700970113
 20
326.1805965095
 30
0.0
 11
0.9926647408090936
 21
0.9926647408090934
 31
0.0
210
0.0
220
0.0
230
0.9999999999999999
 40
0.9972646886
 41
2.357564018062791
 42
3.925621289116795
  0
LINE
  5
66
330
1F
100
AcDbEntity
  8
Standard
  6
Continuous
 62
     7
100
AcDbLine
 10
109.0681757269
 20
324.7786752251
 30
0.0
 11
24.4662570756
 21
324.7786752251
 31
0.0
  0
LINE
  5
67
330
1F
100
AcDbEntity
  8
Standard
  6
Continuous
 62
     7
100
AcDbLine
 10
109.0681757269
 20
324.7786752251
 30
0.0
 11
109.3061758543
 21
324.8251615166
 31
0.0
  0
LINE
  5
68
330
1F
100
AcDbEntity
  8
Standard
  6
Continuous
 62
     7
100
AcDbLine
 10
118.8301755995
 20
324.8251615166
 30
0.0
 11
119.0681757269
 21
324.7786752251
 31
0.0
  0
ELLIPSE
  5
69
330
1F
100
AcDbEntity
  8
Standard
  6
Continuous
 62
     7
100
AcDbEllipse
 10
117.3812868601
 20
324.8048432032
 30
0.0
 11
1.500000000000003
 21
9.184850993605166E-17
 31
0.0
210
0.0
220
0.0
230
1.0
 40
0.0523359562
 41
0.2617993877994209
 42
1.570796326794897
  0
LINE
  5
6A
330
1F
100
AcDbEntity
  8
Standard
  6
Continuous
 62
     7
100
AcDbLine
 10
110.7550645937
 20
324.8833471376
 30
0.0
 11
117.3812868601
 21
324.8833471376
 31
0.0
  0
ELLIPSE
  5
6B
330
1F
100
AcDbEntity
  8
Standard
  6
Continuous
 62
     7
100
AcDbEllipse
 10
110.7550645937
 20
324.8048432032
 30
0.0
 11
-1.499999999999995
 21
1.378593929787841E-14
 31
0.0
210
0.0
220
0.0
230
1.0
 40
0.0523359562
 41
4.71238898038469
 42
6.021385919380148
  0
LINE
  5
6C
330
1F
100
AcDbEntity
  8
Standard
  6
Continuous
 62
     7
100
AcDbLine
 10
81.5681757269
 20
447.2786752251
 30
0.0
 11
81.5681757269
 21
384.2786752251
 31
0.0
  0
ARC
  5
6D
330
1F
100
AcDbEntity
  8
Standard
  6
Continuous
 62
     7
100
AcDbCircle
 10
82.5681757269
 20
447.2786752251
 30
0.0
 40
1.000000000000001
100
AcDbArc
 50
90.0
 51
180.0
  0
ARC
  5
6E
330
1F
100
AcDbEntity
  8
Standard
  6
Continuous
 62
     7
100
AcDbCircle
 10
82.5681757269
 20
384.2786752251
 30
0.0
 40
1.000000000000001
100
AcDbArc
 50
180.0
 51
270.0
  0
LINE
  5
6F
330
1F
100
AcDbEntity
  8
Standard
  6
Continuous
 62
     7
100
AcDbLine
 10
145.5681757269
 20
448.2786752251
 30
0.0
 11
117.0949748886
 21
448.2786752251
 31
0.0
  0
LINE
  5
70
330
1F
100
AcDbEntity
  8
Standard
  6
Continuous
 62
     7
100
AcDbLine
 10
111.0413765652
 20
448.2786752251
 30
0.0
 11
82.5681757269
 21
448.2786752251
 31
0.0
  0
LINE
  5
71
330
1F
100
AcDbEntity
  8
Standard
  6
Continuous
 62
     7
100
AcDbLine
 10
82.5681757269
 20
383.2786752251
 30
0.0
 11
145.5681757269
 21
383.2786752251
 31
0.0
  0
ARC
  5
72
330
1F
100
AcDbEntity
  8
Standard
  6
Continuous
 62
     7
100
AcDbCircle
 10
145.5681757269
 20
447.2786752251
 30
0.0
 40
1.000000000000001
100
AcDbArc
 50
0.0
 51
90.0
  0
ARC
  5
73
330
1F
100
AcDbEntity
  8
Standard
  6
Continuous
 62
     7
100
AcDbCircle
 10
145.5681757269
 20
384.2786752251
 30
0.0
 40
1.000000000000001
100
AcDbArc
 50
270.0
 51
0.0
  0
LINE
  5
74
330
1F
100
AcDbEntity
  8
Standard
  6
Continuous
 62
     7
100
AcDbLine
 10
146.5681757269
 20
384.2786752251
 30
0.0
 11
146.5681757269
 21
447.2786752251
 31
0.0
  0
LINE
  5
75
330
1F
100
AcDbEntity
  8
Standard
  6
Continuous
 62
     7
100
AcDbLine
 10
145.8164151223
 20
385.0303977528
 30
0.0
 11
145.8164151223
 21
446.5269526974
 31
0.0
  0
ARC
  5
76
330
1F
100
AcDbEntity
  8
Standard
  6
Continuous
 62
     7
100
AcDbCircle
 10
144.81643797
 20
385.030412982
 30
0.0
 40
0.9999771523887232
100
AcDbArc
 50
270.0008725893
 51
359.9991274107
  0
ARC
  5
77
330
1F
100
AcDbEntity
  8
Standard
  6
Continuous
 62
     7
100
AcDbCircle
 10
144.81643797
 20
446.5269374682
 30
0.0
 40
0.9999771523887266
100
AcDbArc
 50
0.0008725893
 51
89.9991274107
  0
LINE
  5
78
330
1F
100
AcDbEntity
  8
Standard
  6
Continuous
 62
     7
100
AcDbLine
 10
83.3198982546
 20
384.0304358297
 30
0.0
 11
144.8164531992
 21
384.0304358297
 31
0.0
  0
LINE
  5
79
330
1F
100
AcDbEntity
  8
Standard
  6
Continuous
 62
     7
100
AcDbLine
 10
144.8164531992
 20
447.5269146205
 30
0.0
 11
117.1080969188
 21
447.5269146205
 31
0.0
  0
LINE
  5
7A
330
1F
100
AcDbEntity
  8
Standard
  6
Continuous
 62
     7
100
AcDbLine
 10
111.028254535
 20
447.5269146205
 30
0.0
 11
83.3198982546
 21
447.5269146205
 31
0.0
  0
ARC
  5
7B
330
1F
100
AcDbEntity
  8
Standard
  6
Continuous
 62
     7
100
AcDbCircle
 10
83.3199134838
 20
385.030412982
 30
0.0
 40
0.9999771523887266
100
AcDbArc
 50
180.0008725893
 51
269.9991274107
  0
ARC
  5
7C
330
1F
100
AcDbEntity
  8
Standard
  6
Continuous
 62
     7
100
AcDbCircle
 10
83.3199134838
 20
446.5269374682
 30
0.0
 40
0.9999771523887196
100
AcDbArc
 50
90.0008725893
 51
179.9991274107
  0
LINE
  5
7D
330
1F
100
AcDbEntity
  8
Standard
  6
Continuous
 62
     7
100
AcDbLine
 10
82.3199363315
 20
446.5269526974
 30
0.0
 11
82.3199363315
 21
385.0303977528
 31
0.0
  0
ELLIPSE
  5
7E
330
1F
100
AcDbEntity
  8
Standard
  6
Continuous
 62
     7
100
AcDbEllipse
 10
111.2681757269
 20
447.3253239745
 30
0.0
 11
0.6999999999999996
 21
4.286263797015734E-17
 31
0.0
210
0.0
220
0.0
230
1.0
 40
0.0087268678
 41
3.141592653589786
 42
4.71238898038469
  0
LINE
  5
7F
330
1F
100
AcDbEntity
  8
Standard
  6
Continuous
 62
     7
100
AcDbLine
 10
116.8681757269
 20
447.3192151671
 30
0.0
 11
111.2681757269
 21
447.3192151671
 31
0.0
  0
ELLIPSE
  5
80
330
1F
100
AcDbEntity
  8
Standard
  6
Continuous
 62
     7
100
AcDbEllipse
 10
116.8681757269
 20
447.3253239745
 30
0.0
 11
0.7000000000000005
 21
4.286263797015739E-17
 31
0.0
210
0.0
220
0.0
230
1.0
 40
0.0087268678
 41
4.71238898038469
 42
6.283185307179579
  0
ELLIPSE
  5
81
330
1F
100
AcDbEntity
  8
Standard
  6
Continuous
 62
     7
100
AcDbEllipse
 10
111.2681757269
 20
447.4876437154
 30
0.0
 11
-0.700000000000001
 21
-4.286263797015742E-17
 31
0.0
210
0.0
220
0.0
230
1.0
 40
0.0087268678
 41
5.063116103934941
 42
6.283185307179579
  0
ELLIPSE
  5
82
330
1F
100
AcDbEntity
  8
Standard
  6
Continuous
 62
     7
100
AcDbEllipse
 10
116.8681757269
 20
447.4876437154
 30
0.0
 11
-0.7000000000000001
 21
-4.286263797015737E-17
 31
0.0
210
0.0
220
0.0
230
1.0
 40
0.0087268678
 41
3.141592653589786
 42
4.361661856834439
  0
ARC
  5
83
330
1F
100
AcDbEntity
  8
Standard
  6
Continuous
 62
     7
100
AcDbCircle
 10
110.5681757269
 20
447.1253315899
 30
0.0
 40
0.1999923846128376
100
AcDbArc
 50
82.6698651175
 51
90.0
  0
ARC
  5
84
330
1F
100
AcDbEntity
  8
Standard
  6
Continuous
 62
     7
100
AcDbCircle
 10
117.5681757269
 20
447.1253315899
 30
0.0
 40
0.2000000000000001
100
AcDbArc
 50
90.0
 51
97.3301348821
  0
LINE
  5
85
330
1F
100
AcDbEntity
  8
Standard
  6
Continuous
 62
     7
100
AcDbLine
 10
111.6863297681
 20
457.0786752251
 30
0.0
 11
116.4500216857
 21
457.0786752251
 31
0.0
  0
LINE
  5
86
330
1F
100
AcDbEntity
  8
Standard
  6
Continuous
 62
     7
100
AcDbLine
 10
116.9499455333
 20
456.5874014283
 30
0.0
 11
117.1117156647
 21
447.3195968064
 31
0.0
  0
ARC
  5
87
330
1F
100
AcDbEntity
  8
Standard
  6
Continuous
 62
     7
100
AcDbCircle
 10
116.4500216857
 20
456.5786752251
 30
0.0
 40
0.5000000000000004
100
AcDbArc
 50
1.0
 51
90.0
  0
ARC
  5
88
330
1F
100
AcDbEntity
  8
Standard
  6
Continuous
 62
     7
100
AcDbCircle
 10
111.6863297681
 20
456.5786752251
 30
0.0
 40
0.4999999999999998
100
AcDbArc
 50
90.0
 51
179.0
  0
LINE
  5
89
330
1F
100
AcDbEntity
  8
Standard
  6
Continuous
 62
     7
100
AcDbLine
 10
111.0246357891
 20
447.3195968064
 30
0.0
 11
111.1864059205
 21
456.5874014283
 31
0.0
  0
LINE
  5
8A
330
1F
100
AcDbEntity
  8
Standard
  6
Continuous
 62
     7
100
AcDbLine
 10
118.0681757269
 20
386.5736960204
 30
0.0
 11
118.0681757269
 21
386.0786752251
 31
0.0
  0
LINE
  5
8B
330
1F
100
AcDbEntity
  8
Standard
  6
Continuous
 62
     7
100
AcDbLine
 10
118.0681757269
 20
386.5736960204
 30
0.0
 11
110.0681757269
 21
386.5736960204
 31
0.0
  0
LINE
  5
8C
330
1F
100
AcDbEntity
  8
Standard
  6
Continuous
 62
     7
100
AcDbLine
 10
110.0681757269
 20
386.5736960204
 30
0.0
 11
110.0681757269
 21
386.0786752251
 31
0.0
  0
LINE
  5
8D
330
1F
100
AcDbEntity
  8
Standard
  6
Continuous
 62
     7
100
AcDbLine
 10
110.0681757269
 20
386.0786752251
 30
0.0
 11
110.0681757269
 21
385.8423741926
 31
0.0
  0
LINE
  5
8E
330
1F
100
AcDbEntity
  8
Standard
  6
Continuous
 62
     7
100
AcDbLine
 10
110.0681757269
 20
385.7999082143
 30
0.0
 11
110.0681757269
 21
385.8423741926
 31
0.0
  0
LINE
  5
8F
330
1F
100
AcDbEntity
  8
Standard
  6
Continuous
 62
     7
100
AcDbLine
 10
118.0681757269
 20
385.8423741926
 30
0.0
 11
118.0681757269
 21
386.0786752251
 31
0.0
  0
LINE
  5
90
330
1F
100
AcDbEntity
  8
Standard
  6
Continuous
 62
     7
100
AcDbLine
 10
118.0681757269
 20
385.8423741926
 30
0.0
 11
118.0681757269
 21
385.7999082143
 31
0.0
  0
LINE
  5
91
330
1F
100
AcDbEntity
  8
Standard
  6
Continuous
 62
     7
100
AcDbLine
 10
118.0681757269
 20
385.7999082143
 30
0.0
 11
143.7681757269
 21
385.7999082143
 31
0.0
  0
ARC
  5
92
330
1F
100
AcDbEntity
  8
Standard
  6
Continuous
 62
     7
100
AcDbCircle
 10
143.7690992468
 20
386.1285452054
 30
0.0
 40
0.3286382887757675
100
AcDbArc
 50
269.8389905685
 51
299.5689416598
  0
ARC
  5
93
330
1F
100
AcDbEntity
  8
Standard
  6
Continuous
 62
     7
100
AcDbCircle
 10
143.8310605224
 20
386.0157904296
 30
0.0
 40
0.199999999999981
100
AcDbArc
 50
300.070158532
 51
329.929841468
  0
ARC
  5
94
330
1F
100
AcDbEntity
  8
Standard
  6
Continuous
 62
     7
100
AcDbCircle
 10
143.7141678353
 20
386.078837572
 30
0.0
 40
0.3327749420252517
100
AcDbArc
 50
330.6200199773
 51
359.9720477943
  0
LINE
  5
95
330
1F
100
AcDbEntity
  8
Standard
  6
Continuous
 62
     7
100
AcDbLine
 10
144.0469427377
 20
386.0786752251
 30
0.0
 11
144.0469427377
 21
445.4786752251
 31
0.0
  0
ARC
  5
96
330
1F
100
AcDbEntity
  8
Standard
  6
Continuous
 62
     7
100
AcDbCircle
 10
143.7183057466
 20
445.479598745
 30
0.0
 40
0.3286382887761884
100
AcDbArc
 50
359.8389905686
 51
29.5689416598
  0
ARC
  5
97
330
1F
100
AcDbEntity
  8
Standard
  6
Continuous
 62
     7
100
AcDbCircle
 10
143.8310605224
 20
445.5415600206
 30
0.0
 40
0.199999999999997
100
AcDbArc
 50
30.0701585319
 51
59.929841468
  0
ARC
  5
98
330
1F
100
AcDbEntity
  8
Standard
  6
Continuous
 62
     7
100
AcDbCircle
 10
143.76801338
 20
445.4246673335
 30
0.0
 40
0.3327749420258092
100
AcDbArc
 50
60.6200199773
 51
89.9720477943
  0
LINE
  5
99
330
1F
100
AcDbEntity
  8
Standard
  6
Continuous
 62
     7
100
AcDbLine
 10
143.7681757269
 20
445.7574422359
 30
0.0
 11
84.3681757269
 21
445.7574422359
 31
0.0
  0
ARC
  5
9A
330
1F
100
AcDbEntity
  8
Standard
  6
Continuous
 62
     7
100
AcDbCircle
 10
84.367252207
 20
445.4288052448
 30
0.0
 40
0.3286382887760497
100
AcDbArc
 50
89.8389905686
 51
119.5689416599
  0
ARC
  5
9B
330
1F
100
AcDbEntity
  8
Standard
  6
Continuous
 62
     7
100
AcDbCircle
 10
84.3052909314
 20
445.5415600206
 30
0.0
 40
0.2000000000000025
100
AcDbArc
 50
120.070158532
 51
149.929841468
  0
ARC
  5
9C
330
1F
100
AcDbEntity
  8
Standard
  6
Continuous
 62
     7
100
AcDbCircle
 10
84.4221836185
 20
445.4785128782
 30
0.0
 40
0.3327749420249366
100
AcDbArc
 50
150.6200199773
 51
179.9720477943
  0
LINE
  5
9D
330
1F
100
AcDbEntity
  8
Standard
  6
Continuous
 62
     7
100
AcDbLine
 10
84.0894087161
 20
445.4786752251
 30
0.0
 11
84.0894087161
 21
386.0786752251
 31
0.0
  0
ARC
  5
9E
330
1F
100
AcDbEntity
  8
Standard
  6
Continuous
 62
     7
100
AcDbCircle
 10
84.4180457072
 20
386.0777517052
 30
0.0
 40
0.328638288776291
100
AcDbArc
 50
179.8389905686
 51
209.5689416598
  0
ARC
  5
9F
330
1F
100
AcDbEntity
  8
Standard
  6
Continuous
 62
     7
100
AcDbCircle
 10
84.3052909314
 20
386.0157904296
 30
0.0
 40
0.2000000000000047
100
AcDbArc
 50
210.070158532
 51
239.9298414681
  0
ARC
  5
A0
330
1F
100
AcDbEntity
  8
Standard
  6
Continuous
 62
     7
100
AcDbCircle
 10
84.3683380738
 20
386.1326831167
 30
0.0
 40
0.3327749420257097
100
AcDbArc
 50
240.6200199773
 51
269.9720477943
  0
LINE
  5
A1
330
1F
100
AcDbEntity
  8
Standard
  6
Continuous
 62
     7
100
AcDbLine
 10
84.3681757269
 20
385.7999082143
 30
0.0
 11
110.0681757269
 21
385.7999082143
 31
0.0
  0
LINE
  5
A2
330
1F
100
AcDbEntity
  8
Standard
  6
Continuous
 62
     7
100
AcDbLine
 10
330.6697307048
 20
383.3881231293
 30
0.0
 11
403.8714760119
 21
384.0269450826
 31
0.0
  0
LINE
  5
A3
330
1F
100
AcDbEntity
  8
Standard
  6
Continuous
 62
     7
100
AcDbLine
 10
404.0697307048
 20
384.2269374672
 30
0.0
 11
404.0697307048
 21
385.0269070057
 31
0.0
  0
LINE
  5
A4
330
1F
100
AcDbEntity
  8
Standard
  6
Continuous
 62
     7
100
AcDbLine
 10
404.0697307048
 20
385.0269070057
 30
0.0
 11
404.0697307048
 21
446.5304434445
 31
0.0
  0
LINE
  5
A5
330
1F
100
AcDbEntity
  8
Standard
  6
Continuous
 62
     7
100
AcDbLine
 10
404.0697307048
 20
446.5304434445
 30
0.0
 11
404.0697307048
 21
447.330412983
 31
0.0
  0
LINE
  5
A6
330
1F
100
AcDbEntity
  8
Standard
  6
Continuous
 62
     7
100
AcDbLine
 10
403.8714760119
 20
447.5304053676
 30
0.0
 11
330.6697307048
 21
448.1692273209
 31
0.0
  0
ARC
  5
A7
330
1F
100
AcDbEntity
  8
Standard
  6
Continuous
 62
     7
100
AcDbCircle
 10
403.8697307048
 20
384.2269374672
 30
0.0
 40
0.2000000000000057
100
AcDbArc
 50
270.5
 51
0.0
  0
ARC
  5
A8
330
1F
100
AcDbEntity
  8
Standard
  6
Continuous
 62
     7
100
AcDbCircle
 10
403.8697307048
 20
447.330412983
 30
0.0
 40
0.2000000000000057
100
AcDbArc
 50
0.0
 51
89.5
  0
LINE
  5
A9
330
1F
100
AcDbEntity
  8
Standard
  6
Continuous
 62
     7
100
AcDbLine
 10
317.3697307048
 20
324.7786752251
 30
0.0
 11
330.1958986829
 21
325.4508662056
 31
0.0
  0
LINE
  5
AA
330
1F
100
AcDbEntity
  8
Standard
  6
Continuous
 62
     7
100
AcDbLine
 10
317.3697307048
 20
505.3805938764
 30
0.0
 11
317.3697307048
 21
326.1767565738
 31
0.0
  0
LINE
  5
AB
330
1F
100
AcDbEntity
  8
Standard
  6
Continuous
 62
     7
100
AcDbLine
 10
317.3697307048
 20
506.7786752251
 30
0.0
 11
317.3697307048
 21
505.3805938764
 31
0.0
  0
LINE
  5
AC
330
1F
100
AcDbEntity
  8
Standard
  6
Continuous
 62
     7
100
AcDbLine
 10
317.3697307048
 20
326.1767565738
 30
0.0
 11
317.3697307048
 21
324.7786752251
 31
0.0
  0
LINE
  5
AD
330
1F
100
AcDbEntity
  8
Standard
  6
Continuous
 62
     7
100
AcDbLine
 10
330.6697307048
 20
326.8489475542
 30
0.0
 11
330.6697307048
 21
504.708402896
 31
0.0
  0
LINE
  5
AE
330
1F
100
AcDbEntity
  8
Standard
  6
Continuous
 62
     7
100
AcDbLine
 10
330.1958986829
 20
506.1064842447
 30
0.0
 11
317.3697307048
 21
506.7786752251
 31
0.0
  0
ARC
  5
AF
330
1F
100
AcDbEntity
  8
Standard
  6
Continuous
 62
     7
100
AcDbCircle
 10
330.1697307048
 20
505.6071694773
 30
0.0
 40
0.5000000000000004
100
AcDbArc
 50
0.0
 51
87.0
  0
ARC
  5
B0
330
1F
100
AcDbEntity
  8
Standard
  6
Continuous
 62
     7
100
AcDbCircle
 10
330.1697307048
 20
325.9501809729
 30
0.0
 40
0.4999999999999871
100
AcDbArc
 50
273.0
 51
0.0
  0
LINE
  5
B1
330
1F
100
AcDbEntity
  8
Standard
  6
Continuous
 62
     7
100
AcDbLine
 10
330.6697307048
 20
326.8489475542
 30
0.0
 11
330.6697307048
 21
325.9501809729
 31
0.0
  0
LINE
  5
B2
330
1F
100
AcDbEntity
  8
Standard
  6
Continuous
 62
     7
100
AcDbLine
 10
330.6697307048
 20
505.6071694773
 30
0.0
 11
330.6697307048
 21
504.708402896
 31
0.0
  0
LINE
  5
B3
330
1F
100
AcDbEntity
  8
Standard
  6
Continuous
 62
     7
100
AcDbLine
 10
435.4697307048
 20
446.2712326246
 30
0.0
 11
435.4697307048
 21
446.7712135861
 31
0.0
  0
LINE
  5
B4
330
1F
100
AcDbEntity
  8
Standard
  6
Continuous
 62
     7
100
AcDbLine
 10
435.4697307048
 20
385.2861178257
 30
0.0
 11
435.4697307048
 21
446.2712326246
 31
0.0
  0
LINE
  5
B5
330
1F
100
AcDbEntity
  8
Standard
  6
Continuous
 62
     7
100
AcDbLine
 10
435.4697307048
 20
384.7861368641
 30
0.0
 11
435.4697307048
 21
385.2861178257
 31
0.0
  0
LINE
  5
B6
330
1F
100
AcDbEntity
  8
Standard
  6
Continuous
 62
     7
100
AcDbLine
 10
434.9740939725
 20
447.2711945476
 30
0.0
 11
405.6714760119
 21
447.5269146205
 31
0.0
  0
ARC
  5
B7
330
1F
100
AcDbEntity
  8
Standard
  6
Continuous
 62
     7
100
AcDbCircle
 10
434.9697307048
 20
446.7712135861
 30
0.0
 40
0.5000000000000084
100
AcDbArc
 50
0.0
 51
89.5
  0
ARC
  5
B8
330
1F
100
AcDbEntity
  8
Standard
  6
Continuous
 62
     7
100
AcDbCircle
 10
434.9697307048
 20
384.7861368641
 30
0.0
 40
0.5000000000000004
100
AcDbArc
 50
270.5
 51
0.0
  0
LINE
  5
B9
330
1F
100
AcDbEntity
  8
Standard
  6
Continuous
 62
     7
100
AcDbLine
 10
405.4697307048
 20
447.3269222359
 30
0.0
 11
405.4697307048
 21
446.5269526974
 31
0.0
  0
LINE
  5
BA
330
1F
100
AcDbEntity
  8
Standard
  6
Continuous
 62
     7
100
AcDbLine
 10
405.4697307048
 20
385.0303977528
 30
0.0
 11
405.4697307048
 21
384.2304282143
 31
0.0
  0
LINE
  5
BB
330
1F
100
AcDbEntity
  8
Standard
  6
Continuous
 62
     7
100
AcDbLine
 10
405.4697307048
 20
446.5269526974
 30
0.0
 11
405.4697307048
 21
385.0303977528
 31
0.0
  0
LINE
  5
BC
330
1F
100
AcDbEntity
  8
Standard
  6
Continuous
 62
     7
100
AcDbLine
 10
405.6714760119
 20
384.0304358297
 30
0.0
 11
434.9740939725
 21
384.2861559026
 31
0.0
  0
ARC
  5
BD
330
1F
100
AcDbEntity
  8
Standard
  6
Continuous
 62
     7
100
AcDbCircle
 10
405.6697307048
 20
447.3269222359
 30
0.0
 40
0.2000000000000057
100
AcDbArc
 50
89.5
 51
180.0
  0
ARC
  5
BE
330
1F
100
AcDbEntity
  8
Standard
  6
Continuous
 62
     7
100
AcDbCircle
 10
405.6697307048
 20
384.2304282143
 30
0.0
 40
0.2000000000000034
100
AcDbArc
 50
180.0
 51
270.5
  0
LINE
  5
BF
330
1F
100
AcDbEntity
  8
Standard
  6
Continuous
 62
     7
100
AcDbLine
 10
410.0862458552
 20
456.5874014283
 30
0.0
 11
409.927446166
 21
447.4897733316
 31
0.0
  0
LINE
  5
C0
330
1F
100
AcDbEntity
  8
Standard
  6
Continuous
 62
     7
100
AcDbLine
 10
428.3498616204
 20
457.0786752251
 30
0.0
 11
410.5861697027
 21
457.0786752251
 31
0.0
  0
ARC
  5
C1
330
1F
100
AcDbEntity
  8
Standard
  6
Continuous
 62
     7
100
AcDbCircle
 10
428.3498616204
 20
456.5786752251
 30
0.0
 40
0.499999999999992
100
AcDbArc
 50
1.0
 51
90.0
  0
ARC
  5
C2
330
1F
100
AcDbEntity
  8
Standard
  6
Continuous
 62
     7
100
AcDbCircle
 10
410.5861697027
 20
456.5786752251
 30
0.0
 40
0.5000000000000004
100
AcDbArc
 50
90.0
 51
179.0
  0
LINE
  5
C3
330
1F
100
AcDbEntity
  8
Standard
  6
Continuous
 62
     7
100
AcDbLine
 10
429.0114921925
 20
447.323229385
 30
0.0
 11
428.8497854679
 21
456.5874014283
 31
0.0
  0
LINE
  5
C4
330
1F
100
AcDbEntity
  8
Standard
  6
Continuous
 62
     7
100
AcDbLine
 10
435.6697307048
 20
386.0786752251
 30
0.0
 11
435.6697307048
 21
445.4786752251
 31
0.0
  0
ARC
  5
C5
330
1F
100
AcDbEntity
  8
Standard
  6
Continuous
 62
     7
100
AcDbCircle
 10
435.3697307048
 20
445.4786752251
 30
0.0
 40
0.2999999999999948
100
AcDbArc
 50
0.0
 51
51.968309476
  0
ARC
  5
C6
330
1F
100
AcDbEntity
  8
Standard
  6
Continuous
 62
     7
100
AcDbCircle
 10
435.3697307048
 20
386.0786752251
 30
0.0
 40
0.2999999999999948
100
AcDbArc
 50
308.031690524
 51
0.0
  0
ARC
  5
C7
330
1F
100
AcDbEntity
  8
Standard
  6
Continuous
 62
     7
100
AcDbCircle
 10
435.4313404281
 20
385.9999082143
 30
0.0
 40
0.200000000000004
100
AcDbArc
 50
281.0666866591
 51
308.031690524
  0
ARC
  5
C8
330
1F
100
AcDbEntity
  8
Standard
  6
Continuous
 62
     7
100
AcDbCircle
 10
435.4313404281
 20
445.5574422359
 30
0.0
 40
0.200000000000004
100
AcDbArc
 50
51.968309476
 51
78.9333133411
  0
LINE
  5
C9
330
1F
100
AcDbEntity
  8
Standard
  6
Continuous
 62
     7
100
AcDbLine
 10
404.7697307048
 20
384.4408937706
 30
0.0
 11
405.4697307048
 21
384.4286752251
 31
0.0
  0
LINE
  5
CA
330
1F
100
AcDbEntity
  8
Standard
  6
Continuous
 62
     7
100
AcDbLine
 10
404.7697307048
 20
384.4408937706
 30
0.0
 11
404.7697307048
 21
385.4286752251
 31
0.0
  0
LINE
  5
CB
330
1F
100
AcDbEntity
  8
Standard
  6
Continuous
 62
     7
100
AcDbLine
 10
404.7697307048
 20
385.4286752251
 30
0.0
 11
404.7697307048
 21
446.1286752251
 31
0.0
  0
LINE
  5
CC
330
1F
100
AcDbEntity
  8
Standard
  6
Continuous
 62
     7
100
AcDbLine
 10
404.7697307048
 20
446.1286752251
 30
0.0
 11
404.7697307048
 21
447.1164566797
 31
0.0
  0
LINE
  5
CD
330
1F
100
AcDbEntity
  8
Standard
  6
Continuous
 62
     7
100
AcDbLine
 10
404.7697307048
 20
447.1164566797
 30
0.0
 11
405.4697307048
 21
447.1286752251
 31
0.0
  0
LINE
  5
CE
330
1F
100
AcDbEntity
  8
Standard
  6
Continuous
 62
     7
100
AcDbLine
 10
404.7199488702
 20
385.3788924407
 30
0.0
 11
404.0697307048
 21
385.3817295707
 31
0.0
  0
LINE
  5
CF
330
1F
100
AcDbEntity
  8
Standard
  6
Continuous
 62
     7
100
AcDbLine
 10
404.0697307048
 20
446.1756208795
 30
0.0
 11
404.7199488702
 21
446.1784580095
 31
0.0
  0
ARC
  5
D0
330
1F
100
AcDbEntity
  8
Standard
  6
Continuous
 62
     7
100
AcDbCircle
 10
404.7197307048
 20
385.3288929167
 30
0.0
 40
0.0499999999999945
100
AcDbArc
 50
0.0
 51
89.7499999999
  0
ARC
  5
D1
330
1F
100
AcDbEntity
  8
Standard
  6
Continuous
 62
     7
100
AcDbCircle
 10
404.7197307048
 20
446.2284575335
 30
0.0
 40
0.049999999999999
100
AcDbArc
 50
270.2500000001
 51
0.0
  0
LINE
  5
D3
330
1F
100
AcDbEntity
  8
Default
  6
Continuous
 62
     7
100
AcDbLine
 10
146.4587278228
 20
227.3158399153
 30
0.0
 11
145.8199058694
 21
154.1140946082
 31
0.0
  0
LINE
  5
D4
330
1F
100
AcDbEntity
  8
Default
  6
Continuous
 62
     7
100
AcDbLine
 10
83.3164075075
 20
153.9158399153
 30
0.0
 11
82.516437969
 21
153.9158399153
 31
0.0
  0
LINE
  5
D5
330
1F
100
AcDbEntity
  8
Default
  6
Continuous
 62
     7
100
AcDbLine
 10
145.6199134848
 20
153.9158399153
 30
0.0
 11
144.8199439463
 21
153.9158399153
 31
0.0
  0
LINE
  5
D6
330
1F
100
AcDbEntity
  8
Default
  6
Continuous
 62
     7
100
AcDbLine
 10
144.8199439463
 20
153.9158399153
 30
0.0
 11
83.3164075075
 21
153.9158399153
 31
0.0
  0
LINE
  5
D7
330
1F
100
AcDbEntity
  8
Default
  6
Continuous
 62
     7
100
AcDbLine
 10
82.3164455844
 20
154.1140946082
 30
0.0
 11
81.6776236311
 21
227.3158399153
 31
0.0
  0
ARC
  5
D8
330
1F
100
AcDbEntity
  8
Default
  6
Continuous
 62
     7
100
AcDbCircle
 10
145.6199134848
 20
154.1158399153
 30
0.0
 40
0.2000000000000057
100
AcDbArc
 50
270.0
 51
359.5
  0
ARC
  5
D9
330
1F
100
AcDbEntity
  8
Default
  6
Continuous
 62
     7
100
AcDbCircle
 10
82.516437969
 20
154.1158399153
 30
0.0
 40
0.1999999999999964
100
AcDbArc
 50
180.5
 51
270.0
  0
LINE
  5
DA
330
1F
100
AcDbEntity
  8
Default
  6
Continuous
 62
     7
100
AcDbLine
 10
24.4662570756
 20
240.6158399153
 30
0.0
 11
203.6700943783
 21
240.6158399153
 31
0.0
  0
LINE
  5
DB
330
1F
100
AcDbEntity
  8
Default
  6
Continuous
 62
     7
100
AcDbLine
 10
203.6700943783
 20
240.6158399153
 30
0.0
 11
205.0681757269
 21
240.6158399153
 31
0.0
  0
LINE
  5
DC
330
1F
100
AcDbEntity
  8
Default
  6
Continuous
 62
     7
100
AcDbLine
 10
23.0681757269
 20
240.6158399153
 30
0.0
 11
24.4662570756
 21
240.6158399153
 31
0.0
  0
LINE
  5
DD
330
1F
100
AcDbEntity
  8
Default
  6
Continuous
 62
     7
100
AcDbLine
 10
23.7403667074
 20
227.7896719372
 30
0.0
 11
23.0681757269
 21
240.6158399153
 31
0.0
  0
LINE
  5
DE
330
1F
100
AcDbEntity
  8
Default
  6
Continuous
 62
     7
100
AcDbLine
 10
202.9979033978
 20
227.3158399153
 30
0.0
 11
25.138448056
 21
227.3158399153
 31
0.0
  0
LINE
  5
DF
330
1F
100
AcDbEntity
  8
Default
  6
Continuous
 62
     7
100
AcDbLine
 10
205.0681757269
 20
240.6158399153
 30
0.0
 11
204.3959847465
 21
227.7896719372
 31
0.0
  0
ARC
  5
E0
330
1F
100
AcDbEntity
  8
Default
  6
Continuous
 62
     7
100
AcDbCircle
 10
203.8966699791
 20
227.8158399153
 30
0.0
 40
0.4999999999999871
100
AcDbArc
 50
270.0
 51
357.0
  0
ARC
  5
E1
330
1F
100
AcDbEntity
  8
Default
  6
Continuous
 62
     7
100
AcDbCircle
 10
24.2396814747
 20
227.8158399153
 30
0.0
 40
0.5000000000000004
100
AcDbArc
 50
183.0
 51
270.0
  0
LINE
  5
E2
330
1F
100
AcDbEntity
  8
Default
  6
Continuous
 62
     7
100
AcDbLine
 10
202.9979033978
 20
227.3158399153
 30
0.0
 11
203.8966699791
 21
227.3158399153
 31
0.0
  0
LINE
  5
E3
330
1F
100
AcDbEntity
  8
Default
  6
Continuous
 62
     7
100
AcDbLine
 10
24.2396814747
 20
227.3158399153
 30
0.0
 11
25.138448056
 21
227.3158399153
 31
0.0
  0
LINE
  5
E4
330
1F
100
AcDbEntity
  8
Default
  6
Continuous
 62
     7
100
AcDbLine
 10
83.5756183275
 20
122.5158399153
 30
0.0
 11
83.0756373659
 21
122.5158399153
 31
0.0
  0
LINE
  5
E5
330
1F
100
AcDbEntity
  8
Default
  6
Continuous
 62
     7
100
AcDbLine
 10
144.5607331264
 20
122.5158399153
 30
0.0
 11
83.5756183275
 21
122.5158399153
 31
0.0
  0
LINE
  5
E6
330
1F
100
AcDbEntity
  8
Default
  6
Continuous
 62
     7
100
AcDbLine
 10
145.0607140879
 20
122.5158399153
 30
0.0
 11
144.5607331264
 21
122.5158399153
 31
0.0
  0
LINE
  5
E7
330
1F
100
AcDbEntity
  8
Default
  6
Continuous
 62
     7
100
AcDbLine
 10
82.5756564044
 20
123.0114766476
 30
0.0
 11
82.3199363315
 21
152.3140946082
 31
0.0
  0
ARC
  5
E8
330
1F
100
AcDbEntity
  8
Default
  6
Continuous
 62
     7
100
AcDbCircle
 10
83.0756373659
 20
123.0158399153
 30
0.0
 40
0.5000000000000004
100
AcDbArc
 50
180.5
 51
270.0
  0
ARC
  5
E9
330
1F
100
AcDbEntity
  8
Default
  6
Continuous
 62
     7
100
AcDbCircle
 10
145.0607140879
 20
123.0158399153
 30
0.0
 40
0.4999999999999981
100
AcDbArc
 50
270.0
 51
359.5
  0
LINE
  5
EA
330
1F
100
AcDbEntity
  8
Default
  6
Continuous
 62
     7
100
AcDbLine
 10
82.5199287161
 20
152.5158399153
 30
0.0
 11
83.3198982546
 21
152.5158399153
 31
0.0
  0
LINE
  5
EB
330
1F
100
AcDbEntity
  8
Default
  6
Continuous
 62
     7
100
AcDbLine
 10
83.3198982546
 20
152.5158399153
 30
0.0
 11
144.8164531992
 21
152.5158399153
 31
0.0
  0
LINE
  5
EC
330
1F
100
AcDbEntity
  8
Default
  6
Continuous
 62
     7
100
AcDbLine
 10
144.8164531992
 20
152.5158399153
 30
0.0
 11
145.6164227377
 21
152.5158399153
 31
0.0
  0
LINE
  5
ED
330
1F
100
AcDbEntity
  8
Default
  6
Continuous
 62
     7
100
AcDbLine
 10
145.8164151223
 20
152.3140946082
 30
0.0
 11
145.5606950494
 21
123.0114766476
 31
0.0
  0
ARC
  5
EE
330
1F
100
AcDbEntity
  8
Default
  6
Continuous
 62
     7
100
AcDbCircle
 10
82.5199287161
 20
152.3158399153
 30
0.0
 40
0.199999999999978
100
AcDbArc
 50
90.0
 51
180.5
  0
ARC
  5
EF
330
1F
100
AcDbEntity
  8
Default
  6
Continuous
 62
     7
100
AcDbCircle
 10
145.6164227377
 20
152.3158399153
 30
0.0
 40
0.2000000000000057
100
AcDbArc
 50
359.5
 51
90.0
  0
ARC
  5
F0
330
1F
100
AcDbEntity
  8
Default
  6
Continuous
 62
     7
100
AcDbCircle
 10
116.8681757269
 20
147.8158399153
 30
0.0
 40
0.4999999999999996
100
AcDbArc
 50
0.0
 51
90.0
  0
LINE
  5
F1
330
1F
100
AcDbEntity
  8
Default
  6
Continuous
 62
     7
100
AcDbLine
 10
116.8681757269
 20
148.3158399153
 30
0.0
 11
111.2681757269
 21
148.3158399153
 31
0.0
  0
LINE
  5
F2
330
1F
100
AcDbEntity
  8
Default
  6
Continuous
 62
     7
100
AcDbLine
 10
117.3681757269
 20
129.2158399153
 30
0.0
 11
117.3681757269
 21
147.8158399153
 31
0.0
  0
ARC
  5
F3
330
1F
100
AcDbEntity
  8
Default
  6
Continuous
 62
     7
100
AcDbCircle
 10
111.2681757269
 20
147.8158399153
 30
0.0
 40
0.5000000000000004
100
AcDbArc
 50
90.0
 51
180.0
  0
ARC
  5
F4
330
1F
100
AcDbEntity
  8
Default
  6
Continuous
 62
     7
100
AcDbCircle
 10
116.8681757269
 20
129.2158399153
 30
0.0
 40
0.5000000000000004
100
AcDbArc
 50
270.0
 51
0.0
  0
LINE
  5
F5
330
1F
100
AcDbEntity
  8
Default
  6
Continuous
 62
     7
100
AcDbLine
 10
110.7681757269
 20
147.8158399153
 30
0.0
 11
110.7681757269
 21
129.2158399153
 31
0.0
  0
LINE
  5
F6
330
1F
100
AcDbEntity
  8
Default
  6
Continuous
 62
     7
100
AcDbLine
 10
111.2681757269
 20
128.7158399153
 30
0.0
 11
116.8681757269
 21
128.7158399153
 31
0.0
  0
ARC
  5
F7
330
1F
100
AcDbEntity
  8
Default
  6
Continuous
 62
     7
100
AcDbCircle
 10
111.2681757269
 20
129.2158399153
 30
0.0
 40
0.4999999999999996
100
AcDbArc
 50
180.0
 51
270.0
  0
LINE
  5
F8
330
1F
100
AcDbEntity
  8
Default
  6
Continuous
 62
     7
100
AcDbLine
 10
114.8681757269
 20
128.9202033492
 30
0.0
 11
113.2681757269
 21
128.9202033492
 31
0.0
  0
LINE
  5
F9
330
1F
100
AcDbEntity
  8
Default
  6
Continuous
 62
     7
100
AcDbLine
 10
113.2681757269
 20
128.9202033492
 30
0.0
 11
113.2681757269
 21
128.9384515286
 31
0.0
  0
LINE
  5
FA
330
1F
100
AcDbEntity
  8
Default
  6
Continuous
 62
     7
100
AcDbLine
 10
113.2681757269
 20
128.9202033492
 30
0.0
 11
113.1219563687
 21
128.9384515286
 31
0.0
  0
LINE
  5
FB
330
1F
100
AcDbEntity
  8
Default
  6
Continuous
 62
     7
100
AcDbLine
 10
114.8681757269
 20
128.9202033492
 30
0.0
 11
114.8681757269
 21
128.9384515286
 31
0.0
  0
LINE
  5
FC
330
1F
100
AcDbEntity
  8
Default
  6
Continuous
 62
     7
100
AcDbLine
 10
110.9725391608
 20
131.7658399153
 30
0.0
 11
110.9725391608
 21
133.2658399153
 31
0.0
  0
LINE
  5
FD
330
1F
100
AcDbEntity
  8
Default
  6
Continuous
 62
     7
100
AcDbLine
 10
110.9725391608
 20
131.7658399153
 30
0.0
 11
110.989072297
 21
131.7658399153
 31
0.0
  0
LINE
  5
FE
330
1F
100
AcDbEntity
  8
Default
  6
Continuous
 62
     7
100
AcDbLine
 10
110.9725391608
 20
133.2658399153
 30
0.0
 11
110.989072297
 21
133.2658399153
 31
0.0
  0
LINE
  5
FF
330
1F
100
AcDbEntity
  8
Default
  6
Continuous
 62
     7
100
AcDbLine
 10
110.9725391608
 20
133.2658399153
 30
0.0
 11
110.989072297
 21
133.3651269645
 31
0.0
  0
LINE
  5
100
330
1F
100
AcDbEntity
  8
Default
  6
Continuous
 62
     7
100
AcDbLine
 10
117.163812293
 20
131.7658399153
 30
0.0
 11
117.163812293
 21
133.2658399153
 31
0.0
  0
LINE
  5
101
330
1F
100
AcDbEntity
  8
Default
  6
Continuous
 62
     7
100
AcDbLine
 10
117.163812293
 20
133.2658399153
 30
0.0
 11
117.1472791568
 21
133.3651269645
 31
0.0
  0
LINE
  5
102
330
1F
100
AcDbEntity
  8
Default
  6
Continuous
 62
     7
100
AcDbLine
 10
117.163812293
 20
131.7658399153
 30
0.0
 11
117.1472791568
 21
131.7658399153
 31
0.0
  0
LINE
  5
103
330
1F
100
AcDbEntity
  8
Default
  6
Continuous
 62
     7
100
AcDbLine
 10
117.163812293
 20
133.2658399153
 30
0.0
 11
117.1472791568
 21
133.2658399153
 31
0.0
  0
LINE
  5
104
330
1F
100
AcDbEntity
  8
Default
  6
Continuous
 62
     7
100
AcDbLine
 10
110.9725391608
 20
143.7658399153
 30
0.0
 11
110.9725391608
 21
145.2658399153
 31
0.0
  0
LINE
  5
105
330
1F
100
AcDbEntity
  8
Default
  6
Continuous
 62
     7
100
AcDbLine
 10
110.9725391608
 20
145.2658399153
 30
0.0
 11
110.989072297
 21
145.3651269645
 31
0.0
  0
LINE
  5
106
330
1F
100
AcDbEntity
  8
Default
  6
Continuous
 62
     7
100
AcDbLine
 10
110.9725391608
 20
143.7658399153
 30
0.0
 11
110.989072297
 21
143.7658399153
 31
0.0
  0
LINE
  5
107
330
1F
100
AcDbEntity
  8
Default
  6
Continuous
 62
     7
100
AcDbLine
 10
110.9725391608
 20
145.2658399153
 30
0.0
 11
110.989072297
 21
145.2658399153
 31
0.0
  0
LINE
  5
108
330
1F
100
AcDbEntity
  8
Default
  6
Continuous
 62
     7
100
AcDbLine
 10
117.163812293
 20
143.7658399153
 30
0.0
 11
117.163812293
 21
145.2658399153
 31
0.0
  0
LINE
  5
109
330
1F
100
AcDbEntity
  8
Default
  6
Continuous
 62
     7
100
AcDbLine
 10
117.163812293
 20
145.2658399153
 30
0.0
 11
117.1472791568
 21
145.3651269645
 31
0.0
  0
LINE
  5
10A
330
1F
100
AcDbEntity
  8
Default
  6
Continuous
 62
     7
100
AcDbLine
 10
117.163812293
 20
145.2658399153
 30
0.0
 11
117.1472791568
 21
145.2658399153
 31
0.0
  0
LINE
  5
10B
330
1F
100
AcDbEntity
  8
Default
  6
Continuous
 62
     7
100
AcDbLine
 10
117.163812293
 20
143.7658399153
 30
0.0
 11
117.1472791568
 21
143.7658399153
 31
0.0
  0
LINE
  5
10C
330
1F
100
AcDbEntity
  8
Default
  6
Continuous
 62
     7
100
AcDbLine
 10
110.9725391608
 20
139.2658399153
 30
0.0
 11
110.9725391608
 21
137.7658399153
 31
0.0
  0
LINE
  5
10D
330
1F
100
AcDbEntity
  8
Default
  6
Continuous
 62
     7
100
AcDbLine
 10
110.989072297
 20
137.7658399153
 30
0.0
 11
110.9725391608
 21
137.7658399153
 31
0.0
  0
LINE
  5
10E
330
1F
100
AcDbEntity
  8
Default
  6
Continuous
 62
     7
100
AcDbLine
 10
117.163812293
 20
137.7658399153
 30
0.0
 11
117.1472791568
 21
137.7658399153
 31
0.0
  0
LINE
  5
10F
330
1F
100
AcDbEntity
  8
Default
  6
Continuous
 62
     7
100
AcDbLine
 10
117.163812293
 20
137.7658399153
 30
0.0
 11
117.163812293
 21
139.2658399153
 31
0.0
  0
LINE
  5
110
330
1F
100
AcDbEntity
  8
Default
  6
Continuous
 62
     7
100
AcDbLine
 10
110.989072297
 20
139.2658399153
 30
0.0
 11
110.9725391608
 21
139.2658399153
 31
0.0
  0
LINE
  5
111
330
1F
100
AcDbEntity
  8
Default
  6
Continuous
 62
     7
100
AcDbLine
 10
110.9725391608
 20
137.7658399153
 30
0.0
 11
110.989072297
 21
137.6665528662
 31
0.0
  0
LINE
  5
112
330
1F
100
AcDbEntity
  8
Default
  6
Continuous
 62
     7
100
AcDbLine
 10
117.163812293
 20
139.2658399153
 30
0.0
 11
117.1472791568
 21
139.2658399153
 31
0.0
  0
LINE
  5
113
330
1F
100
AcDbEntity
  8
Default
  6
Continuous
 62
     7
100
AcDbLine
 10
117.163812293
 20
139.2658399153
 30
0.0
 11
117.1472791568
 21
139.3651269645
 31
0.0
  0
LINE
  5
114
330
1F
100
AcDbEntity
  8
Default
  6
Continuous
 62
     7
100
AcDbLine
 10
113.2681757269
 20
148.1114764814
 30
0.0
 11
113.2681757269
 21
148.0966583885
 31
0.0
  0
LINE
  5
115
330
1F
100
AcDbEntity
  8
Default
  6
Continuous
 62
     7
100
AcDbLine
 10
113.2681757269
 20
148.1114764814
 30
0.0
 11
113.1494410302
 21
148.0966583885
 31
0.0
  0
LINE
  5
116
330
1F
100
AcDbEntity
  8
Default
  6
Continuous
 62
     7
100
AcDbLine
 10
114.8681757269
 20
148.1114764814
 30
0.0
 11
114.8681757269
 21
148.0966583885
 31
0.0
  0
LINE
  5
117
330
1F
100
AcDbEntity
  8
Default
  6
Continuous
 62
     7
100
AcDbLine
 10
114.8681757269
 20
148.1114764814
 30
0.0
 11
113.2681757269
 21
148.1114764814
 31
0.0
  0
LINE
  5
118
330
1F
100
AcDbEntity
  8
Default
  6
Continuous
 62
     7
100
AcDbLine
 10
117.1472791568
 20
147.0798265938
 30
0.0
 11
117.1677412874
 21
147.0900574643
 31
0.0
  0
LINE
  5
119
330
1F
100
AcDbEntity
  8
Default
  6
Continuous
 62
     7
100
AcDbLine
 10
114.9869104236
 20
148.0966583885
 30
0.0
 11
114.8681757269
 21
148.1114764814
 31
0.0
  0
LINE
  5
11A
330
1F
100
AcDbEntity
  8
Default
  6
Continuous
 62
     7
100
AcDbLine
 10
115.3100157676
 20
148.0966583885
 30
0.0
 11
115.2912667763
 21
148.1154073797
 31
0.0
  0
LINE
  5
11B
330
1F
100
AcDbEntity
  8
Default
  6
Continuous
 62
     7
100
AcDbLine
 10
117.1472791568
 20
143.6665528662
 30
0.0
 11
117.163812293
 21
143.7658399153
 31
0.0
  0
LINE
  5
11C
330
1F
100
AcDbEntity
  8
Default
  6
Continuous
 62
     7
100
AcDbLine
 10
117.1472791568
 20
142.1798265938
 30
0.0
 11
117.1677412874
 21
142.1900574643
 31
0.0
  0
LINE
  5
11D
330
1F
100
AcDbEntity
  8
Default
  6
Continuous
 62
     7
100
AcDbLine
 10
117.1472791568
 20
131.2798265938
 30
0.0
 11
117.1677412874
 21
131.2900574643
 31
0.0
  0
LINE
  5
11E
330
1F
100
AcDbEntity
  8
Default
  6
Continuous
 62
     7
100
AcDbLine
 10
117.1472791568
 20
131.6665528662
 30
0.0
 11
117.163812293
 21
131.7658399153
 31
0.0
  0
LINE
  5
11F
330
1F
100
AcDbEntity
  8
Default
  6
Continuous
 62
     7
100
AcDbLine
 10
115.0143950851
 20
128.9384515286
 30
0.0
 11
114.8681757269
 21
128.9202033492
 31
0.0
  0
LINE
  5
120
330
1F
100
AcDbEntity
  8
Default
  6
Continuous
 62
     7
100
AcDbLine
 10
116.3405697716
 20
128.9384515286
 30
0.0
 11
116.3405697716
 21
128.8404059601
 31
0.0
  0
LINE
  5
121
330
1F
100
AcDbEntity
  8
Default
  6
Continuous
 62
     7
100
AcDbLine
 10
117.1472791568
 20
136.1798265938
 30
0.0
 11
117.1677412874
 21
136.1900574643
 31
0.0
  0
LINE
  5
122
330
1F
100
AcDbEntity
  8
Default
  6
Continuous
 62
     7
100
AcDbLine
 10
117.1472791568
 20
137.6665528662
 30
0.0
 11
117.163812293
 21
137.7658399153
 31
0.0
  0
LINE
  5
123
330
1F
100
AcDbEntity
  8
Default
  6
Continuous
 62
     7
100
AcDbLine
 10
110.989072297
 20
131.6665528662
 30
0.0
 11
110.9725391608
 21
131.7658399153
 31
0.0
  0
LINE
  5
124
330
1F
100
AcDbEntity
  8
Default
  6
Continuous
 62
     7
100
AcDbLine
 10
110.989072297
 20
129.9518532368
 30
0.0
 11
110.9686101664
 21
129.9416223663
 31
0.0
  0
LINE
  5
125
330
1F
100
AcDbEntity
  8
Default
  6
Continuous
 62
     7
100
AcDbLine
 10
112.8229055998
 20
128.9384515286
 30
0.0
 11
112.8450846775
 21
128.9162724509
 31
0.0
  0
LINE
  5
126
330
1F
100
AcDbEntity
  8
Default
  6
Continuous
 62
     7
100
AcDbLine
 10
110.989072297
 20
134.8518532368
 30
0.0
 11
110.9686101664
 21
134.8416223663
 31
0.0
  0
LINE
  5
127
330
1F
100
AcDbEntity
  8
Default
  6
Continuous
 62
     7
100
AcDbLine
 10
110.989072297
 20
145.7518532368
 30
0.0
 11
110.9686101664
 21
145.7416223663
 31
0.0
  0
LINE
  5
128
330
1F
100
AcDbEntity
  8
Default
  6
Continuous
 62
     7
100
AcDbLine
 10
111.7957816822
 20
148.0966583885
 30
0.0
 11
111.7957816822
 21
148.1912738706
 31
0.0
  0
LINE
  5
129
330
1F
100
AcDbEntity
  8
Default
  6
Continuous
 62
     7
100
AcDbLine
 10
110.989072297
 20
143.6665528662
 30
0.0
 11
110.9725391608
 21
143.7658399153
 31
0.0
  0
LINE
  5
12A
330
1F
100
AcDbEntity
  8
Default
  6
Continuous
 62
     7
100
AcDbLine
 10
110.989072297
 20
140.8518532368
 30
0.0
 11
110.9686101664
 21
140.8416223663
 31
0.0
  0
LINE
  5
12B
330
1F
100
AcDbEntity
  8
Default
  6
Continuous
 62
     7
100
AcDbLine
 10
110.989072297
 20
139.3651269645
 30
0.0
 11
110.9725391608
 21
139.2658399153
 31
0.0
  0
LINE
  5
12C
330
1F
100
AcDbEntity
  8
Default
  6
Continuous
 62
     7
100
AcDbLine
 10
116.4381407205
 20
128.9015880886
 30
0.0
 11
116.4381407205
 21
128.8166199865
 31
0.0
  0
LINE
  5
12D
330
1F
100
AcDbEntity
  8
Default
  6
Continuous
 62
     7
100
AcDbLine
 10
111.6982107333
 20
148.1300917421
 30
0.0
 11
111.6982107333
 21
148.2150598441
 31
0.0
  0
LINE
  5
12E
330
1F
100
AcDbEntity
  8
Default
  6
Continuous
 62
     7
100
AcDbLine
 10
116.3881426243
 20
148.0966583885
 30
0.0
 11
116.3881426243
 21
148.2150598441
 31
0.0
  0
LINE
  5
12F
330
1F
100
AcDbEntity
  8
Default
  6
Continuous
 62
     7
100
AcDbLine
 10
117.1677412874
 20
145.7416223663
 30
0.0
 11
117.1472791568
 21
145.7518532368
 31
0.0
  0
LINE
  5
130
330
1F
100
AcDbEntity
  8
Default
  6
Continuous
 62
     7
100
AcDbLine
 10
112.8450846775
 20
148.1154073797
 30
0.0
 11
112.8263356863
 21
148.0966583885
 31
0.0
  0
LINE
  5
131
330
1F
100
AcDbEntity
  8
Default
  6
Continuous
 62
     7
100
AcDbLine
 10
117.1677412874
 20
140.8416223663
 30
0.0
 11
117.1472791568
 21
140.8518532368
 31
0.0
  0
LINE
  5
132
330
1F
100
AcDbEntity
  8
Default
  6
Continuous
 62
     7
100
AcDbLine
 10
110.9686101664
 20
147.0900574643
 30
0.0
 11
110.989072297
 21
147.0798265938
 31
0.0
  0
LINE
  5
133
330
1F
100
AcDbEntity
  8
Default
  6
Continuous
 62
     7
100
AcDbLine
 10
117.1677412874
 20
134.8416223663
 30
0.0
 11
117.1472791568
 21
134.8518532368
 31
0.0
  0
LINE
  5
134
330
1F
100
AcDbEntity
  8
Default
  6
Continuous
 62
     7
100
AcDbLine
 10
110.9686101664
 20
142.1900574643
 30
0.0
 11
110.989072297
 21
142.1798265938
 31
0.0
  0
LINE
  5
135
330
1F
100
AcDbEntity
  8
Default
  6
Continuous
 62
     7
100
AcDbLine
 10
117.1677412874
 20
129.9416223663
 30
0.0
 11
117.1472791568
 21
129.9518532368
 31
0.0
  0
LINE
  5
136
330
1F
100
AcDbEntity
  8
Default
  6
Continuous
 62
     7
100
AcDbLine
 10
110.9686101664
 20
136.1900574643
 30
0.0
 11
110.989072297
 21
136.1798265938
 31
0.0
  0
LINE
  5
137
330
1F
100
AcDbEntity
  8
Default
  6
Continuous
 62
     7
100
AcDbLine
 10
115.2912667763
 20
128.9162724509
 30
0.0
 11
115.313445854
 21
128.9384515286
 31
0.0
  0
LINE
  5
138
330
1F
100
AcDbEntity
  8
Default
  6
Continuous
 62
     7
100
AcDbLine
 10
110.9686101664
 20
131.2900574643
 30
0.0
 11
110.989072297
 21
131.2798265938
 31
0.0
  0
LINE
  5
139
330
1F
100
AcDbEntity
  8
Default
  6
Continuous
 62
     7
100
AcDbLine
 10
111.7482088295
 20
128.9384515286
 30
0.0
 11
111.7482088295
 21
128.8166199865
 31
0.0
  0
LINE
  5
13A
330
1F
100
AcDbEntity
  8
Default
  6
Continuous
 62
     7
100
AcDbLine
 10
110.9428272394
 20
129.9158399153
 30
0.0
 11
110.9686082626
 21
129.9416209385
 31
0.0
  0
LINE
  5
13B
330
1F
100
AcDbEntity
  8
Default
  6
Continuous
 62
     7
100
AcDbLine
 10
110.918889589
 20
129.8916228423
 30
0.0
 11
110.9428272394
 21
129.9158399153
 31
0.0
  0
ARC
  5
13C
330
1F
100
AcDbEntity
  8
Default
  6
Continuous
 62
     7
100
AcDbCircle
 10
109.6768855143
 20
131.5319966569
 30
0.0
 40
3.317349073813419
100
AcDbArc
 50
307.5403089705
 51
308.6375114773
  0
LINE
  5
13D
330
1F
100
AcDbEntity
  8
Default
  6
Continuous
 62
     7
100
AcDbLine
 10
110.9186101664
 20
131.3400569883
 30
0.0
 11
110.9686082625
 21
131.2900588922
 31
0.0
  0
LINE
  5
13E
330
1F
100
AcDbEntity
  8
Default
  6
Continuous
 62
     7
100
AcDbLine
 10
112.8450846775
 20
128.9162724509
 30
0.0
 11
112.8950827736
 21
128.8662743548
 31
0.0
  0
LINE
  5
13F
330
1F
100
AcDbEntity
  8
Default
  6
Continuous
 62
     7
100
AcDbLine
 10
110.9186101664
 20
134.7916228423
 30
0.0
 11
110.9686082626
 21
134.8416209385
 31
0.0
  0
LINE
  5
140
330
1F
100
AcDbEntity
  8
Default
  6
Continuous
 62
     7
100
AcDbLine
 10
115.2912667763
 20
128.9162724509
 30
0.0
 11
115.2412686802
 21
128.8662743548
 31
0.0
  0
LINE
  5
141
330
1F
100
AcDbEntity
  8
Default
  6
Continuous
 62
     7
100
AcDbLine
 10
116.3881426243
 20
128.8166199865
 30
0.0
 11
116.4381407205
 21
128.8166199865
 31
0.0
  0
LINE
  5
142
330
1F
100
AcDbEntity
  8
Default
  6
Continuous
 62
     7
100
AcDbLine
 10
110.9186101664
 20
136.2400569883
 30
0.0
 11
110.9686082625
 21
136.1900588922
 31
0.0
  0
LINE
  5
143
330
1F
100
AcDbEntity
  8
Default
  6
Continuous
 62
     7
100
AcDbLine
 10
110.9186101664
 20
140.7916228423
 30
0.0
 11
110.9686082626
 21
140.8416209385
 31
0.0
  0
LINE
  5
144
330
1F
100
AcDbEntity
  8
Default
  6
Continuous
 62
     7
100
AcDbLine
 10
117.1935242144
 20
129.9158399153
 30
0.0
 11
117.2174618648
 21
129.8916228423
 31
0.0
  0
LINE
  5
145
330
1F
100
AcDbEntity
  8
Default
  6
Continuous
 62
     7
100
AcDbLine
 10
117.1677431913
 20
129.9416209385
 30
0.0
 11
117.1935242144
 21
129.9158399153
 31
0.0
  0
LINE
  5
146
330
1F
100
AcDbEntity
  8
Default
  6
Continuous
 62
     7
100
AcDbLine
 10
110.9186101664
 20
142.2400569883
 30
0.0
 11
110.9686082625
 21
142.1900588922
 31
0.0
  0
LINE
  5
147
330
1F
100
AcDbEntity
  8
Default
  6
Continuous
 62
     7
100
AcDbLine
 10
117.1677431913
 20
131.2900588922
 30
0.0
 11
117.2177412874
 21
131.3400569883
 31
0.0
  0
LINE
  5
148
330
1F
100
AcDbEntity
  8
Default
  6
Continuous
 62
     7
100
AcDbLine
 10
110.9186101664
 20
145.6916228423
 30
0.0
 11
110.9686082626
 21
145.7416209385
 31
0.0
  0
LINE
  5
149
330
1F
100
AcDbEntity
  8
Default
  6
Continuous
 62
     7
100
AcDbLine
 10
117.1677431913
 20
134.8416209385
 30
0.0
 11
117.2177412874
 21
134.7916228423
 31
0.0
  0
LINE
  5
14A
330
1F
100
AcDbEntity
  8
Default
  6
Continuous
 62
     7
100
AcDbLine
 10
110.9686082625
 20
147.0900588922
 30
0.0
 11
110.9428272394
 21
147.1158399153
 31
0.0
  0
LINE
  5
14B
330
1F
100
AcDbEntity
  8
Default
  6
Continuous
 62
     7
100
AcDbLine
 10
110.918889589
 20
147.1400569883
 30
0.0
 11
110.9428272394
 21
147.1158399153
 31
0.0
  0
LINE
  5
14C
330
1F
100
AcDbEntity
  8
Default
  6
Continuous
 62
     7
100
AcDbLine
 10
117.1677431913
 20
136.1900588922
 30
0.0
 11
117.2177412874
 21
136.2400569883
 31
0.0
  0
LINE
  5
14D
330
1F
100
AcDbEntity
  8
Default
  6
Continuous
 62
     7
100
AcDbLine
 10
117.1677431913
 20
140.8416209385
 30
0.0
 11
117.2177412874
 21
140.7916228423
 31
0.0
  0
LINE
  5
14E
330
1F
100
AcDbEntity
  8
Default
  6
Continuous
 62
     7
100
AcDbLine
 10
111.6982107333
 20
148.2150598441
 30
0.0
 11
111.7482088295
 21
148.2150598441
 31
0.0
  0
LINE
  5
14F
330
1F
100
AcDbEntity
  8
Default
  6
Continuous
 62
     7
100
AcDbLine
 10
112.8950827736
 20
148.1654054759
 30
0.0
 11
112.8450846775
 21
148.1154073797
 31
0.0
  0
LINE
  5
150
330
1F
100
AcDbEntity
  8
Default
  6
Continuous
 62
     7
100
AcDbLine
 10
117.1677431913
 20
142.1900588922
 30
0.0
 11
117.2177412874
 21
142.2400569883
 31
0.0
  0
LINE
  5
151
330
1F
100
AcDbEntity
  8
Default
  6
Continuous
 62
     7
100
AcDbLine
 10
115.2412686802
 20
148.1654054759
 30
0.0
 11
115.2912667763
 21
148.1154073797
 31
0.0
  0
LINE
  5
152
330
1F
100
AcDbEntity
  8
Default
  6
Continuous
 62
     7
100
AcDbLine
 10
117.1677431913
 20
145.7416209385
 30
0.0
 11
117.2177412874
 21
145.6916228423
 31
0.0
  0
LINE
  5
153
330
1F
100
AcDbEntity
  8
Default
  6
Continuous
 62
     7
100
AcDbLine
 10
117.1677431913
 20
147.0900588922
 30
0.0
 11
117.1935242144
 21
147.1158399153
 31
0.0
  0
ARC
  5
154
330
1F
100
AcDbEntity
  8
Default
  6
Continuous
 62
     7
100
AcDbCircle
 10
118.4594659395
 20
145.4996831737
 30
0.0
 40
3.317349073800769
100
AcDbArc
 50
127.5403089705
 51
128.4803095231
  0
LINE
  5
155
330
1F
100
AcDbEntity
  8
Default
  6
Continuous
 62
     7
100
AcDbLine
 10
117.1935242144
 20
147.1158399153
 30
0.0
 11
117.2174618648
 21
147.1400569883
 31
0.0
  0
LINE
  5
156
330
1F
100
AcDbEntity
  8
Default
  6
Continuous
 62
     7
100
AcDbLine
 10
117.1472791568
 20
129.4383753762
 30
0.0
 11
117.1472791568
 21
147.5967345409
 31
0.0
  0
ARC
  5
157
330
1F
100
AcDbEntity
  8
Default
  6
Continuous
 62
     7
100
AcDbCircle
 10
116.647294405
 20
147.5966736366
 30
0.0
 40
0.4999847555975968
100
AcDbArc
 50
0.0069793326
 51
89.9930206674
  0
ARC
  5
158
330
1F
100
AcDbEntity
  8
Default
  6
Continuous
 62
     7
100
AcDbCircle
 10
116.647294405
 20
129.4384362805
 30
0.0
 40
0.4999847555975921
100
AcDbArc
 50
270.0069793326
 51
359.9930206674
  0
LINE
  5
159
330
1F
100
AcDbEntity
  8
Default
  6
Continuous
 62
     7
100
AcDbLine
 10
116.6473553093
 20
148.0966583885
 30
0.0
 11
111.4889961445
 21
148.0966583885
 31
0.0
  0
LINE
  5
15A
330
1F
100
AcDbEntity
  8
Default
  6
Continuous
 62
     7
100
AcDbLine
 10
111.4889961445
 20
128.9384515286
 30
0.0
 11
116.6473553093
 21
128.9384515286
 31
0.0
  0
ARC
  5
15B
330
1F
100
AcDbEntity
  8
Default
  6
Continuous
 62
     7
100
AcDbCircle
 10
111.4890570489
 20
147.5966736366
 30
0.0
 40
0.4999847555975921
100
AcDbArc
 50
90.0069793326
 51
179.9930206674
  0
ARC
  5
15C
330
1F
100
AcDbEntity
  8
Default
  6
Continuous
 62
     7
100
AcDbCircle
 10
111.4890570489
 20
129.4384362805
 30
0.0
 40
0.4999847555975968
100
AcDbArc
 50
180.0069793326
 51
269.9930206674
  0
LINE
  5
15D
330
1F
100
AcDbEntity
  8
Default
  6
Continuous
 62
     7
100
AcDbLine
 10
110.989072297
 20
147.5967345409
 30
0.0
 11
110.989072297
 21
129.4383753762
 31
0.0
  0
LINE
  5
15E
330
1F
100
AcDbEntity
  8
Default
  6
Continuous
 62
     7
100
AcDbLine
 10
143.7681757269
 20
122.3158399153
 30
0.0
 11
84.3681757269
 21
122.3158399153
 31
0.0
  0
ARC
  5
15F
330
1F
100
AcDbEntity
  8
Default
  6
Continuous
 62
     7
100
AcDbCircle
 10
84.3681757269
 20
122.6158399153
 30
0.0
 40
0.3000000000000009
100
AcDbArc
 50
218.031690524
 51
270.0
  0
ARC
  5
160
330
1F
100
AcDbEntity
  8
Default
  6
Continuous
 62
     7
100
AcDbCircle
 10
143.7681757269
 20
122.6158399153
 30
0.0
 40
0.2999999999999948
100
AcDbArc
 50
270.0
 51
321.968309476
  0
ARC
  5
161
330
1F
100
AcDbEntity
  8
Default
  6
Continuous
 62
     7
100
AcDbCircle
 10
143.8469427377
 20
122.554230192
 30
0.0
 40
0.2000000000000013
100
AcDbArc
 50
321.968309476
 51
348.933313341
  0
ARC
  5
162
330
1F
100
AcDbEntity
  8
Default
  6
Continuous
 62
     7
100
AcDbCircle
 10
84.2894087161
 20
122.554230192
 30
0.0
 40
0.1999999999999931
100
AcDbArc
 50
191.066686659
 51
218.031690524
  0
LINE
  5
163
330
1F
100
AcDbEntity
  8
Default
  6
Continuous
 62
     7
100
AcDbLine
 10
145.4059571815
 20
153.2158399153
 30
0.0
 11
145.4181757269
 21
152.5158399153
 31
0.0
  0
LINE
  5
164
330
1F
100
AcDbEntity
  8
Default
  6
Continuous
 62
     7
100
AcDbLine
 10
145.4059571815
 20
153.2158399153
 30
0.0
 11
144.4181757269
 21
153.2158399153
 31
0.0
  0
LINE
  5
165
330
1F
100
AcDbEntity
  8
Default
  6
Continuous
 62
     7
100
AcDbLine
 10
144.4181757269
 20
153.2158399153
 30
0.0
 11
83.7181757269
 21
153.2158399153
 31
0.0
  0
LINE
  5
166
330
1F
100
AcDbEntity
  8
Default
  6
Continuous
 62
     7
100
AcDbLine
 10
83.7181757269
 20
153.2158399153
 30
0.0
 11
82.7303942724
 21
153.2158399153
 31
0.0
  0
LINE
  5
167
330
1F
100
AcDbEntity
  8
Default
  6
Continuous
 62
     7
100
AcDbLine
 10
82.7303942724
 20
153.2158399153
 30
0.0
 11
82.7181757269
 21
152.5158399153
 31
0.0
  0
LINE
  5
168
330
1F
100
AcDbEntity
  8
Default
  6
Continuous
 62
     7
100
AcDbLine
 10
144.4679585113
 20
153.2656217499
 30
0.0
 11
144.4651213813
 21
153.9158399153
 31
0.0
  0
LINE
  5
169
330
1F
100
AcDbEntity
  8
Default
  6
Continuous
 62
     7
100
AcDbLine
 10
83.6712300725
 20
153.9158399153
 30
0.0
 11
83.6683929425
 21
153.2656217499
 31
0.0
  0
ARC
  5
16A
330
1F
100
AcDbEntity
  8
Default
  6
Continuous
 62
     7
100
AcDbCircle
 10
144.5179580353
 20
153.2658399153
 30
0.0
 40
0.0499999999999945
100
AcDbArc
 50
180.25
 51
270.0
  0
ARC
  5
16B
330
1F
100
AcDbEntity
  8
Default
  6
Continuous
 62
     7
100
AcDbCircle
 10
83.6183934185
 20
153.2658399153
 30
0.0
 40
0.049999999999999
100
AcDbArc
 50
270.0
 51
359.7499999999
  0
INSERT
  5
16D
330
1F
100
AcDbEntity
  8
Default
100
AcDbBlockReference
  2
SEANNOT_GROUP
 10
0.0
 20
0.0
 30
0.0
  0
INSERT
  5
174
330
1F
100
AcDbEntity
  8
Default
100
AcDbBlockReference
  2
SEANNOT_GROUP1
 10
0.0
 20
0.0
 30
0.0
  0
TEXT
  5
17A
330
1F
100
AcDbEntity
  8
Default
  6
Continuous
 62
     7
100
AcDbText
 10
5.9362635081
 20
53.4225120485
 30
0.0
 40
10.0
  1
Grohe AG^J
  7
SEACAD_seiso_ttf
 11
5.9362635081
 21
63.4225120485
 31
0.0
100
AcDbText
 73
     3
  0
TEXT
  5
17B
330
1F
100
AcDbEntity
  8
Default
  6
Continuous
 62
     7
100
AcDbText
 10
5.9362635081
 20
37.0588756849
 30
0.0
 40
10.0
  1
 
  7
SEACAD_seiso_ttf
 11
5.9362635081
 21
47.0588756849
 31
0.0
100
AcDbText
 73
     3
  0
TEXT
  5
17C
330
1F
100
AcDbEntity
  8
Default
  6
Continuous
 62
     7
100
AcDbText
 10
5.9362635081
 20
20.6952393213
 30
0.0
 40
10.0
  1
ecn:
  7
SEACAD_seiso_ttf
 11
5.9362635081
 21
30.6952393213
 31
0.0
100
AcDbText
 73
     3
  0
TEXT
  5
17D
330
1F
100
AcDbEntity
  8
Default
  6
Continuous
 62
     7
100
AcDbText
 10
5.9362635081
 20
4.3316029576
 30
0.0
 40
10.0
  1
unit: mm
  7
SEACAD_seiso_ttf
 11
5.9362635081
 21
14.3316029576
 31
0.0
100
AcDbText
 73
     3
  0
LINE
  5
17E
330
1F
100
AcDbEntity
  8
Default
  6
Continuous
 62
     7
100
AcDbLine
 10
0.0
 20
0.0
 30
0.0
 11
100.0
 21
0.0
 31
0.0
  0
LINE
  5
17F
330
1F
100
AcDbEntity
  8
Default
  6
Continuous
 62
     7
100
AcDbLine
 10
0.0
 20
0.0
 30
0.0
 11
0.0
 21
100.0
 31
0.0
  0
TEXT
  5
180
330
1F
100
AcDbEntity
  8
Default
  6
Continuous
 62
     7
100
AcDbText
 10
24.3923665681
 20
-18.2375342018
 30
0.0
 40
10.0
  1
100 mm
  7
SEACAD_seiso_ttf
 11
24.3923665681
 21
-8.2375342018
 31
0.0
100
AcDbText
 73
     3
  0
TEXT
  5
181
330
1F
100
AcDbEntity
  8
Default
  6
Continuous
 62
     7
100
AcDbText
 10
-7.6150308803
 20
24.6231930421
 30
0.0
 40
10.0
  1
100 mm
 50
90.0
  7
SEACAD_seiso_ttf
 11
-17.6150308803
 21
24.6231930421
 31
0.0
100
AcDbText
 73
     3
  0
TEXT
  5
182
330
1F
100
AcDbEntity
  8
Default
  6
Continuous
 62
     7
100
AcDbText
 10
28.4878128572
 20
20.0907663715
 30
0.0
 40
10.0
  1
225682
  7
SEACAD_seiso_ttf
 11
28.4878128572
 21
30.0907663715
 31
0.0
100
AcDbText
 73
     3
  0
TEXT
  5
183
330
1F
100
AcDbEntity
  8
Default
  6
Continuous
 62
     7
100
AcDbText
 10
5.9012241913
 20
36.7242780188
 30
0.0
 40
10.0
  1
19928000
  7
SEACAD_seiso_ttf
 11
5.9012241913
 21
46.7242780188
 31
0.0
100
AcDbText
 73
     3
  0
ENDSEC
  0
SECTION
  2
OBJECTS
  0
DICTIONARY
  5
C
330
0
100
AcDbDictionary
281
     1
  3
ACAD_GROUP
350
D
  3
ACAD_LAYOUT
350
1A
  3
ACAD_MLEADERSTYLE
350
187
  3
ACAD_MLINESTYLE
350
17
  3
ACAD_PLOTSETTINGS
350
19
  3
ACAD_PLOTSTYLENAME
350
E
  3
ACAD_SCALELIST
350
3B
  3
ACAD_TABLESTYLE
350
186
  3
ACAD_VISUALSTYLE
350
2A
  3
AcDbVariableDictionary
350
184
  0
DICTIONARY
  5
D
102
{ACAD_REACTORS
330
C
102
}
330
C
100
AcDbDictionary
281
     1
  0
DICTIONARY
  5
1A
102
{ACAD_REACTORS
330
C
102
}
330
C
100
AcDbDictionary
281
     1
  3
Layout1
350
1E
  3
Model
350
22
  0
DICTIONARY
  5
187
102
{ACAD_REACTORS
330
C
102
}
330
C
100
AcDbDictionary
281
     1
  0
DICTIONARY
  5
17
102
{ACAD_REACTORS
330
C
102
}
330
C
100
AcDbDictionary
281
     1
  3
Standard
350
18
  0
DICTIONARY
  5
19
102
{ACAD_REACTORS
330
C
102
}
330
C
100
AcDbDictionary
281
     1
  0
ACDBDICTIONARYWDFLT
  5
E
102
{ACAD_REACTORS
330
C
102
}
330
C
100
AcDbDictionary
281
     1
  3
Normal
350
F
100
AcDbDictionaryWithDefault
340
F
  0
DICTIONARY
  5
3B
102
{ACAD_REACTORS
330
C
102
}
330
C
100
AcDbDictionary
281
     1
  3
A0
350
3C
  3
A1
350
3D
  3
A2
350
3E
  3
A3
350
3F
  3
A4
350
40
  3
A5
350
41
  3
A6
350
42
  3
A7
350
43
  3
A8
350
44
  3
A9
350
45
  3
B0
350
46
  3
B1
350
47
  3
B2
350
48
  3
B3
350
49
  3
B4
350
4A
  3
B5
350
4B
  3
B6
350
4C
  3
B7
350
4D
  3
B8
350
4E
  3
B9
350
4F
  3
C0
350
50
  3
C1
350
51
  3
C2
350
52
  3
C3
350
53
  3
C4
350
54
  3
C5
350
55
  3
C6
350
56
  3
C7
350
57
  3
C8
350
58
  3
C9
350
59
  3
D0
350
5A
  3
D1
350
5B
  3
D2
350
5C
  0
DICTIONARY
  5
186
102
{ACAD_REACTORS
330
C
102
}
330
C
100
AcDbDictionary
281
     1
  0
DICTIONARY
  5
2A
102
{ACAD_REACTORS
330
C
102
}
330
C
100
AcDbDictionary
281
     1
  3
2dWireframe
350
2F
  3
3D Hidden
350
31
  3
3dWireframe
350
30
  3
Basic
350
32
  3
Brighten
350
36
  3
ColorChange
350
3A
  3
Conceptual
350
34
  3
Dim
350
35
  3
Facepattern
350
39
  3
Flat
350
2B
  3
FlatWithEdges
350
2C
  3
Gouraud
350
2D
  3
GouraudWithEdges
350
2E
  3
Linepattern
350
38
  3
Realistic
350
33
  3
Thicken
350
37
  0
DICTIONARY
  5
184
102
{ACAD_REACTORS
330
C
102
}
330
C
100
AcDbDictionary
281
     1
  3
CANNOSCALE
350
185
  3
PSOLHEIGHT
350
189
  3
PSOLWIDTH
350
188
  0
LAYOUT
  5
1E
102
{ACAD_REACTORS
330
1A
102
}
330
1A
100
AcDbPlotSettings
  1

  2
none_device
  4

  6

 40
0.0
 41
0.0
 42
0.0
 43
0.0
 44
0.0
 45
0.0
 46
0.0
 47
0.0
 48
0.0
 49
0.0
140
0.0
141
0.0
142
1.0
143
1.0
 70
   688
 72
     0
 73
     0
 74
     5
  7

 75
    16
147
1.0
148
0.0
149
0.0
100
AcDbLayout
  1
Layout1
 70
     1
 71
     1
 10
0.0
 20
0.0
 11
3000.0
 21
4500.0
 12
0.0
 22
0.0
 32
0.0
 14
0.0
 24
0.0
 34
0.0
 15
3000.0
 25
4500.0
 35
0.0
146
0.0
 13
0.0
 23
0.0
 33
0.0
 16
1.0
 26
0.0
 36
0.0
 17
0.0
 27
1.0
 37
0.0
 76
     0
330
1B
  0
LAYOUT
  5
22
102
{ACAD_REACTORS
330
1A
102
}
330
1A
100
AcDbPlotSettings
  1

  2
none_device
  4

  6

 40
0.0
 41
0.0
 42
0.0
 43
0.0
 44
0.0
 45
0.0
 46
0.0
 47
0.0
 48
0.0
 49
0.0
140
0.0
141
0.0
142
1.0
143
1.0
 70
  1712
 72
     0
 73
     0
 74
     0
  7

 75
     0
147
1.0
148
0.0
149
0.0
100
AcDbLayout
  1
Model
 70
     1
 71
     0
 10
0.0
 20
0.0
 11
3000.0
 21
4500.0
 12
0.0
 22
0.0
 32
0.0
 14
0.0
 24
0.0
 34
0.0
 15
3000.0
 25
4500.0
 35
0.0
146
0.0
 13
0.0
 23
0.0
 33
0.0
 16
1.0
 26
0.0
 36
0.0
 17
0.0
 27
1.0
 37
0.0
 76
     0
330
1F
331
29
  0
MLINESTYLE
  5
18
102
{ACAD_REACTORS
330
17
102
}
330
17
100
AcDbMlineStyle
  2
Standard
 70
     0
  3

 62
   256
 51
90.0
 52
90.0
 71
     2
 49
0.5
 62
   256
  6
BYLAYER
 49
-0.5
 62
   256
  6
BYLAYER
  0
ACDBPLACEHOLDER
  5
F
102
{ACAD_REACTORS
330
E
102
}
330
E
  0
SCALE
  5
3C
102
{ACAD_REACTORS
330
3B
102
}
330
3B
100
AcDbScale
 70
     0
300
1:1
140
1.0
141
1.0
290
     1
  0
SCALE
  5
3D
102
{ACAD_REACTORS
330
3B
102
}
330
3B
100
AcDbScale
 70
     0
300
1:2
140
1.0
141
2.0
290
     0
  0
SCALE
  5
3E
102
{ACAD_REACTORS
330
3B
102
}
330
3B
100
AcDbScale
 70
     0
300
1:4
140
1.0
141
4.0
290
     0
  0
SCALE
  5
3F
102
{ACAD_REACTORS
330
3B
102
}
330
3B
100
AcDbScale
 70
     0
300
1:5
140
1.0
141
5.0
290
     0
  0
SCALE
  5
40
102
{ACAD_REACTORS
330
3B
102
}
330
3B
100
AcDbScale
 70
     0
300
1:8
140
1.0
141
8.0
290
     0
  0
SCALE
  5
41
102
{ACAD_REACTORS
330
3B
102
}
330
3B
100
AcDbScale
 70
     0
300
1:10
140
1.0
141
10.0
290
     0
  0
SCALE
  5
42
102
{ACAD_REACTORS
330
3B
102
}
330
3B
100
AcDbScale
 70
     0
300
1:16
140
1.0
141
16.0
290
     0
  0
SCALE
  5
43
102
{ACAD_REACTORS
330
3B
102
}
330
3B
100
AcDbScale
 70
     0
300
1:20
140
1.0
141
20.0
290
     0
  0
SCALE
  5
44
102
{ACAD_REACTORS
330
3B
102
}
330
3B
100
AcDbScale
 70
     0
300
1:30
140
1.0
141
30.0
290
     0
  0
SCALE
  5
45
102
{ACAD_REACTORS
330
3B
102
}
330
3B
100
AcDbScale
 70
     0
300
1:40
140
1.0
141
40.0
290
     0
  0
SCALE
  5
46
102
{ACAD_REACTORS
330
3B
102
}
330
3B
100
AcDbScale
 70
     0
300
1:50
140
1.0
141
50.0
290
     0
  0
SCALE
  5
47
102
{ACAD_REACTORS
330
3B
102
}
330
3B
100
AcDbScale
 70
     0
300
1:100
140
1.0
141
100.0
290
     0
  0
SCALE
  5
48
102
{ACAD_REACTORS
330
3B
102
}
330
3B
100
AcDbScale
 70
     0
300
2:1
140
2.0
141
1.0
290
     0
  0
SCALE
  5
49
102
{ACAD_REACTORS
330
3B
102
}
330
3B
100
AcDbScale
 70
     0
300
4:1
140
4.0
141
1.0
290
     0
  0
SCALE
  5
4A
102
{ACAD_REACTORS
330
3B
102
}
330
3B
100
AcDbScale
 70
     0
300
8:1
140
8.0
141
1.0
290
     0
  0
SCALE
  5
4B
102
{ACAD_REACTORS
330
3B
102
}
330
3B
100
AcDbScale
 70
     0
300
10:1
140
10.0
141
1.0
290
     0
  0
SCALE
  5
4C
102
{ACAD_REACTORS
330
3B
102
}
330
3B
100
AcDbScale
 70
     0
300
100:1
140
100.0
141
1.0
290
     0
  0
SCALE
  5
4D
102
{ACAD_REACTORS
330
3B
102
}
330
3B
100
AcDbScale
 70
     0
300
1/128" = 1'-0"
140
0.0078125
141
12.0
290
     0
  0
SCALE
  5
4E
102
{ACAD_REACTORS
330
3B
102
}
330
3B
100
AcDbScale
 70
     0
300
1/64" = 1'-0"
140
0.015625
141
12.0
290
     0
  0
SCALE
  5
4F
102
{ACAD_REACTORS
330
3B
102
}
330
3B
100
AcDbScale
 70
     0
300
1/32" = 1'-0"
140
0.03125
141
12.0
290
     0
  0
SCALE
  5
50
102
{ACAD_REACTORS
330
3B
102
}
330
3B
100
AcDbScale
 70
     0
300
1/16" = 1'-0"
140
0.0625
141
12.0
290
     0
  0
SCALE
  5
51
102
{ACAD_REACTORS
330
3B
102
}
330
3B
100
AcDbScale
 70
     0
300
3/32" = 1'-0"
140
0.09375
141
12.0
290
     0
  0
SCALE
  5
52
102
{ACAD_REACTORS
330
3B
102
}
330
3B
100
AcDbScale
 70
     0
300
1/8" = 1'-0"
140
0.125
141
12.0
290
     0
  0
SCALE
  5
53
102
{ACAD_REACTORS
330
3B
102
}
330
3B
100
AcDbScale
 70
     0
300
3/16" = 1'-0"
140
0.1875
141
12.0
290
     0
  0
SCALE
  5
54
102
{ACAD_REACTORS
330
3B
102
}
330
3B
100
AcDbScale
 70
     0
300
1/4" = 1'-0"
140
0.25
141
12.0
290
     0
  0
SCALE
  5
55
102
{ACAD_REACTORS
330
3B
102
}
330
3B
100
AcDbScale
 70
     0
300
3/8" = 1'-0"
140
0.375
141
12.0
290
     0
  0
SCALE
  5
56
102
{ACAD_REACTORS
330
3B
102
}
330
3B
100
AcDbScale
 70
     0
300
1/2" = 1'-0"
140
0.5
141
12.0
290
     0
  0
SCALE
  5
57
102
{ACAD_REACTORS
330
3B
102
}
330
3B
100
AcDbScale
 70
     0
300
3/4" = 1'-0"
140
0.75
141
12.0
290
     0
  0
SCALE
  5
58
102
{ACAD_REACTORS
330
3B
102
}
330
3B
100
AcDbScale
 70
     0
300
1" = 1'-0"
140
1.0
141
12.0
290
     0
  0
SCALE
  5
59
102
{ACAD_REACTORS
330
3B
102
}
330
3B
100
AcDbScale
 70
     0
300
1-1/2" = 1'-0"
140
1.5
141
12.0
290
     0
  0
SCALE
  5
5A
102
{ACAD_REACTORS
330
3B
102
}
330
3B
100
AcDbScale
 70
     0
300
3" = 1'-0"
140
3.0
141
12.0
290
     0
  0
SCALE
  5
5B
102
{ACAD_REACTORS
330
3B
102
}
330
3B
100
AcDbScale
 70
     0
300
6" = 1'-0"
140
6.0
141
12.0
290
     0
  0
SCALE
  5
5C
102
{ACAD_REACTORS
330
3B
102
}
330
3B
100
AcDbScale
 70
     0
300
1'-0" = 1'-0"
140
12.0
141
12.0
290
     0
  0
VISUALSTYLE
  5
2F
102
{ACAD_REACTORS
330
2A
102
}
330
2A
100
AcDbVisualStyle
  2
2dWireframe
 70
     4
 71
     0
 72
     2
 73
     0
 90
        0
 40
-0.6
 41
-30.0
 62
     5
 63
     7
 74
     1
 91
        4
 64
     7
 65
   257
 75
     1
175
     1
 42
1.0
 92
        0
 66
   257
 43
1.0
 76
     1
 77
     6
 78
     2
 67
     7
 79
     5
170
     0
171
     0
290
     0
174
     0
 93
        1
 44
0.0
173
     0
291
     0
 45
0.0
1001
ACAD
1000
AcDbSavedByObjectVersion
1070
     0
  0
VISUALSTYLE
  5
31
102
{ACAD_REACTORS
330
2A
102
}
330
2A
100
AcDbVisualStyle
  2
3D Hidden
 70
     6
 71
     1
 72
     2
 73
     2
 90
        0
 40
-0.6
 41
-30.0
 62
     5
 63
     7
 74
     2
 91
        2
 64
     7
 65
   257
 75
     2
175
     1
 42
40.0
 92
        0
 66
   257
 43
1.0
 76
     1
 77
     6
 78
     2
 67
     7
 79
     3
170
     0
171
     0
290
     0
174
     0
 93
        1
 44
0.0
173
     0
291
     0
 45
0.0
1001
ACAD
1000
AcDbSavedByObjectVersion
1070
     0
  0
VISUALSTYLE
  5
30
102
{ACAD_REACTORS
330
2A
102
}
330
2A
100
AcDbVisualStyle
  2
3dWireframe
 70
     5
 71
     0
 72
     2
 73
     0
 90
        0
 40
-0.6
 41
-30.0
 62
     5
 63
     7
 74
     1
 91
        4
 64
     7
 65
   257
 75
     1
175
     1
 42
1.0
 92
        0
 66
   257
 43
1.0
 76
     1
 77
     6
 78
     2
 67
     7
 79
     5
170
     0
171
     0
290
     0
174
     0
 93
        1
 44
0.0
173
     0
291
     0
 45
0.0
1001
ACAD
1000
AcDbSavedByObjectVersion
1070
     0
  0
VISUALSTYLE
  5
32
102
{ACAD_REACTORS
330
2A
102
}
330
2A
100
AcDbVisualStyle
  2
Basic
 70
     7
 71
     1
 72
     0
 73
     1
 90
        0
 40
-0.6
 41
-30.0
 62
     5
 63
     7
 74
     0
 91
        4
 64
     7
 65
   257
 75
     1
175
     1
 42
1.0
 92
        8
 66
     7
 43
1.0
 76
     1
 77
     6
 78
     2
 67
     7
 79
     5
170
     0
171
     0
290
     0
174
     0
 93
        1
 44
0.0
173
     0
291
     1
 45
0.0
1001
ACAD
1000
AcDbSavedByObjectVersion
1070
     0
  0
VISUALSTYLE
  5
36
102
{ACAD_REACTORS
330
2A
102
}
330
2A
100
AcDbVisualStyle
  2
Brighten
 70
    12
 71
     2
 72
     2
 73
     0
 90
        0
 40
-0.6
 41
-30.0
 62
     5
 63
     7
 74
     1
 91
        4
 64
     7
 65
   257
 75
     1
175
     1
 42
1.0
 92
        8
 66
     7
 43
1.0
 76
     1
 77
     6
 78
     2
 67
     7
 79
     5
170
     0
171
     0
290
     0
174
     0
 93
        1
 44
50.0
173
     0
291
     1
 45
0.0
1001
ACAD
1000
AcDbSavedByObjectVersion
1070
     0
  0
VISUALSTYLE
  5
3A
102
{ACAD_REACTORS
330
2A
102
}
330
2A
100
AcDbVisualStyle
  2
ColorChange
 70
    16
 71
     2
 72
     2
 73
     3
 90
        0
 40
-0.6
 41
-30.0
 62
     5
 63
     8
 74
     1
 91
        4
 64
     7
 65
   257
 75
     1
175
     1
 42
1.0
 92
        8
 66
     8
 43
1.0
 76
     1
 77
     6
 78
     2
 67
     7
 79
     5
170
     0
171
     0
290
     0
174
     0
 93
        1
 44
0.0
173
     0
291
     1
 45
0.0
1001
ACAD
1000
AcDbSavedByObjectVersion
1070
     0
  0
VISUALSTYLE
  5
34
102
{ACAD_REACTORS
330
2A
102
}
330
2A
100
AcDbVisualStyle
  2
Conceptual
 70
     9
 71
     3
 72
     2
 73
     0
 90
        0
 40
-0.6
 41
-30.0
 62
     5
 63
     7
 74
     2
 91
        2
 64
     7
 65
   257
 75
     1
175
     1
 42
40.0
 92
        8
 66
     7
 43
1.0
 76
     1
 77
     6
 78
     2
 67
     7
 79
     3
170
     0
171
     0
290
     0
174
     0
 93
        1
 44
0.0
173
     0
291
     0
 45
0.0
1001
ACAD
1000
AcDbSavedByObjectVersion
1070
     0
  0
VISUALSTYLE
  5
35
102
{ACAD_REACTORS
330
2A
102
}
330
2A
100
AcDbVisualStyle
  2
Dim
 70
    11
 71
     2
 72
     2
 73
     0
 90
        0
 40
-0.6
 41
-30.0
 62
     5
 63
     7
 74
     1
 91
        4
 64
     7
 65
   257
 75
     1
175
     1
 42
1.0
 92
        8
 66
     7
 43
1.0
 76
     1
 77
     6
 78
     2
 67
     7
 79
     5
170
     0
171
     0
290
     0
174
     0
 93
        1
 44
-50.0
173
     0
291
     1
 45
0.0
1001
ACAD
1000
AcDbSavedByObjectVersion
1070
     0
  0
VISUALSTYLE
  5
39
102
{ACAD_REACTORS
330
2A
102
}
330
2A
100
AcDbVisualStyle
  2
Facepattern
 70
    15
 71
     2
 72
     2
 73
     0
 90
        0
 40
-0.6
 41
-30.0
 62
     5
 63
     7
 74
     1
 91
        4
 64
     7
 65
   257
 75
     1
175
     1
 42
1.0
 92
        8
 66
     7
 43
1.0
 76
     1
 77
     6
 78
     2
 67
     7
 79
     5
170
     0
171
     0
290
     0
174
     0
 93
        1
 44
0.0
173
     0
291
     1
 45
0.0
1001
ACAD
1000
AcDbSavedByObjectVersion
1070
     0
  0
VISUALSTYLE
  5
2B
102
{ACAD_REACTORS
330
2A
102
}
330
2A
100
AcDbVisualStyle
  2
Flat
 70
     0
 71
     2
 72
     1
 73
     1
 90
        2
 40
-0.6
 41
30.0
 62
     5
 63
     7
 74
     0
 91
        4
 64
     7
 65
   257
 75
     1
175
     1
 42
1.0
 92
        8
 66
     7
 43
1.0
 76
     1
 77
     6
 78
     2
 67
     7
 79
     5
170
     0
171
     0
290
     0
174
     0
 93
       13
 44
0.0
173
     0
291
     1
 45
0.0
1001
ACAD
1000
AcDbSavedByObjectVersion
1070
     0
  0
VISUALSTYLE
  5
2C
102
{ACAD_REACTORS
330
2A
102
}
330
2A
100
AcDbVisualStyle
  2
FlatWithEdges
 70
     1
 71
     2
 72
     1
 73
     1
 90
        2
 40
-0.6
 41
30.0
 62
     5
 63
     7
 74
     1
 91
        4
 64
     7
 65
   257
 75
     1
175
     1
 42
1.0
 92
        0
 66
   257
 43
1.0
 76
     1
 77
     6
 78
     2
 67
     7
 79
     5
170
     0
171
     0
290
     0
174
     0
 93
       13
 44
0.0
173
     0
291
     1
 45
0.0
1001
ACAD
1000
AcDbSavedByObjectVersion
1070
     0
  0
VISUALSTYLE
  5
2D
102
{ACAD_REACTORS
330
2A
102
}
330
2A
100
AcDbVisualStyle
  2
Gouraud
 70
     2
 71
     2
 72
     2
 73
     1
 90
        2
 40
-0.6
 41
30.0
 62
     5
 63
     7
 74
     0
 91
        4
 64
     7
 65
   257
 75
     1
175
     1
 42
1.0
 92
        0
 66
     7
 43
1.0
 76
     1
 77
     6
 78
     2
 67
     7
 79
     5
170
     0
171
     0
290
     0
174
     0
 93
       13
 44
0.0
173
     0
291
     1
 45
0.0
1001
ACAD
1000
AcDbSavedByObjectVersion
1070
     0
  0
VISUALSTYLE
  5
2E
102
{ACAD_REACTORS
330
2A
102
}
330
2A
100
AcDbVisualStyle
  2
GouraudWithEdges
 70
     3
 71
     2
 72
     2
 73
     1
 90
        2
 40
-0.6
 41
30.0
 62
     5
 63
     7
 74
     1
 91
        4
 64
     7
 65
   257
 75
     1
175
     1
 42
1.0
 92
        0
 66
   257
 43
1.0
 76
     1
 77
     6
 78
     2
 67
     7
 79
     5
170
     0
171
     0
290
     0
174
     0
 93
       13
 44
0.0
173
     0
291
     1
 45
0.0
1001
ACAD
1000
AcDbSavedByObjectVersion
1070
     0
  0
VISUALSTYLE
  5
38
102
{ACAD_REACTORS
330
2A
102
}
330
2A
100
AcDbVisualStyle
  2
Linepattern
 70
    14
 71
     2
 72
     2
 73
     0
 90
        0
 40
-0.6
 41
-30.0
 62
     5
 63
     7
 74
     1
 91
        4
 64
     7
 65
   257
 75
     7
175
     7
 42
1.0
 92
        8
 66
     7
 43
1.0
 76
     1
 77
     6
 78
     2
 67
     7
 79
     5
170
     0
171
     0
290
     0
174
     0
 93
        1
 44
0.0
173
     0
291
     1
 45
0.0
1001
ACAD
1000
AcDbSavedByObjectVersion
1070
     0
  0
VISUALSTYLE
  5
33
102
{ACAD_REACTORS
330
2A
102
}
330
2A
100
AcDbVisualStyle
  2
Realistic
 70
     8
 71
     2
 72
     2
 73
     0
 90
        0
 40
-0.6
 41
-30.0
 62
     5
 63
     7
 74
     1
 91
        0
 64
     7
 65
   257
 75
     1
175
     1
 42
1.0
 92
        8
 66
     8
 43
1.0
 76
     1
 77
     6
 78
     2
 67
     7
 79
     5
170
     0
171
     0
290
     0
174
     0
 93
       13
 44
0.0
173
     0
291
     0
 45
0.0
1001
ACAD
1000
AcDbSavedByObjectVersion
1070
     0
  0
VISUALSTYLE
  5
37
102
{ACAD_REACTORS
330
2A
102
}
330
2A
100
AcDbVisualStyle
  2
Thicken
 70
    13
 71
     2
 72
     2
 73
     0
 90
        0
 40
-0.6
 41
-30.0
 62
     5
 63
     7
 74
     1
 91
        4
 64
     7
 65
   257
 75
     1
175
     1
 42
1.0
 92
       12
 66
     7
 43
1.0
 76
     1
 77
     6
 78
     2
 67
     7
 79
     5
170
     0
171
     0
290
     0
174
     0
 93
        1
 44
0.0
173
     0
291
     1
 45
0.0
1001
ACAD
1000
AcDbSavedByObjectVersion
1070
     0
  0
DICTIONARYVAR
  5
185
102
{ACAD_REACTORS
330
184
102
}
330
184
100
DictionaryVariables
280
     0
  1
1:1
  0
DICTIONARYVAR
  5
189
102
{ACAD_REACTORS
330
184
102
}
330
184
100
DictionaryVariables
280
     0
  1
80.000000
  0
DICTIONARYVAR
  5
188
102
{ACAD_REACTORS
330
184
102
}
330
184
100
DictionaryVariables
280
     0
  1
5.000000
  0
ENDSEC
  0
EOF
