  0
SECTION
  2
HEADER
  9
$ACADVER
  1
AC1015
  9
$ACADMAINTVER
 70
     6
  9
$DWGCODEPAGE
  3
ANSI_1252
  9
$INSBASE
 10
0.0
 20
0.0
 30
0.0
  9
$EXTMIN
 10
0.0
 20
0.0
 30
0.0
  9
$EXTMAX
 10
3000.0
 20
4500.0
 30
0.0
  9
$LIMMIN
 10
0.0
 20
0.0
  9
$LIMMAX
 10
3000.0
 20
4500.0
  9
$ORTHOMODE
 70
     0
  9
$REGENMODE
 70
     1
  9
$FILLMODE
 70
     1
  9
$QTEXTMODE
 70
     0
  9
$MIRRTEXT
 70
     1
  9
$LTSCALE
 40
1.0
  9
$ATTMODE
 70
     1
  9
$TEXTSIZE
 40
2.5
  9
$TRACEWID
 40
1.0
  9
$TEXTSTYLE
  7
Standard
  9
$CLAYER
  8
0
  9
$CELTYPE
  6
ByLayer
  9
$CECOLOR
 62
   256
  9
$CELTSCALE
 40
1.0
  9
$DISPSILH
 70
     0
  9
$DIMSCALE
 40
1.0
  9
$DIMASZ
 40
2.5
  9
$DIMEXO
 40
0.625
  9
$DIMDLI
 40
3.75
  9
$DIMRND
 40
0.0
  9
$DIMDLE
 40
0.0
  9
$DIMEXE
 40
1.25
  9
$DIMTP
 40
0.0
  9
$DIMTM
 40
0.0
  9
$DIMTXT
 40
2.5
  9
$DIMCEN
 40
2.5
  9
$DIMTSZ
 40
0.0
  9
$DIMTOL
 70
     0
  9
$DIMLIM
 70
     0
  9
$DIMTIH
 70
     0
  9
$DIMTOH
 70
     0
  9
$DIMSE1
 70
     0
  9
$DIMSE2
 70
     0
  9
$DIMTAD
 70
     1
  9
$DIMZIN
 70
     8
  9
$DIMBLK
  1

  9
$DIMASO
 70
     1
  9
$DIMSHO
 70
     1
  9
$DIMPOST
  1

  9
$DIMAPOST
  1

  9
$DIMALT
 70
     0
  9
$DIMALTD
 70
     3
  9
$DIMALTF
 40
0.0393700787
  9
$DIMLFAC
 40
1.0
  9
$DIMTOFL
 70
     1
  9
$DIMTVP
 40
0.0
  9
$DIMTIX
 70
     0
  9
$DIMSOXD
 70
     0
  9
$DIMSAH
 70
     0
  9
$DIMBLK1
  1

  9
$DIMBLK2
  1

  9
$DIMSTYLE
  2
ISO-25
  9
$DIMCLRD
 70
     0
  9
$DIMCLRE
 70
     0
  9
$DIMCLRT
 70
     0
  9
$DIMTFAC
 40
1.0
  9
$DIMGAP
 40
0.625
  9
$DIMJUST
 70
     0
  9
$DIMSD1
 70
     0
  9
$DIMSD2
 70
     0
  9
$DIMTOLJ
 70
     0
  9
$DIMTZIN
 70
     8
  9
$DIMALTZ
 70
     0
  9
$DIMALTTZ
 70
     0
  9
$DIMUPT
 70
     0
  9
$DIMDEC
 70
     2
  9
$DIMTDEC
 70
     2
  9
$DIMALTU
 70
     2
  9
$DIMALTTD
 70
     3
  9
$DIMTXSTY
  7
Standard
  9
$DIMAUNIT
 70
     0
  9
$DIMADEC
 70
     0
  9
$DIMALTRND
 40
0.0
  9
$DIMAZIN
 70
     0
  9
$DIMDSEP
 70
    44
  9
$DIMATFIT
 70
     3
  9
$DIMFRAC
 70
     0
  9
$DIMLDRBLK
  1

  9
$DIMLUNIT
 70
     2
  9
$DIMLWD
 70
    -2
  9
$DIMLWE
 70
    -2
  9
$DIMTMOVE
 70
     0
  9
$LUNITS
 70
     2
  9
$LUPREC
 70
     4
  9
$SKETCHINC
 40
1.0
  9
$FILLETRAD
 40
10.0
  9
$AUNITS
 70
     0
  9
$AUPREC
 70
     0
  9
$MENU
  1
.
  9
$ELEVATION
 40
0.0
  9
$PELEVATION
 40
0.0
  9
$THICKNESS
 40
0.0
  9
$LIMCHECK
 70
     0
  9
$CHAMFERA
 40
10.0
  9
$CHAMFERB
 40
10.0
  9
$CHAMFERC
 40
20.0
  9
$CHAMFERD
 40
0.0
  9
$SKPOLY
 70
     0
  9
$TDCREATE
 40
2456223.335852627
  9
$TDUCREATE
 40
2456223.252519294
  9
$TDUPDATE
 40
2456223.335852639
  9
$TDUUPDATE
 40
2456223.252519305
  9
$TDINDWG
 40
0.0000000116
  9
$TDUSRTIMER
 40
0.0000000116
  9
$USRTIMER
 70
     1
  9
$ANGBASE
 50
0.0
  9
$ANGDIR
 70
     0
  9
$PDMODE
 70
     0
  9
$PDSIZE
 40
0.0
  9
$PLINEWID
 40
0.0
  9
$SPLFRAME
 70
     0
  9
$SPLINETYPE
 70
     6
  9
$SPLINESEGS
 70
     8
  9
$HANDSEED
  5
20F
  9
$SURFTAB1
 70
     6
  9
$SURFTAB2
 70
     6
  9
$SURFTYPE
 70
     6
  9
$SURFU
 70
     6
  9
$SURFV
 70
     6
  9
$UCSBASE
  2

  9
$UCSNAME
  2

  9
$UCSORG
 10
0.0
 20
0.0
 30
0.0
  9
$UCSXDIR
 10
1.0
 20
0.0
 30
0.0
  9
$UCSYDIR
 10
0.0
 20
1.0
 30
0.0
  9
$UCSORTHOREF
  2

  9
$UCSORTHOVIEW
 70
     0
  9
$UCSORGTOP
 10
0.0
 20
0.0
 30
0.0
  9
$UCSORGBOTTOM
 10
0.0
 20
0.0
 30
0.0
  9
$UCSORGLEFT
 10
0.0
 20
0.0
 30
0.0
  9
$UCSORGRIGHT
 10
0.0
 20
0.0
 30
0.0
  9
$UCSORGFRONT
 10
0.0
 20
0.0
 30
0.0
  9
$UCSORGBACK
 10
0.0
 20
0.0
 30
0.0
  9
$PUCSBASE
  2

  9
$PUCSNAME
  2

  9
$PUCSORG
 10
0.0
 20
0.0
 30
0.0
  9
$PUCSXDIR
 10
1.0
 20
0.0
 30
0.0
  9
$PUCSYDIR
 10
0.0
 20
1.0
 30
0.0
  9
$PUCSORTHOREF
  2

  9
$PUCSORTHOVIEW
 70
     0
  9
$PUCSORGTOP
 10
0.0
 20
0.0
 30
0.0
  9
$PUCSORGBOTTOM
 10
0.0
 20
0.0
 30
0.0
  9
$PUCSORGLEFT
 10
0.0
 20
0.0
 30
0.0
  9
$PUCSORGRIGHT
 10
0.0
 20
0.0
 30
0.0
  9
$PUCSORGFRONT
 10
0.0
 20
0.0
 30
0.0
  9
$PUCSORGBACK
 10
0.0
 20
0.0
 30
0.0
  9
$USERI1
 70
     0
  9
$USERI2
 70
     0
  9
$USERI3
 70
     0
  9
$USERI4
 70
     0
  9
$USERI5
 70
     0
  9
$USERR1
 40
0.0
  9
$USERR2
 40
0.0
  9
$USERR3
 40
0.0
  9
$USERR4
 40
0.0
  9
$USERR5
 40
0.0
  9
$WORLDVIEW
 70
     1
  9
$SHADEDGE
 70
     3
  9
$SHADEDIF
 70
    70
  9
$TILEMODE
 70
     1
  9
$MAXACTVP
 70
    64
  9
$PINSBASE
 10
0.0
 20
0.0
 30
0.0
  9
$PLIMCHECK
 70
     0
  9
$PEXTMIN
 10
0.0
 20
0.0
 30
0.0
  9
$PEXTMAX
 10
3000.0
 20
4500.0
 30
0.0
  9
$PLIMMIN
 10
0.0
 20
0.0
  9
$PLIMMAX
 10
3000.0
 20
4500.0
  9
$UNITMODE
 70
     0
  9
$VISRETAIN
 70
     1
  9
$PLINEGEN
 70
     0
  9
$PSLTSCALE
 70
     1
  9
$TREEDEPTH
 70
  3020
  9
$CMLSTYLE
  2
Standard
  9
$CMLJUST
 70
     0
  9
$CMLSCALE
 40
20.0
  9
$PROXYGRAPHICS
 70
     1
  9
$MEASUREMENT
 70
     1
  9
$CELWEIGHT
370
    -1
  9
$ENDCAPS
280
     0
  9
$JOINSTYLE
280
     0
  9
$LWDISPLAY
290
     0
  9
$INSUNITS
 70
     4
  9
$HYPERLINKBASE
  1

  9
$STYLESHEET
  1

  9
$XEDIT
290
     1
  9
$CEPSNTYPE
380
     0
  9
$PSTYLEMODE
290
     1
  9
$FINGERPRINTGUID
  2
{70F18C12-3DF7-43E3-826A-F1AAB75EF5A5}
  9
$VERSIONGUID
  2
{FAEB1C32-E019-11D5-929B-00C0DF256EC4}
  9
$EXTNAMES
290
     1
  9
$PSVPSCALE
 40
0.0
  9
$OLESTARTUP
290
     0
  0
ENDSEC
  0
SECTION
  2
CLASSES
  0
CLASS
  1
ACDBDICTIONARYWDFLT
  2
AcDbDictionaryWithDefault
  3
ObjectDBX Classes
 90
        0
280
     0
281
     0
  0
CLASS
  1
VISUALSTYLE
  2
AcDbVisualStyle
  3
ObjectDBX Classes
 90
     4095
280
     0
281
     0
  0
CLASS
  1
SCALE
  2
AcDbScale
  3
ObjectDBX Classes
 90
     1153
280
     0
281
     0
  0
CLASS
  1
DICTIONARYVAR
  2
AcDbDictionaryVar
  3
ObjectDBX Classes
 90
        0
280
     0
281
     0
  0
CLASS
  1
ACDBPLACEHOLDER
  2
AcDbPlaceHolder
  3
ObjectDBX Classes
 90
        0
280
     0
281
     0
  0
CLASS
  1
LAYOUT
  2
AcDbLayout
  3
ObjectDBX Classes
 90
        0
280
     0
281
     0
  0
ENDSEC
  0
SECTION
  2
TABLES
  0
TABLE
  2
VPORT
  5
8
330
0
100
AcDbSymbolTable
 70
     1
  0
VPORT
  5
29
330
8
100
AcDbSymbolTableRecord
100
AcDbViewportTableRecord
  2
*Active
 70
     0
 10
0.0
 20
0.0
 11
1.0
 21
1.0
 12
344.1869158879
 22
148.5
 13
0.0
 23
0.0
 14
10.0
 24
10.0
 15
10.0
 25
10.0
 16
0.0
 26
0.0
 36
1.0
 17
0.0
 27
0.0
 37
0.0
 40
297.0
 41
1.9729729729
 42
50.0
 43
0.0
 44
0.0
 50
0.0
 51
0.0
 71
     0
 72
   100
 73
     1
 74
     3
 75
     0
 76
     0
 77
     0
 78
     0
281
     0
 65
     1
110
0.0
120
0.0
130
0.0
111
1.0
121
0.0
131
0.0
112
0.0
122
1.0
132
0.0
 79
     0
146
0.0
  0
ENDTAB
  0
TABLE
  2
LTYPE
  5
5
330
0
100
AcDbSymbolTable
 70
     2
  0
LTYPE
  5
14
330
5
100
AcDbSymbolTableRecord
100
AcDbLinetypeTableRecord
  2
ByBlock
 70
     0
  3

 72
    65
 73
     0
 40
0.0
  0
LTYPE
  5
15
330
5
100
AcDbSymbolTableRecord
100
AcDbLinetypeTableRecord
  2
ByLayer
 70
     0
  3

 72
    65
 73
     0
 40
0.0
  0
LTYPE
  5
16
330
5
100
AcDbSymbolTableRecord
100
AcDbLinetypeTableRecord
  2
Continuous
 70
     0
  3
Solid line
 72
    65
 73
     0
 40
0.0
  0
LTYPE
  5
60
330
5
100
AcDbSymbolTableRecord
100
AcDbLinetypeTableRecord
  2
CENTER2
 70
     0
  3
Center (.5x) ___ _ ___ _ ___ _ ___ _ ___ _ ___
 72
    65
 73
     4
 40
28.575
 49
19.05
 74
     4
 75
     0
340
0
 46
0.0
 50
0.0
 44
0.0
 45
0.0
 49
-3.175
 74
     4
 75
     0
340
0
 46
0.0
 50
0.0
 44
0.0
 45
0.0
 49
3.175
 74
     4
 75
     0
340
0
 46
0.0
 50
0.0
 44
0.0
 45
0.0
 49
-3.175
 74
     4
 75
     0
340
0
 46
0.0
 50
0.0
 44
0.0
 45
0.0
  0
ENDTAB
  0
TABLE
  2
LAYER
  5
2
330
0
100
AcDbSymbolTable
 70
    12
  0
LAYER
  5
10
330
2
100
AcDbSymbolTableRecord
100
AcDbLayerTableRecord
  2
0
 70
     0
 62
     7
  6
Continuous
370
    -3
390
F
  0
LAYER
  5
5D
330
2
100
AcDbSymbolTableRecord
100
AcDbLayerTableRecord
  2
Default
 70
     0
 62
     7
  6
Continuous
370
    -3
390
F
  0
LAYER
  5
77
330
2
100
AcDbSymbolTableRecord
100
AcDbLayerTableRecord
  2
410575038_VOLUMN
 70
     0
 62
     7
  6
Continuous
370
    -3
390
F
  0
LAYER
  5
90
330
2
100
AcDbSymbolTableRecord
100
AcDbLayerTableRecord
  2
410587038_PBV2_H
 70
     0
 62
     7
  6
Continuous
370
    -3
390
F
  0
LAYER
  5
BF
330
2
100
AcDbSymbolTableRecord
100
AcDbLayerTableRecord
  2
410579031_SLEEVE
 70
     0
 62
     7
  6
Continuous
370
    -3
390
F
  0
LAYER
  5
C5
330
2
100
AcDbSymbolTableRecord
100
AcDbLayerTableRecord
  2
410573038_CAP_CA
 70
     0
 62
     7
  6
Continuous
370
    -3
390
F
  0
LAYER
  5
EC
330
2
100
AcDbSymbolTableRecord
100
AcDbLayerTableRecord
  2
410592040_ESCUTC
 70
     0
 62
     7
  6
Continuous
370
    -3
390
F
  0
LAYER
  5
F8
330
2
100
AcDbSymbolTableRecord
100
AcDbLayerTableRecord
  2
410576038_DECORA
 70
     0
 62
     7
  6
Continuous
370
    -3
390
F
  0
LAYER
  5
106
330
2
100
AcDbSymbolTableRecord
100
AcDbLayerTableRecord
  2
404006038_ELEMEN
 70
     0
 62
     7
  6
Continuous
370
    -3
390
F
  0
LAYER
  5
117
330
2
100
AcDbSymbolTableRecord
100
AcDbLayerTableRecord
  2
410580038_SLEEVE
 70
     0
 62
     7
  6
Continuous
370
    -3
390
F
  0
LAYER
  5
196
330
2
100
AcDbSymbolTableRecord
100
AcDbLayerTableRecord
  2
DV2_Default
 70
     0
 62
     7
  6
Continuous
370
    -3
390
F
  0
LAYER
  5
1F9
330
2
100
AcDbSymbolTableRecord
100
AcDbLayerTableRecord
  2
DV3_Default
 70
     0
 62
     7
  6
Continuous
370
    -3
390
F
  0
ENDTAB
  0
TABLE
  2
STYLE
  5
3
330
0
100
AcDbSymbolTable
 70
     2
  0
STYLE
  5
11
330
3
100
AcDbSymbolTableRecord
100
AcDbTextStyleTableRecord
  2
Standard
 70
     0
 40
0.0
 41
1.0
 50
0.0
 71
     0
 42
2.5
  3
txt
  4

  0
STYLE
  5
1FE
330
3
100
AcDbSymbolTableRecord
100
AcDbTextStyleTableRecord
  2
SEACAD_seiso_ttf
 70
     0
 40
0.0
 41
1.0
 50
0.0
 71
     0
 42
0.2
  3
seiso.ttf
  4

  0
ENDTAB
  0
TABLE
  2
VIEW
  5
6
330
0
100
AcDbSymbolTable
 70
     0
  0
ENDTAB
  0
TABLE
  2
UCS
  5
7
330
0
100
AcDbSymbolTable
 70
     0
  0
ENDTAB
  0
TABLE
  2
APPID
  5
9
330
0
100
AcDbSymbolTable
 70
     1
  0
APPID
  5
12
330
9
100
AcDbSymbolTableRecord
100
AcDbRegAppTableRecord
  2
ACAD
 70
     0
  0
ENDTAB
  0
TABLE
  2
DIMSTYLE
  5
A
330
0
100
AcDbSymbolTable
 70
     1
100
AcDbDimStyleTable
  0
DIMSTYLE
105
27
330
A
100
AcDbSymbolTableRecord
100
AcDbDimStyleTableRecord
  2
ISO-25
 70
     0
 41
2.5
 42
0.625
 43
3.75
 44
1.25
 73
     0
 74
     0
 77
     1
 78
     8
140
2.5
141
2.5
143
0.0393700787
147
0.625
171
     3
172
     1
271
     2
272
     2
274
     3
278
    44
283
     0
284
     8
340
11
  0
ENDTAB
  0
TABLE
  2
BLOCK_RECORD
  5
1
330
0
100
AcDbSymbolTable
 70
     7
  0
BLOCK_RECORD
  5
1F
330
1
100
AcDbSymbolTableRecord
100
AcDbBlockTableRecord
  2
*Model_Space
340
22
  0
BLOCK_RECORD
  5
1B
330
1
100
AcDbSymbolTableRecord
100
AcDbBlockTableRecord
  2
*Paper_Space
340
1E
  0
BLOCK_RECORD
  5
5E
330
1
100
AcDbSymbolTableRecord
100
AcDbBlockTableRecord
  2
SEANNOT_GROUP
340
0
102
{BLKREFS
331
5F
102
}
  0
BLOCK_RECORD
  5
69
330
1
100
AcDbSymbolTableRecord
100
AcDbBlockTableRecord
  2
SEANNOT_GROUP1
340
0
102
{BLKREFS
331
6A
102
}
  0
BLOCK_RECORD
  5
6F
330
1
100
AcDbSymbolTableRecord
100
AcDbBlockTableRecord
  2
SEANNOT_GROUP2
340
0
102
{BLKREFS
331
70
102
}
  0
BLOCK_RECORD
  5
75
330
1
100
AcDbSymbolTableRecord
100
AcDbBlockTableRecord
  2
SE
340
0
102
{BLKREFS
331
76
102
}
  0
BLOCK_RECORD
  5
115
330
1
100
AcDbSymbolTableRecord
100
AcDbBlockTableRecord
  2
SE1
340
0
102
{BLKREFS
331
116
102
}
  0
BLOCK_RECORD
  5
19B
330
1
100
AcDbSymbolTableRecord
100
AcDbBlockTableRecord
  2
SE2
340
0
102
{BLKREFS
331
19C
102
}
  0
ENDTAB
  0
ENDSEC
  0
SECTION
  2
BLOCKS
  0
BLOCK
  5
20
330
1F
100
AcDbEntity
  8
0
100
AcDbBlockBegin
  2
*Model_Space
 70
     0
 10
0.0
 20
0.0
 30
0.0
  3
*Model_Space
  1

  0
ENDBLK
  5
21
330
1F
100
AcDbEntity
  8
0
100
AcDbBlockEnd
  0
BLOCK
  5
1C
330
1B
100
AcDbEntity
 67
     1
  8
0
100
AcDbBlockBegin
  2
*Paper_Space
 70
     0
 10
0.0
 20
0.0
 30
0.0
  3
*Paper_Space
  1

  0
ENDBLK
  5
1D
330
1B
100
AcDbEntity
 67
     1
  8
0
100
AcDbBlockEnd
  0
BLOCK
  5
67
330
5E
100
AcDbEntity
  8
0
100
AcDbBlockBegin
  2
SEANNOT_GROUP
 70
     0
 10
0.0
 20
0.0
 30
0.0
  3
SEANNOT_GROUP
  1

  0
LINE
  5
61
330
5E
100
AcDbEntity
  8
Default
  6
CENTER2
 62
     7
100
AcDbLine
 10
115.358454378
 20
344.1907633013
 30
0.0
 11
75.3584552721
 21
344.1907633013
 31
0.0
  0
LINE
  5
62
330
5E
100
AcDbEntity
  8
Default
  6
CENTER2
 62
     7
100
AcDbLine
 10
95.358454825
 20
364.1907628543
 30
0.0
 11
95.358454825
 21
324.1907637483
 31
0.0
  0
LINE
  5
63
330
5E
100
AcDbEntity
  8
Default
  6
CENTER2
 62
     7
100
AcDbLine
 10
120.3584542662
 20
344.1907633013
 30
0.0
 11
95.358454825
 21
344.1907633013
 31
0.0
  0
LINE
  5
64
330
5E
100
AcDbEntity
  8
Default
  6
CENTER2
 62
     7
100
AcDbLine
 10
95.358454825
 20
369.1907627425
 30
0.0
 11
95.358454825
 21
344.1907633013
 31
0.0
  0
LINE
  5
65
330
5E
100
AcDbEntity
  8
Default
  6
CENTER2
 62
     7
100
AcDbLine
 10
70.3584553838
 20
344.1907633013
 30
0.0
 11
95.358454825
 21
344.1907633013
 31
0.0
  0
LINE
  5
66
330
5E
100
AcDbEntity
  8
Default
  6
CENTER2
 62
     7
100
AcDbLine
 10
95.358454825
 20
319.1907638601
 30
0.0
 11
95.358454825
 21
344.1907633013
 31
0.0
  0
ENDBLK
  5
68
330
5E
100
AcDbEntity
  8
0
100
AcDbBlockEnd
  0
BLOCK
  5
6D
330
69
100
AcDbEntity
  8
0
100
AcDbBlockBegin
  2
SEANNOT_GROUP1
 70
     0
 10
0.0
 20
0.0
 30
0.0
  3
SEANNOT_GROUP1
  1

  0
LINE
  5
6B
330
69
100
AcDbEntity
  8
Default
  6
CENTER2
 62
     7
100
AcDbLine
 10
115.3584554694
 20
192.1302313007
 30
0.0
 11
75.3584563635
 21
192.1302313007
 31
0.0
  0
LINE
  5
6C
330
69
100
AcDbEntity
  8
Default
  6
CENTER2
 62
     7
100
AcDbLine
 10
95.3584559165
 20
212.1302308536
 30
0.0
 11
95.3584559165
 21
172.1302317477
 31
0.0
  0
ENDBLK
  5
6E
330
69
100
AcDbEntity
  8
0
100
AcDbBlockEnd
  0
BLOCK
  5
73
330
6F
100
AcDbEntity
  8
0
100
AcDbBlockBegin
  2
SEANNOT_GROUP2
 70
     0
 10
0.0
 20
0.0
 30
0.0
  3
SEANNOT_GROUP2
  1

  0
LINE
  5
71
330
6F
100
AcDbEntity
  8
Default
  6
CENTER2
 62
     7
100
AcDbLine
 10
272.9022355154
 20
344.1907641116
 30
0.0
 11
232.9022364095
 21
344.1907641116
 31
0.0
  0
LINE
  5
72
330
6F
100
AcDbEntity
  8
Default
  6
CENTER2
 62
     7
100
AcDbLine
 10
252.9022359625
 20
364.1907636645
 30
0.0
 11
252.9022359625
 21
324.1907645586
 31
0.0
  0
ENDBLK
  5
74
330
6F
100
AcDbEntity
  8
0
100
AcDbBlockEnd
  0
BLOCK
  5
113
330
75
100
AcDbEntity
  8
0
100
AcDbBlockBegin
  2
SE
 70
     0
 10
0.0
 20
0.0
 30
0.0
  3
SE
  1

  0
LINE
  5
78
330
75
100
AcDbEntity
  8
410575038_VOLUMN
  6
Continuous
 62
     7
100
AcDbLine
 10
91.3040491
 20
259.1039627228
 30
0.0
 11
99.4128445934
 21
259.1039627228
 31
0.0
  0
LINE
  5
79
330
75
100
AcDbEntity
  8
410575038_VOLUMN
  6
Continuous
 62
     7
100
AcDbLine
 10
90.8451933783
 20
259.1039627228
 30
0.0
 11
90.3935898824
 21
259.1039627228
 31
0.0
  0
LINE
  5
7A
330
75
100
AcDbEntity
  8
410575038_VOLUMN
  6
Continuous
 62
     7
100
AcDbLine
 10
99.4128445934
 20
259.1039627228
 30
0.0
 11
99.5817686099
 21
259.1039627228
 31
0.0
  0
LINE
  5
7B
330
75
100
AcDbEntity
  8
410575038_VOLUMN
  6
Continuous
 62
     7
100
AcDbLine
 10
91.1351357403
 20
259.1039627228
 30
0.0
 11
91.3040491
 21
259.1039627228
 31
0.0
  0
LINE
  5
7C
330
75
100
AcDbEntity
  8
410575038_VOLUMN
  6
Continuous
 62
     7
100
AcDbLine
 10
100.3228099506
 20
259.1039627228
 30
0.0
 11
99.8716363467
 21
259.1039627228
 31
0.0
  0
ARC
  5
7D
330
75
100
AcDbEntity
  8
410575038_VOLUMN
  6
Continuous
 62
     7
100
AcDbCircle
 10
146.7784548347
 20
344.1907631582
 30
0.0
 40
83.5831695810907
100
AcDbArc
 50
160.885614062
 51
199.114385938
  0
ARC
  5
7E
330
75
100
AcDbEntity
  8
410575038_VOLUMN
  6
Continuous
 62
     7
100
AcDbCircle
 10
95.3584548347
 20
292.7707631582
 30
0.0
 40
83.58316958109073
100
AcDbArc
 50
70.885614062
 51
109.114385938
  0
ARC
  5
7F
330
75
100
AcDbEntity
  8
410575038_VOLUMN
  6
Continuous
 62
     7
100
AcDbCircle
 10
43.9384548347
 20
344.1907631582
 30
0.0
 40
83.58316958109073
100
AcDbArc
 50
340.885614062
 51
19.114385938
  0
ARC
  5
80
330
75
100
AcDbEntity
  8
410575038_VOLUMN
  6
Continuous
 62
     7
100
AcDbCircle
 10
122.6299262187
 20
316.9193013489
 30
0.0
 40
0.3000421600318151
100
AcDbArc
 50
289.1179141496
 51
314.9987071399
  0
ARC
  5
81
330
75
100
AcDbEntity
  8
410575038_VOLUMN
  6
Continuous
 62
     7
100
AcDbCircle
 10
122.6299166439
 20
316.9192917742
 30
0.0
 40
0.300042160031683
100
AcDbArc
 50
315.0012928601
 51
340.8820858504
  0
ARC
  5
82
330
75
100
AcDbEntity
  8
410575038_VOLUMN
  6
Continuous
 62
     7
100
AcDbCircle
 10
68.0869930254
 20
316.9192917742
 30
0.0
 40
0.3000421600315412
100
AcDbArc
 50
199.1179141495
 51
224.9987071399
  0
ARC
  5
83
330
75
100
AcDbEntity
  8
410575038_VOLUMN
  6
Continuous
 62
     7
100
AcDbCircle
 10
68.0869834507
 20
316.9193013489
 30
0.0
 40
0.3000421600313002
100
AcDbArc
 50
225.0012928601
 51
250.8820858505
  0
ARC
  5
84
330
75
100
AcDbEntity
  8
410575038_VOLUMN
  6
Continuous
 62
     7
100
AcDbCircle
 10
122.6299166439
 20
371.4622345421
 30
0.0
 40
0.3000421600315013
100
AcDbArc
 50
19.1179141496
 51
44.9987071399
  0
ARC
  5
85
330
75
100
AcDbEntity
  8
410575038_VOLUMN
  6
Continuous
 62
     7
100
AcDbCircle
 10
122.6299262187
 20
371.4622249674
 30
0.0
 40
0.3000421600316273
100
AcDbArc
 50
45.0012928601
 51
70.8820858504
  0
ARC
  5
86
330
75
100
AcDbEntity
  8
410575038_VOLUMN
  6
Continuous
 62
     7
100
AcDbCircle
 10
68.0878767538
 20
371.461681076
 30
0.0
 40
0.3010585058833432
100
AcDbArc
 50
135.0457327606
 51
160.8376459499
  0
ARC
  5
87
330
75
100
AcDbEntity
  8
410575038_VOLUMN
  6
Continuous
 62
     7
100
AcDbCircle
 10
68.0875369168
 20
371.461341239
 30
0.0
 40
0.3010585058831026
100
AcDbArc
 50
109.1623540501
 51
134.9542672394
  0
ARC
  5
88
330
75
100
AcDbEntity
  8
410575038_VOLUMN
  6
Continuous
 62
     7
100
AcDbCircle
 10
-981.4698202773
 20
307.2315604302
 30
0.0
 40
1072.626126196277
100
AcDbArc
 50
357.4450488916
 51
0.2157092693
  0
ARC
  5
89
330
75
100
AcDbEntity
  8
410575038_VOLUMN
  6
Continuous
 62
     7
100
AcDbCircle
 10
90.3934505822
 20
259.4038784714
 30
0.0
 40
0.29991578091417
100
AcDbArc
 50
177.4847338651
 51
270.0266118408
  0
ARC
  5
8A
330
75
100
AcDbEntity
  8
410575038_VOLUMN
  6
Continuous
 62
     7
100
AcDbCircle
 10
1164.2215493609
 20
307.0283371806
 30
0.0
 40
1064.662957481562
100
AcDbArc
 50
179.7717494726
 51
182.5631301594
  0
ARC
  5
8B
330
75
100
AcDbEntity
  8
410575038_VOLUMN
  6
Continuous
 62
     7
100
AcDbCircle
 10
100.3234518923
 20
259.4038784714
 30
0.0
 40
0.2999157809140509
100
AcDbArc
 50
269.9733881589
 51
2.5152661345
  0
SPLINE
  5
8C
330
75
100
AcDbEntity
  8
410575038_VOLUMN
  6
Continuous
 62
     7
100
AcDbSpline
210
0.0
220
0.0
230
1.0
 70
     8
 71
     3
 72
    15
 73
    11
 74
     0
 42
0.0000000037977089
 43
0.0000000001
 40
0.4758956750974667
 40
0.4758956750974667
 40
0.4758956750974667
 40
0.4758956750974667
 40
0.5549750251716881
 40
0.6376487011680575
 40
0.6812708519222042
 40
0.7274146051560088
 40
0.7979670575201631
 40
0.8740358338289587
 40
0.9614773882617828
 40
1.0
 40
1.0
 40
1.0
 40
1.0
 10
90.35497270171773
 20
312.2483232213112
 30
0.0
 10
90.35489967860306
 20
312.2482936890307
 30
0.0
 10
90.36320644532013
 20
312.2468732024224
 30
0.0
 10
90.40981458854759
 20
312.2385066457509
 30
0.0
 10
90.52502874086753
 20
312.2019070802002
 30
0.0
 10
90.68364664640788
 20
312.1274805594987
 30
0.0
 10
90.87896872527227
 20
311.9786125600602
 30
0.0
 10
91.05363775886327
 20
311.7366444150521
 30
0.0
 10
91.1521583596331
 20
311.4784270834506
 30
0.0
 10
91.1409147324101
 20
311.3256405314102
 30
0.0
 10
91.13632392476187
 20
311.2713232838027
 30
0.0
  0
SPLINE
  5
8D
330
75
100
AcDbEntity
  8
410575038_VOLUMN
  6
Continuous
 62
     7
100
AcDbSpline
210
0.0
220
0.0
230
1.0
 70
     8
 71
     3
 72
    17
 73
    13
 74
     0
 42
0.0000000031998094
 43
0.0000000001
 40
0.0
 40
0.0
 40
0.0
 40
0.0
 40
0.0192985676213773
 40
0.0934283834636525
 40
0.1535493591802201
 40
0.2048861047985084
 40
0.2475082150453469
 40
0.2802663926227081
 40
0.3094845748873433
 40
0.3472873497656827
 40
0.4133699788113092
 40
0.4410126500450676
 40
0.4410126500450676
 40
0.4410126500450676
 40
0.4410126500450676
 10
99.57688005407896
 20
311.2735627940134
 30
0.0
 10
99.57282843269225
 20
311.3055183575175
 30
0.0
 10
99.55673474704486
 20
311.4387434729013
 30
0.0
 10
99.63668902686442
 20
311.6761704974099
 30
0.0
 10
99.78320839426065
 20
311.9133087337129
 30
0.0
 10
99.95309221442204
 20
312.0718996813834
 30
0.0
 10
100.1077293963038
 20
312.1649636771887
 30
0.0
 10
100.2197012952111
 20
312.2109392439299
 30
0.0
 10
100.2916301785778
 20
312.2330346296782
 30
0.0
 10
100.3443523291422
 20
312.2454712387049
 30
0.0
 10
100.3607874121819
 20
312.2481366453673
 30
0.0
 10
100.3632826962237
 20
312.2485292835763
 30
0.0
 10
100.3633239894526
 20
312.2485384899406
 30
0.0
  0
ARC
  5
8E
330
75
100
AcDbEntity
  8
410575038_VOLUMN
  6
Continuous
 62
     7
100
AcDbCircle
 10
95.3584548347
 20
395.6107631582
 30
0.0
 40
83.58318100417148
100
AcDbArc
 50
250.8853726033
 51
266.8124653029
  0
ARC
  5
8F
330
75
100
AcDbEntity
  8
410575038_VOLUMN
  6
Continuous
 62
     7
100
AcDbCircle
 10
95.3584548347
 20
395.6107631582
 30
0.0
 40
83.58318100417148
100
AcDbArc
 50
273.1090471292
 51
289.1146229369
  0
SPLINE
  5
91
330
75
100
AcDbEntity
  8
410587038_PBV2_H
  6
Continuous
 62
     7
100
AcDbSpline
210
0.0
220
0.0
230
1.0
 70
     8
 71
     3
 72
    26
 73
    22
 74
     0
 42
0.0000000001798041
 43
0.0000000001
 40
0.0
 40
0.0
 40
0.0
 40
0.0
 40
0.0287320410088411
 40
0.0287320410088411
 40
0.0601507315252638
 40
0.0601507315252638
 40
0.1229881125581092
 40
0.1229881125581092
 40
0.2486628746238
 40
0.2486628746238
 40
0.5000123987551814
 40
0.5000123987551814
 40
0.7513619228865631
 40
0.7513619228865631
 40
0.8770366849522538
 40
0.8770366849522538
 40
0.9398740659850993
 40
0.9398740659850993
 40
0.9712927565015219
 40
0.9712927565015219
 40
1.0
 40
1.0
 40
1.0
 40
1.0
 10
67.87448379102442
 20
371.4832493357306
 30
0.0
 10
67.70575682699223
 20
370.9783092344238
 30
0.0
 10
67.53625554067658
 20
370.4737629634683
 30
0.0
 10
67.19355705382345
 20
369.4134283328373
 30
0.0
 10
67.02196697874105
 20
368.8571711901424
 30
0.0
 10
66.523944290699
 20
367.1834367471731
 30
0.0
 10
66.21450536967305
 20
366.0609294151107
 30
0.0
 10
65.35905003453097
 20
362.674818441825
 30
0.0
 10
64.88334819040998
 20
360.3935272150831
 30
0.0
 10
63.74168997148352
 20
353.5023482299819
 30
0.0
 10
63.36095378356088
 20
348.8452304697829
 30
0.0
 10
63.36122936814542
 20
339.5317297798003
 30
0.0
 10
63.74221605268534
 20
334.8750283186525
 30
0.0
 10
64.88417904612665
 20
327.9840931307655
 30
0.0
 10
65.35990386870935
 20
325.7028511304796
 30
0.0
 10
66.21562940412751
 20
322.3168841584273
 30
0.0
 10
66.52452648364267
 20
321.1942049023315
 30
0.0
 10
67.02337799760528
 20
319.5207803282062
 30
0.0
 10
67.19554136422002
 20
318.9647226680515
 30
0.0
 10
67.53610189883132
 20
317.9041666491813
 30
0.0
 10
67.70623874272418
 20
317.4003131179422
 30
0.0
 10
67.87567558657189
 20
316.8961015354787
 30
0.0
  0
SPLINE
  5
92
330
75
100
AcDbEntity
  8
410587038_PBV2_H
  6
Continuous
 62
     7
100
AcDbSpline
210
0.0
220
0.0
230
1.0
 70
     8
 71
     3
 72
    26
 73
    22
 74
     0
 42
0.0000000001798005
 43
0.0000000001
 40
0.0
 40
0.0
 40
0.0
 40
0.0
 40
0.0287081393482942
 40
0.0287081393482942
 40
0.0601276014263812
 40
0.0601276014263812
 40
0.1229665255825551
 40
0.1229665255825551
 40
0.2486443738949029
 40
0.2486443738949029
 40
0.5000000705195984
 40
0.5000000705195984
 40
0.7513557671442941
 40
0.7513557671442941
 40
0.8770336154566418
 40
0.8770336154566418
 40
0.9398725396128158
 40
0.9398725396128158
 40
0.9712920016909027
 40
0.9712920016909027
 40
1.0
 40
1.0
 40
1.0
 40
1.0
 10
68.06495412626064
 20
316.7071383825443
 30
0.0
 10
68.5694786290735
 20
316.5385322402984
 30
0.0
 10
69.07360551108397
 20
316.3691434081015
 30
0.0
 10
70.13355358178057
 20
316.0265677652512
 30
0.0
 10
70.6898340066829
 20
315.8549676850564
 30
0.0
 10
72.3636207035504
 20
315.3568532693261
 30
0.0
 10
73.4861720948902
 20
315.0473805994156
 30
0.0
 10
76.87241030061601
 20
314.1918007432154
 30
0.0
 10
79.15379063668118
 20
313.7160225759191
 30
0.0
 10
86.045249390458
 20
312.5741641918899
 30
0.0
 10
90.70256906177909
 20
312.1933281572809
 30
0.0
 10
100.0164829295273
 20
312.1934715868753
 30
0.0
 10
104.6733948874404
 20
312.5744259313591
 30
0.0
 10
111.5646421149838
 20
313.7163907378804
 30
0.0
 10
113.8459874402405
 20
314.1921243762375
 30
0.0
 10
117.2321064735994
 20
315.0478762646046
 30
0.0
 10
118.3548349965271
 20
315.3567870764235
 30
0.0
 10
120.0283357812288
 20
315.8556528588227
 30
0.0
 10
120.584414558543
 20
316.0278338090817
 30
0.0
 10
121.6450214656222
 20
316.3683992148893
 30
0.0
 10
122.1488981668124
 20
316.538543040089
 30
0.0
 10
122.653130600801
 20
316.7079943772276
 30
0.0
  0
ARC
  5
93
330
75
100
AcDbEntity
  8
410587038_PBV2_H
  6
Continuous
 62
     7
100
AcDbCircle
 10
95.3584594062
 20
291.4415723639
 30
0.0
 40
84.74683139132568
100
AcDbArc
 50
71.2105325965
 51
88.9895712699
  0
ARC
  5
94
330
75
100
AcDbEntity
  8
410587038_PBV2_H
  6
Continuous
 62
     7
100
AcDbCircle
 10
95.3584594062
 20
291.4415723639
 30
0.0
 40
84.74683139132568
100
AcDbArc
 50
91.0129906938
 51
108.7898449402
  0
SPLINE
  5
95
330
75
100
AcDbEntity
  8
410587038_PBV2_H
  6
Continuous
 62
     7
100
AcDbSpline
210
0.0
220
0.0
230
1.0
 70
     8
 71
     3
 72
    26
 73
    22
 74
     0
 42
0.0000000001798058
 43
0.0000000001
 40
0.0
 40
0.0
 40
0.0
 40
0.0
 40
0.028707041890812
 40
0.028707041890812
 40
0.0601255550227925
 40
0.0601255550227925
 40
0.1229625812867535
 40
0.1229625812867535
 40
0.2486366338146755
 40
0.2486366338146755
 40
0.4999847388705196
 40
0.4999847388705196
 40
0.7513328439263638
 40
0.7513328439263638
 40
0.8770068964542859
 40
0.8770068964542859
 40
0.9398439227182469
 40
0.9398439227182469
 40
0.9712624358502274
 40
0.9712624358502274
 40
1.0
 40
1.0
 40
1.0
 40
1.0
 10
122.8420932299998
 20
316.89728142682
 30
0.0
 10
123.0106706812756
 20
317.4017777898458
 30
0.0
 10
123.1800254089569
 20
317.9058794892423
 30
0.0
 10
123.5226144859159
 20
318.9657474496184
 30
0.0
 10
123.6942217417976
 20
319.5219899972592
 30
0.0
 10
124.1922840994318
 20
321.1956845373041
 30
0.0
 10
124.501753231354
 20
322.3181649223489
 30
0.0
 10
125.3572986448146
 20
325.7041975420174
 30
0.0
 10
125.8330633852206
 20
327.9854389147393
 30
0.0
 10
126.9749197887949
 20
334.8764758339384
 30
0.0
 10
127.3558000982891
 20
339.5335087395638
 30
0.0
 10
127.355836162195
 20
348.8468665804223
 30
0.0
 10
126.9750170561737
 20
353.5035086167361
 30
0.0
 10
125.8333226299235
 20
360.3943791588734
 30
0.0
 10
125.3576902094108
 20
362.6756036422133
 30
0.0
 10
124.502107287603
 20
366.0615511138133
 30
0.0
 10
124.1932579256625
 20
367.1842248342452
 30
0.0
 10
123.6944806248426
 20
368.8576434771024
 30
0.0
 10
123.5223388681041
 20
369.413698364546
 30
0.0
 10
123.1816567860097
 20
370.4747904732233
 30
0.0
 10
123.011358935482
 20
370.9791773394937
 30
0.0
 10
122.8417421892341
 20
371.4839148602109
 30
0.0
  0
ARC
  5
96
330
75
100
AcDbEntity
  8
410587038_PBV2_H
  6
Continuous
 62
     7
100
AcDbCircle
 10
122.5575507984
 20
316.9923732719
 30
0.0
 40
0.3000114237465252
100
AcDbArc
 50
288.5775068193
 51
341.5207770168
  0
ARC
  5
97
330
75
100
AcDbEntity
  8
410587038_PBV2_H
  6
Continuous
 62
     7
100
AcDbCircle
 10
122.557362522
 20
371.3883373564
 30
0.0
 40
0.3000114237361175
100
AcDbArc
 50
18.5770437088
 51
71.0664275964
  0
ARC
  5
98
330
75
100
AcDbEntity
  8
410587038_PBV2_H
  6
Continuous
 62
     7
100
AcDbCircle
 10
68.1600557564
 20
316.9916775439
 30
0.0
 40
0.3000114237467402
100
AcDbArc
 50
198.5767424163
 51
251.5188066786
  0
ARC
  5
99
330
75
100
AcDbEntity
  8
410587038_PBV2_H
  6
Continuous
 62
     7
100
AcDbCircle
 10
68.159026041
 20
371.3881569471
 30
0.0
 40
0.300011423735877
100
AcDbArc
 50
108.9332513291
 51
161.5206675774
  0
ARC
  5
9A
330
75
100
AcDbEntity
  8
410587038_PBV2_H
  6
Continuous
 62
     7
100
AcDbCircle
 10
96.7481724475
 20
384.0518186405
 30
0.0
 40
7.918264344091687
100
AcDbArc
 50
269.1414470667
 51
270.0665555996
  0
SPLINE
  5
9B
330
75
100
AcDbEntity
  8
410587038_PBV2_H
  6
Continuous
 62
     7
100
AcDbSpline
210
0.0
220
0.0
230
1.0
 70
     8
 71
     3
 72
    12
 73
     8
 74
     0
 42
0.0000000242524808
 43
0.0000000001
 40
0.0
 40
0.0
 40
0.0
 40
0.0
 40
0.5
 40
0.5
 40
0.75
 40
0.75
 40
1.0
 40
1.0
 40
1.0
 40
1.0
 10
96.75737833709852
 20
376.1557381969848
 30
0.0
 10
96.89281334840446
 20
376.1499176441046
 30
0.0
 10
96.96032032221305
 20
376.1448792930793
 30
0.0
 10
96.96063386526102
 20
376.1392045042732
 30
0.0
 10
96.94339911281236
 20
376.137646570981
 30
0.0
 10
96.87562325032162
 20
376.1351748136933
 30
0.0
 10
96.82509518791258
 20
376.1342511292358
 30
0.0
 10
96.7573704149333
 20
376.1335596386984
 30
0.0
  0
ARC
  5
9C
330
75
100
AcDbEntity
  8
410587038_PBV2_H
  6
Continuous
 62
     7
100
AcDbCircle
 10
96.5283712325
 20
369.3790482389
 30
0.0
 40
6.780558313472337
100
AcDbArc
 50
88.0645197975
 51
89.1446524521
  0
ARC
  5
9D
330
75
100
AcDbEntity
  8
410587038_PBV2_H
  6
Continuous
 62
     7
100
AcDbCircle
 10
95.3586943612
 20
304.2773960085
 30
0.0
 40
71.89268913881432
100
AcDbArc
 50
88.9870894997
 51
91.0132912127
  0
ARC
  5
9E
330
75
100
AcDbEntity
  8
410587038_PBV2_H
  6
Continuous
 62
     7
100
AcDbCircle
 10
94.1885845401
 20
369.3790386639
 30
0.0
 40
6.780560109106254
100
AcDbArc
 50
90.8557249072
 51
91.9358589023
  0
SPLINE
  5
9F
330
75
100
AcDbEntity
  8
410587038_PBV2_H
  6
Continuous
 62
     7
100
AcDbSpline
210
0.0
220
0.0
230
1.0
 70
     8
 71
     3
 72
    12
 73
     8
 74
     0
 42
0.0000000242492355
 43
0.0000000001
 40
0.0
 40
0.0
 40
0.0
 40
0.0
 40
0.5
 40
0.5
 40
0.75
 40
0.75
 40
1.0
 40
1.0
 40
1.0
 40
1.0
 10
93.95953660809829
 20
376.1335502803098
 30
0.0
 10
93.8240878236852
 20
376.1349323694828
 30
0.0
 10
93.75658422415744
 20
376.1372759624207
 30
0.0
 10
93.75627734041109
 20
376.1429391201929
 30
0.0
 10
93.77351420577877
 20
376.1451539388863
 30
0.0
 10
93.841289383113
 20
376.1500883412417
 30
0.0
 10
93.89181468222704
 20
376.1528181699098
 30
0.0
 10
93.95953258385296
 20
376.1557289028777
 30
0.0
  0
ARC
  5
A0
330
75
100
AcDbEntity
  8
410587038_PBV2_H
  6
Continuous
 62
     7
100
AcDbCircle
 10
93.9686818921
 20
384.0518021956
 30
0.0
 40
7.918257196551511
100
AcDbArc
 50
269.9338255526
 51
270.8589335141
  0
ARC
  5
A1
330
75
100
AcDbEntity
  8
410587038_PBV2_H
  6
Continuous
 62
     7
100
AcDbCircle
 10
95.3588051776
 20
271.0520819165
 30
0.0
 40
105.0900442152458
100
AcDbArc
 50
89.3071783257
 51
90.6932052728
  0
ELLIPSE
  5
A2
330
75
100
AcDbEntity
  8
410587038_PBV2_H
  6
Continuous
 62
     7
100
AcDbEllipse
 10
96.7557405289
 20
376.055755424
 30
0.0
 11
0.004296819815993291
 21
0.0999076440492408
 31
0.0
210
0.0
220
0.0
230
1.0
 40
0.950096271
 41
0.027998547743899
 42
0.693166777727102
  0
ARC
  5
A3
330
75
100
AcDbEntity
  8
410587038_PBV2_H
  6
Continuous
 62
     7
100
AcDbCircle
 10
95.3582366035
 20
396.9560896767
 30
0.0
 40
82.71438348274758
100
AcDbArc
 50
251.8827230259
 51
288.1549151971
  0
ARC
  5
A4
330
75
100
AcDbEntity
  8
410587038_PBV2_H
  6
Continuous
 62
     7
100
AcDbCircle
 10
121.0669925668
 20
318.5505786961
 30
0.0
 40
0.201574523175231
100
AcDbArc
 50
288.5107043067
 51
341.5608267503
  0
ARC
  5
A5
330
75
100
AcDbEntity
  8
410587038_PBV2_H
  6
Continuous
 62
     7
100
AcDbCircle
 10
69.7009925779
 20
318.5337088789
 30
0.0
 40
0.2015763697635747
100
AcDbArc
 50
198.471181106
 51
251.5268221007
  0
ARC
  5
A6
330
75
100
AcDbEntity
  8
410587038_PBV2_H
  6
Continuous
 62
     7
100
AcDbCircle
 10
42.5678640834
 20
344.1905521875
 30
0.0
 40
82.78196439338114
100
AcDbArc
 50
341.9106847743
 51
18.1271591708
  0
ARC
  5
A7
330
75
100
AcDbEntity
  8
410587038_PBV2_H
  6
Continuous
 62
     7
100
AcDbCircle
 10
148.1273962416
 20
344.1905786541
 30
0.0
 40
82.71809058424611
100
AcDbArc
 50
161.8460444507
 51
198.116159235
  0
ARC
  5
A8
330
75
100
AcDbEntity
  8
410587038_PBV2_H
  6
Continuous
 62
     7
100
AcDbCircle
 10
121.0500419901
 20
369.8823690909
 30
0.0
 40
0.2015727605283183
100
AcDbArc
 50
18.4771184462
 51
71.5221348935
  0
ARC
  5
A9
330
75
100
AcDbEntity
  8
410587038_PBV2_H
  6
Continuous
 62
     7
100
AcDbCircle
 10
69.717931701
 20
369.8991749499
 30
0.0
 40
0.201574610029114
100
AcDbArc
 50
108.439025342
 51
161.4898212972
  0
ARC
  5
AA
330
75
100
AcDbEntity
  8
410587038_PBV2_H
  6
Continuous
 62
     7
100
AcDbCircle
 10
95.3582880492
 20
291.4051444536
 30
0.0
 40
82.7772373707981
100
AcDbArc
 50
71.8718137311
 51
108.0906624167
  0
ARC
  5
AB
330
75
100
AcDbEntity
  8
410587038_PBV2_H
  6
Continuous
 62
     7
100
AcDbCircle
 10
95.3582858609
 20
291.3984616949
 30
0.0
 40
82.78358912291691
100
AcDbArc
 50
103.5452505193
 51
107.569004928
  0
ARC
  5
AC
330
75
100
AcDbEntity
  8
410587038_PBV2_H
  6
Continuous
 62
     7
100
AcDbCircle
 10
95.3582858609
 20
291.3984616949
 30
0.0
 40
82.78358912291691
100
AcDbArc
 50
71.873251407
 51
80.9840289109
  0
ARC
  5
AD
330
75
100
AcDbEntity
  8
410587038_PBV2_H
  6
Continuous
 62
     7
100
AcDbCircle
 10
42.5602428363
 20
344.1905496706
 30
0.0
 40
82.78920820246152
100
AcDbArc
 50
13.5818865784
 51
17.6063258793
  0
ARC
  5
AE
330
75
100
AcDbEntity
  8
410587038_PBV2_H
  6
Continuous
 62
     7
100
AcDbCircle
 10
42.5602428363
 20
344.1905496706
 30
0.0
 40
82.78920820246152
100
AcDbArc
 50
341.912324134
 51
351.0223935491
  0
ARC
  5
AF
330
75
100
AcDbEntity
  8
410587038_PBV2_H
  6
Continuous
 62
     7
100
AcDbCircle
 10
95.3582319041
 20
396.9703971863
 30
0.0
 40
82.72798031320877
100
AcDbArc
 50
283.6063950937
 51
287.6236520396
  0
ARC
  5
B0
330
75
100
AcDbEntity
  8
410587038_PBV2_H
  6
Continuous
 62
     7
100
AcDbCircle
 10
95.3582319041
 20
396.9703971863
 30
0.0
 40
82.72798031320877
100
AcDbArc
 50
251.8858074834
 51
261.0099872339
  0
ARC
  5
B1
330
75
100
AcDbEntity
  8
410587038_PBV2_H
  6
Continuous
 62
     7
100
AcDbCircle
 10
148.140627958
 20
344.1905742898
 30
0.0
 40
82.73066512440062
100
AcDbArc
 50
193.5680455154
 51
197.5846837665
  0
ARC
  5
B2
330
75
100
AcDbEntity
  8
410587038_PBV2_H
  6
Continuous
 62
     7
100
AcDbCircle
 10
148.140627958
 20
344.1905742898
 30
0.0
 40
82.73066512440062
100
AcDbArc
 50
161.8488967349
 51
170.9726768844
  0
ARC
  5
B3
330
75
100
AcDbEntity
  8
410587038_PBV2_H
  6
Continuous
 62
     7
100
AcDbCircle
 10
95.3582433575
 20
396.9354810719
 30
0.0
 40
82.66551043310606
100
AcDbArc
 50
251.8785679033
 51
253.2356886527
  0
ARC
  5
B4
330
75
100
AcDbEntity
  8
410587038_PBV2_H
  6
Continuous
 62
     7
100
AcDbCircle
 10
95.3582433575
 20
396.9354810719
 30
0.0
 40
82.66551043310606
100
AcDbArc
 50
286.8838980793
 51
288.1590713023
  0
ARC
  5
B5
330
75
100
AcDbEntity
  8
410587038_PBV2_H
  6
Continuous
 62
     7
100
AcDbCircle
 10
148.1062846424
 20
344.1905856508
 30
0.0
 40
82.66873941956959
100
AcDbArc
 50
161.8417813915
 51
163.1989605572
  0
ARC
  5
B6
330
75
100
AcDbEntity
  8
410587038_PBV2_H
  6
Continuous
 62
     7
100
AcDbCircle
 10
148.1062846424
 20
344.1905856508
 30
0.0
 40
82.66873941956959
100
AcDbArc
 50
165.2286315679
 51
166.8750208346
  0
ARC
  5
B7
330
75
100
AcDbEntity
  8
410587038_PBV2_H
  6
Continuous
 62
     7
100
AcDbCircle
 10
148.1062846424
 20
344.1905856508
 30
0.0
 40
82.66873941956959
100
AcDbArc
 50
167.2676616956
 51
167.9783554643
  0
ARC
  5
B8
330
75
100
AcDbEntity
  8
410587038_PBV2_H
  6
Continuous
 62
     7
100
AcDbCircle
 10
148.1062846424
 20
344.1905856508
 30
0.0
 40
82.66873941956959
100
AcDbArc
 50
195.4817968065
 51
198.1204238643
  0
ARC
  5
B9
330
75
100
AcDbEntity
  8
410587038_PBV2_H
  6
Continuous
 62
     7
100
AcDbCircle
 10
95.3582960426
 20
291.4294663222
 30
0.0
 40
82.72483207799696
100
AcDbArc
 50
71.8668673885
 51
73.2898792871
  0
ARC
  5
BA
330
75
100
AcDbEntity
  8
410587038_PBV2_H
  6
Continuous
 62
     7
100
AcDbCircle
 10
95.3582960426
 20
291.4294663222
 30
0.0
 40
82.72483207799696
100
AcDbArc
 50
75.2540788633
 51
78.0110110749
  0
ARC
  5
BB
330
75
100
AcDbEntity
  8
410587038_PBV2_H
  6
Continuous
 62
     7
100
AcDbCircle
 10
95.3582960426
 20
291.4294663222
 30
0.0
 40
82.72483207799696
100
AcDbArc
 50
105.5151389906
 51
108.0956103983
  0
ARC
  5
BC
330
75
100
AcDbEntity
  8
410587038_PBV2_H
  6
Continuous
 62
     7
100
AcDbCircle
 10
42.5919228418
 20
344.1905601244
 30
0.0
 40
82.72980902212977
100
AcDbArc
 50
341.9057956867
 51
343.3288807382
  0
ARC
  5
BD
330
75
100
AcDbEntity
  8
410587038_PBV2_H
  6
Continuous
 62
     7
100
AcDbCircle
 10
42.5919228418
 20
344.1905601244
 30
0.0
 40
82.72980902212977
100
AcDbArc
 50
345.2927033375
 51
348.0496332204
  0
ARC
  5
BE
330
75
100
AcDbEntity
  8
410587038_PBV2_H
  6
Continuous
 62
     7
100
AcDbCircle
 10
42.5919228418
 20
344.1905601244
 30
0.0
 40
82.72980902212977
100
AcDbArc
 50
15.5521521264
 51
18.1320491609
  0
LINE
  5
C0
330
75
100
AcDbEntity
  8
410579031_SLEEVE
  6
Continuous
 62
     7
100
AcDbLine
 10
120.8108484844
 20
370.0538004202
 30
0.0
 11
120.8269149204
 21
370.0698668561
 31
0.0
  0
LINE
  5
C1
330
75
100
AcDbEntity
  8
410579031_SLEEVE
  6
Continuous
 62
     7
100
AcDbLine
 10
120.8573876561
 20
318.2811867245
 30
0.0
 11
120.8375451383
 21
318.3010292422
 31
0.0
  0
LINE
  5
C2
330
75
100
AcDbEntity
  8
410579031_SLEEVE
  6
Continuous
 62
     7
100
AcDbLine
 10
120.8266840522
 20
318.3118903284
 30
0.0
 11
120.8107517819
 21
318.3278225987
 31
0.0
  0
ARC
  5
C3
330
75
100
AcDbEntity
  8
410579031_SLEEVE
  6
Continuous
 62
     7
100
AcDbCircle
 10
121.8105953863
 20
319.5398492636
 30
0.0
 40
1.775037734358455
100
AcDbArc
 50
227.4964119722
 51
228.3196835915
  0
LINE
  5
C4
330
75
100
AcDbEntity
  8
410579031_SLEEVE
  6
Continuous
 62
     7
100
AcDbLine
 10
121.2214897545
 20
318.7383718505
 30
0.0
 11
121.2376040884
 21
318.7222575167
 31
0.0
  0
ARC
  5
C6
330
75
100
AcDbEntity
  8
410573038_CAP_CA
  6
Continuous
 62
     7
100
AcDbCircle
 10
95.2320056709
 20
396.3099475311
 30
0.0
 40
81.99209358282017
100
AcDbArc
 50
251.9837228662
 51
266.9847573289
  0
LINE
  5
C7
330
75
100
AcDbEntity
  8
410573038_CAP_CA
  6
Continuous
 62
     7
100
AcDbLine
 10
90.9190883447
 20
314.4313657516
 30
0.0
 11
91.2320069696
 21
314.4237896764
 31
0.0
  0
ARC
  5
C8
330
75
100
AcDbEntity
  8
410573038_CAP_CA
  6
Continuous
 62
     7
100
AcDbCircle
 10
95.4787487421
 20
287.6721077015
 30
0.0
 40
27.0866628466923
100
AcDbArc
 50
96.0484932514
 51
99.0202480094
  0
LINE
  5
C9
330
75
100
AcDbEntity
  8
410573038_CAP_CA
  6
Continuous
 62
     7
100
AcDbLine
 10
69.7401190314
 20
318.3815288506
 30
0.0
 11
69.8729032486
 21
318.3380338804
 31
0.0
  0
ARC
  5
CA
330
75
100
AcDbEntity
  8
410573038_CAP_CA
  6
Continuous
 62
     7
100
AcDbCircle
 10
95.6060643652
 20
290.4561476991
 30
0.0
 40
24.27942353178305
100
AcDbArc
 50
80.808596112
 51
84.1242444825
  0
LINE
  5
CB
330
75
100
AcDbEntity
  8
410573038_CAP_CA
  6
Continuous
 62
     7
100
AcDbLine
 10
99.4842915973
 20
314.4238292843
 30
0.0
 11
99.7972320377
 21
314.4314064962
 31
0.0
  0
ARC
  5
CC
330
75
100
AcDbEntity
  8
410573038_CAP_CA
  6
Continuous
 62
     7
100
AcDbCircle
 10
95.5003314578
 20
396.2280094259
 30
0.0
 40
81.90938655260646
100
AcDbArc
 50
273.0070708427
 51
288.0236189484
  0
LINE
  5
CD
330
75
100
AcDbEntity
  8
410573038_CAP_CA
  6
Continuous
 62
     7
100
AcDbLine
 10
120.8438346166
 20
318.3379943847
 30
0.0
 11
120.976809642
 21
318.3815503223
 31
0.0
  0
ARC
  5
CE
330
75
100
AcDbEntity
  8
410573038_CAP_CA
  6
Continuous
 62
     7
100
AcDbCircle
 10
95.3583692028
 20
268.7749347481
 30
0.0
 40
45.86025108097745
100
AcDbArc
 50
84.854716762
 51
87.4023204669
  0
ARC
  5
CF
330
75
100
AcDbEntity
  8
410573038_CAP_CA
  6
Continuous
 62
     7
100
AcDbCircle
 10
95.3583692028
 20
268.7749347481
 30
0.0
 40
45.86025108097745
100
AcDbArc
 50
92.0940347201
 51
95.1458330277
  0
SPLINE
  5
D0
330
75
100
AcDbEntity
  8
410573038_CAP_CA
  6
Continuous
 62
     7
100
AcDbSpline
210
0.0
220
0.0
230
1.0
 70
     8
 71
     3
 72
     9
 73
     5
 74
     0
 42
0.0000000249839417
 43
0.0000000001
 40
0.0
 40
0.0
 40
0.0
 40
0.0
 40
0.2774780348821121
 40
0.4294234535278055
 40
0.4294234535278055
 40
0.4294234535278055
 40
0.4294234535278055
 10
101.2577082529554
 20
314.5222583842844
 30
0.0
 10
101.2950557210048
 20
314.5254273466165
 30
0.0
 10
101.3528544278194
 20
314.5303319292958
 30
0.0
 10
101.4087839935423
 20
314.539094677725
 30
0.0
 10
101.4282142116382
 20
314.542797169033
 30
0.0
  0
LINE
  5
D1
330
75
100
AcDbEntity
  8
410573038_CAP_CA
  6
Continuous
 62
     7
100
AcDbLine
 10
120.976809642
 20
318.3815503223
 30
0.0
 11
120.9808016928
 21
318.3828856375
 31
0.0
  0
ARC
  5
D2
330
75
100
AcDbEntity
  8
410573038_CAP_CA
  6
Continuous
 62
     7
100
AcDbCircle
 10
42.5399165782
 20
344.1907389417
 30
0.0
 40
82.69658130051717
100
AcDbArc
 50
342.0502076019
 51
17.949794858
  0
ARC
  5
D3
330
75
100
AcDbEntity
  8
410573038_CAP_CA
  6
Continuous
 62
     7
100
AcDbCircle
 10
148.177004595
 20
344.1907747563
 30
0.0
 40
82.69659205842784
100
AcDbArc
 50
162.0502217395
 51
197.9487070557
  0
ARC
  5
D4
330
75
100
AcDbEntity
  8
410573038_CAP_CA
  6
Continuous
 62
     7
100
AcDbCircle
 10
95.3584803119
 20
291.3779166928
 30
0.0
 40
82.69116629723887
100
AcDbArc
 50
72.0490820662
 51
107.9512248806
  0
ARC
  5
D5
330
75
100
AcDbEntity
  8
410573038_CAP_CA
  6
Continuous
 62
     7
100
AcDbCircle
 10
69.8338068501
 20
318.6665165685
 30
0.0
 40
0.2999999999999942
100
AcDbArc
 50
199.0040403093
 51
250.999812135
  0
ARC
  5
D6
330
75
100
AcDbEntity
  8
410573038_CAP_CA
  6
Continuous
 62
     7
100
AcDbCircle
 10
120.8831243786
 20
318.6665388452
 30
0.0
 40
0.2999999999999889
100
AcDbArc
 50
289.001387251
 51
341.0055985285
  0
ARC
  5
D7
330
75
100
AcDbEntity
  8
410573038_CAP_CA
  6
Continuous
 62
     7
100
AcDbCircle
 10
120.8829984365
 20
369.7153272023
 30
0.0
 40
0.3000000000000012
100
AcDbArc
 50
18.9968851575
 51
71.0023501689
  0
ARC
  5
D8
330
75
100
AcDbEntity
  8
410573038_CAP_CA
  6
Continuous
 62
     7
100
AcDbCircle
 10
69.8338948444
 20
369.7153076725
 30
0.0
 40
0.3000000000000144
100
AcDbArc
 50
108.9962918746
 51
161.003145898
  0
LINE
  5
D9
330
75
100
AcDbEntity
  8
410573038_CAP_CA
  6
Continuous
 62
     7
100
AcDbLine
 10
121.1667894935
 20
318.5688961161
 30
0.0
 11
121.168114768
 21
318.5728588968
 31
0.0
  0
LINE
  5
DA
330
75
100
AcDbEntity
  8
410573038_CAP_CA
  6
Continuous
 62
     7
100
AcDbLine
 10
69.7361354737
 20
318.3828613161
 30
0.0
 11
69.7401190314
 21
318.3815288506
 31
0.0
  0
LINE
  5
DB
330
75
100
AcDbEntity
  8
410573038_CAP_CA
  6
Continuous
 62
     7
100
AcDbLine
 10
69.5488160495
 20
318.572838485
 30
0.0
 11
69.5501581655
 21
318.56882612
 31
0.0
  0
LINE
  5
DC
330
75
100
AcDbEntity
  8
410573038_CAP_CA
  6
Continuous
 62
     7
100
AcDbLine
 10
121.2114010132
 20
369.6764623568
 30
0.0
 11
121.1679891938
 21
369.8090058629
 31
0.0
  0
LINE
  5
DD
330
75
100
AcDbEntity
  8
410573038_CAP_CA
  6
Continuous
 62
     7
100
AcDbLine
 10
121.168114768
 20
318.5728588968
 30
0.0
 11
121.2114020875
 21
318.7050189146
 31
0.0
  0
LINE
  5
DE
330
75
100
AcDbEntity
  8
410573038_CAP_CA
  6
Continuous
 62
     7
100
AcDbLine
 10
69.5050261262
 20
318.7065416841
 30
0.0
 11
69.5488160495
 21
318.572838485
 31
0.0
  0
LINE
  5
DF
330
75
100
AcDbEntity
  8
410573038_CAP_CA
  6
Continuous
 62
     7
100
AcDbLine
 10
69.5489049728
 20
369.8089890646
 30
0.0
 11
69.5055025179
 21
369.6764787049
 31
0.0
  0
LINE
  5
E0
330
75
100
AcDbEntity
  8
410573038_CAP_CA
  6
Continuous
 62
     7
100
AcDbLine
 10
121.1679891938
 20
369.8090058629
 30
0.0
 11
121.1666593185
 21
369.8129822278
 31
0.0
  0
LINE
  5
E1
330
75
100
AcDbEntity
  8
410573038_CAP_CA
  6
Continuous
 62
     7
100
AcDbLine
 10
120.9806572477
 20
369.998986781
 30
0.0
 11
120.9766806903
 21
370.0003167777
 31
0.0
  0
LINE
  5
E2
330
75
100
AcDbEntity
  8
410573038_CAP_CA
  6
Continuous
 62
     7
100
AcDbLine
 10
69.7402153506
 20
370.0002981713
 30
0.0
 11
69.7362427562
 21
369.9989695657
 31
0.0
  0
LINE
  5
E3
330
75
100
AcDbEntity
  8
410573038_CAP_CA
  6
Continuous
 62
     7
100
AcDbLine
 10
69.8724623373
 20
370.0436135683
 30
0.0
 11
69.7402153506
 21
370.0002981713
 31
0.0
  0
LINE
  5
E4
330
75
100
AcDbEntity
  8
410573038_CAP_CA
  6
Continuous
 62
     7
100
AcDbLine
 10
120.9766806903
 20
370.0003167777
 30
0.0
 11
120.8440768831
 21
370.0437501765
 31
0.0
  0
SPLINE
  5
E5
330
75
100
AcDbEntity
  8
410573038_CAP_CA
  6
Continuous
 62
     7
100
AcDbSpline
210
0.0
220
0.0
230
1.0
 70
     8
 71
     3
 72
     8
 73
     4
 74
     0
 42
0.0000000247568038
 43
0.0000000001
 40
0.7998811883449135
 40
0.7998811883449135
 40
0.7998811883449135
 40
0.7998811883449135
 40
1.0
 40
1.0
 40
1.0
 40
1.0
 10
89.37863681792827
 20
314.5295829294882
 30
0.0
 10
89.40524989228231
 20
314.5266697718929
 30
0.0
 10
89.43218858337782
 20
314.5244388371161
 30
0.0
 10
89.45912728317562
 20
314.5222080016254
 30
0.0
  0
ARC
  5
E6
330
75
100
AcDbEntity
  8
410573038_CAP_CA
  6
Continuous
 62
     7
100
AcDbCircle
 10
95.3770413498
 20
268.4830261325
 30
0.0
 40
46.12358310997244
100
AcDbArc
 50
93.4128314971
 51
95.1387556352
  0
ARC
  5
E7
330
75
100
AcDbEntity
  8
410573038_CAP_CA
  6
Continuous
 62
     7
100
AcDbCircle
 10
95.3397350519
 20
268.4836013569
 30
0.0
 40
46.12300679998481
100
AcDbArc
 50
84.8617747969
 51
86.5878264014
  0
ARC
  5
E8
330
75
100
AcDbEntity
  8
410573038_CAP_CA
  6
Continuous
 62
     7
100
AcDbCircle
 10
95.3583703829
 20
268.8188598532
 30
0.0
 40
45.78723352195516
100
AcDbArc
 50
86.5861348568
 51
93.4145262026
  0
LINE
  5
E9
330
75
100
AcDbEntity
  8
410573038_CAP_CA
  6
Continuous
 62
     7
100
AcDbLine
 10
120.9531147832
 20
318.4640157053
 30
0.0
 11
120.9484161024
 21
318.4647021033
 31
0.0
  0
ARC
  5
EA
330
75
100
AcDbEntity
  8
410573038_CAP_CA
  6
Continuous
 62
     7
100
AcDbCircle
 10
99.4794097666
 20
314.5208629054
 30
0.0
 40
0.1000000000000006
100
AcDbArc
 50
264.9909902403
 51
271.0018079352
  0
ARC
  5
EB
330
75
100
AcDbEntity
  8
410573038_CAP_CA
  6
Continuous
 62
     7
100
AcDbCircle
 10
91.2368888069
 20
314.5208233479
 30
0.0
 40
0.1000000000000014
100
AcDbArc
 50
269.0243929913
 51
275.1244283403
  0
SPLINE
  5
ED
330
75
100
AcDbEntity
  8
410592040_ESCUTC
  6
Continuous
 62
     7
100
AcDbSpline
210
0.0
220
0.0
230
1.0
 70
     8
 71
     3
 72
     8
 73
     4
 74
     0
 42
0.0000000001453813
 43
0.0000000001
 40
0.0
 40
0.0
 40
0.0
 40
0.0
 40
1.0
 40
1.0
 40
1.0
 40
1.0
 10
100.6774734097672
 20
259.2440640439007
 30
0.0
 10
123.4957177575898
 20
259.7791326875857
 30
0.0
 10
146.2346270569681
 20
263.757506025436
 30
0.0
 10
167.873104097116
 20
271.1790074023147
 30
0.0
  0
LINE
  5
EE
330
75
100
AcDbEntity
  8
410592040_ESCUTC
  6
Continuous
 62
     7
100
AcDbLine
 10
90.0394379619
 20
259.2440335202
 30
0.0
 11
90.1438319791
 21
259.2484446178
 31
0.0
  0
LINE
  5
EF
330
75
100
AcDbEntity
  8
410592040_ESCUTC
  6
Continuous
 62
     7
100
AcDbLine
 10
100.5730821311
 20
259.2484744332
 30
0.0
 11
100.6774734098
 21
259.2440640439
 31
0.0
  0
SPLINE
  5
F0
330
75
100
AcDbEntity
  8
410592040_ESCUTC
  6
Continuous
 62
     7
100
AcDbSpline
210
0.0
220
0.0
230
1.0
 70
     8
 71
     3
 72
    26
 73
    22
 74
     0
 42
0.0000000000675445
 43
0.0000000001
 40
0.0
 40
0.0
 40
0.0
 40
0.0
 40
0.2486866889291708
 40
0.2486866889291708
 40
0.3743486564744594
 40
0.3743486564744594
 40
0.4371796402471037
 40
0.4371796402471037
 40
0.4685951321334259
 40
0.4685951321334259
 40
0.4843028780765869
 40
0.4843028780765869
 40
0.4921567510481675
 40
0.4921567510481675
 40
0.4960836875339577
 40
0.4960836875339577
 40
0.4980471557768528
 40
0.4980471557768528
 40
0.5000106240197479
 40
0.5000106240197479
 40
1.0
 40
1.0
 40
1.0
 40
1.0
 10
167.8731046656322
 20
417.2025223792264
 30
0.0
 10
156.2434503347951
 20
421.1913349338748
 30
0.0
 10
144.2834070503286
 20
424.1883275554422
 30
0.0
 10
126.0309543238399
 20
427.2004813321437
 30
0.0
 10
119.8617104994424
 20
427.9573061944949
 30
0.0
 10
110.5764294690342
 20
428.7102918369615
 30
0.0
 10
107.4760999098912
 20
428.8975784427636
 30
0.0
 10
102.8217430968418
 20
429.0828452002238
 30
0.0
 10
101.2696470800779
 20
429.1286569276023
 30
0.0
 10
98.94103635499825
 20
429.1734462010924
 30
0.0
 10
98.16475499663767
 20
429.1843879060062
 30
0.0
 10
97.0002786489485
 20
429.1948168177525
 30
0.0
 10
96.61211081468826
 20
429.1972958474083
 30
0.0
 10
96.02985328136732
 20
429.199518284702
 30
0.0
 10
95.83576647326908
 20
429.2000097459383
 30
0.0
 10
95.54463579009095
 20
429.2003728865254
 30
0.0
 10
95.44687979703436
 20
429.2004315378832
 30
0.0
 10
95.25434386999498
 20
429.200424372001
 30
0.0
 10
95.15807590911226
 20
429.2003594379025
 30
0.0
 10
70.54757566881284
 20
429.1680756297768
 30
0.0
 10
46.03865390530913
 20
425.1577576731806
 30
0.0
 10
22.84380716732362
 20
417.2025192494389
 30
0.0
  0
SPLINE
  5
F1
330
75
100
AcDbEntity
  8
410592040_ESCUTC
  6
Continuous
 62
     7
100
AcDbSpline
210
0.0
220
0.0
230
1.0
 70
     8
 71
     3
 72
     8
 73
     4
 74
     0
 42
0.0000000001453812
 43
0.0000000001
 40
0.0
 40
0.0
 40
0.0
 40
0.0
 40
1.0
 40
1.0
 40
1.0
 40
1.0
 10
22.84380335802298
 20
271.1790042754824
 30
0.0
 10
44.48230127312745
 20
263.7572368461196
 30
0.0
 10
67.221210978402
 20
259.7789721459203
 30
0.0
 10
90.03943796191896
 20
259.2440335202144
 30
0.0
  0
SPLINE
  5
F2
330
75
100
AcDbEntity
  8
410592040_ESCUTC
  6
Continuous
 62
     7
100
AcDbSpline
210
0.0
220
0.0
230
1.0
 70
     8
 71
     3
 72
     8
 73
     4
 74
     0
 42
0.0000000000665056
 43
0.0000000001
 40
0.0
 40
0.0
 40
0.0
 40
0.0
 40
1.0
 40
1.0
 40
1.0
 40
1.0
 10
22.34669560827296
 20
416.7054142008234
 30
0.0
 10
6.349999999999994
 20
370.0663257393059
 30
0.0
 10
6.350590731653464
 20
318.3151163577643
 30
0.0
 10
22.34669893279749
 20
271.6761140223094
 30
0.0
  0
SPLINE
  5
F3
330
75
100
AcDbEntity
  8
410592040_ESCUTC
  6
Continuous
 62
     7
100
AcDbSpline
210
0.0
220
0.0
230
1.0
 70
     8
 71
     3
 72
     8
 73
     4
 74
     0
 42
0.0000000000665056
 43
0.0000000001
 40
0.0
 40
0.0
 40
0.0
 40
0.0
 40
1.0
 40
1.0
 40
1.0
 40
1.0
 10
168.3702138439188
 20
271.676111827481
 30
0.0
 10
184.3669095848034
 20
318.3152002448859
 30
0.0
 10
184.3663189839077
 20
370.0664096294691
 30
0.0
 10
168.3702109143823
 20
416.7054120050906
 30
0.0
  0
SPLINE
  5
F4
330
75
100
AcDbEntity
  8
410592040_ESCUTC
  6
Continuous
 62
     7
100
AcDbSpline
210
0.0
220
0.0
230
1.0
 70
     8
 71
     3
 72
    10
 73
     6
 74
     0
 42
0.000000013621472
 43
0.0000000001
 40
0.0
 40
0.0
 40
0.0
 40
0.0
 40
0.5
 40
0.5
 40
1.0
 40
1.0
 40
1.0
 40
1.0
 10
22.84380335802298
 20
271.1790042754824
 30
0.0
 10
22.72809977678941
 20
271.2186893346777
 30
0.0
 10
22.62331884910069
 20
271.2844680216472
 30
0.0
 10
22.45250180659723
 20
271.4551654594682
 30
0.0
 10
22.38638276976931
 20
271.5604099684272
 30
0.0
 10
22.34669893279749
 20
271.6761140223094
 30
0.0
  0
SPLINE
  5
F5
330
75
100
AcDbEntity
  8
410592040_ESCUTC
  6
Continuous
 62
     7
100
AcDbSpline
210
0.0
220
0.0
230
1.0
 70
     8
 71
     3
 72
    10
 73
     6
 74
     0
 42
0.0000000136214355
 43
0.0000000001
 40
0.0
 40
0.0
 40
0.0
 40
0.0
 40
0.5
 40
0.5
 40
1.0
 40
1.0
 40
1.0
 40
1.0
 10
22.34669560827296
 20
416.7054142008234
 30
0.0
 10
22.38638077227058
 20
416.8211180886524
 30
0.0
 10
22.45215970879146
 20
416.9258992701776
 30
0.0
 10
22.62285779266752
 20
417.096716550317
 30
0.0
 10
22.72810271194274
 20
417.1628355843713
 30
0.0
 10
22.84380716732362
 20
417.2025192494389
 30
0.0
  0
SPLINE
  5
F6
330
75
100
AcDbEntity
  8
410592040_ESCUTC
  6
Continuous
 62
     7
100
AcDbSpline
210
0.0
220
0.0
230
1.0
 70
     8
 71
     3
 72
    10
 73
     6
 74
     0
 42
0.000000013621472
 43
0.0000000001
 40
0.0
 40
0.0
 40
0.0
 40
0.0
 40
0.5
 40
0.5
 40
1.0
 40
1.0
 40
1.0
 40
1.0
 10
168.3702138439188
 20
271.676111827481
 30
0.0
 10
168.3305287847182
 20
271.5604082462609
 30
0.0
 10
168.2647500977493
 20
271.4556273185859
 30
0.0
 10
168.0940526599373
 20
271.2848102761036
 30
0.0
 10
167.9888081509874
 20
271.2186912392837
 30
0.0
 10
167.873104097116
 20
271.1790074023147
 30
0.0
  0
SPLINE
  5
F7
330
75
100
AcDbEntity
  8
410592040_ESCUTC
  6
Continuous
 62
     7
100
AcDbSpline
210
0.0
220
0.0
230
1.0
 70
     8
 71
     3
 72
    10
 73
     6
 74
     0
 42
0.0000000136214353
 43
0.0000000001
 40
0.0
 40
0.0
 40
0.0
 40
0.0
 40
0.5
 40
0.5
 40
1.0
 40
1.0
 40
1.0
 40
1.0
 10
167.8731046656322
 20
417.2025223792264
 30
0.0
 10
167.9888086508724
 20
417.1628374930019
 30
0.0
 10
168.0935899922721
 20
417.0970588070678
 30
0.0
 10
168.2644076846614
 20
416.9263611302122
 30
0.0
 10
168.330526971959
 20
416.8211163674839
 30
0.0
 10
168.3702109143823
 20
416.7054120050906
 30
0.0
  0
SPLINE
  5
F9
330
75
100
AcDbEntity
  8
410576038_DECORA
  6
Continuous
 62
     7
100
AcDbSpline
210
0.0
220
0.0
230
1.0
 70
     8
 71
     3
 72
    26
 73
    22
 74
     0
 42
0.0000000001748675
 43
0.0000000001
 40
0.0
 40
0.0
 40
0.0
 40
0.0
 40
0.1231155098882148
 40
0.1231155098882148
 40
0.248743700422598
 40
0.248743700422598
 40
0.3743718909569813
 40
0.3743718909569813
 40
0.437185986224173
 40
0.437185986224173
 40
0.5000000814913645
 40
0.5000000814913645
 40
0.6256282720257478
 40
0.6256282720257478
 40
0.751256462560131
 40
0.751256462560131
 40
0.8768846530945142
 40
0.8768846530945142
 40
0.939698748361706
 40
0.939698748361706
 40
1.0
 40
1.0
 40
1.0
 40
1.0
 10
123.5888420139055
 20
316.1432711977216
 30
0.0
 10
124.3751319618363
 20
318.3715110649314
 30
0.0
 10
125.0597979951136
 20
320.6181379236032
 30
0.0
 10
126.247308707563
 20
325.1925839592628
 30
0.0
 10
126.7461392956508
 20
327.5211432584312
 30
0.0
 10
127.5463698587276
 20
332.2139305425972
 30
0.0
 10
127.8477678599157
 20
334.5781588906549
 30
0.0
 10
128.1511523781317
 20
338.1513707341481
 30
0.0
 10
128.2274544248181
 20
339.3469269285039
 30
0.0
 10
128.3297920716839
 20
341.7471218631159
 30
0.0
 10
128.3557662656623
 20
342.9540978261509
 30
0.0
 10
128.3571906873368
 20
346.5614286323813
 30
0.0
 10
128.2569636865992
 20
348.9537080050288
 30
0.0
 10
127.8577314159219
 20
353.7134998259272
 30
0.0
 10
127.5587192738357
 20
356.0810114230934
 30
0.0
 10
126.7600569228912
 20
360.7910389521282
 30
0.0
 10
126.2604213171191
 20
363.1335567105257
 30
0.0
 10
125.3549749312072
 20
366.627901372656
 30
0.0
 10
125.0270081723643
 20
367.7894783807553
 30
0.0
 10
124.3357110251734
 20
370.0476908167553
 30
0.0
 10
123.9739762537996
 20
371.146479762896
 30
0.0
 10
123.5888547100708
 20
372.2379193544698
 30
0.0
  0
SPLINE
  5
FA
330
75
100
AcDbEntity
  8
410576038_DECORA
  6
Continuous
 62
     7
100
AcDbSpline
210
0.0
220
0.0
230
1.0
 70
     8
 71
     3
 72
    14
 73
    10
 74
     0
 42
0.0000000001752589
 43
0.0000000001
 40
0.0
 40
0.0
 40
0.0
 40
0.0
 40
0.1231155099193062
 40
0.1231155099193062
 40
0.2487437004133782
 40
0.2487437004133782
 40
0.3743718909074504
 40
0.3743718909074504
 40
0.4270792332838215
 40
0.4270792332838215
 40
0.4270792332838215
 40
0.4270792332838215
 10
67.31112288350549
 20
315.9602166807562
 30
0.0
 10
69.53936272406396
 20
315.1739266972148
 30
0.0
 10
71.78598955488391
 20
314.4892606054441
 30
0.0
 10
76.36043553616173
 20
313.3017497608461
 30
0.0
 10
78.68899480881652
 20
312.8029190985658
 30
0.0
 10
83.38178204663207
 20
312.0026883921126
 30
0.0
 10
85.7460103748344
 20
311.7012903216642
 30
0.0
 10
89.1275795991338
 20
311.4141771830145
 30
0.0
 10
90.13016586149223
 20
311.3468002732816
 30
0.0
 10
91.13594327902413
 20
311.2970846195958
 30
0.0
  0
SPLINE
  5
FB
330
75
100
AcDbEntity
  8
410576038_DECORA
  6
Continuous
 62
     7
100
AcDbSpline
210
0.0
220
0.0
230
1.0
 70
     8
 71
     3
 72
    16
 73
    12
 74
     0
 42
0.0000000001746842
 43
0.0000000001
 40
0.5742232365822109
 40
0.5742232365822109
 40
0.5742232365822109
 40
0.5742232365822109
 40
0.6256282718955944
 40
0.6256282718955944
 40
0.7512564623896666
 40
0.7512564623896666
 40
0.8768846528837386
 40
0.8768846528837386
 40
0.9396987481307746
 40
0.9396987481307746
 40
1.0
 40
1.0
 40
1.0
 40
1.0
 10
99.57377441070037
 20
311.2967162769464
 30
0.0
 10
100.5517516764102
 20
311.3449917756852
 30
0.0
 10
101.5276401891522
 20
311.410030606411
 30
0.0
 10
104.8813512215629
 20
311.6913264170183
 30
0.0
 10
107.2488628096369
 20
311.9903385394192
 30
0.0
 10
111.958890322684
 20
312.789000852469
 30
0.0
 10
114.3014080741631
 20
313.2886364400788
 30
0.0
 10
117.7957527293601
 20
314.1940827861357
 30
0.0
 10
118.9573297356089
 20
314.5220495294921
 30
0.0
 10
121.2155421758166
 20
315.2133466413695
 30
0.0
 10
122.3143311276672
 20
315.5750813933034
 30
0.0
 10
123.4057707266572
 20
315.9602029134658
 30
0.0
  0
SPLINE
  5
FC
330
75
100
AcDbEntity
  8
410576038_DECORA
  6
Continuous
 62
     7
100
AcDbSpline
210
0.0
220
0.0
230
1.0
 70
     8
 71
     3
 72
    26
 73
    22
 74
     0
 42
0.0000000001748675
 43
0.0000000001
 40
0.0
 40
0.0
 40
0.0
 40
0.0
 40
0.1231155095101933
 40
0.1231155095101933
 40
0.2487437000426529
 40
0.2487437000426529
 40
0.3743718905751124
 40
0.3743718905751124
 40
0.4371859858413422
 40
0.4371859858413422
 40
0.5000000811075721
 40
0.5000000811075721
 40
0.6256282716400317
 40
0.6256282716400317
 40
0.7512564621724912
 40
0.7512564621724912
 40
0.876884652704951
 40
0.876884652704951
 40
0.9396987479711807
 40
0.9396987479711807
 40
1.0
 40
1.0
 40
1.0
 40
1.0
 10
67.12806830800825
 20
372.2379369696349
 30
0.0
 10
66.34177829572357
 20
370.0096970925435
 30
0.0
 10
65.65711218007708
 20
367.7630702244342
 30
0.0
 10
64.46960129287737
 20
363.1886241582953
 30
0.0
 10
63.970770612755
 20
360.8600648379041
 30
0.0
 10
63.17053987877355
 20
356.16727750341
 30
0.0
 10
62.86914179868361
 20
353.8030491262447
 30
0.0
 10
62.56575717972304
 20
350.2298372317719
 30
0.0
 10
62.48945510234087
 20
349.0342810192068
 30
0.0
 10
62.38711740059803
 20
346.6340860456117
 30
0.0
 10
62.3611431823154
 20
345.4271100605868
 30
0.0
 10
62.35971869852939
 20
341.8197791855624
 30
0.0
 10
62.45994567207089
 20
339.4274997684241
 30
0.0
 10
62.85917791004966
 20
334.6677078604998
 30
0.0
 10
63.15819004657666
 20
332.300196220773
 30
0.0
 10
63.95685239632624
 20
327.5901686071188
 30
0.0
 10
64.45648800653369
 20
325.2476508066505
 30
0.0
 10
65.36193439370886
 20
321.7533060801877
 30
0.0
 10
65.68990115209824
 20
320.5917290501964
 30
0.0
 10
66.38119829656249
 20
318.3335165622103
 30
0.0
 10
66.74293306610794
 20
317.2347275862423
 30
0.0
 10
67.128054605197
 20
316.1432879637595
 30
0.0
  0
SPLINE
  5
FD
330
75
100
AcDbEntity
  8
410576038_DECORA
  6
Continuous
 62
     7
100
AcDbSpline
210
0.0
220
0.0
230
1.0
 70
     8
 71
     3
 72
    26
 73
    22
 74
     0
 42
0.0000000001748677
 43
0.0000000001
 40
0.0
 40
0.0
 40
0.0
 40
0.0
 40
0.1231155092812878
 40
0.1231155092812878
 40
0.2487437003912369
 40
0.2487437003912369
 40
0.374371891501186
 40
0.374371891501186
 40
0.4371859870561605
 40
0.4371859870561605
 40
0.5000000826111352
 40
0.5000000826111352
 40
0.6256282737210843
 40
0.6256282737210843
 40
0.7512564648310335
 40
0.7512564648310335
 40
0.8768846559409825
 40
0.8768846559409825
 40
0.9396987514959572
 40
0.9396987514959572
 40
1.0
 40
1.0
 40
1.0
 40
1.0
 10
123.4057863631434
 20
372.4209906585498
 30
0.0
 10
121.177546622838
 20
373.2072799877271
 30
0.0
 10
118.9309179176505
 20
373.8919307350007
 30
0.0
 10
114.3564678681117
 20
375.0794012402753
 30
0.0
 10
112.0279063561644
 20
375.5782066265917
 30
0.0
 10
107.3351167769922
 20
376.3783909672177
 30
0.0
 10
104.9708883384087
 20
376.6797679014994
 30
0.0
 10
101.3976791090568
 20
376.9831303708514
 30
0.0
 10
100.2021242380099
 20
377.0594266228746
 30
0.0
 10
97.80193297457325
 20
377.1617564459638
 30
0.0
 10
96.59495968821865
 20
377.1877286216558
 30
0.0
 10
92.98763538921452
 20
377.1891531397723
 30
0.0
 10
90.59535863795007
 20
377.0889344215032
 30
0.0
 10
85.8355690922575
 20
376.6897314845223
 30
0.0
 10
83.4680571467179
 20
376.3907404112197
 30
0.0
 10
78.75802697462535
 20
375.5921245448502
 30
0.0
 10
76.41550691419586
 20
375.0925144147911
 30
0.0
 10
72.92115862344934
 20
374.1870988005037
 30
0.0
 10
71.75958036996215
 20
373.8591409856484
 30
0.0
 10
69.50136698868788
 20
373.1678567190704
 30
0.0
 10
68.4025781846036
 20
372.8061260654543
 30
0.0
 10
67.31113967265769
 20
372.4210052751859
 30
0.0
  0
ARC
  5
FE
330
75
100
AcDbEntity
  8
410576038_DECORA
  6
Continuous
 62
     7
100
AcDbCircle
 10
67.4109922785
 20
316.2431434901
 30
0.0
 40
0.3000414190460722
100
AcDbArc
 50
199.4391652711
 51
224.9982841761
  0
ARC
  5
FF
330
75
100
AcDbEntity
  8
410576038_DECORA
  6
Continuous
 62
     7
100
AcDbCircle
 10
67.4109830537
 20
316.2431527151
 30
0.0
 40
0.300041419045814
100
AcDbArc
 50
225.0007754376
 51
250.5598943425
  0
ARC
  5
100
330
75
100
AcDbEntity
  8
410576038_DECORA
  6
Continuous
 62
     7
100
AcDbCircle
 10
67.4109951168
 20
372.1380675728
 30
0.0
 40
0.3000414190642584
100
AcDbArc
 50
109.4391486091
 51
134.9982756616
  0
ARC
  5
101
330
75
100
AcDbEntity
  8
410576038_DECORA
  6
Continuous
 62
     7
100
AcDbCircle
 10
67.4110043418
 20
372.1380767976
 30
0.0
 40
0.300041419064502
100
AcDbArc
 50
135.0007669255
 51
160.559893978
  0
ARC
  5
102
330
75
100
AcDbEntity
  8
410576038_DECORA
  6
Continuous
 62
     7
100
AcDbCircle
 10
123.3059152027
 20
316.2431405877
 30
0.0
 40
0.3000414190475378
100
AcDbArc
 50
289.4391647747
 51
314.9982844423
  0
ARC
  5
103
330
75
100
AcDbEntity
  8
410576038_DECORA
  6
Continuous
 62
     7
100
AcDbCircle
 10
123.3059059777
 20
316.2431313628
 30
0.0
 40
0.3000414190475926
100
AcDbArc
 50
315.000775704
 51
340.5598953716
  0
ARC
  5
104
330
75
100
AcDbEntity
  8
410576038_DECORA
  6
Continuous
 62
     7
100
AcDbCircle
 10
123.305917038
 20
372.1380638245
 30
0.0
 40
0.3000414190607777
100
AcDbArc
 50
19.4391659985
 51
44.9982916149
  0
ARC
  5
105
330
75
100
AcDbEntity
  8
410576038_DECORA
  6
Continuous
 62
     7
100
AcDbCircle
 10
123.3059262628
 20
372.1380545995
 30
0.0
 40
0.3000414190611753
100
AcDbArc
 50
45.0007828783
 51
70.5599084947
  0
LINE
  5
107
330
75
100
AcDbEntity
  8
404006038_ELEMEN
  6
Continuous
 62
     7
100
AcDbLine
 10
90.823892413
 20
259.1039622999
 30
0.0
 11
90.3676266849
 21
259.1039622999
 31
0.0
  0
LINE
  5
108
330
75
100
AcDbEntity
  8
404006038_ELEMEN
  6
Continuous
 62
     7
100
AcDbLine
 10
91.114575199
 20
259.1039622999
 30
0.0
 11
91.2923811888
 21
259.1039622999
 31
0.0
  0
LINE
  5
109
330
75
100
AcDbEntity
  8
404006038_ELEMEN
  6
Continuous
 62
     7
100
AcDbLine
 10
91.2923811888
 20
259.1039622999
 30
0.0
 11
99.4244987636
 21
259.1039622999
 31
0.0
  0
LINE
  5
10A
330
75
100
AcDbEntity
  8
404006038_ELEMEN
  6
Continuous
 62
     7
100
AcDbLine
 10
99.4244987636
 20
259.1039622999
 30
0.0
 11
99.6023368551
 21
259.1039622999
 31
0.0
  0
LINE
  5
10B
330
75
100
AcDbEntity
  8
404006038_ELEMEN
  6
Continuous
 62
     7
100
AcDbLine
 10
99.8975570435
 20
259.1039622999
 30
0.0
 11
100.3492812385
 21
259.1039622999
 31
0.0
  0
SPLINE
  5
10C
330
75
100
AcDbEntity
  8
404006038_ELEMEN
  6
Continuous
 62
     7
100
AcDbSpline
210
0.0
220
0.0
230
1.0
 70
     8
 71
     3
 72
    17
 73
    13
 74
     0
 42
0.0000000009116481
 43
0.0000000001
 40
0.0
 40
0.0
 40
0.0
 40
0.0
 40
0.1329302784054797
 40
0.2420192201893371
 40
0.3305547381234603
 40
0.3992688193808128
 40
0.4531663999462674
 40
0.5415841989562961
 40
0.6608087756177374
 40
0.757957609940121
 40
0.8699890854379007
 40
1.0
 40
1.0
 40
1.0
 40
1.0
 10
89.9938547603743
 20
254.3778819225827
 30
0.0
 10
90.49466890124815
 20
254.1926678148689
 30
0.0
 10
91.26465839885533
 20
253.9111219707159
 30
0.0
 10
92.47513863191027
 20
253.6830877707405
 30
0.0
 10
93.4331236207629
 20
253.5427937074814
 30
0.0
 10
94.20158983244885
 20
253.46726606041
 30
0.0
 10
94.97099217824913
 20
253.4234233934748
 30
0.0
 10
95.92659429236592
 20
253.4214914846291
 30
0.0
 10
97.03929989688899
 20
253.508195754259
 30
0.0
 10
98.22086520826149
 20
253.6785809111714
 30
0.0
 10
99.46322202535015
 20
253.9135073396168
 30
0.0
 10
100.2334553120142
 20
254.1961474120303
 30
0.0
 10
100.7230529410118
 20
254.3778818228516
 30
0.0
  0
ARC
  5
10D
330
75
100
AcDbEntity
  8
404006038_ELEMEN
  6
Continuous
 62
     7
100
AcDbCircle
 10
90.1770571386
 20
254.6248375081
 30
0.0
 40
0.2999381970450419
100
AcDbArc
 50
177.3048319642
 51
246.5024916674
  0
ARC
  5
10E
330
75
100
AcDbEntity
  8
404006038_ELEMEN
  6
Continuous
 62
     7
100
AcDbCircle
 10
100.539850785
 20
254.6248375082
 30
0.0
 40
0.2999381970292941
100
AcDbArc
 50
293.4975083194
 51
2.6951680316
  0
LINE
  5
10F
330
75
100
AcDbEntity
  8
404006038_ELEMEN
  6
Continuous
 62
     7
100
AcDbLine
 10
90.0675494734
 20
258.8167525381
 30
0.0
 11
89.8761679805
 21
254.6131311857
 31
0.0
  0
LINE
  5
110
330
75
100
AcDbEntity
  8
404006038_ELEMEN
  6
Continuous
 62
     7
100
AcDbLine
 10
100.8407399423
 20
254.613131203
 30
0.0
 11
100.6493584501
 21
258.8167525382
 31
0.0
  0
ARC
  5
111
330
75
100
AcDbEntity
  8
404006038_ELEMEN
  6
Continuous
 62
     7
100
AcDbCircle
 10
90.3671613373
 20
258.8040316547
 30
0.0
 40
0.2999306682752875
100
AcDbArc
 50
89.9775175283
 51
177.4895319527
  0
ARC
  5
112
330
75
100
AcDbEntity
  8
404006038_ELEMEN
  6
Continuous
 62
     7
100
AcDbCircle
 10
100.3497465862
 20
258.8040316547
 30
0.0
 40
0.29993066827612
100
AcDbArc
 50
2.5104680477
 51
90.0224824708
  0
ENDBLK
  5
114
330
75
100
AcDbEntity
  8
0
100
AcDbBlockEnd
  0
BLOCK
  5
199
330
115
100
AcDbEntity
  8
0
100
AcDbBlockBegin
  2
SE1
 70
     0
 10
0.0
 20
0.0
 30
0.0
  3
SE1
  1

  0
LINE
  5
118
330
115
100
AcDbEntity
  8
410580038_SLEEVE
  6
Continuous
 62
     7
100
AcDbLine
 10
282.8022359625
 20
312.4881565213
 30
0.0
 11
282.8022359625
 21
317.0454912636
 31
0.0
  0
LINE
  5
119
330
115
100
AcDbEntity
  8
410580038_SLEEVE
  6
Continuous
 62
     7
100
AcDbLine
 10
282.8022359625
 20
371.3360350527
 30
0.0
 11
282.8022359625
 21
317.0454912636
 31
0.0
  0
LINE
  5
11A
330
115
100
AcDbEntity
  8
410580038_SLEEVE
  6
Continuous
 62
     7
100
AcDbLine
 10
282.8022359625
 20
375.893369795
 30
0.0
 11
282.8022359625
 21
371.3360350527
 31
0.0
  0
ARC
  5
11B
330
115
100
AcDbEntity
  8
410580038_SLEEVE
  6
Continuous
 62
     7
100
AcDbCircle
 10
282.5022359625
 20
312.4881565213
 30
0.0
 40
0.3000000000000051
100
AcDbArc
 50
270.5
 51
0.0
  0
ARC
  5
11C
330
115
100
AcDbEntity
  8
410580038_SLEEVE
  6
Continuous
 62
     7
100
AcDbCircle
 10
282.5022359625
 20
375.893369795
 30
0.0
 40
0.2999999999999947
100
AcDbArc
 50
0.0
 51
89.5
  0
LINE
  5
11D
330
115
100
AcDbEntity
  8
410575038_VOLUMN
  6
Continuous
 62
     7
100
AcDbLine
 10
300.2280919274
 20
259.1039627228
 30
0.0
 11
300.8671581497
 21
259.1039627228
 31
0.0
  0
LINE
  5
11E
330
115
100
AcDbEntity
  8
410575038_VOLUMN
  6
Continuous
 62
     7
100
AcDbLine
 10
291.8478929426
 20
259.1039627228
 30
0.0
 11
299.9566888111
 21
259.1039627228
 31
0.0
  0
LINE
  5
11F
330
115
100
AcDbEntity
  8
410575038_VOLUMN
  6
Continuous
 62
     7
100
AcDbLine
 10
300.1256146178
 20
259.1039627228
 30
0.0
 11
300.2280919274
 21
259.1039627228
 31
0.0
  0
LINE
  5
120
330
115
100
AcDbEntity
  8
410575038_VOLUMN
  6
Continuous
 62
     7
100
AcDbLine
 10
300.1256146178
 20
259.1039627228
 30
0.0
 11
299.9566888111
 21
259.1039627228
 31
0.0
  0
LINE
  5
121
330
115
100
AcDbEntity
  8
410575038_VOLUMN
  6
Continuous
 62
     7
100
AcDbLine
 10
290.9379380821
 20
259.1039627228
 30
0.0
 11
291.5765030164
 21
259.1039627228
 31
0.0
  0
LINE
  5
122
330
115
100
AcDbEntity
  8
410575038_VOLUMN
  6
Continuous
 62
     7
100
AcDbLine
 10
291.6789812139
 20
259.1039627228
 30
0.0
 11
291.5764986867
 21
259.1039627228
 31
0.0
  0
LINE
  5
123
330
115
100
AcDbEntity
  8
410575038_VOLUMN
  6
Continuous
 62
     7
100
AcDbLine
 10
291.8478929426
 20
259.1039627228
 30
0.0
 11
291.6789812139
 21
259.1039627228
 31
0.0
  0
LINE
  5
124
330
115
100
AcDbEntity
  8
410575038_VOLUMN
  6
Continuous
 62
     7
100
AcDbLine
 10
304.9022359625
 20
312.4881565213
 30
0.0
 11
304.9022359625
 21
317.0454912636
 31
0.0
  0
LINE
  5
125
330
115
100
AcDbEntity
  8
410575038_VOLUMN
  6
Continuous
 62
     7
100
AcDbLine
 10
304.9022359625
 20
371.3360350527
 30
0.0
 11
304.9022359625
 21
317.0454912636
 31
0.0
  0
LINE
  5
126
330
115
100
AcDbEntity
  8
410575038_VOLUMN
  6
Continuous
 62
     7
100
AcDbLine
 10
304.9022359625
 20
375.893369795
 30
0.0
 11
304.9022359625
 21
371.3360350527
 31
0.0
  0
ARC
  5
127
330
115
100
AcDbEntity
  8
410575038_VOLUMN
  6
Continuous
 62
     7
100
AcDbCircle
 10
1363.8587754271
 20
306.9983487161
 30
0.0
 40
1063.755905587315
100
AcDbArc
 50
179.7757531095
 51
182.5637003228
  0
ARC
  5
128
330
115
100
AcDbEntity
  8
410575038_VOLUMN
  6
Continuous
 62
     7
100
AcDbCircle
 10
300.8672974499
 20
259.4038784714
 30
0.0
 40
0.2999157809194998
100
AcDbArc
 50
269.9733881581
 51
2.5152661336
  0
ARC
  5
129
330
115
100
AcDbEntity
  8
410575038_VOLUMN
  6
Continuous
 62
     7
100
AcDbCircle
 10
-778.5149516037
 20
307.1552719824
 30
0.0
 40
1070.214122759492
100
AcDbArc
 50
357.4433751051
 51
0.2096675465
  0
ARC
  5
12A
330
115
100
AcDbEntity
  8
410575038_VOLUMN
  6
Continuous
 62
     7
100
AcDbCircle
 10
290.9372961398
 20
259.4038784714
 30
0.0
 40
0.2999157809140381
100
AcDbArc
 50
177.4847338652
 51
270.0266118404
  0
LINE
  5
12B
330
115
100
AcDbEntity
  8
410575038_VOLUMN
  6
Continuous
 62
     7
100
AcDbLine
 10
304.6048539231
 20
376.1933583719
 30
0.0
 11
286.2048539231
 21
376.3539327392
 31
0.0
  0
LINE
  5
12C
330
115
100
AcDbEntity
  8
410575038_VOLUMN
  6
Continuous
 62
     7
100
AcDbLine
 10
301.0888357915
 20
312.157484119
 30
0.0
 11
304.6048539231
 21
312.1881679444
 31
0.0
  0
LINE
  5
12D
330
115
100
AcDbEntity
  8
410575038_VOLUMN
  6
Continuous
 62
     7
100
AcDbLine
 10
286.2048539231
 20
312.0275935771
 30
0.0
 11
290.6975922364
 21
312.0668011103
 31
0.0
  0
ARC
  5
12E
330
115
100
AcDbEntity
  8
410575038_VOLUMN
  6
Continuous
 62
     7
100
AcDbCircle
 10
301.1108018323
 20
311.1576385583
 30
0.0
 40
1.000000139990711
100
AcDbArc
 50
91.1775190942
 51
179.5206290589
  0
ARC
  5
12F
330
115
100
AcDbEntity
  8
410575038_VOLUMN
  6
Continuous
 62
     7
100
AcDbCircle
 10
290.6937107286
 20
311.0667299486
 30
0.0
 40
0.9999995693636109
100
AcDbArc
 50
0.3232859733
 51
89.8411392192
  0
ARC
  5
130
330
115
100
AcDbEntity
  8
410575038_VOLUMN
  6
Continuous
 62
     7
100
AcDbCircle
 10
304.6022359625
 20
312.4881565213
 30
0.0
 40
0.3000000000000051
100
AcDbArc
 50
270.5
 51
0.0
  0
ARC
  5
131
330
115
100
AcDbEntity
  8
410575038_VOLUMN
  6
Continuous
 62
     7
100
AcDbCircle
 10
286.2022359625
 20
312.327582154
 30
0.0
 40
0.2999999999999947
100
AcDbArc
 50
180.0
 51
270.4999999999
  0
ARC
  5
132
330
115
100
AcDbEntity
  8
410575038_VOLUMN
  6
Continuous
 62
     7
100
AcDbCircle
 10
304.6022359625
 20
375.893369795
 30
0.0
 40
0.3000000000000086
100
AcDbArc
 50
0.0
 51
89.5
  0
ARC
  5
133
330
115
100
AcDbEntity
  8
410575038_VOLUMN
  6
Continuous
 62
     7
100
AcDbCircle
 10
286.2022359625
 20
376.0539441623
 30
0.0
 40
0.2999999999999983
100
AcDbArc
 50
89.5000000001
 51
180.0
  0
LINE
  5
134
330
115
100
AcDbEntity
  8
410587038_PBV2_H
  6
Continuous
 62
     7
100
AcDbLine
 10
305.9022359625
 20
371.3881748953
 30
0.0
 11
305.9022359625
 21
375.8884131817
 31
0.0
  0
LINE
  5
135
330
115
100
AcDbEntity
  8
410587038_PBV2_H
  6
Continuous
 62
     7
100
AcDbLine
 10
305.9022359625
 20
316.9916594814
 30
0.0
 11
305.9022359625
 21
312.4933884361
 31
0.0
  0
LINE
  5
136
330
115
100
AcDbEntity
  8
410587038_PBV2_H
  6
Continuous
 62
     7
100
AcDbLine
 10
305.9022359625
 20
316.9916594814
 30
0.0
 11
305.9022359625
 21
371.3881748953
 31
0.0
  0
ARC
  5
137
330
115
100
AcDbEntity
  8
410587038_PBV2_H
  6
Continuous
 62
     7
100
AcDbCircle
 10
109.9716864519
 20
377.9704569017
 30
0.0
 40
226.0406509531495
100
AcDbArc
 50
358.2815976938
 51
359.4213116144
  0
SPLINE
  5
138
330
115
100
AcDbEntity
  8
410587038_PBV2_H
  6
Continuous
 62
     7
100
AcDbSpline
210
0.0
220
0.0
230
1.0
 70
     8
 71
     3
 72
    12
 73
     8
 74
     0
 42
0.0000000011116046
 43
0.0000000001
 40
0.0
 40
0.0
 40
0.0
 40
0.0
 40
0.1250000000000001
 40
0.1250000000000001
 40
0.2500000000000001
 40
0.2500000000000001
 40
0.4998291407876594
 40
0.4998291407876594
 40
0.4998291407876594
 40
0.4998291407876594
 10
335.9106919042469
 20
317.1888576983441
 30
0.0
 10
335.9380633858107
 20
316.4431711761376
 30
0.0
 10
335.9524838584373
 20
315.7729659216791
 30
0.0
 10
335.9746010881998
 20
314.6518161769453
 30
0.0
 10
335.9814458700772
 20
314.1869045533427
 30
0.0
 10
335.9969641456348
 20
313.0705873753333
 30
0.0
 10
336.0007449002877
 20
312.6937845479555
 30
0.0
 10
336.0007808248637
 20
312.6941218872834
 30
0.0
  0
ARC
  5
139
330
115
100
AcDbEntity
  8
410587038_PBV2_H
  6
Continuous
 62
     7
100
AcDbCircle
 10
308.6743561884
 20
380.4485138031
 30
0.0
 40
4.29297889066487
100
AcDbArc
 50
267.7507122168
 51
269.455309141
  0
ARC
  5
13A
330
115
100
AcDbEntity
  8
410587038_PBV2_H
  6
Continuous
 62
     7
100
AcDbCircle
 10
311.8802986871
 20
602.5045322822
 30
0.0
 40
226.3720879459504
100
AcDbArc
 50
269.1782040542
 51
269.8209010863
  0
ARC
  5
13B
330
115
100
AcDbEntity
  8
410587038_PBV2_H
  6
Continuous
 62
     7
100
AcDbCircle
 10
311.2068574207
 20
380.4192972597
 30
0.0
 40
4.285883165657384
100
AcDbArc
 50
269.5432429312
 51
271.250444456
  0
ARC
  5
13C
330
115
100
AcDbEntity
  8
410587038_PBV2_H
  6
Continuous
 62
     7
100
AcDbCircle
 10
253.8786710393
 20
377.5304639152
 30
0.0
 40
82.44089188489038
100
AcDbArc
 50
354.8920150147
 51
357.7529669569
  0
ARC
  5
13D
330
115
100
AcDbEntity
  8
410587038_PBV2_H
  6
Continuous
 62
     7
100
AcDbCircle
 10
338.0067339695
 20
370.0961268356
 30
0.0
 40
2.016639612811123
100
AcDbArc
 50
177.3182338285
 51
182.7479849589
  0
ARC
  5
13E
330
115
100
AcDbEntity
  8
410587038_PBV2_H
  6
Continuous
 62
     7
100
AcDbCircle
 10
-878.0631535252
 20
344.1765675915
 30
0.0
 40
1214.33016117784
100
AcDbArc
 50
358.785279343
 51
1.2184934213
  0
ARC
  5
13F
330
115
100
AcDbEntity
  8
410587038_PBV2_H
  6
Continuous
 62
     7
100
AcDbCircle
 10
337.9855025342
 20
318.3380341721
 30
0.0
 40
1.993684859545779
100
AcDbArc
 50
177.2515299325
 51
182.7478348824
  0
ARC
  5
140
330
115
100
AcDbEntity
  8
410587038_PBV2_H
  6
Continuous
 62
     7
100
AcDbCircle
 10
254.8818485254
 20
310.8620217855
 30
0.0
 40
81.44721293260504
100
AcDbArc
 50
2.2968505688
 51
5.1990474305
  0
LINE
  5
141
330
115
100
AcDbEntity
  8
410587038_PBV2_H
  6
Continuous
 62
     7
100
AcDbLine
 10
306.2048539247
 20
312.1933998624
 30
0.0
 11
335.7087538099
 21
312.450876496
 31
0.0
  0
LINE
  5
142
330
115
100
AcDbEntity
  8
410587038_PBV2_H
  6
Continuous
 62
     7
100
AcDbLine
 10
308.3157077063
 20
376.1699685313
 30
0.0
 11
306.205172365
 21
376.1884010271
 31
0.0
  0
LINE
  5
143
330
115
100
AcDbEntity
  8
410587038_PBV2_H
  6
Continuous
 62
     7
100
AcDbLine
 10
335.7087921656
 20
375.9307292707
 30
0.0
 11
311.4899496756
 21
376.1422460854
 31
0.0
  0
LINE
  5
144
330
115
100
AcDbEntity
  8
410587038_PBV2_H
  6
Continuous
 62
     7
100
AcDbLine
 10
336.2331997332
 20
374.2576591637
 30
0.0
 11
335.9950160646
 21
375.6652587492
 31
0.0
  0
LINE
  5
145
330
115
100
AcDbEntity
  8
410587038_PBV2_H
  6
Continuous
 62
     7
100
AcDbLine
 10
335.9962187314
 20
312.7165391512
 30
0.0
 11
336.245556068
 21
314.1638338738
 31
0.0
  0
ARC
  5
146
330
115
100
AcDbEntity
  8
410587038_PBV2_H
  6
Continuous
 62
     7
100
AcDbCircle
 10
335.7256552277
 20
312.719691036
 30
0.0
 40
0.2649982375319768
100
AcDbArc
 50
266.303955586
 51
325.5709084177
  0
ARC
  5
147
330
115
100
AcDbEntity
  8
410587038_PBV2_H
  6
Continuous
 62
     7
100
AcDbCircle
 10
335.7237533056
 20
375.6569525465
 30
0.0
 40
0.2695627659761647
100
AcDbArc
 50
34.786486758
 51
93.2447051808
  0
ARC
  5
148
330
115
100
AcDbEntity
  8
410587038_PBV2_H
  6
Continuous
 62
     7
100
AcDbCircle
 10
306.2022359634
 20
312.4933934222
 30
0.0
 40
0.2999999822981268
100
AcDbArc
 50
179.9980963705
 51
271.5446288983
  0
ARC
  5
149
330
115
100
AcDbEntity
  8
410587038_PBV2_H
  6
Continuous
 62
     7
100
AcDbCircle
 10
306.2022359621
 20
375.888410845
 30
0.0
 40
0.2999999996194691
100
AcDbArc
 50
90.7009638029
 51
180.0016757165
  0
SPLINE
  5
14A
330
115
100
AcDbEntity
  8
410587038_PBV2_H
  6
Continuous
 62
     7
100
AcDbSpline
210
0.0
220
0.0
230
1.0
 70
     8
 71
     3
 72
     8
 73
     4
 74
     0
 42
0.0000000241070956
 43
0.0000000001
 40
0.0
 40
0.0
 40
0.0
 40
0.0
 40
0.0798627277751095
 40
0.0798627277751095
 40
0.0798627277751095
 40
0.0798627277751095
 10
308.51191696795
 20
376.1586410962898
 30
0.0
 10
308.5004057453776
 20
376.1592708439871
 30
0.0
 10
308.4893794758984
 20
376.159874278155
 30
0.0
 10
308.4788381595124
 20
376.1604513987933
 30
0.0
  0
ARC
  5
14B
330
115
100
AcDbEntity
  8
410587038_PBV2_H
  6
Continuous
 62
     7
100
AcDbCircle
 10
310.4663394452
 20
413.6136484491
 30
0.0
 40
37.50590483382702
100
AcDbArc
 50
266.7003971041
 51
266.9863849222
  0
ARC
  5
14C
330
115
100
AcDbEntity
  8
410587038_PBV2_H
  6
Continuous
 62
     7
100
AcDbCircle
 10
309.4857921443
 20
426.7933353796
 30
0.0
 40
50.69125300697227
100
AcDbArc
 50
272.0386736171
 51
272.2754541947
  0
ARC
  5
14D
330
115
100
AcDbEntity
  8
410587038_PBV2_H
  6
Continuous
 62
     7
100
AcDbCircle
 10
336.1651218594
 20
314.1433985722
 30
0.0
 40
0.0999999999983175
100
AcDbArc
 50
1.7978172063
 51
2.6503421166
  0
LINE
  5
14E
330
115
100
AcDbEntity
  8
410579031_SLEEVE
  6
Continuous
 62
     7
100
AcDbLine
 10
305.5022359625
 20
371.4099460702
 30
0.0
 11
305.5022359625
 21
375.9402831235
 31
0.0
  0
LINE
  5
14F
330
115
100
AcDbEntity
  8
410579031_SLEEVE
  6
Continuous
 62
     7
100
AcDbLine
 10
305.8022359625
 20
375.9403893093
 30
0.0
 11
305.8022359625
 21
371.4099460702
 31
0.0
  0
LINE
  5
150
330
115
100
AcDbEntity
  8
410579031_SLEEVE
  6
Continuous
 62
     7
100
AcDbLine
 10
305.9022359625
 20
371.3154412399
 30
0.0
 11
305.9022359625
 21
375.8403925765
 31
0.0
  0
LINE
  5
151
330
115
100
AcDbEntity
  8
410579031_SLEEVE
  6
Continuous
 62
     7
100
AcDbLine
 10
305.9022359625
 20
371.3154421611
 30
0.0
 11
305.9022359625
 21
317.0660855655
 31
0.0
  0
LINE
  5
152
330
115
100
AcDbEntity
  8
410579031_SLEEVE
  6
Continuous
 62
     7
100
AcDbLine
 10
305.4022359625
 20
312.5411335719
 30
0.0
 11
305.4022359625
 21
317.0660855655
 31
0.0
  0
LINE
  5
153
330
115
100
AcDbEntity
  8
410579031_SLEEVE
  6
Continuous
 62
     7
100
AcDbLine
 10
305.4022359625
 20
317.0660855655
 30
0.0
 11
305.4022359625
 21
371.3154421611
 31
0.0
  0
LINE
  5
154
330
115
100
AcDbEntity
  8
410579031_SLEEVE
  6
Continuous
 62
     7
100
AcDbLine
 10
305.5022359625
 20
316.9715807359
 30
0.0
 11
305.5022359625
 21
312.4411369344
 31
0.0
  0
LINE
  5
155
330
115
100
AcDbEntity
  8
410579031_SLEEVE
  6
Continuous
 62
     7
100
AcDbLine
 10
305.8022359625
 20
312.4412431318
 30
0.0
 11
305.8022359625
 21
316.9715807359
 31
0.0
  0
ELLIPSE
  5
156
330
115
100
AcDbEntity
  8
410579031_SLEEVE
  6
Continuous
 62
     7
100
AcDbEllipse
 10
305.5022359625
 20
317.0660855655
 30
0.0
 11
-0.1000000000000029
 21
3.122502256758253E-14
 31
0.0
210
0.0
220
0.0
230
1.0
 40
0.9450482959
 41
0.0
 42
1.570796326795192
  0
ELLIPSE
  5
157
330
115
100
AcDbEntity
  8
410579031_SLEEVE
  6
Continuous
 62
     7
100
AcDbEllipse
 10
305.8022359625
 20
317.0660855655
 30
0.0
 11
-0.1000000000000029
 21
0.0
 31
0.0
210
0.0
220
0.0
230
1.0
 40
0.9450482959
 41
1.570796326794897
 42
3.141592653589793
  0
LINE
  5
158
330
115
100
AcDbEntity
  8
410579031_SLEEVE
  6
Continuous
 62
     7
100
AcDbLine
 10
305.3524541279
 20
374.5405459425
 30
0.0
 11
304.9022359625
 21
374.5385814827
 31
0.0
  0
LINE
  5
159
330
115
100
AcDbEntity
  8
410579031_SLEEVE
  6
Continuous
 62
     7
100
AcDbLine
 10
304.9022359625
 20
313.8429448336
 30
0.0
 11
305.3524541279
 21
313.8409803738
 31
0.0
  0
LINE
  5
15A
330
115
100
AcDbEntity
  8
410579031_SLEEVE
  6
Continuous
 62
     7
100
AcDbLine
 10
305.8022359625
 20
375.940393436
 30
0.0
 11
305.5022359625
 21
375.940393436
 31
0.0
  0
LINE
  5
15B
330
115
100
AcDbEntity
  8
410579031_SLEEVE
  6
Continuous
 62
     7
100
AcDbLine
 10
305.5022359625
 20
312.4411326378
 30
0.0
 11
305.8022359625
 21
312.4411326378
 31
0.0
  0
ARC
  5
15C
330
115
100
AcDbEntity
  8
410579031_SLEEVE
  6
Continuous
 62
     7
100
AcDbCircle
 10
305.5022359637
 20
312.5411367973
 30
0.0
 40
0.0999999947547727
100
AcDbArc
 50
178.5512579608
 51
269.9999993154
  0
ARC
  5
15D
330
115
100
AcDbEntity
  8
410579031_SLEEVE
  6
Continuous
 62
     7
100
AcDbCircle
 10
305.8022359637
 20
312.5411368247
 30
0.0
 40
0.0999999988108351
100
AcDbArc
 50
276.7979885332
 51
1.419905233
  0
ARC
  5
15E
330
115
100
AcDbEntity
  8
410579031_SLEEVE
  6
Continuous
 62
     7
100
AcDbCircle
 10
305.5022359613
 20
375.8403892765
 30
0.0
 40
0.0999999988151762
100
AcDbArc
 50
96.8121210604
 51
181.4487289957
  0
ARC
  5
15F
330
115
100
AcDbEntity
  8
410579031_SLEEVE
  6
Continuous
 62
     7
100
AcDbCircle
 10
305.8022359613
 20
375.8403892492
 30
0.0
 40
0.0999999947289501
100
AcDbArc
 50
358.5801061965
 51
89.9999993131
  0
LINE
  5
160
330
115
100
AcDbEntity
  8
410579031_SLEEVE
  6
Continuous
 62
     7
100
AcDbLine
 10
283.2524541279
 20
374.5405459425
 30
0.0
 11
282.8022359625
 21
374.5385814827
 31
0.0
  0
LINE
  5
161
330
115
100
AcDbEntity
  8
410579031_SLEEVE
  6
Continuous
 62
     7
100
AcDbLine
 10
282.8022359625
 20
313.8429448336
 30
0.0
 11
283.2524541279
 21
313.8409803738
 31
0.0
  0
ARC
  5
162
330
115
100
AcDbEntity
  8
410579031_SLEEVE
  6
Continuous
 62
     7
100
AcDbCircle
 10
283.4022359614
 20
375.8405493055
 30
0.0
 40
0.0999999989344918
100
AcDbArc
 50
96.1233612893
 51
181.4487421535
  0
ARC
  5
163
330
115
100
AcDbEntity
  8
410579031_SLEEVE
  6
Continuous
 62
     7
100
AcDbCircle
 10
283.4022359636
 20
312.5414827737
 30
0.0
 40
0.0999999948030251
100
AcDbArc
 50
178.5606997933
 51
269.9999993223
  0
LINE
  5
164
330
115
100
AcDbEntity
  8
410573038_CAP_CA
  6
Continuous
 62
     7
100
AcDbLine
 10
336.4331921738
 20
314.6079809851
 30
0.0
 11
336.4571667987
 21
314.689447977
 31
0.0
  0
ARC
  5
165
330
115
100
AcDbEntity
  8
410573038_CAP_CA
  6
Continuous
 62
     7
100
AcDbCircle
 10
336.1757861698
 20
314.6934023078
 30
0.0
 40
0.2712096112745985
100
AcDbArc
 50
276.2208272515
 51
341.6413464095
  0
ARC
  5
166
330
115
100
AcDbEntity
  8
410573038_CAP_CA
  6
Continuous
 62
     7
100
AcDbCircle
 10
142.3217340893
 20
344.1983365109
 30
0.0
 40
196.354953568709
100
AcDbArc
 50
351.357088515
 51
8.6753809486
  0
ARC
  5
167
330
115
100
AcDbEntity
  8
410573038_CAP_CA
  6
Continuous
 62
     7
100
AcDbCircle
 10
336.1398983025
 20
373.7687009188
 30
0.0
 40
0.2999999186332971
100
AcDbArc
 50
9.6466069824
 51
69.4263980908
  0
ARC
  5
168
330
115
100
AcDbEntity
  8
410573038_CAP_CA
  6
Continuous
 62
     7
100
AcDbCircle
 10
336.3583282271
 20
314.7066248235
 30
0.0
 40
0.1005191967362981
100
AcDbArc
 50
270.1091099547
 51
310.1088938519
  0
ARC
  5
169
330
115
100
AcDbEntity
  8
410573038_CAP_CA
  6
Continuous
 62
     7
100
AcDbCircle
 10
336.358054617
 20
314.7063723658
 30
0.0
 40
0.1005030710482978
100
AcDbArc
 50
310.3209146094
 51
350.3250498582
  0
ARC
  5
16A
330
115
100
AcDbEntity
  8
410592040_ESCUTC
  6
Continuous
 62
     7
100
AcDbCircle
 10
320.461373643
 20
372.372877317
 30
0.0
 40
53.70887416977259
100
AcDbArc
 50
179.6740722776
 51
180.3259277224
  0
ARC
  5
16B
330
115
100
AcDbEntity
  8
410592040_ESCUTC
  6
Continuous
 62
     7
100
AcDbCircle
 10
-7777.9553930795
 20
344.1907631582
 30
0.0
 40
8044.757060493229
100
AcDbArc
 50
359.8014589792
 51
0.1985410208
  0
LINE
  5
16C
330
115
100
AcDbEntity
  8
410592040_ESCUTC
  6
Continuous
 62
     7
100
AcDbLine
 10
266.8016674132
 20
377.4424286645
 30
0.0
 11
266.7533684581
 21
372.678399238
 31
0.0
  0
ARC
  5
16D
330
115
100
AcDbEntity
  8
410592040_ESCUTC
  6
Continuous
 62
     7
100
AcDbCircle
 10
328.7692361742
 20
316.0086489993
 30
0.0
 40
62.01662029016116
100
AcDbArc
 50
179.7177339341
 51
180.2822660659
  0
LINE
  5
16E
330
115
100
AcDbEntity
  8
410592040_ESCUTC
  6
Continuous
 62
     7
100
AcDbLine
 10
266.7533684581
 20
315.7031270783
 30
0.0
 11
266.8016674132
 21
310.9390976518
 31
0.0
  0
ARC
  5
16F
330
115
100
AcDbEntity
  8
410592040_ESCUTC
  6
Continuous
 62
     7
100
AcDbCircle
 10
254.3981691204
 20
237.7470396814
 30
0.0
 40
21.51440546722073
100
AcDbArc
 50
88.2780963595
 51
91.3978032264
  0
LINE
  5
170
330
115
100
AcDbEntity
  8
410592040_ESCUTC
  6
Continuous
 62
     7
100
AcDbLine
 10
252.9022359625
 20
259.2440335202
 30
0.0
 11
253.8733499697
 21
259.2550430166
 31
0.0
  0
LINE
  5
171
330
115
100
AcDbEntity
  8
410592040_ESCUTC
  6
Continuous
 62
     7
100
AcDbLine
 10
252.9022359625
 20
429.2004279549
 30
0.0
 11
252.9022359625
 21
417.2025192494
 31
0.0
  0
LINE
  5
172
330
115
100
AcDbEntity
  8
410592040_ESCUTC
  6
Continuous
 62
     7
100
AcDbLine
 10
252.9022359625
 20
271.1790042755
 30
0.0
 11
252.9022359625
 21
259.2440335202
 31
0.0
  0
LINE
  5
173
330
115
100
AcDbEntity
  8
410592040_ESCUTC
  6
Continuous
 62
     7
100
AcDbLine
 10
252.9022359625
 20
416.7054142008
 30
0.0
 11
252.9022359625
 21
271.6761140223
 31
0.0
  0
LINE
  5
174
330
115
100
AcDbEntity
  8
410592040_ESCUTC
  6
Continuous
 62
     7
100
AcDbLine
 10
252.9022359625
 20
271.1790042755
 30
0.0
 11
252.9022359625
 21
271.6761140223
 31
0.0
  0
LINE
  5
175
330
115
100
AcDbEntity
  8
410592040_ESCUTC
  6
Continuous
 62
     7
100
AcDbLine
 10
252.9022359625
 20
416.7054142008
 30
0.0
 11
252.9022359625
 21
417.2025192494
 31
0.0
  0
LINE
  5
176
330
115
100
AcDbEntity
  8
410592040_ESCUTC
  6
Continuous
 62
     7
100
AcDbLine
 10
265.4202639747
 20
428.9819197479
 30
0.0
 11
252.9022359625
 21
429.2004227345
 31
0.0
  0
LINE
  5
177
330
115
100
AcDbEntity
  8
410592040_ESCUTC
  6
Continuous
 62
     7
100
AcDbLine
 10
255.2075162047
 20
259.2219741992
 30
0.0
 11
265.4202938952
 21
259.4003765425
 31
0.0
  0
ARC
  5
178
330
115
100
AcDbEntity
  8
410592040_ESCUTC
  6
Continuous
 62
     7
100
AcDbCircle
 10
-4733.0877640375
 20
344.1907631582
 30
0.0
 40
5000.0
100
AcDbArc
 50
0.3809925501
 51
0.9622918284
  0
ARC
  5
179
330
115
100
AcDbEntity
  8
410592040_ESCUTC
  6
Continuous
 62
     7
100
AcDbCircle
 10
-4733.0877640375
 20
344.1907631582
 30
0.0
 40
5000.0
100
AcDbArc
 50
359.0377178601
 51
359.6190083976
  0
SPLINE
  5
17A
330
115
100
AcDbEntity
  8
410592040_ESCUTC
  6
Continuous
 62
     7
100
AcDbSpline
210
0.0
220
0.0
230
1.0
 70
     8
 71
     3
 72
     9
 73
     5
 74
     0
 42
0.0000000356707235
 43
0.0000000001
 40
0.0
 40
0.0
 40
0.0
 40
0.0
 40
0.2887719793979217
 40
0.4826055691286668
 40
0.4826055691286668
 40
0.4826055691286668
 40
0.4826055691286668
 10
255.0228642939789
 20
259.255408888559
 30
0.0
 10
255.0701224434762
 20
259.2542519349709
 30
0.0
 10
255.1323412404066
 20
259.2530504234781
 30
0.0
 10
255.1573454844433
 20
259.250928540186
 30
0.0
 10
255.1566483899305
 20
259.2509590585988
 30
0.0
  0
ARC
  5
17B
330
115
100
AcDbEntity
  8
410592040_ESCUTC
  6
Continuous
 62
     7
100
AcDbCircle
 10
255.2022359625
 20
259.5219277301
 30
0.0
 40
0.2999999999999988
100
AcDbArc
 50
243.7001973085
 51
271.0490033608
  0
ARC
  5
17C
330
115
100
AcDbEntity
  8
410592040_ESCUTC
  6
Continuous
 62
     7
100
AcDbCircle
 10
265.4066328152
 20
260.2002599578
 30
0.0
 40
0.8000000000007386
100
AcDbArc
 50
271.3260150996
 51
1.6278314617
  0
ARC
  5
17D
330
115
100
AcDbEntity
  8
410592040_ESCUTC
  6
Continuous
 62
     7
100
AcDbCircle
 10
265.4066197919
 20
428.1820414118
 30
0.0
 40
0.7999999999868436
100
AcDbArc
 50
358.4079063748
 51
89.3169202614
  0
LINE
  5
17E
330
115
100
AcDbEntity
  8
410576038_DECORA
  6
Continuous
 62
     7
100
AcDbLine
 10
283.4022359625
 20
376.8882215621
 30
0.0
 11
283.4022359625
 21
372.1381113986
 31
0.0
  0
LINE
  5
17F
330
115
100
AcDbEntity
  8
410576038_DECORA
  6
Continuous
 62
     7
100
AcDbLine
 10
283.4022359625
 20
316.2431088899
 30
0.0
 11
283.4022359625
 21
372.1381113986
 31
0.0
  0
LINE
  5
180
330
115
100
AcDbEntity
  8
410576038_DECORA
  6
Continuous
 62
     7
100
AcDbLine
 10
283.4022359625
 20
311.4927987894
 30
0.0
 11
283.4022359625
 21
316.2431088899
 31
0.0
  0
LINE
  5
181
330
115
100
AcDbEntity
  8
410576038_DECORA
  6
Continuous
 62
     7
100
AcDbLine
 10
285.9022359625
 20
372.1251140869
 30
0.0
 11
285.9022359625
 21
316.2561059846
 31
0.0
  0
LINE
  5
182
330
115
100
AcDbEntity
  8
410576038_DECORA
  6
Continuous
 62
     7
100
AcDbLine
 10
285.9022359625
 20
372.1251140869
 30
0.0
 11
285.9022359625
 21
376.8716405109
 31
0.0
  0
LINE
  5
183
330
115
100
AcDbEntity
  8
410576038_DECORA
  6
Continuous
 62
     7
100
AcDbLine
 10
285.9022359625
 20
316.2561059846
 30
0.0
 11
285.9022359625
 21
311.5093798407
 31
0.0
  0
LINE
  5
184
330
115
100
AcDbEntity
  8
410576038_DECORA
  6
Continuous
 62
     7
100
AcDbLine
 10
285.6048539237
 20
377.1716290985
 30
0.0
 11
283.7048539231
 21
377.1882101473
 31
0.0
  0
LINE
  5
185
330
115
100
AcDbEntity
  8
410576038_DECORA
  6
Continuous
 62
     7
100
AcDbLine
 10
283.7048539231
 20
311.192810204
 30
0.0
 11
285.6048539237
 21
311.2093912529
 31
0.0
  0
ARC
  5
186
330
115
100
AcDbEntity
  8
410576038_DECORA
  6
Continuous
 62
     7
100
AcDbCircle
 10
285.6022359634
 20
311.5093868766
 30
0.0
 40
0.2999999990123511
100
AcDbArc
 50
271.140132594
 51
0.0026713298
  0
ARC
  5
187
330
115
100
AcDbEntity
  8
410576038_DECORA
  6
Continuous
 62
     7
100
AcDbCircle
 10
285.6022359623
 20
376.8716334939
 30
0.0
 40
0.299999975179909
100
AcDbArc
 50
359.9973359702
 51
90.1480147428
  0
ARC
  5
188
330
115
100
AcDbEntity
  8
410576038_DECORA
  6
Continuous
 62
     7
100
AcDbCircle
 10
283.7022359634
 20
311.4928055768
 30
0.0
 40
0.2999999757842234
100
AcDbArc
 50
179.9974040486
 51
271.1602764319
  0
ARC
  5
189
330
115
100
AcDbEntity
  8
410576038_DECORA
  6
Continuous
 62
     7
100
AcDbCircle
 10
283.7022359619
 20
376.8882147931
 30
0.0
 40
0.2999999994784191
100
AcDbArc
 50
90.6249820454
 51
180.0025888472
  0
LINE
  5
18A
330
115
100
AcDbEntity
  8
404006038_ELEMEN
  6
Continuous
 62
     7
100
AcDbLine
 10
291.4631205641
 20
259.1039622999
 30
0.0
 11
291.0114045907
 21
259.1039622999
 31
0.0
  0
LINE
  5
18B
330
115
100
AcDbEntity
  8
404006038_ELEMEN
  6
Continuous
 62
     7
100
AcDbLine
 10
291.7583535238
 20
259.1039622999
 30
0.0
 11
291.9361576961
 21
259.1039622999
 31
0.0
  0
LINE
  5
18C
330
115
100
AcDbEntity
  8
404006038_ELEMEN
  6
Continuous
 62
     7
100
AcDbLine
 10
291.9361576961
 20
259.1039622999
 30
0.0
 11
300.0682768622
 21
259.1039622999
 31
0.0
  0
LINE
  5
18D
330
115
100
AcDbEntity
  8
404006038_ELEMEN
  6
Continuous
 62
     7
100
AcDbLine
 10
300.0682768622
 20
259.1039622999
 30
0.0
 11
300.2461145617
 21
259.1039622999
 31
0.0
  0
LINE
  5
18E
330
115
100
AcDbEntity
  8
404006038_ELEMEN
  6
Continuous
 62
     7
100
AcDbLine
 10
300.5413352855
 20
259.1039622999
 30
0.0
 11
300.9930591446
 21
259.1039622999
 31
0.0
  0
ARC
  5
18F
330
115
100
AcDbEntity
  8
404006038_ELEMEN
  6
Continuous
 62
     7
100
AcDbCircle
 10
296.0022318755
 20
269.1506574964
 30
0.0
 40
15.71667337854451
100
AcDbArc
 50
250.0419696067
 51
289.958030066
  0
ARC
  5
190
330
115
100
AcDbEntity
  8
404006038_ELEMEN
  6
Continuous
 62
     7
100
AcDbCircle
 10
301.1836286892
 20
254.6248375367
 30
0.0
 40
0.2999381970426769
100
AcDbArc
 50
293.4975093138
 51
2.6951680322
  0
ARC
  5
191
330
115
100
AcDbEntity
  8
404006038_ELEMEN
  6
Continuous
 62
     7
100
AcDbCircle
 10
290.8208350456
 20
254.6248375367
 30
0.0
 40
0.2999381970426414
100
AcDbArc
 50
177.3048319678
 51
246.5024906861
  0
LINE
  5
192
330
115
100
AcDbEntity
  8
404006038_ELEMEN
  6
Continuous
 62
     7
100
AcDbLine
 10
301.4845178474
 20
254.6131312148
 30
0.0
 11
301.2931363557
 21
258.8167525384
 31
0.0
  0
LINE
  5
193
330
115
100
AcDbEntity
  8
404006038_ELEMEN
  6
Continuous
 62
     7
100
AcDbLine
 10
290.71132738
 20
258.8167525584
 30
0.0
 11
290.5199458883
 21
254.6131312324
 31
0.0
  0
ARC
  5
194
330
115
100
AcDbEntity
  8
404006038_ELEMEN
  6
Continuous
 62
     7
100
AcDbCircle
 10
300.9935244919
 20
258.8040316547
 30
0.0
 40
0.2999306682754168
100
AcDbArc
 50
2.5104680477
 51
90.0224824712
  0
ARC
  5
195
330
115
100
AcDbEntity
  8
404006038_ELEMEN
  6
Continuous
 62
     7
100
AcDbCircle
 10
291.010939243
 20
258.8040316547
 30
0.0
 40
0.2999306682706607
100
AcDbArc
 50
89.9775175291
 51
177.4895319526
  0
LINE
  5
197
330
115
100
AcDbEntity
  8
DV2_Default
  6
Continuous
 62
     7
100
AcDbLine
 10
266.7903943579
 20
376.3304963829
 30
0.0
 11
282.5048539231
 21
376.1933583719
 31
0.0
  0
LINE
  5
198
330
115
100
AcDbEntity
  8
DV2_Default
  6
Continuous
 62
     7
100
AcDbLine
 10
266.7903943579
 20
312.0510299334
 30
0.0
 11
282.5048539231
 21
312.1881679444
 31
0.0
  0
ENDBLK
  5
19A
330
115
100
AcDbEntity
  8
0
100
AcDbBlockEnd
  0
BLOCK
  5
1FC
330
19B
100
AcDbEntity
  8
0
100
AcDbBlockBegin
  2
SE2
 70
     0
 10
0.0
 20
0.0
 30
0.0
  3
SE2
  1

  0
LINE
  5
19D
330
19B
100
AcDbEntity
  8
410580038_SLEEVE
  6
Continuous
 62
     7
100
AcDbLine
 10
63.6558481978
 20
162.2302313007
 30
0.0
 11
68.2131829401
 21
162.2302313007
 31
0.0
  0
LINE
  5
19E
330
19B
100
AcDbEntity
  8
410580038_SLEEVE
  6
Continuous
 62
     7
100
AcDbLine
 10
127.0610614715
 20
162.2302313007
 30
0.0
 11
122.5037267292
 21
162.2302313007
 31
0.0
  0
LINE
  5
19F
330
19B
100
AcDbEntity
  8
410580038_SLEEVE
  6
Continuous
 62
     7
100
AcDbLine
 10
122.5037267292
 20
162.2302313007
 30
0.0
 11
68.2131829401
 21
162.2302313007
 31
0.0
  0
ARC
  5
1A0
330
19B
100
AcDbEntity
  8
410580038_SLEEVE
  6
Continuous
 62
     7
100
AcDbCircle
 10
63.6558481978
 20
162.5302313007
 30
0.0
 40
0.3000000000000051
100
AcDbArc
 50
180.5
 51
270.0
  0
ARC
  5
1A1
330
19B
100
AcDbEntity
  8
410580038_SLEEVE
  6
Continuous
 62
     7
100
AcDbCircle
 10
127.0610614715
 20
162.5302313007
 30
0.0
 40
0.2999999999999947
100
AcDbArc
 50
270.0
 51
359.5
  0
LINE
  5
1A2
330
19B
100
AcDbEntity
  8
410575038_VOLUMN
  6
Continuous
 62
     7
100
AcDbLine
 10
122.5037267292
 20
140.1302313007
 30
0.0
 11
127.0610614715
 21
140.1302313007
 31
0.0
  0
LINE
  5
1A3
330
19B
100
AcDbEntity
  8
410575038_VOLUMN
  6
Continuous
 62
     7
100
AcDbLine
 10
68.2131829401
 20
140.1302313007
 30
0.0
 11
63.6558481978
 21
140.1302313007
 31
0.0
  0
LINE
  5
1A4
330
19B
100
AcDbEntity
  8
410575038_VOLUMN
  6
Continuous
 62
     7
100
AcDbLine
 10
122.5037267292
 20
140.1302313007
 30
0.0
 11
68.2131829401
 21
140.1302313007
 31
0.0
  0
LINE
  5
1A5
330
19B
100
AcDbEntity
  8
410575038_VOLUMN
  6
Continuous
 62
     7
100
AcDbLine
 10
127.3610500484
 20
140.42761334
 30
0.0
 11
127.5216244158
 21
158.82761334
 31
0.0
  0
LINE
  5
1A6
330
19B
100
AcDbEntity
  8
410575038_VOLUMN
  6
Continuous
 62
     7
100
AcDbLine
 10
63.1952852536
 20
158.82761334
 30
0.0
 11
63.3558596209
 21
140.42761334
 31
0.0
  0
ARC
  5
1A7
330
19B
100
AcDbEntity
  8
410575038_VOLUMN
  6
Continuous
 62
     7
100
AcDbCircle
 10
127.0610614715
 20
140.4302313007
 30
0.0
 40
0.3000000000000017
100
AcDbArc
 50
270.0
 51
359.5
  0
ARC
  5
1A8
330
19B
100
AcDbEntity
  8
410575038_VOLUMN
  6
Continuous
 62
     7
100
AcDbCircle
 10
127.2216358388
 20
158.8302313007
 30
0.0
 40
0.2999999999999983
100
AcDbArc
 50
359.5000000001
 51
90.0
  0
ARC
  5
1A9
330
19B
100
AcDbEntity
  8
410575038_VOLUMN
  6
Continuous
 62
     7
100
AcDbCircle
 10
63.6558481978
 20
140.4302313007
 30
0.0
 40
0.3000000000000051
100
AcDbArc
 50
180.5
 51
270.0
  0
ARC
  5
1AA
330
19B
100
AcDbEntity
  8
410575038_VOLUMN
  6
Continuous
 62
     7
100
AcDbCircle
 10
63.4952738305
 20
158.8302313007
 30
0.0
 40
0.2999999999999947
100
AcDbArc
 50
90.0
 51
180.5000000002
  0
LINE
  5
1AB
330
19B
100
AcDbEntity
  8
410587038_PBV2_H
  6
Continuous
 62
     7
100
AcDbLine
 10
122.55738059
 20
139.1302313007
 30
0.0
 11
127.0558295565
 21
139.1302313007
 31
0.0
  0
LINE
  5
1AC
330
19B
100
AcDbEntity
  8
410587038_PBV2_H
  6
Continuous
 62
     7
100
AcDbLine
 10
68.15900795
 20
139.1302313007
 30
0.0
 11
122.55738059
 21
139.1302313007
 31
0.0
  0
LINE
  5
1AD
330
19B
100
AcDbEntity
  8
410587038_PBV2_H
  6
Continuous
 62
     7
100
AcDbLine
 10
68.15900795
 20
139.1302313007
 30
0.0
 11
63.6610801126
 21
139.1302313007
 31
0.0
  0
ARC
  5
1AE
330
19B
100
AcDbEntity
  8
410587038_PBV2_H
  6
Continuous
 62
     7
100
AcDbCircle
 10
128.6276829685
 20
309.3434825594
 30
0.0
 40
200.3197590550535
100
AcDbArc
 50
268.2070572342
 51
269.492993016
  0
ARC
  5
1AF
330
19B
100
AcDbEntity
  8
410587038_PBV2_H
  6
Continuous
 62
     7
100
AcDbCircle
 10
62.0884051137
 20
309.4412145045
 30
0.0
 40
200.4174936824417
100
AcDbArc
 50
270.5069946312
 51
271.7922220019
  0
ARC
  5
1B0
330
19B
100
AcDbEntity
  8
410587038_PBV2_H
  6
Continuous
 62
     7
100
AcDbCircle
 10
95.3584567619
 20
137.6030952318
 30
0.0
 40
3.973063019117723
100
AcDbArc
 50
251.8381104154
 51
288.1618002667
  0
ARC
  5
1B1
330
19B
100
AcDbEntity
  8
410587038_PBV2_H
  6
Continuous
 62
     7
100
AcDbCircle
 10
97.8313188176
 20
135.1302293159
 30
0.0
 40
3.973063014399612
100
AcDbArc
 50
161.8383997801
 51
198.1618002809
  0
ARC
  5
1B2
330
19B
100
AcDbEntity
  8
410587038_PBV2_H
  6
Continuous
 62
     7
100
AcDbCircle
 10
92.8855908463
 20
135.1302331706
 30
0.0
 40
3.973063019060742
100
AcDbArc
 50
341.8381104272
 51
18.1615138118
  0
ARC
  5
1B3
330
19B
100
AcDbEntity
  8
410587038_PBV2_H
  6
Continuous
 62
     7
100
AcDbCircle
 10
95.3584531655
 20
132.6611847955
 30
0.0
 40
3.969420174937088
100
AcDbArc
 50
71.8203244018
 51
108.179595209
  0
ARC
  5
1B4
330
19B
100
AcDbEntity
  8
410587038_PBV2_H
  6
Continuous
 62
     7
100
AcDbCircle
 10
96.5657042017
 20
136.337454294
 30
0.0
 40
0.0999999999999941
100
AcDbArc
 50
18.1615138118
 51
71.8203244018
  0
ARC
  5
1B5
330
19B
100
AcDbEntity
  8
410587038_PBV2_H
  6
Continuous
 62
     7
100
AcDbCircle
 10
94.1512072872
 20
136.3374559879
 30
0.0
 40
0.1000000000000106
100
AcDbArc
 50
108.179595209
 51
161.8383997801
  0
ARC
  5
1B6
330
19B
100
AcDbEntity
  8
410587038_PBV2_H
  6
Continuous
 62
     7
100
AcDbCircle
 10
96.5656962844
 20
133.922987912
 30
0.0
 40
0.1000000000000137
100
AcDbArc
 50
288.1618002667
 51
341.8381104272
  0
ARC
  5
1B7
330
19B
100
AcDbEntity
  8
410587038_PBV2_H
  6
Continuous
 62
     7
100
AcDbCircle
 10
94.1512115025
 20
133.9229897939
 30
0.0
 40
0.1000000000000037
100
AcDbArc
 50
198.1618002809
 51
251.8381104154
  0
ARC
  5
1B8
330
19B
100
AcDbEntity
  8
410587038_PBV2_H
  6
Continuous
 62
     7
100
AcDbCircle
 10
95.3442588144
 20
1347.596104094
 30
0.0
 40
1238.823091543278
100
AcDbArc
 50
268.8100743897
 51
271.1936101371
  0
ARC
  5
1B9
330
19B
100
AcDbEntity
  8
410587038_PBV2_H
  6
Continuous
 62
     7
100
AcDbCircle
 10
69.5235961937
 20
107.0444345746
 30
0.0
 40
1.997965151987324
100
AcDbArc
 50
87.2894150883
 51
92.7767221015
  0
ARC
  5
1BA
330
19B
100
AcDbEntity
  8
410587038_PBV2_H
  6
Continuous
 62
     7
100
AcDbCircle
 10
121.2455969749
 20
107.0235741093
 30
0.0
 40
2.02050595896004
100
AcDbArc
 50
87.2874233076
 51
92.7094960725
  0
ARC
  5
1BB
330
19B
100
AcDbEntity
  8
410587038_PBV2_H
  6
Continuous
 62
     7
100
AcDbCircle
 10
62.0096798671
 20
190.4210744889
 30
0.0
 40
81.71832280040024
100
AcDbArc
 50
272.3032031769
 51
275.2075927172
  0
ARC
  5
1BC
330
19B
100
AcDbEntity
  8
410587038_PBV2_H
  6
Continuous
 62
     7
100
AcDbCircle
 10
128.7149971725
 20
191.3800032435
 30
0.0
 40
82.66770631024038
100
AcDbArc
 50
264.8825406513
 51
267.7472590806
  0
LINE
  5
1BD
330
19B
100
AcDbEntity
  8
410587038_PBV2_H
  6
Continuous
 62
     7
100
AcDbLine
 10
63.3610915405
 20
138.8276133384
 30
0.0
 11
63.6185692015
 21
109.3235957181
 31
0.0
  0
LINE
  5
1BE
330
19B
100
AcDbEntity
  8
410587038_PBV2_H
  6
Continuous
 62
     7
100
AcDbLine
 10
127.0983404912
 20
109.32359815
 30
0.0
 11
127.355818131
 21
138.8276133385
 31
0.0
  0
LINE
  5
1BF
330
19B
100
AcDbEntity
  8
410587038_PBV2_H
  6
Continuous
 62
     7
100
AcDbLine
 10
125.4366577
 20
108.7966752355
 30
0.0
 11
126.8322719823
 21
109.0362845319
 31
0.0
  0
LINE
  5
1C0
330
19B
100
AcDbEntity
  8
410587038_PBV2_H
  6
Continuous
 62
     7
100
AcDbLine
 10
63.8849845636
 20
109.0388168992
 30
0.0
 11
65.3437566308
 21
108.798002512
 31
0.0
  0
ARC
  5
1C1
330
19B
100
AcDbEntity
  8
410587038_PBV2_H
  6
Continuous
 62
     7
100
AcDbCircle
 10
126.8160700517
 20
109.3139793893
 30
0.0
 40
0.2798701306979831
100
AcDbArc
 50
305.7372409428
 51
1.6951107485
  0
ARC
  5
1C2
330
19B
100
AcDbEntity
  8
410587038_PBV2_H
  6
Continuous
 62
     7
100
AcDbCircle
 10
127.0558260115
 20
138.8302313009
 30
0.0
 40
0.2999999997447901
100
AcDbArc
 50
0.5825384414
 51
90.0013533312
  0
ARC
  5
1C3
330
19B
100
AcDbEntity
  8
410587038_PBV2_H
  6
Continuous
 62
     7
100
AcDbCircle
 10
63.8893791395
 20
109.3078732256
 30
0.0
 40
0.2671750704450115
100
AcDbArc
 50
176.7060053948
 51
235.4175165668
  0
ARC
  5
1C4
330
19B
100
AcDbEntity
  8
410587038_PBV2_H
  6
Continuous
 62
     7
100
AcDbCircle
 10
63.661083656
 20
138.8302313
 30
0.0
 40
0.2999999872672004
100
AcDbArc
 50
89.9986473769
 51
181.5722918179
  0
ARC
  5
1C5
330
19B
100
AcDbEntity
  8
410587038_PBV2_H
  6
Continuous
 62
     7
100
AcDbCircle
 10
125.4482536587
 20
108.8746830113
 30
0.0
 40
0.0999999999977259
100
AcDbArc
 50
267.3165381677
 51
268.1892669329
  0
ARC
  5
1C6
330
19B
100
AcDbEntity
  8
410587038_PBV2_H
  6
Continuous
 62
     7
100
AcDbCircle
 10
65.3109736998
 20
108.8672729791
 30
0.0
 40
0.0999999999990767
100
AcDbArc
 50
271.8252988702
 51
272.657874191
  0
LINE
  5
1C7
330
19B
100
AcDbEntity
  8
410579031_SLEEVE
  6
Continuous
 62
     7
100
AcDbLine
 10
68.1394319834
 20
139.5302313007
 30
0.0
 11
63.6091746213
 21
139.5302313007
 31
0.0
  0
LINE
  5
1C8
330
19B
100
AcDbEntity
  8
410579031_SLEEVE
  6
Continuous
 62
     7
100
AcDbLine
 10
63.6092806288
 20
139.2302313007
 30
0.0
 11
68.1394319834
 21
139.2302313007
 31
0.0
  0
LINE
  5
1C9
330
19B
100
AcDbEntity
  8
410579031_SLEEVE
  6
Continuous
 62
     7
100
AcDbLine
 10
122.4832922259
 20
139.1302313007
 30
0.0
 11
127.0082442818
 21
139.1302313007
 31
0.0
  0
LINE
  5
1CA
330
19B
100
AcDbEntity
  8
410579031_SLEEVE
  6
Continuous
 62
     7
100
AcDbLine
 10
122.4832940523
 20
139.1302313007
 30
0.0
 11
68.2339368482
 21
139.1302313007
 31
0.0
  0
LINE
  5
1CB
330
19B
100
AcDbEntity
  8
410579031_SLEEVE
  6
Continuous
 62
     7
100
AcDbLine
 10
68.2339368482
 20
139.6302313007
 30
0.0
 11
122.4832940523
 21
139.6302313007
 31
0.0
  0
LINE
  5
1CC
330
19B
100
AcDbEntity
  8
410579031_SLEEVE
  6
Continuous
 62
     7
100
AcDbLine
 10
122.5777970555
 20
139.5302313007
 30
0.0
 11
127.1081348278
 21
139.5302313007
 31
0.0
  0
LINE
  5
1CD
330
19B
100
AcDbEntity
  8
410579031_SLEEVE
  6
Continuous
 62
     7
100
AcDbLine
 10
127.1082410144
 20
139.2302313007
 30
0.0
 11
122.5777970555
 21
139.2302313007
 31
0.0
  0
LINE
  5
1CE
330
19B
100
AcDbEntity
  8
410579031_SLEEVE
  6
Continuous
 62
     7
100
AcDbLine
 10
125.7082376191
 20
139.6800131352
 30
0.0
 11
125.7062731593
 21
140.1302313007
 31
0.0
  0
LINE
  5
1CF
330
19B
100
AcDbEntity
  8
410579031_SLEEVE
  6
Continuous
 62
     7
100
AcDbLine
 10
65.0106365101
 20
140.1302313007
 30
0.0
 11
65.0086720503
 21
139.6800131352
 31
0.0
  0
LINE
  5
1D0
330
19B
100
AcDbEntity
  8
410579031_SLEEVE
  6
Continuous
 62
     7
100
AcDbLine
 10
127.1082451415
 20
139.2302313007
 30
0.0
 11
127.1082451415
 21
139.5302313007
 31
0.0
  0
LINE
  5
1D1
330
19B
100
AcDbEntity
  8
410579031_SLEEVE
  6
Continuous
 62
     7
100
AcDbLine
 10
63.6091703271
 20
139.5302313007
 30
0.0
 11
63.6091703271
 21
139.2302313007
 31
0.0
  0
ARC
  5
1D2
330
19B
100
AcDbEntity
  8
410579031_SLEEVE
  6
Continuous
 62
     7
100
AcDbCircle
 10
127.008240982
 20
139.5302313019
 30
0.0
 40
0.0999999988151569
100
AcDbArc
 50
6.8121293687
 51
91.4487421535
  0
ARC
  5
1D3
330
19B
100
AcDbEntity
  8
410579031_SLEEVE
  6
Continuous
 62
     7
100
AcDbCircle
 10
127.0082409547
 20
139.2302313019
 30
0.0
 40
0.0999999947288879
100
AcDbArc
 50
268.5800943282
 51
6.7979896502
  0
ARC
  5
1D4
330
19B
100
AcDbEntity
  8
410579031_SLEEVE
  6
Continuous
 62
     7
100
AcDbCircle
 10
63.7091744502
 20
139.5302312995
 30
0.0
 40
0.0999999948030166
100
AcDbArc
 50
88.5606997933
 51
186.8050080082
  0
ARC
  5
1D5
330
19B
100
AcDbEntity
  8
410579031_SLEEVE
  6
Continuous
 62
     7
100
AcDbCircle
 10
63.7091744774
 20
139.2302312995
 30
0.0
 40
0.0999999988226448
100
AcDbArc
 50
186.7910099551
 51
271.4107516518
  0
LINE
  5
1D6
330
19B
100
AcDbEntity
  8
410579031_SLEEVE
  6
Continuous
 62
     7
100
AcDbLine
 10
125.7082376191
 20
161.7800131352
 30
0.0
 11
125.7062731593
 21
162.2302313007
 31
0.0
  0
LINE
  5
1D7
330
19B
100
AcDbEntity
  8
410579031_SLEEVE
  6
Continuous
 62
     7
100
AcDbLine
 10
65.0106365101
 20
162.2302313007
 30
0.0
 11
65.0086720503
 21
161.7800131352
 31
0.0
  0
ARC
  5
1D8
330
19B
100
AcDbEntity
  8
410579031_SLEEVE
  6
Continuous
 62
     7
100
AcDbCircle
 10
127.0080811954
 20
161.6302313019
 30
0.0
 40
0.0999999988151526
100
AcDbArc
 50
6.8121291389
 51
91.4487420392
  0
ARC
  5
1D9
330
19B
100
AcDbEntity
  8
410579031_SLEEVE
  6
Continuous
 62
     7
100
AcDbCircle
 10
63.7088287163
 20
161.6302312996
 30
0.0
 40
0.0999999947714569
100
AcDbArc
 50
88.5512710043
 51
186.1233553211
  0
ARC
  5
1DA
330
19B
100
AcDbEntity
  8
410573038_CAP_CA
  6
Continuous
 62
     7
100
AcDbCircle
 10
95.3729377605
 20
302.0930123316
 30
0.0
 40
195.7430123315764
100
AcDbArc
 50
261.2910271643
 51
278.700524744
  0
ARC
  5
1DB
330
19B
100
AcDbEntity
  8
410573038_CAP_CA
  6
Continuous
 62
     7
100
AcDbCircle
 10
124.9361136104
 20
108.8924353375
 30
0.0
 40
0.2999998253293409
100
AcDbArc
 50
279.6455938057
 51
339.4209049895
  0
ARC
  5
1DC
330
19B
100
AcDbEntity
  8
410573038_CAP_CA
  6
Continuous
 62
     7
100
AcDbCircle
 10
65.7807970526
 20
108.8924346263
 30
0.0
 40
0.2999999610438396
100
AcDbArc
 50
202.4818556115
 51
260.3544061944
  0
ARC
  5
1DD
330
19B
100
AcDbEntity
  8
410592040_ESCUTC
  6
Continuous
 62
     7
100
AcDbCircle
 10
67.1763406758
 20
116.2632310889
 30
0.0
 40
62.01662029026812
100
AcDbArc
 50
89.7177339341
 51
90.2822660659
  0
LINE
  5
1DE
330
19B
100
AcDbEntity
  8
410592040_ESCUTC
  6
Continuous
 62
     7
100
AcDbLine
 10
62.1067893283
 20
178.2307998499
 30
0.0
 11
66.8708187548
 21
178.279098805
 31
0.0
  0
ARC
  5
1DF
330
19B
100
AcDbEntity
  8
410592040_ESCUTC
  6
Continuous
 62
     7
100
AcDbCircle
 10
95.3584548347
 20
8222.9878603406
 30
0.0
 40
8044.757060491216
100
AcDbArc
 50
269.8014589792
 51
270.1985410208
  0
LINE
  5
1E0
330
19B
100
AcDbEntity
  8
410592040_ESCUTC
  6
Continuous
 62
     7
100
AcDbLine
 10
128.610120341
 20
178.2307998499
 30
0.0
 11
123.8460909145
 21
178.279098805
 31
0.0
  0
ARC
  5
1E1
330
19B
100
AcDbEntity
  8
410592040_ESCUTC
  6
Continuous
 62
     7
100
AcDbCircle
 10
123.5405689935
 20
124.5710936202
 30
0.0
 40
53.70887416963077
100
AcDbArc
 50
89.6740722776
 51
90.3259277224
  0
LINE
  5
1E2
330
19B
100
AcDbEntity
  8
410592040_ESCUTC
  6
Continuous
 62
     7
100
AcDbLine
 10
167.8731046656
 20
192.1302313007
 30
0.0
 11
22.8438071673
 21
192.1302313007
 31
0.0
  0
LINE
  5
1E3
330
19B
100
AcDbEntity
  8
410592040_ESCUTC
  6
Continuous
 62
     7
100
AcDbLine
 10
10.349395841
 20
192.1302313007
 30
0.0
 11
22.3466989328
 21
192.1302313007
 31
0.0
  0
LINE
  5
1E4
330
19B
100
AcDbEntity
  8
410592040_ESCUTC
  6
Continuous
 62
     7
100
AcDbLine
 10
180.3675138091
 20
192.1302313007
 30
0.0
 11
168.3702109144
 21
192.1302313007
 31
0.0
  0
LINE
  5
1E5
330
19B
100
AcDbEntity
  8
410592040_ESCUTC
  6
Continuous
 62
     7
100
AcDbLine
 10
22.3466956083
 20
192.1302313007
 30
0.0
 11
22.8438071673
 21
192.1302313007
 31
0.0
  0
LINE
  5
1E6
330
19B
100
AcDbEntity
  8
410592040_ESCUTC
  6
Continuous
 62
     7
100
AcDbLine
 10
167.8731046656
 20
192.1302313007
 30
0.0
 11
168.3702109144
 21
192.1302313007
 31
0.0
  0
LINE
  5
1E7
330
19B
100
AcDbEntity
  8
410592040_ESCUTC
  6
Continuous
 62
     7
100
AcDbLine
 10
180.1488415791
 20
179.6121733703
 30
0.0
 11
180.3675138091
 21
192.1302313007
 31
0.0
  0
LINE
  5
1E8
330
19B
100
AcDbEntity
  8
410592040_ESCUTC
  6
Continuous
 62
     7
100
AcDbLine
 10
10.349395841
 20
192.1302313007
 30
0.0
 11
10.5680680706
 21
179.6121733704
 31
0.0
  0
ARC
  5
1E9
330
19B
100
AcDbEntity
  8
410592040_ESCUTC
  6
Continuous
 62
     7
100
AcDbCircle
 10
95.3584548347
 20
5178.1202313007
 30
0.0
 40
5000.0
100
AcDbArc
 50
270.3809925519
 51
270.9622832041
  0
ARC
  5
1EA
330
19B
100
AcDbEntity
  8
410592040_ESCUTC
  6
Continuous
 62
     7
100
AcDbCircle
 10
95.3584548347
 20
5178.1202313007
 30
0.0
 40
5000.0
100
AcDbArc
 50
269.0377178591
 51
269.6190083972
  0
ARC
  5
1EB
330
19B
100
AcDbEntity
  8
410592040_ESCUTC
  6
Continuous
 62
     7
100
AcDbCircle
 10
11.3679514822
 20
179.6258344502
 30
0.0
 40
0.8000000000000143
100
AcDbArc
 50
181.3263057972
 51
271.6278309196
  0
ARC
  5
1EC
330
19B
100
AcDbEntity
  8
410592040_ESCUTC
  6
Continuous
 62
     7
100
AcDbCircle
 10
179.3489581674
 20
179.6258344498
 30
0.0
 40
0.7999999999991219
100
AcDbArc
 50
268.3721690505
 51
359.3154049237
  0
LINE
  5
1ED
330
19B
100
AcDbEntity
  8
410576038_DECORA
  6
Continuous
 62
     7
100
AcDbLine
 10
67.4109605165
 20
161.6302313007
 30
0.0
 11
123.3059608638
 21
161.6302313007
 31
0.0
  0
LINE
  5
1EE
330
19B
100
AcDbEntity
  8
410576038_DECORA
  6
Continuous
 62
     7
100
AcDbLine
 10
62.6606502544
 20
161.6302313007
 30
0.0
 11
67.4109605165
 21
161.6302313007
 31
0.0
  0
LINE
  5
1EF
330
19B
100
AcDbEntity
  8
410576038_DECORA
  6
Continuous
 62
     7
100
AcDbLine
 10
128.0562591723
 20
161.6302313007
 30
0.0
 11
123.3059608638
 21
161.6302313007
 31
0.0
  0
LINE
  5
1F0
330
19B
100
AcDbEntity
  8
410576038_DECORA
  6
Continuous
 62
     7
100
AcDbLine
 10
67.4239576101
 20
159.1302313007
 30
0.0
 11
62.6772313057
 21
159.1302313007
 31
0.0
  0
LINE
  5
1F1
330
19B
100
AcDbEntity
  8
410576038_DECORA
  6
Continuous
 62
     7
100
AcDbLine
 10
123.2929635559
 20
159.1302313007
 30
0.0
 11
67.4239576101
 21
159.1302313007
 31
0.0
  0
LINE
  5
1F2
330
19B
100
AcDbEntity
  8
410576038_DECORA
  6
Continuous
 62
     7
100
AcDbLine
 10
123.2929635559
 20
159.1302313007
 30
0.0
 11
128.039678121
 21
159.1302313007
 31
0.0
  0
LINE
  5
1F3
330
19B
100
AcDbEntity
  8
410576038_DECORA
  6
Continuous
 62
     7
100
AcDbLine
 10
128.3396667089
 20
159.4276133395
 30
0.0
 11
128.3562477577
 21
161.32761334
 31
0.0
  0
LINE
  5
1F4
330
19B
100
AcDbEntity
  8
410576038_DECORA
  6
Continuous
 62
     7
100
AcDbLine
 10
62.360661669
 20
161.32761334
 30
0.0
 11
62.3772427178
 21
159.4276133395
 31
0.0
  0
ARC
  5
1F5
330
19B
100
AcDbEntity
  8
410576038_DECORA
  6
Continuous
 62
     7
100
AcDbCircle
 10
62.6772383415
 20
159.4302312997
 30
0.0
 40
0.2999999990123575
100
AcDbArc
 50
181.1401326519
 51
270.0026713299
  0
ARC
  5
1F6
330
19B
100
AcDbEntity
  8
410576038_DECORA
  6
Continuous
 62
     7
100
AcDbCircle
 10
128.0396710852
 20
159.4302313008
 30
0.0
 40
0.2999999751098768
100
AcDbArc
 50
269.9973286779
 51
0.1481283131
  0
ARC
  5
1F7
330
19B
100
AcDbEntity
  8
410576038_DECORA
  6
Continuous
 62
     7
100
AcDbCircle
 10
62.6606570417
 20
161.3302312993
 30
0.0
 40
0.2999999757722534
100
AcDbArc
 50
89.9974040481
 51
181.6166714014
  0
ARC
  5
1F8
330
19B
100
AcDbEntity
  8
410576038_DECORA
  6
Continuous
 62
     7
100
AcDbCircle
 10
128.056252385
 20
161.3302313008
 30
0.0
 40
0.2999999998593847
100
AcDbArc
 50
0.1690297733
 51
90.0025959393
  0
LINE
  5
1FA
330
19B
100
AcDbEntity
  8
DV3_Default
  6
Continuous
 62
     7
100
AcDbLine
 10
63.2187216099
 20
178.2420729053
 30
0.0
 11
63.3558596209
 21
162.52761334
 31
0.0
  0
LINE
  5
1FB
330
19B
100
AcDbEntity
  8
DV3_Default
  6
Continuous
 62
     7
100
AcDbLine
 10
127.4981880594
 20
178.2420729053
 30
0.0
 11
127.3610500484
 21
162.52761334
 31
0.0
  0
ENDBLK
  5
1FD
330
19B
100
AcDbEntity
  8
0
100
AcDbBlockEnd
  0
ENDSEC
  0
SECTION
  2
ENTITIES
  0
INSERT
  5
5F
330
1F
100
AcDbEntity
  8
Default
100
AcDbBlockReference
  2
SEANNOT_GROUP
 10
0.0
 20
0.0
 30
0.0
  0
INSERT
  5
6A
330
1F
100
AcDbEntity
  8
Default
100
AcDbBlockReference
  2
SEANNOT_GROUP1
 10
0.0
 20
0.0
 30
0.0
  0
INSERT
  5
70
330
1F
100
AcDbEntity
  8
Default
100
AcDbBlockReference
  2
SEANNOT_GROUP2
 10
0.0
 20
0.0
 30
0.0
  0
INSERT
  5
76
330
1F
100
AcDbEntity
  8
Default
100
AcDbBlockReference
  2
SE
 10
0.0
 20
0.0
 30
0.0
  0
INSERT
  5
116
330
1F
100
AcDbEntity
  8
Default
100
AcDbBlockReference
  2
SE1
 10
0.0
 20
0.0
 30
0.0
  0
INSERT
  5
19C
330
1F
100
AcDbEntity
  8
Default
100
AcDbBlockReference
  2
SE2
 10
0.0
 20
0.0
 30
0.0
  0
TEXT
  5
1FF
330
1F
100
AcDbEntity
  8
Default
  6
Continuous
 62
     7
100
AcDbText
 10
5.9362635081
 20
53.4225120485
 30
0.0
 40
10.0
  1
Grohe AG^J
  7
SEACAD_seiso_ttf
 11
5.9362635081
 21
63.4225120485
 31
0.0
100
AcDbText
 73
     3
  0
TEXT
  5
200
330
1F
100
AcDbEntity
  8
Default
  6
Continuous
 62
     7
100
AcDbText
 10
5.9362635081
 20
37.0588756849
 30
0.0
 40
10.0
  1
 
  7
SEACAD_seiso_ttf
 11
5.9362635081
 21
47.0588756849
 31
0.0
100
AcDbText
 73
     3
  0
TEXT
  5
201
330
1F
100
AcDbEntity
  8
Default
  6
Continuous
 62
     7
100
AcDbText
 10
5.9362635081
 20
20.6952393213
 30
0.0
 40
10.0
  1
ecn:
  7
SEACAD_seiso_ttf
 11
5.9362635081
 21
30.6952393213
 31
0.0
100
AcDbText
 73
     3
  0
TEXT
  5
202
330
1F
100
AcDbEntity
  8
Default
  6
Continuous
 62
     7
100
AcDbText
 10
5.9362635081
 20
4.3316029576
 30
0.0
 40
10.0
  1
unit: mm
  7
SEACAD_seiso_ttf
 11
5.9362635081
 21
14.3316029576
 31
0.0
100
AcDbText
 73
     3
  0
LINE
  5
203
330
1F
100
AcDbEntity
  8
Default
  6
Continuous
 62
     7
100
AcDbLine
 10
0.0
 20
0.0
 30
0.0
 11
100.0
 21
0.0
 31
0.0
  0
LINE
  5
204
330
1F
100
AcDbEntity
  8
Default
  6
Continuous
 62
     7
100
AcDbLine
 10
0.0
 20
0.0
 30
0.0
 11
0.0
 21
100.0
 31
0.0
  0
TEXT
  5
205
330
1F
100
AcDbEntity
  8
Default
  6
Continuous
 62
     7
100
AcDbText
 10
24.3923665681
 20
-18.2375342018
 30
0.0
 40
10.0
  1
100 mm
  7
SEACAD_seiso_ttf
 11
24.3923665681
 21
-8.2375342018
 31
0.0
100
AcDbText
 73
     3
  0
TEXT
  5
206
330
1F
100
AcDbEntity
  8
Default
  6
Continuous
 62
     7
100
AcDbText
 10
-7.6150308803
 20
24.6231930421
 30
0.0
 40
10.0
  1
100 mm
 50
90.0
  7
SEACAD_seiso_ttf
 11
-17.6150308803
 21
24.6231930421
 31
0.0
100
AcDbText
 73
     3
  0
TEXT
  5
207
330
1F
100
AcDbEntity
  8
Default
  6
Continuous
 62
     7
100
AcDbText
 10
28.4878128572
 20
20.0907663715
 30
0.0
 40
10.0
  1
226329
  7
SEACAD_seiso_ttf
 11
28.4878128572
 21
30.0907663715
 31
0.0
100
AcDbText
 73
     3
  0
TEXT
  5
208
330
1F
100
AcDbEntity
  8
Default
  6
Continuous
 62
     7
100
AcDbText
 10
5.9012241913
 20
36.7242780188
 30
0.0
 40
10.0
  1
19938000
  7
SEACAD_seiso_ttf
 11
5.9012241913
 21
46.7242780188
 31
0.0
100
AcDbText
 73
     3
  0
ENDSEC
  0
SECTION
  2
OBJECTS
  0
DICTIONARY
  5
C
330
0
100
AcDbDictionary
281
     1
  3
ACAD_GROUP
350
D
  3
ACAD_LAYOUT
350
1A
  3
ACAD_MLEADERSTYLE
350
20C
  3
ACAD_MLINESTYLE
350
17
  3
ACAD_PLOTSETTINGS
350
19
  3
ACAD_PLOTSTYLENAME
350
E
  3
ACAD_SCALELIST
350
3B
  3
ACAD_TABLESTYLE
350
20B
  3
ACAD_VISUALSTYLE
350
2A
  3
AcDbVariableDictionary
350
209
  0
DICTIONARY
  5
D
102
{ACAD_REACTORS
330
C
102
}
330
C
100
AcDbDictionary
281
     1
  0
DICTIONARY
  5
1A
102
{ACAD_REACTORS
330
C
102
}
330
C
100
AcDbDictionary
281
     1
  3
Layout1
350
1E
  3
Model
350
22
  0
DICTIONARY
  5
20C
102
{ACAD_REACTORS
330
C
102
}
330
C
100
AcDbDictionary
281
     1
  0
DICTIONARY
  5
17
102
{ACAD_REACTORS
330
C
102
}
330
C
100
AcDbDictionary
281
     1
  3
Standard
350
18
  0
DICTIONARY
  5
19
102
{ACAD_REACTORS
330
C
102
}
330
C
100
AcDbDictionary
281
     1
  0
ACDBDICTIONARYWDFLT
  5
E
102
{ACAD_REACTORS
330
C
102
}
330
C
100
AcDbDictionary
281
     1
  3
Normal
350
F
100
AcDbDictionaryWithDefault
340
F
  0
DICTIONARY
  5
3B
102
{ACAD_REACTORS
330
C
102
}
330
C
100
AcDbDictionary
281
     1
  3
A0
350
3C
  3
A1
350
3D
  3
A2
350
3E
  3
A3
350
3F
  3
A4
350
40
  3
A5
350
41
  3
A6
350
42
  3
A7
350
43
  3
A8
350
44
  3
A9
350
45
  3
B0
350
46
  3
B1
350
47
  3
B2
350
48
  3
B3
350
49
  3
B4
350
4A
  3
B5
350
4B
  3
B6
350
4C
  3
B7
350
4D
  3
B8
350
4E
  3
B9
350
4F
  3
C0
350
50
  3
C1
350
51
  3
C2
350
52
  3
C3
350
53
  3
C4
350
54
  3
C5
350
55
  3
C6
350
56
  3
C7
350
57
  3
C8
350
58
  3
C9
350
59
  3
D0
350
5A
  3
D1
350
5B
  3
D2
350
5C
  0
DICTIONARY
  5
20B
102
{ACAD_REACTORS
330
C
102
}
330
C
100
AcDbDictionary
281
     1
  0
DICTIONARY
  5
2A
102
{ACAD_REACTORS
330
C
102
}
330
C
100
AcDbDictionary
281
     1
  3
2dWireframe
350
2F
  3
3D Hidden
350
31
  3
3dWireframe
350
30
  3
Basic
350
32
  3
Brighten
350
36
  3
ColorChange
350
3A
  3
Conceptual
350
34
  3
Dim
350
35
  3
Facepattern
350
39
  3
Flat
350
2B
  3
FlatWithEdges
350
2C
  3
Gouraud
350
2D
  3
GouraudWithEdges
350
2E
  3
Linepattern
350
38
  3
Realistic
350
33
  3
Thicken
350
37
  0
DICTIONARY
  5
209
102
{ACAD_REACTORS
330
C
102
}
330
C
100
AcDbDictionary
281
     1
  3
CANNOSCALE
350
20A
  3
PSOLHEIGHT
350
20E
  3
PSOLWIDTH
350
20D
  0
LAYOUT
  5
1E
102
{ACAD_REACTORS
330
1A
102
}
330
1A
100
AcDbPlotSettings
  1

  2
none_device
  4

  6

 40
0.0
 41
0.0
 42
0.0
 43
0.0
 44
0.0
 45
0.0
 46
0.0
 47
0.0
 48
0.0
 49
0.0
140
0.0
141
0.0
142
1.0
143
1.0
 70
   688
 72
     0
 73
     0
 74
     5
  7

 75
    16
147
1.0
148
0.0
149
0.0
100
AcDbLayout
  1
Layout1
 70
     1
 71
     1
 10
0.0
 20
0.0
 11
3000.0
 21
4500.0
 12
0.0
 22
0.0
 32
0.0
 14
0.0
 24
0.0
 34
0.0
 15
3000.0
 25
4500.0
 35
0.0
146
0.0
 13
0.0
 23
0.0
 33
0.0
 16
1.0
 26
0.0
 36
0.0
 17
0.0
 27
1.0
 37
0.0
 76
     0
330
1B
  0
LAYOUT
  5
22
102
{ACAD_REACTORS
330
1A
102
}
330
1A
100
AcDbPlotSettings
  1

  2
none_device
  4

  6

 40
0.0
 41
0.0
 42
0.0
 43
0.0
 44
0.0
 45
0.0
 46
0.0
 47
0.0
 48
0.0
 49
0.0
140
0.0
141
0.0
142
1.0
143
1.0
 70
  1712
 72
     0
 73
     0
 74
     0
  7

 75
     0
147
1.0
148
0.0
149
0.0
100
AcDbLayout
  1
Model
 70
     1
 71
     0
 10
0.0
 20
0.0
 11
3000.0
 21
4500.0
 12
0.0
 22
0.0
 32
0.0
 14
0.0
 24
0.0
 34
0.0
 15
3000.0
 25
4500.0
 35
0.0
146
0.0
 13
0.0
 23
0.0
 33
0.0
 16
1.0
 26
0.0
 36
0.0
 17
0.0
 27
1.0
 37
0.0
 76
     0
330
1F
331
29
  0
MLINESTYLE
  5
18
102
{ACAD_REACTORS
330
17
102
}
330
17
100
AcDbMlineStyle
  2
Standard
 70
     0
  3

 62
   256
 51
90.0
 52
90.0
 71
     2
 49
0.5
 62
   256
  6
BYLAYER
 49
-0.5
 62
   256
  6
BYLAYER
  0
ACDBPLACEHOLDER
  5
F
102
{ACAD_REACTORS
330
E
102
}
330
E
  0
SCALE
  5
3C
102
{ACAD_REACTORS
330
3B
102
}
330
3B
100
AcDbScale
 70
     0
300
1:1
140
1.0
141
1.0
290
     1
  0
SCALE
  5
3D
102
{ACAD_REACTORS
330
3B
102
}
330
3B
100
AcDbScale
 70
     0
300
1:2
140
1.0
141
2.0
290
     0
  0
SCALE
  5
3E
102
{ACAD_REACTORS
330
3B
102
}
330
3B
100
AcDbScale
 70
     0
300
1:4
140
1.0
141
4.0
290
     0
  0
SCALE
  5
3F
102
{ACAD_REACTORS
330
3B
102
}
330
3B
100
AcDbScale
 70
     0
300
1:5
140
1.0
141
5.0
290
     0
  0
SCALE
  5
40
102
{ACAD_REACTORS
330
3B
102
}
330
3B
100
AcDbScale
 70
     0
300
1:8
140
1.0
141
8.0
290
     0
  0
SCALE
  5
41
102
{ACAD_REACTORS
330
3B
102
}
330
3B
100
AcDbScale
 70
     0
300
1:10
140
1.0
141
10.0
290
     0
  0
SCALE
  5
42
102
{ACAD_REACTORS
330
3B
102
}
330
3B
100
AcDbScale
 70
     0
300
1:16
140
1.0
141
16.0
290
     0
  0
SCALE
  5
43
102
{ACAD_REACTORS
330
3B
102
}
330
3B
100
AcDbScale
 70
     0
300
1:20
140
1.0
141
20.0
290
     0
  0
SCALE
  5
44
102
{ACAD_REACTORS
330
3B
102
}
330
3B
100
AcDbScale
 70
     0
300
1:30
140
1.0
141
30.0
290
     0
  0
SCALE
  5
45
102
{ACAD_REACTORS
330
3B
102
}
330
3B
100
AcDbScale
 70
     0
300
1:40
140
1.0
141
40.0
290
     0
  0
SCALE
  5
46
102
{ACAD_REACTORS
330
3B
102
}
330
3B
100
AcDbScale
 70
     0
300
1:50
140
1.0
141
50.0
290
     0
  0
SCALE
  5
47
102
{ACAD_REACTORS
330
3B
102
}
330
3B
100
AcDbScale
 70
     0
300
1:100
140
1.0
141
100.0
290
     0
  0
SCALE
  5
48
102
{ACAD_REACTORS
330
3B
102
}
330
3B
100
AcDbScale
 70
     0
300
2:1
140
2.0
141
1.0
290
     0
  0
SCALE
  5
49
102
{ACAD_REACTORS
330
3B
102
}
330
3B
100
AcDbScale
 70
     0
300
4:1
140
4.0
141
1.0
290
     0
  0
SCALE
  5
4A
102
{ACAD_REACTORS
330
3B
102
}
330
3B
100
AcDbScale
 70
     0
300
8:1
140
8.0
141
1.0
290
     0
  0
SCALE
  5
4B
102
{ACAD_REACTORS
330
3B
102
}
330
3B
100
AcDbScale
 70
     0
300
10:1
140
10.0
141
1.0
290
     0
  0
SCALE
  5
4C
102
{ACAD_REACTORS
330
3B
102
}
330
3B
100
AcDbScale
 70
     0
300
100:1
140
100.0
141
1.0
290
     0
  0
SCALE
  5
4D
102
{ACAD_REACTORS
330
3B
102
}
330
3B
100
AcDbScale
 70
     0
300
1/128" = 1'-0"
140
0.0078125
141
12.0
290
     0
  0
SCALE
  5
4E
102
{ACAD_REACTORS
330
3B
102
}
330
3B
100
AcDbScale
 70
     0
300
1/64" = 1'-0"
140
0.015625
141
12.0
290
     0
  0
SCALE
  5
4F
102
{ACAD_REACTORS
330
3B
102
}
330
3B
100
AcDbScale
 70
     0
300
1/32" = 1'-0"
140
0.03125
141
12.0
290
     0
  0
SCALE
  5
50
102
{ACAD_REACTORS
330
3B
102
}
330
3B
100
AcDbScale
 70
     0
300
1/16" = 1'-0"
140
0.0625
141
12.0
290
     0
  0
SCALE
  5
51
102
{ACAD_REACTORS
330
3B
102
}
330
3B
100
AcDbScale
 70
     0
300
3/32" = 1'-0"
140
0.09375
141
12.0
290
     0
  0
SCALE
  5
52
102
{ACAD_REACTORS
330
3B
102
}
330
3B
100
AcDbScale
 70
     0
300
1/8" = 1'-0"
140
0.125
141
12.0
290
     0
  0
SCALE
  5
53
102
{ACAD_REACTORS
330
3B
102
}
330
3B
100
AcDbScale
 70
     0
300
3/16" = 1'-0"
140
0.1875
141
12.0
290
     0
  0
SCALE
  5
54
102
{ACAD_REACTORS
330
3B
102
}
330
3B
100
AcDbScale
 70
     0
300
1/4" = 1'-0"
140
0.25
141
12.0
290
     0
  0
SCALE
  5
55
102
{ACAD_REACTORS
330
3B
102
}
330
3B
100
AcDbScale
 70
     0
300
3/8" = 1'-0"
140
0.375
141
12.0
290
     0
  0
SCALE
  5
56
102
{ACAD_REACTORS
330
3B
102
}
330
3B
100
AcDbScale
 70
     0
300
1/2" = 1'-0"
140
0.5
141
12.0
290
     0
  0
SCALE
  5
57
102
{ACAD_REACTORS
330
3B
102
}
330
3B
100
AcDbScale
 70
     0
300
3/4" = 1'-0"
140
0.75
141
12.0
290
     0
  0
SCALE
  5
58
102
{ACAD_REACTORS
330
3B
102
}
330
3B
100
AcDbScale
 70
     0
300
1" = 1'-0"
140
1.0
141
12.0
290
     0
  0
SCALE
  5
59
102
{ACAD_REACTORS
330
3B
102
}
330
3B
100
AcDbScale
 70
     0
300
1-1/2" = 1'-0"
140
1.5
141
12.0
290
     0
  0
SCALE
  5
5A
102
{ACAD_REACTORS
330
3B
102
}
330
3B
100
AcDbScale
 70
     0
300
3" = 1'-0"
140
3.0
141
12.0
290
     0
  0
SCALE
  5
5B
102
{ACAD_REACTORS
330
3B
102
}
330
3B
100
AcDbScale
 70
     0
300
6" = 1'-0"
140
6.0
141
12.0
290
     0
  0
SCALE
  5
5C
102
{ACAD_REACTORS
330
3B
102
}
330
3B
100
AcDbScale
 70
     0
300
1'-0" = 1'-0"
140
12.0
141
12.0
290
     0
  0
VISUALSTYLE
  5
2F
102
{ACAD_REACTORS
330
2A
102
}
330
2A
100
AcDbVisualStyle
  2
2dWireframe
 70
     4
 71
     0
 72
     2
 73
     0
 90
        0
 40
-0.6
 41
-30.0
 62
     5
 63
     7
 74
     1
 91
        4
 64
     7
 65
   257
 75
     1
175
     1
 42
1.0
 92
        0
 66
   257
 43
1.0
 76
     1
 77
     6
 78
     2
 67
     7
 79
     5
170
     0
171
     0
290
     0
174
     0
 93
        1
 44
0.0
173
     0
291
     0
 45
0.0
1001
ACAD
1000
AcDbSavedByObjectVersion
1070
     0
  0
VISUALSTYLE
  5
31
102
{ACAD_REACTORS
330
2A
102
}
330
2A
100
AcDbVisualStyle
  2
3D Hidden
 70
     6
 71
     1
 72
     2
 73
     2
 90
        0
 40
-0.6
 41
-30.0
 62
     5
 63
     7
 74
     2
 91
        2
 64
     7
 65
   257
 75
     2
175
     1
 42
40.0
 92
        0
 66
   257
 43
1.0
 76
     1
 77
     6
 78
     2
 67
     7
 79
     3
170
     0
171
     0
290
     0
174
     0
 93
        1
 44
0.0
173
     0
291
     0
 45
0.0
1001
ACAD
1000
AcDbSavedByObjectVersion
1070
     0
  0
VISUALSTYLE
  5
30
102
{ACAD_REACTORS
330
2A
102
}
330
2A
100
AcDbVisualStyle
  2
3dWireframe
 70
     5
 71
     0
 72
     2
 73
     0
 90
        0
 40
-0.6
 41
-30.0
 62
     5
 63
     7
 74
     1
 91
        4
 64
     7
 65
   257
 75
     1
175
     1
 42
1.0
 92
        0
 66
   257
 43
1.0
 76
     1
 77
     6
 78
     2
 67
     7
 79
     5
170
     0
171
     0
290
     0
174
     0
 93
        1
 44
0.0
173
     0
291
     0
 45
0.0
1001
ACAD
1000
AcDbSavedByObjectVersion
1070
     0
  0
VISUALSTYLE
  5
32
102
{ACAD_REACTORS
330
2A
102
}
330
2A
100
AcDbVisualStyle
  2
Basic
 70
     7
 71
     1
 72
     0
 73
     1
 90
        0
 40
-0.6
 41
-30.0
 62
     5
 63
     7
 74
     0
 91
        4
 64
     7
 65
   257
 75
     1
175
     1
 42
1.0
 92
        8
 66
     7
 43
1.0
 76
     1
 77
     6
 78
     2
 67
     7
 79
     5
170
     0
171
     0
290
     0
174
     0
 93
        1
 44
0.0
173
     0
291
     1
 45
0.0
1001
ACAD
1000
AcDbSavedByObjectVersion
1070
     0
  0
VISUALSTYLE
  5
36
102
{ACAD_REACTORS
330
2A
102
}
330
2A
100
AcDbVisualStyle
  2
Brighten
 70
    12
 71
     2
 72
     2
 73
     0
 90
        0
 40
-0.6
 41
-30.0
 62
     5
 63
     7
 74
     1
 91
        4
 64
     7
 65
   257
 75
     1
175
     1
 42
1.0
 92
        8
 66
     7
 43
1.0
 76
     1
 77
     6
 78
     2
 67
     7
 79
     5
170
     0
171
     0
290
     0
174
     0
 93
        1
 44
50.0
173
     0
291
     1
 45
0.0
1001
ACAD
1000
AcDbSavedByObjectVersion
1070
     0
  0
VISUALSTYLE
  5
3A
102
{ACAD_REACTORS
330
2A
102
}
330
2A
100
AcDbVisualStyle
  2
ColorChange
 70
    16
 71
     2
 72
     2
 73
     3
 90
        0
 40
-0.6
 41
-30.0
 62
     5
 63
     8
 74
     1
 91
        4
 64
     7
 65
   257
 75
     1
175
     1
 42
1.0
 92
        8
 66
     8
 43
1.0
 76
     1
 77
     6
 78
     2
 67
     7
 79
     5
170
     0
171
     0
290
     0
174
     0
 93
        1
 44
0.0
173
     0
291
     1
 45
0.0
1001
ACAD
1000
AcDbSavedByObjectVersion
1070
     0
  0
VISUALSTYLE
  5
34
102
{ACAD_REACTORS
330
2A
102
}
330
2A
100
AcDbVisualStyle
  2
Conceptual
 70
     9
 71
     3
 72
     2
 73
     0
 90
        0
 40
-0.6
 41
-30.0
 62
     5
 63
     7
 74
     2
 91
        2
 64
     7
 65
   257
 75
     1
175
     1
 42
40.0
 92
        8
 66
     7
 43
1.0
 76
     1
 77
     6
 78
     2
 67
     7
 79
     3
170
     0
171
     0
290
     0
174
     0
 93
        1
 44
0.0
173
     0
291
     0
 45
0.0
1001
ACAD
1000
AcDbSavedByObjectVersion
1070
     0
  0
VISUALSTYLE
  5
35
102
{ACAD_REACTORS
330
2A
102
}
330
2A
100
AcDbVisualStyle
  2
Dim
 70
    11
 71
     2
 72
     2
 73
     0
 90
        0
 40
-0.6
 41
-30.0
 62
     5
 63
     7
 74
     1
 91
        4
 64
     7
 65
   257
 75
     1
175
     1
 42
1.0
 92
        8
 66
     7
 43
1.0
 76
     1
 77
     6
 78
     2
 67
     7
 79
     5
170
     0
171
     0
290
     0
174
     0
 93
        1
 44
-50.0
173
     0
291
     1
 45
0.0
1001
ACAD
1000
AcDbSavedByObjectVersion
1070
     0
  0
VISUALSTYLE
  5
39
102
{ACAD_REACTORS
330
2A
102
}
330
2A
100
AcDbVisualStyle
  2
Facepattern
 70
    15
 71
     2
 72
     2
 73
     0
 90
        0
 40
-0.6
 41
-30.0
 62
     5
 63
     7
 74
     1
 91
        4
 64
     7
 65
   257
 75
     1
175
     1
 42
1.0
 92
        8
 66
     7
 43
1.0
 76
     1
 77
     6
 78
     2
 67
     7
 79
     5
170
     0
171
     0
290
     0
174
     0
 93
        1
 44
0.0
173
     0
291
     1
 45
0.0
1001
ACAD
1000
AcDbSavedByObjectVersion
1070
     0
  0
VISUALSTYLE
  5
2B
102
{ACAD_REACTORS
330
2A
102
}
330
2A
100
AcDbVisualStyle
  2
Flat
 70
     0
 71
     2
 72
     1
 73
     1
 90
        2
 40
-0.6
 41
30.0
 62
     5
 63
     7
 74
     0
 91
        4
 64
     7
 65
   257
 75
     1
175
     1
 42
1.0
 92
        8
 66
     7
 43
1.0
 76
     1
 77
     6
 78
     2
 67
     7
 79
     5
170
     0
171
     0
290
     0
174
     0
 93
       13
 44
0.0
173
     0
291
     1
 45
0.0
1001
ACAD
1000
AcDbSavedByObjectVersion
1070
     0
  0
VISUALSTYLE
  5
2C
102
{ACAD_REACTORS
330
2A
102
}
330
2A
100
AcDbVisualStyle
  2
FlatWithEdges
 70
     1
 71
     2
 72
     1
 73
     1
 90
        2
 40
-0.6
 41
30.0
 62
     5
 63
     7
 74
     1
 91
        4
 64
     7
 65
   257
 75
     1
175
     1
 42
1.0
 92
        0
 66
   257
 43
1.0
 76
     1
 77
     6
 78
     2
 67
     7
 79
     5
170
     0
171
     0
290
     0
174
     0
 93
       13
 44
0.0
173
     0
291
     1
 45
0.0
1001
ACAD
1000
AcDbSavedByObjectVersion
1070
     0
  0
VISUALSTYLE
  5
2D
102
{ACAD_REACTORS
330
2A
102
}
330
2A
100
AcDbVisualStyle
  2
Gouraud
 70
     2
 71
     2
 72
     2
 73
     1
 90
        2
 40
-0.6
 41
30.0
 62
     5
 63
     7
 74
     0
 91
        4
 64
     7
 65
   257
 75
     1
175
     1
 42
1.0
 92
        0
 66
     7
 43
1.0
 76
     1
 77
     6
 78
     2
 67
     7
 79
     5
170
     0
171
     0
290
     0
174
     0
 93
       13
 44
0.0
173
     0
291
     1
 45
0.0
1001
ACAD
1000
AcDbSavedByObjectVersion
1070
     0
  0
VISUALSTYLE
  5
2E
102
{ACAD_REACTORS
330
2A
102
}
330
2A
100
AcDbVisualStyle
  2
GouraudWithEdges
 70
     3
 71
     2
 72
     2
 73
     1
 90
        2
 40
-0.6
 41
30.0
 62
     5
 63
     7
 74
     1
 91
        4
 64
     7
 65
   257
 75
     1
175
     1
 42
1.0
 92
        0
 66
   257
 43
1.0
 76
     1
 77
     6
 78
     2
 67
     7
 79
     5
170
     0
171
     0
290
     0
174
     0
 93
       13
 44
0.0
173
     0
291
     1
 45
0.0
1001
ACAD
1000
AcDbSavedByObjectVersion
1070
     0
  0
VISUALSTYLE
  5
38
102
{ACAD_REACTORS
330
2A
102
}
330
2A
100
AcDbVisualStyle
  2
Linepattern
 70
    14
 71
     2
 72
     2
 73
     0
 90
        0
 40
-0.6
 41
-30.0
 62
     5
 63
     7
 74
     1
 91
        4
 64
     7
 65
   257
 75
     7
175
     7
 42
1.0
 92
        8
 66
     7
 43
1.0
 76
     1
 77
     6
 78
     2
 67
     7
 79
     5
170
     0
171
     0
290
     0
174
     0
 93
        1
 44
0.0
173
     0
291
     1
 45
0.0
1001
ACAD
1000
AcDbSavedByObjectVersion
1070
     0
  0
VISUALSTYLE
  5
33
102
{ACAD_REACTORS
330
2A
102
}
330
2A
100
AcDbVisualStyle
  2
Realistic
 70
     8
 71
     2
 72
     2
 73
     0
 90
        0
 40
-0.6
 41
-30.0
 62
     5
 63
     7
 74
     1
 91
        0
 64
     7
 65
   257
 75
     1
175
     1
 42
1.0
 92
        8
 66
     8
 43
1.0
 76
     1
 77
     6
 78
     2
 67
     7
 79
     5
170
     0
171
     0
290
     0
174
     0
 93
       13
 44
0.0
173
     0
291
     0
 45
0.0
1001
ACAD
1000
AcDbSavedByObjectVersion
1070
     0
  0
VISUALSTYLE
  5
37
102
{ACAD_REACTORS
330
2A
102
}
330
2A
100
AcDbVisualStyle
  2
Thicken
 70
    13
 71
     2
 72
     2
 73
     0
 90
        0
 40
-0.6
 41
-30.0
 62
     5
 63
     7
 74
     1
 91
        4
 64
     7
 65
   257
 75
     1
175
     1
 42
1.0
 92
       12
 66
     7
 43
1.0
 76
     1
 77
     6
 78
     2
 67
     7
 79
     5
170
     0
171
     0
290
     0
174
     0
 93
        1
 44
0.0
173
     0
291
     1
 45
0.0
1001
ACAD
1000
AcDbSavedByObjectVersion
1070
     0
  0
DICTIONARYVAR
  5
20A
102
{ACAD_REACTORS
330
209
102
}
330
209
100
DictionaryVariables
280
     0
  1
1:1
  0
DICTIONARYVAR
  5
20E
102
{ACAD_REACTORS
330
209
102
}
330
209
100
DictionaryVariables
280
     0
  1
80.000000
  0
DICTIONARYVAR
  5
20D
102
{ACAD_REACTORS
330
209
102
}
330
209
100
DictionaryVariables
280
     0
  1
5.000000
  0
ENDSEC
  0
EOF
