  0
SECTION
  2
HEADER
  9
$ACADVER
  1
AC1015
  9
$ACADMAINTVER
 70
     6
  9
$DWGCODEPAGE
  3
ANSI_1252
  9
$INSBASE
 10
0.0
 20
0.0
 30
0.0
  9
$EXTMIN
 10
0.0
 20
0.0
 30
0.0
  9
$EXTMAX
 10
1682.0
 20
2378.0
 30
0.0
  9
$LIMMIN
 10
0.0
 20
0.0
  9
$LIMMAX
 10
1682.0
 20
2378.0
  9
$ORTHOMODE
 70
     0
  9
$REGENMODE
 70
     1
  9
$FILLMODE
 70
     1
  9
$QTEXTMODE
 70
     0
  9
$MIRRTEXT
 70
     1
  9
$LTSCALE
 40
1.0
  9
$ATTMODE
 70
     1
  9
$TEXTSIZE
 40
2.5
  9
$TRACEWID
 40
1.0
  9
$TEXTSTYLE
  7
Standard
  9
$CLAYER
  8
0
  9
$CELTYPE
  6
ByLayer
  9
$CECOLOR
 62
   256
  9
$CELTSCALE
 40
1.0
  9
$DISPSILH
 70
     0
  9
$DIMSCALE
 40
1.0
  9
$DIMASZ
 40
2.5
  9
$DIMEXO
 40
0.625
  9
$DIMDLI
 40
3.75
  9
$DIMRND
 40
0.0
  9
$DIMDLE
 40
0.0
  9
$DIMEXE
 40
1.25
  9
$DIMTP
 40
0.0
  9
$DIMTM
 40
0.0
  9
$DIMTXT
 40
2.5
  9
$DIMCEN
 40
2.5
  9
$DIMTSZ
 40
0.0
  9
$DIMTOL
 70
     0
  9
$DIMLIM
 70
     0
  9
$DIMTIH
 70
     0
  9
$DIMTOH
 70
     0
  9
$DIMSE1
 70
     0
  9
$DIMSE2
 70
     0
  9
$DIMTAD
 70
     1
  9
$DIMZIN
 70
     8
  9
$DIMBLK
  1

  9
$DIMASO
 70
     1
  9
$DIMSHO
 70
     1
  9
$DIMPOST
  1

  9
$DIMAPOST
  1

  9
$DIMALT
 70
     0
  9
$DIMALTD
 70
     3
  9
$DIMALTF
 40
0.0393700787
  9
$DIMLFAC
 40
1.0
  9
$DIMTOFL
 70
     1
  9
$DIMTVP
 40
0.0
  9
$DIMTIX
 70
     0
  9
$DIMSOXD
 70
     0
  9
$DIMSAH
 70
     0
  9
$DIMBLK1
  1

  9
$DIMBLK2
  1

  9
$DIMSTYLE
  2
ISO-25
  9
$DIMCLRD
 70
     0
  9
$DIMCLRE
 70
     0
  9
$DIMCLRT
 70
     0
  9
$DIMTFAC
 40
1.0
  9
$DIMGAP
 40
0.625
  9
$DIMJUST
 70
     0
  9
$DIMSD1
 70
     0
  9
$DIMSD2
 70
     0
  9
$DIMTOLJ
 70
     0
  9
$DIMTZIN
 70
     8
  9
$DIMALTZ
 70
     0
  9
$DIMALTTZ
 70
     0
  9
$DIMUPT
 70
     0
  9
$DIMDEC
 70
     2
  9
$DIMTDEC
 70
     2
  9
$DIMALTU
 70
     2
  9
$DIMALTTD
 70
     3
  9
$DIMTXSTY
  7
Standard
  9
$DIMAUNIT
 70
     0
  9
$DIMADEC
 70
     0
  9
$DIMALTRND
 40
0.0
  9
$DIMAZIN
 70
     0
  9
$DIMDSEP
 70
    44
  9
$DIMATFIT
 70
     3
  9
$DIMFRAC
 70
     0
  9
$DIMLDRBLK
  1

  9
$DIMLUNIT
 70
     2
  9
$DIMLWD
 70
    -2
  9
$DIMLWE
 70
    -2
  9
$DIMTMOVE
 70
     0
  9
$LUNITS
 70
     2
  9
$LUPREC
 70
     4
  9
$SKETCHINC
 40
1.0
  9
$FILLETRAD
 40
10.0
  9
$AUNITS
 70
     0
  9
$AUPREC
 70
     0
  9
$MENU
  1
.
  9
$ELEVATION
 40
0.0
  9
$PELEVATION
 40
0.0
  9
$THICKNESS
 40
0.0
  9
$LIMCHECK
 70
     0
  9
$CHAMFERA
 40
10.0
  9
$CHAMFERB
 40
10.0
  9
$CHAMFERC
 40
20.0
  9
$CHAMFERD
 40
0.0
  9
$SKPOLY
 70
     0
  9
$TDCREATE
 40
2455439.618972836
  9
$TDUCREATE
 40
2455439.535639502
  9
$TDUPDATE
 40
2455439.618972847
  9
$TDUUPDATE
 40
2455439.535639514
  9
$TDINDWG
 40
0.0000000116
  9
$TDUSRTIMER
 40
0.0000000116
  9
$USRTIMER
 70
     1
  9
$ANGBASE
 50
0.0
  9
$ANGDIR
 70
     0
  9
$PDMODE
 70
     0
  9
$PDSIZE
 40
0.0
  9
$PLINEWID
 40
0.0
  9
$SPLFRAME
 70
     0
  9
$SPLINETYPE
 70
     6
  9
$SPLINESEGS
 70
     8
  9
$HANDSEED
  5
247
  9
$SURFTAB1
 70
     6
  9
$SURFTAB2
 70
     6
  9
$SURFTYPE
 70
     6
  9
$SURFU
 70
     6
  9
$SURFV
 70
     6
  9
$UCSBASE
  2

  9
$UCSNAME
  2

  9
$UCSORG
 10
0.0
 20
0.0
 30
0.0
  9
$UCSXDIR
 10
1.0
 20
0.0
 30
0.0
  9
$UCSYDIR
 10
0.0
 20
1.0
 30
0.0
  9
$UCSORTHOREF
  2

  9
$UCSORTHOVIEW
 70
     0
  9
$UCSORGTOP
 10
0.0
 20
0.0
 30
0.0
  9
$UCSORGBOTTOM
 10
0.0
 20
0.0
 30
0.0
  9
$UCSORGLEFT
 10
0.0
 20
0.0
 30
0.0
  9
$UCSORGRIGHT
 10
0.0
 20
0.0
 30
0.0
  9
$UCSORGFRONT
 10
0.0
 20
0.0
 30
0.0
  9
$UCSORGBACK
 10
0.0
 20
0.0
 30
0.0
  9
$PUCSBASE
  2

  9
$PUCSNAME
  2

  9
$PUCSORG
 10
0.0
 20
0.0
 30
0.0
  9
$PUCSXDIR
 10
1.0
 20
0.0
 30
0.0
  9
$PUCSYDIR
 10
0.0
 20
1.0
 30
0.0
  9
$PUCSORTHOREF
  2

  9
$PUCSORTHOVIEW
 70
     0
  9
$PUCSORGTOP
 10
0.0
 20
0.0
 30
0.0
  9
$PUCSORGBOTTOM
 10
0.0
 20
0.0
 30
0.0
  9
$PUCSORGLEFT
 10
0.0
 20
0.0
 30
0.0
  9
$PUCSORGRIGHT
 10
0.0
 20
0.0
 30
0.0
  9
$PUCSORGFRONT
 10
0.0
 20
0.0
 30
0.0
  9
$PUCSORGBACK
 10
0.0
 20
0.0
 30
0.0
  9
$USERI1
 70
     0
  9
$USERI2
 70
     0
  9
$USERI3
 70
     0
  9
$USERI4
 70
     0
  9
$USERI5
 70
     0
  9
$USERR1
 40
0.0
  9
$USERR2
 40
0.0
  9
$USERR3
 40
0.0
  9
$USERR4
 40
0.0
  9
$USERR5
 40
0.0
  9
$WORLDVIEW
 70
     1
  9
$SHADEDGE
 70
     3
  9
$SHADEDIF
 70
    70
  9
$TILEMODE
 70
     1
  9
$MAXACTVP
 70
    64
  9
$PINSBASE
 10
0.0
 20
0.0
 30
0.0
  9
$PLIMCHECK
 70
     0
  9
$PEXTMIN
 10
0.0
 20
0.0
 30
0.0
  9
$PEXTMAX
 10
1682.0
 20
2378.0
 30
0.0
  9
$PLIMMIN
 10
0.0
 20
0.0
  9
$PLIMMAX
 10
1682.0
 20
2378.0
  9
$UNITMODE
 70
     0
  9
$VISRETAIN
 70
     1
  9
$PLINEGEN
 70
     0
  9
$PSLTSCALE
 70
     1
  9
$TREEDEPTH
 70
  3020
  9
$CMLSTYLE
  2
Standard
  9
$CMLJUST
 70
     0
  9
$CMLSCALE
 40
20.0
  9
$PROXYGRAPHICS
 70
     1
  9
$MEASUREMENT
 70
     1
  9
$CELWEIGHT
370
    -1
  9
$ENDCAPS
280
     0
  9
$JOINSTYLE
280
     0
  9
$LWDISPLAY
290
     0
  9
$INSUNITS
 70
     4
  9
$HYPERLINKBASE
  1

  9
$STYLESHEET
  1

  9
$XEDIT
290
     1
  9
$CEPSNTYPE
380
     0
  9
$PSTYLEMODE
290
     1
  9
$FINGERPRINTGUID
  2
{72FB5CCA-E6C9-4ABC-AE71-E1AD2CD8BFD7}
  9
$VERSIONGUID
  2
{FAEB1C32-E019-11D5-929B-00C0DF256EC4}
  9
$EXTNAMES
290
     1
  9
$PSVPSCALE
 40
0.0
  9
$OLESTARTUP
290
     0
  0
ENDSEC
  0
SECTION
  2
CLASSES
  0
CLASS
  1
ACDBDICTIONARYWDFLT
  2
AcDbDictionaryWithDefault
  3
ObjectDBX Classes
 90
        0
280
     0
281
     0
  0
CLASS
  1
VISUALSTYLE
  2
AcDbVisualStyle
  3
ObjectDBX Classes
 90
     4095
280
     0
281
     0
  0
CLASS
  1
SCALE
  2
AcDbScale
  3
ObjectDBX Classes
 90
     1153
280
     0
281
     0
  0
CLASS
  1
DICTIONARYVAR
  2
AcDbDictionaryVar
  3
ObjectDBX Classes
 90
        0
280
     0
281
     0
  0
CLASS
  1
ACDBPLACEHOLDER
  2
AcDbPlaceHolder
  3
ObjectDBX Classes
 90
        0
280
     0
281
     0
  0
CLASS
  1
LAYOUT
  2
AcDbLayout
  3
ObjectDBX Classes
 90
        0
280
     0
281
     0
  0
ENDSEC
  0
SECTION
  2
TABLES
  0
TABLE
  2
VPORT
  5
8
330
0
100
AcDbSymbolTable
 70
     1
  0
VPORT
  5
29
330
8
100
AcDbSymbolTableRecord
100
AcDbViewportTableRecord
  2
*Active
 70
     0
 10
0.0
 20
0.0
 11
1.0
 21
1.0
 12
344.1869158879
 22
148.5
 13
0.0
 23
0.0
 14
10.0
 24
10.0
 15
10.0
 25
10.0
 16
0.0
 26
0.0
 36
1.0
 17
0.0
 27
0.0
 37
0.0
 40
297.0
 41
1.9729729729
 42
50.0
 43
0.0
 44
0.0
 50
0.0
 51
0.0
 71
     0
 72
   100
 73
     1
 74
     3
 75
     0
 76
     0
 77
     0
 78
     0
281
     0
 65
     1
110
0.0
120
0.0
130
0.0
111
1.0
121
0.0
131
0.0
112
0.0
122
1.0
132
0.0
 79
     0
146
0.0
  0
ENDTAB
  0
TABLE
  2
LTYPE
  5
5
330
0
100
AcDbSymbolTable
 70
     2
  0
LTYPE
  5
14
330
5
100
AcDbSymbolTableRecord
100
AcDbLinetypeTableRecord
  2
ByBlock
 70
     0
  3

 72
    65
 73
     0
 40
0.0
  0
LTYPE
  5
15
330
5
100
AcDbSymbolTableRecord
100
AcDbLinetypeTableRecord
  2
ByLayer
 70
     0
  3

 72
    65
 73
     0
 40
0.0
  0
LTYPE
  5
16
330
5
100
AcDbSymbolTableRecord
100
AcDbLinetypeTableRecord
  2
Continuous
 70
     0
  3
Solid line
 72
    65
 73
     0
 40
0.0
  0
LTYPE
  5
60
330
5
100
AcDbSymbolTableRecord
100
AcDbLinetypeTableRecord
  2
CENTER2
 70
     0
  3
Center (.5x) ___ _ ___ _ ___ _ ___ _ ___ _ ___
 72
    65
 73
     4
 40
28.575
 49
19.05
 74
     4
 75
     0
340
0
 46
0.0
 50
0.0
 44
0.0
 45
0.0
 49
-3.175
 74
     4
 75
     0
340
0
 46
0.0
 50
0.0
 44
0.0
 45
0.0
 49
3.175
 74
     4
 75
     0
340
0
 46
0.0
 50
0.0
 44
0.0
 45
0.0
 49
-3.175
 74
     4
 75
     0
340
0
 46
0.0
 50
0.0
 44
0.0
 45
0.0
  0
ENDTAB
  0
TABLE
  2
LAYER
  5
2
330
0
100
AcDbSymbolTable
 70
     5
  0
LAYER
  5
10
330
2
100
AcDbSymbolTableRecord
100
AcDbLayerTableRecord
  2
0
 70
     0
 62
     7
  6
Continuous
370
    -3
390
F
  0
LAYER
  5
5D
330
2
100
AcDbSymbolTableRecord
100
AcDbLayerTableRecord
  2
Default
 70
     0
 62
     7
  6
Continuous
370
    -3
390
F
  0
LAYER
  5
97
330
2
100
AcDbSymbolTableRecord
100
AcDbLayerTableRecord
  2
DV1_Standard
 70
     0
 62
     7
  6
Continuous
370
    -3
390
F
  0
LAYER
  5
1C4
330
2
100
AcDbSymbolTableRecord
100
AcDbLayerTableRecord
  2
DV2_Standard
 70
     0
 62
     7
  6
Continuous
370
    -3
390
F
  0
LAYER
  5
214
330
2
100
AcDbSymbolTableRecord
100
AcDbLayerTableRecord
  2
DV3_Standard
 70
     0
 62
     7
  6
Continuous
370
    -3
390
F
  0
ENDTAB
  0
TABLE
  2
STYLE
  5
3
330
0
100
AcDbSymbolTable
 70
     2
  0
STYLE
  5
11
330
3
100
AcDbSymbolTableRecord
100
AcDbTextStyleTableRecord
  2
Standard
 70
     0
 40
0.0
 41
1.0
 50
0.0
 71
     0
 42
2.5
  3
txt
  4

  0
STYLE
  5
236
330
3
100
AcDbSymbolTableRecord
100
AcDbTextStyleTableRecord
  2
SEACAD_seiso_ttf
 70
     0
 40
0.0
 41
1.0
 50
0.0
 71
     0
 42
0.2
  3
seiso.ttf
  4

  0
ENDTAB
  0
TABLE
  2
VIEW
  5
6
330
0
100
AcDbSymbolTable
 70
     0
  0
ENDTAB
  0
TABLE
  2
UCS
  5
7
330
0
100
AcDbSymbolTable
 70
     0
  0
ENDTAB
  0
TABLE
  2
APPID
  5
9
330
0
100
AcDbSymbolTable
 70
     1
  0
APPID
  5
12
330
9
100
AcDbSymbolTableRecord
100
AcDbRegAppTableRecord
  2
ACAD
 70
     0
  0
ENDTAB
  0
TABLE
  2
DIMSTYLE
  5
A
330
0
100
AcDbSymbolTable
 70
     1
100
AcDbDimStyleTable
  0
DIMSTYLE
105
27
330
A
100
AcDbSymbolTableRecord
100
AcDbDimStyleTableRecord
  2
ISO-25
 70
     0
 41
2.5
 42
0.625
 43
3.75
 44
1.25
 73
     0
 74
     0
 77
     1
 78
     8
140
2.5
141
2.5
143
0.0393700787
147
0.625
171
     3
172
     1
271
     2
272
     2
274
     3
278
    44
283
     0
284
     8
340
11
  0
ENDTAB
  0
TABLE
  2
BLOCK_RECORD
  5
1
330
0
100
AcDbSymbolTable
 70
    11
  0
BLOCK_RECORD
  5
1F
330
1
100
AcDbSymbolTableRecord
100
AcDbBlockTableRecord
  2
*Model_Space
340
22
  0
BLOCK_RECORD
  5
1B
330
1
100
AcDbSymbolTableRecord
100
AcDbBlockTableRecord
  2
*Paper_Space
340
1E
  0
BLOCK_RECORD
  5
5E
330
1
100
AcDbSymbolTableRecord
100
AcDbBlockTableRecord
  2
SEANNOT_GROUP
340
0
102
{BLKREFS
331
5F
102
}
  0
BLOCK_RECORD
  5
65
330
1
100
AcDbSymbolTableRecord
100
AcDbBlockTableRecord
  2
SEANNOT_GROUP1
340
0
102
{BLKREFS
331
66
102
}
  0
BLOCK_RECORD
  5
6B
330
1
100
AcDbSymbolTableRecord
100
AcDbBlockTableRecord
  2
SEANNOT_GROUP2
340
0
102
{BLKREFS
331
6C
102
}
  0
BLOCK_RECORD
  5
71
330
1
100
AcDbSymbolTableRecord
100
AcDbBlockTableRecord
  2
SEANNOT_GROUP3
340
0
102
{BLKREFS
331
72
102
}
  0
BLOCK_RECORD
  5
77
330
1
100
AcDbSymbolTableRecord
100
AcDbBlockTableRecord
  2
SEANNOT_GROUP4
340
0
102
{BLKREFS
331
78
102
}
  0
BLOCK_RECORD
  5
81
330
1
100
AcDbSymbolTableRecord
100
AcDbBlockTableRecord
  2
SEANNOT_GROUP5
340
0
102
{BLKREFS
331
82
102
}
  0
BLOCK_RECORD
  5
8B
330
1
100
AcDbSymbolTableRecord
100
AcDbBlockTableRecord
  2
SEANNOT_GROUP6
340
0
102
{BLKREFS
331
8C
102
}
  0
BLOCK_RECORD
  5
95
330
1
100
AcDbSymbolTableRecord
100
AcDbBlockTableRecord
  2
SE
340
0
102
{BLKREFS
331
96
102
}
  0
BLOCK_RECORD
  5
1C2
330
1
100
AcDbSymbolTableRecord
100
AcDbBlockTableRecord
  2
SE1
340
0
102
{BLKREFS
331
1C3
102
}
  0
BLOCK_RECORD
  5
212
330
1
100
AcDbSymbolTableRecord
100
AcDbBlockTableRecord
  2
SE2
340
0
102
{BLKREFS
331
213
102
}
  0
ENDTAB
  0
ENDSEC
  0
SECTION
  2
BLOCKS
  0
BLOCK
  5
20
330
1F
100
AcDbEntity
  8
0
100
AcDbBlockBegin
  2
*Model_Space
 70
     0
 10
0.0
 20
0.0
 30
0.0
  3
*Model_Space
  1

  0
ENDBLK
  5
21
330
1F
100
AcDbEntity
  8
0
100
AcDbBlockEnd
  0
BLOCK
  5
1C
330
1B
100
AcDbEntity
 67
     1
  8
0
100
AcDbBlockBegin
  2
*Paper_Space
 70
     0
 10
0.0
 20
0.0
 30
0.0
  3
*Paper_Space
  1

  0
ENDBLK
  5
1D
330
1B
100
AcDbEntity
 67
     1
  8
0
100
AcDbBlockEnd
  0
BLOCK
  5
63
330
5E
100
AcDbEntity
  8
0
100
AcDbBlockBegin
  2
SEANNOT_GROUP
 70
     0
 10
0.0
 20
0.0
 30
0.0
  3
SEANNOT_GROUP
  1

  0
LINE
  5
61
330
5E
100
AcDbEntity
  8
Default
  6
CENTER2
 62
     7
100
AcDbLine
 10
176.9167858638
 20
487.5315741578
 30
0.0
 11
136.9167867579
 21
487.5315741578
 31
0.0
  0
LINE
  5
62
330
5E
100
AcDbEntity
  8
Default
  6
CENTER2
 62
     7
100
AcDbLine
 10
156.9167863109
 20
507.5315737108
 30
0.0
 11
156.9167863109
 21
467.5315746048
 31
0.0
  0
ENDBLK
  5
64
330
5E
100
AcDbEntity
  8
0
100
AcDbBlockEnd
  0
BLOCK
  5
69
330
65
100
AcDbEntity
  8
0
100
AcDbBlockBegin
  2
SEANNOT_GROUP1
 70
     0
 10
0.0
 20
0.0
 30
0.0
  3
SEANNOT_GROUP1
  1

  0
LINE
  5
67
330
65
100
AcDbEntity
  8
Default
  6
CENTER2
 62
     7
100
AcDbLine
 10
276.9033570043
 20
487.5315741578
 30
0.0
 11
236.9033578984
 21
487.5315741578
 31
0.0
  0
LINE
  5
68
330
65
100
AcDbEntity
  8
Default
  6
CENTER2
 62
     7
100
AcDbLine
 10
256.9033574513
 20
507.5315737108
 30
0.0
 11
256.9033574513
 21
467.5315746048
 31
0.0
  0
ENDBLK
  5
6A
330
65
100
AcDbEntity
  8
0
100
AcDbBlockEnd
  0
BLOCK
  5
6F
330
6B
100
AcDbEntity
  8
0
100
AcDbBlockBegin
  2
SEANNOT_GROUP2
 70
     0
 10
0.0
 20
0.0
 30
0.0
  3
SEANNOT_GROUP2
  1

  0
LINE
  5
6D
330
6B
100
AcDbEntity
  8
Default
  6
CENTER2
 62
     7
100
AcDbLine
 10
376.9167858638
 20
487.5315741578
 30
0.0
 11
336.9167867579
 21
487.5315741578
 31
0.0
  0
LINE
  5
6E
330
6B
100
AcDbEntity
  8
Default
  6
CENTER2
 62
     7
100
AcDbLine
 10
356.9167863109
 20
507.5315737108
 30
0.0
 11
356.9167863109
 21
467.5315746048
 31
0.0
  0
ENDBLK
  5
70
330
6B
100
AcDbEntity
  8
0
100
AcDbBlockEnd
  0
BLOCK
  5
75
330
71
100
AcDbEntity
  8
0
100
AcDbBlockBegin
  2
SEANNOT_GROUP3
 70
     0
 10
0.0
 20
0.0
 30
0.0
  3
SEANNOT_GROUP3
  1

  0
LINE
  5
73
330
71
100
AcDbEntity
  8
Default
  6
CENTER2
 62
     7
100
AcDbLine
 10
543.8721614965
 20
487.5315741578
 30
0.0
 11
503.8721623906
 21
487.5315741578
 31
0.0
  0
LINE
  5
74
330
71
100
AcDbEntity
  8
Default
  6
CENTER2
 62
     7
100
AcDbLine
 10
523.8721619435
 20
507.5315737108
 30
0.0
 11
523.8721619435
 21
467.5315746048
 31
0.0
  0
ENDBLK
  5
76
330
71
100
AcDbEntity
  8
0
100
AcDbBlockEnd
  0
BLOCK
  5
7F
330
77
100
AcDbEntity
  8
0
100
AcDbBlockBegin
  2
SEANNOT_GROUP4
 70
     0
 10
0.0
 20
0.0
 30
0.0
  3
SEANNOT_GROUP4
  1

  0
LINE
  5
79
330
77
100
AcDbEntity
  8
Default
  6
CENTER2
 62
     7
100
AcDbLine
 10
176.9050998087
 20
253.1149751951
 30
0.0
 11
136.9051007028
 21
253.1149751951
 31
0.0
  0
LINE
  5
7A
330
77
100
AcDbEntity
  8
Default
  6
CENTER2
 62
     7
100
AcDbLine
 10
156.9051002558
 20
273.1149747481
 30
0.0
 11
156.9051002558
 21
233.1149756422
 31
0.0
  0
LINE
  5
7B
330
77
100
AcDbEntity
  8
Default
  6
CENTER2
 62
     7
100
AcDbLine
 10
181.905099697
 20
253.1149751951
 30
0.0
 11
176.3928936565
 21
253.1149751951
 31
0.0
  0
LINE
  5
7C
330
77
100
AcDbEntity
  8
Default
  6
CENTER2
 62
     7
100
AcDbLine
 10
156.9051002558
 20
278.1149746364
 30
0.0
 11
156.9051002558
 21
272.6027685959
 31
0.0
  0
LINE
  5
7D
330
77
100
AcDbEntity
  8
Default
  6
CENTER2
 62
     7
100
AcDbLine
 10
131.9051008146
 20
253.1149751951
 30
0.0
 11
137.417306855
 21
253.1149751951
 31
0.0
  0
LINE
  5
7E
330
77
100
AcDbEntity
  8
Default
  6
CENTER2
 62
     7
100
AcDbLine
 10
156.9051002558
 20
228.1149757539
 30
0.0
 11
156.9051002558
 21
233.6271817944
 31
0.0
  0
ENDBLK
  5
80
330
77
100
AcDbEntity
  8
0
100
AcDbBlockEnd
  0
BLOCK
  5
89
330
81
100
AcDbEntity
  8
0
100
AcDbBlockBegin
  2
SEANNOT_GROUP5
 70
     0
 10
0.0
 20
0.0
 30
0.0
  3
SEANNOT_GROUP5
  1

  0
LINE
  5
83
330
81
100
AcDbEntity
  8
Default
  6
CENTER2
 62
     7
100
AcDbLine
 10
276.8931589543
 20
253.1225558685
 30
0.0
 11
236.8931598484
 21
253.1225558685
 31
0.0
  0
LINE
  5
84
330
81
100
AcDbEntity
  8
Default
  6
CENTER2
 62
     7
100
AcDbLine
 10
256.8931594013
 20
273.1225554214
 30
0.0
 11
256.8931594013
 21
233.1225563155
 31
0.0
  0
LINE
  5
85
330
81
100
AcDbEntity
  8
Default
  6
CENTER2
 62
     7
100
AcDbLine
 10
281.8931588425
 20
253.1225558685
 30
0.0
 11
280.3855833888
 21
253.1225558685
 31
0.0
  0
LINE
  5
86
330
81
100
AcDbEntity
  8
Default
  6
CENTER2
 62
     7
100
AcDbLine
 10
256.8931594013
 20
278.1225553097
 30
0.0
 11
256.8931594013
 21
276.6149798559
 31
0.0
  0
LINE
  5
87
330
81
100
AcDbEntity
  8
Default
  6
CENTER2
 62
     7
100
AcDbLine
 10
231.8931599601
 20
253.1225558685
 30
0.0
 11
233.4007354139
 21
253.1225558685
 31
0.0
  0
LINE
  5
88
330
81
100
AcDbEntity
  8
Default
  6
CENTER2
 62
     7
100
AcDbLine
 10
256.8931594013
 20
228.1225564273
 30
0.0
 11
256.8931594013
 21
229.630131881
 31
0.0
  0
ENDBLK
  5
8A
330
81
100
AcDbEntity
  8
0
100
AcDbBlockEnd
  0
BLOCK
  5
93
330
8B
100
AcDbEntity
  8
0
100
AcDbBlockBegin
  2
SEANNOT_GROUP6
 70
     0
 10
0.0
 20
0.0
 30
0.0
  3
SEANNOT_GROUP6
  1

  0
LINE
  5
8D
330
8B
100
AcDbEntity
  8
Default
  6
CENTER2
 62
     7
100
AcDbLine
 10
376.9016141998
 20
253.1149751949
 30
0.0
 11
336.9016150939
 21
253.1149751949
 31
0.0
  0
LINE
  5
8E
330
8B
100
AcDbEntity
  8
Default
  6
CENTER2
 62
     7
100
AcDbLine
 10
356.9016146469
 20
273.1149747478
 30
0.0
 11
356.9016146469
 21
233.1149756419
 31
0.0
  0
LINE
  5
8F
330
8B
100
AcDbEntity
  8
Default
  6
CENTER2
 62
     7
100
AcDbLine
 10
381.9016140881
 20
253.1149751949
 30
0.0
 11
376.3894080476
 21
253.1149751949
 31
0.0
  0
LINE
  5
90
330
8B
100
AcDbEntity
  8
Default
  6
CENTER2
 62
     7
100
AcDbLine
 10
356.9016146469
 20
278.1149746361
 30
0.0
 11
356.9016146469
 21
272.6027685956
 31
0.0
  0
LINE
  5
91
330
8B
100
AcDbEntity
  8
Default
  6
CENTER2
 62
     7
100
AcDbLine
 10
331.9016152057
 20
253.1149751949
 30
0.0
 11
337.4138212461
 21
253.1149751949
 31
0.0
  0
LINE
  5
92
330
8B
100
AcDbEntity
  8
Default
  6
CENTER2
 62
     7
100
AcDbLine
 10
356.9016146469
 20
228.1149757537
 30
0.0
 11
356.9016146469
 21
233.6271817941
 31
0.0
  0
ENDBLK
  5
94
330
8B
100
AcDbEntity
  8
0
100
AcDbBlockEnd
  0
BLOCK
  5
1C0
330
95
100
AcDbEntity
  8
0
100
AcDbBlockBegin
  2
SE
 70
     0
 10
0.0
 20
0.0
 30
0.0
  3
SE
  1

  0
LINE
  5
98
330
95
100
AcDbEntity
  8
DV1_Standard
  6
Continuous
 62
     7
100
AcDbLine
 10
284.4033574513
 20
487.5315741578
 30
0.0
 11
229.4033574513
 21
487.5315741578
 31
0.0
  0
LINE
  5
99
330
95
100
AcDbEntity
  8
DV1_Standard
  6
Continuous
 62
     7
100
AcDbLine
 10
230.4033574513
 20
493.5315741578
 30
0.0
 11
283.4033574513
 21
493.5315741578
 31
0.0
  0
LINE
  5
9A
330
95
100
AcDbEntity
  8
DV1_Standard
  6
Continuous
 62
     7
100
AcDbLine
 10
284.4033574513
 20
487.5315741578
 30
0.0
 11
284.4033574513
 21
492.5315741578
 31
0.0
  0
LINE
  5
9B
330
95
100
AcDbEntity
  8
DV1_Standard
  6
Continuous
 62
     7
100
AcDbLine
 10
229.4033574513
 20
492.5315741578
 30
0.0
 11
229.4033574513
 21
487.5315741578
 31
0.0
  0
ARC
  5
9C
330
95
100
AcDbEntity
  8
DV1_Standard
  6
Continuous
 62
     7
100
AcDbCircle
 10
283.4033574513
 20
492.5315741578
 30
0.0
 40
1.000000000000001
100
AcDbArc
 50
0.0
 51
90.0
  0
ARC
  5
9D
330
95
100
AcDbEntity
  8
DV1_Standard
  6
Continuous
 62
     7
100
AcDbCircle
 10
230.4033574513
 20
492.5315741578
 30
0.0
 40
1.000000000000001
100
AcDbArc
 50
90.0
 51
180.0
  0
ARC
  5
9E
330
95
100
AcDbEntity
  8
DV1_Standard
  6
Continuous
 62
     7
100
AcDbCircle
 10
393.6551340657
 20
8763.7601352197
 30
0.0
 40
8234.569111611965
100
AcDbArc
 50
269.8200380018
 51
270.205834916
  0
ARC
  5
9F
330
95
100
AcDbEntity
  8
DV1_Standard
  6
Continuous
 62
     7
100
AcDbCircle
 10
367.6126042727
 20
562.2661180873
 30
0.0
 40
33.03495726290083
100
AcDbArc
 50
265.8373644006
 51
270.3093698356
  0
ARC
  5
A0
330
95
100
AcDbEntity
  8
DV1_Standard
  6
Continuous
 62
     7
100
AcDbCircle
 10
396.073182429
 20
-2038.3569495652
 30
0.0
 40
2566.975123119856
100
AcDbArc
 50
89.4080004132
 51
90.5848178308
  0
ARC
  5
A1
330
95
100
AcDbEntity
  8
DV1_Standard
  6
Continuous
 62
     7
100
AcDbCircle
 10
370.1839501586
 20
538.916375032
 30
0.0
 40
10.43664878334215
100
AcDbArc
 50
256.7434421436
 51
268.2901012646
  0
ARC
  5
A2
330
95
100
AcDbEntity
  8
DV1_Standard
  6
Continuous
 62
     7
100
AcDbCircle
 10
373.9641013954
 20
563.3319589654
 30
0.0
 40
35.12095011130745
100
AcDbArc
 50
255.5743855304
 51
259.8762170991
  0
SPLINE
  5
A3
330
95
100
AcDbEntity
  8
DV1_Standard
  6
Continuous
 62
     7
100
AcDbSpline
210
0.0
220
0.0
230
1.0
 70
     8
 71
     3
 72
    22
 73
    18
 74
     0
 42
0.0000000004245715
 43
0.0000000001
 40
0.0
 40
0.0
 40
0.0
 40
0.0
 40
0.1248827982863886
 40
0.1248827982863886
 40
0.2498995413883331
 40
0.2498995413883331
 40
0.3749162844902775
 40
0.3749162844902775
 40
0.499933027592222
 40
0.499933027592222
 40
0.6249497706941667
 40
0.6249497706941667
 40
0.7499665137961111
 40
0.7499665137961111
 40
0.8749832568980556
 40
0.8749832568980556
 40
1.0
 40
1.0
 40
1.0
 40
1.0
 10
341.403360228958
 20
531.683321226075
 30
0.0
 10
341.4033497975408
 20
531.6833212264605
 30
0.0
 10
341.593457320638
 20
531.683320316841
 30
0.0
 10
342.3145733560193
 20
531.6833150722741
 30
0.0
 10
342.8503811758135
 20
531.683310741258
 30
0.0
 10
344.213536486448
 20
531.6832927929095
 30
0.0
 10
345.0620122406927
 20
531.6832788774566
 30
0.0
 10
347.0011494975828
 20
531.6832297413386
 30
0.0
 10
348.1041264391645
 20
531.6831941121643
 30
0.0
 10
350.4981899517834
 20
531.6830852111351
 30
0.0
 10
351.7609678585939
 20
531.683013314849
 30
0.0
 10
354.4188704153966
 20
531.682818780298
 30
0.0
 10
355.793698309799
 20
531.6826969921584
 30
0.0
 10
358.5424929392461
 20
531.6824045836187
 30
0.0
 10
359.8840985046403
 20
531.6822379445542
 30
0.0
 10
362.5075043449903
 20
531.681867947022
 30
0.0
 10
363.7768898752881
 20
531.6816658458665
 30
0.0
 10
364.9564993873568
 20
531.6814604962523
 30
0.0
  0
LINE
  5
A4
330
95
100
AcDbEntity
  8
DV1_Standard
  6
Continuous
 62
     7
100
AcDbLine
 10
364.9564993874
 20
531.6814604963
 30
0.0
 11
367.7904495844
 21
531.6809318112
 31
0.0
  0
SPLINE
  5
A5
330
95
100
AcDbEntity
  8
DV1_Standard
  6
Continuous
 62
     7
100
AcDbSpline
210
0.0
220
0.0
230
1.0
 70
     8
 71
     3
 72
    22
 73
    18
 74
     0
 42
0.0000000001819918
 43
0.0000000001
 40
0.0
 40
0.0
 40
0.0
 40
0.0
 40
0.4997664778669357
 40
0.4997664778669357
 40
0.6247080973336695
 40
0.6247080973336695
 40
0.6871789070670365
 40
0.6871789070670365
 40
0.7496497168004036
 40
0.7496497168004036
 40
0.8745913362671377
 40
0.8745913362671377
 40
0.9370621460005047
 40
0.9370621460005047
 40
0.9995329557338717
 40
0.9995329557338717
 40
1.0
 40
1.0
 40
1.0
 40
1.0
 10
367.7904495844413
 20
531.6809318111839
 30
0.0
 10
378.1346681442949
 20
531.6788732570042
 30
0.0
 10
388.4788850912503
 20
531.6753816575413
 30
0.0
 10
401.4091606404359
 20
531.6696958488325
 30
0.0
 10
403.9952258158713
 20
531.668493124935
 30
0.0
 10
407.8742962147659
 20
531.6665994220095
 30
0.0
 10
409.168385697748
 20
531.6659526956112
 30
0.0
 10
411.7519742138221
 20
531.6646330486363
 30
0.0
 10
413.0308443540803
 20
531.6639653946414
 30
0.0
 10
416.742879962319
 20
531.6619906851985
 30
0.0
 10
418.8390437717991
 20
531.6608254954398
 30
0.0
 10
421.0935784021432
 20
531.65955420761
 30
0.0
 10
421.6925629268653
 20
531.6592122712613
 30
0.0
 10
422.5129567952718
 20
531.6587424178414
 30
0.0
 10
422.7348201381062
 20
531.6586143629778
 30
0.0
 10
422.7379717321356
 20
531.6586125480972
 30
0.0
 10
422.7379828680213
 20
531.658612541701
 30
0.0
 10
422.7379817651157
 20
531.6586125423685
 30
0.0
  0
LINE
  5
A6
330
95
100
AcDbEntity
  8
DV1_Standard
  6
Continuous
 62
     7
100
AcDbLine
 10
372.6533557091
 20
493.8315729974
 30
0.0
 11
341.1533574513
 21
493.8315729974
 31
0.0
  0
LINE
  5
A7
330
95
100
AcDbEntity
  8
DV1_Standard
  6
Continuous
 62
     7
100
AcDbLine
 10
340.9033574513
 20
531.1833212261
 30
0.0
 11
340.9033574513
 21
494.0815729974
 31
0.0
  0
LINE
  5
A8
330
95
100
AcDbEntity
  8
DV1_Standard
  6
Continuous
 62
     7
100
AcDbLine
 10
372.9033574513
 20
494.0815729974
 30
0.0
 11
372.9033574513
 21
525.8031735997
 31
0.0
  0
LINE
  5
A9
330
95
100
AcDbEntity
  8
DV1_Standard
  6
Continuous
 62
     7
100
AcDbLine
 10
423.2376990252
 20
529.2444019323
 30
0.0
 11
423.237695365
 21
531.1586305636
 31
0.0
  0
SPLINE
  5
AA
330
95
100
AcDbEntity
  8
DV1_Standard
  6
Continuous
 62
     7
100
AcDbSpline
210
0.0
220
0.0
230
1.0
 70
     8
 71
     3
 72
    24
 73
    20
 74
     0
 42
0.0000000002095759
 43
0.0000000001
 40
0.0
 40
0.0
 40
0.0
 40
0.0
 40
0.0055140090664806
 40
0.1308031077941689
 40
0.2528440588002244
 40
0.3645640984251736
 40
0.4605811559342473
 40
0.5403226375713768
 40
0.6040674922593507
 40
0.6527679709318438
 40
0.6947171847107443
 40
0.7304232930281737
 40
0.7664871914717939
 40
0.8065697323756402
 40
0.8351406714832728
 40
0.8673006613391223
 40
0.905171064774768
 40
0.9517793202846729
 40
1.0
 40
1.0
 40
1.0
 40
1.0
 10
374.903239149264
 20
527.8031735844527
 30
0.0
 10
374.9997057336588
 20
527.8031735858535
 30
0.0
 10
376.9722031335803
 20
527.8031736088143
 30
0.0
 10
381.1361120146207
 20
527.8031741792364
 30
0.0
 10
386.79256802572
 20
527.8031720939
 30
0.0
 10
392.0502951852492
 20
527.8031790620748
 30
0.0
 10
396.6196883062578
 20
527.8031474027582
 30
0.0
 10
400.4293963755424
 20
527.7936856384725
 30
0.0
 10
403.4858432975039
 20
527.7679784858849
 30
0.0
 10
405.9408862127984
 20
527.7111396093419
 30
0.0
 10
407.9488614830985
 20
527.6289195978907
 30
0.0
 10
409.7554798437042
 20
527.5433442288646
 30
0.0
 10
411.5338886076381
 20
527.4929681840487
 30
0.0
 10
413.1999135618101
 20
527.5042462518311
 30
0.0
 10
414.8017917839292
 20
527.5655576797514
 30
0.0
 10
416.369095873583
 20
527.6607547248947
 30
0.0
 10
418.2077091573323
 20
527.8327582220952
 30
0.0
 10
420.3427858367968
 20
528.1097066866863
 30
0.0
 10
421.7209005738882
 20
528.3388271324267
 30
0.0
 10
422.5526706662769
 20
528.4796805117028
 30
0.0
  0
ARC
  5
AB
330
95
100
AcDbEntity
  8
DV1_Standard
  6
Continuous
 62
     7
100
AcDbCircle
 10
422.4617365768
 20
529.2450284279
 30
0.0
 40
0.7753898095847815
100
AcDbArc
 50
279.6967895965
 51
359.9982797779
  0
ARC
  5
AC
330
95
100
AcDbEntity
  8
DV1_Standard
  6
Continuous
 62
     7
100
AcDbCircle
 10
374.9033574513
 20
525.8031735763
 30
0.0
 40
1.999999999998485
100
AcDbArc
 50
89.9877415085
 51
179.9808557637
  0
ARC
  5
AD
330
95
100
AcDbEntity
  8
DV1_Standard
  6
Continuous
 62
     7
100
AcDbCircle
 10
341.4033574513
 20
531.1833212261
 30
0.0
 40
0.4999999999999962
100
AcDbArc
 50
89.9997107361
 51
179.9814278733
  0
ARC
  5
AE
330
95
100
AcDbEntity
  8
DV1_Standard
  6
Continuous
 62
     7
100
AcDbCircle
 10
422.7376952184
 20
531.1586126246
 30
0.0
 40
0.4999999998679179
100
AcDbArc
 50
0.5717681858
 51
89.9670158496
  0
ARC
  5
AF
330
95
100
AcDbEntity
  8
DV1_Standard
  6
Continuous
 62
     7
100
AcDbCircle
 10
372.6533574513
 20
494.0815729974
 30
0.0
 40
0.2500000000000038
100
AcDbArc
 50
270.0
 51
2.3158241655
  0
ARC
  5
B0
330
95
100
AcDbEntity
  8
DV1_Standard
  6
Continuous
 62
     7
100
AcDbCircle
 10
341.1533763092
 20
494.0815729973
 30
0.0
 40
0.2499996772981934
100
AcDbArc
 50
180.0055474699
 51
270.5414038745
  0
ARC
  5
B1
330
95
100
AcDbEntity
  8
DV1_Standard
  6
Continuous
 62
     7
100
AcDbCircle
 10
146.0920866222
 20
565.2635436895
 30
0.0
 40
36.03467053298112
100
AcDbArc
 50
269.8786054053
 51
273.9781756288
  0
ARC
  5
B2
330
95
100
AcDbEntity
  8
DV1_Standard
  6
Continuous
 62
     7
100
AcDbCircle
 10
120.1515761323
 20
8763.7601352067
 30
0.0
 40
8234.569111613753
100
AcDbArc
 50
269.7941651168
 51
270.179962031
  0
ARC
  5
B3
330
95
100
AcDbEntity
  8
DV1_Standard
  6
Continuous
 62
     7
100
AcDbCircle
 10
117.7335328144
 20
-2038.3569495694
 30
0.0
 40
2566.975123120578
100
AcDbArc
 50
89.4151640639
 51
90.5919995944
  0
ARC
  5
B4
330
95
100
AcDbEntity
  8
DV1_Standard
  6
Continuous
 62
     7
100
AcDbCircle
 10
143.6238209947
 20
538.9106478229
 30
0.0
 40
10.43084123113804
100
AcDbArc
 50
271.709510494
 51
283.2581139608
  0
ARC
  5
B5
330
95
100
AcDbEntity
  8
DV1_Standard
  6
Continuous
 62
     7
100
AcDbCircle
 10
139.4296528879
 20
565.3973424383
 30
0.0
 40
37.22679923350383
100
AcDbArc
 50
280.1907122273
 51
284.2482428545
  0
SPLINE
  5
B6
330
95
100
AcDbEntity
  8
DV1_Standard
  6
Continuous
 62
     7
100
AcDbSpline
210
0.0
220
0.0
230
1.0
 70
     8
 71
     3
 72
    24
 73
    20
 74
     0
 42
0.0000000004245719
 43
0.0000000001
 40
0.0
 40
0.0
 40
0.0
 40
0.0
 40
0.1249832613821577
 40
0.1249832613821577
 40
0.2499665227643155
 40
0.2499665227643155
 40
0.3749497841464732
 40
0.3749497841464732
 40
0.4999330455286309
 40
0.4999330455286309
 40
0.6249163069107886
 40
0.6249163069107886
 40
0.7498995682929461
 40
0.7498995682929461
 40
0.8748828296751039
 40
0.8748828296751039
 40
0.9998660910572614
 40
0.9998660910572614
 40
1.0
 40
1.0
 40
1.0
 40
1.0
 10
148.8502155652198
 20
531.681460496261
 30
0.0
 10
150.030662136265
 20
531.6816659915921
 30
0.0
 10
151.2770624377457
 20
531.6818645478326
 30
0.0
 10
153.8970576133457
 20
531.6822346103298
 30
0.0
 10
155.2675051216185
 20
531.6824047796656
 30
0.0
 10
157.9830920923882
 20
531.6826939605896
 30
0.0
 10
159.3663166265949
 20
531.682816890266
 30
0.0
 10
162.0067805616774
 20
531.6830107701189
 30
0.0
 10
163.2893880447873
 20
531.6830841757562
 30
0.0
 10
165.6813459843643
 20
531.6831933080081
 30
0.0
 10
166.7740977151804
 20
531.6832288324309
 30
0.0
 10
168.7351728429979
 20
531.6832787452146
 30
0.0
 10
169.5736036090198
 20
531.6832924895268
 30
0.0
 10
170.944628372147
 20
531.6833106317526
 30
0.0
 10
171.4835843509599
 20
531.6833150011468
 30
0.0
 10
172.2072166688322
 20
531.6833202816164
 30
0.0
 10
172.4029352536592
 20
531.6833212237314
 30
0.0
 10
172.4033544326062
 20
531.6833212260732
 30
0.0
 10
172.4033546625051
 20
531.6833212260747
 30
0.0
 10
172.4033546736935
 20
531.683321226075
 30
0.0
  0
LINE
  5
B7
330
95
100
AcDbEntity
  8
DV1_Standard
  6
Continuous
 62
     7
100
AcDbLine
 10
146.016265614
 20
531.6809318112
 30
0.0
 11
148.8502155652
 21
531.6814604963
 31
0.0
  0
SPLINE
  5
B8
330
95
100
AcDbEntity
  8
DV1_Standard
  6
Continuous
 62
     7
100
AcDbSpline
210
0.0
220
0.0
230
1.0
 70
     8
 71
     3
 72
    22
 73
    18
 74
     0
 42
0.0000000001819918
 43
0.0000000001
 40
0.0
 40
0.0
 40
0.0
 40
0.0
 40
0.062061736623711
 40
0.062061736623711
 40
0.1245909541821302
 40
0.1245909541821302
 40
0.1871201717405495
 40
0.1871201717405495
 40
0.2496493892989685
 40
0.2496493892989685
 40
0.3121786068573877
 40
0.3121786068573877
 40
0.374707824415807
 40
0.374707824415807
 40
0.499766259532646
 40
0.499766259532646
 40
1.0
 40
1.0
 40
1.0
 40
1.0
 10
91.06873313753583
 20
531.6586125423684
 30
0.0
 10
91.06887955685217
 20
531.6586126309749
 30
0.0
 10
91.28473016138972
 20
531.6587372132204
 30
0.0
 10
92.09273440350685
 20
531.6592000380799
 30
0.0
 10
92.69423087759272
 20
531.6595434466078
 30
0.0
 10
94.18271075890611
 20
531.6603829687107
 30
0.0
 10
95.08992472024097
 20
531.6608903756321
 30
0.0
 10
97.11985133117219
 20
531.662007420537
 30
0.0
 10
98.27093538075432
 20
531.662632551962
 30
0.0
 10
100.7234859096144
 20
531.6639377983116
 30
0.0
 10
102.0125139111146
 20
531.6646111811064
 30
0.0
 10
104.6006093942284
 20
531.6659337188785
 30
0.0
 10
105.8948573547731
 20
531.6665808008574
 30
0.0
 10
109.7775735789268
 20
531.6684771246573
 30
0.0
 10
112.3660981631495
 20
531.669681522794
 30
0.0
 10
125.3085519744659
 20
531.6753751423627
 30
0.0
 10
135.6623828922658
 20
531.6788713338706
 30
0.0
 10
146.0162656140494
 20
531.6809318112429
 30
0.0
  0
LINE
  5
B9
330
95
100
AcDbEntity
  8
DV1_Standard
  6
Continuous
 62
     7
100
AcDbLine
 10
172.6533574513
 20
493.8315729974
 30
0.0
 11
141.1533591935
 21
493.8315729974
 31
0.0
  0
LINE
  5
BA
330
95
100
AcDbEntity
  8
DV1_Standard
  6
Continuous
 62
     7
100
AcDbLine
 10
172.9033574513
 20
494.0815729974
 30
0.0
 11
172.9033574513
 21
531.1833212261
 31
0.0
  0
LINE
  5
BB
330
95
100
AcDbEntity
  8
DV1_Standard
  6
Continuous
 62
     7
100
AcDbLine
 10
140.9033574513
 20
525.8031735997
 30
0.0
 11
140.9033574513
 21
494.0815729974
 31
0.0
  0
LINE
  5
BC
330
95
100
AcDbEntity
  8
DV1_Standard
  6
Continuous
 62
     7
100
AcDbLine
 10
90.5690195377
 20
531.1586305636
 30
0.0
 11
90.5690158775
 21
529.2444019323
 31
0.0
  0
SPLINE
  5
BD
330
95
100
AcDbEntity
  8
DV1_Standard
  6
Continuous
 62
     7
100
AcDbSpline
210
0.0
220
0.0
230
1.0
 70
     8
 71
     3
 72
    23
 73
    19
 74
     0
 42
0.000000000209576
 43
0.0000000001
 40
0.0
 40
0.0
 40
0.0
 40
0.0
 40
0.0513505197461212
 40
0.0998233859239242
 40
0.1388841508747348
 40
0.1720772788888641
 40
0.2015108482517224
 40
0.2281015064512727
 40
0.2662361780056455
 40
0.3034995185080447
 40
0.3472326636325848
 40
0.4040707282273604
 40
0.4808165520194464
 40
0.5785605062594892
 40
0.6976009019641279
 40
0.833688076494342
 40
0.9766578327899095
 40
1.0
 40
1.0
 40
1.0
 40
1.0
 10
91.25410444296111
 20
528.4800869981586
 30
0.0
 10
92.13988789643646
 20
528.330251847134
 30
0.0
 10
93.59024820246032
 20
528.0898376062382
 30
0.0
 10
95.82527527935653
 20
527.8062463214426
 30
0.0
 10
97.72946326138468
 20
527.6389740887455
 30
0.0
 10
99.34626059871796
 20
527.5488443442819
 30
0.0
 10
100.7642314959333
 20
527.5039178784856
 30
0.0
 10
102.2620140686559
 20
527.4956479929086
 30
0.0
 10
103.8838181322261
 20
527.5358754992594
 30
0.0
 10
105.776424719876
 20
527.6251481947664
 30
0.0
 10
107.9667891321783
 20
527.7159854169657
 30
0.0
 10
110.7863774274806
 20
527.7760817998345
 30
0.0
 10
114.4659341869023
 20
527.7986453889108
 30
0.0
 10
119.1318927146512
 20
527.8040253523079
 30
0.0
 10
124.7562028508359
 20
527.8028870648885
 30
0.0
 10
131.0334842218224
 20
527.8032635279357
 30
0.0
 10
135.9986734130696
 20
527.8031697257628
 30
0.0
 10
138.4950591082221
 20
527.8031735832761
 30
0.0
 10
138.9034256451062
 20
527.8031735778347
 30
0.0
  0
ARC
  5
BE
330
95
100
AcDbEntity
  8
DV1_Standard
  6
Continuous
 62
     7
100
AcDbCircle
 10
91.3449783259
 20
529.2450284279
 30
0.0
 40
0.7753898095849004
100
AcDbArc
 50
180.0017202221
 51
260.3032104035
  0
ARC
  5
BF
330
95
100
AcDbEntity
  8
DV1_Standard
  6
Continuous
 62
     7
100
AcDbCircle
 10
138.9033574513
 20
525.8031735763
 30
0.0
 40
2.000000000000005
100
AcDbArc
 50
359.9969966664
 51
89.9999767853
  0
ARC
  5
C0
330
95
100
AcDbEntity
  8
DV1_Standard
  6
Continuous
 62
     7
100
AcDbCircle
 10
172.4033574513
 20
531.1833212261
 30
0.0
 40
0.5000000000000028
100
AcDbArc
 50
359.981432105
 51
90.0002892639
  0
ARC
  5
C1
330
95
100
AcDbEntity
  8
DV1_Standard
  6
Continuous
 62
     7
100
AcDbCircle
 10
91.0690196843
 20
531.1586126243
 30
0.0
 40
0.4999999937423846
100
AcDbArc
 50
90.0329841504
 51
180.5722512781
  0
ARC
  5
C2
330
95
100
AcDbEntity
  8
DV1_Standard
  6
Continuous
 62
     7
100
AcDbCircle
 10
141.1533574513
 20
494.0815729974
 30
0.0
 40
0.2499999999999994
100
AcDbArc
 50
182.3158241655
 51
270.0
  0
ARC
  5
C3
330
95
100
AcDbEntity
  8
DV1_Standard
  6
Continuous
 62
     7
100
AcDbCircle
 10
172.6533385935
 20
494.0815729974
 30
0.0
 40
0.2500000000901884
100
AcDbArc
 50
269.4585961255
 51
0.0055474699
  0
LINE
  5
C4
330
95
100
AcDbEntity
  8
DV1_Standard
  6
Continuous
 62
     7
100
AcDbLine
 10
184.4088355204
 20
487.5315741578
 30
0.0
 11
129.4247371013
 21
487.5315741578
 31
0.0
  0
LINE
  5
C5
330
95
100
AcDbEntity
  8
DV1_Standard
  6
Continuous
 62
     7
100
AcDbLine
 10
183.4086411985
 20
493.5315741578
 30
0.0
 11
130.4249369504
 21
493.5315741578
 31
0.0
  0
LINE
  5
C6
330
95
100
AcDbEntity
  8
DV1_Standard
  6
Continuous
 62
     7
100
AcDbLine
 10
184.4088356223
 20
487.5315741578
 30
0.0
 11
184.4088356223
 21
492.5315741429
 31
0.0
  0
LINE
  5
C7
330
95
100
AcDbEntity
  8
DV1_Standard
  6
Continuous
 62
     7
100
AcDbLine
 10
129.4247369362
 20
492.5315741429
 30
0.0
 11
129.4247369362
 21
487.5315741578
 31
0.0
  0
ARC
  5
C8
330
95
100
AcDbEntity
  8
DV1_Standard
  6
Continuous
 62
     7
100
AcDbCircle
 10
183.4089551732
 20
492.5319089637
 30
0.0
 40
0.9996652691798205
100
AcDbArc
 50
359.9808097583
 51
90.022203444
  0
ARC
  5
C9
330
95
100
AcDbEntity
  8
DV1_Standard
  6
Continuous
 62
     7
100
AcDbCircle
 10
130.424633745
 20
492.531909787
 30
0.0
 40
0.999664446068544
100
AcDbArc
 50
89.977770298
 51
180.0192374443
  0
LINE
  5
CA
330
95
100
AcDbEntity
  8
DV1_Standard
  6
Continuous
 62
     7
100
AcDbLine
 10
384.4088355204
 20
487.5315741578
 30
0.0
 11
329.4247371013
 21
487.5315741578
 31
0.0
  0
LINE
  5
CB
330
95
100
AcDbEntity
  8
DV1_Standard
  6
Continuous
 62
     7
100
AcDbLine
 10
383.4086411985
 20
493.5315741578
 30
0.0
 11
330.4249369504
 21
493.5315741578
 31
0.0
  0
LINE
  5
CC
330
95
100
AcDbEntity
  8
DV1_Standard
  6
Continuous
 62
     7
100
AcDbLine
 10
384.4088356223
 20
487.5315741578
 30
0.0
 11
384.4088356223
 21
492.5315741429
 31
0.0
  0
LINE
  5
CD
330
95
100
AcDbEntity
  8
DV1_Standard
  6
Continuous
 62
     7
100
AcDbLine
 10
329.4247369362
 20
492.5315741429
 30
0.0
 11
329.4247369362
 21
487.5315741578
 31
0.0
  0
ARC
  5
CE
330
95
100
AcDbEntity
  8
DV1_Standard
  6
Continuous
 62
     7
100
AcDbCircle
 10
383.4089551732
 20
492.5319089637
 30
0.0
 40
0.9996652691798453
100
AcDbArc
 50
359.9808097583
 51
90.022203444
  0
ARC
  5
CF
330
95
100
AcDbEntity
  8
DV1_Standard
  6
Continuous
 62
     7
100
AcDbCircle
 10
330.424633745
 20
492.531909787
 30
0.0
 40
0.9996644460684785
100
AcDbArc
 50
89.977770298
 51
180.0192374443
  0
LINE
  5
D0
330
95
100
AcDbEntity
  8
DV1_Standard
  6
Continuous
 62
     7
100
AcDbLine
 10
142.5283574513
 20
493.8315729974
 30
0.0
 11
142.5283574513
 21
493.5315741578
 31
0.0
  0
LINE
  5
D1
330
95
100
AcDbEntity
  8
DV1_Standard
  6
Continuous
 62
     7
100
AcDbLine
 10
171.2783574513
 20
493.5315741578
 30
0.0
 11
171.2783574513
 21
493.8315729974
 31
0.0
  0
LINE
  5
D2
330
95
100
AcDbEntity
  8
DV1_Standard
  6
Continuous
 62
     7
100
AcDbLine
 10
342.5283574513
 20
493.8315729974
 30
0.0
 11
342.5283574513
 21
493.5315741578
 31
0.0
  0
LINE
  5
D3
330
95
100
AcDbEntity
  8
DV1_Standard
  6
Continuous
 62
     7
100
AcDbLine
 10
371.2783574513
 20
493.5315741578
 30
0.0
 11
371.2783574513
 21
493.8315729974
 31
0.0
  0
ELLIPSE
  5
D4
330
95
100
AcDbEntity
  8
DV1_Standard
  6
Continuous
 62
     7
100
AcDbEllipse
 10
256.9033574513
 20
565.6341315721
 30
0.0
 11
10.05000000000001
 21
0.0
 31
0.0
210
0.0
220
0.0
230
1.0
 40
0.2923717047
 41
5.311724293268538
 42
6.283185307179586
  0
ELLIPSE
  5
D5
330
95
100
AcDbEntity
  8
DV1_Standard
  6
Continuous
 62
     7
100
AcDbEllipse
 10
256.9033574513
 20
565.6341315721
 30
0.0
 11
10.05000000000001
 21
0.0
 31
0.0
210
0.0
220
0.0
230
1.0
 40
0.2923717047
 41
0.0
 42
4.113053667500841
  0
ELLIPSE
  5
D6
330
95
100
AcDbEntity
  8
DV1_Standard
  6
Continuous
 62
     7
100
AcDbEllipse
 10
256.9033574513
 20
565.6341315721
 30
0.0
 11
10.75000000000001
 21
0.0
 31
0.0
210
0.0
220
0.0
230
1.0
 40
0.2923717047
 41
0.0
 42
6.283185307179586
  0
LINE
  5
D7
330
95
100
AcDbEntity
  8
DV1_Standard
  6
Continuous
 62
     7
100
AcDbLine
 10
245.9033574513
 20
566.6940195341
 30
0.0
 11
245.9033574513
 21
565.1815786991
 31
0.0
  0
ELLIPSE
  5
D8
330
95
100
AcDbEntity
  8
DV1_Standard
  6
Continuous
 62
     7
100
AcDbEllipse
 10
256.9033574513
 20
566.765983329
 30
0.0
 11
-11.80000000000006
 21
-1.387778780781446E-14
 31
0.0
210
0.0
220
0.0
230
1.0
 40
0.2923717047
 41
3.51193528568152
 42
5.912842675087857
  0
ELLIPSE
  5
D9
330
95
100
AcDbEntity
  8
DV1_Standard
  6
Continuous
 62
     7
100
AcDbEllipse
 10
256.9033574513
 20
568.50304584
 30
0.0
 11
11.80000000000008
 21
-5.551115123125783E-14
 31
0.0
210
0.0
220
0.0
230
1.0
 40
0.2923717047
 41
2.771250021498084
 42
3.511935285681512
  0
LINE
  5
DA
330
95
100
AcDbEntity
  8
DV1_Standard
  6
Continuous
 62
     7
100
AcDbLine
 10
245.9033574513
 20
569.751716068
 30
0.0
 11
245.9033574513
 21
568.014653557
 31
0.0
  0
LINE
  5
DB
330
95
100
AcDbEntity
  8
DV1_Standard
  6
Continuous
 62
     7
100
AcDbLine
 10
245.9033574513
 20
568.014653557
 30
0.0
 11
245.9033574513
 21
566.6940195341
 31
0.0
  0
ELLIPSE
  5
DC
330
95
100
AcDbEntity
  8
DV1_Standard
  6
Continuous
 62
     7
100
AcDbEllipse
 10
256.9033574513
 20
565.9377991166
 30
0.0
 11
11.3
 21
0.0
 31
0.0
210
0.0
220
0.0
230
1.0
 40
0.2923717047
 41
-0.5580594686549176
 42
-0.3766044689563186
  0
ELLIPSE
  5
DD
330
95
100
AcDbEntity
  8
DV1_Standard
  6
Continuous
 62
     7
100
AcDbEllipse
 10
256.9033574513
 20
565.9377991166
 30
0.0
 11
11.3
 21
0.0
 31
0.0
210
0.0
220
0.0
230
1.0
 40
0.2923717047
 41
3.476384760582243
 42
3.699652122244706
  0
LINE
  5
DE
330
95
100
AcDbEntity
  8
DV1_Standard
  6
Continuous
 62
     7
100
AcDbLine
 10
267.9033574513
 20
565.1815786991
 30
0.0
 11
267.9033574513
 21
566.6940195341
 31
0.0
  0
ELLIPSE
  5
DF
330
95
100
AcDbEntity
  8
DV1_Standard
  6
Continuous
 62
     7
100
AcDbEllipse
 10
256.9033574513
 20
568.50304584
 30
0.0
 11
-11.80000000000025
 21
5.551115123125783E-14
 31
0.0
210
0.0
220
0.0
230
1.0
 40
0.2923717047
 41
2.771250021498079
 42
3.511935285681509
  0
LINE
  5
E0
330
95
100
AcDbEntity
  8
DV1_Standard
  6
Continuous
 62
     7
100
AcDbLine
 10
267.9033574513
 20
566.6940195341
 30
0.0
 11
267.9033574513
 21
568.014653557
 31
0.0
  0
LINE
  5
E1
330
95
100
AcDbEntity
  8
DV1_Standard
  6
Continuous
 62
     7
100
AcDbLine
 10
267.9033574513
 20
568.014653557
 30
0.0
 11
267.9033574513
 21
569.751716068
 31
0.0
  0
LINE
  5
E2
330
95
100
AcDbEntity
  8
DV1_Standard
  6
Continuous
 62
     7
100
AcDbLine
 10
247.3177448772
 20
564.1883011778
 30
0.0
 11
247.7843012414
 21
563.9697861878
 31
0.0
  0
LINE
  5
E3
330
95
100
AcDbEntity
  8
DV1_Standard
  6
Continuous
 62
     7
100
AcDbLine
 10
266.0224136612
 20
563.9697861878
 30
0.0
 11
266.4889700255
 21
564.1883011778
 31
0.0
  0
LINE
  5
E4
330
95
100
AcDbEntity
  8
DV1_Standard
  6
Continuous
 62
     7
100
AcDbLine
 10
267.5144282561
 20
564.8144770572
 30
0.0
 11
267.9129576649
 21
565.1231285084
 31
0.0
  0
LINE
  5
E5
330
95
100
AcDbEntity
  8
DV1_Standard
  6
Continuous
 62
     7
100
AcDbLine
 10
245.8972244549
 20
565.1126248599
 30
0.0
 11
246.0774164388
 21
564.9725860523
 31
0.0
  0
LINE
  5
E6
330
95
100
AcDbEntity
  8
DV1_Standard
  6
Continuous
 62
     7
100
AcDbLine
 10
245.1033574513
 20
572.4067015728
 30
0.0
 11
245.1033574513
 21
568.50304584
 31
0.0
  0
LINE
  5
E7
330
95
100
AcDbEntity
  8
DV1_Standard
  6
Continuous
 62
     7
100
AcDbLine
 10
268.7033574513
 20
568.50304584
 30
0.0
 11
268.7033574513
 21
572.4327606983
 31
0.0
  0
ELLIPSE
  5
E8
330
95
100
AcDbEntity
  8
DV1_Standard
  6
Continuous
 62
     7
100
AcDbEllipse
 10
256.9033574513
 20
565.2516096697
 30
0.0
 11
-9.0
 21
0.0
 31
0.0
210
0.0
220
0.0
230
1.0
 40
0.2923717047
 41
0.0
 42
6.283185307179586
  0
ELLIPSE
  5
E9
330
95
100
AcDbEntity
  8
DV1_Standard
  6
Continuous
 62
     7
100
AcDbEllipse
 10
256.9033574513
 20
565.2516096697
 30
0.0
 11
5.250000000000002
 21
0.0
 31
0.0
210
0.0
220
0.0
230
1.0
 40
0.2923717047
 41
0.0
 42
6.283185307179586
  0
ELLIPSE
  5
EA
330
95
100
AcDbEntity
  8
DV1_Standard
  6
Continuous
 62
     7
100
AcDbEllipse
 10
256.9033574513
 20
565.2516096697
 30
0.0
 11
-6.249999999999999
 21
0.0
 31
0.0
210
0.0
220
0.0
230
1.0
 40
0.2923717047
 41
0.0
 42
6.283185307179586
  0
ELLIPSE
  5
EB
330
95
100
AcDbEntity
  8
DV1_Standard
  6
Continuous
 62
     7
100
AcDbEllipse
 10
256.9033574513
 20
565.2516096697
 30
0.0
 11
2.750000000000003
 21
0.0
 31
0.0
210
0.0
220
0.0
230
1.0
 40
0.2923717047
 41
0.0
 42
6.283185307179586
  0
ELLIPSE
  5
EC
330
95
100
AcDbEntity
  8
DV1_Standard
  6
Continuous
 62
     7
100
AcDbEllipse
 10
256.9033574513
 20
565.2516096697
 30
0.0
 11
-2.15
 21
0.0
 31
0.0
210
0.0
220
0.0
230
1.0
 40
0.2923717047
 41
0.0
 42
6.283185307179586
  0
ELLIPSE
  5
ED
330
95
100
AcDbEntity
  8
DV1_Standard
  6
Continuous
 62
     7
100
AcDbEllipse
 10
256.9033574513
 20
565.4428706209
 30
0.0
 11
0.5196299438963559
 21
0.0
 31
0.0
210
0.0
220
0.0
230
1.0
 40
0.2923717047
 41
0.0
 42
6.283185307179586
  0
ELLIPSE
  5
EE
330
95
100
AcDbEntity
  8
DV1_Standard
  6
Continuous
 62
     7
100
AcDbEllipse
 10
256.9033574513
 20
565.2516096697
 30
0.0
 11
-8.699999999999999
 21
0.0
 31
0.0
210
0.0
220
0.0
230
1.0
 40
0.2923717047
 41
0.0
 42
6.283185307179586
  0
ARC
  5
EF
330
95
100
AcDbEntity
  8
DV1_Standard
  6
Continuous
 62
     7
100
AcDbCircle
 10
264.6762291638
 20
565.4428706209
 30
0.0
 40
0.7271280698718352
100
AcDbArc
 50
357.6955666204
 51
2.3044333796
  0
ARC
  5
F0
330
95
100
AcDbEntity
  8
DV1_Standard
  6
Continuous
 62
     7
100
AcDbCircle
 10
262.6183682037
 20
565.4428706209
 30
0.0
 40
0.534988700540783
100
AcDbArc
 50
356.8672208508
 51
3.1327791492
  0
ELLIPSE
  5
F1
330
95
100
AcDbEntity
  8
DV1_Standard
  6
Continuous
 62
     7
100
AcDbEllipse
 10
256.9033574513
 20
565.4428706209
 30
0.0
 11
8.500000000035403
 21
9.436895709313831E-13
 31
0.0
210
0.0
220
0.0
230
1.0
 40
0.2923717047
 41
0.0117649772879232
 42
0.2500344105105041
  0
LINE
  5
F2
330
95
100
AcDbEntity
  8
DV1_Standard
  6
Continuous
 62
     7
100
AcDbLine
 10
263.1533574513
 20
565.4136334504
 30
0.0
 11
265.4027691957
 21
565.4136334504
 31
0.0
  0
LINE
  5
F3
330
95
100
AcDbEntity
  8
DV1_Standard
  6
Continuous
 62
     7
100
AcDbLine
 10
263.1525574001
 20
565.4721077913
 30
0.0
 11
265.4027691957
 21
565.4721077913
 31
0.0
  0
LINE
  5
F4
330
95
100
AcDbEntity
  8
DV1_Standard
  6
Continuous
 62
     7
100
AcDbLine
 10
263.1525574001
 20
565.4721077913
 30
0.0
 11
263.1525574001
 21
565.9021691616
 31
0.0
  0
ELLIPSE
  5
F5
330
95
100
AcDbEntity
  8
DV1_Standard
  6
Continuous
 62
     7
100
AcDbEllipse
 10
256.9033574513
 20
565.6793629062
 30
0.0
 11
-0.5196299438963562
 21
5.551115123125783E-14
 31
0.0
210
0.0
220
0.0
230
1.0
 40
0.2923717047
 41
3.141592653590158
 42
3.643514934614124
  0
LINE
  5
F6
330
95
100
AcDbEntity
  8
DV1_Standard
  6
Continuous
 62
     7
100
AcDbLine
 10
257.3588959004
 20
565.7524558323
 30
0.0
 11
257.3588959004
 21
565.8659371496
 31
0.0
  0
LINE
  5
F7
330
95
100
AcDbEntity
  8
DV1_Standard
  6
Continuous
 62
     7
100
AcDbLine
 10
258.2025778316
 20
565.7524558323
 30
0.0
 11
257.3588959004
 21
565.7524558323
 31
0.0
  0
LINE
  5
F8
330
95
100
AcDbEntity
  8
DV1_Standard
  6
Continuous
 62
     7
100
AcDbLine
 10
258.6784685858
 20
565.60626998
 30
0.0
 11
257.4229873952
 21
565.60626998
 31
0.0
  0
LINE
  5
F9
330
95
100
AcDbEntity
  8
DV1_Standard
  6
Continuous
 62
     7
100
AcDbLine
 10
256.0521559771
 20
565.1021263739
 30
0.0
 11
256.5215357486
 21
565.3398215327
 31
0.0
  0
LINE
  5
FA
330
95
100
AcDbEntity
  8
DV1_Standard
  6
Continuous
 62
     7
100
AcDbLine
 10
255.6191432752
 20
565.1752193001
 30
0.0
 11
256.3837275074
 21
565.5624067793
 31
0.0
  0
ELLIPSE
  5
FB
330
95
100
AcDbEntity
  8
DV1_Standard
  6
Continuous
 62
     7
100
AcDbEllipse
 10
256.9033574513
 20
565.6793629062
 30
0.0
 11
-2.149999999991649
 21
1.887379141862766E-12
 31
0.0
210
0.0
220
0.0
230
1.0
 40
0.2923717047
 41
0.9306548427485082
 42
1.163740259647907
  0
LINE
  5
FC
330
95
100
AcDbEntity
  8
DV1_Standard
  6
Continuous
 62
     7
100
AcDbLine
 10
255.6191432752
 20
565.7557532758
 30
0.0
 11
255.6191432752
 21
565.1752193001
 31
0.0
  0
ELLIPSE
  5
FD
330
95
100
AcDbEntity
  8
DV1_Standard
  6
Continuous
 62
     7
100
AcDbEllipse
 10
256.9033574513
 20
565.6793629062
 30
0.0
 11
-0.5196299438963558
 21
1.387778780781446E-14
 31
0.0
210
0.0
220
0.0
230
1.0
 40
0.2923717047
 41
4.734065474958655
 42
5.737910037007167
  0
LINE
  5
FE
330
95
100
AcDbEntity
  8
DV1_Standard
  6
Continuous
 62
     7
100
AcDbLine
 10
256.2726763958
 20
565.8525556099
 30
0.0
 11
256.4590818758
 21
565.7581593814
 31
0.0
  0
LINE
  5
FF
330
95
100
AcDbEntity
  8
DV1_Standard
  6
Continuous
 62
     7
100
AcDbLine
 10
256.7969409182
 20
565.8794383726
 30
0.0
 11
256.8920945777
 21
565.8312523075
 31
0.0
  0
LINE
  5
100
330
95
100
AcDbEntity
  8
DV1_Standard
  6
Continuous
 62
     7
100
AcDbLine
 10
256.8920945777
 20
565.8312523075
 30
0.0
 11
256.8920945777
 21
565.8802002096
 31
0.0
  0
ELLIPSE
  5
101
330
95
100
AcDbEntity
  8
DV1_Standard
  6
Continuous
 62
     7
100
AcDbEllipse
 10
256.9033579075
 20
565.4428705852
 30
0.0
 11
8.499999543598458
 21
3.770586620710503E-8
 31
0.0
210
0.0
220
0.0
230
1.0
 40
0.2923717118
 41
-0.2735643736558782
 42
-0.2500344184260914
  0
ELLIPSE
  5
102
330
95
100
AcDbEntity
  8
DV1_Standard
  6
Continuous
 62
     7
100
AcDbEllipse
 10
256.9033574513
 20
565.4428706209
 30
0.0
 11
8.500000000029136
 21
-1.235123114895487E-12
 31
0.0
210
0.0
220
0.0
230
1.0
 40
0.2923717047
 41
6.033150896669006
 42
6.271420329891823
  0
LINE
  5
103
330
95
100
AcDbEntity
  8
DV1_Standard
  6
Continuous
 62
     7
100
AcDbLine
 10
265.139040668
 20
564.8279494669
 30
0.0
 11
265.139040668
 21
565.4136334504
 31
0.0
  0
LINE
  5
104
330
95
100
AcDbEntity
  8
DV1_Standard
  6
Continuous
 62
     7
100
AcDbLine
 10
263.0561543019
 20
564.9305872799
 30
0.0
 11
265.0872768589
 21
564.7714675908
 31
0.0
  0
LINE
  5
105
330
95
100
AcDbEntity
  8
DV1_Standard
  6
Continuous
 62
     7
100
AcDbLine
 10
263.0882837748
 20
564.9886073249
 30
0.0
 11
265.139040668
 21
564.8279494669
 31
0.0
  0
ELLIPSE
  5
106
330
95
100
AcDbEntity
  8
DV1_Standard
  6
Continuous
 62
     7
100
AcDbEllipse
 10
256.9033578013
 20
565.4428705618
 30
0.0
 11
8.4999996464453
 21
5.594290308774674E-8
 31
0.0
210
0.0
220
0.0
230
1.0
 40
0.2923717082
 41
-0.5353637653862382
 42
-0.5118338102509226
  0
ELLIPSE
  5
107
330
95
100
AcDbEntity
  8
DV1_Standard
  6
Continuous
 62
     7
100
AcDbEllipse
 10
256.9033574513
 20
565.4428706209
 30
0.0
 11
8.50000000002467
 21
-3.663735981263017E-12
 31
0.0
210
0.0
220
0.0
230
1.0
 40
0.2923717047
 41
-0.5118337983093344
 42
-0.2735643650867354
  0
LINE
  5
108
330
95
100
AcDbEntity
  8
DV1_Standard
  6
Continuous
 62
     7
100
AcDbLine
 10
264.3140639392
 20
564.2256970028
 30
0.0
 11
264.3140639392
 21
564.8320416802
 31
0.0
  0
LINE
  5
109
330
95
100
AcDbEntity
  8
DV1_Standard
  6
Continuous
 62
     7
100
AcDbLine
 10
262.5341801671
 20
564.4586226012
 30
0.0
 11
264.2140639392
 21
564.1750567381
 31
0.0
  0
LINE
  5
10A
330
95
100
AcDbEntity
  8
DV1_Standard
  6
Continuous
 62
     7
100
AcDbLine
 10
262.6184131231
 20
564.5119243569
 30
0.0
 11
264.3140639392
 21
564.2256970028
 31
0.0
  0
ELLIPSE
  5
10B
330
95
100
AcDbEntity
  8
DV1_Standard
  6
Continuous
 62
     7
100
AcDbEllipse
 10
256.9033577849
 20
565.4428705234
 30
0.0
 11
8.499999646233604
 21
7.537408197588746E-8
 31
0.0
210
0.0
220
0.0
230
1.0
 40
0.2923717047
 41
-0.7971631574785345
 42
-0.7736332022494938
  0
ELLIPSE
  5
10C
330
95
100
AcDbEntity
  8
DV1_Standard
  6
Continuous
 62
     7
100
AcDbEllipse
 10
256.9033574513
 20
565.4428706209
 30
0.0
 11
8.499999999993992
 21
1.249000902703301E-12
 31
0.0
210
0.0
220
0.0
230
1.0
 40
0.2923717047
 41
-0.7736331861096737
 42
-0.5353637528866058
  0
LINE
  5
10D
330
95
100
AcDbEntity
  8
DV1_Standard
  6
Continuous
 62
     7
100
AcDbLine
 10
262.98405981
 20
563.7063929094
 30
0.0
 11
262.98405981
 21
564.3826825205
 31
0.0
  0
LINE
  5
10E
330
95
100
AcDbEntity
  8
DV1_Standard
  6
Continuous
 62
     7
100
AcDbLine
 10
261.5717068846
 20
564.0366297358
 30
0.0
 11
262.8426384537
 21
563.6650453064
 31
0.0
  0
LINE
  5
10F
330
95
100
AcDbEntity
  8
DV1_Standard
  6
Continuous
 62
     7
100
AcDbLine
 10
261.7026313692
 20
564.0810463271
 30
0.0
 11
262.98405981
 21
563.7063929094
 31
0.0
  0
ELLIPSE
  5
110
330
95
100
AcDbEntity
  8
DV1_Standard
  6
Continuous
 62
     7
100
AcDbEllipse
 10
256.9033576703
 20
565.4428705101
 30
0.0
 11
8.499999726374792
 21
6.061262602941042E-8
 31
0.0
210
0.0
220
0.0
230
1.0
 40
0.292371701
 41
-1.058962542032211
 42
-1.035432586850169
  0
ELLIPSE
  5
111
330
95
100
AcDbEntity
  8
DV1_Standard
  6
Continuous
 62
     7
100
AcDbEllipse
 10
256.9033574513
 20
565.4428706209
 30
0.0
 11
8.500000000019448
 21
-4.260480856999038E-12
 31
0.0
210
0.0
220
0.0
230
1.0
 40
0.2923717047
 41
-1.035432573907348
 42
-0.7971631406847628
  0
LINE
  5
112
330
95
100
AcDbEntity
  8
DV1_Standard
  6
Continuous
 62
     7
100
AcDbLine
 10
261.2396658639
 20
563.3054269023
 30
0.0
 11
261.2396658639
 21
563.9356469538
 31
0.0
  0
LINE
  5
113
330
95
100
AcDbEntity
  8
DV1_Standard
  6
Continuous
 62
     7
100
AcDbLine
 10
260.2229556671
 20
563.7033429556
 30
0.0
 11
261.0664607831
 21
563.2761897318
 31
0.0
  0
LINE
  5
114
330
95
100
AcDbEntity
  8
DV1_Standard
  6
Continuous
 62
     7
100
AcDbLine
 10
260.3909195277
 20
563.7352342938
 30
0.0
 11
261.2396658639
 21
563.3054269023
 31
0.0
  0
ELLIPSE
  5
115
330
95
100
AcDbEntity
  8
DV1_Standard
  6
Continuous
 62
     7
100
AcDbEllipse
 10
256.9033575691
 20
565.4428704924
 30
0.0
 11
8.499999757280452
 21
3.637981582649275E-8
 31
0.0
210
0.0
220
0.0
230
1.0
 40
0.2923716979
 41
-1.320761924545963
 42
-1.297231969340086
  0
ELLIPSE
  5
116
330
95
100
AcDbEntity
  8
DV1_Standard
  6
Continuous
 62
     7
100
AcDbEllipse
 10
256.9033574513
 20
565.4428706209
 30
0.0
 11
8.500000000019364
 21
-3.719247132494274E-12
 31
0.0
210
0.0
220
0.0
230
1.0
 40
0.2923717047
 41
-1.297231961706595
 42
-1.058962528484098
  0
LINE
  5
117
330
95
100
AcDbEntity
  8
DV1_Standard
  6
Continuous
 62
     7
100
AcDbLine
 10
259.1997596656
 20
563.0501241523
 30
0.0
 11
259.1997596656
 21
563.5521015402
 31
0.0
  0
LINE
  5
118
330
95
100
AcDbEntity
  8
DV1_Standard
  6
Continuous
 62
     7
100
AcDbLine
 10
258.5878270565
 20
563.4919045013
 30
0.0
 11
259.0065745003
 21
563.0349898793
 31
0.0
  0
LINE
  5
119
330
95
100
AcDbEntity
  8
DV1_Standard
  6
Continuous
 62
     7
100
AcDbLine
 10
258.7796092514
 20
563.50856962
 30
0.0
 11
259.1997596656
 21
563.0501241523
 31
0.0
  0
ARC
  5
11A
330
95
100
AcDbEntity
  8
DV1_Standard
  6
Continuous
 62
     7
100
AcDbCircle
 10
256.9033574513
 20
592.0284518757
 30
0.0
 40
29.07074075041936
100
AcDbArc
 50
269.8029087287
 51
270.1970912713
  0
ELLIPSE
  5
11B
330
95
100
AcDbEntity
  8
DV1_Standard
  6
Continuous
 62
     7
100
AcDbEllipse
 10
256.9033574513
 20
565.4428706209
 30
0.0
 11
8.499999999996088
 21
1.665334536937735E-13
 31
0.0
210
0.0
220
0.0
230
1.0
 40
0.2923717047
 41
4.724153957672661
 42
4.962423390895731
  0
LINE
  5
11C
330
95
100
AcDbEntity
  8
DV1_Standard
  6
Continuous
 62
     7
100
AcDbLine
 10
256.8033574513
 20
563.4245204275
 30
0.0
 11
256.8033574513
 21
562.95788312
 31
0.0
  0
LINE
  5
11D
330
95
100
AcDbEntity
  8
DV1_Standard
  6
Continuous
 62
     7
100
AcDbLine
 10
257.0033574513
 20
563.4245204275
 30
0.0
 11
257.0033574513
 21
562.95788312
 31
0.0
  0
ELLIPSE
  5
11E
330
95
100
AcDbEntity
  8
DV1_Standard
  6
Continuous
 62
     7
100
AcDbEllipse
 10
256.9033573292
 20
565.4428704876
 30
0.0
 11
-8.499999748281057
 21
3.772665513324114E-8
 31
0.0
210
0.0
220
0.0
230
1.0
 40
0.2923716977
 41
1.297231969619298
 42
1.320761924848567
  0
ELLIPSE
  5
11F
330
95
100
AcDbEntity
  8
DV1_Standard
  6
Continuous
 62
     7
100
AcDbEllipse
 10
256.9033574513
 20
565.4428706209
 30
0.0
 11
-8.499999999997916
 21
1.804112415015879E-13
 31
0.0
210
0.0
220
0.0
230
1.0
 40
0.2923717047
 41
1.320761916283838
 42
1.559031349506868
  0
LINE
  5
120
330
95
100
AcDbEntity
  8
DV1_Standard
  6
Continuous
 62
     7
100
AcDbLine
 10
254.6069552371
 20
563.0501241523
 30
0.0
 11
254.6069552371
 21
563.5521015402
 31
0.0
  0
LINE
  5
121
330
95
100
AcDbEntity
  8
DV1_Standard
  6
Continuous
 62
     7
100
AcDbLine
 10
255.0271056512
 20
563.50856962
 30
0.0
 11
254.6069552371
 21
563.0501241523
 31
0.0
  0
LINE
  5
122
330
95
100
AcDbEntity
  8
DV1_Standard
  6
Continuous
 62
     7
100
AcDbLine
 10
255.2188878461
 20
563.4919045013
 30
0.0
 11
254.8001404023
 21
563.0349898793
 31
0.0
  0
ELLIPSE
  5
123
330
95
100
AcDbEntity
  8
DV1_Standard
  6
Continuous
 62
     7
100
AcDbEllipse
 10
256.9033572324
 20
565.4428705099
 30
0.0
 11
-8.499999726347571
 21
6.064285185125584E-8
 31
0.0
210
0.0
220
0.0
230
1.0
 40
0.2923717009
 41
1.035432586839224
 42
1.058962542021546
  0
ELLIPSE
  5
124
330
95
100
AcDbEntity
  8
DV1_Standard
  6
Continuous
 62
     7
100
AcDbEllipse
 10
256.9033574513
 20
565.4428706209
 30
0.0
 11
-8.499999999997959
 21
4.718447854656915E-13
 31
0.0
210
0.0
220
0.0
230
1.0
 40
0.2923717047
 41
1.058962528484733
 42
1.297231961707756
  0
LINE
  5
125
330
95
100
AcDbEntity
  8
DV1_Standard
  6
Continuous
 62
     7
100
AcDbLine
 10
252.5670490388
 20
563.3054269023
 30
0.0
 11
252.5670490388
 21
563.9356469538
 31
0.0
  0
LINE
  5
126
330
95
100
AcDbEntity
  8
DV1_Standard
  6
Continuous
 62
     7
100
AcDbLine
 10
253.415795375
 20
563.7352342938
 30
0.0
 11
252.5670490388
 21
563.3054269023
 31
0.0
  0
LINE
  5
127
330
95
100
AcDbEntity
  8
DV1_Standard
  6
Continuous
 62
     7
100
AcDbLine
 10
253.5837592356
 20
563.7033429556
 30
0.0
 11
252.7402541195
 21
563.2761897318
 31
0.0
  0
ELLIPSE
  5
128
330
95
100
AcDbEntity
  8
DV1_Standard
  6
Continuous
 62
     7
100
AcDbEllipse
 10
256.9033571417
 20
565.4428705303
 30
0.0
 11
-8.499999671604085
 21
7.003880808653662E-8
 31
0.0
210
0.0
220
0.0
230
1.0
 40
0.2923717047
 41
0.773633201090972
 42
0.797163156273271
  0
ELLIPSE
  5
129
330
95
100
AcDbEntity
  8
DV1_Standard
  6
Continuous
 62
     7
100
AcDbEllipse
 10
256.9033574513
 20
565.4428706209
 30
0.0
 11
-8.500000000022871
 21
-5.051514762044462E-12
 31
0.0
210
0.0
220
0.0
230
1.0
 40
0.2923717047
 41
0.797163140684638
 42
1.035432573907136
  0
LINE
  5
12A
330
95
100
AcDbEntity
  8
DV1_Standard
  6
Continuous
 62
     7
100
AcDbLine
 10
250.8226550927
 20
563.7063929094
 30
0.0
 11
250.8226550927
 21
564.3826825205
 31
0.0
  0
LINE
  5
12B
330
95
100
AcDbEntity
  8
DV1_Standard
  6
Continuous
 62
     7
100
AcDbLine
 10
252.1040835334
 20
564.0810463271
 30
0.0
 11
250.8226550927
 21
563.7063929094
 31
0.0
  0
LINE
  5
12C
330
95
100
AcDbEntity
  8
DV1_Standard
  6
Continuous
 62
     7
100
AcDbLine
 10
252.2350080181
 20
564.0366297358
 30
0.0
 11
250.9640764489
 21
563.6650453064
 31
0.0
  0
ELLIPSE
  5
12D
330
95
100
AcDbEntity
  8
DV1_Standard
  6
Continuous
 62
     7
100
AcDbEllipse
 10
256.9033570431
 20
565.4428705519
 30
0.0
 11
-8.499999587581666
 21
6.530230522994174E-8
 31
0.0
210
0.0
220
0.0
230
1.0
 40
0.2923717088
 41
0.5118338122368417
 42
0.5353637674654008
  0
ELLIPSE
  5
12E
330
95
100
AcDbEntity
  8
DV1_Standard
  6
Continuous
 62
     7
100
AcDbEllipse
 10
256.9033574513
 20
565.4428706209
 30
0.0
 11
-8.49999999999064
 21
1.901256929670581E-12
 31
0.0
210
0.0
220
0.0
230
1.0
 40
0.2923717047
 41
0.53536375288671
 42
0.7736331861098428
  0
LINE
  5
12F
330
95
100
AcDbEntity
  8
DV1_Standard
  6
Continuous
 62
     7
100
AcDbLine
 10
249.4926509635
 20
564.2256970028
 30
0.0
 11
249.4926509635
 21
564.8320416802
 31
0.0
  0
LINE
  5
130
330
95
100
AcDbEntity
  8
DV1_Standard
  6
Continuous
 62
     7
100
AcDbLine
 10
251.1883017796
 20
564.5119243569
 30
0.0
 11
249.4926509635
 21
564.2256970028
 31
0.0
  0
LINE
  5
131
330
95
100
AcDbEntity
  8
DV1_Standard
  6
Continuous
 62
     7
100
AcDbLine
 10
251.2725347355
 20
564.4586226012
 30
0.0
 11
249.5926509635
 21
564.1750567381
 31
0.0
  0
ELLIPSE
  5
132
330
95
100
AcDbEntity
  8
DV1_Standard
  6
Continuous
 62
     7
100
AcDbEllipse
 10
256.9033570613
 20
565.4428705903
 30
0.0
 11
-8.499999609781806
 21
3.233814604985952E-8
 31
0.0
210
0.0
220
0.0
230
1.0
 40
0.2923717107
 41
0.2500344172811068
 42
0.273564372416135
  0
ELLIPSE
  5
133
330
95
100
AcDbEntity
  8
DV1_Standard
  6
Continuous
 62
     7
100
AcDbEllipse
 10
256.9033574514
 20
565.4428706209
 30
0.0
 11
-8.500000000030834
 21
-3.413935800722356E-12
 31
0.0
210
0.0
220
0.0
230
1.0
 40
0.2923717047
 41
0.2735643650866555
 42
0.5118337983091658
  0
LINE
  5
134
330
95
100
AcDbEntity
  8
DV1_Standard
  6
Continuous
 62
     7
100
AcDbLine
 10
248.6676742347
 20
564.8279494669
 30
0.0
 11
248.6676742347
 21
565.4136334504
 31
0.0
  0
LINE
  5
135
330
95
100
AcDbEntity
  8
DV1_Standard
  6
Continuous
 62
     7
100
AcDbLine
 10
250.7184311279
 20
564.9886073249
 30
0.0
 11
248.6676742347
 21
564.8279494669
 31
0.0
  0
LINE
  5
136
330
95
100
AcDbEntity
  8
DV1_Standard
  6
Continuous
 62
     7
100
AcDbLine
 10
250.7505606007
 20
564.9305872799
 30
0.0
 11
248.7194380437
 21
564.7714675908
 31
0.0
  0
ARC
  5
137
330
95
100
AcDbEntity
  8
DV1_Standard
  6
Continuous
 62
     7
100
AcDbCircle
 10
249.1304857388
 20
565.4428706209
 30
0.0
 40
0.7271280698716457
100
AcDbArc
 50
177.6955666204
 51
182.3044333796
  0
ELLIPSE
  5
138
330
95
100
AcDbEntity
  8
DV1_Standard
  6
Continuous
 62
     7
100
AcDbEllipse
 10
256.9033574514
 20
565.4428706209
 30
0.0
 11
-8.500000000038387
 21
-1.068589661201713E-12
 31
0.0
210
0.0
220
0.0
230
1.0
 40
0.2923717047
 41
0.0117649772881969
 42
0.2500344105104556
  0
LINE
  5
139
330
95
100
AcDbEntity
  8
DV1_Standard
  6
Continuous
 62
     7
100
AcDbLine
 10
250.6541575025
 20
565.4721077913
 30
0.0
 11
250.6541575025
 21
565.9021691616
 31
0.0
  0
LINE
  5
13A
330
95
100
AcDbEntity
  8
DV1_Standard
  6
Continuous
 62
     7
100
AcDbLine
 10
250.6541575025
 20
565.4721077913
 30
0.0
 11
248.403945707
 21
565.4721077913
 31
0.0
  0
LINE
  5
13B
330
95
100
AcDbEntity
  8
DV1_Standard
  6
Continuous
 62
     7
100
AcDbLine
 10
250.6533574513
 20
565.4136334504
 30
0.0
 11
248.403945707
 21
565.4136334504
 31
0.0
  0
ELLIPSE
  5
13C
330
95
100
AcDbEntity
  8
DV1_Standard
  6
Continuous
 62
     7
100
AcDbEllipse
 10
256.9033569957
 20
565.4428706565
 30
0.0
 11
-8.49999954415131
 21
-3.766019440742951E-8
 31
0.0
210
0.0
220
0.0
230
1.0
 40
0.2923717117
 41
-0.2735643736454758
 42
-0.2500344184165062
  0
ELLIPSE
  5
13D
330
95
100
AcDbEntity
  8
DV1_Standard
  6
Continuous
 62
     7
100
AcDbEllipse
 10
256.9033574514
 20
565.4428706209
 30
0.0
 11
-8.50000000002564
 21
5.551115123125783E-13
 31
0.0
210
0.0
220
0.0
230
1.0
 40
0.2923717047
 41
6.033150896668904
 42
6.271420329891503
  0
ELLIPSE
  5
13E
330
95
100
AcDbEntity
  8
DV1_Standard
  6
Continuous
 62
     7
100
AcDbEllipse
 10
256.9033574561
 20
565.4428706205
 30
0.0
 11
-6.250000004748947
 21
3.598371600688210E-10
 31
0.0
210
0.0
220
0.0
230
1.0
 40
0.2923717046
 41
-0.2778000704230843
 42
-0.2457987049450328
  0
LINE
  5
13F
330
95
100
AcDbEntity
  8
DV1_Standard
  6
Continuous
 62
     7
100
AcDbLine
 10
250.8929757317
 20
565.9439970519
 30
0.0
 11
250.8929757317
 21
566.4236681824
 31
0.0
  0
LINE
  5
140
330
95
100
AcDbEntity
  8
DV1_Standard
  6
Continuous
 62
     7
100
AcDbLine
 10
250.8929757317
 20
565.9439970519
 30
0.0
 11
248.7194380437
 21
566.114273651
 31
0.0
  0
LINE
  5
141
330
95
100
AcDbEntity
  8
DV1_Standard
  6
Continuous
 62
     7
100
AcDbLine
 10
250.8412119226
 20
565.8875151758
 30
0.0
 11
248.6676742347
 21
566.0577917749
 31
0.0
  0
ELLIPSE
  5
142
330
95
100
AcDbEntity
  8
DV1_Standard
  6
Continuous
 62
     7
100
AcDbEllipse
 10
256.9033575016
 20
565.4428706124
 30
0.0
 11
-6.250000050766138
 21
8.013964492015191E-9
 31
0.0
210
0.0
220
0.0
230
1.0
 40
0.292371704
 41
-0.5395994558842476
 42
-0.5075980905421105
  0
LINE
  5
143
330
95
100
AcDbEntity
  8
DV1_Standard
  6
Continuous
 62
     7
100
AcDbLine
 10
251.5413915423
 20
566.3817353743
 30
0.0
 11
251.5413915423
 21
566.9692101313
 31
0.0
  0
LINE
  5
144
330
95
100
AcDbEntity
  8
DV1_Standard
  6
Continuous
 62
     7
100
AcDbLine
 10
251.5413915423
 20
566.3817353743
 30
0.0
 11
249.7243446437
 21
566.6884544942
 31
0.0
  0
LINE
  5
145
330
95
100
AcDbEntity
  8
DV1_Standard
  6
Continuous
 62
     7
100
AcDbLine
 10
251.4413915423
 20
566.3310951096
 30
0.0
 11
249.613041099
 21
566.6397222778
 31
0.0
  0
ELLIPSE
  5
146
330
95
100
AcDbEntity
  8
DV1_Standard
  6
Continuous
 62
     7
100
AcDbEllipse
 10
256.9033574924
 20
565.4428706089
 30
0.0
 11
-6.250000043535367
 21
9.279424451058560E-9
 31
0.0
210
0.0
220
0.0
230
1.0
 40
0.2923717047
 41
-0.8013988433117074
 42
-0.7693974779696635
  0
LINE
  5
147
330
95
100
AcDbEntity
  8
DV1_Standard
  6
Continuous
 62
     7
100
AcDbLine
 10
252.5552164687
 20
566.7554916154
 30
0.0
 11
252.5552164687
 21
567.4547748997
 31
0.0
  0
LINE
  5
148
330
95
100
AcDbEntity
  8
DV1_Standard
  6
Continuous
 62
     7
100
AcDbLine
 10
252.5552164687
 20
566.7554916154
 30
0.0
 11
251.1621992141
 21
567.1627704448
 31
0.0
  0
LINE
  5
149
330
95
100
AcDbEntity
  8
DV1_Standard
  6
Continuous
 62
     7
100
AcDbLine
 10
252.4137951124
 20
566.7141440123
 30
0.0
 11
251.0132475054
 21
567.1236245037
 31
0.0
  0
ELLIPSE
  5
14A
330
95
100
AcDbEntity
  8
DV1_Standard
  6
Continuous
 62
     7
100
AcDbEllipse
 10
256.9033574209
 20
565.4428706362
 30
0.0
 11
-6.249999962045956
 21
-8.408093665757121E-9
 31
0.0
210
0.0
220
0.0
230
1.0
 40
0.292371704
 41
-1.063198236520909
 42
-1.031196870874868
  0
LINE
  5
14B
330
95
100
AcDbEntity
  8
DV1_Standard
  6
Continuous
 62
     7
100
AcDbLine
 10
253.8653600173
 20
567.0397949048
 30
0.0
 11
253.8653600173
 21
567.6351218522
 31
0.0
  0
LINE
  5
14C
330
95
100
AcDbEntity
  8
DV1_Standard
  6
Continuous
 62
     7
100
AcDbLine
 10
253.8653600173
 20
567.0397949048
 30
0.0
 11
252.9284687309
 21
567.5142391325
 31
0.0
  0
LINE
  5
14D
330
95
100
AcDbEntity
  8
DV1_Standard
  6
Continuous
 62
     7
100
AcDbLine
 10
253.6921549366
 20
567.0105577343
 30
0.0
 11
252.7515011403
 21
567.4869073069
 31
0.0
  0
ELLIPSE
  5
14E
330
95
100
AcDbEntity
  8
DV1_Standard
  6
Continuous
 62
     7
100
AcDbEllipse
 10
256.9033574663
 20
565.4428706046
 30
0.0
 11
-6.250000030785523
 21
4.614988946549659E-9
 31
0.0
210
0.0
220
0.0
230
1.0
 40
0.2923717059
 41
-1.324997620295889
 42
-1.292996254952944
  0
LINE
  5
14F
330
95
100
AcDbEntity
  8
DV1_Standard
  6
Continuous
 62
     7
100
AcDbLine
 10
255.3825380706
 20
567.2152704434
 30
0.0
 11
255.3825380706
 21
567.7560785328
 31
0.0
  0
LINE
  5
150
330
95
100
AcDbEntity
  8
DV1_Standard
  6
Continuous
 62
     7
100
AcDbLine
 10
255.3825380706
 20
567.2152704434
 30
0.0
 11
254.9128460727
 21
567.7277730147
 31
0.0
  0
LINE
  5
151
330
95
100
AcDbEntity
  8
DV1_Standard
  6
Continuous
 62
     7
100
AcDbLine
 10
255.1893529053
 20
567.2001361703
 30
0.0
 11
254.7186532681
 21
567.7137382233
 31
0.0
  0
ARC
  5
152
330
95
100
AcDbEntity
  8
DV1_Standard
  6
Continuous
 62
     7
100
AcDbCircle
 10
256.9033574513
 20
545.8957986573
 30
0.0
 40
21.37439513178228
100
AcDbArc
 50
89.7319410061
 51
90.2680589939
  0
LINE
  5
153
330
95
100
AcDbEntity
  8
DV1_Standard
  6
Continuous
 62
     7
100
AcDbLine
 10
257.0033574513
 20
567.2699598631
 30
0.0
 11
257.0033574513
 21
567.7950754655
 31
0.0
  0
LINE
  5
154
330
95
100
AcDbEntity
  8
DV1_Standard
  6
Continuous
 62
     7
100
AcDbLine
 10
256.8033574513
 20
567.2699598631
 30
0.0
 11
256.8033574513
 21
567.7950754655
 31
0.0
  0
ELLIPSE
  5
155
330
95
100
AcDbEntity
  8
DV1_Standard
  6
Continuous
 62
     7
100
AcDbEllipse
 10
256.9033574349
 20
565.4428706029
 30
0.0
 11
6.250000033891939
 21
5.069902830889816E-9
 31
0.0
210
0.0
220
0.0
230
1.0
 40
0.292371706
 41
1.292996254827586
 42
1.324997620155577
  0
LINE
  5
156
330
95
100
AcDbEntity
  8
DV1_Standard
  6
Continuous
 62
     7
100
AcDbLine
 10
258.6173619974
 20
567.2001361703
 30
0.0
 11
259.0880616346
 21
567.7137382233
 31
0.0
  0
LINE
  5
157
330
95
100
AcDbEntity
  8
DV1_Standard
  6
Continuous
 62
     7
100
AcDbLine
 10
258.4241768321
 20
567.2152704434
 30
0.0
 11
258.8938688299
 21
567.7277730147
 31
0.0
  0
LINE
  5
158
330
95
100
AcDbEntity
  8
DV1_Standard
  6
Continuous
 62
     7
100
AcDbLine
 10
258.4241768321
 20
567.2152704434
 30
0.0
 11
258.4241768321
 21
567.7560785328
 31
0.0
  0
ELLIPSE
  5
159
330
95
100
AcDbEntity
  8
DV1_Standard
  6
Continuous
 62
     7
100
AcDbEllipse
 10
256.9033574222
 20
565.4428706061
 30
0.0
 11
6.250000036404935
 21
8.072320589747051E-9
 31
0.0
210
0.0
220
0.0
230
1.0
 40
0.2923717054
 41
1.031196866130767
 42
1.063198231472289
  0
LINE
  5
15A
330
95
100
AcDbEntity
  8
DV1_Standard
  6
Continuous
 62
     7
100
AcDbLine
 10
260.1145599661
 20
567.0105577343
 30
0.0
 11
261.0552137623
 21
567.4869073069
 31
0.0
  0
LINE
  5
15B
330
95
100
AcDbEntity
  8
DV1_Standard
  6
Continuous
 62
     7
100
AcDbLine
 10
259.9413548853
 20
567.0397949048
 30
0.0
 11
260.8782461718
 21
567.5142391325
 31
0.0
  0
LINE
  5
15C
330
95
100
AcDbEntity
  8
DV1_Standard
  6
Continuous
 62
     7
100
AcDbLine
 10
259.9413548853
 20
567.0397949048
 30
0.0
 11
259.9413548853
 21
567.6351218522
 31
0.0
  0
ELLIPSE
  5
15D
330
95
100
AcDbEntity
  8
DV1_Standard
  6
Continuous
 62
     7
100
AcDbEllipse
 10
256.9033574111
 20
565.4428706091
 30
0.0
 11
6.250000042626385
 21
9.084760721478347E-9
 31
0.0
210
0.0
220
0.0
230
1.0
 40
0.2923717047
 41
0.769397478026188
 42
0.8013988433713073
  0
LINE
  5
15E
330
95
100
AcDbEntity
  8
DV1_Standard
  6
Continuous
 62
     7
100
AcDbLine
 10
261.3929197902
 20
566.7141440123
 30
0.0
 11
262.7934673972
 21
567.1236245037
 31
0.0
  0
LINE
  5
15F
330
95
100
AcDbEntity
  8
DV1_Standard
  6
Continuous
 62
     7
100
AcDbLine
 10
261.251498434
 20
566.7554916154
 30
0.0
 11
262.6445156886
 21
567.1627704448
 31
0.0
  0
LINE
  5
160
330
95
100
AcDbEntity
  8
DV1_Standard
  6
Continuous
 62
     7
100
AcDbLine
 10
261.251498434
 20
566.7554916154
 30
0.0
 11
261.251498434
 21
567.4547748997
 31
0.0
  0
ELLIPSE
  5
161
330
95
100
AcDbEntity
  8
DV1_Standard
  6
Continuous
 62
     7
100
AcDbEllipse
 10
256.9033574015
 20
565.4428706124
 30
0.0
 11
6.2500000503536
 21
7.999920170753683E-9
 31
0.0
210
0.0
220
0.0
230
1.0
 40
0.2923717041
 41
0.5075980905587106
 42
0.5395994559020344
  0
LINE
  5
162
330
95
100
AcDbEntity
  8
DV1_Standard
  6
Continuous
 62
     7
100
AcDbLine
 10
262.3653233603
 20
566.3310951096
 30
0.0
 11
264.1936738037
 21
566.6397222778
 31
0.0
  0
LINE
  5
163
330
95
100
AcDbEntity
  8
DV1_Standard
  6
Continuous
 62
     7
100
AcDbLine
 10
262.2653233603
 20
566.3817353743
 30
0.0
 11
264.0823702589
 21
566.6884544942
 31
0.0
  0
LINE
  5
164
330
95
100
AcDbEntity
  8
DV1_Standard
  6
Continuous
 62
     7
100
AcDbLine
 10
262.2653233603
 20
566.3817353743
 30
0.0
 11
262.2653233603
 21
566.9692101313
 31
0.0
  0
ELLIPSE
  5
165
330
95
100
AcDbEntity
  8
DV1_Standard
  6
Continuous
 62
     7
100
AcDbEllipse
 10
256.9033579072
 20
565.4428706565
 30
0.0
 11
8.499999543861826
 21
-3.768411971361019E-8
 31
0.0
210
0.0
220
0.0
230
1.0
 40
0.2923717118
 41
0.2500344184216988
 42
0.2735643736510697
  0
ELLIPSE
  5
166
330
95
100
AcDbEntity
  8
DV1_Standard
  6
Continuous
 62
     7
100
AcDbEllipse
 10
256.9033574206
 20
565.4428706185
 30
0.0
 11
6.250000030726487
 21
2.508299123960001E-9
 31
0.0
210
0.0
220
0.0
230
1.0
 40
0.2923717041
 41
0.2457987043413155
 42
0.2778000697505576
  0
LINE
  5
167
330
95
100
AcDbEntity
  8
DV1_Standard
  6
Continuous
 62
     7
100
AcDbLine
 10
262.96550298
 20
565.8875151758
 30
0.0
 11
265.139040668
 21
566.0577917749
 31
0.0
  0
LINE
  5
168
330
95
100
AcDbEntity
  8
DV1_Standard
  6
Continuous
 62
     7
100
AcDbLine
 10
262.913739171
 20
565.9439970519
 30
0.0
 11
265.0872768589
 21
566.114273651
 31
0.0
  0
LINE
  5
169
330
95
100
AcDbEntity
  8
DV1_Standard
  6
Continuous
 62
     7
100
AcDbLine
 10
262.913739171
 20
565.9439970519
 30
0.0
 11
262.913739171
 21
566.4236681824
 31
0.0
  0
ELLIPSE
  5
16A
330
95
100
AcDbEntity
  8
DV1_Standard
  6
Continuous
 62
     7
100
AcDbEllipse
 10
256.9033574513
 20
565.4428706209
 30
0.0
 11
-2.749999999996712
 21
-1.873501354054952E-12
 31
0.0
210
0.0
220
0.0
230
1.0
 40
0.2923717047
 41
3.141592653589793
 42
3.205272045846759
  0
LINE
  5
16B
330
95
100
AcDbEntity
  8
DV1_Standard
  6
Continuous
 62
     7
100
AcDbLine
 10
259.6477836209
 20
565.8470518712
 30
0.0
 11
259.6477836209
 21
565.4940356692
 31
0.0
  0
LINE
  5
16C
330
95
100
AcDbEntity
  8
DV1_Standard
  6
Continuous
 62
     7
100
AcDbLine
 10
259.6533574513
 20
565.3917055725
 30
0.0
 11
262.1314446359
 21
565.3917055725
 31
0.0
  0
LINE
  5
16D
330
95
100
AcDbEntity
  8
DV1_Standard
  6
Continuous
 62
     7
100
AcDbLine
 10
259.6477836209
 20
565.4940356692
 30
0.0
 11
262.0874654983
 21
565.4940356692
 31
0.0
  0
ELLIPSE
  5
16E
330
95
100
AcDbEntity
  8
DV1_Standard
  6
Continuous
 62
     7
100
AcDbEllipse
 10
256.9033574545
 20
565.4428706203
 30
0.0
 11
5.2499999967961
 21
5.019595850086489E-10
 31
0.0
210
0.0
220
0.0
230
1.0
 40
0.2923717048
 41
-0.5569382850502036
 42
-0.490259266504359
  0
LINE
  5
16F
330
95
100
AcDbEntity
  8
DV1_Standard
  6
Continuous
 62
     7
100
AcDbLine
 10
259.456430274
 20
564.9528293667
 30
0.0
 11
261.3599642117
 21
564.6315111582
 31
0.0
  0
LINE
  5
170
330
95
100
AcDbEntity
  8
DV1_Standard
  6
Continuous
 62
     7
100
AcDbLine
 10
259.5674765293
 20
565.0522452785
 30
0.0
 11
261.5349642117
 21
564.7201316215
 31
0.0
  0
LINE
  5
171
330
95
100
AcDbEntity
  8
DV1_Standard
  6
Continuous
 62
     7
100
AcDbLine
 10
261.5349642117
 20
565.3917055725
 30
0.0
 11
261.5349642117
 21
564.7201316215
 31
0.0
  0
ELLIPSE
  5
172
330
95
100
AcDbEntity
  8
DV1_Standard
  6
Continuous
 62
     7
100
AcDbEllipse
 10
256.9033574511
 20
565.442870621
 30
0.0
 11
5.250000000264238
 21
-5.465072838717333E-11
 31
0.0
210
0.0
220
0.0
230
1.0
 40
0.2923717047
 41
-1.080537060436972
 42
-1.013858041917103
  0
LINE
  5
173
330
95
100
AcDbEntity
  8
DV1_Standard
  6
Continuous
 62
     7
100
AcDbLine
 10
258.4079628207
 20
564.578604382
 30
0.0
 11
259.375344267
 21
564.0887198567
 31
0.0
  0
LINE
  5
174
330
95
100
AcDbEntity
  8
DV1_Standard
  6
Continuous
 62
     7
100
AcDbLine
 10
258.6900645729
 20
564.6404075012
 30
0.0
 11
259.6784531583
 21
564.139884905
 31
0.0
  0
LINE
  5
175
330
95
100
AcDbEntity
  8
DV1_Standard
  6
Continuous
 62
     7
100
AcDbLine
 10
259.6784531583
 20
564.9153517079
 30
0.0
 11
259.6784531583
 21
564.139884905
 31
0.0
  0
ARC
  5
176
330
95
100
AcDbEntity
  8
DV1_Standard
  6
Continuous
 62
     7
100
AcDbCircle
 10
256.9033574513
 20
581.8553875049
 30
0.0
 40
17.9474685506332
100
AcDbArc
 50
269.4413184078
 51
270.5586815922
  0
LINE
  5
177
330
95
100
AcDbEntity
  8
DV1_Standard
  6
Continuous
 62
     7
100
AcDbLine
 10
256.7283574513
 20
564.449217112
 30
0.0
 11
256.7283574513
 21
563.9087721589
 31
0.0
  0
LINE
  5
178
330
95
100
AcDbEntity
  8
DV1_Standard
  6
Continuous
 62
     7
100
AcDbLine
 10
257.0783574513
 20
564.449217112
 30
0.0
 11
257.0783574513
 21
563.9087721589
 31
0.0
  0
ELLIPSE
  5
179
330
95
100
AcDbEntity
  8
DV1_Standard
  6
Continuous
 62
     7
100
AcDbEllipse
 10
256.9033574502
 20
565.4428706203
 30
0.0
 11
-5.249999998640158
 21
2.974703816605029E-10
 31
0.0
210
0.0
220
0.0
230
1.0
 40
0.2923717047
 41
1.013858042034927
 42
1.080537060571347
  0
LINE
  5
17A
330
95
100
AcDbEntity
  8
DV1_Standard
  6
Continuous
 62
     7
100
AcDbLine
 10
255.1166503297
 20
564.6404075012
 30
0.0
 11
254.1282617443
 21
564.139884905
 31
0.0
  0
LINE
  5
17B
330
95
100
AcDbEntity
  8
DV1_Standard
  6
Continuous
 62
     7
100
AcDbLine
 10
255.3987520819
 20
564.578604382
 30
0.0
 11
254.4313706356
 21
564.0887198567
 31
0.0
  0
LINE
  5
17C
330
95
100
AcDbEntity
  8
DV1_Standard
  6
Continuous
 62
     7
100
AcDbLine
 10
254.1282617443
 20
564.9153517079
 30
0.0
 11
254.1282617443
 21
564.139884905
 31
0.0
  0
ELLIPSE
  5
17D
330
95
100
AcDbEntity
  8
DV1_Standard
  6
Continuous
 62
     7
100
AcDbEllipse
 10
256.9033574504
 20
565.4428706207
 30
0.0
 11
-5.249999999097455
 21
1.377509217803663E-10
 31
0.0
210
0.0
220
0.0
230
1.0
 40
0.2923717047
 41
0.4902592663840728
 42
0.5569382849131872
  0
LINE
  5
17E
330
95
100
AcDbEntity
  8
DV1_Standard
  6
Continuous
 62
     7
100
AcDbLine
 10
254.2392383733
 20
565.0522452785
 30
0.0
 11
252.2717506909
 21
564.7201316215
 31
0.0
  0
LINE
  5
17F
330
95
100
AcDbEntity
  8
DV1_Standard
  6
Continuous
 62
     7
100
AcDbLine
 10
254.3502846286
 20
564.9528293667
 30
0.0
 11
252.4467506909
 21
564.6315111582
 31
0.0
  0
LINE
  5
180
330
95
100
AcDbEntity
  8
DV1_Standard
  6
Continuous
 62
     7
100
AcDbLine
 10
252.2717506909
 20
565.3917055725
 30
0.0
 11
252.2717506909
 21
564.7201316215
 31
0.0
  0
LINE
  5
181
330
95
100
AcDbEntity
  8
DV1_Standard
  6
Continuous
 62
     7
100
AcDbLine
 10
254.1589312818
 20
565.8470518712
 30
0.0
 11
254.1589312818
 21
565.4940356692
 31
0.0
  0
ELLIPSE
  5
182
330
95
100
AcDbEntity
  8
DV1_Standard
  6
Continuous
 62
     7
100
AcDbEllipse
 10
256.9033574513
 20
565.4428706209
 30
0.0
 11
2.749999999999134
 21
-1.859623566247137E-12
 31
0.0
210
0.0
220
0.0
230
1.0
 40
0.2923717047
 41
3.077913261332654
 42
3.141592653589793
  0
LINE
  5
183
330
95
100
AcDbEntity
  8
DV1_Standard
  6
Continuous
 62
     7
100
AcDbLine
 10
254.1589312818
 20
565.4940356692
 30
0.0
 11
251.7192494044
 21
565.4940356692
 31
0.0
  0
LINE
  5
184
330
95
100
AcDbEntity
  8
DV1_Standard
  6
Continuous
 62
     7
100
AcDbLine
 10
254.1533574513
 20
565.3917055725
 30
0.0
 11
251.6752702668
 21
565.3917055725
 31
0.0
  0
LINE
  5
185
330
95
100
AcDbEntity
  8
DV1_Standard
  6
Continuous
 62
     7
100
AcDbLine
 10
254.6141146697
 20
566.4998191291
 30
0.0
 11
254.6141146697
 21
565.8883771313
 31
0.0
  0
ELLIPSE
  5
186
330
95
100
AcDbEntity
  8
DV1_Standard
  6
Continuous
 62
     7
100
AcDbEllipse
 10
256.9033574513
 20
565.4428706209
 30
0.0
 11
-2.750000000022098
 21
2.095545958979983E-12
 31
0.0
210
0.0
220
0.0
230
1.0
 40
0.2923717047
 41
-0.5872781678528121
 42
-0.4599193833393729
  0
LINE
  5
187
330
95
100
AcDbEntity
  8
DV1_Standard
  6
Continuous
 62
     7
100
AcDbLine
 10
254.6141146697
 20
565.8883771313
 30
0.0
 11
252.7730687378
 21
566.1991473092
 31
0.0
  0
LINE
  5
188
330
95
100
AcDbEntity
  8
DV1_Standard
  6
Continuous
 62
     7
100
AcDbLine
 10
254.4391146697
 20
565.7997566681
 30
0.0
 11
252.5651493656
 21
566.116083665
 31
0.0
  0
LINE
  5
189
330
95
100
AcDbEntity
  8
DV1_Standard
  6
Continuous
 62
     7
100
AcDbLine
 10
255.6826988122
 20
566.744495567
 30
0.0
 11
255.6826988122
 21
566.1633454838
 31
0.0
  0
ELLIPSE
  5
18A
330
95
100
AcDbEntity
  8
DV1_Standard
  6
Continuous
 62
     7
100
AcDbEllipse
 10
256.9033574513
 20
565.4428706209
 30
0.0
 11
-2.749999999963412
 21
-8.604228440844963E-12
 31
0.0
210
0.0
220
0.0
230
1.0
 40
0.2923717047
 41
-1.110876943459786
 42
-0.9835181589444177
  0
LINE
  5
18B
330
95
100
AcDbEntity
  8
DV1_Standard
  6
Continuous
 62
     7
100
AcDbLine
 10
255.6826988122
 20
566.1633454838
 30
0.0
 11
254.7252078844
 21
566.6482214244
 31
0.0
  0
LINE
  5
18C
330
95
100
AcDbEntity
  8
DV1_Standard
  6
Continuous
 62
     7
100
AcDbLine
 10
255.3795899209
 20
566.1121804355
 30
0.0
 11
254.4111688079
 21
566.6025914508
 31
0.0
  0
ARC
  5
18D
330
95
100
AcDbEntity
  8
DV1_Standard
  6
Continuous
 62
     7
100
AcDbCircle
 10
256.9033574513
 20
556.8584924165
 30
0.0
 40
9.388401905458323
100
AcDbArc
 50
88.9319436641
 51
91.0680563359
  0
LINE
  5
18E
330
95
100
AcDbEntity
  8
DV1_Standard
  6
Continuous
 62
     7
100
AcDbLine
 10
257.0783574513
 20
566.2452631785
 30
0.0
 11
257.0783574513
 21
566.7857081317
 31
0.0
  0
LINE
  5
18F
330
95
100
AcDbEntity
  8
DV1_Standard
  6
Continuous
 62
     7
100
AcDbLine
 10
256.7283574513
 20
566.2452631785
 30
0.0
 11
256.7283574513
 21
566.7857081317
 31
0.0
  0
ELLIPSE
  5
190
330
95
100
AcDbEntity
  8
DV1_Standard
  6
Continuous
 62
     7
100
AcDbEllipse
 10
256.9033574513
 20
565.4428706208
 30
0.0
 11
2.750000000059931
 21
1.368349877850506E-11
 31
0.0
210
0.0
220
0.0
230
1.0
 40
0.2923717047
 41
0.9835181589315034
 42
1.11087694344335
  0
LINE
  5
191
330
95
100
AcDbEntity
  8
DV1_Standard
  6
Continuous
 62
     7
100
AcDbLine
 10
258.1240160904
 20
566.744495567
 30
0.0
 11
258.1240160904
 21
566.1633454838
 31
0.0
  0
LINE
  5
192
330
95
100
AcDbEntity
  8
DV1_Standard
  6
Continuous
 62
     7
100
AcDbLine
 10
258.4271249818
 20
566.1121804355
 30
0.0
 11
259.3955460948
 21
566.6025914508
 31
0.0
  0
LINE
  5
193
330
95
100
AcDbEntity
  8
DV1_Standard
  6
Continuous
 62
     7
100
AcDbLine
 10
258.1240160904
 20
566.1633454838
 30
0.0
 11
259.0815070182
 21
566.6482214244
 31
0.0
  0
ELLIPSE
  5
194
330
95
100
AcDbEntity
  8
DV1_Standard
  6
Continuous
 62
     7
100
AcDbEllipse
 10
256.9033574513
 20
565.4428706209
 30
0.0
 11
2.750000000012226
 21
2.081668171172169E-12
 31
0.0
210
0.0
220
0.0
230
1.0
 40
0.2923717047
 41
0.4599193833400668
 42
0.5872781678537995
  0
LINE
  5
195
330
95
100
AcDbEntity
  8
DV1_Standard
  6
Continuous
 62
     7
100
AcDbLine
 10
259.1926002329
 20
566.4998191291
 30
0.0
 11
259.1926002329
 21
565.8883771313
 31
0.0
  0
LINE
  5
196
330
95
100
AcDbEntity
  8
DV1_Standard
  6
Continuous
 62
     7
100
AcDbLine
 10
259.3676002329
 20
565.7997566681
 30
0.0
 11
261.241565537
 21
566.116083665
 31
0.0
  0
LINE
  5
197
330
95
100
AcDbEntity
  8
DV1_Standard
  6
Continuous
 62
     7
100
AcDbLine
 10
259.1926002329
 20
565.8883771313
 30
0.0
 11
261.0336461649
 21
566.1991473092
 31
0.0
  0
LINE
  5
198
330
95
100
AcDbEntity
  8
DV1_Standard
  6
Continuous
 62
     7
100
AcDbLine
 10
247.9033574513
 20
566.9417393028
 30
0.0
 11
247.9033574513
 21
565.2516096697
 31
0.0
  0
LINE
  5
199
330
95
100
AcDbEntity
  8
DV1_Standard
  6
Continuous
 62
     7
100
AcDbLine
 10
265.9033574513
 20
565.2516096697
 30
0.0
 11
265.9033574513
 21
566.9417393028
 31
0.0
  0
LINE
  5
19A
330
95
100
AcDbEntity
  8
DV1_Standard
  6
Continuous
 62
     7
100
AcDbLine
 10
250.6533574513
 20
565.4428706209
 30
0.0
 11
250.6533574513
 21
565.2516096697
 31
0.0
  0
LINE
  5
19B
330
95
100
AcDbEntity
  8
DV1_Standard
  6
Continuous
 62
     7
100
AcDbLine
 10
263.1533574513
 20
565.2516096697
 30
0.0
 11
263.1533574513
 21
565.4428706209
 31
0.0
  0
LINE
  5
19C
330
95
100
AcDbEntity
  8
DV1_Standard
  6
Continuous
 62
     7
100
AcDbLine
 10
254.1533574513
 20
565.4428706209
 30
0.0
 11
254.1533574513
 21
565.2516096697
 31
0.0
  0
LINE
  5
19D
330
95
100
AcDbEntity
  8
DV1_Standard
  6
Continuous
 62
     7
100
AcDbLine
 10
259.6533574513
 20
565.2516096697
 30
0.0
 11
259.6533574513
 21
565.4428706209
 31
0.0
  0
LINE
  5
19E
330
95
100
AcDbEntity
  8
DV1_Standard
  6
Continuous
 62
     7
100
AcDbLine
 10
256.3837275074
 20
565.796319033
 30
0.0
 11
256.3837275074
 21
565.4428706209
 31
0.0
  0
LINE
  5
19F
330
95
100
AcDbEntity
  8
DV1_Standard
  6
Continuous
 62
     7
100
AcDbLine
 10
257.4229873952
 20
565.4428706209
 30
0.0
 11
257.4229873952
 21
565.6793629062
 31
0.0
  0
SPLINE
  5
1A0
330
95
100
AcDbEntity
  8
DV1_Standard
  6
Continuous
 62
     7
100
AcDbSpline
210
0.0
220
0.0
230
1.0
 70
     8
 71
     3
 72
    18
 73
    14
 74
     0
 42
0.0000000019330791
 43
0.0000000001
 40
0.0
 40
0.0
 40
0.0
 40
0.0
 40
0.0615496582436731
 40
0.0615496582436731
 40
0.1248951438403729
 40
0.1248951438403729
 40
0.2515861150337732
 40
0.2515861150337732
 40
0.3782770862271734
 40
0.3782770862271734
 40
0.6316590286139737
 40
0.6316590286139737
 40
1.0
 40
1.0
 40
1.0
 40
1.0
 10
273.2024192153623
 20
580.4629528999454
 30
0.0
 10
273.2304149983922
 20
580.6443067493788
 30
0.0
 10
273.2473078247627
 20
580.8163770890679
 30
0.0
 10
273.2788626757688
 20
581.2301204606265
 30
0.0
 10
273.2921124691731
 20
581.4619128067395
 30
0.0
 10
273.3286273000255
 20
582.1540642259693
 30
0.0
 10
273.3485469716313
 20
582.5785340051882
 30
0.0
 10
273.3850187987548
 20
583.2883198191934
 30
0.0
 10
273.4013124412485
 20
583.5907019681696
 30
0.0
 10
273.4461408052215
 20
584.3930483861739
 30
0.0
 10
273.4705533000265
 20
584.7864123513142
 30
0.0
 10
273.5198816208569
 20
585.4349111551726
 30
0.0
 10
273.5394996196939
 20
585.578791900353
 30
0.0
 10
273.5524549954337
 20
585.6215546620086
 30
0.0
  0
SPLINE
  5
1A1
330
95
100
AcDbEntity
  8
DV1_Standard
  6
Continuous
 62
     7
100
AcDbSpline
210
0.0
220
0.0
230
1.0
 70
     8
 71
     3
 72
     8
 73
     4
 74
     0
 42
0.000000032905011
 43
0.0000000001
 40
0.0
 40
0.0
 40
0.0
 40
0.0
 40
1.0
 40
1.0
 40
1.0
 40
1.0
 10
273.5700503269484
 20
585.6106409247168
 30
0.0
 10
273.5765577952412
 20
585.5608789686188
 30
0.0
 10
273.5778287507729
 20
585.4443968243344
 30
0.0
 10
273.5782944875635
 20
585.3071672621386
 30
0.0
  0
SPLINE
  5
1A2
330
95
100
AcDbEntity
  8
DV1_Standard
  6
Continuous
 62
     7
100
AcDbSpline
210
0.0
220
0.0
230
1.0
 70
     8
 71
     3
 72
    20
 73
    16
 74
     0
 42
0.0000000006031208
 43
0.0000000001
 40
0.0
 40
0.0
 40
0.0
 40
0.0
 40
0.1787847457217937
 40
0.1787847457217937
 40
0.3575694914435875
 40
0.3575694914435875
 40
0.5363542371653813
 40
0.5363542371653813
 40
0.7151389828871751
 40
0.7151389828871751
 40
0.8939237286089691
 40
0.8939237286089691
 40
0.9833161014698675
 40
0.9833161014698675
 40
1.0
 40
1.0
 40
1.0
 40
1.0
 10
256.9033574513258
 20
577.4889859773101
 30
0.0
 10
255.4178992830659
 20
577.4889884972463
 30
0.0
 10
253.9657223399315
 20
577.4625668224154
 30
0.0
 10
251.1289110495348
 20
577.590706852301
 30
0.0
 10
249.7620868164119
 20
577.721441843364
 30
0.0
 10
247.263465323267
 20
577.9878653914868
 30
0.0
 10
246.1045148256062
 20
578.1298581916475
 30
0.0
 10
244.1155132732964
 20
578.4672221358661
 30
0.0
 10
243.2591947402653
 20
578.6745367728209
 30
0.0
 10
241.8843580202761
 20
579.0175582963948
 30
0.0
 10
241.3420273849736
 20
579.1616299119984
 30
0.0
 10
240.867848747563
 20
579.5258522098105
 30
0.0
 10
240.8044073059112
 20
579.6108968974347
 30
0.0
 10
240.7615523005266
 20
579.7308378448089
 30
0.0
 10
240.755315038002
 20
579.7504214403092
 30
0.0
 10
240.749510478557
 20
579.7704533618726
 30
0.0
  0
SPLINE
  5
1A3
330
95
100
AcDbEntity
  8
DV1_Standard
  6
Continuous
 62
     7
100
AcDbSpline
210
0.0
220
0.0
230
1.0
 70
     8
 71
     3
 72
     8
 73
     4
 74
     0
 42
0.0000000326862713
 43
0.0000000001
 40
0.0
 40
0.0
 40
0.0
 40
0.0
 40
1.0
 40
1.0
 40
1.0
 40
1.0
 10
240.2284204150882
 20
585.3071672621389
 30
0.0
 10
240.2288924148486
 20
585.4462422113033
 30
0.0
 10
240.2301903611686
 20
585.5640388260979
 30
0.0
 10
240.2369316657537
 20
585.6126327797656
 30
0.0
  0
SPLINE
  5
1A4
330
95
100
AcDbEntity
  8
DV1_Standard
  6
Continuous
 62
     7
100
AcDbSpline
210
0.0
220
0.0
230
1.0
 70
     8
 71
     3
 72
    16
 73
    12
 74
     0
 42
0.000000001876093
 43
0.0000000001
 40
0.0
 40
0.0
 40
0.0
 40
0.0
 40
0.3690990231372069
 40
0.3690990231372069
 40
0.8627991435361484
 40
0.8627991435361484
 40
0.9245116585860159
 40
0.9245116585860159
 40
0.9862241736358837
 40
0.9862241736358837
 40
1.0
 40
1.0
 40
1.0
 40
1.0
 10
240.2532159500589
 20
585.6248028998554
 30
0.0
 10
240.2661850658756
 20
585.5863338776329
 30
0.0
 10
240.2861343283902
 20
585.444741010004
 30
0.0
 10
240.3565512192934
 20
584.5174961921572
 30
0.0
 10
240.4052688702577
 20
583.5319700788801
 30
0.0
 10
240.5148547157254
 20
581.4574339821304
 30
0.0
 10
240.5281105381875
 20
581.2260315420316
 30
0.0
 10
240.5601656784473
 20
580.8071448268288
 30
0.0
 10
240.5776130867129
 20
580.6314233761506
 30
0.0
 10
240.613861063073
 20
580.4022444945559
 30
0.0
 10
240.6208616791965
 20
580.3570080741006
 30
0.0
 10
240.6293869700311
 20
580.3115156283295
 30
0.0
  0
ARC
  5
1A5
330
95
100
AcDbEntity
  8
DV1_Standard
  6
Continuous
 62
     7
100
AcDbCircle
 10
241.1147729485
 20
585.3003647843
 30
0.0
 40
0.8863786364757231
100
AcDbArc
 50
179.5602814886
 51
203.1670041316
  0
SPLINE
  5
1A6
330
95
100
AcDbEntity
  8
DV1_Standard
  6
Continuous
 62
     7
100
AcDbSpline
210
0.0
220
0.0
230
1.0
 70
     8
 71
     3
 72
    20
 73
    16
 74
     0
 42
0.0000000006021059
 43
0.0000000001
 40
0.0
 40
0.0
 40
0.0
 40
0.0
 40
0.0277231931006748
 40
0.0277231931006748
 40
0.1161119937278863
 40
0.1161119937278863
 40
0.2928895949823088
 40
0.2928895949823088
 40
0.4696671962367319
 40
0.4696671962367319
 40
0.6464447974911545
 40
0.6464447974911545
 40
0.8232223987455776
 40
0.8232223987455776
 40
1.0
 40
1.0
 40
1.0
 40
1.0
 10
273.0649791125193
 20
579.7979430110424
 30
0.0
 10
273.0558624057173
 20
579.763591854666
 30
0.0
 10
273.0455655495789
 20
579.7302078211178
 30
0.0
 10
272.9958808067173
 20
579.6003631735133
 30
0.0
 10
272.9226599606978
 20
579.5086789840698
 30
0.0
 10
272.4350398511165
 20
579.149278596005
 30
0.0
 10
271.8921238297239
 20
579.010223724602
 30
0.0
 10
270.5019685311239
 20
578.6629524421777
 30
0.0
 10
269.6613722459501
 20
578.4609831894654
 30
0.0
 10
267.6562850571001
 20
578.1232952655275
 30
0.0
 10
266.5186068579624
 20
577.9850423829827
 30
0.0
 10
264.030983471378
 20
577.7201853715576
 30
0.0
 10
262.6611678226528
 20
577.5898953616512
 30
0.0
 10
259.8537789599129
 20
577.463204505792
 30
0.0
 10
258.3825831158258
 20
577.4889884866734
 30
0.0
 10
256.9033574513258
 20
577.4889859773101
 30
0.0
  0
LINE
  5
1A7
330
95
100
AcDbEntity
  8
DV1_Standard
  6
Continuous
 62
     7
100
AcDbLine
 10
273.5782944876
 20
585.3071672621
 30
0.0
 11
273.5782954008
 21
591.9643917509
 31
0.0
  0
LINE
  5
1A8
330
95
100
AcDbEntity
  8
DV1_Standard
  6
Continuous
 62
     7
100
AcDbLine
 10
240.2284195019
 20
591.9643917509
 30
0.0
 11
240.2284204151
 21
585.3071672621
 31
0.0
  0
ARC
  5
1A9
330
95
100
AcDbEntity
  8
DV1_Standard
  6
Continuous
 62
     7
100
AcDbCircle
 10
273.9609553744
 20
533.2733756724
 30
0.0
 40
59.19759605643407
100
AcDbArc
 50
89.8903550528
 51
90.8543347813
  0
ARC
  5
1AA
330
95
100
AcDbEntity
  8
DV1_Standard
  6
Continuous
 62
     7
100
AcDbCircle
 10
266.8283353905
 20
1438.984202355
 30
0.0
 40
846.5584954381346
100
AcDbArc
 50
269.3282538908
 51
270.6479789322
  0
ARC
  5
1AB
330
95
100
AcDbEntity
  8
DV1_Standard
  6
Continuous
 62
     7
100
AcDbCircle
 10
246.978246175
 20
1440.0116545333
 30
0.0
 40
847.5858786492014
100
AcDbArc
 50
269.3527460942
 51
270.6709408432
  0
SPLINE
  5
1AC
330
95
100
AcDbEntity
  8
DV1_Standard
  6
Continuous
 62
     7
100
AcDbSpline
210
0.0
220
0.0
230
1.0
 70
     8
 71
     3
 72
    28
 73
    24
 74
     0
 42
0.0000000004346719
 43
0.0000000001
 40
0.0
 40
0.0
 40
0.0
 40
0.0
 40
0.0312500000000004
 40
0.0312500000000004
 40
0.0625000000000008
 40
0.0625000000000008
 40
0.0937500000000013
 40
0.0937500000000013
 40
0.1250000000000017
 40
0.1250000000000017
 40
0.1562500000000022
 40
0.1562500000000022
 40
0.1718750000000024
 40
0.1718750000000024
 40
0.1875000000000026
 40
0.1875000000000026
 40
0.2500000000000024
 40
0.2500000000000024
 40
0.5000000000000016
 40
0.5000000000000016
 40
0.7500000000000008
 40
0.7500000000000008
 40
1.0
 40
1.0
 40
1.0
 40
1.0
 10
256.9033574513258
 20
583.0509563600738
 30
0.0
 10
255.404237653056
 20
583.0509560067187
 30
0.0
 10
253.9374767310924
 20
583.0914438182007
 30
0.0
 10
251.0672532995264
 20
583.2496454433353
 30
0.0
 10
249.7049123937591
 20
583.3656860668395
 30
0.0
 10
247.1837536925594
 20
583.658365452774
 30
0.0
 10
246.0210298761299
 20
583.8362393263025
 30
0.0
 10
244.0170012220145
 20
584.2275354363375
 30
0.0
 10
243.1517869346378
 20
584.4463322093745
 30
0.0
 10
241.7813614399815
 20
584.8959006768843
 30
0.0
 10
241.2326959735119
 20
585.1308615528335
 30
0.0
 10
240.7611854887551
 20
585.4785305690062
 30
0.0
 10
240.7026898675676
 20
585.5938969136804
 30
0.0
 10
240.639357898963
 20
585.8312577620076
 30
0.0
 10
240.6225411404357
 20
585.9491263844907
 30
0.0
 10
240.5482961691335
 20
586.5278084928875
 30
0.0
 10
240.5272947906107
 20
586.9596174819517
 30
0.0
 10
240.4049177363046
 20
588.9639336809277
 30
0.0
 10
240.3563751925788
 20
590.101433077356
 30
0.0
 10
240.2758906454391
 20
591.3941973911556
 30
0.0
 10
240.2538373813108
 20
591.6187303162839
 30
0.0
 10
240.2308069979226
 20
591.9004998057675
 30
0.0
 10
240.2289955640561
 20
591.942173483964
 30
0.0
 10
240.2284195018886
 20
591.9643917508831
 30
0.0
  0
SPLINE
  5
1AD
330
95
100
AcDbEntity
  8
DV1_Standard
  6
Continuous
 62
     7
100
AcDbSpline
210
0.0
220
0.0
230
1.0
 70
     8
 71
     3
 72
    28
 73
    24
 74
     0
 42
0.0000000004346749
 43
0.0000000001
 40
0.0
 40
0.0
 40
0.0
 40
0.0
 40
0.2500000000000002
 40
0.2500000000000002
 40
0.5000000000000003
 40
0.5000000000000003
 40
0.7500000000000004
 40
0.7500000000000004
 40
0.8125000000000006
 40
0.8125000000000006
 40
0.8281250000000002
 40
0.8281250000000002
 40
0.8437499999999999
 40
0.8437499999999999
 40
0.8749999999999999
 40
0.8749999999999999
 40
0.9062499999999999
 40
0.9062499999999999
 40
0.9375
 40
0.9375
 40
0.96875
 40
0.96875
 40
1.0
 40
1.0
 40
1.0
 40
1.0
 10
273.578295400763
 20
591.9643917508874
 30
0.0
 10
273.5777191288619
 20
591.9421653947013
 30
0.0
 10
273.5759062918956
 20
591.9004698374927
 30
0.0
 10
273.5528506014326
 20
591.6184112081312
 30
0.0
 10
273.5307681584753
 20
591.3934779985324
 30
0.0
 10
273.4502555756533
 20
590.0998996907828
 30
0.0
 10
273.4017719946405
 20
588.9627566002281
 30
0.0
 10
273.2792560242458
 20
586.9571218871721
 30
0.0
 10
273.2583123662812
 20
586.5251123478378
 30
0.0
 10
273.1837326505566
 20
585.9461623779505
 30
0.0
 10
273.1668591855166
 20
585.8281826202287
 30
0.0
 10
273.1028968237546
 20
585.5909090576204
 30
0.0
 10
273.0427839804585
 20
585.4756213374876
 30
0.0
 10
272.56731622967
 20
585.1277237345681
 30
0.0
 10
272.0250127215897
 20
584.8952740424439
 30
0.0
 10
270.6384057434609
 20
584.4414332481773
 30
0.0
 10
269.7892519471619
 20
584.2272785182554
 30
0.0
 10
267.7757699077191
 20
583.834470976567
 30
0.0
 10
266.6155821805022
 20
583.6574789306784
 30
0.0
 10
264.1064841054725
 20
583.3662594781578
 30
0.0
 10
262.7220907930159
 20
583.2486498711739
 30
0.0
 10
259.8825560534908
 20
583.0922160546038
 30
0.0
 10
258.4016216485163
 20
583.0509560069205
 30
0.0
 10
256.9033574513258
 20
583.0509563600738
 30
0.0
  0
ARC
  5
1AE
330
95
100
AcDbEntity
  8
DV1_Standard
  6
Continuous
 62
     7
100
AcDbCircle
 10
273.0782953565
 20
591.9643917746
 30
0.0
 40
0.5000000442167597
100
AcDbArc
 50
0.0
 51
89.9999948666
  0
ARC
  5
1AF
330
95
100
AcDbEntity
  8
DV1_Standard
  6
Continuous
 62
     7
100
AcDbCircle
 10
240.7284195461
 20
591.9643917746
 30
0.0
 40
0.5000000442167389
100
AcDbArc
 50
138.7218568358
 51
180.0000027128
  0
ARC
  5
1B0
330
95
100
AcDbEntity
  8
DV1_Standard
  6
Continuous
 62
     7
100
AcDbCircle
 10
240.7284195461
 20
591.9643917746
 30
0.0
 40
0.5000000442167389
100
AcDbArc
 50
90.0000051334
 51
138.7218568358
  0
SPLINE
  5
1B1
330
95
100
AcDbEntity
  8
DV1_Standard
  6
Continuous
 62
     7
100
AcDbSpline
210
0.0
220
0.0
230
1.0
 70
     8
 71
     3
 72
    16
 73
    12
 74
     0
 42
0.000000000830907
 43
0.0000000001
 40
0.0
 40
0.0
 40
0.0
 40
0.0
 40
0.1561331601917695
 40
0.1561331601917695
 40
0.312266320383539
 40
0.312266320383539
 40
0.6245326407670779
 40
0.6245326407670779
 40
0.9367989611506169
 40
0.9367989611506169
 40
1.0
 40
1.0
 40
1.0
 40
1.0
 10
256.9033574513258
 20
571.8355105195607
 30
0.0
 10
257.7512887163555
 20
571.8356822405799
 30
0.0
 10
258.5843485856384
 20
571.8411543302867
 30
0.0
 10
260.2212845367477
 20
571.8803298895748
 30
0.0
 10
261.0319261956192
 20
571.9153556708569
 30
0.0
 10
263.3205822925437
 20
572.0590371776622
 30
0.0
 10
264.7073500420836
 20
572.1969127521487
 30
0.0
 10
267.0033470146279
 20
572.3767330523455
 30
0.0
 10
267.930330726443
 20
572.4231113197482
 30
0.0
 10
268.6888916847858
 20
572.5103052476557
 30
0.0
 10
268.8057123510064
 20
572.5261257852883
 30
0.0
 10
268.9109095846285
 20
572.5378499685739
 30
0.0
  0
SPLINE
  5
1B2
330
95
100
AcDbEntity
  8
DV1_Standard
  6
Continuous
 62
     7
100
AcDbSpline
210
0.0
220
0.0
230
1.0
 70
     8
 71
     3
 72
    12
 73
     8
 74
     0
 42
0.0000000061851386
 43
0.0000000001
 40
0.0
 40
0.0
 40
0.0
 40
0.0
 40
0.1184337847926142
 40
0.1184337847926142
 40
0.5835006473250185
 40
0.5835006473250185
 40
1.0
 40
1.0
 40
1.0
 40
1.0
 10
269.5501725280882
 20
572.383645379663
 30
0.0
 10
269.5637744361649
 20
572.3542873880739
 30
0.0
 10
269.5720467019718
 20
572.3213558809167
 30
0.0
 10
269.5858803496406
 20
572.14214080054
 30
0.0
 10
269.512479657343
 20
571.9612722294343
 30
0.0
 10
269.2154937912332
 20
571.5657324689553
 30
0.0
 10
269.004711883199
 20
571.3390521405441
 30
0.0
 10
268.734608564788
 20
571.0841874403774
 30
0.0
  0
SPLINE
  5
1B3
330
95
100
AcDbEntity
  8
DV1_Standard
  6
Continuous
 62
     7
100
AcDbSpline
210
0.0
220
0.0
230
1.0
 70
     8
 71
     3
 72
    12
 73
     8
 74
     0
 42
0.000000006269853
 43
0.0000000001
 40
0.0
 40
0.0
 40
0.0
 40
0.0
 40
0.4065201949158766
 40
0.4065201949158766
 40
0.8729285460104773
 40
0.8729285460104773
 40
1.0
 40
1.0
 40
1.0
 40
1.0
 10
245.0585887655328
 20
571.0837953345734
 30
0.0
 10
244.7998745502959
 20
571.3291555173001
 30
0.0
 10
244.5966162075562
 20
571.5487206529102
 30
0.0
 10
244.3039154658398
 20
571.9402593619159
 30
0.0
 10
244.2313167411735
 20
572.1217796592391
 30
0.0
 10
244.2452694625017
 20
572.3045787206445
 30
0.0
 10
244.2546068499939
 20
572.3399236843145
 30
0.0
 10
244.2700823485268
 20
572.3712389377339
 30
0.0
  0
SPLINE
  5
1B4
330
95
100
AcDbEntity
  8
DV1_Standard
  6
Continuous
 62
     7
100
AcDbSpline
210
0.0
220
0.0
230
1.0
 70
     8
 71
     3
 72
    18
 73
    14
 74
     0
 42
0.0000000008372651
 43
0.0000000001
 40
0.0
 40
0.0
 40
0.0
 40
0.0
 40
0.0487867429052775
 40
0.0487867429052775
 40
0.2073222857543984
 40
0.2073222857543984
 40
0.365857828603519
 40
0.365857828603519
 40
0.5243933714526399
 40
0.5243933714526399
 40
0.6829289143017607
 40
0.6829289143017607
 40
0.9999999999999999
 40
0.9999999999999999
 40
0.9999999999999999
 40
0.9999999999999999
 10
244.9854870358839
 20
572.5162677328594
 30
0.0
 10
245.0697867538911
 20
572.5064624891702
 30
0.0
 10
245.1607884591001
 20
572.4950107954363
 30
0.0
 10
245.5748576845933
 20
572.4490613643976
 30
0.0
 10
245.9589356219186
 20
572.4180781821834
 30
0.0
 10
246.8636095026859
 20
572.3588550489476
 30
0.0
 10
247.3892895614755
 20
572.3250923731079
 30
0.0
 10
248.5372109589584
 20
572.2363680101313
 30
0.0
 10
249.1623182256268
 20
572.1821387600763
 30
0.0
 10
250.5205391414896
 20
572.0680596092647
 30
0.0
 10
251.2556128883013
 20
572.0082423912937
 30
0.0
 10
253.5310025610167
 20
571.86661018168
 30
0.0
 10
255.2074832954354
 20
571.8351670751676
 30
0.0
 10
256.9033574513258
 20
571.8355105195607
 30
0.0
  0
SPLINE
  5
1B5
330
95
100
AcDbEntity
  8
DV1_Standard
  6
Continuous
 62
     7
100
AcDbSpline
210
0.0
220
0.0
230
1.0
 70
     8
 71
     3
 72
    18
 73
    14
 74
     0
 42
0.0000000007480068
 43
0.0000000001
 40
0.0
 40
0.0
 40
0.0
 40
0.0
 40
0.1473840250914327
 40
0.1473840250914327
 40
0.2539610219550023
 40
0.2539610219550023
 40
0.3605380188185719
 40
0.3605380188185719
 40
0.5736920125457146
 40
0.5736920125457146
 40
0.7868460062728572
 40
0.7868460062728572
 40
1.0
 40
1.0
 40
1.0
 40
1.0
 10
268.7344244964987
 20
571.4057760577564
 30
0.0
 10
269.0254684038434
 20
571.7349541464212
 30
0.0
 10
269.1685153126529
 20
571.9934300489859
 30
0.0
 10
269.1400752176896
 20
572.3221350009845
 30
0.0
 10
269.0468407902211
 20
572.4131010829011
 30
0.0
 10
268.7152601906518
 20
572.4688668302358
 30
0.0
 10
268.4815855049087
 20
572.4308939526445
 30
0.0
 10
267.567389327074
 20
572.3422270689272
 30
0.0
 10
266.6838712150474
 20
572.306838708187
 30
0.0
 10
264.4440268116683
 20
572.1408601402501
 30
0.0
 10
263.1231537775306
 20
572.0149423392372
 30
0.0
 10
260.1585656173442
 20
571.8370626857261
 30
0.0
 10
258.5499618478378
 20
571.8070733079186
 30
0.0
 10
256.9034422234033
 20
571.8065565849366
 30
0.0
  0
SPLINE
  5
1B6
330
95
100
AcDbEntity
  8
DV1_Standard
  6
Continuous
 62
     7
100
AcDbSpline
210
0.0
220
0.0
230
1.0
 70
     8
 71
     3
 72
    18
 73
    14
 74
     0
 42
0.0000000008014804
 43
0.0000000001
 40
0.0
 40
0.0
 40
0.0
 40
0.0
 40
0.247975998065694
 40
0.247975998065694
 40
0.4959519961313879
 40
0.4959519961313879
 40
0.7439279941970818
 40
0.7439279941970818
 40
0.8679159932299306
 40
0.8679159932299306
 40
0.9919039922627794
 40
0.9919039922627794
 40
1.0
 40
1.0
 40
1.0
 40
1.0
 10
256.9034422234033
 20
571.8065565849366
 30
0.0
 10
255.2597000473391
 20
571.8060407335943
 30
0.0
 10
253.6228345838591
 20
571.8362341775579
 30
0.0
 10
250.6802876972399
 20
572.0108813809412
 30
0.0
 10
249.3429088862475
 20
572.1362062983765
 30
0.0
 10
247.123577806664
 20
572.2966627023844
 30
0.0
 10
246.2372409788785
 20
572.3302949962352
 30
0.0
 10
245.3250879648217
 20
572.4142665949131
 30
0.0
 10
245.0886508342323
 20
572.4508380252596
 30
0.0
 10
244.7574664092051
 20
572.3902180029704
 30
0.0
 10
244.6650662725806
 20
572.2969565576265
 30
0.0
 10
244.6537197747505
 20
572.1465072157271
 30
0.0
 10
244.6533711637455
 20
572.1371503410355
 30
0.0
 10
244.6533689226837
 20
572.1276570350317
 30
0.0
  0
SPLINE
  5
1B7
330
95
100
AcDbEntity
  8
DV1_Standard
  6
Continuous
 62
     7
100
AcDbSpline
210
0.0
220
0.0
230
1.0
 70
     8
 71
     3
 72
     8
 73
     4
 74
     0
 42
0.000000015194911
 43
0.0000000001
 40
0.0
 40
0.0
 40
0.0
 40
0.0
 40
1.0
 40
1.0
 40
1.0
 40
1.0
 10
244.709038369621
 20
571.8962219784456
 30
0.0
 10
244.7754277313528
 20
571.7442978837141
 30
0.0
 10
244.90098791685
 20
571.567228859628
 30
0.0
 10
245.084594604511
 20
571.3621651945833
 30
0.0
  0
ARC
  5
1B8
330
95
100
AcDbEntity
  8
DV1_Standard
  6
Continuous
 62
     7
100
AcDbCircle
 10
349.2992388879
 20
624.0565529379
 30
0.0
 40
117.1977749226785
100
AcDbArc
 50
202.0886931917
 51
206.3957406279
  0
ARC
  5
1B9
330
95
100
AcDbEntity
  8
DV1_Standard
  6
Continuous
 62
     7
100
AcDbCircle
 10
172.2534751711
 20
620.7908225145
 30
0.0
 40
108.8015683879112
100
AcDbArc
 50
333.3352334022
 51
337.9551831519
  0
SPLINE
  5
1BA
330
95
100
AcDbEntity
  8
DV1_Standard
  6
Continuous
 62
     7
100
AcDbSpline
210
0.0
220
0.0
230
1.0
 70
     8
 71
     3
 72
     8
 73
     4
 74
     0
 42
0.0000000297384189
 43
0.0000000001
 40
0.0
 40
0.0
 40
0.0
 40
0.0
 40
1.0
 40
1.0
 40
1.0
 40
1.0
 10
240.6333836532673
 20
580.0398537879803
 30
0.0
 10
240.6256637938388
 20
579.9875787478155
 30
0.0
 10
240.6702832281285
 20
579.8886566519848
 30
0.0
 10
240.7672419561364
 20
579.7430875004881
 30
0.0
  0
ARC
  5
1BB
330
95
100
AcDbEntity
  8
DV1_Standard
  6
Continuous
 62
     7
100
AcDbCircle
 10
271.9815538927
 20
580.3869635331
 30
0.0
 40
1.266447568913258
100
AcDbArc
 50
330.6244926215
 51
351.2077207331
  0
ARC
  5
1BC
330
95
100
AcDbEntity
  8
DV1_Standard
  6
Continuous
 62
     7
100
AcDbCircle
 10
276.4164151931
 20
591.986105822
 30
0.0
 40
0.4854480087639515
100
AcDbArc
 50
0.7623120361
 51
57.0470881834
  0
ARC
  5
1BD
330
95
100
AcDbEntity
  8
DV1_Standard
  6
Continuous
 62
     7
100
AcDbCircle
 10
237.3917349448
 20
591.9852543539
 30
0.0
 40
0.4870776138999938
100
AcDbArc
 50
112.9602796883
 51
181.1200751702
  0
LINE
  5
1BE
330
95
100
AcDbEntity
  8
DV1_Standard
  6
Continuous
 62
     7
100
AcDbLine
 10
276.9033574513
 20
493.5315741578
 30
0.0
 11
276.9033574513
 21
591.9797736672
 31
0.0
  0
LINE
  5
1BF
330
95
100
AcDbEntity
  8
DV1_Standard
  6
Continuous
 62
     7
100
AcDbLine
 10
236.9033574513
 20
591.9798228941
 30
0.0
 11
236.9033574513
 21
493.5315741578
 31
0.0
  0
ENDBLK
  5
1C1
330
95
100
AcDbEntity
  8
0
100
AcDbBlockEnd
  0
BLOCK
  5
210
330
1C2
100
AcDbEntity
  8
0
100
AcDbBlockBegin
  2
SE1
 70
     0
 10
0.0
 20
0.0
 30
0.0
  3
SE1
  1

  0
ARC
  5
1C5
330
1C2
100
AcDbEntity
  8
DV2_Standard
  6
Continuous
 62
     7
100
AcDbCircle
 10
523.6437151312
 20
-1648.4680616201
 30
0.0
 40
2177.7368044196
100
AcDbArc
 50
89.6536495056
 51
90.3344451607
  0
ARC
  5
1C6
330
1C2
100
AcDbEntity
  8
DV2_Standard
  6
Continuous
 62
     7
100
AcDbCircle
 10
523.8661415882
 20
1900.6327238155
 30
0.0
 40
1372.203143619034
100
AcDbArc
 50
269.4879722055
 51
270.5123811309
  0
ARC
  5
1C7
330
1C2
100
AcDbEntity
  8
DV2_Standard
  6
Continuous
 62
     7
100
AcDbCircle
 10
511.6837330481
 20
529.2348778989
 30
0.0
 40
0.7547794059232302
100
AcDbArc
 50
219.2003686618
 51
263.8990110305
  0
ARC
  5
1C8
330
1C2
100
AcDbEntity
  8
DV2_Standard
  6
Continuous
 62
     7
100
AcDbCircle
 10
523.8700311576
 20
639.1951275727
 30
0.0
 40
111.3882332691997
100
AcDbArc
 50
263.6775367434
 51
276.322816593
  0
SPLINE
  5
1C9
330
1C2
100
AcDbEntity
  8
DV2_Standard
  6
Continuous
 62
     7
100
AcDbSpline
210
0.0
220
0.0
230
1.0
 70
     8
 71
     3
 72
    12
 73
     8
 74
     0
 42
0.0000000043977312
 43
0.0000000001
 40
0.0
 40
0.0
 40
0.0
 40
0.0
 40
0.4744256298890146
 40
0.4744256298890146
 40
0.9488512597780292
 40
0.9488512597780292
 40
1.0
 40
1.0
 40
1.0
 40
1.0
 10
537.0984224317724
 20
531.681460496261
 30
0.0
 10
537.8104739899007
 20
531.6816659915921
 30
0.0
 10
538.3558962917125
 20
531.6818645478326
 30
0.0
 10
539.1253892968942
 20
531.6822346103298
 30
0.0
 10
539.3416202042969
 20
531.6824047796656
 30
0.0
 10
539.3701011307286
 20
531.6825649587036
 30
0.0
 10
539.3706237284182
 20
531.6825802955074
 30
0.0
 10
539.3689262137473
 20
531.6825953751141
 30
0.0
  0
SPLINE
  5
1CA
330
1C2
100
AcDbEntity
  8
DV2_Standard
  6
Continuous
 62
     7
100
AcDbSpline
210
0.0
220
0.0
230
1.0
 70
     8
 71
     3
 72
    34
 73
    30
 74
     0
 42
0.0000000003014883
 43
0.0000000001
 40
0.0
 40
0.0
 40
0.0
 40
0.0
 40
0.031438329977833
 40
0.031438329977833
 40
0.105943073825692
 40
0.105943073825692
 40
0.180447817673551
 40
0.180447817673551
 40
0.2549525615214099
 40
0.2549525615214099
 40
0.3294573053692689
 40
0.3294573053692689
 40
0.4039620492171279
 40
0.4039620492171279
 40
0.4784667930649869
 40
0.4784667930649869
 40
0.5529715369128458
 40
0.5529715369128458
 40
0.6274762807607048
 40
0.6274762807607048
 40
0.7019810246085638
 40
0.7019810246085638
 40
0.776485768456423
 40
0.776485768456423
 40
0.850990512304282
 40
0.850990512304282
 40
0.9254952561521411
 40
0.9254952561521411
 40
1.0
 40
1.0
 40
1.0
 40
1.0
 10
539.2224261385331
 20
531.6827775572042
 30
0.0
 10
539.1421478310973
 20
531.6828273922757
 30
0.0
 10
539.0298012055038
 20
531.6828729250201
 30
0.0
 10
538.5490099846635
 20
531.6830107701189
 30
0.0
 10
538.0378826495336
 20
531.6830841757562
 30
0.0
 10
536.7052663746151
 20
531.6831933080081
 30
0.0
 10
535.8981127872994
 20
531.6832288324309
 30
0.0
 10
533.9775908010749
 20
531.6832787452146
 30
0.0
 10
532.8863831416346
 20
531.6832924895268
 30
0.0
 10
530.5298920127823
 20
531.6833106317526
 30
0.0
 10
529.2469134464918
 20
531.6833150011468
 30
0.0
 10
526.6242747541239
 20
531.6833202816164
 30
0.0
 10
525.2540586004741
 20
531.6833212237314
 30
0.0
 10
522.4947533562596
 20
531.6833212284099
 30
0.0
 10
521.1482134040365
 20
531.683320319652
 30
0.0
 10
518.5149530294933
 20
531.6833150722741
 30
0.0
 10
517.2355506609534
 20
531.683310741258
 30
0.0
 10
514.881916627343
 20
531.6832927929095
 30
0.0
 10
513.7754313065653
 20
531.6832788774566
 30
0.0
 10
511.8689499195633
 20
531.6832297413386
 30
0.0
 10
511.0488076443248
 20
531.6831941121643
 30
0.0
 10
509.7104347701451
 20
531.6830852111351
 30
0.0
 10
509.2037353999314
 20
531.683013314849
 30
0.0
 10
508.5174224903261
 20
531.682818780298
 30
0.0
 10
508.3475723764537
 20
531.6826969921584
 30
0.0
 10
508.3971329729791
 20
531.6824045836187
 30
0.0
 10
508.6092848439611
 20
531.6822379445542
 30
0.0
 10
509.3753151350921
 20
531.681867947022
 30
0.0
 10
509.929959198824
 20
531.6816658458665
 30
0.0
 10
510.6415058445488
 20
531.6814604962523
 30
0.0
  0
ARC
  5
1CB
330
1C2
100
AcDbEntity
  8
DV2_Standard
  6
Continuous
 62
     7
100
AcDbCircle
 10
510.8126773906
 20
196.6783370206
 30
0.0
 40
335.0031672060874
100
AcDbArc
 50
89.894082201
 51
90.0292755668
  0
ARC
  5
1CC
330
1C2
100
AcDbEntity
  8
DV2_Standard
  6
Continuous
 62
     7
100
AcDbCircle
 10
537.0280400428
 20
45.9835178192
 30
0.0
 40
485.6979477765656
100
AcDbArc
 50
89.9916972804
 51
90.0849449456
  0
ARC
  5
1CD
330
1C2
100
AcDbEntity
  8
DV2_Standard
  6
Continuous
 62
     7
100
AcDbCircle
 10
523.8699641365
 20
3533.3082133717
 30
0.0
 40
3001.653051426697
100
AcDbArc
 50
269.7625819268
 51
270.2374180735
  0
SPLINE
  5
1CE
330
1C2
100
AcDbEntity
  8
DV2_Standard
  6
Continuous
 62
     7
100
AcDbSpline
210
0.0
220
0.0
230
1.0
 70
     8
 71
     3
 72
     8
 73
     4
 74
     0
 42
0.00001
 43
0.0000000001
 40
0.0
 40
0.0
 40
0.0
 40
0.0
 40
1.0
 40
1.0
 40
1.0
 40
1.0
 10
507.8699498696772
 20
531.1825786544387
 30
0.0
 10
507.8699441224336
 20
531.1825831193818
 30
0.0
 10
507.8701309719661
 20
531.182587558947
 30
0.0
 10
507.8705097339069
 20
531.1825919732289
 30
0.0
  0
SPLINE
  5
1CF
330
1C2
100
AcDbEntity
  8
DV2_Standard
  6
Continuous
 62
     7
100
AcDbSpline
210
0.0
220
0.0
230
1.0
 70
     8
 71
     3
 72
     8
 73
     4
 74
     0
 42
0.00001
 43
0.0000000001
 40
0.0
 40
0.0
 40
0.0
 40
0.0
 40
1.0
 40
1.0
 40
1.0
 40
1.0
 10
539.8690869312043
 20
531.1825949478364
 30
0.0
 10
539.8696602243308
 20
531.1825896211994
 30
0.0
 10
539.8699511626635
 20
531.1825842604943
 30
0.0
 10
539.8699589968116
 20
531.1825788657178
 30
0.0
  0
ARC
  5
1D0
330
1C2
100
AcDbEntity
  8
DV2_Standard
  6
Continuous
 62
     7
100
AcDbCircle
 10
511.4319688175
 20
531.1809316964
 30
0.0
 40
0.5000001147431407
100
AcDbArc
 50
90.0000142832
 51
112.526129016
  0
LINE
  5
1D1
330
1C2
100
AcDbEntity
  8
DV2_Standard
  6
Continuous
 62
     7
100
AcDbLine
 10
508.1199638599
 20
493.8315729974
 30
0.0
 11
539.6199083552
 21
493.8315729974
 31
0.0
  0
LINE
  5
1D2
330
1C2
100
AcDbEntity
  8
DV2_Standard
  6
Continuous
 62
     7
100
AcDbLine
 10
539.8699641231
 20
494.0815729974
 30
0.0
 11
539.8699641231
 21
531.1825726247
 31
0.0
  0
LINE
  5
1D3
330
1C2
100
AcDbEntity
  8
DV2_Standard
  6
Continuous
 62
     7
100
AcDbLine
 10
507.8699641231
 20
531.1825786518
 30
0.0
 11
507.8699641231
 21
494.0815729974
 31
0.0
  0
LINE
  5
1D4
330
1C2
100
AcDbEntity
  8
DV2_Standard
  6
Continuous
 62
     7
100
AcDbLine
 10
536.8346844614
 20
529.228280374
 30
0.0
 11
536.8346844725
 21
531.1669041386
 31
0.0
  0
LINE
  5
1D5
330
1C2
100
AcDbEntity
  8
DV2_Standard
  6
Continuous
 62
     7
100
AcDbLine
 10
510.9052417166
 20
531.166887358
 30
0.0
 11
510.9052417055
 21
529.2250874803
 31
0.0
  0
ARC
  5
1D6
330
1C2
100
AcDbEntity
  8
DV2_Standard
  6
Continuous
 62
     7
100
AcDbCircle
 10
536.070863162
 20
529.2279553782
 30
0.0
 40
0.7634534767622188
100
AcDbArc
 50
275.818152426
 51
359.8952022348
  0
ARC
  5
1D7
330
1C2
100
AcDbEntity
  8
DV2_Standard
  6
Continuous
 62
     7
100
AcDbCircle
 10
511.663175793
 20
529.2248007342
 30
0.0
 40
0.7578984977185327
100
AcDbArc
 50
179.9314507153
 51
262.9434100487
  0
SPLINE
  5
1D8
330
1C2
100
AcDbEntity
  8
DV2_Standard
  6
Continuous
 62
     7
100
AcDbSpline
210
0.0
220
0.0
230
1.0
 70
     8
 71
     3
 72
    12
 73
     8
 74
     0
 42
0.0000000172886069
 43
0.0000000001
 40
0.0
 40
0.0
 40
0.0
 40
0.0
 40
0.018333850701897
 40
0.231283530303744
 40
0.5685610689477533
 40
0.8815483546914161
 40
1.0
 40
1.0
 40
1.0
 40
1.0
 10
508.2141400379577
 20
531.6369299140775
 30
0.0
 10
508.2105461752959
 20
531.6356556117689
 30
0.0
 10
508.1715348528368
 20
531.6217397667787
 30
0.0
 10
508.0785338790039
 20
531.556459455423
 30
0.0
 10
507.9756587793487
 20
531.4320130265127
 30
0.0
 10
507.9197851523593
 20
531.2860834496049
 30
0.0
 10
507.9260681705675
 20
531.2091530199399
 30
0.0
 10
507.9283289435281
 20
531.1846083116828
 30
0.0
  0
ARC
  5
1D9
330
1C2
100
AcDbEntity
  8
DV2_Standard
  6
Continuous
 62
     7
100
AcDbCircle
 10
539.3260462263
 20
531.2014379031
 30
0.0
 40
0.4760799199573866
100
AcDbArc
 50
357.6447193734
 51
72.6425923316
  0
ARC
  5
1DA
330
1C2
100
AcDbEntity
  8
DV2_Standard
  6
Continuous
 62
     7
100
AcDbCircle
 10
536.3956222886
 20
531.1691595754
 30
0.0
 40
0.4986095713588901
100
AcDbArc
 50
358.2193765547
 51
71.5149518254
  0
SPLINE
  5
1DB
330
1C2
100
AcDbEntity
  8
DV2_Standard
  6
Continuous
 62
     7
100
AcDbSpline
210
0.0
220
0.0
230
1.0
 70
     8
 71
     3
 72
    13
 73
     9
 74
     0
 42
0.000000015395314
 43
0.0000000001
 40
0.0
 40
0.0
 40
0.0
 40
0.0
 40
0.127856752168886
 40
0.2720874529038761
 40
0.4644846657260974
 40
0.6907671621145143
 40
0.9392201870027976
 40
1.0
 40
1.0
 40
1.0
 40
1.0
 10
511.2482100485781
 20
531.6477368499133
 30
0.0
 10
511.2340962914672
 20
531.644023676255
 30
0.0
 10
511.2075640867918
 20
531.6360320180977
 30
0.0
 10
511.1243212654684
 20
531.598558790118
 30
0.0
 10
511.0198687370699
 20
531.519795224316
 30
0.0
 10
510.9285651656313
 20
531.3896297587625
 30
0.0
 10
510.8813078484956
 20
531.2585024278474
 30
0.0
 10
510.8894081785456
 20
531.1883381069824
 30
0.0
 10
510.8913544339266
 20
531.1723289023759
 30
0.0
  0
ARC
  5
1DC
330
1C2
100
AcDbEntity
  8
DV2_Standard
  6
Continuous
 62
     7
100
AcDbCircle
 10
539.6199049546
 20
494.0815730222
 30
0.0
 40
0.2499989816844339
100
AcDbArc
 50
269.9728532575
 51
0.7056649296
  0
ARC
  5
1DD
330
1C2
100
AcDbEntity
  8
DV2_Standard
  6
Continuous
 62
     7
100
AcDbCircle
 10
508.119983126
 20
494.08157302
 30
0.0
 40
0.2499996749143725
100
AcDbArc
 50
177.9876322376
 51
270.0087157643
  0
LINE
  5
1DE
330
1C2
100
AcDbEntity
  8
DV2_Standard
  6
Continuous
 62
     7
100
AcDbLine
 10
496.3696032261
 20
487.5315741578
 30
0.0
 11
551.3747206609
 21
487.5315741578
 31
0.0
  0
LINE
  5
1DF
330
1C2
100
AcDbEntity
  8
DV2_Standard
  6
Continuous
 62
     7
100
AcDbLine
 10
497.369603241
 20
493.5315741578
 30
0.0
 11
550.3745135529
 21
493.5315741578
 31
0.0
  0
LINE
  5
1E0
330
1C2
100
AcDbEntity
  8
DV2_Standard
  6
Continuous
 62
     7
100
AcDbLine
 10
496.3696032261
 20
492.5315741429
 30
0.0
 11
496.3696032261
 21
487.5315741578
 31
0.0
  0
LINE
  5
1E1
330
1C2
100
AcDbEntity
  8
DV2_Standard
  6
Continuous
 62
     7
100
AcDbLine
 10
551.3747207883
 20
487.5315741578
 30
0.0
 11
551.3747207883
 21
492.5315741429
 31
0.0
  0
ARC
  5
1E2
330
1C2
100
AcDbEntity
  8
DV2_Standard
  6
Continuous
 62
     7
100
AcDbCircle
 10
550.3748418193
 20
492.5319089105
 30
0.0
 40
0.9996653011589778
100
AcDbArc
 50
359.9808128049
 51
90.0188145777
  0
SPLINE
  5
1E3
330
1C2
100
AcDbEntity
  8
DV2_Standard
  6
Continuous
 62
     7
100
AcDbSpline
210
0.0
220
0.0
230
1.0
 70
     8
 71
     3
 72
    13
 73
     9
 74
     0
 42
0.0000000063014676
 43
0.0000000001
 40
0.0
 40
0.0
 40
0.0
 40
0.0
 40
0.1294353618362334
 40
0.2550301133060643
 40
0.4999999999999991
 40
0.7449698866939325
 40
0.8705646381637665
 40
1.0
 40
1.0
 40
1.0
 40
1.0
 10
497.3696032410321
 20
493.5315741577974
 30
0.0
 10
497.2954238620987
 20
493.5278931482661
 30
0.0
 10
497.1715123957213
 20
493.5198198198728
 30
0.0
 10
496.9165668840827
 20
493.4397487212815
 30
0.0
 10
496.644977167428
 20
493.2562002165005
 30
0.0
 10
496.461428662647
 20
492.9846104998458
 30
0.0
 10
496.3813575640556
 20
492.7296649882072
 30
0.0
 10
496.3732842356624
 20
492.6057535218297
 30
0.0
 10
496.3696032261311
 20
492.5315741428963
 30
0.0
  0
LINE
  5
1E4
330
1C2
100
AcDbEntity
  8
DV2_Standard
  6
Continuous
 62
     7
100
AcDbLine
 10
509.4949641231
 20
493.8315729974
 30
0.0
 11
509.4949641231
 21
493.5315741578
 31
0.0
  0
LINE
  5
1E5
330
1C2
100
AcDbEntity
  8
DV2_Standard
  6
Continuous
 62
     7
100
AcDbLine
 10
538.2449641231
 20
493.5315741578
 30
0.0
 11
538.2449641231
 21
493.8315729974
 31
0.0
  0
LINE
  5
1E6
330
1C2
100
AcDbEntity
  8
DV2_Standard
  6
Continuous
 62
     7
100
AcDbLine
 10
643.0150018814
 20
562.4911357463
 30
0.0
 11
663.5755541346
 21
568.7771273978
 31
0.0
  0
SPLINE
  5
1E7
330
1C2
100
AcDbEntity
  8
DV2_Standard
  6
Continuous
 62
     7
100
AcDbSpline
210
0.0
220
0.0
230
1.0
 70
     8
 71
     3
 72
    10
 73
     6
 74
     0
 42
0.0000000019260148
 43
0.0000000001
 40
0.0
 40
0.0
 40
0.0
 40
0.0
 40
0.5
 40
0.5
 40
1.0
 40
1.0
 40
1.0
 40
1.0
 10
655.6759230553439
 20
566.6940195340906
 30
0.0
 10
654.884874796954
 20
566.3330488640852
 30
0.0
 10
654.0777837170766
 20
566.0243107567255
 30
0.0
 10
652.4287993005983
 20
565.5201444766653
 30
0.0
 10
651.5869054951966
 20
565.3247178302967
 30
0.0
 10
650.7289519900569
 20
565.1815786991441
 30
0.0
  0
LINE
  5
1E8
330
1C2
100
AcDbEntity
  8
DV2_Standard
  6
Continuous
 62
     7
100
AcDbLine
 10
656.5023791787
 20
569.751716068
 30
0.0
 11
648.333946609
 21
567.2543756119
 31
0.0
  0
LINE
  5
1E9
330
1C2
100
AcDbEntity
  8
DV2_Standard
  6
Continuous
 62
     7
100
AcDbLine
 10
656.5023791787
 20
569.751716068
 30
0.0
 11
657.0334524839
 21
568.014653557
 31
0.0
  0
SPLINE
  5
1EA
330
1C2
100
AcDbEntity
  8
DV2_Standard
  6
Continuous
 62
     7
100
AcDbSpline
210
0.0
220
0.0
230
1.0
 70
     8
 71
     3
 72
    14
 73
    10
 74
     0
 42
0.0000000049321089
 43
0.0000000001
 40
0.0
 40
0.0
 40
0.0
 40
0.0
 40
0.1250000000000004
 40
0.1250000000000004
 40
0.2500000000000009
 40
0.2500000000000009
 40
0.5000000000000008
 40
0.5000000000000008
 40
1.0
 40
1.0
 40
1.0
 40
1.0
 10
657.0334524839457
 20
568.0146535570431
 30
0.0
 10
657.0580822561205
 20
567.9340932022321
 30
0.0
 10
657.0519541106635
 20
567.8442380069113
 30
0.0
 10
657.0010399385919
 20
567.6831138845283
 30
0.0
 10
656.9579258520029
 20
567.6082206650918
 30
0.0
 10
656.8086393616043
 20
567.4045533161328
 30
0.0
 10
656.6803424754214
 20
567.2906616936466
 30
0.0
 10
656.2802509875245
 20
566.9891390417819
 30
0.0
 10
655.9803986100034
 20
566.8329576378029
 30
0.0
 10
655.6759230553439
 20
566.6940195340906
 30
0.0
  0
SPLINE
  5
1EB
330
1C2
100
AcDbEntity
  8
DV2_Standard
  6
Continuous
 62
     7
100
AcDbSpline
210
0.0
220
0.0
230
1.0
 70
     8
 71
     3
 72
    18
 73
    14
 74
     0
 42
0.0000000049401632
 43
0.0000000001
 40
0.0
 40
0.0
 40
0.0
 40
0.0
 40
0.2499999999999998
 40
0.2499999999999998
 40
0.4999999999999997
 40
0.4999999999999997
 40
0.6249999999999992
 40
0.6249999999999992
 40
0.7499999999999989
 40
0.7499999999999989
 40
0.8749999999999994
 40
0.8749999999999994
 40
1.0
 40
1.0
 40
1.0
 40
1.0
 10
650.7289519900569
 20
565.1815786991441
 30
0.0
 10
650.5634007773967
 20
565.153958488259
 30
0.0
 10
650.3971663336755
 20
565.1314468464859
 30
0.0
 10
650.0624715475205
 20
565.1030667720312
 30
0.0
 10
649.8941094479251
 20
565.0970315741556
 30
0.0
 10
649.6438030953608
 20
565.1103611733369
 30
0.0
 10
649.560600867592
 20
565.1185621864212
 30
0.0
 10
649.3949043504645
 20
565.1463708895958
 30
0.0
 10
649.3119367030419
 20
565.1661120710415
 30
0.0
 10
649.1544499317878
 20
565.2228452134134
 30
0.0
 10
649.0778077105547
 20
565.2601776112534
 30
0.0
 10
648.9445615212034
 20
565.3660028026562
 30
0.0
 10
648.8900910753271
 20
565.4353090279529
 30
0.0
 10
648.8650199141799
 20
565.5173131010395
 30
0.0
  0
LINE
  5
1EC
330
1C2
100
AcDbEntity
  8
DV2_Standard
  6
Continuous
 62
     7
100
AcDbLine
 10
648.8650199142
 20
565.517313101
 30
0.0
 11
648.333946609
 21
567.2543756119
 31
0.0
  0
LINE
  5
1ED
330
1C2
100
AcDbEntity
  8
DV2_Standard
  6
Continuous
 62
     7
100
AcDbLine
 10
642.3961937803
 20
562.6339988533
 30
0.0
 11
643.0150018814
 21
562.4911357463
 31
0.0
  0
LINE
  5
1EE
330
1C2
100
AcDbEntity
  8
DV2_Standard
  6
Continuous
 62
     7
100
AcDbLine
 10
663.5755541346
 20
568.7771273978
 30
0.0
 11
664.0086812651
 21
569.24159938
 31
0.0
  0
ARC
  5
1EF
330
1C2
100
AcDbEntity
  8
DV2_Standard
  6
Continuous
 62
     7
100
AcDbCircle
 10
642.6211448347
 20
563.608368918
 30
0.0
 40
0.9999999999999941
100
AcDbArc
 50
197.0
 51
257.0
  0
ARC
  5
1F0
330
1C2
100
AcDbEntity
  8
DV2_Standard
  6
Continuous
 62
     7
100
AcDbCircle
 10
663.2773275635
 20
569.92359774
 30
0.0
 40
0.9999999999999875
100
AcDbArc
 50
317.0
 51
17.0
  0
LINE
  5
1F1
330
1C2
100
AcDbEntity
  8
DV2_Standard
  6
Continuous
 62
     7
100
AcDbLine
 10
640.4704045945
 20
567.2228196443
 30
0.0
 11
641.6648400787
 21
563.3159972133
 31
0.0
  0
LINE
  5
1F2
330
1C2
100
AcDbEntity
  8
DV2_Standard
  6
Continuous
 62
     7
100
AcDbLine
 10
664.2336323194
 20
570.2159694448
 30
0.0
 11
663.7325043322
 21
571.855085234
 31
0.0
  0
LINE
  5
1F3
330
1C2
100
AcDbEntity
  8
DV2_Standard
  6
Continuous
 62
     7
100
AcDbLine
 10
644.8054838863
 20
562.6202643272
 30
0.0
 11
662.0189694936
 21
567.8829550122
 31
0.0
  0
LINE
  5
1F4
330
1C2
100
AcDbEntity
  8
DV2_Standard
  6
Continuous
 62
     7
100
AcDbLine
 10
644.6885352044
 20
563.0027862296
 30
0.0
 11
644.8054838863
 21
562.6202643272
 31
0.0
  0
LINE
  5
1F5
330
1C2
100
AcDbEntity
  8
DV2_Standard
  6
Continuous
 62
     7
100
AcDbLine
 10
662.0189694936
 20
567.8829550122
 30
0.0
 11
661.9020208117
 21
568.2654769146
 31
0.0
  0
LINE
  5
1F6
330
1C2
100
AcDbEntity
  8
DV2_Standard
  6
Continuous
 62
     7
100
AcDbLine
 10
503.8699620632
 20
493.5315741578
 30
0.0
 11
503.8699620632
 21
508.4343676296
 31
0.0
  0
LINE
  5
1F7
330
1C2
100
AcDbEntity
  8
DV2_Standard
  6
Continuous
 62
     7
100
AcDbLine
 10
670.6349370463
 20
578.0230269997
 30
0.0
 11
670.6349376221
 21
583.0509563601
 31
0.0
  0
ARC
  5
1F8
330
1C2
100
AcDbEntity
  8
DV2_Standard
  6
Continuous
 62
     7
100
AcDbCircle
 10
669.6349370463
 20
578.0230271142
 30
0.0
 40
1.000000000000646
100
AcDbArc
 50
327.7210929743
 51
359.9999934391
  0
SPLINE
  5
1F9
330
1C2
100
AcDbEntity
  8
DV2_Standard
  6
Continuous
 62
     7
100
AcDbSpline
210
0.0
220
0.0
230
1.0
 70
     8
 71
     3
 72
    32
 73
    28
 74
     0
 42
0.0000000000745977
 43
0.0000000001
 40
0.0
 40
0.0
 40
0.0
 40
0.0
 40
0.2499999999999997
 40
0.2499999999999997
 40
0.4999999999999993
 40
0.4999999999999993
 40
0.749999999999999
 40
0.749999999999999
 40
0.7812499999999989
 40
0.7812499999999989
 40
0.8124999999999989
 40
0.8124999999999989
 40
0.828124999999999
 40
0.828124999999999
 40
0.8437499999999991
 40
0.8437499999999991
 40
0.8593749999999992
 40
0.8593749999999992
 40
0.8749999999999992
 40
0.8749999999999992
 40
0.9062499999999994
 40
0.9062499999999994
 40
0.9374999999999997
 40
0.9374999999999997
 40
0.9687499999999998
 40
0.9687499999999998
 40
1.0
 40
1.0
 40
1.0
 40
1.0
 10
537.0611841197982
 20
585.3071672621389
 30
0.0
 10
549.0132927634983
 20
585.4774538523221
 30
0.0
 10
560.9661879254273
 20
585.615839706144
 30
0.0
 10
584.8716227396424
 20
585.6528634401093
 30
0.0
 10
596.8286186929304
 20
585.578649026255
 30
0.0
 10
620.7121019279883
 20
584.5174961921572
 30
0.0
 10
632.6389859273648
 20
583.5319700788801
 30
0.0
 10
645.9314362838508
 20
581.4574339821304
 30
0.0
 10
647.4082314940698
 20
581.2260315420316
 30
0.0
 10
650.3683143683976
 20
580.8071448268288
 30
0.0
 10
651.8532187661847
 20
580.6314233761506
 30
0.0
 10
654.0777106523071
 20
580.3503891479254
 30
0.0
 10
654.8172391774656
 20
580.2395843048587
 30
0.0
 10
656.2992222127602
 20
580.0546907759572
 30
0.0
 10
657.0420186952732
 20
579.9876875461016
 30
0.0
 10
658.4906623563552
 20
579.7595370745212
 30
0.0
 10
659.1909534735196
 20
579.6545406526359
 30
0.0
 10
660.5667896734109
 20
579.4852103801067
 30
0.0
 10
661.2400632410216
 20
579.4138850437672
 30
0.0
 10
663.205500426642
 20
579.1686193435983
 30
0.0
 10
664.4062465992417
 20
578.9636751351701
 30
0.0
 10
666.552565138683
 20
578.616788844858
 30
0.0
 10
667.497610251114
 20
578.468708672969
 30
0.0
 10
669.0250713167097
 20
578.2141228429703
 30
0.0
 10
669.6286129365632
 20
578.0976838600789
 30
0.0
 10
670.4277880996274
 20
577.9930085911839
 30
0.0
 10
670.6349385499782
 20
578.0230293182144
 30
0.0
 10
670.6349370463234
 20
578.0230269997319
 30
0.0
  0
LINE
  5
1FA
330
1C2
100
AcDbEntity
  8
DV2_Standard
  6
Continuous
 62
     7
100
AcDbLine
 10
543.8699620632
 20
559.8835243489
 30
0.0
 11
543.8699620632
 21
493.5315741578
 31
0.0
  0
SPLINE
  5
1FB
330
1C2
100
AcDbEntity
  8
DV2_Standard
  6
Continuous
 62
     7
100
AcDbSpline
210
0.0
220
0.0
230
1.0
 70
     8
 71
     3
 72
    18
 73
    14
 74
     0
 42
0.000000000112838
 43
0.0000000001
 40
0.0
 40
0.0
 40
0.0
 40
0.0
 40
0.4999999999999996
 40
0.4999999999999996
 40
0.7499999999999996
 40
0.7499999999999996
 40
0.8749999999999996
 40
0.8749999999999996
 40
0.9374999999999996
 40
0.9374999999999996
 40
0.9687499999999998
 40
0.9687499999999998
 40
1.0
 40
1.0
 40
1.0
 40
1.0
 10
551.5437873321716
 20
567.8768714521119
 30
0.0
 10
566.3000520237326
 20
568.4790118618635
 30
0.0
 10
581.0570022960217
 20
569.0669171766353
 30
0.0
 10
603.2053297055917
 20
569.5544364187011
 30
0.0
 10
610.5896505908756
 20
569.636837286428
 30
0.0
 10
621.6658345039303
 20
569.4779878781712
 30
0.0
 10
625.358520288422
 20
569.4000902597119
 30
0.0
 10
630.8918660413574
 20
569.1931722614378
 30
0.0
 10
632.7437025111793
 20
569.0825223543201
 30
0.0
 10
635.4678870715755
 20
568.5916969488937
 30
0.0
 10
636.3614076431245
 20
568.3737548967539
 30
0.0
 10
638.1011592206222
 20
567.7611690075563
 30
0.0
 10
638.9483438336994
 20
567.3614668492844
 30
0.0
 10
639.7127989442425
 20
566.8589894686392
 30
0.0
  0
LINE
  5
1FC
330
1C2
100
AcDbEntity
  8
DV2_Standard
  6
Continuous
 62
     7
100
AcDbLine
 10
537.0611841198
 20
585.3071672621
 30
0.0
 11
533.3040304709
 21
585.3071661629
 31
0.0
  0
ARC
  5
1FD
330
1C2
100
AcDbEntity
  8
DV2_Standard
  6
Continuous
 62
     7
100
AcDbCircle
 10
551.869963171
 20
559.8835225264
 30
0.0
 40
8.000001107866167
100
AcDbArc
 50
92.3367097563
 51
179.9999869476
  0
ARC
  5
1FE
330
1C2
100
AcDbEntity
  8
DV2_Standard
  6
Continuous
 62
     7
100
AcDbCircle
 10
509.7125430504
 20
-19254.2573810879
 30
0.0
 40
19846.74198888142
100
AcDbArc
 50
89.9325694247
 51
90.0154235555
  0
SPLINE
  5
1FF
330
1C2
100
AcDbEntity
  8
DV2_Standard
  6
Continuous
 62
     7
100
AcDbSpline
210
0.0
220
0.0
230
1.0
 70
     8
 71
     3
 72
    28
 73
    24
 74
     0
 42
0.0000000000747732
 43
0.0000000001
 40
0.0
 40
0.0
 40
0.0
 40
0.0
 40
0.2499999999999986
 40
0.2499999999999986
 40
0.4999999999999972
 40
0.4999999999999972
 40
0.7499999999999958
 40
0.7499999999999958
 40
0.8124999999999956
 40
0.8124999999999956
 40
0.828124999999996
 40
0.828124999999996
 40
0.8437499999999963
 40
0.8437499999999963
 40
0.874999999999997
 40
0.874999999999997
 40
0.9062499999999978
 40
0.9062499999999978
 40
0.9374999999999984
 40
0.9374999999999984
 40
0.9687499999999992
 40
0.9687499999999992
 40
1.0
 40
1.0
 40
1.0
 40
1.0
 10
537.0620890353465
 20
592.4643909554519
 30
0.0
 10
548.91274293938
 20
592.4423614310947
 30
0.0
 10
560.7631153710721
 20
592.4010217383235
 30
0.0
 10
584.461039646154
 20
592.1253329571042
 30
0.0
 10
596.314280094644
 20
591.9062583523356
 30
0.0
 10
619.9845464904889
 20
590.6541595477543
 30
0.0
 10
631.7873639056851
 20
589.5506620155946
 30
0.0
 10
646.4759487769609
 20
587.599364232343
 30
0.0
 10
649.4104632015774
 20
587.1793713672811
 30
0.0
 10
653.0700740004686
 20
586.6151928785301
 30
0.0
 10
653.8015733685897
 20
586.5003965300494
 30
0.0
 10
655.2630944348385
 20
586.2669168369401
 30
0.0
 10
655.9939180914521
 20
586.1480976641069
 30
0.0
 10
658.1734996771529
 20
585.7875062178241
 30
0.0
 10
659.623471210082
 20
585.5389290005187
 30
0.0
 10
662.3228745377339
 20
585.0615316493197
 30
0.0
 10
663.602241527799
 20
584.8275440798244
 30
0.0
 10
665.8733289136419
 20
584.402004139868
 30
0.0
 10
666.857963769669
 20
584.2120621361161
 30
0.0
 10
668.5130932110208
 20
583.8878150354708
 30
0.0
 10
669.1431202886455
 20
583.7615314946179
 30
0.0
 10
670.0097823497257
 20
583.5868803970203
 30
0.0
 10
670.2346477829828
 20
583.5409134397433
 30
0.0
 10
670.2346460515582
 20
583.5409137920957
 30
0.0
  0
SPLINE
  5
200
330
1C2
100
AcDbEntity
  8
DV2_Standard
  6
Continuous
 62
     7
100
AcDbSpline
210
0.0
220
0.0
230
1.0
 70
     8
 71
     3
 72
    12
 73
     8
 74
     0
 42
0.0000000025048766
 43
0.0000000001
 40
0.0
 40
0.0
 40
0.0
 40
0.0
 40
0.4999999999999997
 40
0.4999999999999997
 40
0.7499999999999998
 40
0.7499999999999998
 40
1.0
 40
1.0
 40
1.0
 40
1.0
 10
533.0698816194616
 20
592.4708633347135
 30
0.0
 10
533.6857821397921
 20
592.4700027547707
 30
0.0
 10
534.3286971594956
 20
592.4690447017143
 30
0.0
 10
535.3322169168177
 20
592.4674290814571
 30
0.0
 10
535.6749247596808
 20
592.4668578153403
 30
0.0
 10
536.3660790929573
 20
592.465661779053
 30
0.0
 10
536.7132719474076
 20
592.4650393816572
 30
0.0
 10
537.0620890353465
 20
592.4643909554519
 30
0.0
  0
ARC
  5
201
330
1C2
100
AcDbEntity
  8
DV2_Standard
  6
Continuous
 62
     7
100
AcDbCircle
 10
670.1349376221
 20
583.0509564173
 30
0.0
 40
0.5000000000006699
100
AcDbArc
 50
0.0
 51
78.4971393872
  0
SPLINE
  5
202
330
1C2
100
AcDbEntity
  8
DV2_Standard
  6
Continuous
 62
     7
100
AcDbSpline
210
0.0
220
0.0
230
1.0
 70
     8
 71
     3
 72
    10
 73
     6
 74
     0
 42
0.0000000124189077
 43
0.0000000001
 40
0.0
 40
0.0
 40
0.0
 40
0.0
 40
0.5
 40
0.5
 40
1.0
 40
1.0
 40
1.0
 40
1.0
 10
504.3699623892921
 20
592.4838887039551
 30
0.0
 10
504.2390626410367
 20
592.4838887893374
 30
0.0
 10
504.108968917704
 20
592.4300022793147
 30
0.0
 10
503.9238486580358
 20
592.2448821403948
 30
0.0
 10
503.8699620631569
 20
592.1147884522107
 30
0.0
 10
503.8699620631569
 20
591.9838887039554
 30
0.0
  0
SPLINE
  5
203
330
1C2
100
AcDbEntity
  8
DV2_Standard
  6
Continuous
 62
     7
100
AcDbSpline
210
0.0
220
0.0
230
1.0
 70
     8
 71
     3
 72
     9
 73
     5
 74
     0
 42
0.0000000011808127
 43
0.0000000001
 40
0.0
 40
0.0
 40
0.0
 40
0.0
 40
0.6550665620312103
 40
1.0
 40
1.0
 40
1.0
 40
1.0
 10
664.4290628200077
 20
571.8355105195607
 30
0.0
 10
665.7569540433558
 20
572.5599505957679
 30
0.0
 10
667.8808807064052
 20
573.8626500837829
 30
0.0
 10
669.8627492930468
 20
576.5111694214999
 30
0.0
 10
670.4803955397259
 20
577.4889859773101
 30
0.0
  0
ARC
  5
204
330
1C2
100
AcDbEntity
  8
DV2_Standard
  6
Continuous
 62
     7
100
AcDbCircle
 10
664.2853864477
 20
572.0988678352
 30
0.0
 40
0.2999999593950975
100
AcDbArc
 50
257.000230964
 51
298.614974473
  0
ARC
  5
205
330
1C2
100
AcDbEntity
  8
DV2_Standard
  6
Continuous
 62
     7
100
AcDbCircle
 10
639.8775800254
 20
567.1096828651
 30
0.0
 40
0.2999999395675202
100
AcDbArc
 50
236.6830317243
 51
316.9997749493
  0
SPLINE
  5
206
330
1C2
100
AcDbEntity
  8
DV2_Standard
  6
Continuous
 62
     7
100
AcDbSpline
210
0.0
220
0.0
230
1.0
 70
     8
 71
     3
 72
    24
 73
    20
 74
     0
 42
0.0000000003924245
 43
0.0000000001
 40
0.0
 40
0.0
 40
0.0
 40
0.0
 40
0.1249999999999999
 40
0.1249999999999999
 40
0.2499999999999998
 40
0.2499999999999998
 40
0.3749999999999996
 40
0.3749999999999996
 40
0.4375000000000005
 40
0.4375000000000005
 40
0.5000000000000013
 40
0.5000000000000013
 40
0.625000000000001
 40
0.625000000000001
 40
0.7500000000000007
 40
0.7500000000000007
 40
0.8750000000000003
 40
0.8750000000000003
 40
1.0
 40
1.0
 40
1.0
 40
1.0
 10
664.2179023192563
 20
571.8065565849366
 30
0.0
 10
664.2180719255558
 20
571.8060407335943
 30
0.0
 10
663.8533207145684
 20
571.8362341775579
 30
0.0
 10
662.5049582011401
 20
572.0108813809412
 30
0.0
 10
661.5193345116467
 20
572.1362062983765
 30
0.0
 10
659.1452190762099
 20
572.2966627023844
 30
0.0
 10
657.754401951523
 20
572.3302949962352
 30
0.0
 10
655.4842069170992
 20
572.4142665949131
 30
0.0
 10
654.6958623993261
 20
572.4508380252595
 30
0.0
 10
653.0913886272067
 20
572.3902180029704
 30
0.0
 10
652.2740425893821
 20
572.2969565576349
 30
0.0
 10
649.8612021238573
 20
571.8732736307951
 30
0.0
 10
648.2811744915766
 20
571.4640023471725
 30
0.0
 10
645.460321475202
 20
570.3196303423862
 30
0.0
 10
644.2495457429625
 20
569.6396398151719
 30
0.0
 10
642.2197683850219
 20
568.4840534266145
 30
0.0
 10
641.4191447046279
 20
567.9602208217816
 30
0.0
 10
640.3671611681209
 20
567.164932401532
 30
0.0
 10
640.0973851568575
 20
566.9036907695327
 30
0.0
 10
640.0969852880467
 20
566.9050825364869
 30
0.0
  0
LINE
  5
207
330
1C2
100
AcDbEntity
  8
DV2_Standard
  6
Continuous
 62
     7
100
AcDbLine
 10
503.8699620632
 20
526.8799551013
 30
0.0
 11
503.8699620632
 21
591.983888704
 31
0.0
  0
ARC
  5
208
330
1C2
100
AcDbEntity
  8
DV2_Standard
  6
Continuous
 62
     7
100
AcDbCircle
 10
309.0027750788
 20
517.6571613655
 30
0.0
 40
195.085315919726
100
AcDbArc
 50
357.2902922474
 51
2.7097077526
  0
LINE
  5
209
330
1C2
100
AcDbEntity
  8
DV2_Standard
  6
Continuous
 62
     7
100
AcDbLine
 10
498.1373094859
 20
531.2077846019
 30
0.0
 11
486.7669370699
 21
531.2077846019
 31
0.0
  0
LINE
  5
20A
330
1C2
100
AcDbEntity
  8
DV2_Standard
  6
Continuous
 62
     7
100
AcDbLine
 10
486.7669370699
 20
527.2077846019
 30
0.0
 11
498.1373094859
 21
527.2077846019
 31
0.0
  0
ARC
  5
20B
330
1C2
100
AcDbEntity
  8
DV2_Standard
  6
Continuous
 62
     7
100
AcDbCircle
 10
498.1373094859
 20
526.2077846019
 30
0.0
 40
1.000000000000001
100
AcDbArc
 50
18.0
 51
90.0
  0
ARC
  5
20C
330
1C2
100
AcDbEntity
  8
DV2_Standard
  6
Continuous
 62
     7
100
AcDbCircle
 10
498.1373094859
 20
526.2077846019
 30
0.0
 40
5.000000000000008
100
AcDbArc
 50
18.0
 51
90.0
  0
LINE
  5
20D
330
1C2
100
AcDbEntity
  8
DV2_Standard
  6
Continuous
 62
     7
100
AcDbLine
 10
503.9584404906
 20
524.4725254284
 30
0.0
 11
502.8925920673
 21
527.7528695738
 31
0.0
  0
LINE
  5
20E
330
1C2
100
AcDbEntity
  8
DV2_Standard
  6
Continuous
 62
     7
100
AcDbLine
 10
499.0883660022
 20
526.5168015963
 30
0.0
 11
503.998606667
 21
511.4046347384
 31
0.0
  0
ARC
  5
20F
330
1C2
100
AcDbEntity
  8
DV2_Standard
  6
Continuous
 62
     7
100
AcDbCircle
 10
486.7669370699
 20
529.2077846019
 30
0.0
 40
2.000000000000002
100
AcDbArc
 50
90.0
 51
270.0
  0
ENDBLK
  5
211
330
1C2
100
AcDbEntity
  8
0
100
AcDbBlockEnd
  0
BLOCK
  5
234
330
212
100
AcDbEntity
  8
0
100
AcDbBlockBegin
  2
SE2
 70
     0
 10
0.0
 20
0.0
 30
0.0
  3
SE2
  1

  0
ARC
  5
215
330
212
100
AcDbEntity
  8
DV3_Standard
  6
Continuous
 62
     7
100
AcDbCircle
 10
256.9033574513
 20
253.114975195
 30
0.0
 40
27.50000000000001
100
AcDbArc
 50
307.438062654
 51
0.0
  0
ARC
  5
216
330
212
100
AcDbEntity
  8
DV3_Standard
  6
Continuous
 62
     7
100
AcDbCircle
 10
256.9033574513
 20
253.114975195
 30
0.0
 40
27.50000000000001
100
AcDbArc
 50
94.1706479119
 51
232.5857381769
  0
ARC
  5
217
330
212
100
AcDbEntity
  8
DV3_Standard
  6
Continuous
 62
     7
100
AcDbCircle
 10
256.9033574513
 20
253.114975195
 30
0.0
 40
27.50000000000001
100
AcDbArc
 50
0.0
 51
85.8293520881
  0
SPLINE
  5
218
330
212
100
AcDbEntity
  8
DV3_Standard
  6
Continuous
 62
     7
100
AcDbSpline
210
0.0
220
0.0
230
1.0
 70
     8
 71
     3
 72
    28
 73
    24
 74
     0
 42
0.000000000167918
 43
0.0000000001
 40
0.0
 40
0.0
 40
0.0
 40
0.0
 40
0.0820022315815085
 40
0.1638103480281951
 40
0.2140526136947706
 40
0.2474059702839979
 40
0.2807703109228524
 40
0.3155973264357082
 40
0.3501910584527613
 40
0.4198935912409357
 40
0.4891719319309016
 40
0.522987892887231
 40
0.558814762492086
 40
0.6009487561016339
 40
0.6286704345773338
 40
0.6532936937629084
 40
0.687304154280665
 40
0.730532664775643
 40
0.7829042598632034
 40
0.8444953537502726
 40
0.9152433562802936
 40
0.9958583106017097
 40
0.9999999999999999
 40
0.9999999999999999
 40
0.9999999999999999
 40
0.9999999999999999
 10
394.1658562332267
 20
240.198182098843
 30
0.0
 10
395.7822602259019
 20
240.1956609405829
 30
0.0
 10
399.0112370934617
 20
240.1876879776927
 30
0.0
 10
403.2305488897487
 20
240.1664059510731
 30
0.0
 10
406.4908522892042
 20
240.1483623709317
 30
0.0
 10
408.796459064693
 20
240.1512824957204
 30
0.0
 10
410.7975589404444
 20
240.1933596622417
 30
0.0
 10
412.8204950604523
 20
240.3718590697287
 30
0.0
 10
415.4925385856594
 20
241.0511621028933
 30
0.0
 10
418.5002850818574
 20
242.8366758329305
 30
0.0
 10
420.7865998528924
 20
245.4295103081856
 30
0.0
 10
422.1180311945709
 20
247.831706929521
 30
0.0
 10
422.8837307923137
 20
249.9077312410861
 30
0.0
 10
423.243948129381
 20
251.9748857632201
 30
0.0
 10
423.2489277407293
 20
253.8425692440605
 30
0.0
 10
423.0372441004713
 20
255.5354432059882
 30
0.0
 10
422.5120442426821
 20
257.4821112876934
 30
0.0
 10
421.421877488223
 20
259.8103183203929
 30
0.0
 10
419.5495233555979
 20
262.3078094469395
 30
0.0
 10
416.701575415835
 20
264.6582891568795
 30
0.0
 10
412.6477570115836
 20
266.0972061072038
 30
0.0
 10
409.5605877236757
 20
266.0831227924233
 30
0.0
 10
407.8855589465138
 20
266.0773919821257
 30
0.0
 10
407.8037246823338
 20
266.0771161241116
 30
0.0
  0
SPLINE
  5
219
330
212
100
AcDbEntity
  8
DV3_Standard
  6
Continuous
 62
     7
100
AcDbSpline
210
0.0
220
0.0
230
1.0
 70
     8
 71
     3
 72
    36
 73
    32
 74
     0
 42
0.0000000000794437
 43
0.0000000001
 40
0.0
 40
0.0
 40
0.0
 40
0.0
 40
0.2500000000000008
 40
0.2500000000000008
 40
0.3125000000000011
 40
0.3125000000000011
 40
0.3437500000000011
 40
0.3437500000000011
 40
0.3750000000000012
 40
0.3750000000000012
 40
0.4062500000000012
 40
0.4062500000000012
 40
0.4375000000000012
 40
0.4375000000000012
 40
0.4687500000000013
 40
0.4687500000000013
 40
0.5000000000000013
 40
0.5000000000000013
 40
0.5312500000000014
 40
0.5312500000000014
 40
0.5625000000000016
 40
0.5625000000000016
 40
0.6250000000000016
 40
0.6250000000000016
 40
0.6562500000000016
 40
0.6562500000000016
 40
0.6875000000000016
 40
0.6875000000000016
 40
0.7500000000000013
 40
0.7500000000000013
 40
1.0
 40
1.0
 40
1.0
 40
1.0
 10
367.7909761421812
 20
266.0529702738243
 30
0.0
 10
378.2665988401596
 20
266.0398473206363
 30
0.0
 10
388.7422247988509
 20
266.0047249692144
 30
0.0
 10
401.8367406661485
 20
266.0552281363786
 30
0.0
 10
404.4556576927045
 20
266.0780365239666
 30
0.0
 10
408.3839792930527
 20
266.0804516556611
 30
0.0
 10
409.6972298508663
 20
266.0833944176388
 30
0.0
 10
412.3046372459161
 20
265.9208885720259
 30
0.0
 10
413.6004003252818
 20
265.7241955201662
 30
0.0
 10
416.0730918755954
 20
264.8232195263256
 30
0.0
 10
417.1906814285965
 20
264.1697099267565
 30
0.0
 10
419.2308031017677
 20
262.5292271617662
 30
0.0
 10
420.1244623411113
 20
261.5598629570306
 30
0.0
 10
421.6162535704856
 20
259.4056275040834
 30
0.0
 10
422.2065653374626
 20
258.2297954764094
 30
0.0
 10
423.0166987034905
 20
255.7562329091263
 30
0.0
 10
423.2345687302903
 20
254.4416612787545
 30
0.0
 10
423.2407526203125
 20
251.8469647415505
 30
0.0
 10
423.0284604753499
 20
250.5276273180679
 30
0.0
 10
422.2285583032095
 20
248.0500582634754
 30
0.0
 10
421.6340402569166
 20
246.857685345754
 30
0.0
 10
419.4209584356113
 20
243.6392218479328
 30
0.0
 10
417.3324994634145
 20
241.8754319267724
 30
0.0
 10
413.6435147486937
 20
240.5166806901148
 30
0.0
 10
412.3532121353368
 20
240.3143115407579
 30
0.0
 10
409.7324132325306
 20
240.1465967981565
 30
0.0
 10
408.4217416679884
 20
240.1496468310912
 30
0.0
 10
404.4897496367701
 20
240.1515523704202
 30
0.0
 10
401.8683534934872
 20
240.1745713100505
 30
0.0
 10
388.7615742572365
 20
240.2252665959688
 30
0.0
 10
378.2763049829637
 20
240.190114833294
 30
0.0
 10
367.790976417248
 20
240.1769801570739
 30
0.0
  0
ARC
  5
21A
330
212
100
AcDbEntity
  8
DV3_Standard
  6
Continuous
 62
     7
100
AcDbCircle
 10
367.7972397044
 20
271.0529663506
 30
0.0
 40
5.000000000012996
100
AcDbArc
 50
238.901288385
 51
269.9282248455
  0
ARC
  5
21B
330
212
100
AcDbEntity
  8
DV3_Standard
  6
Continuous
 62
     7
100
AcDbCircle
 10
367.7972397717
 20
235.1769840801
 30
0.0
 40
4.999999999968685
100
AcDbArc
 50
90.0717727741
 51
121.0987118272
  0
ARC
  5
21C
330
212
100
AcDbEntity
  8
DV3_Standard
  6
Continuous
 62
     7
100
AcDbCircle
 10
356.9016146469
 20
253.1149751949
 30
0.0
 40
15.98779340074609
100
AcDbArc
 50
58.6702569292
 51
301.3297432869
  0
SPLINE
  5
21D
330
212
100
AcDbEntity
  8
DV3_Standard
  6
Continuous
 62
     7
100
AcDbSpline
210
0.0
220
0.0
230
1.0
 70
     8
 71
     3
 72
    28
 73
    24
 74
     0
 42
0.000000000167918
 43
0.0000000001
 40
0.0
 40
0.0
 40
0.0
 40
0.0
 40
0.082002231581509
 40
0.1638103480281955
 40
0.2140526136947711
 40
0.2474059702839983
 40
0.2807703109228528
 40
0.3155973264357086
 40
0.3501910584527617
 40
0.4198935912409361
 40
0.489171931930902
 40
0.5229878928872314
 40
0.5588147624920863
 40
0.6009487561016342
 40
0.6286704345773342
 40
0.6532936937629087
 40
0.6873041542806653
 40
0.7305326647756434
 40
0.7829042598632037
 40
0.8444953537502728
 40
0.9152433562802939
 40
0.9958583106017099
 40
0.9999999999999999
 40
0.9999999999999999
 40
0.9999999999999999
 40
0.9999999999999999
 10
119.6408586694248
 20
266.0317682911655
 30
0.0
 10
118.0244546767496
 20
266.0342894494256
 30
0.0
 10
114.7954778091898
 20
266.0422624123158
 30
0.0
 10
110.5761660129027
 20
266.0635444389354
 30
0.0
 10
107.3158626134473
 20
266.0815880190768
 30
0.0
 10
105.0102558379585
 20
266.0786678942881
 30
0.0
 10
103.0091559622071
 20
266.0365907277668
 30
0.0
 10
100.9862198421992
 20
265.8580913202799
 30
0.0
 10
98.31417631699202
 20
265.1787882871152
 30
0.0
 10
95.30642982079407
 20
263.3932745570781
 30
0.0
 10
93.02011504975899
 20
260.8004400818229
 30
0.0
 10
91.68868370808059
 20
258.3982434604875
 30
0.0
 10
90.92298411033784
 20
256.3222191489224
 30
0.0
 10
90.5627667732705
 20
254.2550646267884
 30
0.0
 10
90.55778716192215
 20
252.387381145948
 30
0.0
 10
90.76947080218018
 20
250.6945071840204
 30
0.0
 10
91.29467065996938
 20
248.7478391023152
 30
0.0
 10
92.38483741442843
 20
246.4196320696157
 30
0.0
 10
94.25719154705354
 20
243.922140943069
 30
0.0
 10
97.10513948681648
 20
241.5716612331291
 30
0.0
 10
101.1589578910679
 20
240.1327442828047
 30
0.0
 10
104.2461271789758
 20
240.1468275975852
 30
0.0
 10
105.9211559561377
 20
240.1525584078829
 30
0.0
 10
106.0029902203176
 20
240.152834265897
 30
0.0
  0
SPLINE
  5
21E
330
212
100
AcDbEntity
  8
DV3_Standard
  6
Continuous
 62
     7
100
AcDbSpline
210
0.0
220
0.0
230
1.0
 70
     8
 71
     3
 72
    36
 73
    32
 74
     0
 42
0.0000000000794437
 43
0.0000000001
 40
0.0
 40
0.0
 40
0.0
 40
0.0
 40
0.2500000000000008
 40
0.2500000000000008
 40
0.3125000000000011
 40
0.3125000000000011
 40
0.3437500000000011
 40
0.3437500000000011
 40
0.3750000000000012
 40
0.3750000000000012
 40
0.4062500000000012
 40
0.4062500000000012
 40
0.4375000000000012
 40
0.4375000000000012
 40
0.4687500000000013
 40
0.4687500000000013
 40
0.5000000000000013
 40
0.5000000000000013
 40
0.5312500000000014
 40
0.5312500000000014
 40
0.5625000000000016
 40
0.5625000000000016
 40
0.6250000000000016
 40
0.6250000000000016
 40
0.6562500000000016
 40
0.6562500000000016
 40
0.6875000000000016
 40
0.6875000000000016
 40
0.7500000000000013
 40
0.7500000000000013
 40
1.0
 40
1.0
 40
1.0
 40
1.0
 10
146.0157387604703
 20
240.1769801161842
 30
0.0
 10
135.5401160624919
 20
240.1901030693722
 30
0.0
 10
125.0644901038005
 20
240.2252254207942
 30
0.0
 10
111.9699742365029
 20
240.17472225363
 30
0.0
 10
109.3510572099469
 20
240.1519138660419
 30
0.0
 10
105.4227356095987
 20
240.1494987343474
 30
0.0
 10
104.1094850517852
 20
240.1465559723697
 30
0.0
 10
101.5020776567354
 20
240.3090618179826
 30
0.0
 10
100.2063145773697
 20
240.5057548698423
 30
0.0
 10
97.7336230270561
 20
241.4067308636829
 30
0.0
 10
96.616033474055
 20
242.060240463252
 30
0.0
 10
94.5759118008837
 20
243.7007232282424
 30
0.0
 10
93.68225256154011
 20
244.6700874329779
 30
0.0
 10
92.19046133216582
 20
246.8243228859252
 30
0.0
 10
91.60014956518886
 20
248.0001549135991
 30
0.0
 10
90.79001619916104
 20
250.4737174808823
 30
0.0
 10
90.5721461723612
 20
251.7882891112541
 30
0.0
 10
90.56596228233896
 20
254.3829856484581
 30
0.0
 10
90.77825442730153
 20
255.7023230719406
 30
0.0
 10
91.57815659944191
 20
258.1798921265332
 30
0.0
 10
92.17267464573486
 20
259.3722650442546
 30
0.0
 10
94.38575646704011
 20
262.5907285420757
 30
0.0
 10
96.47421543923696
 20
264.3545184632362
 30
0.0
 10
100.1632001539577
 20
265.7132696998938
 30
0.0
 10
101.4535027673146
 20
265.9156388492506
 30
0.0
 10
104.0743016701208
 20
266.0833535918521
 30
0.0
 10
105.3849732346631
 20
266.0803035589174
 30
0.0
 10
109.3169652658814
 20
266.0783980195883
 30
0.0
 10
111.9383614091642
 20
266.0553790799581
 30
0.0
 10
125.045140645415
 20
266.0046837940397
 30
0.0
 10
135.5304099196877
 20
266.0398355567145
 30
0.0
 10
146.0157384854034
 20
266.0529702329346
 30
0.0
  0
ARC
  5
21F
330
212
100
AcDbEntity
  8
DV3_Standard
  6
Continuous
 62
     7
100
AcDbCircle
 10
146.0094751983
 20
235.1769840394
 30
0.0
 40
5.000000000012997
100
AcDbArc
 50
58.901288385
 51
89.9282248455
  0
ARC
  5
220
330
212
100
AcDbEntity
  8
DV3_Standard
  6
Continuous
 62
     7
100
AcDbCircle
 10
146.0094751309
 20
271.0529663099
 30
0.0
 40
4.999999999968605
100
AcDbArc
 50
270.0717727741
 51
301.0987118272
  0
ARC
  5
221
330
212
100
AcDbEntity
  8
DV3_Standard
  6
Continuous
 62
     7
100
AcDbCircle
 10
156.9051002558
 20
253.1149751951
 30
0.0
 40
15.9877934007461
100
AcDbArc
 50
238.6702569292
 51
121.3297432869
  0
SPLINE
  5
222
330
212
100
AcDbEntity
  8
DV3_Standard
  6
Continuous
 62
     7
100
AcDbSpline
210
0.0
220
0.0
230
1.0
 70
     8
 71
     3
 72
    13
 73
     9
 74
     0
 42
0.0000000003351707
 43
0.0000000001
 40
0.0
 40
0.0
 40
0.0
 40
0.0
 40
0.1830640776603107
 40
0.3661281553206215
 40
0.549192232981277
 40
0.7322563106415878
 40
0.9153203883018979
 40
1.0
 40
1.0
 40
1.0
 40
1.0
 10
156.9168059828981
 20
280.6153360919762
 30
0.0
 10
155.1446852518048
 20
280.6153360919673
 30
0.0
 10
151.5453367658467
 20
280.2685188024863
 30
0.0
 10
146.2820128251358
 20
278.6696580385832
 30
0.0
 10
141.4049898645777
 20
276.0368907431213
 30
0.0
 10
137.1710226614938
 20
272.4978714345872
 30
0.0
 10
134.3826850171953
 20
269.0278471786906
 30
0.0
 10
133.051458291123
 20
266.7808417586171
 30
0.0
 10
132.6640152381823
 20
266.0549560927371
 30
0.0
  0
SPLINE
  5
223
330
212
100
AcDbEntity
  8
DV3_Standard
  6
Continuous
 62
     7
100
AcDbSpline
210
0.0
220
0.0
230
1.0
 70
     8
 71
     3
 72
    28
 73
    24
 74
     0
 42
0.0000000000856787
 43
0.0000000001
 40
0.0
 40
0.0
 40
0.0
 40
0.0
 40
0.0224106386771113
 40
0.0689625130258035
 40
0.1155143873744958
 40
0.1620662617232758
 40
0.2551700104206603
 40
0.3017218847693527
 40
0.3482737591180451
 40
0.3948256334668249
 40
0.4413775078155173
 40
0.4879293821642096
 40
0.534481256512902
 40
0.5810331308615941
 40
0.627585005210374
 40
0.6741368795590662
 40
0.7206887539077586
 40
0.7672406282564509
 40
0.8137925026051431
 40
0.8603443769538355
 40
0.9068962513026154
 40
0.9534481256513077
 40
1.0
 40
1.0
 40
1.0
 40
1.0
 10
132.6703351497308
 20
240.1538350029398
 30
0.0
 10
133.0837494898933
 20
239.3798970451335
 30
0.0
 10
134.4718117390204
 20
237.0544036009723
 30
0.0
 10
137.3644247321128
 20
233.5240158622402
 30
0.0
 10
141.6199557872247
 20
230.0453015367893
 30
0.0
 10
148.0544979496258
 20
226.6430163074033
 30
0.0
 10
155.1404491756818
 20
225.2668575501572
 30
0.0
 10
162.2281500053808
 20
225.9535426781182
 30
0.0
 10
167.3804371935437
 20
227.4903236169343
 30
0.0
 10
172.2080188082807
 20
230.0415777917462
 30
0.0
 10
176.4644532892428
 20
233.5193739519802
 30
0.0
 10
179.9631510473548
 20
237.7871191538092
 30
0.0
 10
182.5347123222788
 20
242.6505817532083
 30
0.0
 10
184.0794630154307
 20
247.8528201025723
 30
0.0
 10
184.5793305919267
 20
253.1932818633518
 30
0.0
 10
184.0544801573037
 20
258.4513639122013
 30
0.0
 10
182.5464635620768
 20
263.5183089720142
 30
0.0
 10
180.0608728340117
 20
268.2685428941542
 30
0.0
 10
176.6635532583498
 20
272.4970057952722
 30
0.0
 10
172.4289056137148
 20
276.0366112940773
 30
0.0
 10
167.5511274924677
 20
278.6702227765693
 30
0.0
 10
162.2871653822577
 20
280.2684048666063
 30
0.0
 10
158.6883501558877
 20
280.6153360919852
 30
0.0
 10
156.9168059828981
 20
280.6153360919762
 30
0.0
  0
SPLINE
  5
224
330
212
100
AcDbEntity
  8
DV3_Standard
  6
Continuous
 62
     7
100
AcDbSpline
210
0.0
220
0.0
230
1.0
 70
     8
 71
     3
 72
    28
 73
    24
 74
     0
 42
0.0000000000856611
 43
0.0000000001
 40
0.0
 40
0.0
 40
0.0
 40
0.0
 40
0.0465400360936444
 40
0.0930800721872888
 40
0.1396201082810209
 40
0.1861601443746653
 40
0.2327001804683096
 40
0.2792402165619539
 40
0.3257802526555983
 40
0.3723202887493303
 40
0.4188603248429745
 40
0.465400360936619
 40
0.5119403970302634
 40
0.5584804331239076
 40
0.6050204692175519
 40
0.6515605053112841
 40
0.7446405774985727
 40
0.7911806135922171
 40
0.8377206496858616
 40
0.8842606857795935
 40
0.9308007218732379
 40
0.9773407579668824
 40
1.0
 40
1.0
 40
1.0
 40
1.0
 10
356.916805982898
 20
280.6153360919761
 30
0.0
 10
355.1446852518047
 20
280.6153360919671
 30
0.0
 10
351.5453367658467
 20
280.2685188024861
 30
0.0
 10
346.2820128251357
 20
278.6696580385831
 30
0.0
 10
341.4049898645777
 20
276.0368907431211
 30
0.0
 10
337.1710226614937
 20
272.4978714345871
 30
0.0
 10
333.7741571032448
 20
268.2705477081201
 30
0.0
 10
331.2883893418557
 20
263.5212607640592
 30
0.0
 10
329.7800650653978
 20
258.4556010789631
 30
0.0
 10
329.2542620662078
 20
253.1982814192362
 30
0.0
 10
329.7532297980617
 20
247.8583467108331
 30
0.0
 10
331.2965361241738
 20
242.6559888387411
 30
0.0
 10
333.8672874580187
 20
237.7922157848041
 30
0.0
 10
337.3644247321128
 20
233.5240158622401
 30
0.0
 10
341.6199557872247
 20
230.0453015367891
 30
0.0
 10
348.0544979496257
 20
226.6430163074031
 30
0.0
 10
355.1404491756818
 20
225.2668575501571
 30
0.0
 10
362.2281500053808
 20
225.9535426781181
 30
0.0
 10
367.3804371935437
 20
227.4903236169341
 30
0.0
 10
372.2080188082808
 20
230.0415777917461
 30
0.0
 10
376.4644532892427
 20
233.5193739519801
 30
0.0
 10
379.3647295042817
 20
237.0571587955017
 30
0.0
 10
380.75715405454
 20
239.3918640304302
 30
0.0
 10
381.1745555525251
 20
240.1749544250157
 30
0.0
  0
SPLINE
  5
225
330
212
100
AcDbEntity
  8
DV3_Standard
  6
Continuous
 62
     7
100
AcDbSpline
210
0.0
220
0.0
230
1.0
 70
     8
 71
     3
 72
    13
 73
     9
 74
     0
 42
0.0000000003354397
 43
0.0000000001
 40
0.0
 40
0.0
 40
0.0
 40
0.0
 40
0.0838436290944279
 40
0.2670749032754729
 40
0.4503061774565186
 40
0.6335374516379093
 40
0.8167687258189543
 40
1.0
 40
1.0
 40
1.0
 40
1.0
 10
381.1583781173908
 20
266.0759783143898
 30
0.0
 10
380.7744090988359
 20
266.7938712261156
 30
0.0
 10
379.446618901396
 20
269.0330720790265
 30
0.0
 10
376.6635532583498
 20
272.4970057952721
 30
0.0
 10
372.4289056137148
 20
276.0366112940771
 30
0.0
 10
367.5511274924677
 20
278.6702227765692
 30
0.0
 10
362.2871653822577
 20
280.2684048666061
 30
0.0
 10
358.6883501558877
 20
280.6153360919851
 30
0.0
 10
356.916805982898
 20
280.6153360919761
 30
0.0
  0
SPLINE
  5
226
330
212
100
AcDbEntity
  8
DV3_Standard
  6
Continuous
 62
     7
100
AcDbSpline
210
0.0
220
0.0
230
1.0
 70
     8
 71
     3
 72
    14
 73
    10
 74
     0
 42
0.0000000009322542
 43
0.0000000001
 40
0.0
 40
0.0
 40
0.0
 40
0.0
 40
0.2321893952624715
 40
0.2321893952624715
 40
0.6452613406230051
 40
0.6452613406230051
 40
0.8517973133032753
 40
0.8517973133032753
 40
1.0
 40
1.0
 40
1.0
 40
1.0
 10
266.9571300836846
 20
109.8347473068954
 30
0.0
 10
267.6114871332521
 20
110.3488227748032
 30
0.0
 10
268.2263397490989
 20
110.911844841081
 30
0.0
 10
269.7930552601587
 20
112.5844320166173
 30
0.0
 10
270.6586685482821
 20
113.8075860975297
 30
0.0
 10
271.6900608328687
 20
115.7576652034982
 30
0.0
 10
271.9927844666902
 20
116.4286309178684
 30
0.0
 10
272.4415847197996
 20
117.6120237953204
 30
0.0
 10
272.609972019654
 20
118.1167507538615
 30
0.0
 10
272.7474669388384
 20
118.6294323257329
 30
0.0
  0
ARC
  5
227
330
212
100
AcDbEntity
  8
DV3_Standard
  6
Continuous
 62
     7
100
AcDbCircle
 10
232.2284195031
 20
239.9233700684
 30
0.0
 40
8.0000000081227
100
AcDbArc
 50
0.0027615039
 51
28.0143379833
  0
SPLINE
  5
228
330
212
100
AcDbEntity
  8
DV3_Standard
  6
Continuous
 62
     7
100
AcDbSpline
210
0.0
220
0.0
230
1.0
 70
     8
 71
     3
 72
    28
 73
    24
 74
     0
 42
0.0000000000699536
 43
0.0000000001
 40
0.0
 40
0.0
 40
0.0
 40
0.0
 40
0.0312500000000004
 40
0.0312500000000004
 40
0.0625000000000008
 40
0.0625000000000008
 40
0.0937500000000013
 40
0.0937500000000013
 40
0.1250000000000017
 40
0.1250000000000017
 40
0.1562500000000022
 40
0.1562500000000022
 40
0.1718750000000024
 40
0.1718750000000024
 40
0.1875000000000026
 40
0.1875000000000026
 40
0.2500000000000024
 40
0.2500000000000024
 40
0.5000000000000016
 40
0.5000000000000016
 40
0.7500000000000008
 40
0.7500000000000008
 40
1.0
 40
1.0
 40
1.0
 40
1.0
 10
256.9033574513258
 20
106.3500016960388
 30
0.0
 10
255.404237653056
 20
106.35
 30
0.0
 10
253.9374767310924
 20
106.5544256710361
 30
0.0
 10
251.0672532995264
 20
107.3635524293712
 30
0.0
 10
249.7049123937591
 20
107.9600366631512
 30
0.0
 10
247.1837536925594
 20
109.4955715494842
 30
0.0
 10
246.0210298761299
 20
110.441875420328
 30
0.0
 10
244.0170012220145
 20
112.5804029404083
 30
0.0
 10
243.1517869346378
 20
113.802881055626
 30
0.0
 10
241.7813614399815
 20
116.3892650441746
 30
0.0
 10
241.2326959735119
 20
117.7644809634938
 30
0.0
 10
240.7611854887551
 20
119.9309900020976
 30
0.0
 10
240.7026898675676
 20
120.6713127235872
 30
0.0
 10
240.639357898963
 20
122.1481980160758
 30
0.0
 10
240.6225411404357
 20
122.8870935433068
 30
0.0
 10
240.5482961691335
 20
126.583445170305
 30
0.0
 10
240.5272947906107
 20
129.5462434557331
 30
0.0
 10
240.4049177363046
 20
144.3762961416278
 30
0.0
 10
240.3563751925788
 20
156.3079668940377
 30
0.0
 10
240.2758906454391
 20
180.1762483911014
 30
0.0
 10
240.2538373813108
 20
192.1225502834588
 30
0.0
 10
240.2308069979226
 20
216.0200022011541
 30
0.0
 10
240.2289955640561
 20
227.9715981305384
 30
0.0
 10
240.2284195018886
 20
239.9237556471207
 30
0.0
  0
ARC
  5
229
330
212
100
AcDbEntity
  8
DV3_Standard
  6
Continuous
 62
     7
100
AcDbCircle
 10
256.9097834825
 20
253.1248129102
 30
0.0
 40
19.99016537761719
100
AcDbArc
 50
90.0184182804
 51
208.1919831994
  0
SPLINE
  5
22A
330
212
100
AcDbEntity
  8
DV3_Standard
  6
Continuous
 62
     7
100
AcDbSpline
210
0.0
220
0.0
230
1.0
 70
     8
 71
     3
 72
    28
 73
    24
 74
     0
 42
0.0000000000699537
 43
0.0000000001
 40
0.0
 40
0.0
 40
0.0
 40
0.0
 40
0.2500000000000002
 40
0.2500000000000002
 40
0.5000000000000003
 40
0.5000000000000003
 40
0.7500000000000004
 40
0.7500000000000004
 40
0.8125000000000006
 40
0.8125000000000006
 40
0.8281250000000002
 40
0.8281250000000002
 40
0.8437499999999999
 40
0.8437499999999999
 40
0.8749999999999999
 40
0.8749999999999999
 40
0.9062499999999999
 40
0.9062499999999999
 40
0.9375
 40
0.9375
 40
0.96875
 40
0.96875
 40
1.0
 40
1.0
 40
1.0
 40
1.0
 10
273.578295400763
 20
239.9237556471207
 30
0.0
 10
273.5777191288619
 20
227.9672465697008
 30
0.0
 10
273.5759062918956
 20
216.0097137776145
 30
0.0
 10
273.5528506014326
 20
192.1032424102103
 30
0.0
 10
273.5307681584753
 20
180.1535123671926
 30
0.0
 10
273.4502555756533
 20
156.2891263845303
 30
0.0
 10
273.4017719946405
 20
144.364184554732
 30
0.0
 10
273.2792560242458
 20
129.5286319389423
 30
0.0
 10
273.2583123662812
 20
126.5654034622395
 30
0.0
 10
273.1837326505566
 20
122.8683690799144
 30
0.0
 10
273.1668591855166
 20
122.129052564365
 30
0.0
 10
273.1028968237546
 20
120.6527338684931
 30
0.0
 10
273.0427839804585
 20
119.912418987009
 30
0.0
 10
272.56731622967
 20
117.7458289805019
 30
0.0
 10
272.0250127215897
 20
116.3853729127245
 30
0.0
 10
270.6384057434609
 20
113.7749877484005
 30
0.0
 10
269.7892519471619
 20
112.5789114625737
 30
0.0
 10
267.7757699077191
 20
110.4322987731557
 30
0.0
 10
266.6155821805022
 20
109.4909113452321
 30
0.0
 10
264.1064841054725
 20
107.9630541495236
 30
0.0
 10
262.7220907930159
 20
107.3584572774445
 30
0.0
 10
259.8825560534908
 20
106.5583785704786
 30
0.0
 10
258.4016216485163
 20
106.350000000968
 30
0.0
 10
256.9033574513258
 20
106.3500016960388
 30
0.0
  0
ARC
  5
22B
330
212
100
AcDbEntity
  8
DV3_Standard
  6
Continuous
 62
     7
100
AcDbCircle
 10
256.8931594013
 20
253.1225558685
 30
0.0
 40
19.99242398746766
100
AcDbArc
 50
331.8188248537
 51
89.9707736666
  0
ARC
  5
22C
330
212
100
AcDbEntity
  8
DV3_Standard
  6
Continuous
 62
     7
100
AcDbCircle
 10
281.5782953998
 20
239.9233700684
 30
0.0
 40
8.00000000828555
100
AcDbArc
 50
151.985662017
 51
179.9972384958
  0
LINE
  5
22D
330
212
100
AcDbEntity
  8
DV3_Standard
  6
Continuous
 62
     7
100
AcDbLine
 10
258.9033574513
 20
278.8476298322
 30
0.0
 11
258.9033574513
 21
290.2180022482
 31
0.0
  0
LINE
  5
22E
330
212
100
AcDbEntity
  8
DV3_Standard
  6
Continuous
 62
     7
100
AcDbLine
 10
254.9033574513
 20
290.2180022482
 30
0.0
 11
254.9033574513
 21
278.8476298322
 31
0.0
  0
LINE
  5
22F
330
212
100
AcDbEntity
  8
DV3_Standard
  6
Continuous
 62
     7
100
AcDbLine
 10
254.9033574513
 20
278.8476298322
 30
0.0
 11
254.9033574513
 21
275.9944602834
 31
0.0
  0
LINE
  5
230
330
212
100
AcDbEntity
  8
DV3_Standard
  6
Continuous
 62
     7
100
AcDbLine
 10
258.9033574513
 20
275.9944602834
 30
0.0
 11
258.9033574513
 21
278.8476298322
 31
0.0
  0
LINE
  5
231
330
212
100
AcDbEntity
  8
DV3_Standard
  6
Continuous
 62
     7
100
AcDbLine
 10
258.9033574513
 20
272.9961164528
 30
0.0
 11
258.9033574513
 21
275.9944602834
 31
0.0
  0
LINE
  5
232
330
212
100
AcDbEntity
  8
DV3_Standard
  6
Continuous
 62
     7
100
AcDbLine
 10
254.9033574513
 20
275.9944602834
 30
0.0
 11
254.9033574513
 21
273.0062554831
 31
0.0
  0
ARC
  5
233
330
212
100
AcDbEntity
  8
DV3_Standard
  6
Continuous
 62
     7
100
AcDbCircle
 10
256.9033574513
 20
290.2180022482
 30
0.0
 40
2.000000000000002
100
AcDbArc
 50
0.0
 51
180.0
  0
ENDBLK
  5
235
330
212
100
AcDbEntity
  8
0
100
AcDbBlockEnd
  0
ENDSEC
  0
SECTION
  2
ENTITIES
  0
INSERT
  5
5F
330
1F
100
AcDbEntity
  8
Default
100
AcDbBlockReference
  2
SEANNOT_GROUP
 10
0.0
 20
0.0
 30
0.0
  0
INSERT
  5
66
330
1F
100
AcDbEntity
  8
Default
100
AcDbBlockReference
  2
SEANNOT_GROUP1
 10
0.0
 20
0.0
 30
0.0
  0
INSERT
  5
6C
330
1F
100
AcDbEntity
  8
Default
100
AcDbBlockReference
  2
SEANNOT_GROUP2
 10
0.0
 20
0.0
 30
0.0
  0
INSERT
  5
72
330
1F
100
AcDbEntity
  8
Default
100
AcDbBlockReference
  2
SEANNOT_GROUP3
 10
0.0
 20
0.0
 30
0.0
  0
INSERT
  5
78
330
1F
100
AcDbEntity
  8
Default
100
AcDbBlockReference
  2
SEANNOT_GROUP4
 10
0.0
 20
0.0
 30
0.0
  0
INSERT
  5
82
330
1F
100
AcDbEntity
  8
Default
100
AcDbBlockReference
  2
SEANNOT_GROUP5
 10
0.0
 20
0.0
 30
0.0
  0
INSERT
  5
8C
330
1F
100
AcDbEntity
  8
Default
100
AcDbBlockReference
  2
SEANNOT_GROUP6
 10
0.0
 20
0.0
 30
0.0
  0
INSERT
  5
96
330
1F
100
AcDbEntity
  8
Default
100
AcDbBlockReference
  2
SE
 10
0.0
 20
0.0
 30
0.0
  0
INSERT
  5
1C3
330
1F
100
AcDbEntity
  8
Default
100
AcDbBlockReference
  2
SE1
 10
0.0
 20
0.0
 30
0.0
  0
INSERT
  5
213
330
1F
100
AcDbEntity
  8
Default
100
AcDbBlockReference
  2
SE2
 10
0.0
 20
0.0
 30
0.0
  0
TEXT
  5
237
330
1F
100
AcDbEntity
  8
Default
  6
Continuous
 62
     7
100
AcDbText
 10
5.9362635081
 20
53.4225120485
 30
0.0
 40
10.0
  1
Grohe AG^J
  7
SEACAD_seiso_ttf
 11
5.9362635081
 21
63.4225120485
 31
0.0
100
AcDbText
 73
     3
  0
TEXT
  5
238
330
1F
100
AcDbEntity
  8
Default
  6
Continuous
 62
     7
100
AcDbText
 10
5.9362635081
 20
37.0588756849
 30
0.0
 40
10.0
  1
 
  7
SEACAD_seiso_ttf
 11
5.9362635081
 21
47.0588756849
 31
0.0
100
AcDbText
 73
     3
  0
TEXT
  5
239
330
1F
100
AcDbEntity
  8
Default
  6
Continuous
 62
     7
100
AcDbText
 10
5.9362635081
 20
20.6952393213
 30
0.0
 40
10.0
  1
ecn: 
  7
SEACAD_seiso_ttf
 11
5.9362635081
 21
30.6952393213
 31
0.0
100
AcDbText
 73
     3
  0
TEXT
  5
23A
330
1F
100
AcDbEntity
  8
Default
  6
Continuous
 62
     7
100
AcDbText
 10
5.9362635081
 20
4.3316029576
 30
0.0
 40
10.0
  1
unit: mm
  7
SEACAD_seiso_ttf
 11
5.9362635081
 21
14.3316029576
 31
0.0
100
AcDbText
 73
     3
  0
LINE
  5
23B
330
1F
100
AcDbEntity
  8
Default
  6
Continuous
 62
     7
100
AcDbLine
 10
0.0
 20
0.0
 30
0.0
 11
100.0
 21
0.0
 31
0.0
  0
LINE
  5
23C
330
1F
100
AcDbEntity
  8
Default
  6
Continuous
 62
     7
100
AcDbLine
 10
0.0
 20
0.0
 30
0.0
 11
0.0
 21
100.0
 31
0.0
  0
TEXT
  5
23D
330
1F
100
AcDbEntity
  8
Default
  6
Continuous
 62
     7
100
AcDbText
 10
24.3923665681
 20
-18.2375342018
 30
0.0
 40
10.0
  1
100 mm
  7
SEACAD_seiso_ttf
 11
24.3923665681
 21
-8.2375342018
 31
0.0
100
AcDbText
 73
     3
  0
TEXT
  5
23E
330
1F
100
AcDbEntity
  8
Default
  6
Continuous
 62
     7
100
AcDbText
 10
-7.6150308803
 20
24.6231930421
 30
0.0
 40
10.0
  1
100 mm
 50
90.0
  7
SEACAD_seiso_ttf
 11
-17.6150308803
 21
24.6231930421
 31
0.0
100
AcDbText
 73
     3
  0
TEXT
  5
23F
330
1F
100
AcDbEntity
  8
Default
  6
Continuous
 62
     7
100
AcDbText
 10
28.4878128572
 20
20.0907663715
 30
0.0
 40
10.0
  1
219055
  7
SEACAD_seiso_ttf
 11
28.4878128572
 21
30.0907663715
 31
0.0
100
AcDbText
 73
     3
  0
TEXT
  5
240
330
1F
100
AcDbEntity
  8
Default
  6
Continuous
 62
     7
100
AcDbText
 10
5.9012241913
 20
36.7242780188
 30
0.0
 40
10.0
  1
20209002
  7
SEACAD_seiso_ttf
 11
5.9012241913
 21
46.7242780188
 31
0.0
100
AcDbText
 73
     3
  0
ENDSEC
  0
SECTION
  2
OBJECTS
  0
DICTIONARY
  5
C
330
0
100
AcDbDictionary
281
     1
  3
ACAD_GROUP
350
D
  3
ACAD_LAYOUT
350
1A
  3
ACAD_MLEADERSTYLE
350
244
  3
ACAD_MLINESTYLE
350
17
  3
ACAD_PLOTSETTINGS
350
19
  3
ACAD_PLOTSTYLENAME
350
E
  3
ACAD_SCALELIST
350
3B
  3
ACAD_TABLESTYLE
350
243
  3
ACAD_VISUALSTYLE
350
2A
  3
AcDbVariableDictionary
350
241
  0
DICTIONARY
  5
D
102
{ACAD_REACTORS
330
C
102
}
330
C
100
AcDbDictionary
281
     1
  0
DICTIONARY
  5
1A
102
{ACAD_REACTORS
330
C
102
}
330
C
100
AcDbDictionary
281
     1
  3
Layout1
350
1E
  3
Model
350
22
  0
DICTIONARY
  5
244
102
{ACAD_REACTORS
330
C
102
}
330
C
100
AcDbDictionary
281
     1
  0
DICTIONARY
  5
17
102
{ACAD_REACTORS
330
C
102
}
330
C
100
AcDbDictionary
281
     1
  3
Standard
350
18
  0
DICTIONARY
  5
19
102
{ACAD_REACTORS
330
C
102
}
330
C
100
AcDbDictionary
281
     1
  0
ACDBDICTIONARYWDFLT
  5
E
102
{ACAD_REACTORS
330
C
102
}
330
C
100
AcDbDictionary
281
     1
  3
Normal
350
F
100
AcDbDictionaryWithDefault
340
F
  0
DICTIONARY
  5
3B
102
{ACAD_REACTORS
330
C
102
}
330
C
100
AcDbDictionary
281
     1
  3
A0
350
3C
  3
A1
350
3D
  3
A2
350
3E
  3
A3
350
3F
  3
A4
350
40
  3
A5
350
41
  3
A6
350
42
  3
A7
350
43
  3
A8
350
44
  3
A9
350
45
  3
B0
350
46
  3
B1
350
47
  3
B2
350
48
  3
B3
350
49
  3
B4
350
4A
  3
B5
350
4B
  3
B6
350
4C
  3
B7
350
4D
  3
B8
350
4E
  3
B9
350
4F
  3
C0
350
50
  3
C1
350
51
  3
C2
350
52
  3
C3
350
53
  3
C4
350
54
  3
C5
350
55
  3
C6
350
56
  3
C7
350
57
  3
C8
350
58
  3
C9
350
59
  3
D0
350
5A
  3
D1
350
5B
  3
D2
350
5C
  0
DICTIONARY
  5
243
102
{ACAD_REACTORS
330
C
102
}
330
C
100
AcDbDictionary
281
     1
  0
DICTIONARY
  5
2A
102
{ACAD_REACTORS
330
C
102
}
330
C
100
AcDbDictionary
281
     1
  3
2dWireframe
350
2F
  3
3D Hidden
350
31
  3
3dWireframe
350
30
  3
Basic
350
32
  3
Brighten
350
36
  3
ColorChange
350
3A
  3
Conceptual
350
34
  3
Dim
350
35
  3
Facepattern
350
39
  3
Flat
350
2B
  3
FlatWithEdges
350
2C
  3
Gouraud
350
2D
  3
GouraudWithEdges
350
2E
  3
Linepattern
350
38
  3
Realistic
350
33
  3
Thicken
350
37
  0
DICTIONARY
  5
241
102
{ACAD_REACTORS
330
C
102
}
330
C
100
AcDbDictionary
281
     1
  3
CANNOSCALE
350
242
  3
PSOLHEIGHT
350
246
  3
PSOLWIDTH
350
245
  0
LAYOUT
  5
1E
102
{ACAD_REACTORS
330
1A
102
}
330
1A
100
AcDbPlotSettings
  1

  2
none_device
  4

  6

 40
0.0
 41
0.0
 42
0.0
 43
0.0
 44
0.0
 45
0.0
 46
0.0
 47
0.0
 48
0.0
 49
0.0
140
0.0
141
0.0
142
1.0
143
1.0
 70
   688
 72
     0
 73
     0
 74
     5
  7

 75
    16
147
1.0
148
0.0
149
0.0
100
AcDbLayout
  1
Layout1
 70
     1
 71
     1
 10
0.0
 20
0.0
 11
1682.0
 21
2378.0
 12
0.0
 22
0.0
 32
0.0
 14
0.0
 24
0.0
 34
0.0
 15
1682.0
 25
2378.0
 35
0.0
146
0.0
 13
0.0
 23
0.0
 33
0.0
 16
1.0
 26
0.0
 36
0.0
 17
0.0
 27
1.0
 37
0.0
 76
     0
330
1B
  0
LAYOUT
  5
22
102
{ACAD_REACTORS
330
1A
102
}
330
1A
100
AcDbPlotSettings
  1

  2
none_device
  4

  6

 40
0.0
 41
0.0
 42
0.0
 43
0.0
 44
0.0
 45
0.0
 46
0.0
 47
0.0
 48
0.0
 49
0.0
140
0.0
141
0.0
142
1.0
143
1.0
 70
  1712
 72
     0
 73
     0
 74
     0
  7

 75
     0
147
1.0
148
0.0
149
0.0
100
AcDbLayout
  1
Model
 70
     1
 71
     0
 10
0.0
 20
0.0
 11
1682.0
 21
2378.0
 12
0.0
 22
0.0
 32
0.0
 14
0.0
 24
0.0
 34
0.0
 15
1682.0
 25
2378.0
 35
0.0
146
0.0
 13
0.0
 23
0.0
 33
0.0
 16
1.0
 26
0.0
 36
0.0
 17
0.0
 27
1.0
 37
0.0
 76
     0
330
1F
331
29
  0
MLINESTYLE
  5
18
102
{ACAD_REACTORS
330
17
102
}
330
17
100
AcDbMlineStyle
  2
Standard
 70
     0
  3

 62
   256
 51
90.0
 52
90.0
 71
     2
 49
0.5
 62
   256
  6
BYLAYER
 49
-0.5
 62
   256
  6
BYLAYER
  0
ACDBPLACEHOLDER
  5
F
102
{ACAD_REACTORS
330
E
102
}
330
E
  0
SCALE
  5
3C
102
{ACAD_REACTORS
330
3B
102
}
330
3B
100
AcDbScale
 70
     0
300
1:1
140
1.0
141
1.0
290
     1
  0
SCALE
  5
3D
102
{ACAD_REACTORS
330
3B
102
}
330
3B
100
AcDbScale
 70
     0
300
1:2
140
1.0
141
2.0
290
     0
  0
SCALE
  5
3E
102
{ACAD_REACTORS
330
3B
102
}
330
3B
100
AcDbScale
 70
     0
300
1:4
140
1.0
141
4.0
290
     0
  0
SCALE
  5
3F
102
{ACAD_REACTORS
330
3B
102
}
330
3B
100
AcDbScale
 70
     0
300
1:5
140
1.0
141
5.0
290
     0
  0
SCALE
  5
40
102
{ACAD_REACTORS
330
3B
102
}
330
3B
100
AcDbScale
 70
     0
300
1:8
140
1.0
141
8.0
290
     0
  0
SCALE
  5
41
102
{ACAD_REACTORS
330
3B
102
}
330
3B
100
AcDbScale
 70
     0
300
1:10
140
1.0
141
10.0
290
     0
  0
SCALE
  5
42
102
{ACAD_REACTORS
330
3B
102
}
330
3B
100
AcDbScale
 70
     0
300
1:16
140
1.0
141
16.0
290
     0
  0
SCALE
  5
43
102
{ACAD_REACTORS
330
3B
102
}
330
3B
100
AcDbScale
 70
     0
300
1:20
140
1.0
141
20.0
290
     0
  0
SCALE
  5
44
102
{ACAD_REACTORS
330
3B
102
}
330
3B
100
AcDbScale
 70
     0
300
1:30
140
1.0
141
30.0
290
     0
  0
SCALE
  5
45
102
{ACAD_REACTORS
330
3B
102
}
330
3B
100
AcDbScale
 70
     0
300
1:40
140
1.0
141
40.0
290
     0
  0
SCALE
  5
46
102
{ACAD_REACTORS
330
3B
102
}
330
3B
100
AcDbScale
 70
     0
300
1:50
140
1.0
141
50.0
290
     0
  0
SCALE
  5
47
102
{ACAD_REACTORS
330
3B
102
}
330
3B
100
AcDbScale
 70
     0
300
1:100
140
1.0
141
100.0
290
     0
  0
SCALE
  5
48
102
{ACAD_REACTORS
330
3B
102
}
330
3B
100
AcDbScale
 70
     0
300
2:1
140
2.0
141
1.0
290
     0
  0
SCALE
  5
49
102
{ACAD_REACTORS
330
3B
102
}
330
3B
100
AcDbScale
 70
     0
300
4:1
140
4.0
141
1.0
290
     0
  0
SCALE
  5
4A
102
{ACAD_REACTORS
330
3B
102
}
330
3B
100
AcDbScale
 70
     0
300
8:1
140
8.0
141
1.0
290
     0
  0
SCALE
  5
4B
102
{ACAD_REACTORS
330
3B
102
}
330
3B
100
AcDbScale
 70
     0
300
10:1
140
10.0
141
1.0
290
     0
  0
SCALE
  5
4C
102
{ACAD_REACTORS
330
3B
102
}
330
3B
100
AcDbScale
 70
     0
300
100:1
140
100.0
141
1.0
290
     0
  0
SCALE
  5
4D
102
{ACAD_REACTORS
330
3B
102
}
330
3B
100
AcDbScale
 70
     0
300
1/128" = 1'-0"
140
0.0078125
141
12.0
290
     0
  0
SCALE
  5
4E
102
{ACAD_REACTORS
330
3B
102
}
330
3B
100
AcDbScale
 70
     0
300
1/64" = 1'-0"
140
0.015625
141
12.0
290
     0
  0
SCALE
  5
4F
102
{ACAD_REACTORS
330
3B
102
}
330
3B
100
AcDbScale
 70
     0
300
1/32" = 1'-0"
140
0.03125
141
12.0
290
     0
  0
SCALE
  5
50
102
{ACAD_REACTORS
330
3B
102
}
330
3B
100
AcDbScale
 70
     0
300
1/16" = 1'-0"
140
0.0625
141
12.0
290
     0
  0
SCALE
  5
51
102
{ACAD_REACTORS
330
3B
102
}
330
3B
100
AcDbScale
 70
     0
300
3/32" = 1'-0"
140
0.09375
141
12.0
290
     0
  0
SCALE
  5
52
102
{ACAD_REACTORS
330
3B
102
}
330
3B
100
AcDbScale
 70
     0
300
1/8" = 1'-0"
140
0.125
141
12.0
290
     0
  0
SCALE
  5
53
102
{ACAD_REACTORS
330
3B
102
}
330
3B
100
AcDbScale
 70
     0
300
3/16" = 1'-0"
140
0.1875
141
12.0
290
     0
  0
SCALE
  5
54
102
{ACAD_REACTORS
330
3B
102
}
330
3B
100
AcDbScale
 70
     0
300
1/4" = 1'-0"
140
0.25
141
12.0
290
     0
  0
SCALE
  5
55
102
{ACAD_REACTORS
330
3B
102
}
330
3B
100
AcDbScale
 70
     0
300
3/8" = 1'-0"
140
0.375
141
12.0
290
     0
  0
SCALE
  5
56
102
{ACAD_REACTORS
330
3B
102
}
330
3B
100
AcDbScale
 70
     0
300
1/2" = 1'-0"
140
0.5
141
12.0
290
     0
  0
SCALE
  5
57
102
{ACAD_REACTORS
330
3B
102
}
330
3B
100
AcDbScale
 70
     0
300
3/4" = 1'-0"
140
0.75
141
12.0
290
     0
  0
SCALE
  5
58
102
{ACAD_REACTORS
330
3B
102
}
330
3B
100
AcDbScale
 70
     0
300
1" = 1'-0"
140
1.0
141
12.0
290
     0
  0
SCALE
  5
59
102
{ACAD_REACTORS
330
3B
102
}
330
3B
100
AcDbScale
 70
     0
300
1-1/2" = 1'-0"
140
1.5
141
12.0
290
     0
  0
SCALE
  5
5A
102
{ACAD_REACTORS
330
3B
102
}
330
3B
100
AcDbScale
 70
     0
300
3" = 1'-0"
140
3.0
141
12.0
290
     0
  0
SCALE
  5
5B
102
{ACAD_REACTORS
330
3B
102
}
330
3B
100
AcDbScale
 70
     0
300
6" = 1'-0"
140
6.0
141
12.0
290
     0
  0
SCALE
  5
5C
102
{ACAD_REACTORS
330
3B
102
}
330
3B
100
AcDbScale
 70
     0
300
1'-0" = 1'-0"
140
12.0
141
12.0
290
     0
  0
VISUALSTYLE
  5
2F
102
{ACAD_REACTORS
330
2A
102
}
330
2A
100
AcDbVisualStyle
  2
2dWireframe
 70
     4
 71
     0
 72
     2
 73
     0
 90
        0
 40
-0.6
 41
-30.0
 62
     5
 63
     7
 74
     1
 91
        4
 64
     7
 65
   257
 75
     1
175
     1
 42
1.0
 92
        0
 66
   257
 43
1.0
 76
     1
 77
     6
 78
     2
 67
     7
 79
     5
170
     0
171
     0
290
     0
174
     0
 93
        1
 44
0.0
173
     0
291
     0
 45
0.0
1001
ACAD
1000
AcDbSavedByObjectVersion
1070
     0
  0
VISUALSTYLE
  5
31
102
{ACAD_REACTORS
330
2A
102
}
330
2A
100
AcDbVisualStyle
  2
3D Hidden
 70
     6
 71
     1
 72
     2
 73
     2
 90
        0
 40
-0.6
 41
-30.0
 62
     5
 63
     7
 74
     2
 91
        2
 64
     7
 65
   257
 75
     2
175
     1
 42
40.0
 92
        0
 66
   257
 43
1.0
 76
     1
 77
     6
 78
     2
 67
     7
 79
     3
170
     0
171
     0
290
     0
174
     0
 93
        1
 44
0.0
173
     0
291
     0
 45
0.0
1001
ACAD
1000
AcDbSavedByObjectVersion
1070
     0
  0
VISUALSTYLE
  5
30
102
{ACAD_REACTORS
330
2A
102
}
330
2A
100
AcDbVisualStyle
  2
3dWireframe
 70
     5
 71
     0
 72
     2
 73
     0
 90
        0
 40
-0.6
 41
-30.0
 62
     5
 63
     7
 74
     1
 91
        4
 64
     7
 65
   257
 75
     1
175
     1
 42
1.0
 92
        0
 66
   257
 43
1.0
 76
     1
 77
     6
 78
     2
 67
     7
 79
     5
170
     0
171
     0
290
     0
174
     0
 93
        1
 44
0.0
173
     0
291
     0
 45
0.0
1001
ACAD
1000
AcDbSavedByObjectVersion
1070
     0
  0
VISUALSTYLE
  5
32
102
{ACAD_REACTORS
330
2A
102
}
330
2A
100
AcDbVisualStyle
  2
Basic
 70
     7
 71
     1
 72
     0
 73
     1
 90
        0
 40
-0.6
 41
-30.0
 62
     5
 63
     7
 74
     0
 91
        4
 64
     7
 65
   257
 75
     1
175
     1
 42
1.0
 92
        8
 66
     7
 43
1.0
 76
     1
 77
     6
 78
     2
 67
     7
 79
     5
170
     0
171
     0
290
     0
174
     0
 93
        1
 44
0.0
173
     0
291
     1
 45
0.0
1001
ACAD
1000
AcDbSavedByObjectVersion
1070
     0
  0
VISUALSTYLE
  5
36
102
{ACAD_REACTORS
330
2A
102
}
330
2A
100
AcDbVisualStyle
  2
Brighten
 70
    12
 71
     2
 72
     2
 73
     0
 90
        0
 40
-0.6
 41
-30.0
 62
     5
 63
     7
 74
     1
 91
        4
 64
     7
 65
   257
 75
     1
175
     1
 42
1.0
 92
        8
 66
     7
 43
1.0
 76
     1
 77
     6
 78
     2
 67
     7
 79
     5
170
     0
171
     0
290
     0
174
     0
 93
        1
 44
50.0
173
     0
291
     1
 45
0.0
1001
ACAD
1000
AcDbSavedByObjectVersion
1070
     0
  0
VISUALSTYLE
  5
3A
102
{ACAD_REACTORS
330
2A
102
}
330
2A
100
AcDbVisualStyle
  2
ColorChange
 70
    16
 71
     2
 72
     2
 73
     3
 90
        0
 40
-0.6
 41
-30.0
 62
     5
 63
     8
 74
     1
 91
        4
 64
     7
 65
   257
 75
     1
175
     1
 42
1.0
 92
        8
 66
     8
 43
1.0
 76
     1
 77
     6
 78
     2
 67
     7
 79
     5
170
     0
171
     0
290
     0
174
     0
 93
        1
 44
0.0
173
     0
291
     1
 45
0.0
1001
ACAD
1000
AcDbSavedByObjectVersion
1070
     0
  0
VISUALSTYLE
  5
34
102
{ACAD_REACTORS
330
2A
102
}
330
2A
100
AcDbVisualStyle
  2
Conceptual
 70
     9
 71
     3
 72
     2
 73
     0
 90
        0
 40
-0.6
 41
-30.0
 62
     5
 63
     7
 74
     2
 91
        2
 64
     7
 65
   257
 75
     1
175
     1
 42
40.0
 92
        8
 66
     7
 43
1.0
 76
     1
 77
     6
 78
     2
 67
     7
 79
     3
170
     0
171
     0
290
     0
174
     0
 93
        1
 44
0.0
173
     0
291
     0
 45
0.0
1001
ACAD
1000
AcDbSavedByObjectVersion
1070
     0
  0
VISUALSTYLE
  5
35
102
{ACAD_REACTORS
330
2A
102
}
330
2A
100
AcDbVisualStyle
  2
Dim
 70
    11
 71
     2
 72
     2
 73
     0
 90
        0
 40
-0.6
 41
-30.0
 62
     5
 63
     7
 74
     1
 91
        4
 64
     7
 65
   257
 75
     1
175
     1
 42
1.0
 92
        8
 66
     7
 43
1.0
 76
     1
 77
     6
 78
     2
 67
     7
 79
     5
170
     0
171
     0
290
     0
174
     0
 93
        1
 44
-50.0
173
     0
291
     1
 45
0.0
1001
ACAD
1000
AcDbSavedByObjectVersion
1070
     0
  0
VISUALSTYLE
  5
39
102
{ACAD_REACTORS
330
2A
102
}
330
2A
100
AcDbVisualStyle
  2
Facepattern
 70
    15
 71
     2
 72
     2
 73
     0
 90
        0
 40
-0.6
 41
-30.0
 62
     5
 63
     7
 74
     1
 91
        4
 64
     7
 65
   257
 75
     1
175
     1
 42
1.0
 92
        8
 66
     7
 43
1.0
 76
     1
 77
     6
 78
     2
 67
     7
 79
     5
170
     0
171
     0
290
     0
174
     0
 93
        1
 44
0.0
173
     0
291
     1
 45
0.0
1001
ACAD
1000
AcDbSavedByObjectVersion
1070
     0
  0
VISUALSTYLE
  5
2B
102
{ACAD_REACTORS
330
2A
102
}
330
2A
100
AcDbVisualStyle
  2
Flat
 70
     0
 71
     2
 72
     1
 73
     1
 90
        2
 40
-0.6
 41
30.0
 62
     5
 63
     7
 74
     0
 91
        4
 64
     7
 65
   257
 75
     1
175
     1
 42
1.0
 92
        8
 66
     7
 43
1.0
 76
     1
 77
     6
 78
     2
 67
     7
 79
     5
170
     0
171
     0
290
     0
174
     0
 93
       13
 44
0.0
173
     0
291
     1
 45
0.0
1001
ACAD
1000
AcDbSavedByObjectVersion
1070
     0
  0
VISUALSTYLE
  5
2C
102
{ACAD_REACTORS
330
2A
102
}
330
2A
100
AcDbVisualStyle
  2
FlatWithEdges
 70
     1
 71
     2
 72
     1
 73
     1
 90
        2
 40
-0.6
 41
30.0
 62
     5
 63
     7
 74
     1
 91
        4
 64
     7
 65
   257
 75
     1
175
     1
 42
1.0
 92
        0
 66
   257
 43
1.0
 76
     1
 77
     6
 78
     2
 67
     7
 79
     5
170
     0
171
     0
290
     0
174
     0
 93
       13
 44
0.0
173
     0
291
     1
 45
0.0
1001
ACAD
1000
AcDbSavedByObjectVersion
1070
     0
  0
VISUALSTYLE
  5
2D
102
{ACAD_REACTORS
330
2A
102
}
330
2A
100
AcDbVisualStyle
  2
Gouraud
 70
     2
 71
     2
 72
     2
 73
     1
 90
        2
 40
-0.6
 41
30.0
 62
     5
 63
     7
 74
     0
 91
        4
 64
     7
 65
   257
 75
     1
175
     1
 42
1.0
 92
        0
 66
     7
 43
1.0
 76
     1
 77
     6
 78
     2
 67
     7
 79
     5
170
     0
171
     0
290
     0
174
     0
 93
       13
 44
0.0
173
     0
291
     1
 45
0.0
1001
ACAD
1000
AcDbSavedByObjectVersion
1070
     0
  0
VISUALSTYLE
  5
2E
102
{ACAD_REACTORS
330
2A
102
}
330
2A
100
AcDbVisualStyle
  2
GouraudWithEdges
 70
     3
 71
     2
 72
     2
 73
     1
 90
        2
 40
-0.6
 41
30.0
 62
     5
 63
     7
 74
     1
 91
        4
 64
     7
 65
   257
 75
     1
175
     1
 42
1.0
 92
        0
 66
   257
 43
1.0
 76
     1
 77
     6
 78
     2
 67
     7
 79
     5
170
     0
171
     0
290
     0
174
     0
 93
       13
 44
0.0
173
     0
291
     1
 45
0.0
1001
ACAD
1000
AcDbSavedByObjectVersion
1070
     0
  0
VISUALSTYLE
  5
38
102
{ACAD_REACTORS
330
2A
102
}
330
2A
100
AcDbVisualStyle
  2
Linepattern
 70
    14
 71
     2
 72
     2
 73
     0
 90
        0
 40
-0.6
 41
-30.0
 62
     5
 63
     7
 74
     1
 91
        4
 64
     7
 65
   257
 75
     7
175
     7
 42
1.0
 92
        8
 66
     7
 43
1.0
 76
     1
 77
     6
 78
     2
 67
     7
 79
     5
170
     0
171
     0
290
     0
174
     0
 93
        1
 44
0.0
173
     0
291
     1
 45
0.0
1001
ACAD
1000
AcDbSavedByObjectVersion
1070
     0
  0
VISUALSTYLE
  5
33
102
{ACAD_REACTORS
330
2A
102
}
330
2A
100
AcDbVisualStyle
  2
Realistic
 70
     8
 71
     2
 72
     2
 73
     0
 90
        0
 40
-0.6
 41
-30.0
 62
     5
 63
     7
 74
     1
 91
        0
 64
     7
 65
   257
 75
     1
175
     1
 42
1.0
 92
        8
 66
     8
 43
1.0
 76
     1
 77
     6
 78
     2
 67
     7
 79
     5
170
     0
171
     0
290
     0
174
     0
 93
       13
 44
0.0
173
     0
291
     0
 45
0.0
1001
ACAD
1000
AcDbSavedByObjectVersion
1070
     0
  0
VISUALSTYLE
  5
37
102
{ACAD_REACTORS
330
2A
102
}
330
2A
100
AcDbVisualStyle
  2
Thicken
 70
    13
 71
     2
 72
     2
 73
     0
 90
        0
 40
-0.6
 41
-30.0
 62
     5
 63
     7
 74
     1
 91
        4
 64
     7
 65
   257
 75
     1
175
     1
 42
1.0
 92
       12
 66
     7
 43
1.0
 76
     1
 77
     6
 78
     2
 67
     7
 79
     5
170
     0
171
     0
290
     0
174
     0
 93
        1
 44
0.0
173
     0
291
     1
 45
0.0
1001
ACAD
1000
AcDbSavedByObjectVersion
1070
     0
  0
DICTIONARYVAR
  5
242
102
{ACAD_REACTORS
330
241
102
}
330
241
100
DictionaryVariables
280
     0
  1
1:1
  0
DICTIONARYVAR
  5
246
102
{ACAD_REACTORS
330
241
102
}
330
241
100
DictionaryVariables
280
     0
  1
80.000000
  0
DICTIONARYVAR
  5
245
102
{ACAD_REACTORS
330
241
102
}
330
241
100
DictionaryVariables
280
     0
  1
5.000000
  0
ENDSEC
  0
EOF
