  0
SECTION
  2
HEADER
  9
$ACADVER
  1
AC1015
  9
$ACADMAINTVER
 70
     6
  9
$DWGCODEPAGE
  3
ANSI_1252
  9
$INSBASE
 10
0.0
 20
0.0
 30
0.0
  9
$EXTMIN
 10
0.0
 20
0.0
 30
0.0
  9
$EXTMAX
 10
1682.0
 20
2378.0
 30
0.0
  9
$LIMMIN
 10
0.0
 20
0.0
  9
$LIMMAX
 10
1682.0
 20
2378.0
  9
$ORTHOMODE
 70
     0
  9
$REGENMODE
 70
     1
  9
$FILLMODE
 70
     1
  9
$QTEXTMODE
 70
     0
  9
$MIRRTEXT
 70
     1
  9
$LTSCALE
 40
1.0
  9
$ATTMODE
 70
     1
  9
$TEXTSIZE
 40
2.5
  9
$TRACEWID
 40
1.0
  9
$TEXTSTYLE
  7
Standard
  9
$CLAYER
  8
0
  9
$CELTYPE
  6
ByLayer
  9
$CECOLOR
 62
   256
  9
$CELTSCALE
 40
1.0
  9
$DISPSILH
 70
     0
  9
$DIMSCALE
 40
1.0
  9
$DIMASZ
 40
2.5
  9
$DIMEXO
 40
0.625
  9
$DIMDLI
 40
3.75
  9
$DIMRND
 40
0.0
  9
$DIMDLE
 40
0.0
  9
$DIMEXE
 40
1.25
  9
$DIMTP
 40
0.0
  9
$DIMTM
 40
0.0
  9
$DIMTXT
 40
2.5
  9
$DIMCEN
 40
2.5
  9
$DIMTSZ
 40
0.0
  9
$DIMTOL
 70
     0
  9
$DIMLIM
 70
     0
  9
$DIMTIH
 70
     0
  9
$DIMTOH
 70
     0
  9
$DIMSE1
 70
     0
  9
$DIMSE2
 70
     0
  9
$DIMTAD
 70
     1
  9
$DIMZIN
 70
     8
  9
$DIMBLK
  1

  9
$DIMASO
 70
     1
  9
$DIMSHO
 70
     1
  9
$DIMPOST
  1

  9
$DIMAPOST
  1

  9
$DIMALT
 70
     0
  9
$DIMALTD
 70
     3
  9
$DIMALTF
 40
0.0393700787
  9
$DIMLFAC
 40
1.0
  9
$DIMTOFL
 70
     1
  9
$DIMTVP
 40
0.0
  9
$DIMTIX
 70
     0
  9
$DIMSOXD
 70
     0
  9
$DIMSAH
 70
     0
  9
$DIMBLK1
  1

  9
$DIMBLK2
  1

  9
$DIMSTYLE
  2
ISO-25
  9
$DIMCLRD
 70
     0
  9
$DIMCLRE
 70
     0
  9
$DIMCLRT
 70
     0
  9
$DIMTFAC
 40
1.0
  9
$DIMGAP
 40
0.625
  9
$DIMJUST
 70
     0
  9
$DIMSD1
 70
     0
  9
$DIMSD2
 70
     0
  9
$DIMTOLJ
 70
     0
  9
$DIMTZIN
 70
     8
  9
$DIMALTZ
 70
     0
  9
$DIMALTTZ
 70
     0
  9
$DIMUPT
 70
     0
  9
$DIMDEC
 70
     2
  9
$DIMTDEC
 70
     2
  9
$DIMALTU
 70
     2
  9
$DIMALTTD
 70
     3
  9
$DIMTXSTY
  7
Standard
  9
$DIMAUNIT
 70
     0
  9
$DIMADEC
 70
     0
  9
$DIMALTRND
 40
0.0
  9
$DIMAZIN
 70
     0
  9
$DIMDSEP
 70
    44
  9
$DIMATFIT
 70
     3
  9
$DIMFRAC
 70
     0
  9
$DIMLDRBLK
  1

  9
$DIMLUNIT
 70
     2
  9
$DIMLWD
 70
    -2
  9
$DIMLWE
 70
    -2
  9
$DIMTMOVE
 70
     0
  9
$LUNITS
 70
     2
  9
$LUPREC
 70
     4
  9
$SKETCHINC
 40
1.0
  9
$FILLETRAD
 40
10.0
  9
$AUNITS
 70
     0
  9
$AUPREC
 70
     0
  9
$MENU
  1
.
  9
$ELEVATION
 40
0.0
  9
$PELEVATION
 40
0.0
  9
$THICKNESS
 40
0.0
  9
$LIMCHECK
 70
     0
  9
$CHAMFERA
 40
10.0
  9
$CHAMFERB
 40
10.0
  9
$CHAMFERC
 40
20.0
  9
$CHAMFERD
 40
0.0
  9
$SKPOLY
 70
     0
  9
$TDCREATE
 40
2455629.491262743
  9
$TDUCREATE
 40
2455629.449596076
  9
$TDUPDATE
 40
2455629.491262754
  9
$TDUUPDATE
 40
2455629.449596088
  9
$TDINDWG
 40
0.0000000116
  9
$TDUSRTIMER
 40
0.0000000116
  9
$USRTIMER
 70
     1
  9
$ANGBASE
 50
0.0
  9
$ANGDIR
 70
     0
  9
$PDMODE
 70
     0
  9
$PDSIZE
 40
0.0
  9
$PLINEWID
 40
0.0
  9
$SPLFRAME
 70
     0
  9
$SPLINETYPE
 70
     6
  9
$SPLINESEGS
 70
     8
  9
$HANDSEED
  5
190
  9
$SURFTAB1
 70
     6
  9
$SURFTAB2
 70
     6
  9
$SURFTYPE
 70
     6
  9
$SURFU
 70
     6
  9
$SURFV
 70
     6
  9
$UCSBASE
  2

  9
$UCSNAME
  2

  9
$UCSORG
 10
0.0
 20
0.0
 30
0.0
  9
$UCSXDIR
 10
1.0
 20
0.0
 30
0.0
  9
$UCSYDIR
 10
0.0
 20
1.0
 30
0.0
  9
$UCSORTHOREF
  2

  9
$UCSORTHOVIEW
 70
     0
  9
$UCSORGTOP
 10
0.0
 20
0.0
 30
0.0
  9
$UCSORGBOTTOM
 10
0.0
 20
0.0
 30
0.0
  9
$UCSORGLEFT
 10
0.0
 20
0.0
 30
0.0
  9
$UCSORGRIGHT
 10
0.0
 20
0.0
 30
0.0
  9
$UCSORGFRONT
 10
0.0
 20
0.0
 30
0.0
  9
$UCSORGBACK
 10
0.0
 20
0.0
 30
0.0
  9
$PUCSBASE
  2

  9
$PUCSNAME
  2

  9
$PUCSORG
 10
0.0
 20
0.0
 30
0.0
  9
$PUCSXDIR
 10
1.0
 20
0.0
 30
0.0
  9
$PUCSYDIR
 10
0.0
 20
1.0
 30
0.0
  9
$PUCSORTHOREF
  2

  9
$PUCSORTHOVIEW
 70
     0
  9
$PUCSORGTOP
 10
0.0
 20
0.0
 30
0.0
  9
$PUCSORGBOTTOM
 10
0.0
 20
0.0
 30
0.0
  9
$PUCSORGLEFT
 10
0.0
 20
0.0
 30
0.0
  9
$PUCSORGRIGHT
 10
0.0
 20
0.0
 30
0.0
  9
$PUCSORGFRONT
 10
0.0
 20
0.0
 30
0.0
  9
$PUCSORGBACK
 10
0.0
 20
0.0
 30
0.0
  9
$USERI1
 70
     0
  9
$USERI2
 70
     0
  9
$USERI3
 70
     0
  9
$USERI4
 70
     0
  9
$USERI5
 70
     0
  9
$USERR1
 40
0.0
  9
$USERR2
 40
0.0
  9
$USERR3
 40
0.0
  9
$USERR4
 40
0.0
  9
$USERR5
 40
0.0
  9
$WORLDVIEW
 70
     1
  9
$SHADEDGE
 70
     3
  9
$SHADEDIF
 70
    70
  9
$TILEMODE
 70
     1
  9
$MAXACTVP
 70
    64
  9
$PINSBASE
 10
0.0
 20
0.0
 30
0.0
  9
$PLIMCHECK
 70
     0
  9
$PEXTMIN
 10
0.0
 20
0.0
 30
0.0
  9
$PEXTMAX
 10
1682.0
 20
2378.0
 30
0.0
  9
$PLIMMIN
 10
0.0
 20
0.0
  9
$PLIMMAX
 10
1682.0
 20
2378.0
  9
$UNITMODE
 70
     0
  9
$VISRETAIN
 70
     1
  9
$PLINEGEN
 70
     0
  9
$PSLTSCALE
 70
     1
  9
$TREEDEPTH
 70
  3020
  9
$CMLSTYLE
  2
Standard
  9
$CMLJUST
 70
     0
  9
$CMLSCALE
 40
20.0
  9
$PROXYGRAPHICS
 70
     1
  9
$MEASUREMENT
 70
     1
  9
$CELWEIGHT
370
    -1
  9
$ENDCAPS
280
     0
  9
$JOINSTYLE
280
     0
  9
$LWDISPLAY
290
     0
  9
$INSUNITS
 70
     4
  9
$HYPERLINKBASE
  1

  9
$STYLESHEET
  1

  9
$XEDIT
290
     1
  9
$CEPSNTYPE
380
     0
  9
$PSTYLEMODE
290
     1
  9
$FINGERPRINTGUID
  2
{618FF6D2-8A73-4C8F-83B9-A1E12194062E}
  9
$VERSIONGUID
  2
{FAEB1C32-E019-11D5-929B-00C0DF256EC4}
  9
$EXTNAMES
290
     1
  9
$PSVPSCALE
 40
0.0
  9
$OLESTARTUP
290
     0
  0
ENDSEC
  0
SECTION
  2
CLASSES
  0
CLASS
  1
ACDBDICTIONARYWDFLT
  2
AcDbDictionaryWithDefault
  3
ObjectDBX Classes
 90
        0
280
     0
281
     0
  0
CLASS
  1
VISUALSTYLE
  2
AcDbVisualStyle
  3
ObjectDBX Classes
 90
     4095
280
     0
281
     0
  0
CLASS
  1
SCALE
  2
AcDbScale
  3
ObjectDBX Classes
 90
     1153
280
     0
281
     0
  0
CLASS
  1
DICTIONARYVAR
  2
AcDbDictionaryVar
  3
ObjectDBX Classes
 90
        0
280
     0
281
     0
  0
CLASS
  1
ACDBPLACEHOLDER
  2
AcDbPlaceHolder
  3
ObjectDBX Classes
 90
        0
280
     0
281
     0
  0
CLASS
  1
LAYOUT
  2
AcDbLayout
  3
ObjectDBX Classes
 90
        0
280
     0
281
     0
  0
ENDSEC
  0
SECTION
  2
TABLES
  0
TABLE
  2
VPORT
  5
8
330
0
100
AcDbSymbolTable
 70
     1
  0
VPORT
  5
29
330
8
100
AcDbSymbolTableRecord
100
AcDbViewportTableRecord
  2
*Active
 70
     0
 10
0.0
 20
0.0
 11
1.0
 21
1.0
 12
344.1869158879
 22
148.5
 13
0.0
 23
0.0
 14
10.0
 24
10.0
 15
10.0
 25
10.0
 16
0.0
 26
0.0
 36
1.0
 17
0.0
 27
0.0
 37
0.0
 40
297.0
 41
1.9729729729
 42
50.0
 43
0.0
 44
0.0
 50
0.0
 51
0.0
 71
     0
 72
   100
 73
     1
 74
     3
 75
     0
 76
     0
 77
     0
 78
     0
281
     0
 65
     1
110
0.0
120
0.0
130
0.0
111
1.0
121
0.0
131
0.0
112
0.0
122
1.0
132
0.0
 79
     0
146
0.0
  0
ENDTAB
  0
TABLE
  2
LTYPE
  5
5
330
0
100
AcDbSymbolTable
 70
     2
  0
LTYPE
  5
14
330
5
100
AcDbSymbolTableRecord
100
AcDbLinetypeTableRecord
  2
ByBlock
 70
     0
  3

 72
    65
 73
     0
 40
0.0
  0
LTYPE
  5
15
330
5
100
AcDbSymbolTableRecord
100
AcDbLinetypeTableRecord
  2
ByLayer
 70
     0
  3

 72
    65
 73
     0
 40
0.0
  0
LTYPE
  5
16
330
5
100
AcDbSymbolTableRecord
100
AcDbLinetypeTableRecord
  2
Continuous
 70
     0
  3
Solid line
 72
    65
 73
     0
 40
0.0
  0
LTYPE
  5
60
330
5
100
AcDbSymbolTableRecord
100
AcDbLinetypeTableRecord
  2
CENTER2
 70
     0
  3
Center (.5x) ___ _ ___ _ ___ _ ___ _ ___ _ ___
 72
    65
 73
     4
 40
28.575
 49
19.05
 74
     4
 75
     0
340
0
 46
0.0
 50
0.0
 44
0.0
 45
0.0
 49
-3.175
 74
     4
 75
     0
340
0
 46
0.0
 50
0.0
 44
0.0
 45
0.0
 49
3.175
 74
     4
 75
     0
340
0
 46
0.0
 50
0.0
 44
0.0
 45
0.0
 49
-3.175
 74
     4
 75
     0
340
0
 46
0.0
 50
0.0
 44
0.0
 45
0.0
  0
ENDTAB
  0
TABLE
  2
LAYER
  5
2
330
0
100
AcDbSymbolTable
 70
    13
  0
LAYER
  5
10
330
2
100
AcDbSymbolTableRecord
100
AcDbLayerTableRecord
  2
0
 70
     0
 62
     7
  6
Continuous
370
    -3
390
F
  0
LAYER
  5
5D
330
2
100
AcDbSymbolTableRecord
100
AcDbLayerTableRecord
  2
Default
 70
     0
 62
     7
  6
Continuous
370
    -3
390
F
  0
LAYER
  5
97
330
2
100
AcDbSymbolTableRecord
100
AcDbLayerTableRecord
  2
410143038_ESSENC
 70
     0
 62
     7
  6
Continuous
370
    -3
390
F
  0
LAYER
  5
D8
330
2
100
AcDbSymbolTableRecord
100
AcDbLayerTableRecord
  2
A4227427_ROSETTE
 70
     0
 62
     7
  6
Continuous
370
    -3
390
F
  0
LAYER
  5
E5
330
2
100
AcDbSymbolTableRecord
100
AcDbLayerTableRecord
  2
410187038_ESSENC
 70
     0
 62
     7
  6
Continuous
370
    -3
390
F
  0
LAYER
  5
EC
330
2
100
AcDbSymbolTableRecord
100
AcDbLayerTableRecord
  2
02559031_RING_GL
 70
     0
 62
     7
  6
Continuous
370
    -3
390
F
  0
LAYER
  5
F1
330
2
100
AcDbSymbolTableRecord
100
AcDbLayerTableRecord
  2
$DDT_AUDIT_GENERATED_(F1)
 70
     0
 62
     7
  6
Continuous
370
    -3
390
F
  0
LAYER
  5
F4
330
2
100
AcDbSymbolTableRecord
100
AcDbLayerTableRecord
  2
410203038_ESSENC
 70
     0
 62
     7
  6
Continuous
370
    -3
390
F
  0
LAYER
  5
F9
330
2
100
AcDbSymbolTableRecord
100
AcDbLayerTableRecord
  2
A4225301_NIPPEL_
 70
     0
 62
     7
  6
Continuous
370
    -3
390
F
  0
LAYER
  5
116
330
2
100
AcDbSymbolTableRecord
100
AcDbLayerTableRecord
  2
A4223854_STANGE_
 70
     0
 62
     7
  6
Continuous
370
    -3
390
F
  0
LAYER
  5
121
330
2
100
AcDbSymbolTableRecord
100
AcDbLayerTableRecord
  2
A4222392_MOUSSEU
 70
     0
 62
     7
  6
Continuous
370
    -3
390
F
  0
LAYER
  5
13D
330
2
100
AcDbSymbolTableRecord
100
AcDbLayerTableRecord
  2
DV2_Standard
 70
     0
 62
     7
  6
Continuous
370
    -3
390
F
  0
LAYER
  5
17A
330
2
100
AcDbSymbolTableRecord
100
AcDbLayerTableRecord
  2
DV3_Standard
 70
     0
 62
     7
  6
Continuous
370
    -3
390
F
  0
ENDTAB
  0
TABLE
  2
STYLE
  5
3
330
0
100
AcDbSymbolTable
 70
     2
  0
STYLE
  5
11
330
3
100
AcDbSymbolTableRecord
100
AcDbTextStyleTableRecord
  2
Standard
 70
     0
 40
0.0
 41
1.0
 50
0.0
 71
     0
 42
2.5
  3
txt
  4

  0
STYLE
  5
17F
330
3
100
AcDbSymbolTableRecord
100
AcDbTextStyleTableRecord
  2
SEACAD_seiso_ttf
 70
     0
 40
0.0
 41
1.0
 50
0.0
 71
     0
 42
0.2
  3
seiso.ttf
  4

  0
ENDTAB
  0
TABLE
  2
VIEW
  5
6
330
0
100
AcDbSymbolTable
 70
     0
  0
ENDTAB
  0
TABLE
  2
UCS
  5
7
330
0
100
AcDbSymbolTable
 70
     0
  0
ENDTAB
  0
TABLE
  2
APPID
  5
9
330
0
100
AcDbSymbolTable
 70
     1
  0
APPID
  5
12
330
9
100
AcDbSymbolTableRecord
100
AcDbRegAppTableRecord
  2
ACAD
 70
     0
  0
ENDTAB
  0
TABLE
  2
DIMSTYLE
  5
A
330
0
100
AcDbSymbolTable
 70
     1
100
AcDbDimStyleTable
  0
DIMSTYLE
105
27
330
A
100
AcDbSymbolTableRecord
100
AcDbDimStyleTableRecord
  2
ISO-25
 70
     0
 41
2.5
 42
0.625
 43
3.75
 44
1.25
 73
     0
 74
     0
 77
     1
 78
     8
140
2.5
141
2.5
143
0.0393700787
147
0.625
171
     3
172
     1
271
     2
272
     2
274
     3
278
    44
283
     0
284
     8
340
11
  0
ENDTAB
  0
TABLE
  2
BLOCK_RECORD
  5
1
330
0
100
AcDbSymbolTable
 70
    11
  0
BLOCK_RECORD
  5
1F
330
1
100
AcDbSymbolTableRecord
100
AcDbBlockTableRecord
  2
*Model_Space
340
22
  0
BLOCK_RECORD
  5
1B
330
1
100
AcDbSymbolTableRecord
100
AcDbBlockTableRecord
  2
*Paper_Space
340
1E
  0
BLOCK_RECORD
  5
5E
330
1
100
AcDbSymbolTableRecord
100
AcDbBlockTableRecord
  2
SEANNOT_GROUP
340
0
102
{BLKREFS
331
5F
102
}
  0
BLOCK_RECORD
  5
65
330
1
100
AcDbSymbolTableRecord
100
AcDbBlockTableRecord
  2
SEANNOT_GROUP1
340
0
102
{BLKREFS
331
66
102
}
  0
BLOCK_RECORD
  5
6B
330
1
100
AcDbSymbolTableRecord
100
AcDbBlockTableRecord
  2
SEANNOT_GROUP2
340
0
102
{BLKREFS
331
6C
102
}
  0
BLOCK_RECORD
  5
71
330
1
100
AcDbSymbolTableRecord
100
AcDbBlockTableRecord
  2
SEANNOT_GROUP3
340
0
102
{BLKREFS
331
72
102
}
  0
BLOCK_RECORD
  5
77
330
1
100
AcDbSymbolTableRecord
100
AcDbBlockTableRecord
  2
SEANNOT_GROUP4
340
0
102
{BLKREFS
331
78
102
}
  0
BLOCK_RECORD
  5
81
330
1
100
AcDbSymbolTableRecord
100
AcDbBlockTableRecord
  2
SEANNOT_GROUP5
340
0
102
{BLKREFS
331
82
102
}
  0
BLOCK_RECORD
  5
8B
330
1
100
AcDbSymbolTableRecord
100
AcDbBlockTableRecord
  2
SEANNOT_GROUP6
340
0
102
{BLKREFS
331
8C
102
}
  0
BLOCK_RECORD
  5
95
330
1
100
AcDbSymbolTableRecord
100
AcDbBlockTableRecord
  2
SE
340
0
102
{BLKREFS
331
96
102
}
  0
BLOCK_RECORD
  5
FD
330
1
100
AcDbSymbolTableRecord
100
AcDbBlockTableRecord
  2
SE1
340
0
102
{BLKREFS
331
FE
102
}
  0
BLOCK_RECORD
  5
142
330
1
100
AcDbSymbolTableRecord
100
AcDbBlockTableRecord
  2
SE2
340
0
102
{BLKREFS
331
143
102
}
  0
ENDTAB
  0
ENDSEC
  0
SECTION
  2
BLOCKS
  0
BLOCK
  5
20
330
1F
100
AcDbEntity
  8
0
100
AcDbBlockBegin
  2
*Model_Space
 70
     0
 10
0.0
 20
0.0
 30
0.0
  3
*Model_Space
  1

  0
ENDBLK
  5
21
330
1F
100
AcDbEntity
  8
0
100
AcDbBlockEnd
  0
BLOCK
  5
1C
330
1B
100
AcDbEntity
 67
     1
  8
0
100
AcDbBlockBegin
  2
*Paper_Space
 70
     0
 10
0.0
 20
0.0
 30
0.0
  3
*Paper_Space
  1

  0
ENDBLK
  5
1D
330
1B
100
AcDbEntity
 67
     1
  8
0
100
AcDbBlockEnd
  0
BLOCK
  5
63
330
5E
100
AcDbEntity
  8
0
100
AcDbBlockBegin
  2
SEANNOT_GROUP
 70
     0
 10
0.0
 20
0.0
 30
0.0
  3
SEANNOT_GROUP
  1

  0
LINE
  5
61
330
5E
100
AcDbEntity
  8
Default
  6
CENTER2
 62
     7
100
AcDbLine
 10
91.3477883972
 20
412.9178734621
 30
0.0
 11
51.3477892913
 21
412.9178734621
 31
0.0
  0
LINE
  5
62
330
5E
100
AcDbEntity
  8
Default
  6
CENTER2
 62
     7
100
AcDbLine
 10
71.3477888442
 20
432.9178730151
 30
0.0
 11
71.3477888442
 21
392.9178739092
 31
0.0
  0
ENDBLK
  5
64
330
5E
100
AcDbEntity
  8
0
100
AcDbBlockEnd
  0
BLOCK
  5
69
330
65
100
AcDbEntity
  8
0
100
AcDbBlockBegin
  2
SEANNOT_GROUP1
 70
     0
 10
0.0
 20
0.0
 30
0.0
  3
SEANNOT_GROUP1
  1

  0
LINE
  5
67
330
65
100
AcDbEntity
  8
Default
  6
CENTER2
 62
     7
100
AcDbLine
 10
203.3634150772
 20
412.9178734621
 30
0.0
 11
163.3634159712
 21
412.9178734621
 31
0.0
  0
LINE
  5
68
330
65
100
AcDbEntity
  8
Default
  6
CENTER2
 62
     7
100
AcDbLine
 10
183.3634155242
 20
432.9178730151
 30
0.0
 11
183.3634155242
 21
392.9178739092
 31
0.0
  0
ENDBLK
  5
6A
330
65
100
AcDbEntity
  8
0
100
AcDbBlockEnd
  0
BLOCK
  5
6F
330
6B
100
AcDbEntity
  8
0
100
AcDbBlockBegin
  2
SEANNOT_GROUP2
 70
     0
 10
0.0
 20
0.0
 30
0.0
  3
SEANNOT_GROUP2
  1

  0
LINE
  5
6D
330
6B
100
AcDbEntity
  8
Default
  6
CENTER2
 62
     7
100
AcDbLine
 10
305.3477883972
 20
412.9178734621
 30
0.0
 11
265.3477892913
 21
412.9178734621
 31
0.0
  0
LINE
  5
6E
330
6B
100
AcDbEntity
  8
Default
  6
CENTER2
 62
     7
100
AcDbLine
 10
285.3477888442
 20
432.9178730151
 30
0.0
 11
285.3477888442
 21
392.9178739092
 31
0.0
  0
ENDBLK
  5
70
330
6B
100
AcDbEntity
  8
0
100
AcDbBlockEnd
  0
BLOCK
  5
75
330
71
100
AcDbEntity
  8
0
100
AcDbBlockBegin
  2
SEANNOT_GROUP3
 70
     0
 10
0.0
 20
0.0
 30
0.0
  3
SEANNOT_GROUP3
  1

  0
LINE
  5
73
330
71
100
AcDbEntity
  8
Default
  6
CENTER2
 62
     7
100
AcDbLine
 10
467.7981288089
 20
412.9178734621
 30
0.0
 11
427.798129703
 21
412.9178734621
 31
0.0
  0
LINE
  5
74
330
71
100
AcDbEntity
  8
Default
  6
CENTER2
 62
     7
100
AcDbLine
 10
447.798129256
 20
432.9178730151
 30
0.0
 11
447.798129256
 21
392.9178739092
 31
0.0
  0
ENDBLK
  5
76
330
71
100
AcDbEntity
  8
0
100
AcDbBlockEnd
  0
BLOCK
  5
7F
330
77
100
AcDbEntity
  8
0
100
AcDbBlockBegin
  2
SEANNOT_GROUP4
 70
     0
 10
0.0
 20
0.0
 30
0.0
  3
SEANNOT_GROUP4
  1

  0
LINE
  5
79
330
77
100
AcDbEntity
  8
Default
  6
CENTER2
 62
     7
100
AcDbLine
 10
91.2928998121
 20
266.3534268293
 30
0.0
 11
51.2929007062
 21
266.3534268293
 31
0.0
  0
LINE
  5
7A
330
77
100
AcDbEntity
  8
Default
  6
CENTER2
 62
     7
100
AcDbLine
 10
71.2929002592
 20
286.3534263823
 30
0.0
 11
71.2929002592
 21
246.3534272763
 31
0.0
  0
LINE
  5
7B
330
77
100
AcDbEntity
  8
Default
  6
CENTER2
 62
     7
100
AcDbLine
 10
96.2928997004
 20
266.3534268293
 30
0.0
 11
102.3507035063
 21
266.3534268293
 31
0.0
  0
LINE
  5
7C
330
77
100
AcDbEntity
  8
Default
  6
CENTER2
 62
     7
100
AcDbLine
 10
71.2929002592
 20
291.3534262705
 30
0.0
 11
71.2929002592
 21
297.4112300764
 31
0.0
  0
LINE
  5
7D
330
77
100
AcDbEntity
  8
Default
  6
CENTER2
 62
     7
100
AcDbLine
 10
46.292900818
 20
266.3534268293
 30
0.0
 11
40.2350970121
 21
266.3534268293
 31
0.0
  0
LINE
  5
7E
330
77
100
AcDbEntity
  8
Default
  6
CENTER2
 62
     7
100
AcDbLine
 10
71.2929002592
 20
241.3534273881
 30
0.0
 11
71.2929002592
 21
235.2956235822
 31
0.0
  0
ENDBLK
  5
80
330
77
100
AcDbEntity
  8
0
100
AcDbBlockEnd
  0
BLOCK
  5
89
330
81
100
AcDbEntity
  8
0
100
AcDbBlockBegin
  2
SEANNOT_GROUP5
 70
     0
 10
0.0
 20
0.0
 30
0.0
  3
SEANNOT_GROUP5
  1

  0
LINE
  5
83
330
81
100
AcDbEntity
  8
Default
  6
CENTER2
 62
     7
100
AcDbLine
 10
203.3456396888
 20
266.3742075503
 30
0.0
 11
163.3456405829
 21
266.3742075503
 31
0.0
  0
LINE
  5
84
330
81
100
AcDbEntity
  8
Default
  6
CENTER2
 62
     7
100
AcDbLine
 10
183.3456401359
 20
286.3742071033
 30
0.0
 11
183.3456401359
 21
246.3742079974
 31
0.0
  0
LINE
  5
85
330
81
100
AcDbEntity
  8
Default
  6
CENTER2
 62
     7
100
AcDbLine
 10
208.3456395771
 20
266.3742075503
 30
0.0
 11
214.3072688361
 21
266.3742075503
 31
0.0
  0
LINE
  5
86
330
81
100
AcDbEntity
  8
Default
  6
CENTER2
 62
     7
100
AcDbLine
 10
183.3456401359
 20
291.3742069915
 30
0.0
 11
183.3456401359
 21
297.3358362506
 31
0.0
  0
LINE
  5
87
330
81
100
AcDbEntity
  8
Default
  6
CENTER2
 62
     7
100
AcDbLine
 10
158.3456406946
 20
266.3742075503
 30
0.0
 11
152.3840114356
 21
266.3742075503
 31
0.0
  0
LINE
  5
88
330
81
100
AcDbEntity
  8
Default
  6
CENTER2
 62
     7
100
AcDbLine
 10
183.3456401359
 20
241.3742081091
 30
0.0
 11
183.3456401359
 21
235.4125788501
 31
0.0
  0
ENDBLK
  5
8A
330
81
100
AcDbEntity
  8
0
100
AcDbBlockEnd
  0
BLOCK
  5
93
330
8B
100
AcDbEntity
  8
0
100
AcDbBlockBegin
  2
SEANNOT_GROUP6
 70
     0
 10
0.0
 20
0.0
 30
0.0
  3
SEANNOT_GROUP6
  1

  0
LINE
  5
8D
330
8B
100
AcDbEntity
  8
Default
  6
CENTER2
 62
     7
100
AcDbLine
 10
305.3502540583
 20
266.4479684807
 30
0.0
 11
265.3502549524
 21
266.4479684807
 31
0.0
  0
LINE
  5
8E
330
8B
100
AcDbEntity
  8
Default
  6
CENTER2
 62
     7
100
AcDbLine
 10
285.3502545053
 20
286.4479680337
 30
0.0
 11
285.3502545053
 21
246.4479689277
 31
0.0
  0
LINE
  5
8F
330
8B
100
AcDbEntity
  8
Default
  6
CENTER2
 62
     7
100
AcDbLine
 10
310.3502539466
 20
266.4479684807
 30
0.0
 11
316.2333339984
 21
266.4479684807
 31
0.0
  0
LINE
  5
90
330
8B
100
AcDbEntity
  8
Default
  6
CENTER2
 62
     7
100
AcDbLine
 10
285.3502545053
 20
291.4479679219
 30
0.0
 11
285.3502545053
 21
297.3310479737
 31
0.0
  0
LINE
  5
91
330
8B
100
AcDbEntity
  8
Default
  6
CENTER2
 62
     7
100
AcDbLine
 10
260.3502550641
 20
266.4479684807
 30
0.0
 11
254.4671750123
 21
266.4479684807
 31
0.0
  0
LINE
  5
92
330
8B
100
AcDbEntity
  8
Default
  6
CENTER2
 62
     7
100
AcDbLine
 10
285.3502545053
 20
241.4479690395
 30
0.0
 11
285.3502545053
 21
235.5648889877
 31
0.0
  0
ENDBLK
  5
94
330
8B
100
AcDbEntity
  8
0
100
AcDbBlockEnd
  0
BLOCK
  5
FB
330
95
100
AcDbEntity
  8
0
100
AcDbBlockBegin
  2
SE
 70
     0
 10
0.0
 20
0.0
 30
0.0
  3
SE
  1

  0
LINE
  5
98
330
95
100
AcDbEntity
  8
410143038_ESSENC
  6
Continuous
 62
     7
100
AcDbLine
 10
86.3499684941
 20
457.0153002218
 30
0.0
 11
56.3499684942
 21
457.0153002218
 31
0.0
  0
ARC
  5
99
330
95
100
AcDbEntity
  8
410143038_ESSENC
  6
Continuous
 62
     7
100
AcDbCircle
 10
56.3493715245
 20
456.0158971914
 30
0.0
 40
0.9994032086578654
100
AcDbArc
 50
89.9657757259
 51
112.8808130235
  0
LINE
  5
9A
330
95
100
AcDbEntity
  8
410143038_ESSENC
  6
Continuous
 62
     7
100
AcDbLine
 10
55.6669107671
 20
456.0153002218
 30
0.0
 11
55.3499684941
 21
456.0153002218
 31
0.0
  0
SPLINE
  5
9B
330
95
100
AcDbEntity
  8
410143038_ESSENC
  6
Continuous
 62
     7
100
AcDbSpline
210
0.0
220
0.0
230
1.0
 70
     8
 71
     3
 72
     8
 73
     4
 74
     0
 42
0.0000000057546191
 43
0.0000000001
 40
0.0
 40
0.0
 40
0.0
 40
0.0
 40
1.0
 40
1.0
 40
1.0
 40
1.0
 10
86.34996849409359
 20
457.015300221814
 30
0.0
 10
86.90225324392114
 20
457.015300221814
 30
0.0
 10
87.34996849409013
 20
456.5675849716451
 30
0.0
 10
87.34996849409013
 20
456.0153002218145
 30
0.0
  0
LINE
  5
9C
330
95
100
AcDbEntity
  8
410143038_ESSENC
  6
Continuous
 62
     7
100
AcDbLine
 10
87.3499684941
 20
456.0153002218
 30
0.0
 11
87.3499684941
 21
419.4678734621
 31
0.0
  0
LINE
  5
9D
330
95
100
AcDbEntity
  8
410143038_ESSENC
  6
Continuous
 62
     7
100
AcDbLine
 10
55.3499684941
 20
453.514529994
 30
0.0
 11
55.3499684941
 21
456.0153002218
 31
0.0
  0
ARC
  5
9E
330
95
100
AcDbEntity
  8
410143038_ESSENC
  6
Continuous
 62
     7
100
AcDbCircle
 10
38.9846256782
 20
448.1741177551
 30
0.0
 40
17.21475549858392
100
AcDbArc
 50
0.30364778
 51
18.0726670503
  0
ARC
  5
9F
330
95
100
AcDbEntity
  8
410143038_ESSENC
  6
Continuous
 62
     7
100
AcDbCircle
 10
39.0024964134
 20
448.3531267729
 30
0.0
 40
17.19686703435347
100
AcDbArc
 50
341.9169457916
 51
359.7075464254
  0
LINE
  5
A0
330
95
100
AcDbEntity
  8
410143038_ESSENC
  6
Continuous
 62
     7
100
AcDbLine
 10
55.3499684941
 20
419.4678734621
 30
0.0
 11
55.3499684941
 21
443.0153002144
 31
0.0
  0
SPLINE
  5
A1
330
95
100
AcDbEntity
  8
410143038_ESSENC
  6
Continuous
 62
     7
100
AcDbSpline
210
0.0
220
0.0
230
1.0
 70
     8
 71
     3
 72
     8
 73
     4
 74
     0
 42
0.0000000230184764
 43
0.0000000001
 40
0.0
 40
0.0
 40
0.0
 40
0.0
 40
1.0
 40
1.0
 40
1.0
 40
1.0
 10
87.34996849409013
 20
419.4678734621372
 30
0.0
 10
87.34996849409013
 20
419.3298022746701
 30
0.0
 10
87.23803968154814
 20
419.2178734621281
 30
0.0
 10
87.09996849409539
 20
419.2178734621281
 30
0.0
  0
ARC
  5
A2
330
95
100
AcDbEntity
  8
410143038_ESSENC
  6
Continuous
 62
     7
100
AcDbCircle
 10
55.5998192516
 20
419.4677242196
 30
0.0
 40
0.2498508020662393
100
AcDbArc
 50
179.965775708
 51
270.0342242076
  0
LINE
  5
A3
330
95
100
AcDbEntity
  8
410143038_ESSENC
  6
Continuous
 62
     7
100
AcDbLine
 10
87.0999684941
 20
419.2178734621
 30
0.0
 11
55.5999684937
 21
419.2178734621
 31
0.0
  0
SPLINE
  5
A4
330
95
100
AcDbEntity
  8
410143038_ESSENC
  6
Continuous
 62
     7
100
AcDbSpline
210
0.0
220
0.0
230
1.0
 70
     8
 71
     5
 72
    12
 73
     6
 74
     0
 42
0.0000000121124514
 43
0.0000000001
 40
0.0
 40
0.0
 40
0.0
 40
0.0
 40
0.0
 40
0.0
 40
1.0
 40
1.0
 40
1.0
 40
1.0
 40
1.0
 40
1.0
 10
54.85018338685862
 20
453.015346819798
 30
0.0
 10
55.01134834480317
 20
453.0153984775521
 30
0.0
 10
55.16584652110917
 20
453.080254162119
 30
0.0
 10
55.28513311049218
 20
453.1993453897281
 30
0.0
 10
55.35011954212015
 20
453.3536080308811
 30
0.0
 10
55.35007110127707
 20
453.5145300031257
 30
0.0
  0
SPLINE
  5
A5
330
95
100
AcDbEntity
  8
410143038_ESSENC
  6
Continuous
 62
     7
100
AcDbSpline
210
0.0
220
0.0
230
1.0
 70
     8
 71
     5
 72
    12
 73
     6
 74
     0
 42
0.0000000121008864
 43
0.0000000001
 40
0.0
 40
0.0
 40
0.0
 40
0.0
 40
0.0
 40
0.0
 40
1.0
 40
1.0
 40
1.0
 40
1.0
 40
1.0
 40
1.0
 10
55.34996849409013
 20
443.0153002143614
 30
0.0
 10
55.34996849409013
 20
443.1765035121331
 30
0.0
 10
55.28500223702912
 20
443.3310356773761
 30
0.0
 10
55.16570394965212
 20
443.4503339647531
 30
0.0
 10
55.01117178440912
 20
443.5153002218141
 30
0.0
 10
54.84996848662588
 20
443.5153002218141
 30
0.0
  0
LINE
  5
A6
330
95
100
AcDbEntity
  8
410143038_ESSENC
  6
Continuous
 62
     7
100
AcDbLine
 10
6.8500000076
 20
453.0153002218
 30
0.0
 11
54.8501833943
 21
453.0153002218
 31
0.0
  0
LINE
  5
A7
330
95
100
AcDbEntity
  8
410143038_ESSENC
  6
Continuous
 62
     7
100
AcDbLine
 10
11.6339026566
 20
443.5153002218
 30
0.0
 11
6.8500000076
 21
443.5153002218
 31
0.0
  0
SPLINE
  5
A8
330
95
100
AcDbEntity
  8
410143038_ESSENC
  6
Continuous
 62
     7
100
AcDbSpline
210
0.0
220
0.0
230
1.0
 70
     8
 71
     3
 72
    12
 73
     8
 74
     0
 42
0.0000000012140082
 43
0.0000000001
 40
0.8948957762181189
 40
0.8948957762181189
 40
0.8948957762181189
 40
0.8948957762181189
 40
0.9058756481130893
 40
0.9527390077361979
 40
0.9683997641105917
 40
0.9841959017959392
 40
1.0
 40
1.0
 40
1.0
 40
1.0
 10
12.4444405070798
 20
443.8194883233165
 30
0.0
 10
12.39874793192405
 20
443.8023571887757
 30
0.0
 10
12.16295058779837
 20
443.7139445358462
 30
0.0
 10
11.90009489752314
 20
443.6153062737694
 30
0.0
 10
11.72211935536618
 20
443.5483642587904
 30
0.0
 10
11.64909400707415
 20
443.5208493567732
 30
0.0
 10
11.63896754587659
 20
443.5170598844243
 30
0.0
 10
11.63390281090773
 20
443.515232487646
 30
0.0
  0
LINE
  5
A9
330
95
100
AcDbEntity
  8
410143038_ESSENC
  6
Continuous
 62
     7
100
AcDbLine
 10
54.8499684866
 20
443.5153002218
 30
0.0
 11
24.1465009945
 21
443.5153002218
 31
0.0
  0
LINE
  5
AA
330
95
100
AcDbEntity
  8
410143038_ESSENC
  6
Continuous
 62
     7
100
AcDbLine
 10
6.3500000001
 20
444.0153002293
 30
0.0
 11
6.3500000001
 21
452.5152205708
 31
0.0
  0
SPLINE
  5
AB
330
95
100
AcDbEntity
  8
410143038_ESSENC
  6
Continuous
 62
     7
100
AcDbSpline
210
0.0
220
0.0
230
1.0
 70
     8
 71
     5
 72
    12
 73
     6
 74
     0
 42
0.0000000121008863
 43
0.0000000001
 40
0.0
 40
0.0
 40
0.0
 40
0.0
 40
0.0
 40
0.0
 40
1.0
 40
1.0
 40
1.0
 40
1.0
 40
1.0
 40
1.0
 10
6.850000014993612
 20
443.5153002218141
 30
0.0
 10
6.688796709824141
 20
443.5153002218141
 30
0.0
 10
6.534264544581142
 20
443.5802664788761
 30
0.0
 10
6.41496625720514
 20
443.699564766252
 30
0.0
 10
6.35000000014313
 20
443.854096931495
 30
0.0
 10
6.35000000014313
 20
444.0153002292651
 30
0.0
  0
SPLINE
  5
AC
330
95
100
AcDbEntity
  8
410143038_ESSENC
  6
Continuous
 62
     7
100
AcDbSpline
210
0.0
220
0.0
230
1.0
 70
     8
 71
     5
 72
    12
 73
     6
 74
     0
 42
0.0000000121019828
 43
0.0000000001
 40
0.0
 40
0.0
 40
0.0
 40
0.0
 40
0.0
 40
0.0
 40
1.0
 40
1.0
 40
1.0
 40
1.0
 40
1.0
 40
1.0
 10
6.35000000014313
 20
452.5152205708201
 30
0.0
 10
6.35000000014313
 20
452.6763946496931
 30
0.0
 10
6.41496625720614
 20
452.830898805215
 30
0.0
 10
6.534264544581142
 20
452.950175469185
 30
0.0
 10
6.688796709824141
 20
453.015129950791
 30
0.0
 10
6.850000007594225
 20
453.0152150864976
 30
0.0
  0
ARC
  5
AD
330
95
100
AcDbEntity
  8
410143038_ESSENC
  6
Continuous
 62
     7
100
AcDbCircle
 10
11.6343503381
 20
444.0135121074
 30
0.0
 40
0.4982798207515632
100
AcDbArc
 50
269.948540115
 51
288.6067778986
  0
LINE
  5
AE
330
95
100
AcDbEntity
  8
410143038_ESSENC
  6
Continuous
 62
     7
100
AcDbLine
 10
18.8838273011
 20
445.926738172
 30
0.0
 11
11.9005421158
 21
443.5773441054
 31
0.0
  0
SPLINE
  5
AF
330
95
100
AcDbEntity
  8
410143038_ESSENC
  6
Continuous
 62
     7
100
AcDbSpline
210
0.0
220
0.0
230
1.0
 70
     8
 71
     3
 72
    19
 73
    15
 74
     0
 42
0.0000000024188107
 43
0.0000000001
 40
0.0
 40
0.0
 40
0.0
 40
0.0
 40
0.0627275700096205
 40
0.1249684756910429
 40
0.2499432328796057
 40
0.3789328446898853
 40
0.4383763430185948
 40
0.4998941692577677
 40
0.5721709054617312
 40
0.6488699900149917
 40
0.7501100133809308
 40
0.8750205480706763
 40
0.9318048480318072
 40
1.0
 40
1.0
 40
1.0
 40
1.0
 10
22.57085648220134
 20
444.9842430250142
 30
0.0
 10
22.52035449531562
 20
445.0382711745375
 30
0.0
 10
22.4197523158641
 20
445.1459174892638
 30
0.0
 10
22.20233451188957
 20
445.3643094506089
 30
0.0
 10
21.90052417912669
 20
445.6398221275992
 30
0.0
 10
21.5525157828336
 20
445.8879378005651
 30
0.0
 10
21.23905864541206
 20
446.0440798447409
 30
0.0
 10
20.98026359962979
 20
446.1370119353472
 30
0.0
 10
20.68502423973748
 20
446.2046156417541
 30
0.0
 10
20.32394087725983
 20
446.2337231981331
 30
0.0
 10
19.88678358055473
 20
446.1979778314989
 30
0.0
 10
19.48922642116754
 20
446.1099943301147
 30
0.0
 10
19.14555516964814
 20
446.0125334886516
 30
0.0
 10
18.97622437954513
 20
445.9570228536621
 30
0.0
 10
18.88382730112073
 20
445.9267381720209
 30
0.0
  0
LINE
  5
B0
330
95
100
AcDbEntity
  8
410143038_ESSENC
  6
Continuous
 62
     7
100
AcDbLine
 10
23.7792099774
 20
443.6760402791
 30
0.0
 11
22.5708564822
 21
444.984243025
 31
0.0
  0
SPLINE
  5
B1
330
95
100
AcDbEntity
  8
410143038_ESSENC
  6
Continuous
 62
     7
100
AcDbSpline
210
0.0
220
0.0
230
1.0
 70
     8
 71
     3
 72
     8
 73
     4
 74
     0
 42
0.0000000235666945
 43
0.0000000001
 40
0.0
 40
0.0
 40
0.0
 40
0.0
 40
1.0
 40
1.0
 40
1.0
 40
1.0
 10
24.14650099451474
 20
443.5153002218141
 30
0.0
 10
24.00700874929643
 20
443.5153002218141
 30
0.0
 10
23.87385823970442
 20
443.5735717817959
 30
0.0
 10
23.77920997743632
 20
443.6760402790527
 30
0.0
  0
LINE
  5
B2
330
95
100
AcDbEntity
  8
410143038_ESSENC
  6
Continuous
 62
     7
100
AcDbLine
 10
11.7933371905
 20
443.5412770383
 30
0.0
 11
12.0445891624
 21
443.6258060094
 31
0.0
  0
SPLINE
  5
B3
330
95
100
AcDbEntity
  8
410143038_ESSENC
  6
Continuous
 62
     7
100
AcDbSpline
210
0.0
220
0.0
230
1.0
 70
     8
 71
     3
 72
     8
 73
     4
 74
     0
 42
0.0000000081965716
 43
0.0000000001
 40
0.0
 40
0.0
 40
0.0
 40
0.0
 40
1.0
 40
1.0
 40
1.0
 40
1.0
 10
55.96076014297058
 20
456.9367308195565
 30
0.0
 10
55.57680544185676
 20
456.757498942916
 30
0.0
 10
55.47875551761117
 20
456.4503554103351
 30
0.0
 10
55.66661037023376
 20
456.015300221814
 30
0.0
  0
ARC
  5
B4
330
95
100
AcDbEntity
  8
410143038_ESSENC
  6
Continuous
 62
     7
100
AcDbCircle
 10
55.5867728618
 20
419.4392158893
 30
0.0
 40
0.2185334718640477
100
AcDbArc
 50
172.4647662851
 51
247.3717773445
  0
ARC
  5
B5
330
95
100
AcDbEntity
  8
410143038_ESSENC
  6
Continuous
 62
     7
100
AcDbCircle
 10
54.9326620638
 20
443.8395592483
 30
0.0
 40
0.3283974151601572
100
AcDbArc
 50
255.804953733
 51
264.3471553124
  0
LINE
  5
B6
330
95
100
AcDbEntity
  8
410143038_ESSENC
  6
Continuous
 62
     7
100
AcDbLine
 10
23.1405235907
 20
444.3685901892
 30
0.0
 11
23.5585264579
 21
443.9149584384
 31
0.0
  0
ARC
  5
B7
330
95
100
AcDbEntity
  8
410143038_ESSENC
  6
Continuous
 62
     7
100
AcDbCircle
 10
-115.1272285589
 20
317.0525600656
 30
0.0
 40
187.9556937444427
100
AcDbArc
 50
42.6386655127
 51
42.8246920306
  0
LINE
  5
B8
330
95
100
AcDbEntity
  8
410143038_ESSENC
  6
Continuous
 62
     7
100
AcDbLine
 10
17.5846749614
 20
445.4896573949
 30
0.0
 11
18.631126591
 21
445.8123297966
 31
0.0
  0
LINE
  5
B9
330
95
100
AcDbEntity
  8
410143038_ESSENC
  6
Continuous
 62
     7
100
AcDbLine
 10
300.3500048351
 20
457.0153002218
 30
0.0
 11
270.3500048352
 21
457.0153002218
 31
0.0
  0
ARC
  5
BA
330
95
100
AcDbEntity
  8
410143038_ESSENC
  6
Continuous
 62
     7
100
AcDbCircle
 10
300.3506018049
 20
456.0158971914
 30
0.0
 40
0.9994032086578449
100
AcDbArc
 50
359.9657757327
 51
90.0342242741
  0
SPLINE
  5
BB
330
95
100
AcDbEntity
  8
410143038_ESSENC
  6
Continuous
 62
     7
100
AcDbSpline
210
0.0
220
0.0
230
1.0
 70
     8
 71
     3
 72
     8
 73
     4
 74
     0
 42
0.0000000057546191
 43
0.0000000001
 40
0.0
 40
0.0
 40
0.0
 40
0.0
 40
1.0
 40
1.0
 40
1.0
 40
1.0
 10
270.3500048352287
 20
457.0153002218141
 30
0.0
 10
269.7977200854012
 20
457.0153002218141
 30
0.0
 10
269.3500048352322
 20
456.5675849716451
 30
0.0
 10
269.3500048352322
 20
456.0153002218145
 30
0.0
  0
LINE
  5
BC
330
95
100
AcDbEntity
  8
410143038_ESSENC
  6
Continuous
 62
     7
100
AcDbLine
 10
269.3500048352
 20
456.0153002218
 30
0.0
 11
269.3500048352
 21
419.4678734621
 31
0.0
  0
LINE
  5
BD
330
95
100
AcDbEntity
  8
410143038_ESSENC
  6
Continuous
 62
     7
100
AcDbLine
 10
301.3500048352
 20
453.514529994
 30
0.0
 11
301.3500048352
 21
456.0153002218
 31
0.0
  0
LINE
  5
BE
330
95
100
AcDbEntity
  8
410143038_ESSENC
  6
Continuous
 62
     7
100
AcDbLine
 10
301.3500048352
 20
419.4678734621
 30
0.0
 11
301.3500048352
 21
443.0153002144
 31
0.0
  0
LINE
  5
BF
330
95
100
AcDbEntity
  8
410143038_ESSENC
  6
Continuous
 62
     7
100
AcDbLine
 10
301.3500048352
 20
419.4678734621
 30
0.0
 11
301.3331464775
 21
419.4678734621
 31
0.0
  0
ARC
  5
C0
330
95
100
AcDbEntity
  8
410143038_ESSENC
  6
Continuous
 62
     7
100
AcDbCircle
 10
317.226952622
 20
448.265070272
 30
0.0
 40
16.72236695808772
100
AcDbArc
 50
161.7044652658
 51
198.296654618
  0
SPLINE
  5
C1
330
95
100
AcDbEntity
  8
410143038_ESSENC
  6
Continuous
 62
     7
100
AcDbSpline
210
0.0
220
0.0
230
1.0
 70
     8
 71
     3
 72
     8
 73
     4
 74
     0
 42
0.0000000230184764
 43
0.0000000001
 40
0.0
 40
0.0
 40
0.0
 40
0.0
 40
1.0
 40
1.0
 40
1.0
 40
1.0
 10
269.3500048352322
 20
419.4678734621372
 30
0.0
 10
269.3500048352322
 20
419.3298022746701
 30
0.0
 10
269.4619336477742
 20
419.2178734621281
 30
0.0
 10
269.600004835227
 20
419.2178734621281
 30
0.0
  0
SPLINE
  5
C2
330
95
100
AcDbEntity
  8
410143038_ESSENC
  6
Continuous
 62
     7
100
AcDbSpline
210
0.0
220
0.0
230
1.0
 70
     8
 71
     5
 72
    12
 73
     6
 74
     0
 42
0.0000000121124514
 43
0.0000000001
 40
0.0
 40
0.0
 40
0.0
 40
0.0
 40
0.0
 40
0.0
 40
1.0
 40
1.0
 40
1.0
 40
1.0
 40
1.0
 40
1.0
 10
301.8497899424637
 20
453.015346819798
 30
0.0
 10
301.6886249845192
 20
453.0153984775521
 30
0.0
 10
301.5341268082131
 20
453.080254162119
 30
0.0
 10
301.4148402188301
 20
453.1993453897281
 30
0.0
 10
301.3498537872022
 20
453.3536080308811
 30
0.0
 10
301.3499022280453
 20
453.5145300031258
 30
0.0
  0
SPLINE
  5
C3
330
95
100
AcDbEntity
  8
410143038_ESSENC
  6
Continuous
 62
     7
100
AcDbSpline
210
0.0
220
0.0
230
1.0
 70
     8
 71
     5
 72
    12
 73
     6
 74
     0
 42
0.0000000121008864
 43
0.0000000001
 40
0.0
 40
0.0
 40
0.0
 40
0.0
 40
0.0
 40
0.0
 40
1.0
 40
1.0
 40
1.0
 40
1.0
 40
1.0
 40
1.0
 10
301.3500048352322
 20
443.0153002143614
 30
0.0
 10
301.3500048352322
 20
443.1765035121331
 30
0.0
 10
301.4149710922932
 20
443.3310356773761
 30
0.0
 10
301.5342693796702
 20
443.4503339647531
 30
0.0
 10
301.6888015449132
 20
443.5153002218141
 30
0.0
 10
301.8500048426964
 20
443.5153002218141
 30
0.0
  0
LINE
  5
C4
330
95
100
AcDbEntity
  8
410143038_ESSENC
  6
Continuous
 62
     7
100
AcDbLine
 10
301.1000048356
 20
419.2178734621
 30
0.0
 11
269.6000048352
 21
419.2178734621
 31
0.0
  0
LINE
  5
C5
330
95
100
AcDbEntity
  8
410143038_ESSENC
  6
Continuous
 62
     7
100
AcDbLine
 10
349.8499733217
 20
453.0153002218
 30
0.0
 11
301.8497899351
 21
453.0153002218
 31
0.0
  0
LINE
  5
C6
330
95
100
AcDbEntity
  8
410143038_ESSENC
  6
Continuous
 62
     7
100
AcDbLine
 10
345.0660706727
 20
443.5153002218
 30
0.0
 11
349.8499733217
 21
443.5153002218
 31
0.0
  0
LINE
  5
C7
330
95
100
AcDbEntity
  8
410143038_ESSENC
  6
Continuous
 62
     7
100
AcDbLine
 10
301.8500048427
 20
443.5153002218
 30
0.0
 11
332.5534723348
 21
443.5153002218
 31
0.0
  0
SPLINE
  5
C8
330
95
100
AcDbEntity
  8
410143038_ESSENC
  6
Continuous
 62
     7
100
AcDbSpline
210
0.0
220
0.0
230
1.0
 70
     8
 71
     5
 72
    12
 73
     6
 74
     0
 42
0.0000000121008863
 43
0.0000000001
 40
0.0
 40
0.0
 40
0.0
 40
0.0
 40
0.0
 40
0.0
 40
1.0
 40
1.0
 40
1.0
 40
1.0
 40
1.0
 40
1.0
 10
349.8499733143287
 20
443.5153002218141
 30
0.0
 10
350.0111766194982
 20
443.5153002218141
 30
0.0
 10
350.1657087847412
 20
443.5802664788761
 30
0.0
 10
350.2850070721172
 20
443.699564766252
 30
0.0
 10
350.3499733291792
 20
443.8540969314951
 30
0.0
 10
350.3499733291792
 20
444.0153002292651
 30
0.0
  0
SPLINE
  5
C9
330
95
100
AcDbEntity
  8
410143038_ESSENC
  6
Continuous
 62
     7
100
AcDbSpline
210
0.0
220
0.0
230
1.0
 70
     8
 71
     5
 72
    12
 73
     6
 74
     0
 42
0.0000000121019828
 43
0.0000000001
 40
0.0
 40
0.0
 40
0.0
 40
0.0
 40
0.0
 40
0.0
 40
1.0
 40
1.0
 40
1.0
 40
1.0
 40
1.0
 40
1.0
 10
350.3499733291792
 20
452.5152205708201
 30
0.0
 10
350.3499733291792
 20
452.6763946496931
 30
0.0
 10
350.2850070721162
 20
452.8308988052151
 30
0.0
 10
350.1657087847412
 20
452.950175469185
 30
0.0
 10
350.0111766194982
 20
453.015129950791
 30
0.0
 10
349.849973321728
 20
453.0152150864976
 30
0.0
  0
ARC
  5
CA
330
95
100
AcDbEntity
  8
410143038_ESSENC
  6
Continuous
 62
     7
100
AcDbCircle
 10
345.0656229912
 20
444.0135121074
 30
0.0
 40
0.4982798207512638
100
AcDbArc
 50
251.3932221014
 51
270.051459885
  0
SPLINE
  5
CB
330
95
100
AcDbEntity
  8
410143038_ESSENC
  6
Continuous
 62
     7
100
AcDbSpline
210
0.0
220
0.0
230
1.0
 70
     8
 71
     3
 72
     8
 73
     4
 74
     0
 42
0.0000000235666945
 43
0.0000000001
 40
0.0
 40
0.0
 40
0.0
 40
0.0
 40
1.0
 40
1.0
 40
1.0
 40
1.0
 10
332.5534723348076
 20
443.5153002218141
 30
0.0
 10
332.6929645800259
 20
443.5153002218141
 30
0.0
 10
332.8261150896179
 20
443.573571781796
 30
0.0
 10
332.920763351886
 20
443.6760402790528
 30
0.0
  0
LINE
  5
CC
330
95
100
AcDbEntity
  8
410143038_ESSENC
  6
Continuous
 62
     7
100
AcDbLine
 10
334.1291168471
 20
444.984243025
 30
0.0
 11
332.9207633519
 21
443.6760402791
 31
0.0
  0
SPLINE
  5
CD
330
95
100
AcDbEntity
  8
410143038_ESSENC
  6
Continuous
 62
     7
100
AcDbSpline
210
0.0
220
0.0
230
1.0
 70
     8
 71
     3
 72
    21
 73
    17
 74
     0
 42
0.0000000024191296
 43
0.0000000001
 40
0.0
 40
0.0
 40
0.0
 40
0.0
 40
0.0413229914048359
 40
0.062517436179164
 40
0.1249994681050499
 40
0.1883398622129547
 40
0.2500126977689087
 40
0.3235200210918854
 40
0.4170218190272649
 40
0.500178951096014
 40
0.5616786178380049
 40
0.621121494261462
 40
0.7500929820251517
 40
0.8750492721036737
 40
0.9372813705584233
 40
1.0
 40
1.0
 40
1.0
 40
1.0
 10
337.8161607300259
 20
445.9267333057032
 30
0.0
 10
337.7602216062388
 20
445.9452611455242
 30
0.0
 10
337.6755938475923
 20
445.9732991657914
 30
0.0
 10
337.5054313312016
 20
446.0260846584799
 30
0.0
 10
337.3032191464308
 20
446.0842133268159
 30
0.0
 10
337.0418910800367
 20
446.1472797593383
 30
0.0
 10
336.7608474538895
 20
446.198356561293
 30
0.0
 10
336.4323547956504
 20
446.2308108703401
 30
0.0
 10
336.0695832749959
 20
446.2157326358309
 30
0.0
 10
335.734077389005
 20
446.1421759841694
 30
0.0
 10
335.4607752978136
 20
446.044020161237
 30
0.0
 10
335.147348068371
 20
445.8878681303047
 30
0.0
 10
334.799381727685
 20
445.6397634156642
 30
0.0
 10
334.4976023071408
 20
445.3642738503372
 30
0.0
 10
334.2802074542205
 20
445.1459031125185
 30
0.0
 10
334.1796142853289
 20
445.0382663514452
 30
0.0
 10
334.129116847121
 20
444.9842430250142
 30
0.0
  0
LINE
  5
CE
330
95
100
AcDbEntity
  8
410143038_ESSENC
  6
Continuous
 62
     7
100
AcDbLine
 10
344.9066361388
 20
443.5412770383
 30
0.0
 11
339.0480569897
 21
445.5122851222
 31
0.0
  0
LINE
  5
CF
330
95
100
AcDbEntity
  8
410143038_ESSENC
  6
Continuous
 62
     7
100
AcDbLine
 10
350.3499733292
 20
448.257448226
 30
0.0
 11
350.3499733292
 21
444.0153002293
 31
0.0
  0
LINE
  5
D0
330
95
100
AcDbEntity
  8
410143038_ESSENC
  6
Continuous
 62
     7
100
AcDbLine
 10
350.3499733292
 20
452.5152205708
 30
0.0
 11
350.3499733292
 21
448.257448226
 31
0.0
  0
SPLINE
  5
D1
330
95
100
AcDbEntity
  8
410143038_ESSENC
  6
Continuous
 62
     7
100
AcDbSpline
210
0.0
220
0.0
230
1.0
 70
     8
 71
     3
 72
     8
 73
     4
 74
     0
 42
0.0000000081965716
 43
0.0000000001
 40
0.0
 40
0.0
 40
0.0
 40
0.0
 40
1.0
 40
1.0
 40
1.0
 40
1.0
 10
301.0333629590884
 20
456.0153002218141
 30
0.0
 10
301.2212178117111
 20
456.4503554103351
 30
0.0
 10
301.1231678874655
 20
456.757498942916
 30
0.0
 10
300.7392131863517
 20
456.9367308195565
 30
0.0
  0
ARC
  5
D2
330
95
100
AcDbEntity
  8
410143038_ESSENC
  6
Continuous
 62
     7
100
AcDbCircle
 10
301.819201628
 20
443.1075045781
 30
0.0
 40
0.5018716353337703
100
AcDbArc
 50
90.3162922144
 51
178.5579704965
  0
ARC
  5
D3
330
95
100
AcDbEntity
  8
410143038_ESSENC
  6
Continuous
 62
     7
100
AcDbCircle
 10
301.1132004675
 20
419.4392158893
 30
0.0
 40
0.2185334718638633
100
AcDbArc
 50
292.6282226554
 51
7.5352337149
  0
LINE
  5
D4
330
95
100
AcDbEntity
  8
410143038_ESSENC
  6
Continuous
 62
     7
100
AcDbLine
 10
338.7568834948
 20
445.6081697237
 30
0.0
 11
339.1152983679
 21
445.4896573949
 31
0.0
  0
LINE
  5
D5
330
95
100
AcDbEntity
  8
410143038_ESSENC
  6
Continuous
 62
     7
100
AcDbLine
 10
338.0742641334
 20
445.8338824838
 30
0.0
 11
338.7568834948
 21
445.6081697237
 31
0.0
  0
LINE
  5
D6
330
95
100
AcDbEntity
  8
410143038_ESSENC
  6
Continuous
 62
     7
100
AcDbLine
 10
338.075389595
 20
445.8367363217
 30
0.0
 11
339.1138946278
 21
445.4901296641
 31
0.0
  0
SPLINE
  5
D7
330
95
100
AcDbEntity
  8
410143038_ESSENC
  6
Continuous
 62
     7
100
AcDbSpline
210
0.0
220
0.0
230
1.0
 70
     8
 71
     3
 72
    11
 73
     7
 74
     0
 42
0.0000000074672255
 43
0.0000000001
 40
0.0
 40
0.0
 40
0.0
 40
0.0
 40
0.1382953650076504
 40
0.4544020905537158
 40
0.9713955639155539
 40
1.0
 40
1.0
 40
1.0
 40
1.0
 10
333.0531581558557
 20
443.819638875821
 30
0.0
 10
333.0734093271305
 20
443.8416023401041
 30
0.0
 10
333.1309698625233
 20
443.9048469318244
 30
0.0
 10
333.4164900874159
 20
444.20596644924
 30
0.0
 10
333.6884586019112
 20
444.5428902491169
 30
0.0
 10
333.9451568942528
 20
444.787098534363
 30
0.0
 10
333.9607483604065
 20
444.801947635362
 30
0.0
  0
LINE
  5
D9
330
95
100
AcDbEntity
  8
A4227427_ROSETTE
  6
Continuous
 62
     7
100
AcDbLine
 10
312.8503475616
 20
412.9178734621
 30
0.0
 11
257.8452301269
 21
412.9178734621
 31
0.0
  0
LINE
  5
DA
330
95
100
AcDbEntity
  8
A4227427_ROSETTE
  6
Continuous
 62
     7
100
AcDbLine
 10
311.8503475467
 20
418.9178734621
 30
0.0
 11
258.8454372348
 21
418.9178734621
 31
0.0
  0
LINE
  5
DB
330
95
100
AcDbEntity
  8
A4227427_ROSETTE
  6
Continuous
 62
     7
100
AcDbLine
 10
312.8503475616
 20
412.9178734621
 30
0.0
 11
312.8503475616
 21
417.9178734472
 31
0.0
  0
LINE
  5
DC
330
95
100
AcDbEntity
  8
A4227427_ROSETTE
  6
Continuous
 62
     7
100
AcDbLine
 10
257.8452299994
 20
417.9178734472
 30
0.0
 11
257.8452299994
 21
412.9178734621
 31
0.0
  0
SPLINE
  5
DD
330
95
100
AcDbEntity
  8
A4227427_ROSETTE
  6
Continuous
 62
     7
100
AcDbSpline
210
0.0
220
0.0
230
1.0
 70
     8
 71
     3
 72
    13
 73
     9
 74
     0
 42
0.0000000063014676
 43
0.0000000001
 40
0.0
 40
0.0
 40
0.0
 40
0.0
 40
0.1294353618362329
 40
0.2550301133060642
 40
0.5000000000000061
 40
0.7449698866939329
 40
0.8705646381637783
 40
1.0
 40
1.0
 40
1.0
 40
1.0
 10
312.8503475616332
 20
417.9178734472271
 30
0.0
 10
312.8466665521019
 20
417.9920528261605
 30
0.0
 10
312.8385932237086
 20
418.1159642925379
 30
0.0
 10
312.7585221251173
 20
418.3709098041766
 30
0.0
 10
312.5749736203363
 20
418.6424995208312
 30
0.0
 10
312.3033839036817
 20
418.8260480256122
 30
0.0
 10
312.048438392043
 20
418.9061191242035
 30
0.0
 10
311.9245269256656
 20
418.9141924525969
 30
0.0
 10
311.8503475467322
 20
418.9178734621281
 30
0.0
  0
ARC
  5
DE
330
95
100
AcDbEntity
  8
A4227427_ROSETTE
  6
Continuous
 62
     7
100
AcDbCircle
 10
258.8451089684
 20
417.9182082149
 30
0.0
 40
0.9996653011589687
100
AcDbArc
 50
89.9811854223
 51
180.0191871952
  0
LINE
  5
DF
330
95
100
AcDbEntity
  8
A4227427_ROSETTE
  6
Continuous
 62
     7
100
AcDbLine
 10
98.8503475616
 20
412.9178734621
 30
0.0
 11
43.8452301268
 21
412.9178734621
 31
0.0
  0
LINE
  5
E0
330
95
100
AcDbEntity
  8
A4227427_ROSETTE
  6
Continuous
 62
     7
100
AcDbLine
 10
97.8503475467
 20
418.9178734621
 30
0.0
 11
44.8454372348
 21
418.9178734621
 31
0.0
  0
LINE
  5
E1
330
95
100
AcDbEntity
  8
A4227427_ROSETTE
  6
Continuous
 62
     7
100
AcDbLine
 10
98.8503475616
 20
412.9178734621
 30
0.0
 11
98.8503475616
 21
417.9178734472
 31
0.0
  0
LINE
  5
E2
330
95
100
AcDbEntity
  8
A4227427_ROSETTE
  6
Continuous
 62
     7
100
AcDbLine
 10
43.8452299994
 20
417.9178734472
 30
0.0
 11
43.8452299994
 21
412.9178734621
 31
0.0
  0
SPLINE
  5
E3
330
95
100
AcDbEntity
  8
A4227427_ROSETTE
  6
Continuous
 62
     7
100
AcDbSpline
210
0.0
220
0.0
230
1.0
 70
     8
 71
     3
 72
    13
 73
     9
 74
     0
 42
0.0000000063014676
 43
0.0000000001
 40
0.0
 40
0.0
 40
0.0
 40
0.0
 40
0.1294353618362327
 40
0.2550301133060654
 40
0.4999999999999952
 40
0.7449698866939345
 40
0.8705646381637617
 40
1.0
 40
1.0
 40
1.0
 40
1.0
 10
98.85034756163313
 20
417.9178734472271
 30
0.0
 10
98.84666655210188
 20
417.9920528261605
 30
0.0
 10
98.83859322370866
 20
418.1159642925379
 30
0.0
 10
98.75852212511732
 20
418.3709098041766
 30
0.0
 10
98.57497362033615
 20
418.6424995208312
 30
0.0
 10
98.3033839036816
 20
418.8260480256122
 30
0.0
 10
98.04843839204295
 20
418.9061191242035
 30
0.0
 10
97.92452692566552
 20
418.9141924525968
 30
0.0
 10
97.85034754673214
 20
418.9178734621281
 30
0.0
  0
ARC
  5
E4
330
95
100
AcDbEntity
  8
A4227427_ROSETTE
  6
Continuous
 62
     7
100
AcDbCircle
 10
44.8451089684
 20
417.9182082149
 30
0.0
 40
0.9996653011589254
100
AcDbArc
 50
89.9811854223
 51
180.0191871952
  0
LINE
  5
E6
330
95
100
AcDbEntity
  8
410187038_ESSENC
  6
Continuous
 62
     7
100
AcDbLine
 10
210.8554647337
 20
412.9178734621
 30
0.0
 11
155.8713663147
 21
412.9178734621
 31
0.0
  0
LINE
  5
E7
330
95
100
AcDbEntity
  8
410187038_ESSENC
  6
Continuous
 62
     7
100
AcDbLine
 10
209.8552704118
 20
418.9178734621
 30
0.0
 11
156.8715661638
 21
418.9178734621
 31
0.0
  0
LINE
  5
E8
330
95
100
AcDbEntity
  8
410187038_ESSENC
  6
Continuous
 62
     7
100
AcDbLine
 10
210.8554648357
 20
412.9178734621
 30
0.0
 11
210.8554648357
 21
417.9178734472
 31
0.0
  0
LINE
  5
E9
330
95
100
AcDbEntity
  8
410187038_ESSENC
  6
Continuous
 62
     7
100
AcDbLine
 10
155.8713661495
 20
417.9178734472
 30
0.0
 11
155.8713661495
 21
412.9178734621
 31
0.0
  0
ARC
  5
EA
330
95
100
AcDbEntity
  8
410187038_ESSENC
  6
Continuous
 62
     7
100
AcDbCircle
 10
209.8555843865
 20
417.918208268
 30
0.0
 40
0.9996652691797877
100
AcDbArc
 50
359.9808097583
 51
90.022203444
  0
ARC
  5
EB
330
95
100
AcDbEntity
  8
410187038_ESSENC
  6
Continuous
 62
     7
100
AcDbCircle
 10
156.8712629583
 20
417.9182090913
 30
0.0
 40
0.9996644460684841
100
AcDbArc
 50
89.977770298
 51
180.0192374443
  0
LINE
  5
ED
330
95
100
AcDbEntity
  8
02559031_RING_GL
  6
Continuous
 62
     7
100
AcDbLine
 10
85.7249866647
 20
418.9178734621
 30
0.0
 11
85.7249866647
 21
419.2178734621
 31
0.0
  0
LINE
  5
EE
330
95
100
AcDbEntity
  8
02559031_RING_GL
  6
Continuous
 62
     7
100
AcDbLine
 10
56.9749866647
 20
419.2178734621
 30
0.0
 11
56.9749866647
 21
418.9178734621
 31
0.0
  0
LINE
  5
EF
330
95
100
AcDbEntity
  8
02559031_RING_GL
  6
Continuous
 62
     7
100
AcDbLine
 10
299.7249866647
 20
418.9178734621
 30
0.0
 11
299.7249866647
 21
419.2178734621
 31
0.0
  0
LINE
  5
F0
330
95
100
AcDbEntity
  8
02559031_RING_GL
  6
Continuous
 62
     7
100
AcDbLine
 10
270.9749866647
 20
419.2178734621
 30
0.0
 11
270.9749866647
 21
418.9178734621
 31
0.0
  0
ARC
  5
F2
330
95
100
AcDbEntity
  8
$DDT_AUDIT_GENERATED_(F1)
  6
Continuous
 62
     7
100
AcDbCircle
 10
173.8999866647
 20
418.6178734621
 30
0.0
 40
0.3000000000000008
100
AcDbArc
 50
41.8103148958
 51
90.0
  0
ARC
  5
F3
330
95
100
AcDbEntity
  8
$DDT_AUDIT_GENERATED_(F1)
  6
Continuous
 62
     7
100
AcDbCircle
 10
192.7999866647
 20
418.6178734621
 30
0.0
 40
0.2999999999999999
100
AcDbArc
 50
90.0
 51
138.1896851042
  0
LINE
  5
F5
330
95
100
AcDbEntity
  8
410203038_ESSENC
  6
Continuous
 62
     7
100
AcDbLine
 10
171.8499866647
 20
508.4178734621
 30
0.0
 11
171.8499866647
 21
418.9178734621
 31
0.0
  0
LINE
  5
F6
330
95
100
AcDbEntity
  8
410203038_ESSENC
  6
Continuous
 62
     7
100
AcDbLine
 10
194.8499866647
 20
418.9178734621
 30
0.0
 11
194.8499866647
 21
508.4178734621
 31
0.0
  0
LINE
  5
F7
330
95
100
AcDbEntity
  8
410203038_ESSENC
  6
Continuous
 62
     7
100
AcDbLine
 10
171.8499866647
 20
550.4178734621
 30
0.0
 11
171.8499866647
 21
508.4178734621
 31
0.0
  0
LINE
  5
F8
330
95
100
AcDbEntity
  8
410203038_ESSENC
  6
Continuous
 62
     7
100
AcDbLine
 10
194.8499866647
 20
508.4178734621
 30
0.0
 11
194.8499866647
 21
550.4178734621
 31
0.0
  0
CIRCLE
  5
FA
330
95
100
AcDbEntity
  8
A4225301_NIPPEL_
  6
Continuous
 62
     7
100
AcDbCircle
 10
183.3499866647
 20
550.4178734621
 30
0.0
 40
11.5
  0
ENDBLK
  5
FC
330
95
100
AcDbEntity
  8
0
100
AcDbBlockEnd
  0
BLOCK
  5
140
330
FD
100
AcDbEntity
  8
0
100
AcDbBlockBegin
  2
SE1
 70
     0
 10
0.0
 20
0.0
 30
0.0
  3
SE1
  1

  0
LINE
  5
FF
330
FD
100
AcDbEntity
  8
410143038_ESSENC
  6
Continuous
 62
     7
100
AcDbLine
 10
432.7869453867
 20
457.0153002218
 30
0.0
 11
447.7845570598
 21
457.0153002218
 31
0.0
  0
LINE
  5
100
330
FD
100
AcDbEntity
  8
410143038_ESSENC
  6
Continuous
 62
     7
100
AcDbLine
 10
462.7824556541
 20
457.0153002218
 30
0.0
 11
447.7845570598
 21
457.0153002218
 31
0.0
  0
LINE
  5
101
330
FD
100
AcDbEntity
  8
410143038_ESSENC
  6
Continuous
 62
     7
100
AcDbLine
 10
447.7848510174
 20
419.2178734621
 30
0.0
 11
463.534148553
 21
419.2178734621
 31
0.0
  0
LINE
  5
102
330
FD
100
AcDbEntity
  8
410143038_ESSENC
  6
Continuous
 62
     7
100
AcDbLine
 10
447.7848510174
 20
419.2178734621
 30
0.0
 11
432.0352519577
 21
419.2178734621
 31
0.0
  0
SPLINE
  5
103
330
FD
100
AcDbEntity
  8
410143038_ESSENC
  6
Continuous
 62
     7
100
AcDbSpline
210
0.0
220
0.0
230
1.0
 70
     8
 71
     5
 72
    23
 73
    17
 74
     0
 42
0.0000000006619346
 43
0.0000000001
 40
0.0
 40
0.0
 40
0.0
 40
0.0
 40
0.0
 40
0.0
 40
0.1249999999999128
 40
0.2499999999998253
 40
0.3125000000001306
 40
0.3749999999997384
 40
0.4999999999996512
 40
0.5624999999999563
 40
0.6249999999995637
 40
0.7500000000001744
 40
0.8124999999997822
 40
0.8750000000000872
 40
0.9374999999996947
 40
1.0
 40
1.0
 40
1.0
 40
1.0
 40
1.0
 40
1.0
 10
447.7847003964171
 20
443.5153002218141
 30
0.0
 10
448.1583089556111
 20
443.5153002218141
 30
0.0
 10
448.9059597908691
 20
443.5925661615681
 30
0.0
 10
449.804892906212
 20
443.87479281282
 30
0.0
 10
450.7963800363191
 20
444.44660445004
 30
0.0
 10
451.8113595589351
 20
445.5807764480491
 30
0.0
 10
452.3660988143221
 20
446.7731230278991
 30
0.0
 10
452.6047260656921
 20
447.8847865583061
 30
0.0
 10
452.5295908602841
 20
449.2142561018301
 30
0.0
 10
452.0798924712701
 20
450.44969809413
 30
0.0
 10
451.4614704130241
 20
451.4046188068581
 30
0.0
 10
450.6113153484911
 20
452.1645556200771
 30
0.0
 10
449.617103049049
 20
452.688560206233
 30
0.0
 10
448.9007155439771
 20
452.9103216899471
 30
0.0
 10
448.3447796646951
 20
452.996073903684
 30
0.0
 10
447.9713934858431
 20
453.0151299511811
 30
0.0
 10
447.7847003964171
 20
453.0152150864976
 30
0.0
  0
ARC
  5
104
330
FD
100
AcDbEntity
  8
410143038_ESSENC
  6
Continuous
 62
     7
100
AcDbCircle
 10
447.7818392733
 20
448.2613284798
 30
0.0
 40
4.746096585106764
100
AcDbArc
 50
296.2675158937
 51
299.2086302253
  0
SPLINE
  5
105
330
FD
100
AcDbEntity
  8
410143038_ESSENC
  6
Continuous
 62
     7
100
AcDbSpline
210
0.0
220
0.0
230
1.0
 70
     8
 71
     5
 72
    23
 73
    17
 74
     0
 42
0.0000000006619346
 43
0.0000000001
 40
0.0
 40
0.0
 40
0.0
 40
0.0
 40
0.0
 40
0.0
 40
0.0624999999996075
 40
0.1249999999999128
 40
0.1875000000002181
 40
0.2499999999998254
 40
0.3749999999997383
 40
0.4375000000000435
 40
0.4999999999996511
 40
0.6250000000002617
 40
0.6874999999998691
 40
0.7500000000001744
 40
0.8750000000000873
 40
1.0
 40
1.0
 40
1.0
 40
1.0
 40
1.0
 40
1.0
 10
447.7847003964171
 20
453.0152150864976
 30
0.0
 10
447.5980073069911
 20
453.0151299511811
 30
0.0
 10
447.2246211281391
 20
452.996073903684
 30
0.0
 10
446.6686852488571
 20
452.910321689948
 30
0.0
 10
445.9522977437861
 20
452.688560206233
 30
0.0
 10
444.9580854443431
 20
452.1645556200771
 30
0.0
 10
444.1079303798101
 20
451.4046188068571
 30
0.0
 10
443.4895083215631
 20
450.44969809413
 30
0.0
 10
443.0398099325521
 20
449.2142561018291
 30
0.0
 10
442.96467472714
 20
447.8847865583061
 30
0.0
 10
443.2033019785161
 20
446.7731230278991
 30
0.0
 10
443.758041233893
 20
445.5807764480491
 30
0.0
 10
444.7730207565261
 20
444.446604450041
 30
0.0
 10
445.764507886603
 20
443.8747928128191
 30
0.0
 10
446.6634410019871
 20
443.592566161569
 30
0.0
 10
447.411091837207
 20
443.5153002218141
 30
0.0
 10
447.7847003964171
 20
443.5153002218141
 30
0.0
  0
ARC
  5
106
330
FD
100
AcDbEntity
  8
410143038_ESSENC
  6
Continuous
 62
     7
100
AcDbCircle
 10
462.7843719716
 20
456.0139989754
 30
0.0
 40
1.001303080210792
100
AcDbArc
 50
0.0744589254
 51
90.1096540938
  0
ARC
  5
107
330
FD
100
AcDbEntity
  8
410143038_ESSENC
  6
Continuous
 62
     7
100
AcDbCircle
 10
432.7850291115
 20
456.0139990203
 30
0.0
 40
1.001303035227902
100
AcDbArc
 50
89.8903483555
 51
179.9255436405
  0
LINE
  5
108
330
FD
100
AcDbEntity
  8
410143038_ESSENC
  6
Continuous
 62
     7
100
AcDbLine
 10
463.7847003964
 20
419.4678734621
 30
0.0
 11
463.7847003964
 21
456.0153002218
 31
0.0
  0
LINE
  5
109
330
FD
100
AcDbEntity
  8
410143038_ESSENC
  6
Continuous
 62
     7
100
AcDbLine
 10
431.7847003964
 20
456.0153002218
 30
0.0
 11
431.7847003964
 21
419.4678734621
 31
0.0
  0
ARC
  5
10A
330
FD
100
AcDbEntity
  8
410143038_ESSENC
  6
Continuous
 62
     7
100
AcDbCircle
 10
463.5346215055
 20
419.4681923579
 30
0.0
 40
0.2503193425284815
100
AcDbArc
 50
269.8917454888
 51
359.9270077005
  0
ARC
  5
10B
330
FD
100
AcDbEntity
  8
410143038_ESSENC
  6
Continuous
 62
     7
100
AcDbCircle
 10
432.0347789948
 20
419.4681923688
 30
0.0
 40
0.2503193534482501
100
AcDbArc
 50
180.0729947912
 51
270.1082568908
  0
LINE
  5
10C
330
FD
100
AcDbEntity
  8
410143038_ESSENC
  6
Continuous
 62
     7
100
AcDbLine
 10
444.1389010947
 20
445.2355340438
 30
0.0
 11
444.2424882093
 21
445.1011891319
 31
0.0
  0
ARC
  5
10D
330
FD
100
AcDbEntity
  8
410143038_ESSENC
  6
Continuous
 62
     7
100
AcDbCircle
 10
432.7850288212
 20
456.0139989754
 30
0.0
 40
1.001303080210796
100
AcDbArc
 50
89.8903459062
 51
179.9255410746
  0
ARC
  5
10E
330
FD
100
AcDbEntity
  8
410143038_ESSENC
  6
Continuous
 62
     7
100
AcDbCircle
 10
462.7843716814
 20
456.0139990203
 30
0.0
 40
1.001303035227898
100
AcDbArc
 50
0.0744563595
 51
90.1096516445
  0
ARC
  5
10F
330
FD
100
AcDbEntity
  8
410143038_ESSENC
  6
Continuous
 62
     7
100
AcDbCircle
 10
463.5346217981
 20
419.4681923688
 30
0.0
 40
0.2503193534482359
100
AcDbArc
 50
269.8917431092
 51
359.9270052088
  0
LINE
  5
110
330
FD
100
AcDbEntity
  8
A4227427_ROSETTE
  6
Continuous
 62
     7
100
AcDbLine
 10
420.3060800464
 20
412.9178734621
 30
0.0
 11
475.2901784655
 21
412.9178734621
 31
0.0
  0
LINE
  5
111
330
FD
100
AcDbEntity
  8
A4227427_ROSETTE
  6
Continuous
 62
     7
100
AcDbLine
 10
421.3062798955
 20
418.9178734621
 30
0.0
 11
474.2899841436
 21
418.9178734621
 31
0.0
  0
LINE
  5
112
330
FD
100
AcDbEntity
  8
A4227427_ROSETTE
  6
Continuous
 62
     7
100
AcDbLine
 10
475.2901785674
 20
412.9178734621
 30
0.0
 11
475.2901785674
 21
417.9178734472
 31
0.0
  0
LINE
  5
113
330
FD
100
AcDbEntity
  8
A4227427_ROSETTE
  6
Continuous
 62
     7
100
AcDbLine
 10
420.3060798813
 20
417.9178734472
 30
0.0
 11
420.3060798813
 21
412.9178734621
 31
0.0
  0
ARC
  5
114
330
FD
100
AcDbEntity
  8
A4227427_ROSETTE
  6
Continuous
 62
     7
100
AcDbCircle
 10
474.2902981183
 20
417.918208268
 30
0.0
 40
0.9996652691797939
100
AcDbArc
 50
359.9808097583
 51
90.022203444
  0
ARC
  5
115
330
FD
100
AcDbEntity
  8
A4227427_ROSETTE
  6
Continuous
 62
     7
100
AcDbCircle
 10
421.3059766901
 20
417.9182090913
 30
0.0
 40
0.9996644460684746
100
AcDbArc
 50
89.977770298
 51
180.0192374443
  0
LINE
  5
117
330
FD
100
AcDbEntity
  8
A4223854_STANGE_
  6
Continuous
 62
     7
100
AcDbLine
 10
414.7847003964
 20
435.7178734621
 30
0.0
 11
414.7847003964
 21
439.7178734621
 31
0.0
  0
LINE
  5
118
330
FD
100
AcDbEntity
  8
A4223854_STANGE_
  6
Continuous
 62
     7
100
AcDbLine
 10
428.7847003964
 20
433.7178734621
 30
0.0
 11
428.7847003964
 21
418.9178734621
 31
0.0
  0
ARC
  5
119
330
FD
100
AcDbEntity
  8
A4223854_STANGE_
  6
Continuous
 62
     7
100
AcDbCircle
 10
426.7847003964
 20
433.7178734621
 30
0.0
 40
2.000000000000002
100
AcDbArc
 50
0.0
 51
90.0
  0
ARC
  5
11A
330
FD
100
AcDbEntity
  8
A4223854_STANGE_
  6
Continuous
 62
     7
100
AcDbCircle
 10
426.7847003964
 20
433.7178734621
 30
0.0
 40
6.000000000000014
100
AcDbArc
 50
32.4202150054
 51
90.0
  0
LINE
  5
11B
330
FD
100
AcDbEntity
  8
A4223854_STANGE_
  6
Continuous
 62
     7
100
AcDbLine
 10
414.7847003964
 20
435.7178734621
 30
0.0
 11
426.7847003964
 21
435.7178734621
 31
0.0
  0
LINE
  5
11C
330
FD
100
AcDbEntity
  8
A4223854_STANGE_
  6
Continuous
 62
     7
100
AcDbLine
 10
426.7847003964
 20
439.7178734621
 30
0.0
 11
414.7847003964
 21
439.7178734621
 31
0.0
  0
LINE
  5
11D
330
FD
100
AcDbEntity
  8
410187038_ESSENC
  6
Continuous
 62
     7
100
AcDbLine
 10
420.2843394994
 20
417.9178734472
 30
0.0
 11
420.2843394994
 21
412.9178734621
 31
0.0
  0
SPLINE
  5
11E
330
FD
100
AcDbEntity
  8
410187038_ESSENC
  6
Continuous
 62
     7
100
AcDbSpline
210
0.0
220
0.0
230
1.0
 70
     8
 71
     3
 72
    13
 73
     9
 74
     0
 42
0.0000000063014676
 43
0.0000000001
 40
0.0
 40
0.0
 40
0.0
 40
0.0
 40
0.1294353618362334
 40
0.2550301133060643
 40
0.4999999999999991
 40
0.7449698866939325
 40
0.8705646381637665
 40
1.0
 40
1.0
 40
1.0
 40
1.0
 10
421.2843395143461
 20
418.9178734621281
 30
0.0
 10
421.2101601354127
 20
418.9141924525968
 30
0.0
 10
421.0862486690353
 20
418.9061191242035
 30
0.0
 10
420.8313031573966
 20
418.8260480256122
 30
0.0
 10
420.5597134407419
 20
418.6424995208312
 30
0.0
 10
420.376164935961
 20
418.3709098041765
 30
0.0
 10
420.2960938373696
 20
418.1159642925379
 30
0.0
 10
420.2880205089763
 20
417.9920528261605
 30
0.0
 10
420.2843394994451
 20
417.9178734472271
 30
0.0
  0
LINE
  5
11F
330
FD
100
AcDbEntity
  8
02559031_RING_GL
  6
Continuous
 62
     7
100
AcDbLine
 10
462.1597003964
 20
418.9178734621
 30
0.0
 11
462.1597003964
 21
419.2178734621
 31
0.0
  0
LINE
  5
120
330
FD
100
AcDbEntity
  8
02559031_RING_GL
  6
Continuous
 62
     7
100
AcDbLine
 10
433.4097003964
 20
419.2178734621
 30
0.0
 11
433.4097003964
 21
418.9178734621
 31
0.0
  0
LINE
  5
122
330
FD
100
AcDbEntity
  8
A4222392_MOUSSEU
  6
Continuous
 62
     7
100
AcDbLine
 10
583.3418297469
 20
543.6551191234
 30
0.0
 11
582.8620354054
 21
543.5705184358
 31
0.0
  0
LINE
  5
123
330
FD
100
AcDbEntity
  8
A4222392_MOUSSEU
  6
Continuous
 62
     7
100
AcDbLine
 10
580.0574702301
 20
543.0759979262
 30
0.0
 11
577.3503779741
 21
542.5986645222
 31
0.0
  0
LINE
  5
124
330
FD
100
AcDbEntity
  8
A4222392_MOUSSEU
  6
Continuous
 62
     7
100
AcDbLine
 10
577.3334046255
 20
542.6949251654
 30
0.0
 11
577.428519654
 21
542.1555010334
 31
0.0
  0
ELLIPSE
  5
125
330
FD
100
AcDbEntity
  8
A4222392_MOUSSEU
  6
Continuous
 62
     7
100
AcDbEllipse
 10
577.3437902758
 20
542.1405609579
 30
0.0
 11
0.02604722665003334
 21
-0.1477211629518499
 31
0.0
210
0.0
220
0.0
230
0.9999999999999999
 40
0.5735764364
 41
0.0
 42
1.570796326794838
  0
LINE
  5
126
330
FD
100
AcDbEntity
  8
A4222392_MOUSSEU
  6
Continuous
 62
     7
100
AcDbLine
 10
576.8453332596
 20
542.4075525069
 30
0.0
 11
576.9060218217
 21
542.0633705681
 31
0.0
  0
ELLIPSE
  5
127
330
FD
100
AcDbEntity
  8
A4222392_MOUSSEU
  6
Continuous
 62
     7
100
AcDbEllipse
 10
576.9907511999
 20
542.0783106436
 30
0.0
 11
-0.02604722665003334
 21
0.1477211629518222
 31
0.0
210
0.0
220
0.0
230
1.0
 40
0.5735764364
 41
1.57079632679482
 42
3.141592653589793
  0
LINE
  5
128
330
FD
100
AcDbEntity
  8
A4222392_MOUSSEU
  6
Continuous
 62
     7
100
AcDbLine
 10
577.0167984266
 20
541.9305894806
 30
0.0
 11
577.3698375025
 21
541.992839795
 31
0.0
  0
LINE
  5
129
330
FD
100
AcDbEntity
  8
A4222392_MOUSSEU
  6
Continuous
 62
     7
100
AcDbLine
 10
582.8247630604
 20
543.7819004084
 30
0.0
 11
582.9401770853
 21
543.1273549469
 31
0.0
  0
ELLIPSE
  5
12A
330
FD
100
AcDbEntity
  8
A4222392_MOUSSEU
  6
Continuous
 62
     7
100
AcDbEllipse
 10
582.9145255746
 20
543.1228318935
 30
0.0
 11
-0.02604722665003334
 21
0.1477211629518222
 31
0.0
210
0.0
220
0.0
230
0.9999999999999999
 40
0.1736481777
 41
3.141592653589793
 42
4.712388980384744
  0
LINE
  5
12B
330
FD
100
AcDbEntity
  8
A4222392_MOUSSEU
  6
Continuous
 62
     7
100
AcDbLine
 10
579.988010959
 20
543.4699210274
 30
0.0
 11
578.1732890115
 21
543.1499365856
 31
0.0
  0
ELLIPSE
  5
12C
330
FD
100
AcDbEntity
  8
A4222392_MOUSSEU
  6
Continuous
 62
     7
100
AcDbEllipse
 10
580.1612634208
 20
542.6373574908
 30
0.0
 11
0.02604722665003334
 21
-0.1477211629518083
 31
0.0
210
0.0
220
0.0
230
0.9999999999999999
 40
0.1736481777
 41
4.712388980383995
 42
6.283185307178491
  0
LINE
  5
12D
330
FD
100
AcDbEntity
  8
A4222392_MOUSSEU
  6
Continuous
 62
     7
100
AcDbLine
 10
579.988010959
 20
543.4699210274
 30
0.0
 11
580.13561191
 21
542.6328344374
 31
0.0
  0
LINE
  5
12E
330
FD
100
AcDbEntity
  8
A4222392_MOUSSEU
  6
Continuous
 62
     7
100
AcDbLine
 10
577.0167984266
 20
541.9305894806
 30
0.0
 11
575.8338487836
 21
541.7220035418
 31
0.0
  0
LINE
  5
12F
330
FD
100
AcDbEntity
  8
A4222392_MOUSSEU
  6
Continuous
 62
     7
100
AcDbLine
 10
582.9405728012
 20
542.9751107305
 30
0.0
 11
580.1873106474
 21
542.4896363278
 31
0.0
  0
LINE
  5
130
330
FD
100
AcDbEntity
  8
410203038_ESSENC
  6
Continuous
 62
     7
100
AcDbLine
 10
436.2847003964
 20
508.4178734621
 30
0.0
 11
436.2847003964
 21
457.0153002218
 31
0.0
  0
LINE
  5
131
330
FD
100
AcDbEntity
  8
410203038_ESSENC
  6
Continuous
 62
     7
100
AcDbLine
 10
459.2847003964
 20
457.0153002218
 30
0.0
 11
459.2847003964
 21
508.4178734621
 31
0.0
  0
ARC
  5
132
330
FD
100
AcDbEntity
  8
410203038_ESSENC
  6
Continuous
 62
     7
100
AcDbCircle
 10
489.7847003964
 20
508.4178734621
 30
0.0
 40
30.49999999999999
100
AcDbArc
 50
90.0
 51
180.0
  0
ARC
  5
133
330
FD
100
AcDbEntity
  8
410203038_ESSENC
  6
Continuous
 62
     7
100
AcDbCircle
 10
489.7847003964
 20
508.4178734621
 30
0.0
 40
53.49999999999999
100
AcDbArc
 50
90.0
 51
180.0
  0
LINE
  5
134
330
FD
100
AcDbEntity
  8
410203038_ESSENC
  6
Continuous
 62
     7
100
AcDbLine
 10
541.2047003964
 20
561.9178734621
 30
0.0
 11
489.7847003964
 21
561.9178734621
 31
0.0
  0
LINE
  5
135
330
FD
100
AcDbEntity
  8
410203038_ESSENC
  6
Continuous
 62
     7
100
AcDbLine
 10
489.7847003964
 20
538.9178734621
 30
0.0
 11
541.2047003964
 21
538.9178734621
 31
0.0
  0
SPLINE
  5
136
330
FD
100
AcDbEntity
  8
A4225301_NIPPEL_
  6
Continuous
 62
     7
100
AcDbSpline
210
0.0
220
0.0
230
1.0
 70
     8
 71
     3
 72
    28
 73
    24
 74
     0
 42
0.0000000002252357
 43
0.0000000001
 40
0.0
 40
0.0
 40
0.0
 40
0.0
 40
0.0624999999999995
 40
0.0624999999999995
 40
0.1249999999999989
 40
0.1249999999999989
 40
0.1874999999999984
 40
0.1874999999999984
 40
0.2499999999999979
 40
0.2499999999999979
 40
0.2812499999999977
 40
0.2812499999999977
 40
0.3124999999999976
 40
0.3124999999999976
 40
0.3749999999999976
 40
0.3749999999999976
 40
0.4374999999999975
 40
0.4374999999999975
 40
0.4687499999999976
 40
0.4687499999999976
 40
0.4999999999999977
 40
0.4999999999999977
 40
0.500494597093982
 40
0.500494597093982
 40
0.500494597093982
 40
0.500494597093982
 10
591.8830938169838
 20
538.9178734621279
 30
0.0
 10
591.8830938169837
 20
538.9178734621279
 30
0.0
 10
591.5385014919152
 20
539.1653696091174
 30
0.0
 10
590.3903606147524
 20
539.9615098979315
 30
0.0
 10
589.5998418636681
 20
540.5010211326673
 30
0.0
 10
587.7892231203301
 20
541.6429217782463
 30
0.0
 10
586.7650878359052
 20
542.2542583623499
 30
0.0
 10
584.5088029424434
 20
543.3275370936427
 30
0.0
 10
583.2438531255538
 20
543.8041165046818
 30
0.0
 10
581.2538754500445
 20
543.9683136249585
 30
0.0
 10
580.5693974400488
 20
543.9229343396763
 30
0.0
 10
579.2831475442182
 20
543.6392526624207
 30
0.0
 10
578.6652253145406
 20
543.4027396459787
 30
0.0
 10
576.9782105223843
 20
542.5758756147063
 30
0.0
 10
576.0210776764097
 20
541.8709676649771
 30
0.0
 10
574.4193993238764
 20
540.5965036386538
 30
0.0
 10
573.7633147257932
 20
540.0055489807154
 30
0.0
 10
573.0782307200849
 20
539.3776103023453
 30
0.0
 10
572.8961863389541
 20
539.2069757632818
 30
0.0
 10
572.6550066793409
 20
538.979856661197
 30
0.0
 10
572.5919526007453
 20
538.9197392184722
 30
0.0
 10
572.5900024417672
 20
538.9178869971125
 30
0.0
 10
572.5899879794671
 20
538.9178734918805
 30
0.0
 10
572.5899894146957
 20
538.9178753055992
 30
0.0
  0
LINE
  5
137
330
FD
100
AcDbEntity
  8
A4225301_NIPPEL_
  6
Continuous
 62
     7
100
AcDbLine
 10
591.883093817
 20
538.9178734621
 30
0.0
 11
607.2116850402
 21
538.9178734621
 31
0.0
  0
LINE
  5
138
330
FD
100
AcDbEntity
  8
A4225301_NIPPEL_
  6
Continuous
 62
     7
100
AcDbLine
 10
541.7047003964
 20
538.9178734621
 30
0.0
 11
572.6026235627
 21
538.9178734621
 31
0.0
  0
LINE
  5
139
330
FD
100
AcDbEntity
  8
A4225301_NIPPEL_
  6
Continuous
 62
     7
100
AcDbLine
 10
607.2116850402
 20
561.9178734621
 30
0.0
 11
541.7047003964
 21
561.9178734621
 31
0.0
  0
ARC
  5
13A
330
FD
100
AcDbEntity
  8
A4225301_NIPPEL_
  6
Continuous
 62
     7
100
AcDbCircle
 10
-192.2126390831
 20
550.4178734621
 30
0.0
 40
800.0000000000003
100
AcDbArc
 50
359.211665465
 51
0.788334535
  0
ARC
  5
13B
330
FD
100
AcDbEntity
  8
A4225301_NIPPEL_
  6
Continuous
 62
     7
100
AcDbCircle
 10
607.2116850402
 20
539.4178734621
 30
0.0
 40
0.5000000000000004
100
AcDbArc
 50
270.0
 51
359.2116654671
  0
ARC
  5
13C
330
FD
100
AcDbEntity
  8
A4225301_NIPPEL_
  6
Continuous
 62
     7
100
AcDbCircle
 10
607.2116850402
 20
561.4178734621
 30
0.0
 40
0.5000000000002475
100
AcDbArc
 50
0.7883345329
 51
90.0
  0
LINE
  5
13E
330
FD
100
AcDbEntity
  8
DV2_Standard
  6
Continuous
 62
     7
100
AcDbLine
 10
541.2047003964
 20
538.9178734621
 30
0.0
 11
541.7047003964
 21
538.9178734621
 31
0.0
  0
LINE
  5
13F
330
FD
100
AcDbEntity
  8
DV2_Standard
  6
Continuous
 62
     7
100
AcDbLine
 10
541.2047003964
 20
561.9178734621
 30
0.0
 11
541.7047003964
 21
561.9178734621
 31
0.0
  0
ENDBLK
  5
141
330
FD
100
AcDbEntity
  8
0
100
AcDbBlockEnd
  0
BLOCK
  5
17D
330
142
100
AcDbEntity
  8
0
100
AcDbBlockBegin
  2
SE2
 70
     0
 10
0.0
 20
0.0
 30
0.0
  3
SE2
  1

  0
SPLINE
  5
144
330
142
100
AcDbEntity
  8
410143038_ESSENC
  6
Continuous
 62
     7
100
AcDbSpline
210
0.0
220
0.0
230
1.0
 70
     8
 71
     3
 72
     8
 73
     4
 74
     0
 42
0.0000000007762848
 43
0.0000000001
 40
0.0000358970085616
 40
0.0000358970085616
 40
0.0000358970085616
 40
0.0000358970085616
 40
0.9999938808853526
 40
0.9999938808853526
 40
0.9999938808853526
 40
0.9999938808853526
 10
60.03597102293626
 20
255.0396486856614
 30
0.0
 10
57.08077685915433
 20
257.9948831015221
 30
0.0
 10
55.34998967670468
 20
262.1737297119651
 30
0.0
 10
55.34996849428556
 20
266.3526605419421
 30
0.0
  0
SPLINE
  5
145
330
142
100
AcDbEntity
  8
410143038_ESSENC
  6
Continuous
 62
     7
100
AcDbSpline
210
0.0
220
0.0
230
1.0
 70
     8
 71
     3
 72
     8
 73
     4
 74
     0
 42
0.0000000007762918
 43
0.0000000001
 40
0.0000391021637615
 40
0.0000391021637615
 40
0.0000391021637615
 40
0.0000391021637615
 40
1.0
 40
1.0
 40
1.0
 40
1.0
 10
82.66402364945144
 20
277.6656219154722
 30
0.0
 10
85.61921041857059
 20
274.7103420965506
 30
0.0
 10
87.34996849409013
 20
270.5315013085133
 30
0.0
 10
87.34996849409013
 20
266.3526605204761
 30
0.0
  0
SPLINE
  5
146
330
142
100
AcDbEntity
  8
410143038_ESSENC
  6
Continuous
 62
     7
100
AcDbSpline
210
0.0
220
0.0
230
1.0
 70
     8
 71
     3
 72
     8
 73
     4
 74
     0
 42
0.0000000007763008
 43
0.0000000001
 40
0.0
 40
0.0
 40
0.0
 40
0.0
 40
0.999980317664179
 40
0.999980317664179
 40
0.999980317664179
 40
0.999980317664179
 10
87.34996849409013
 20
266.3526605204761
 30
0.0
 10
87.34996849409013
 20
262.1737130914894
 30
0.0
 10
85.61912208209216
 20
257.9947656625027
 30
0.0
 10
82.66396601108336
 20
255.0396486452923
 30
0.0
  0
SPLINE
  5
147
330
142
100
AcDbEntity
  8
410143038_ESSENC
  6
Continuous
 62
     7
100
AcDbSpline
210
0.0
220
0.0
230
1.0
 70
     8
 71
     3
 72
     9
 73
     5
 74
     0
 42
0.00000000037802
 43
0.0000000001
 40
0.0
 40
0.0
 40
0.0
 40
0.0
 40
0.5
 40
1.0
 40
1.0
 40
1.0
 40
1.0
 10
82.66379151310335
 20
255.0394741524637
 30
0.0
 10
79.70849249293023
 20
252.0837675213461
 30
0.0
 10
71.34996849409045
 20
248.6215535196061
 30
0.0
 10
62.9914444952509
 20
252.0837675213461
 30
0.0
 10
60.03628928893264
 20
255.0393304247944
 30
0.0
  0
SPLINE
  5
148
330
142
100
AcDbEntity
  8
410143038_ESSENC
  6
Continuous
 62
     7
100
AcDbSpline
210
0.0
220
0.0
230
1.0
 70
     8
 71
     3
 72
     8
 73
     4
 74
     0
 42
0.0000000007763049
 43
0.0000000001
 40
0.0
 40
0.0
 40
0.0
 40
0.0
 40
1.0
 40
1.0
 40
1.0
 40
1.0
 10
55.34996849409113
 20
266.3527372592361
 30
0.0
 10
55.34998968416929
 20
270.5318178515747
 30
0.0
 10
57.08096449262234
 20
274.7108909524762
 30
0.0
 10
60.03616595454386
 20
277.6658018358578
 30
0.0
  0
SPLINE
  5
149
330
142
100
AcDbEntity
  8
410143038_ESSENC
  6
Continuous
 62
     7
100
AcDbSpline
210
0.0
220
0.0
230
1.0
 70
     8
 71
     3
 72
    10
 73
     6
 74
     0
 42
0.0000000003780161
 43
0.0000000001
 40
0.0
 40
0.0
 40
0.0
 40
0.0
 40
0.0000186425909474
 40
0.5000093212954737
 40
1.0
 40
1.0
 40
1.0
 40
1.0
 10
60.03616595454386
 20
277.6658018358578
 30
0.0
 10
60.03603962351595
 20
277.6661486444677
 30
0.0
 10
62.99128866780205
 20
280.6214889737634
 30
0.0
 10
71.34996849409045
 20
284.0837675213461
 30
0.0
 10
79.70849249293023
 20
280.6215535196061
 30
0.0
 10
82.66367696768789
 20
277.6659685969219
 30
0.0
  0
LINE
  5
14A
330
142
100
AcDbEntity
  8
410143038_ESSENC
  6
Continuous
 62
     7
100
AcDbLine
 10
6.3500000001
 20
262.1028753523
 30
0.0
 11
6.3500000001
 21
266.3526605205
 31
0.0
  0
LINE
  5
14B
330
142
100
AcDbEntity
  8
410143038_ESSENC
  6
Continuous
 62
     7
100
AcDbLine
 10
6.3500000001
 20
266.3526605205
 30
0.0
 11
6.3500000001
 21
270.6024439333
 31
0.0
  0
ARC
  5
14C
330
142
100
AcDbEntity
  8
410143038_ESSENC
  6
Continuous
 62
     7
100
AcDbCircle
 10
55.7259217292
 20
261.1028578013
 30
0.0
 40
0.4998980640908757
100
AcDbArc
 50
36.6786262702
 51
90.0481247852
  0
SPLINE
  5
14D
330
142
100
AcDbEntity
  8
410143038_ESSENC
  6
Continuous
 62
     7
100
AcDbSpline
210
0.0
220
0.0
230
1.0
 70
     8
 71
     3
 72
    19
 73
    15
 74
     0
 42
0.000000009479333
 43
0.0000000001
 40
0.1377735779997016
 40
0.1377735779997016
 40
0.1377735779997016
 40
0.1377735779997016
 40
0.2974782646518833
 40
0.5617374825037236
 40
0.6877307076274762
 40
0.8045987027555856
 40
0.82464444345854
 40
0.8407841047838709
 40
0.8478361131835973
 40
0.8545198342813912
 40
0.8679176307229539
 40
0.9094770252124992
 40
0.9463496587736797
 40
1.0
 40
1.0
 40
1.0
 40
1.0
 10
56.06110038782619
 20
271.014368960999
 30
0.0
 10
56.07805359579868
 20
271.0710852066544
 30
0.0
 10
56.11858678910643
 20
271.2051888279959
 30
0.0
 10
56.16256878629208
 20
271.3326877659367
 30
0.0
 10
56.16503173681608
 20
271.3582070251513
 30
0.0
 10
56.16817061327614
 20
271.3652052169771
 30
0.0
 10
56.14108438191276
 20
271.3234568008971
 30
0.0
 10
56.12731844404497
 20
271.3040996117483
 30
0.0
 10
56.11351388638802
 20
271.2865895113651
 30
0.0
 10
56.09844190413757
 20
271.2686979004689
 30
0.0
 10
56.05654073844038
 20
271.2242217814289
 30
0.0
 10
55.98542192190089
 20
271.170223965147
 30
0.0
 10
55.86514799730521
 20
271.1151423052359
 30
0.0
 10
55.78284532654945
 20
271.1070520094753
 30
0.0
 10
55.725501848187
 20
271.1025653519043
 30
0.0
  0
LINE
  5
14E
330
142
100
AcDbEntity
  8
410143038_ESSENC
  6
Continuous
 62
     7
100
AcDbLine
 10
55.9865127073
 20
270.7652101266
 30
0.0
 11
56.0129860886
 21
270.8530248215
 31
0.0
  0
LINE
  5
14F
330
142
100
AcDbEntity
  8
410143038_ESSENC
  6
Continuous
 62
     7
100
AcDbLine
 10
6.8500000076
 20
261.6026605205
 30
0.0
 11
55.7255006656
 21
261.6026605205
 31
0.0
  0
LINE
  5
150
330
142
100
AcDbEntity
  8
410143038_ESSENC
  6
Continuous
 62
     7
100
AcDbLine
 10
55.7255006656
 20
271.1026605205
 30
0.0
 11
6.8500000076
 21
271.1026605205
 31
0.0
  0
ARC
  5
151
330
142
100
AcDbEntity
  8
410143038_ESSENC
  6
Continuous
 62
     7
100
AcDbCircle
 10
6.8500174201
 20
262.1028633839
 30
0.0
 40
0.500017420118801
100
AcDbArc
 50
179.9986285769
 51
269.9980047412
  0
ARC
  5
152
330
142
100
AcDbEntity
  8
410143038_ESSENC
  6
Continuous
 62
     7
100
AcDbCircle
 10
6.8500174201
 20
270.602457657
 30
0.0
 40
0.5000174201185115
100
AcDbArc
 50
90.0019952588
 51
180.0013714231
  0
SPLINE
  5
153
330
142
100
AcDbEntity
  8
410143038_ESSENC
  6
Continuous
 62
     7
100
AcDbSpline
210
0.0
220
0.0
230
1.0
 70
     8
 71
     3
 72
     8
 73
     4
 74
     0
 42
0.0000000007762848
 43
0.0000000001
 40
0.0000358970085605
 40
0.0000358970085605
 40
0.0000358970085605
 40
0.0000358970085605
 40
0.9999938808853526
 40
0.9999938808853526
 40
0.9999938808853526
 40
0.9999938808853526
 10
296.6640023063861
 20
277.6656723552908
 30
0.0
 10
299.619196470168
 20
274.7104379394301
 30
0.0
 10
301.3499836526177
 20
270.5315913289871
 30
0.0
 10
301.3500048350368
 20
266.35266049901
 30
0.0
  0
SPLINE
  5
154
330
142
100
AcDbEntity
  8
410143038_ESSENC
  6
Continuous
 62
     7
100
AcDbSpline
210
0.0
220
0.0
230
1.0
 70
     8
 71
     3
 72
     8
 73
     4
 74
     0
 42
0.0000000007762918
 43
0.0000000001
 40
0.0000391021637619
 40
0.0000391021637619
 40
0.0000391021637619
 40
0.0000391021637619
 40
1.0
 40
1.0
 40
1.0
 40
1.0
 10
274.0359496798709
 20
255.03969912548
 30
0.0
 10
271.0807629107518
 20
257.9949789444016
 30
0.0
 10
269.3500048352322
 20
262.1738197324388
 30
0.0
 10
269.3500048352322
 20
266.3526605204761
 30
0.0
  0
SPLINE
  5
155
330
142
100
AcDbEntity
  8
410143038_ESSENC
  6
Continuous
 62
     7
100
AcDbSpline
210
0.0
220
0.0
230
1.0
 70
     8
 71
     3
 72
     8
 73
     4
 74
     0
 42
0.0000000007763008
 43
0.0000000001
 40
0.0
 40
0.0
 40
0.0
 40
0.0
 40
0.999980317664179
 40
0.999980317664179
 40
0.999980317664179
 40
0.999980317664179
 10
269.3500048352322
 20
266.3526605204761
 30
0.0
 10
269.3500048352322
 20
270.5316079494627
 30
0.0
 10
271.0808512472302
 20
274.7105553784494
 30
0.0
 10
274.0360073182389
 20
277.6656723956598
 30
0.0
  0
SPLINE
  5
156
330
142
100
AcDbEntity
  8
410143038_ESSENC
  6
Continuous
 62
     7
100
AcDbSpline
210
0.0
220
0.0
230
1.0
 70
     8
 71
     3
 72
     9
 73
     5
 74
     0
 42
0.00000000037802
 43
0.0000000001
 40
0.0
 40
0.0
 40
0.0
 40
0.0
 40
0.5
 40
1.0
 40
1.0
 40
1.0
 40
1.0
 10
274.036181816219
 20
277.6658468884884
 30
0.0
 10
276.9914808363921
 20
280.621553519606
 30
0.0
 10
285.3500048352319
 20
284.083767521346
 30
0.0
 10
293.7085288340714
 20
280.621553519606
 30
0.0
 10
296.6636840403897
 20
277.6659906161577
 30
0.0
  0
SPLINE
  5
157
330
142
100
AcDbEntity
  8
410143038_ESSENC
  6
Continuous
 62
     7
100
AcDbSpline
210
0.0
220
0.0
230
1.0
 70
     8
 71
     3
 72
     8
 73
     4
 74
     0
 42
0.0000000007763049
 43
0.0000000001
 40
0.0
 40
0.0
 40
0.0
 40
0.0
 40
1.0
 40
1.0
 40
1.0
 40
1.0
 10
301.3500048352312
 20
266.3525837817161
 30
0.0
 10
301.349983645153
 20
262.1735031893774
 30
0.0
 10
299.6190088367
 20
257.9944300884759
 30
0.0
 10
296.6638073747785
 20
255.0395192050943
 30
0.0
  0
SPLINE
  5
158
330
142
100
AcDbEntity
  8
410143038_ESSENC
  6
Continuous
 62
     7
100
AcDbSpline
210
0.0
220
0.0
230
1.0
 70
     8
 71
     3
 72
    10
 73
     6
 74
     0
 42
0.0000000003780161
 43
0.0000000001
 40
0.0
 40
0.0
 40
0.0
 40
0.0
 40
0.0000186425909474
 40
0.5000093212954737
 40
1.0
 40
1.0
 40
1.0
 40
1.0
 10
296.6638073747785
 20
255.0395192050943
 30
0.0
 10
296.6639337058064
 20
255.0391723964844
 30
0.0
 10
293.7086846615203
 20
252.0838320671888
 30
0.0
 10
285.3500048352319
 20
248.621553519606
 30
0.0
 10
276.9914808363921
 20
252.083767521346
 30
0.0
 10
274.0362963616345
 20
255.0393524440303
 30
0.0
  0
LINE
  5
159
330
142
100
AcDbEntity
  8
410143038_ESSENC
  6
Continuous
 62
     7
100
AcDbLine
 10
350.3499733292
 20
270.6024456887
 30
0.0
 11
350.3499733292
 21
266.3526605205
 31
0.0
  0
LINE
  5
15A
330
142
100
AcDbEntity
  8
410143038_ESSENC
  6
Continuous
 62
     7
100
AcDbLine
 10
350.3499733292
 20
266.3526605205
 30
0.0
 11
350.3499733292
 21
262.1028771077
 31
0.0
  0
ARC
  5
15B
330
142
100
AcDbEntity
  8
410143038_ESSENC
  6
Continuous
 62
     7
100
AcDbCircle
 10
300.9740516001
 20
271.6024632396
 30
0.0
 40
0.4998980640907862
100
AcDbArc
 50
216.6786262702
 51
270.0481247852
  0
SPLINE
  5
15C
330
142
100
AcDbEntity
  8
410143038_ESSENC
  6
Continuous
 62
     7
100
AcDbSpline
210
0.0
220
0.0
230
1.0
 70
     8
 71
     3
 72
    19
 73
    15
 74
     0
 42
0.0000000094846374
 43
0.0000000001
 40
0.1479075093792006
 40
0.1479075093792006
 40
0.1479075093792006
 40
0.1479075093792006
 40
0.2974782646518814
 40
0.5617374825037227
 40
0.6877307076274755
 40
0.8045987027555853
 40
0.8246444434585377
 40
0.8407841047838703
 40
0.847836113183599
 40
0.8545198342813902
 40
0.8679176307229529
 40
0.9094770252124944
 40
0.9463496587736752
 40
1.0
 40
1.0
 40
1.0
 40
1.0
 10
300.6356658438967
 20
261.6802300383104
 30
0.0
 10
300.6199858050475
 20
261.6278453880847
 30
0.0
 10
300.5805760942423
 20
261.4977828198518
 30
0.0
 10
300.5374045430303
 20
261.3726332750154
 30
0.0
 10
300.534941592506
 20
261.3471140158009
 30
0.0
 10
300.5318027160466
 20
261.3401158239751
 30
0.0
 10
300.5588889474095
 20
261.381864240055
 30
0.0
 10
300.5726548852774
 20
261.4012214292039
 30
0.0
 10
300.5864594429342
 20
261.418731529587
 30
0.0
 10
300.6015314251849
 20
261.4366231404832
 30
0.0
 10
300.6434325908818
 20
261.4810992595233
 30
0.0
 10
300.7145514074215
 20
261.5350970758051
 30
0.0
 10
300.8348253320171
 20
261.5901787357162
 30
0.0
 10
300.9171280027729
 20
261.5982690314768
 30
0.0
 10
300.9744714811353
 20
261.6027556890478
 30
0.0
  0
LINE
  5
15D
330
142
100
AcDbEntity
  8
410143038_ESSENC
  6
Continuous
 62
     7
100
AcDbLine
 10
300.713460622
 20
261.9401109143
 30
0.0
 11
300.6869872407
 21
261.8522962195
 31
0.0
  0
LINE
  5
15E
330
142
100
AcDbEntity
  8
410143038_ESSENC
  6
Continuous
 62
     7
100
AcDbLine
 10
349.8499733217
 20
271.1026605205
 30
0.0
 11
300.9744726637
 21
271.1026605205
 31
0.0
  0
LINE
  5
15F
330
142
100
AcDbEntity
  8
410143038_ESSENC
  6
Continuous
 62
     7
100
AcDbLine
 10
300.9744726637
 20
261.6026605205
 30
0.0
 11
349.8499733217
 21
261.6026605205
 31
0.0
  0
ARC
  5
160
330
142
100
AcDbEntity
  8
410143038_ESSENC
  6
Continuous
 62
     7
100
AcDbCircle
 10
349.8499559092
 20
270.602457657
 30
0.0
 40
0.5000174201187424
100
AcDbArc
 50
359.9986285769
 51
89.9980047412
  0
ARC
  5
161
330
142
100
AcDbEntity
  8
410143038_ESSENC
  6
Continuous
 62
     7
100
AcDbCircle
 10
349.8499559092
 20
262.1028633839
 30
0.0
 40
0.5000174201184124
100
AcDbArc
 50
270.0019952588
 51
0.0013714231
  0
SPLINE
  5
162
330
142
100
AcDbEntity
  8
A4227427_ROSETTE
  6
Continuous
 62
     7
100
AcDbSpline
210
0.0
220
0.0
230
1.0
 70
     8
 71
     3
 72
    38
 73
    34
 74
     0
 42
0.0000000000575648
 43
0.0000000001
 40
0.0278763456747019
 40
0.0278763456747019
 40
0.0278763456747019
 40
0.0278763456747019
 40
0.031249999999989
 40
0.062499999999978
 40
0.0937500000000258
 40
0.1250000000000148
 40
0.1562500000000037
 40
0.1874999999999927
 40
0.2187499999999817
 40
0.2500000000000295
 40
0.2812500000000184
 40
0.3125000000000074
 40
0.3437499999999964
 40
0.3749999999999853
 40
0.4062499999999742
 40
0.4375000000000221
 40
0.5
 40
0.531249999999989
 40
0.562499999999978
 40
0.5937500000000258
 40
0.6250000000000148
 40
0.6562500000000038
 40
0.6874999999999928
 40
0.7187499999999817
 40
0.7500000000000294
 40
0.7812500000000183
 40
0.8125000000000073
 40
0.8437499999999963
 40
0.8749999999999852
 40
0.9062499999999742
 40
0.9375000000000221
 40
0.968750000000011
 40
0.9722768965046693
 40
0.9722768965046693
 40
0.9722768965046693
 40
0.9722768965046693
 10
312.4318652806384
 20
271.1117999496779
 30
0.0
 10
312.3979193102569
 20
271.304109718889
 30
0.0
 10
312.028112721847
 20
273.2757184066927
 30
0.0
 10
310.9046695082402
 20
276.9740051466661
 30
0.0
 10
308.2719022127782
 20
281.8510281072241
 30
0.0
 10
304.7328829042441
 20
286.084995310308
 30
0.0
 10
300.5055591777772
 20
289.481860868557
 30
0.0
 10
295.7562722337162
 20
291.9676286299461
 30
0.0
 10
290.6906125486202
 20
293.4759529064041
 30
0.0
 10
285.4332928888933
 20
294.001755905594
 30
0.0
 10
280.0933581804902
 20
293.50278817374
 30
0.0
 10
274.8910003083982
 20
291.9594818476281
 30
0.0
 10
270.0272272544612
 20
289.3887305137831
 30
0.0
 10
265.7590273318972
 20
285.891593239689
 30
0.0
 10
262.2803130064462
 20
281.636062184577
 30
0.0
 10
258.8780277770602
 20
275.201520022176
 30
0.0
 10
257.5018690198142
 20
268.11556879612
 30
0.0
 10
258.1885541477752
 20
261.027867966421
 30
0.0
 10
259.7253350865913
 20
255.8755807782581
 30
0.0
 10
262.2765892614032
 20
251.047999163521
 30
0.0
 10
265.7543854216372
 20
246.791564682559
 30
0.0
 10
270.0221306234662
 20
243.2928669244471
 30
0.0
 10
274.8855932228652
 20
240.721305649523
 30
0.0
 10
280.0878315722292
 20
239.176554956371
 30
0.0
 10
285.4282933330088
 20
238.676687379875
 30
0.0
 10
290.6863753818582
 20
239.201537814498
 30
0.0
 10
295.7533204416712
 20
240.709554409725
 30
0.0
 10
300.5035543638112
 20
243.19514513779
 30
0.0
 10
304.7320172649291
 20
246.592464713452
 30
0.0
 10
308.2716227637342
 20
250.827112358087
 30
0.0
 10
310.9052342462262
 20
255.704890479334
 30
0.0
 10
312.0308129497409
 20
259.412230014858
 30
0.0
 10
312.4011988316278
 20
261.3926282464247
 30
0.0
 10
312.4364822981285
 20
261.5936829947429
 30
0.0
  0
SPLINE
  5
163
330
142
100
AcDbEntity
  8
A4227427_ROSETTE
  6
Continuous
 62
     7
100
AcDbSpline
210
0.0
220
0.0
230
1.0
 70
     8
 71
     3
 72
    22
 73
    18
 74
     0
 42
0.0000000000575689
 43
0.0000000001
 40
0.0
 40
0.0
 40
0.0
 40
0.0
 40
0.031249999999989
 40
0.062499999999978
 40
0.0937500000000258
 40
0.1250000000000148
 40
0.1562500000000037
 40
0.1874999999999927
 40
0.2187499999999817
 40
0.2500000000000295
 40
0.2812500000000184
 40
0.3125000000000074
 40
0.3437499999999964
 40
0.3749999999999853
 40
0.4062499999999742
 40
0.4375000000000221
 40
0.4718479124149731
 40
0.4718479124149731
 40
0.4718479124149731
 40
0.4718479124149731
 10
98.85034756163313
 20
266.3392119889037
 30
0.0
 10
98.85034756162415
 20
268.1113327199971
 30
0.0
 10
98.50353027214314
 20
271.7106812059551
 30
0.0
 10
96.90466950824015
 20
276.9740051466661
 30
0.0
 10
94.27190221277813
 20
281.8510281072241
 30
0.0
 10
90.73288290424414
 20
286.084995310308
 30
0.0
 10
86.50555917777713
 20
289.4818608685571
 30
0.0
 10
81.75627223371613
 20
291.9676286299461
 30
0.0
 10
76.69061254862014
 20
293.4759529064041
 30
0.0
 10
71.43329288889325
 20
294.0017559055941
 30
0.0
 10
66.09335818049014
 20
293.5027881737401
 30
0.0
 10
60.89100030839814
 20
291.9594818476281
 30
0.0
 10
56.02722725446113
 20
289.3887305137831
 30
0.0
 10
51.75902733189714
 20
285.8915932396891
 30
0.0
 10
48.28031300644614
 20
281.6360621845771
 30
0.0
 10
45.64427923119538
 20
276.6506863783796
 30
0.0
 10
44.60280368048422
 20
273.0347508662042
 30
0.0
 10
44.26348436863151
 20
271.1117640821368
 30
0.0
  0
SPLINE
  5
164
330
142
100
AcDbEntity
  8
A4227427_ROSETTE
  6
Continuous
 62
     7
100
AcDbSpline
210
0.0
220
0.0
230
1.0
 70
     8
 71
     3
 72
    23
 73
    19
 74
     0
 42
0.0000000000575664
 43
0.0000000001
 40
0.5280391965362706
 40
0.5280391965362706
 40
0.5280391965362706
 40
0.5280391965362706
 40
0.531249999999989
 40
0.562499999999978
 40
0.5937500000000258
 40
0.6250000000000148
 40
0.6562500000000038
 40
0.6874999999999928
 40
0.7187499999999817
 40
0.7500000000000294
 40
0.7812500000000183
 40
0.8125000000000073
 40
0.8437499999999963
 40
0.8749999999999852
 40
0.9062499999999742
 40
0.9375000000000221
 40
0.968750000000011
 40
1.0
 40
1.0
 40
1.0
 40
1.0
 10
44.25883708645797
 20
261.5937235508218
 30
0.0
 10
44.29037537025521
 20
261.413919872839
 30
0.0
 10
44.648181910726
 20
259.486897373566
 30
0.0
 10
45.72533508659113
 20
255.8755807782581
 30
0.0
 10
48.27658926140313
 20
251.0479991635211
 30
0.0
 10
51.75438542163712
 20
246.7915646825591
 30
0.0
 10
56.02213062346614
 20
243.2928669244471
 30
0.0
 10
60.88559322286513
 20
240.7213056495231
 30
0.0
 10
66.08783157222913
 20
239.1765549563711
 30
0.0
 10
71.4282933330087
 20
238.6766873798751
 30
0.0
 10
76.68637538185813
 20
239.2015378144981
 30
0.0
 10
81.75332044167114
 20
240.7095544097251
 30
0.0
 10
86.50355436381113
 20
243.1951451377901
 30
0.0
 10
90.73201726492913
 20
246.5924647134521
 30
0.0
 10
94.27162276373413
 20
250.8271123580871
 30
0.0
 10
96.90523424622613
 20
255.7048904793341
 30
0.0
 10
98.50341633626314
 20
260.9688525895441
 30
0.0
 10
98.85034756164212
 20
264.5676678159141
 30
0.0
 10
98.85034756163313
 20
266.3392119889037
 30
0.0
  0
ARC
  5
165
330
142
100
AcDbEntity
  8
A4223854_STANGE_
  6
Continuous
 62
     7
100
AcDbCircle
 10
183.3499866647
 20
283.3526605205
 30
0.0
 40
2.000000000000002
100
AcDbArc
 50
180.0
 51
0.0
  0
LINE
  5
166
330
142
100
AcDbEntity
  8
A4223854_STANGE_
  6
Continuous
 62
     7
100
AcDbLine
 10
185.3499866647
 20
299.3526605205
 30
0.0
 11
181.3499866647
 21
299.3526605205
 31
0.0
  0
LINE
  5
167
330
142
100
AcDbEntity
  8
A4223854_STANGE_
  6
Continuous
 62
     7
100
AcDbLine
 10
185.3499866647
 20
283.3526605205
 30
0.0
 11
185.3499866647
 21
287.3526605205
 31
0.0
  0
LINE
  5
168
330
142
100
AcDbEntity
  8
A4223854_STANGE_
  6
Continuous
 62
     7
100
AcDbLine
 10
181.3499866647
 20
287.3526605205
 30
0.0
 11
181.3499866647
 21
283.3526605205
 31
0.0
  0
LINE
  5
169
330
142
100
AcDbEntity
  8
A4223854_STANGE_
  6
Continuous
 62
     7
100
AcDbLine
 10
181.3499866647
 20
299.3526605205
 30
0.0
 11
181.3499866647
 21
287.3526605205
 31
0.0
  0
LINE
  5
16A
330
142
100
AcDbEntity
  8
A4223854_STANGE_
  6
Continuous
 62
     7
100
AcDbLine
 10
185.3499866647
 20
287.3526605205
 30
0.0
 11
185.3499866647
 21
299.3526605205
 31
0.0
  0
SPLINE
  5
16B
330
142
100
AcDbEntity
  8
410187038_ESSENC
  6
Continuous
 62
     7
100
AcDbSpline
210
0.0
220
0.0
230
1.0
 70
     8
 71
     3
 72
    21
 73
    17
 74
     0
 42
0.0000000000575216
 43
0.0000000001
 40
0.0118069244710622
 40
0.0118069244710622
 40
0.0118069244710622
 40
0.0118069244710622
 40
0.031249999999989
 40
0.062499999999978
 40
0.0937500000000258
 40
0.1250000000000148
 40
0.1562500000000037
 40
0.1874999999999927
 40
0.2187499999999817
 40
0.2500000000000295
 40
0.2812500000000184
 40
0.3125000000000074
 40
0.3437499999999964
 40
0.3749999999999853
 40
0.4062499999999742
 40
0.4304427947021831
 40
0.4304427947021831
 40
0.4304427947021831
 40
0.4304427947021831
 10
181.3457049480162
 20
293.7784163834437
 30
0.0
 10
180.2346314032218
 20
293.6963239928188
 30
0.0
 10
177.3291001846788
 20
293.3048427596473
 30
0.0
 10
172.7286420384712
 20
291.9073433640551
 30
0.0
 10
167.8516190779131
 20
289.2745760685931
 30
0.0
 10
163.6176518748292
 20
285.7355567600591
 30
0.0
 10
160.2207863165802
 20
281.5082330335921
 30
0.0
 10
157.7350185551911
 20
276.7589460895311
 30
0.0
 10
156.2266942787331
 20
271.6932864044351
 30
0.0
 10
155.7008912795432
 20
266.4359667447082
 30
0.0
 10
156.1998590113972
 20
261.0960320363051
 30
0.0
 10
157.7431653375091
 20
255.8936741642131
 30
0.0
 10
160.3139166713541
 20
251.0299011102761
 30
0.0
 10
163.8110539454482
 20
246.7617011877121
 30
0.0
 10
167.7462419999495
 20
243.5448535413782
 30
0.0
 10
170.5621460608246
 20
241.9738936709533
 30
0.0
 10
171.8289364810938
 20
241.3876491284121
 30
0.0
  0
SPLINE
  5
16C
330
142
100
AcDbEntity
  8
410187038_ESSENC
  6
Continuous
 62
     7
100
AcDbSpline
210
0.0
220
0.0
230
1.0
 70
     8
 71
     3
 72
    21
 73
    17
 74
     0
 42
0.0000000000575152
 43
0.0000000001
 40
0.56942721412355
 40
0.56942721412355
 40
0.56942721412355
 40
0.56942721412355
 40
0.5937500000000258
 40
0.6250000000000148
 40
0.6562500000000038
 40
0.6874999999999928
 40
0.7187499999999817
 40
0.7500000000000294
 40
0.7812500000000183
 40
0.8125000000000073
 40
0.8437499999999963
 40
0.8749999999999852
 40
0.9062499999999742
 40
0.9375000000000221
 40
0.968750000000011
 40
0.9883471673752819
 40
0.9883471673752819
 40
0.9883471673752819
 40
0.9883471673752819
 10
194.8706467431939
 20
241.3749518730986
 30
0.0
 10
196.1450055299376
 20
241.963040856521
 30
0.0
 10
198.9691571741769
 20
243.5362384631389
 30
0.0
 10
202.9110825025782
 20
246.7570592774521
 30
0.0
 10
206.4097802606902
 20
251.0248044792811
 30
0.0
 10
208.9813415356141
 20
255.8882670786801
 30
0.0
 10
210.5260922287661
 20
261.0905054280441
 30
0.0
 10
211.0259598052621
 20
266.4309671888236
 30
0.0
 10
210.5011093706391
 20
271.6890492376731
 30
0.0
 10
208.9930927754122
 20
276.7559942974861
 30
0.0
 10
206.5075020473471
 20
281.5062282196261
 30
0.0
 10
203.1101824716852
 20
285.7346911207441
 30
0.0
 10
198.8755348270501
 20
289.2742966195491
 30
0.0
 10
193.9977567058032
 20
291.9079081020411
 30
0.0
 10
189.3880886693331
 20
293.3074411424886
 30
0.0
 10
186.4738324616418
 20
293.6986767974151
 30
0.0
 10
185.3542300282064
 20
293.7803419076022
 30
0.0
  0
ARC
  5
16D
330
142
100
AcDbEntity
  8
410187038_ESSENC
  6
Continuous
 62
     7
100
AcDbCircle
 10
183.3499866647
 20
283.3526605205
 30
0.0
 40
2.25
100
AcDbArc
 50
0.0
 51
27.2660444507
  0
ARC
  5
16E
330
142
100
AcDbEntity
  8
410187038_ESSENC
  6
Continuous
 62
     7
100
AcDbCircle
 10
183.3499866647
 20
283.3526605205
 30
0.0
 40
2.25
100
AcDbArc
 50
152.7339555493
 51
0.0
  0
ARC
  5
16F
330
142
100
AcDbEntity
  8
410203038_ESSENC
  6
Continuous
 62
     7
100
AcDbCircle
 10
183.3499866647
 20
266.3526605205
 30
0.0
 40
11.5
100
AcDbArc
 50
0.0
 51
180.0
  0
LINE
  5
170
330
142
100
AcDbEntity
  8
410203038_ESSENC
  6
Continuous
 62
     7
100
AcDbLine
 10
171.8499866647
 20
266.3526605205
 30
0.0
 11
171.8499866647
 21
224.3526605205
 31
0.0
  0
LINE
  5
171
330
142
100
AcDbEntity
  8
410203038_ESSENC
  6
Continuous
 62
     7
100
AcDbLine
 10
194.8499866647
 20
224.3526605205
 30
0.0
 11
194.8499866647
 21
266.3526605205
 31
0.0
  0
LINE
  5
172
330
142
100
AcDbEntity
  8
410203038_ESSENC
  6
Continuous
 62
     7
100
AcDbLine
 10
194.8499866647
 20
172.9326605205
 30
0.0
 11
194.8499866647
 21
224.3526605205
 31
0.0
  0
LINE
  5
173
330
142
100
AcDbEntity
  8
410203038_ESSENC
  6
Continuous
 62
     7
100
AcDbLine
 10
171.8499866647
 20
224.3526605205
 30
0.0
 11
171.8499866647
 21
172.9326605205
 31
0.0
  0
LINE
  5
174
330
142
100
AcDbEntity
  8
A4225301_NIPPEL_
  6
Continuous
 62
     7
100
AcDbLine
 10
171.8499866647
 20
172.4326605205
 30
0.0
 11
171.8499866647
 21
106.9256758767
 31
0.0
  0
LINE
  5
175
330
142
100
AcDbEntity
  8
A4225301_NIPPEL_
  6
Continuous
 62
     7
100
AcDbLine
 10
194.8499866647
 20
106.9256758767
 30
0.0
 11
194.8499866647
 21
172.4326605205
 31
0.0
  0
ARC
  5
176
330
142
100
AcDbEntity
  8
A4225301_NIPPEL_
  6
Continuous
 62
     7
100
AcDbCircle
 10
183.3499866647
 20
906.35
 30
0.0
 40
800.0000000000003
100
AcDbArc
 50
269.211665465
 51
270.0
  0
ARC
  5
177
330
142
100
AcDbEntity
  8
A4225301_NIPPEL_
  6
Continuous
 62
     7
100
AcDbCircle
 10
183.3499866647
 20
906.35
 30
0.0
 40
800.0
100
AcDbArc
 50
270.0
 51
270.788334535
  0
ARC
  5
178
330
142
100
AcDbEntity
  8
A4225301_NIPPEL_
  6
Continuous
 62
     7
100
AcDbCircle
 10
172.3499866647
 20
106.9256758767
 30
0.0
 40
0.4999999999999987
100
AcDbArc
 50
180.0
 51
269.2116654671
  0
ARC
  5
179
330
142
100
AcDbEntity
  8
A4225301_NIPPEL_
  6
Continuous
 62
     7
100
AcDbCircle
 10
194.3499866647
 20
106.9256758767
 30
0.0
 40
0.5000000000002476
100
AcDbArc
 50
270.7883345329
 51
0.0
  0
LINE
  5
17B
330
142
100
AcDbEntity
  8
DV3_Standard
  6
Continuous
 62
     7
100
AcDbLine
 10
171.8499866647
 20
172.9326605205
 30
0.0
 11
171.8499866647
 21
172.4326605205
 31
0.0
  0
LINE
  5
17C
330
142
100
AcDbEntity
  8
DV3_Standard
  6
Continuous
 62
     7
100
AcDbLine
 10
194.8499866647
 20
172.4326605205
 30
0.0
 11
194.8499866647
 21
172.9326605205
 31
0.0
  0
ENDBLK
  5
17E
330
142
100
AcDbEntity
  8
0
100
AcDbBlockEnd
  0
ENDSEC
  0
SECTION
  2
ENTITIES
  0
INSERT
  5
5F
330
1F
100
AcDbEntity
  8
Default
100
AcDbBlockReference
  2
SEANNOT_GROUP
 10
0.0
 20
0.0
 30
0.0
  0
INSERT
  5
66
330
1F
100
AcDbEntity
  8
Default
100
AcDbBlockReference
  2
SEANNOT_GROUP1
 10
0.0
 20
0.0
 30
0.0
  0
INSERT
  5
6C
330
1F
100
AcDbEntity
  8
Default
100
AcDbBlockReference
  2
SEANNOT_GROUP2
 10
0.0
 20
0.0
 30
0.0
  0
INSERT
  5
72
330
1F
100
AcDbEntity
  8
Default
100
AcDbBlockReference
  2
SEANNOT_GROUP3
 10
0.0
 20
0.0
 30
0.0
  0
INSERT
  5
78
330
1F
100
AcDbEntity
  8
Default
100
AcDbBlockReference
  2
SEANNOT_GROUP4
 10
0.0
 20
0.0
 30
0.0
  0
INSERT
  5
82
330
1F
100
AcDbEntity
  8
Default
100
AcDbBlockReference
  2
SEANNOT_GROUP5
 10
0.0
 20
0.0
 30
0.0
  0
INSERT
  5
8C
330
1F
100
AcDbEntity
  8
Default
100
AcDbBlockReference
  2
SEANNOT_GROUP6
 10
0.0
 20
0.0
 30
0.0
  0
INSERT
  5
96
330
1F
100
AcDbEntity
  8
Default
100
AcDbBlockReference
  2
SE
 10
0.0
 20
0.0
 30
0.0
  0
INSERT
  5
FE
330
1F
100
AcDbEntity
  8
Default
100
AcDbBlockReference
  2
SE1
 10
0.0
 20
0.0
 30
0.0
  0
INSERT
  5
143
330
1F
100
AcDbEntity
  8
Default
100
AcDbBlockReference
  2
SE2
 10
0.0
 20
0.0
 30
0.0
  0
TEXT
  5
180
330
1F
100
AcDbEntity
  8
Default
  6
Continuous
 62
     7
100
AcDbText
 10
5.9362635081
 20
53.4225120485
 30
0.0
 40
10.0
  1
Grohe AG^J
  7
SEACAD_seiso_ttf
 11
5.9362635081
 21
63.4225120485
 31
0.0
100
AcDbText
 73
     3
  0
TEXT
  5
181
330
1F
100
AcDbEntity
  8
Default
  6
Continuous
 62
     7
100
AcDbText
 10
5.9362635081
 20
37.0588756849
 30
0.0
 40
10.0
  1
 
  7
SEACAD_seiso_ttf
 11
5.9362635081
 21
47.0588756849
 31
0.0
100
AcDbText
 73
     3
  0
TEXT
  5
182
330
1F
100
AcDbEntity
  8
Default
  6
Continuous
 62
     7
100
AcDbText
 10
5.9362635081
 20
20.6952393213
 30
0.0
 40
10.0
  1
ecn: 
  7
SEACAD_seiso_ttf
 11
5.9362635081
 21
30.6952393213
 31
0.0
100
AcDbText
 73
     3
  0
TEXT
  5
183
330
1F
100
AcDbEntity
  8
Default
  6
Continuous
 62
     7
100
AcDbText
 10
5.9362635081
 20
4.3316029576
 30
0.0
 40
10.0
  1
unit: mm
  7
SEACAD_seiso_ttf
 11
5.9362635081
 21
14.3316029576
 31
0.0
100
AcDbText
 73
     3
  0
LINE
  5
184
330
1F
100
AcDbEntity
  8
Default
  6
Continuous
 62
     7
100
AcDbLine
 10
0.0
 20
0.0
 30
0.0
 11
100.0
 21
0.0
 31
0.0
  0
LINE
  5
185
330
1F
100
AcDbEntity
  8
Default
  6
Continuous
 62
     7
100
AcDbLine
 10
0.0
 20
0.0
 30
0.0
 11
0.0
 21
100.0
 31
0.0
  0
TEXT
  5
186
330
1F
100
AcDbEntity
  8
Default
  6
Continuous
 62
     7
100
AcDbText
 10
24.3923665681
 20
-18.2375342018
 30
0.0
 40
10.0
  1
100 mm
  7
SEACAD_seiso_ttf
 11
24.3923665681
 21
-8.2375342018
 31
0.0
100
AcDbText
 73
     3
  0
TEXT
  5
187
330
1F
100
AcDbEntity
  8
Default
  6
Continuous
 62
     7
100
AcDbText
 10
-7.6150308803
 20
24.6231930421
 30
0.0
 40
10.0
  1
100 mm
 50
90.0
  7
SEACAD_seiso_ttf
 11
-17.6150308803
 21
24.6231930421
 31
0.0
100
AcDbText
 73
     3
  0
TEXT
  5
188
330
1F
100
AcDbEntity
  8
Default
  6
Continuous
 62
     7
100
AcDbText
 10
28.4878128572
 20
20.0907663715
 30
0.0
 40
10.0
  1
220040
  7
SEACAD_seiso_ttf
 11
28.4878128572
 21
30.0907663715
 31
0.0
100
AcDbText
 73
     3
  0
TEXT
  5
189
330
1F
100
AcDbEntity
  8
Default
  6
Continuous
 62
     7
100
AcDbText
 10
5.9012241913
 20
36.7242780188
 30
0.0
 40
10.0
  1
20297000
  7
SEACAD_seiso_ttf
 11
5.9012241913
 21
46.7242780188
 31
0.0
100
AcDbText
 73
     3
  0
ENDSEC
  0
SECTION
  2
OBJECTS
  0
DICTIONARY
  5
C
330
0
100
AcDbDictionary
281
     1
  3
ACAD_GROUP
350
D
  3
ACAD_LAYOUT
350
1A
  3
ACAD_MLEADERSTYLE
350
18D
  3
ACAD_MLINESTYLE
350
17
  3
ACAD_PLOTSETTINGS
350
19
  3
ACAD_PLOTSTYLENAME
350
E
  3
ACAD_SCALELIST
350
3B
  3
ACAD_TABLESTYLE
350
18C
  3
ACAD_VISUALSTYLE
350
2A
  3
AcDbVariableDictionary
350
18A
  0
DICTIONARY
  5
D
102
{ACAD_REACTORS
330
C
102
}
330
C
100
AcDbDictionary
281
     1
  0
DICTIONARY
  5
1A
102
{ACAD_REACTORS
330
C
102
}
330
C
100
AcDbDictionary
281
     1
  3
Layout1
350
1E
  3
Model
350
22
  0
DICTIONARY
  5
18D
102
{ACAD_REACTORS
330
C
102
}
330
C
100
AcDbDictionary
281
     1
  0
DICTIONARY
  5
17
102
{ACAD_REACTORS
330
C
102
}
330
C
100
AcDbDictionary
281
     1
  3
Standard
350
18
  0
DICTIONARY
  5
19
102
{ACAD_REACTORS
330
C
102
}
330
C
100
AcDbDictionary
281
     1
  0
ACDBDICTIONARYWDFLT
  5
E
102
{ACAD_REACTORS
330
C
102
}
330
C
100
AcDbDictionary
281
     1
  3
Normal
350
F
100
AcDbDictionaryWithDefault
340
F
  0
DICTIONARY
  5
3B
102
{ACAD_REACTORS
330
C
102
}
330
C
100
AcDbDictionary
281
     1
  3
A0
350
3C
  3
A1
350
3D
  3
A2
350
3E
  3
A3
350
3F
  3
A4
350
40
  3
A5
350
41
  3
A6
350
42
  3
A7
350
43
  3
A8
350
44
  3
A9
350
45
  3
B0
350
46
  3
B1
350
47
  3
B2
350
48
  3
B3
350
49
  3
B4
350
4A
  3
B5
350
4B
  3
B6
350
4C
  3
B7
350
4D
  3
B8
350
4E
  3
B9
350
4F
  3
C0
350
50
  3
C1
350
51
  3
C2
350
52
  3
C3
350
53
  3
C4
350
54
  3
C5
350
55
  3
C6
350
56
  3
C7
350
57
  3
C8
350
58
  3
C9
350
59
  3
D0
350
5A
  3
D1
350
5B
  3
D2
350
5C
  0
DICTIONARY
  5
18C
102
{ACAD_REACTORS
330
C
102
}
330
C
100
AcDbDictionary
281
     1
  0
DICTIONARY
  5
2A
102
{ACAD_REACTORS
330
C
102
}
330
C
100
AcDbDictionary
281
     1
  3
2dWireframe
350
2F
  3
3D Hidden
350
31
  3
3dWireframe
350
30
  3
Basic
350
32
  3
Brighten
350
36
  3
ColorChange
350
3A
  3
Conceptual
350
34
  3
Dim
350
35
  3
Facepattern
350
39
  3
Flat
350
2B
  3
FlatWithEdges
350
2C
  3
Gouraud
350
2D
  3
GouraudWithEdges
350
2E
  3
Linepattern
350
38
  3
Realistic
350
33
  3
Thicken
350
37
  0
DICTIONARY
  5
18A
102
{ACAD_REACTORS
330
C
102
}
330
C
100
AcDbDictionary
281
     1
  3
CANNOSCALE
350
18B
  3
PSOLHEIGHT
350
18F
  3
PSOLWIDTH
350
18E
  0
LAYOUT
  5
1E
102
{ACAD_REACTORS
330
1A
102
}
330
1A
100
AcDbPlotSettings
  1

  2
none_device
  4

  6

 40
0.0
 41
0.0
 42
0.0
 43
0.0
 44
0.0
 45
0.0
 46
0.0
 47
0.0
 48
0.0
 49
0.0
140
0.0
141
0.0
142
1.0
143
1.0
 70
   688
 72
     0
 73
     0
 74
     5
  7

 75
    16
147
1.0
148
0.0
149
0.0
100
AcDbLayout
  1
Layout1
 70
     1
 71
     1
 10
0.0
 20
0.0
 11
1682.0
 21
2378.0
 12
0.0
 22
0.0
 32
0.0
 14
0.0
 24
0.0
 34
0.0
 15
1682.0
 25
2378.0
 35
0.0
146
0.0
 13
0.0
 23
0.0
 33
0.0
 16
1.0
 26
0.0
 36
0.0
 17
0.0
 27
1.0
 37
0.0
 76
     0
330
1B
  0
LAYOUT
  5
22
102
{ACAD_REACTORS
330
1A
102
}
330
1A
100
AcDbPlotSettings
  1

  2
none_device
  4

  6

 40
0.0
 41
0.0
 42
0.0
 43
0.0
 44
0.0
 45
0.0
 46
0.0
 47
0.0
 48
0.0
 49
0.0
140
0.0
141
0.0
142
1.0
143
1.0
 70
  1712
 72
     0
 73
     0
 74
     0
  7

 75
     0
147
1.0
148
0.0
149
0.0
100
AcDbLayout
  1
Model
 70
     1
 71
     0
 10
0.0
 20
0.0
 11
1682.0
 21
2378.0
 12
0.0
 22
0.0
 32
0.0
 14
0.0
 24
0.0
 34
0.0
 15
1682.0
 25
2378.0
 35
0.0
146
0.0
 13
0.0
 23
0.0
 33
0.0
 16
1.0
 26
0.0
 36
0.0
 17
0.0
 27
1.0
 37
0.0
 76
     0
330
1F
331
29
  0
MLINESTYLE
  5
18
102
{ACAD_REACTORS
330
17
102
}
330
17
100
AcDbMlineStyle
  2
Standard
 70
     0
  3

 62
   256
 51
90.0
 52
90.0
 71
     2
 49
0.5
 62
   256
  6
BYLAYER
 49
-0.5
 62
   256
  6
BYLAYER
  0
ACDBPLACEHOLDER
  5
F
102
{ACAD_REACTORS
330
E
102
}
330
E
  0
SCALE
  5
3C
102
{ACAD_REACTORS
330
3B
102
}
330
3B
100
AcDbScale
 70
     0
300
1:1
140
1.0
141
1.0
290
     1
  0
SCALE
  5
3D
102
{ACAD_REACTORS
330
3B
102
}
330
3B
100
AcDbScale
 70
     0
300
1:2
140
1.0
141
2.0
290
     0
  0
SCALE
  5
3E
102
{ACAD_REACTORS
330
3B
102
}
330
3B
100
AcDbScale
 70
     0
300
1:4
140
1.0
141
4.0
290
     0
  0
SCALE
  5
3F
102
{ACAD_REACTORS
330
3B
102
}
330
3B
100
AcDbScale
 70
     0
300
1:5
140
1.0
141
5.0
290
     0
  0
SCALE
  5
40
102
{ACAD_REACTORS
330
3B
102
}
330
3B
100
AcDbScale
 70
     0
300
1:8
140
1.0
141
8.0
290
     0
  0
SCALE
  5
41
102
{ACAD_REACTORS
330
3B
102
}
330
3B
100
AcDbScale
 70
     0
300
1:10
140
1.0
141
10.0
290
     0
  0
SCALE
  5
42
102
{ACAD_REACTORS
330
3B
102
}
330
3B
100
AcDbScale
 70
     0
300
1:16
140
1.0
141
16.0
290
     0
  0
SCALE
  5
43
102
{ACAD_REACTORS
330
3B
102
}
330
3B
100
AcDbScale
 70
     0
300
1:20
140
1.0
141
20.0
290
     0
  0
SCALE
  5
44
102
{ACAD_REACTORS
330
3B
102
}
330
3B
100
AcDbScale
 70
     0
300
1:30
140
1.0
141
30.0
290
     0
  0
SCALE
  5
45
102
{ACAD_REACTORS
330
3B
102
}
330
3B
100
AcDbScale
 70
     0
300
1:40
140
1.0
141
40.0
290
     0
  0
SCALE
  5
46
102
{ACAD_REACTORS
330
3B
102
}
330
3B
100
AcDbScale
 70
     0
300
1:50
140
1.0
141
50.0
290
     0
  0
SCALE
  5
47
102
{ACAD_REACTORS
330
3B
102
}
330
3B
100
AcDbScale
 70
     0
300
1:100
140
1.0
141
100.0
290
     0
  0
SCALE
  5
48
102
{ACAD_REACTORS
330
3B
102
}
330
3B
100
AcDbScale
 70
     0
300
2:1
140
2.0
141
1.0
290
     0
  0
SCALE
  5
49
102
{ACAD_REACTORS
330
3B
102
}
330
3B
100
AcDbScale
 70
     0
300
4:1
140
4.0
141
1.0
290
     0
  0
SCALE
  5
4A
102
{ACAD_REACTORS
330
3B
102
}
330
3B
100
AcDbScale
 70
     0
300
8:1
140
8.0
141
1.0
290
     0
  0
SCALE
  5
4B
102
{ACAD_REACTORS
330
3B
102
}
330
3B
100
AcDbScale
 70
     0
300
10:1
140
10.0
141
1.0
290
     0
  0
SCALE
  5
4C
102
{ACAD_REACTORS
330
3B
102
}
330
3B
100
AcDbScale
 70
     0
300
100:1
140
100.0
141
1.0
290
     0
  0
SCALE
  5
4D
102
{ACAD_REACTORS
330
3B
102
}
330
3B
100
AcDbScale
 70
     0
300
1/128" = 1'-0"
140
0.0078125
141
12.0
290
     0
  0
SCALE
  5
4E
102
{ACAD_REACTORS
330
3B
102
}
330
3B
100
AcDbScale
 70
     0
300
1/64" = 1'-0"
140
0.015625
141
12.0
290
     0
  0
SCALE
  5
4F
102
{ACAD_REACTORS
330
3B
102
}
330
3B
100
AcDbScale
 70
     0
300
1/32" = 1'-0"
140
0.03125
141
12.0
290
     0
  0
SCALE
  5
50
102
{ACAD_REACTORS
330
3B
102
}
330
3B
100
AcDbScale
 70
     0
300
1/16" = 1'-0"
140
0.0625
141
12.0
290
     0
  0
SCALE
  5
51
102
{ACAD_REACTORS
330
3B
102
}
330
3B
100
AcDbScale
 70
     0
300
3/32" = 1'-0"
140
0.09375
141
12.0
290
     0
  0
SCALE
  5
52
102
{ACAD_REACTORS
330
3B
102
}
330
3B
100
AcDbScale
 70
     0
300
1/8" = 1'-0"
140
0.125
141
12.0
290
     0
  0
SCALE
  5
53
102
{ACAD_REACTORS
330
3B
102
}
330
3B
100
AcDbScale
 70
     0
300
3/16" = 1'-0"
140
0.1875
141
12.0
290
     0
  0
SCALE
  5
54
102
{ACAD_REACTORS
330
3B
102
}
330
3B
100
AcDbScale
 70
     0
300
1/4" = 1'-0"
140
0.25
141
12.0
290
     0
  0
SCALE
  5
55
102
{ACAD_REACTORS
330
3B
102
}
330
3B
100
AcDbScale
 70
     0
300
3/8" = 1'-0"
140
0.375
141
12.0
290
     0
  0
SCALE
  5
56
102
{ACAD_REACTORS
330
3B
102
}
330
3B
100
AcDbScale
 70
     0
300
1/2" = 1'-0"
140
0.5
141
12.0
290
     0
  0
SCALE
  5
57
102
{ACAD_REACTORS
330
3B
102
}
330
3B
100
AcDbScale
 70
     0
300
3/4" = 1'-0"
140
0.75
141
12.0
290
     0
  0
SCALE
  5
58
102
{ACAD_REACTORS
330
3B
102
}
330
3B
100
AcDbScale
 70
     0
300
1" = 1'-0"
140
1.0
141
12.0
290
     0
  0
SCALE
  5
59
102
{ACAD_REACTORS
330
3B
102
}
330
3B
100
AcDbScale
 70
     0
300
1-1/2" = 1'-0"
140
1.5
141
12.0
290
     0
  0
SCALE
  5
5A
102
{ACAD_REACTORS
330
3B
102
}
330
3B
100
AcDbScale
 70
     0
300
3" = 1'-0"
140
3.0
141
12.0
290
     0
  0
SCALE
  5
5B
102
{ACAD_REACTORS
330
3B
102
}
330
3B
100
AcDbScale
 70
     0
300
6" = 1'-0"
140
6.0
141
12.0
290
     0
  0
SCALE
  5
5C
102
{ACAD_REACTORS
330
3B
102
}
330
3B
100
AcDbScale
 70
     0
300
1'-0" = 1'-0"
140
12.0
141
12.0
290
     0
  0
VISUALSTYLE
  5
2F
102
{ACAD_REACTORS
330
2A
102
}
330
2A
100
AcDbVisualStyle
  2
2dWireframe
 70
     4
 71
     0
 72
     2
 73
     0
 90
        0
 40
-0.6
 41
-30.0
 62
     5
 63
     7
 74
     1
 91
        4
 64
     7
 65
   257
 75
     1
175
     1
 42
1.0
 92
        0
 66
   257
 43
1.0
 76
     1
 77
     6
 78
     2
 67
     7
 79
     5
170
     0
171
     0
290
     0
174
     0
 93
        1
 44
0.0
173
     0
291
     0
 45
0.0
1001
ACAD
1000
AcDbSavedByObjectVersion
1070
     0
  0
VISUALSTYLE
  5
31
102
{ACAD_REACTORS
330
2A
102
}
330
2A
100
AcDbVisualStyle
  2
3D Hidden
 70
     6
 71
     1
 72
     2
 73
     2
 90
        0
 40
-0.6
 41
-30.0
 62
     5
 63
     7
 74
     2
 91
        2
 64
     7
 65
   257
 75
     2
175
     1
 42
40.0
 92
        0
 66
   257
 43
1.0
 76
     1
 77
     6
 78
     2
 67
     7
 79
     3
170
     0
171
     0
290
     0
174
     0
 93
        1
 44
0.0
173
     0
291
     0
 45
0.0
1001
ACAD
1000
AcDbSavedByObjectVersion
1070
     0
  0
VISUALSTYLE
  5
30
102
{ACAD_REACTORS
330
2A
102
}
330
2A
100
AcDbVisualStyle
  2
3dWireframe
 70
     5
 71
     0
 72
     2
 73
     0
 90
        0
 40
-0.6
 41
-30.0
 62
     5
 63
     7
 74
     1
 91
        4
 64
     7
 65
   257
 75
     1
175
     1
 42
1.0
 92
        0
 66
   257
 43
1.0
 76
     1
 77
     6
 78
     2
 67
     7
 79
     5
170
     0
171
     0
290
     0
174
     0
 93
        1
 44
0.0
173
     0
291
     0
 45
0.0
1001
ACAD
1000
AcDbSavedByObjectVersion
1070
     0
  0
VISUALSTYLE
  5
32
102
{ACAD_REACTORS
330
2A
102
}
330
2A
100
AcDbVisualStyle
  2
Basic
 70
     7
 71
     1
 72
     0
 73
     1
 90
        0
 40
-0.6
 41
-30.0
 62
     5
 63
     7
 74
     0
 91
        4
 64
     7
 65
   257
 75
     1
175
     1
 42
1.0
 92
        8
 66
     7
 43
1.0
 76
     1
 77
     6
 78
     2
 67
     7
 79
     5
170
     0
171
     0
290
     0
174
     0
 93
        1
 44
0.0
173
     0
291
     1
 45
0.0
1001
ACAD
1000
AcDbSavedByObjectVersion
1070
     0
  0
VISUALSTYLE
  5
36
102
{ACAD_REACTORS
330
2A
102
}
330
2A
100
AcDbVisualStyle
  2
Brighten
 70
    12
 71
     2
 72
     2
 73
     0
 90
        0
 40
-0.6
 41
-30.0
 62
     5
 63
     7
 74
     1
 91
        4
 64
     7
 65
   257
 75
     1
175
     1
 42
1.0
 92
        8
 66
     7
 43
1.0
 76
     1
 77
     6
 78
     2
 67
     7
 79
     5
170
     0
171
     0
290
     0
174
     0
 93
        1
 44
50.0
173
     0
291
     1
 45
0.0
1001
ACAD
1000
AcDbSavedByObjectVersion
1070
     0
  0
VISUALSTYLE
  5
3A
102
{ACAD_REACTORS
330
2A
102
}
330
2A
100
AcDbVisualStyle
  2
ColorChange
 70
    16
 71
     2
 72
     2
 73
     3
 90
        0
 40
-0.6
 41
-30.0
 62
     5
 63
     8
 74
     1
 91
        4
 64
     7
 65
   257
 75
     1
175
     1
 42
1.0
 92
        8
 66
     8
 43
1.0
 76
     1
 77
     6
 78
     2
 67
     7
 79
     5
170
     0
171
     0
290
     0
174
     0
 93
        1
 44
0.0
173
     0
291
     1
 45
0.0
1001
ACAD
1000
AcDbSavedByObjectVersion
1070
     0
  0
VISUALSTYLE
  5
34
102
{ACAD_REACTORS
330
2A
102
}
330
2A
100
AcDbVisualStyle
  2
Conceptual
 70
     9
 71
     3
 72
     2
 73
     0
 90
        0
 40
-0.6
 41
-30.0
 62
     5
 63
     7
 74
     2
 91
        2
 64
     7
 65
   257
 75
     1
175
     1
 42
40.0
 92
        8
 66
     7
 43
1.0
 76
     1
 77
     6
 78
     2
 67
     7
 79
     3
170
     0
171
     0
290
     0
174
     0
 93
        1
 44
0.0
173
     0
291
     0
 45
0.0
1001
ACAD
1000
AcDbSavedByObjectVersion
1070
     0
  0
VISUALSTYLE
  5
35
102
{ACAD_REACTORS
330
2A
102
}
330
2A
100
AcDbVisualStyle
  2
Dim
 70
    11
 71
     2
 72
     2
 73
     0
 90
        0
 40
-0.6
 41
-30.0
 62
     5
 63
     7
 74
     1
 91
        4
 64
     7
 65
   257
 75
     1
175
     1
 42
1.0
 92
        8
 66
     7
 43
1.0
 76
     1
 77
     6
 78
     2
 67
     7
 79
     5
170
     0
171
     0
290
     0
174
     0
 93
        1
 44
-50.0
173
     0
291
     1
 45
0.0
1001
ACAD
1000
AcDbSavedByObjectVersion
1070
     0
  0
VISUALSTYLE
  5
39
102
{ACAD_REACTORS
330
2A
102
}
330
2A
100
AcDbVisualStyle
  2
Facepattern
 70
    15
 71
     2
 72
     2
 73
     0
 90
        0
 40
-0.6
 41
-30.0
 62
     5
 63
     7
 74
     1
 91
        4
 64
     7
 65
   257
 75
     1
175
     1
 42
1.0
 92
        8
 66
     7
 43
1.0
 76
     1
 77
     6
 78
     2
 67
     7
 79
     5
170
     0
171
     0
290
     0
174
     0
 93
        1
 44
0.0
173
     0
291
     1
 45
0.0
1001
ACAD
1000
AcDbSavedByObjectVersion
1070
     0
  0
VISUALSTYLE
  5
2B
102
{ACAD_REACTORS
330
2A
102
}
330
2A
100
AcDbVisualStyle
  2
Flat
 70
     0
 71
     2
 72
     1
 73
     1
 90
        2
 40
-0.6
 41
30.0
 62
     5
 63
     7
 74
     0
 91
        4
 64
     7
 65
   257
 75
     1
175
     1
 42
1.0
 92
        8
 66
     7
 43
1.0
 76
     1
 77
     6
 78
     2
 67
     7
 79
     5
170
     0
171
     0
290
     0
174
     0
 93
       13
 44
0.0
173
     0
291
     1
 45
0.0
1001
ACAD
1000
AcDbSavedByObjectVersion
1070
     0
  0
VISUALSTYLE
  5
2C
102
{ACAD_REACTORS
330
2A
102
}
330
2A
100
AcDbVisualStyle
  2
FlatWithEdges
 70
     1
 71
     2
 72
     1
 73
     1
 90
        2
 40
-0.6
 41
30.0
 62
     5
 63
     7
 74
     1
 91
        4
 64
     7
 65
   257
 75
     1
175
     1
 42
1.0
 92
        0
 66
   257
 43
1.0
 76
     1
 77
     6
 78
     2
 67
     7
 79
     5
170
     0
171
     0
290
     0
174
     0
 93
       13
 44
0.0
173
     0
291
     1
 45
0.0
1001
ACAD
1000
AcDbSavedByObjectVersion
1070
     0
  0
VISUALSTYLE
  5
2D
102
{ACAD_REACTORS
330
2A
102
}
330
2A
100
AcDbVisualStyle
  2
Gouraud
 70
     2
 71
     2
 72
     2
 73
     1
 90
        2
 40
-0.6
 41
30.0
 62
     5
 63
     7
 74
     0
 91
        4
 64
     7
 65
   257
 75
     1
175
     1
 42
1.0
 92
        0
 66
     7
 43
1.0
 76
     1
 77
     6
 78
     2
 67
     7
 79
     5
170
     0
171
     0
290
     0
174
     0
 93
       13
 44
0.0
173
     0
291
     1
 45
0.0
1001
ACAD
1000
AcDbSavedByObjectVersion
1070
     0
  0
VISUALSTYLE
  5
2E
102
{ACAD_REACTORS
330
2A
102
}
330
2A
100
AcDbVisualStyle
  2
GouraudWithEdges
 70
     3
 71
     2
 72
     2
 73
     1
 90
        2
 40
-0.6
 41
30.0
 62
     5
 63
     7
 74
     1
 91
        4
 64
     7
 65
   257
 75
     1
175
     1
 42
1.0
 92
        0
 66
   257
 43
1.0
 76
     1
 77
     6
 78
     2
 67
     7
 79
     5
170
     0
171
     0
290
     0
174
     0
 93
       13
 44
0.0
173
     0
291
     1
 45
0.0
1001
ACAD
1000
AcDbSavedByObjectVersion
1070
     0
  0
VISUALSTYLE
  5
38
102
{ACAD_REACTORS
330
2A
102
}
330
2A
100
AcDbVisualStyle
  2
Linepattern
 70
    14
 71
     2
 72
     2
 73
     0
 90
        0
 40
-0.6
 41
-30.0
 62
     5
 63
     7
 74
     1
 91
        4
 64
     7
 65
   257
 75
     7
175
     7
 42
1.0
 92
        8
 66
     7
 43
1.0
 76
     1
 77
     6
 78
     2
 67
     7
 79
     5
170
     0
171
     0
290
     0
174
     0
 93
        1
 44
0.0
173
     0
291
     1
 45
0.0
1001
ACAD
1000
AcDbSavedByObjectVersion
1070
     0
  0
VISUALSTYLE
  5
33
102
{ACAD_REACTORS
330
2A
102
}
330
2A
100
AcDbVisualStyle
  2
Realistic
 70
     8
 71
     2
 72
     2
 73
     0
 90
        0
 40
-0.6
 41
-30.0
 62
     5
 63
     7
 74
     1
 91
        0
 64
     7
 65
   257
 75
     1
175
     1
 42
1.0
 92
        8
 66
     8
 43
1.0
 76
     1
 77
     6
 78
     2
 67
     7
 79
     5
170
     0
171
     0
290
     0
174
     0
 93
       13
 44
0.0
173
     0
291
     0
 45
0.0
1001
ACAD
1000
AcDbSavedByObjectVersion
1070
     0
  0
VISUALSTYLE
  5
37
102
{ACAD_REACTORS
330
2A
102
}
330
2A
100
AcDbVisualStyle
  2
Thicken
 70
    13
 71
     2
 72
     2
 73
     0
 90
        0
 40
-0.6
 41
-30.0
 62
     5
 63
     7
 74
     1
 91
        4
 64
     7
 65
   257
 75
     1
175
     1
 42
1.0
 92
       12
 66
     7
 43
1.0
 76
     1
 77
     6
 78
     2
 67
     7
 79
     5
170
     0
171
     0
290
     0
174
     0
 93
        1
 44
0.0
173
     0
291
     1
 45
0.0
1001
ACAD
1000
AcDbSavedByObjectVersion
1070
     0
  0
DICTIONARYVAR
  5
18B
102
{ACAD_REACTORS
330
18A
102
}
330
18A
100
DictionaryVariables
280
     0
  1
1:1
  0
DICTIONARYVAR
  5
18F
102
{ACAD_REACTORS
330
18A
102
}
330
18A
100
DictionaryVariables
280
     0
  1
80.000000
  0
DICTIONARYVAR
  5
18E
102
{ACAD_REACTORS
330
18A
102
}
330
18A
100
DictionaryVariables
280
     0
  1
5.000000
  0
ENDSEC
  0
EOF
