  0
SECTION
  2
HEADER
  9
$ACADVER
  1
AC1015
  9
$ACADMAINTVER
 70
     6
  9
$DWGCODEPAGE
  3
ANSI_1252
  9
$INSBASE
 10
0.0
 20
0.0
 30
0.0
  9
$EXTMIN
 10
0.0
 20
0.0
 30
0.0
  9
$EXTMAX
 10
3000.0
 20
4500.0
 30
0.0
  9
$LIMMIN
 10
0.0
 20
0.0
  9
$LIMMAX
 10
3000.0
 20
4500.0
  9
$ORTHOMODE
 70
     0
  9
$REGENMODE
 70
     1
  9
$FILLMODE
 70
     1
  9
$QTEXTMODE
 70
     0
  9
$MIRRTEXT
 70
     1
  9
$LTSCALE
 40
1.0
  9
$ATTMODE
 70
     1
  9
$TEXTSIZE
 40
2.5
  9
$TRACEWID
 40
1.0
  9
$TEXTSTYLE
  7
Standard
  9
$CLAYER
  8
0
  9
$CELTYPE
  6
ByLayer
  9
$CECOLOR
 62
   256
  9
$CELTSCALE
 40
1.0
  9
$DISPSILH
 70
     0
  9
$DIMSCALE
 40
1.0
  9
$DIMASZ
 40
2.5
  9
$DIMEXO
 40
0.625
  9
$DIMDLI
 40
3.75
  9
$DIMRND
 40
0.0
  9
$DIMDLE
 40
0.0
  9
$DIMEXE
 40
1.25
  9
$DIMTP
 40
0.0
  9
$DIMTM
 40
0.0
  9
$DIMTXT
 40
2.5
  9
$DIMCEN
 40
2.5
  9
$DIMTSZ
 40
0.0
  9
$DIMTOL
 70
     0
  9
$DIMLIM
 70
     0
  9
$DIMTIH
 70
     0
  9
$DIMTOH
 70
     0
  9
$DIMSE1
 70
     0
  9
$DIMSE2
 70
     0
  9
$DIMTAD
 70
     1
  9
$DIMZIN
 70
     8
  9
$DIMBLK
  1

  9
$DIMASO
 70
     1
  9
$DIMSHO
 70
     1
  9
$DIMPOST
  1

  9
$DIMAPOST
  1

  9
$DIMALT
 70
     0
  9
$DIMALTD
 70
     3
  9
$DIMALTF
 40
0.0393700787
  9
$DIMLFAC
 40
1.0
  9
$DIMTOFL
 70
     1
  9
$DIMTVP
 40
0.0
  9
$DIMTIX
 70
     0
  9
$DIMSOXD
 70
     0
  9
$DIMSAH
 70
     0
  9
$DIMBLK1
  1

  9
$DIMBLK2
  1

  9
$DIMSTYLE
  2
ISO-25
  9
$DIMCLRD
 70
     0
  9
$DIMCLRE
 70
     0
  9
$DIMCLRT
 70
     0
  9
$DIMTFAC
 40
1.0
  9
$DIMGAP
 40
0.625
  9
$DIMJUST
 70
     0
  9
$DIMSD1
 70
     0
  9
$DIMSD2
 70
     0
  9
$DIMTOLJ
 70
     0
  9
$DIMTZIN
 70
     8
  9
$DIMALTZ
 70
     0
  9
$DIMALTTZ
 70
     0
  9
$DIMUPT
 70
     0
  9
$DIMDEC
 70
     2
  9
$DIMTDEC
 70
     2
  9
$DIMALTU
 70
     2
  9
$DIMALTTD
 70
     3
  9
$DIMTXSTY
  7
Standard
  9
$DIMAUNIT
 70
     0
  9
$DIMADEC
 70
     0
  9
$DIMALTRND
 40
0.0
  9
$DIMAZIN
 70
     0
  9
$DIMDSEP
 70
    44
  9
$DIMATFIT
 70
     3
  9
$DIMFRAC
 70
     0
  9
$DIMLDRBLK
  1

  9
$DIMLUNIT
 70
     2
  9
$DIMLWD
 70
    -2
  9
$DIMLWE
 70
    -2
  9
$DIMTMOVE
 70
     0
  9
$LUNITS
 70
     2
  9
$LUPREC
 70
     4
  9
$SKETCHINC
 40
1.0
  9
$FILLETRAD
 40
10.0
  9
$AUNITS
 70
     0
  9
$AUPREC
 70
     0
  9
$MENU
  1
.
  9
$ELEVATION
 40
0.0
  9
$PELEVATION
 40
0.0
  9
$THICKNESS
 40
0.0
  9
$LIMCHECK
 70
     0
  9
$CHAMFERA
 40
10.0
  9
$CHAMFERB
 40
10.0
  9
$CHAMFERC
 40
20.0
  9
$CHAMFERD
 40
0.0
  9
$SKPOLY
 70
     0
  9
$TDCREATE
 40
2455757.548292847
  9
$TDUCREATE
 40
2455757.464959514
  9
$TDUPDATE
 40
2455757.548292859
  9
$TDUUPDATE
 40
2455757.464959526
  9
$TDINDWG
 40
0.0000000116
  9
$TDUSRTIMER
 40
0.0000000116
  9
$USRTIMER
 70
     1
  9
$ANGBASE
 50
0.0
  9
$ANGDIR
 70
     0
  9
$PDMODE
 70
     0
  9
$PDSIZE
 40
0.0
  9
$PLINEWID
 40
0.0
  9
$SPLFRAME
 70
     0
  9
$SPLINETYPE
 70
     6
  9
$SPLINESEGS
 70
     8
  9
$HANDSEED
  5
35E
  9
$SURFTAB1
 70
     6
  9
$SURFTAB2
 70
     6
  9
$SURFTYPE
 70
     6
  9
$SURFU
 70
     6
  9
$SURFV
 70
     6
  9
$UCSBASE
  2

  9
$UCSNAME
  2

  9
$UCSORG
 10
0.0
 20
0.0
 30
0.0
  9
$UCSXDIR
 10
1.0
 20
0.0
 30
0.0
  9
$UCSYDIR
 10
0.0
 20
1.0
 30
0.0
  9
$UCSORTHOREF
  2

  9
$UCSORTHOVIEW
 70
     0
  9
$UCSORGTOP
 10
0.0
 20
0.0
 30
0.0
  9
$UCSORGBOTTOM
 10
0.0
 20
0.0
 30
0.0
  9
$UCSORGLEFT
 10
0.0
 20
0.0
 30
0.0
  9
$UCSORGRIGHT
 10
0.0
 20
0.0
 30
0.0
  9
$UCSORGFRONT
 10
0.0
 20
0.0
 30
0.0
  9
$UCSORGBACK
 10
0.0
 20
0.0
 30
0.0
  9
$PUCSBASE
  2

  9
$PUCSNAME
  2

  9
$PUCSORG
 10
0.0
 20
0.0
 30
0.0
  9
$PUCSXDIR
 10
1.0
 20
0.0
 30
0.0
  9
$PUCSYDIR
 10
0.0
 20
1.0
 30
0.0
  9
$PUCSORTHOREF
  2

  9
$PUCSORTHOVIEW
 70
     0
  9
$PUCSORGTOP
 10
0.0
 20
0.0
 30
0.0
  9
$PUCSORGBOTTOM
 10
0.0
 20
0.0
 30
0.0
  9
$PUCSORGLEFT
 10
0.0
 20
0.0
 30
0.0
  9
$PUCSORGRIGHT
 10
0.0
 20
0.0
 30
0.0
  9
$PUCSORGFRONT
 10
0.0
 20
0.0
 30
0.0
  9
$PUCSORGBACK
 10
0.0
 20
0.0
 30
0.0
  9
$USERI1
 70
     0
  9
$USERI2
 70
     0
  9
$USERI3
 70
     0
  9
$USERI4
 70
     0
  9
$USERI5
 70
     0
  9
$USERR1
 40
0.0
  9
$USERR2
 40
0.0
  9
$USERR3
 40
0.0
  9
$USERR4
 40
0.0
  9
$USERR5
 40
0.0
  9
$WORLDVIEW
 70
     1
  9
$SHADEDGE
 70
     3
  9
$SHADEDIF
 70
    70
  9
$TILEMODE
 70
     1
  9
$MAXACTVP
 70
    64
  9
$PINSBASE
 10
0.0
 20
0.0
 30
0.0
  9
$PLIMCHECK
 70
     0
  9
$PEXTMIN
 10
0.0
 20
0.0
 30
0.0
  9
$PEXTMAX
 10
3000.0
 20
4500.0
 30
0.0
  9
$PLIMMIN
 10
0.0
 20
0.0
  9
$PLIMMAX
 10
3000.0
 20
4500.0
  9
$UNITMODE
 70
     0
  9
$VISRETAIN
 70
     1
  9
$PLINEGEN
 70
     0
  9
$PSLTSCALE
 70
     1
  9
$TREEDEPTH
 70
  3020
  9
$CMLSTYLE
  2
Standard
  9
$CMLJUST
 70
     0
  9
$CMLSCALE
 40
20.0
  9
$PROXYGRAPHICS
 70
     1
  9
$MEASUREMENT
 70
     1
  9
$CELWEIGHT
370
    -1
  9
$ENDCAPS
280
     0
  9
$JOINSTYLE
280
     0
  9
$LWDISPLAY
290
     0
  9
$INSUNITS
 70
     4
  9
$HYPERLINKBASE
  1

  9
$STYLESHEET
  1

  9
$XEDIT
290
     1
  9
$CEPSNTYPE
380
     0
  9
$PSTYLEMODE
290
     1
  9
$FINGERPRINTGUID
  2
{D280B3A8-8A66-4747-AF18-7C5C5ACD5752}
  9
$VERSIONGUID
  2
{FAEB1C32-E019-11D5-929B-00C0DF256EC4}
  9
$EXTNAMES
290
     1
  9
$PSVPSCALE
 40
0.0
  9
$OLESTARTUP
290
     0
  0
ENDSEC
  0
SECTION
  2
CLASSES
  0
CLASS
  1
ACDBDICTIONARYWDFLT
  2
AcDbDictionaryWithDefault
  3
ObjectDBX Classes
 90
        0
280
     0
281
     0
  0
CLASS
  1
VISUALSTYLE
  2
AcDbVisualStyle
  3
ObjectDBX Classes
 90
     4095
280
     0
281
     0
  0
CLASS
  1
SCALE
  2
AcDbScale
  3
ObjectDBX Classes
 90
     1153
280
     0
281
     0
  0
CLASS
  1
DICTIONARYVAR
  2
AcDbDictionaryVar
  3
ObjectDBX Classes
 90
        0
280
     0
281
     0
  0
CLASS
  1
ACDBPLACEHOLDER
  2
AcDbPlaceHolder
  3
ObjectDBX Classes
 90
        0
280
     0
281
     0
  0
CLASS
  1
LAYOUT
  2
AcDbLayout
  3
ObjectDBX Classes
 90
        0
280
     0
281
     0
  0
ENDSEC
  0
SECTION
  2
TABLES
  0
TABLE
  2
VPORT
  5
8
330
0
100
AcDbSymbolTable
 70
     1
  0
VPORT
  5
29
330
8
100
AcDbSymbolTableRecord
100
AcDbViewportTableRecord
  2
*Active
 70
     0
 10
0.0
 20
0.0
 11
1.0
 21
1.0
 12
344.1869158879
 22
148.5
 13
0.0
 23
0.0
 14
10.0
 24
10.0
 15
10.0
 25
10.0
 16
0.0
 26
0.0
 36
1.0
 17
0.0
 27
0.0
 37
0.0
 40
297.0
 41
1.9729729729
 42
50.0
 43
0.0
 44
0.0
 50
0.0
 51
0.0
 71
     0
 72
   100
 73
     1
 74
     3
 75
     0
 76
     0
 77
     0
 78
     0
281
     0
 65
     1
110
0.0
120
0.0
130
0.0
111
1.0
121
0.0
131
0.0
112
0.0
122
1.0
132
0.0
 79
     0
146
0.0
  0
ENDTAB
  0
TABLE
  2
LTYPE
  5
5
330
0
100
AcDbSymbolTable
 70
     2
  0
LTYPE
  5
14
330
5
100
AcDbSymbolTableRecord
100
AcDbLinetypeTableRecord
  2
ByBlock
 70
     0
  3

 72
    65
 73
     0
 40
0.0
  0
LTYPE
  5
15
330
5
100
AcDbSymbolTableRecord
100
AcDbLinetypeTableRecord
  2
ByLayer
 70
     0
  3

 72
    65
 73
     0
 40
0.0
  0
LTYPE
  5
16
330
5
100
AcDbSymbolTableRecord
100
AcDbLinetypeTableRecord
  2
Continuous
 70
     0
  3
Solid line
 72
    65
 73
     0
 40
0.0
  0
LTYPE
  5
60
330
5
100
AcDbSymbolTableRecord
100
AcDbLinetypeTableRecord
  2
CENTER2
 70
     0
  3
Center (.5x) ___ _ ___ _ ___ _ ___ _ ___ _ ___
 72
    65
 73
     4
 40
28.575
 49
19.05
 74
     4
 75
     0
340
0
 46
0.0
 50
0.0
 44
0.0
 45
0.0
 49
-3.175
 74
     4
 75
     0
340
0
 46
0.0
 50
0.0
 44
0.0
 45
0.0
 49
3.175
 74
     4
 75
     0
340
0
 46
0.0
 50
0.0
 44
0.0
 45
0.0
 49
-3.175
 74
     4
 75
     0
340
0
 46
0.0
 50
0.0
 44
0.0
 45
0.0
  0
ENDTAB
  0
TABLE
  2
LAYER
  5
2
330
0
100
AcDbSymbolTable
 70
    10
  0
LAYER
  5
10
330
2
100
AcDbSymbolTableRecord
100
AcDbLayerTableRecord
  2
0
 70
     0
 62
     7
  6
Continuous
370
    -3
390
F
  0
LAYER
  5
5D
330
2
100
AcDbSymbolTableRecord
100
AcDbLayerTableRecord
  2
Default
 70
     0
 62
     7
  6
Continuous
370
    -3
390
F
  0
LAYER
  5
77
330
2
100
AcDbSymbolTableRecord
100
AcDbLayerTableRecord
  2
$DDT_AUDIT_GENERATED_(77)
 70
     0
 62
     7
  6
Continuous
370
    -3
390
F
  0
LAYER
  5
83
330
2
100
AcDbSymbolTableRecord
100
AcDbLayerTableRecord
  2
$DDT_AUDIT_GENERATED_(83)
 70
     0
 62
     7
  6
Continuous
370
    -3
390
F
  0
LAYER
  5
96
330
2
100
AcDbSymbolTableRecord
100
AcDbLayerTableRecord
  2
$DDT_AUDIT_GENERATED_(96)
 70
     0
 62
     7
  6
Continuous
370
    -3
390
F
  0
LAYER
  5
A1
330
2
100
AcDbSymbolTableRecord
100
AcDbLayerTableRecord
  2
02636038_GEH_USE
 70
     0
 62
     7
  6
Continuous
370
    -3
390
F
  0
LAYER
  5
AF
330
2
100
AcDbSymbolTableRecord
100
AcDbLayerTableRecord
  2
64647040_EINSATZ
 70
     0
 62
     7
  6
Continuous
370
    -3
390
F
  0
LAYER
  5
DE
330
2
100
AcDbSymbolTableRecord
100
AcDbLayerTableRecord
  2
$DDT_AUDIT_GENERATED_(DE)
 70
     0
 62
     7
  6
Continuous
370
    -3
390
F
  0
LAYER
  5
E2
330
2
100
AcDbSymbolTableRecord
100
AcDbLayerTableRecord
  2
$DDT_AUDIT_GENERATED_(E2)
 70
     0
 62
     7
  6
Continuous
370
    -3
390
F
  0
LAYER
  5
E5
330
2
100
AcDbSymbolTableRecord
100
AcDbLayerTableRecord
  2
$DDT_AUDIT_GENERATED_(E5)
 70
     0
 62
     7
  6
Continuous
370
    -3
390
F
  0
ENDTAB
  0
TABLE
  2
STYLE
  5
3
330
0
100
AcDbSymbolTable
 70
     2
  0
STYLE
  5
11
330
3
100
AcDbSymbolTableRecord
100
AcDbTextStyleTableRecord
  2
Standard
 70
     0
 40
0.0
 41
1.0
 50
0.0
 71
     0
 42
2.5
  3
txt
  4

  0
STYLE
  5
34D
330
3
100
AcDbSymbolTableRecord
100
AcDbTextStyleTableRecord
  2
SEACAD_seiso_ttf
 70
     0
 40
0.0
 41
1.0
 50
0.0
 71
     0
 42
0.2
  3
seiso.ttf
  4

  0
ENDTAB
  0
TABLE
  2
VIEW
  5
6
330
0
100
AcDbSymbolTable
 70
     0
  0
ENDTAB
  0
TABLE
  2
UCS
  5
7
330
0
100
AcDbSymbolTable
 70
     0
  0
ENDTAB
  0
TABLE
  2
APPID
  5
9
330
0
100
AcDbSymbolTable
 70
     1
  0
APPID
  5
12
330
9
100
AcDbSymbolTableRecord
100
AcDbRegAppTableRecord
  2
ACAD
 70
     0
  0
ENDTAB
  0
TABLE
  2
DIMSTYLE
  5
A
330
0
100
AcDbSymbolTable
 70
     1
100
AcDbDimStyleTable
  0
DIMSTYLE
105
27
330
A
100
AcDbSymbolTableRecord
100
AcDbDimStyleTableRecord
  2
ISO-25
 70
     0
 41
2.5
 42
0.625
 43
3.75
 44
1.25
 73
     0
 74
     0
 77
     1
 78
     8
140
2.5
141
2.5
143
0.0393700787
147
0.625
171
     3
172
     1
271
     2
272
     2
274
     3
278
    44
283
     0
284
     8
340
11
  0
ENDTAB
  0
TABLE
  2
BLOCK_RECORD
  5
1
330
0
100
AcDbSymbolTable
 70
     8
  0
BLOCK_RECORD
  5
1F
330
1
100
AcDbSymbolTableRecord
100
AcDbBlockTableRecord
  2
*Model_Space
340
22
  0
BLOCK_RECORD
  5
1B
330
1
100
AcDbSymbolTableRecord
100
AcDbBlockTableRecord
  2
*Paper_Space
340
1E
  0
BLOCK_RECORD
  5
5E
330
1
100
AcDbSymbolTableRecord
100
AcDbBlockTableRecord
  2
SEANNOT_GROUP
340
0
102
{BLKREFS
331
5F
102
}
  0
BLOCK_RECORD
  5
65
330
1
100
AcDbSymbolTableRecord
100
AcDbBlockTableRecord
  2
SEANNOT_GROUP1
340
0
102
{BLKREFS
331
66
102
}
  0
BLOCK_RECORD
  5
6B
330
1
100
AcDbSymbolTableRecord
100
AcDbBlockTableRecord
  2
SEANNOT_GROUP2
340
0
102
{BLKREFS
331
6C
102
}
  0
BLOCK_RECORD
  5
70
330
1
100
AcDbSymbolTableRecord
100
AcDbBlockTableRecord
  2
SEANNOT_GROUP3
340
0
102
{BLKREFS
331
71
102
}
  0
BLOCK_RECORD
  5
75
330
1
100
AcDbSymbolTableRecord
100
AcDbBlockTableRecord
  2
SE
340
0
102
{BLKREFS
331
76
102
}
  0
BLOCK_RECORD
  5
EF
330
1
100
AcDbSymbolTableRecord
100
AcDbBlockTableRecord
  2
SE1
340
0
102
{BLKREFS
331
F0
102
}
  0
BLOCK_RECORD
  5
300
330
1
100
AcDbSymbolTableRecord
100
AcDbBlockTableRecord
  2
SE2
340
0
102
{BLKREFS
331
301
102
}
  0
ENDTAB
  0
ENDSEC
  0
SECTION
  2
BLOCKS
  0
BLOCK
  5
20
330
1F
100
AcDbEntity
  8
0
100
AcDbBlockBegin
  2
*Model_Space
 70
     0
 10
0.0
 20
0.0
 30
0.0
  3
*Model_Space
  1

  0
ENDBLK
  5
21
330
1F
100
AcDbEntity
  8
0
100
AcDbBlockEnd
  0
BLOCK
  5
1C
330
1B
100
AcDbEntity
 67
     1
  8
0
100
AcDbBlockBegin
  2
*Paper_Space
 70
     0
 10
0.0
 20
0.0
 30
0.0
  3
*Paper_Space
  1

  0
ENDBLK
  5
1D
330
1B
100
AcDbEntity
 67
     1
  8
0
100
AcDbBlockEnd
  0
BLOCK
  5
63
330
5E
100
AcDbEntity
  8
0
100
AcDbBlockBegin
  2
SEANNOT_GROUP
 70
     0
 10
0.0
 20
0.0
 30
0.0
  3
SEANNOT_GROUP
  1

  0
LINE
  5
61
330
5E
100
AcDbEntity
  8
Default
  6
CENTER2
 62
     7
100
AcDbLine
 10
118.3571161822
 20
311.5112985596
 30
0.0
 11
78.3571170762
 21
311.5112985596
 31
0.0
  0
LINE
  5
62
330
5E
100
AcDbEntity
  8
Default
  6
CENTER2
 62
     7
100
AcDbLine
 10
98.3571166292
 20
331.5112981126
 30
0.0
 11
98.3571166292
 21
291.5112990067
 31
0.0
  0
ENDBLK
  5
64
330
5E
100
AcDbEntity
  8
0
100
AcDbBlockEnd
  0
BLOCK
  5
69
330
65
100
AcDbEntity
  8
0
100
AcDbBlockBegin
  2
SEANNOT_GROUP1
 70
     0
 10
0.0
 20
0.0
 30
0.0
  3
SEANNOT_GROUP1
  1

  0
LINE
  5
67
330
65
100
AcDbEntity
  8
Default
  6
CENTER2
 62
     7
100
AcDbLine
 10
251.9405943369
 20
311.5112985596
 30
0.0
 11
211.940595231
 21
311.5112985596
 31
0.0
  0
LINE
  5
68
330
65
100
AcDbEntity
  8
Default
  6
CENTER2
 62
     7
100
AcDbLine
 10
231.9405947839
 20
331.5112981126
 30
0.0
 11
231.9405947839
 21
291.5112990067
 31
0.0
  0
ENDBLK
  5
6A
330
65
100
AcDbEntity
  8
0
100
AcDbBlockEnd
  0
BLOCK
  5
6E
330
6B
100
AcDbEntity
  8
0
100
AcDbBlockBegin
  2
SEANNOT_GROUP2
 70
     0
 10
0.0
 20
0.0
 30
0.0
  3
SEANNOT_GROUP2
  1

  0
LINE
  5
6D
330
6B
100
AcDbEntity
  8
Default
  6
CENTER2
 62
     7
100
AcDbLine
 10
70.4571166292
 20
200.2087655682
 30
0.0
 11
126.2571166292
 21
200.2087655682
 31
0.0
  0
ENDBLK
  5
6F
330
6B
100
AcDbEntity
  8
0
100
AcDbBlockEnd
  0
BLOCK
  5
73
330
70
100
AcDbEntity
  8
0
100
AcDbBlockBegin
  2
SEANNOT_GROUP3
 70
     0
 10
0.0
 20
0.0
 30
0.0
  3
SEANNOT_GROUP3
  1

  0
LINE
  5
72
330
70
100
AcDbEntity
  8
Default
  6
CENTER2
 62
     7
100
AcDbLine
 10
98.3571166292
 20
172.3087655682
 30
0.0
 11
98.3571166292
 21
228.1087655682
 31
0.0
  0
ENDBLK
  5
74
330
70
100
AcDbEntity
  8
0
100
AcDbBlockEnd
  0
BLOCK
  5
ED
330
75
100
AcDbEntity
  8
0
100
AcDbBlockBegin
  2
SE
 70
     0
 10
0.0
 20
0.0
 30
0.0
  3
SE
  1

  0
LINE
  5
78
330
75
100
AcDbEntity
  8
$DDT_AUDIT_GENERATED_(77)
  6
Continuous
 62
     7
100
AcDbLine
 10
253.4405947839
 20
402.5112985596
 30
0.0
 11
253.4405947839
 21
319.5112985596
 31
0.0
  0
SPLINE
  5
79
330
75
100
AcDbEntity
  8
$DDT_AUDIT_GENERATED_(77)
  6
Continuous
 62
     7
100
AcDbSpline
210
0.0
220
0.0
230
1.0
 70
    12
 71
     3
 72
     8
 73
     4
 74
     0
 42
0.0000000011380171
 43
0.0000000001
 40
0.0
 40
0.0
 40
0.0
 40
0.0
 40
1.0
 40
1.0
 40
1.0
 40
1.0
 10
253.4405947839346
 20
402.5112985596211
 30
0.0
 41
1.0
 10
253.4403571686429
 20
405.440369935939
 30
0.0
 41
0.8047110762465908
 10
255.5115234076166
 20
407.5115361749181
 30
0.0
 41
0.8047110762465908
 10
258.4405947839346
 20
407.5112985596211
 30
0.0
 41
1.0
  0
LINE
  5
7A
330
75
100
AcDbEntity
  8
$DDT_AUDIT_GENERATED_(77)
  6
Continuous
 62
     7
100
AcDbLine
 10
258.4405947839
 20
407.5112985596
 30
0.0
 11
314.668118148
 21
407.5112985596
 31
0.0
  0
LINE
  5
7B
330
75
100
AcDbEntity
  8
$DDT_AUDIT_GENERATED_(77)
  6
Continuous
 62
     7
100
AcDbLine
 10
341.4405947839
 20
426.5112985596
 30
0.0
 11
210.9405947839
 21
426.5112985596
 31
0.0
  0
LINE
  5
7C
330
75
100
AcDbEntity
  8
$DDT_AUDIT_GENERATED_(77)
  6
Continuous
 62
     7
100
AcDbLine
 10
210.4405947839
 20
319.5112985596
 30
0.0
 11
210.4405947839
 21
426.0112985596
 31
0.0
  0
ARC
  5
7D
330
75
100
AcDbEntity
  8
$DDT_AUDIT_GENERATED_(77)
  6
Continuous
 62
     7
100
AcDbCircle
 10
314.668118148
 20
408.0112985596
 30
0.0
 40
0.5000000000047189
100
AcDbArc
 50
270.0000000068
 51
285.0000000068
  0
ARC
  5
7E
330
75
100
AcDbEntity
  8
$DDT_AUDIT_GENERATED_(77)
  6
Continuous
 62
     7
100
AcDbCircle
 10
341.4405947839
 20
426.0112985596
 30
0.0
 40
0.4999999999999727
100
AcDbArc
 50
0.0
 51
90.0
  0
ARC
  5
7F
330
75
100
AcDbEntity
  8
$DDT_AUDIT_GENERATED_(77)
  6
Continuous
 62
     7
100
AcDbCircle
 10
210.9405947839
 20
426.0112985596
 30
0.0
 40
0.5000000000000386
100
AcDbArc
 50
90.0
 51
180.0
  0
LINE
  5
80
330
75
100
AcDbEntity
  8
$DDT_AUDIT_GENERATED_(77)
  6
Continuous
 62
     7
100
AcDbLine
 10
341.9405947839
 20
415.1849620536
 30
0.0
 11
341.9405947839
 21
426.0112985596
 31
0.0
  0
LINE
  5
81
330
75
100
AcDbEntity
  8
$DDT_AUDIT_GENERATED_(77)
  6
Continuous
 62
     7
100
AcDbLine
 10
341.5700043065
 20
414.7019991405
 30
0.0
 11
314.7975276706
 21
407.5283356465
 31
0.0
  0
ARC
  5
82
330
75
100
AcDbEntity
  8
$DDT_AUDIT_GENERATED_(77)
  6
Continuous
 62
     7
100
AcDbCircle
 10
341.4405947839
 20
415.1849620536
 30
0.0
 40
0.5000000000000022
100
AcDbArc
 50
285.0
 51
0.0
  0
LINE
  5
84
330
75
100
AcDbEntity
  8
$DDT_AUDIT_GENERATED_(83)
  6
Continuous
 62
     7
100
AcDbLine
 10
252.8739648234
 20
428.5041028869
 30
0.0
 11
233.2641992415
 21
428.5041028869
 31
0.0
  0
LINE
  5
85
330
75
100
AcDbEntity
  8
$DDT_AUDIT_GENERATED_(83)
  6
Continuous
 62
     7
100
AcDbLine
 10
253.1230134979
 20
428.5041028869
 30
0.0
 11
252.8739648234
 21
428.5041028869
 31
0.0
  0
LINE
  5
86
330
75
100
AcDbEntity
  8
$DDT_AUDIT_GENERATED_(83)
  6
Continuous
 62
     7
100
AcDbLine
 10
311.5995698417
 20
464.2275699496
 30
0.0
 11
253.7977255984
 21
457.1303958848
 31
0.0
  0
LINE
  5
87
330
75
100
AcDbEntity
  8
$DDT_AUDIT_GENERATED_(83)
  6
Continuous
 62
     7
100
AcDbLine
 10
213.2145010371
 20
456.1774417789
 30
0.0
 11
311.1120924681
 21
468.1977545562
 31
0.0
  0
ARC
  5
88
330
75
100
AcDbEntity
  8
$DDT_AUDIT_GENERATED_(83)
  6
Continuous
 62
     7
100
AcDbCircle
 10
254.1633336286
 20
454.1527574299
 30
0.0
 40
2.999999999999774
100
AcDbArc
 50
97.0
 51
185.0
  0
LINE
  5
89
330
75
100
AcDbEntity
  8
$DDT_AUDIT_GENERATED_(83)
  6
Continuous
 62
     7
100
AcDbLine
 10
311.6693002156
 20
467.7624161521
 30
0.0
 11
312.0349082458
 21
464.7847776971
 31
0.0
  0
ARC
  5
8A
330
75
100
AcDbEntity
  8
$DDT_AUDIT_GENERATED_(83)
  6
Continuous
 62
     7
100
AcDbCircle
 10
311.53863517
 20
464.7238430254
 30
0.0
 40
0.4999999999993919
100
AcDbArc
 50
276.9999999998
 51
7.0000000001
  0
ARC
  5
8B
330
75
100
AcDbEntity
  8
$DDT_AUDIT_GENERATED_(83)
  6
Continuous
 62
     7
100
AcDbCircle
 10
213.2754357088
 20
455.6811687031
 30
0.0
 40
0.50000000000059
100
AcDbArc
 50
97.0000000001
 51
175.0
  0
LINE
  5
8C
330
75
100
AcDbEntity
  8
$DDT_AUDIT_GENERATED_(83)
  6
Continuous
 62
     7
100
AcDbLine
 10
253.3720621724
 20
428.7758918226
 30
0.0
 11
251.1747495343
 21
453.8912902017
 31
0.0
  0
ARC
  5
8D
330
75
100
AcDbEntity
  8
$DDT_AUDIT_GENERATED_(83)
  6
Continuous
 62
     7
100
AcDbCircle
 10
311.1730271398
 20
467.7014814804
 30
0.0
 40
0.4999999999956351
100
AcDbArc
 50
6.9999999994
 51
97.0000000006
  0
ARC
  5
8E
330
75
100
AcDbEntity
  8
$DDT_AUDIT_GENERATED_(83)
  6
Continuous
 62
     7
100
AcDbCircle
 10
253.1230134979
 20
428.7541028869
 30
0.0
 40
0.2500000000001204
100
AcDbArc
 50
333.5871045777
 51
5.0
  0
ARC
  5
8F
330
75
100
AcDbEntity
  8
$DDT_AUDIT_GENERATED_(83)
  6
Continuous
 62
     7
100
AcDbCircle
 10
253.1230134979
 20
428.7541028869
 30
0.0
 40
0.2500000000001204
100
AcDbArc
 50
270.0
 51
293.5976854978
  0
LINE
  5
90
330
75
100
AcDbEntity
  8
$DDT_AUDIT_GENERATED_(83)
  6
Continuous
 62
     7
100
AcDbLine
 10
211.722648274
 20
438.9824688169
 30
0.0
 11
211.4837918589
 21
439.0989668745
 31
0.0
  0
LINE
  5
91
330
75
100
AcDbEntity
  8
$DDT_AUDIT_GENERATED_(83)
  6
Continuous
 62
     7
100
AcDbLine
 10
233.1546064549
 20
428.5294043753
 30
0.0
 11
211.722648274
 21
438.9824688169
 31
0.0
  0
LINE
  5
92
330
75
100
AcDbEntity
  8
$DDT_AUDIT_GENERATED_(83)
  6
Continuous
 62
     7
100
AcDbLine
 10
211.344335971
 20
439.3454543218
 30
0.0
 11
212.7773383597
 21
455.7247465744
 31
0.0
  0
ARC
  5
93
330
75
100
AcDbEntity
  8
$DDT_AUDIT_GENERATED_(83)
  6
Continuous
 62
     7
100
AcDbCircle
 10
211.5933846456
 20
439.3236653861
 30
0.0
 40
0.2499999999999011
100
AcDbArc
 50
175.0
 51
244.0
  0
ARC
  5
94
330
75
100
AcDbEntity
  8
$DDT_AUDIT_GENERATED_(83)
  6
Continuous
 62
     7
100
AcDbCircle
 10
233.2641992415
 20
428.7541028869
 30
0.0
 40
0.2499999999942409
100
AcDbArc
 50
244.0000000001
 51
270.0
  0
ARC
  5
95
330
75
100
AcDbEntity
  8
$DDT_AUDIT_GENERATED_(83)
  6
Continuous
 62
     7
100
AcDbCircle
 10
253.1310300576
 20
428.7405423616
 30
0.0
 40
0.2344190746227764
100
AcDbArc
 50
291.8378165158
 51
9.610439349
  0
LINE
  5
97
330
75
100
AcDbEntity
  8
$DDT_AUDIT_GENERATED_(96)
  6
Continuous
 62
     7
100
AcDbLine
 10
206.4405947839
 20
319.5112985596
 30
0.0
 11
207.5405947839
 21
319.5112985596
 31
0.0
  0
LINE
  5
98
330
75
100
AcDbEntity
  8
$DDT_AUDIT_GENERATED_(96)
  6
Continuous
 62
     7
100
AcDbLine
 10
207.5405947839
 20
319.5112985596
 30
0.0
 11
256.3405947839
 21
319.5112985596
 31
0.0
  0
LINE
  5
99
330
75
100
AcDbEntity
  8
$DDT_AUDIT_GENERATED_(96)
  6
Continuous
 62
     7
100
AcDbLine
 10
256.3405947839
 20
319.5112985596
 30
0.0
 11
257.4405947839
 21
319.5112985596
 31
0.0
  0
LINE
  5
9A
330
75
100
AcDbEntity
  8
$DDT_AUDIT_GENERATED_(96)
  6
Continuous
 62
     7
100
AcDbLine
 10
257.9405947839
 20
319.0112985596
 30
0.0
 11
257.9405947839
 21
311.5112985596
 31
0.0
  0
LINE
  5
9B
330
75
100
AcDbEntity
  8
$DDT_AUDIT_GENERATED_(96)
  6
Continuous
 62
     7
100
AcDbLine
 10
205.9405947839
 20
319.0112985596
 30
0.0
 11
205.9405947839
 21
311.5112985596
 31
0.0
  0
ARC
  5
9C
330
75
100
AcDbEntity
  8
$DDT_AUDIT_GENERATED_(96)
  6
Continuous
 62
     7
100
AcDbCircle
 10
206.4405947839
 20
319.0112985596
 30
0.0
 40
0.5000000000000004
100
AcDbArc
 50
90.0
 51
180.0
  0
ARC
  5
9D
330
75
100
AcDbEntity
  8
$DDT_AUDIT_GENERATED_(96)
  6
Continuous
 62
     7
100
AcDbCircle
 10
257.4405947839
 20
319.0112985596
 30
0.0
 40
0.5000000000000004
100
AcDbArc
 50
0.0
 51
90.0
  0
LINE
  5
9E
330
75
100
AcDbEntity
  8
$DDT_AUDIT_GENERATED_(96)
  6
Continuous
 62
     7
100
AcDbLine
 10
257.9405947839
 20
311.5112985596
 30
0.0
 11
256.3405947839
 21
311.5112985596
 31
0.0
  0
LINE
  5
9F
330
75
100
AcDbEntity
  8
$DDT_AUDIT_GENERATED_(96)
  6
Continuous
 62
     7
100
AcDbLine
 10
256.3405947839
 20
311.5112985596
 30
0.0
 11
207.5405947839
 21
311.5112985596
 31
0.0
  0
LINE
  5
A0
330
75
100
AcDbEntity
  8
$DDT_AUDIT_GENERATED_(96)
  6
Continuous
 62
     7
100
AcDbLine
 10
207.5405947839
 20
311.5112985596
 30
0.0
 11
205.9405947839
 21
311.5112985596
 31
0.0
  0
LINE
  5
A2
330
75
100
AcDbEntity
  8
02636038_GEH_USE
  6
Continuous
 62
     7
100
AcDbLine
 10
319.8621646517
 20
401.8817379568
 30
0.0
 11
339.7966175249
 21
409.9357797152
 31
0.0
  0
SPLINE
  5
A3
330
75
100
AcDbEntity
  8
02636038_GEH_USE
  6
Continuous
 62
     7
100
AcDbSpline
210
0.0
220
0.0
230
1.0
 70
     8
 71
     3
 72
    10
 73
     6
 74
     0
 42
0.0000000019260148
 43
0.0000000001
 40
0.0
 40
0.0
 40
0.0
 40
0.0
 40
0.5
 40
0.5
 40
1.0
 40
1.0
 40
1.0
 40
1.0
 10
332.1086017399256
 20
407.1721004916901
 30
0.0
 10
331.3517662642968
 20
406.7434128540346
 30
0.0
 10
330.5745059199391
 20
406.3654669441833
 30
0.0
 10
328.9757222196458
 20
405.7195382148219
 30
0.0
 10
328.1541994599355
 20
405.451553914103
 30
0.0
 10
327.3122732974049
 20
405.234258013193
 30
0.0
  0
LINE
  5
A4
330
75
100
AcDbEntity
  8
02636038_GEH_USE
  6
Continuous
 62
     7
100
AcDbLine
 10
332.6654171358
 20
410.2901919644
 30
0.0
 11
324.7457254804
 21
407.0904288351
 31
0.0
  0
LINE
  5
A5
330
75
100
AcDbEntity
  8
02636038_GEH_USE
  6
Continuous
 62
     7
100
AcDbLine
 10
332.6654171358
 20
410.2901919644
 30
0.0
 11
333.34586452
 21
408.6060255891
 31
0.0
  0
SPLINE
  5
A6
330
75
100
AcDbEntity
  8
02636038_GEH_USE
  6
Continuous
 62
     7
100
AcDbSpline
210
0.0
220
0.0
230
1.0
 70
     8
 71
     3
 72
    14
 73
    10
 74
     0
 42
0.0000000049320844
 43
0.0000000001
 40
0.0
 40
0.0
 40
0.0
 40
0.0
 40
0.1249999999999997
 40
0.1249999999999997
 40
0.2499999999999994
 40
0.2499999999999994
 40
0.4999999999999996
 40
0.4999999999999996
 40
1.0
 40
1.0
 40
1.0
 40
1.0
 10
333.3458645200339
 20
408.6060255891264
 30
0.0
 10
333.3774907532199
 20
408.5277479151447
 30
0.0
 10
333.3791412833988
 20
408.4377724236908
 30
0.0
 10
333.3424361082057
 20
408.2728326435452
 30
0.0
 10
333.3059973420155
 20
408.1944547392736
 30
0.0
 10
333.1749936122617
 20
407.9785459240282
 30
0.0
 10
333.0571073764133
 20
407.8539200362778
 30
0.0
 10
332.6847863242131
 20
407.518680080199
 30
0.0
 10
332.3992727422133
 20
407.3367427016793
 30
0.0
 10
332.1086017399256
 20
407.1721004916901
 30
0.0
  0
SPLINE
  5
A7
330
75
100
AcDbEntity
  8
02636038_GEH_USE
  6
Continuous
 62
     7
100
AcDbSpline
210
0.0
220
0.0
230
1.0
 70
     8
 71
     3
 72
    14
 73
    10
 74
     0
 42
0.0000000049319876
 43
0.0000000001
 40
0.0
 40
0.0
 40
0.0
 40
0.0
 40
0.4999999999999996
 40
0.4999999999999996
 40
0.7499999999999993
 40
0.7499999999999993
 40
0.8749999999999997
 40
0.8749999999999997
 40
1.0
 40
1.0
 40
1.0
 40
1.0
 10
327.3122732974049
 20
405.234258013193
 30
0.0
 10
326.9874240364996
 20
405.1504164413903
 30
0.0
 10
326.6583017420509
 20
405.0833047633181
 30
0.0
 10
326.1550607291516
 20
405.0658128843092
 30
0.0
 10
325.985113235927
 20
405.0737410377234
 30
0.0
 10
325.7424164821742
 20
405.1373648691076
 30
0.0
 10
325.6613010285851
 20
405.168337215494
 30
0.0
 10
325.5194726707334
 20
405.2617107435705
 30
0.0
 10
325.4579490537492
 20
405.3276136319266
 30
0.0
 10
325.42617286465
 20
405.4062624598239
 30
0.0
  0
LINE
  5
A8
330
75
100
AcDbEntity
  8
02636038_GEH_USE
  6
Continuous
 62
     7
100
AcDbLine
 10
325.4261728646
 20
405.4062624598
 30
0.0
 11
324.7457254804
 21
407.0904288351
 31
0.0
  0
LINE
  5
A9
330
75
100
AcDbEntity
  8
02636038_GEH_USE
  6
Continuous
 62
     7
100
AcDbLine
 10
319.2332599621
 20
401.9701247468
 30
0.0
 11
319.8621646517
 21
401.8817379568
 31
0.0
  0
LINE
  5
AA
330
75
100
AcDbEntity
  8
02636038_GEH_USE
  6
Continuous
 62
     7
100
AcDbLine
 10
339.7966175249
 20
409.9357797152
 30
0.0
 11
340.1876150753
 21
410.436233758
 31
0.0
  0
ARC
  5
AB
330
75
100
AcDbEntity
  8
02636038_GEH_USE
  6
Continuous
 62
     7
100
AcDbCircle
 10
339.3996043217
 20
411.0518952334
 30
0.0
 40
1.000000000000005
100
AcDbArc
 50
322.0
 51
22.0
  0
ARC
  5
AC
330
75
100
AcDbEntity
  8
02636038_GEH_USE
  6
Continuous
 62
     7
100
AcDbCircle
 10
319.372433063
 20
402.9603928156
 30
0.0
 40
1.0
100
AcDbArc
 50
202.0
 51
262.0
  0
LINE
  5
AD
330
75
100
AcDbEntity
  8
02636038_GEH_USE
  6
Continuous
 62
     7
100
AcDbLine
 10
316.2870736083
 20
407.9274582776
 30
0.0
 11
318.4452492085
 21
402.5857862222
 31
0.0
  0
LINE
  5
AE
330
75
100
AcDbEntity
  8
02636038_GEH_USE
  6
Continuous
 62
     7
100
AcDbLine
 10
340.3267881762
 20
411.4265018268
 30
0.0
 11
339.2541159596
 21
414.0814587282
 31
0.0
  0
LINE
  5
B0
330
75
100
AcDbEntity
  8
64647040_EINSATZ
  6
Continuous
 62
     7
100
AcDbLine
 10
338.2432756182
 20
407.3128995733
 30
0.0
 11
322.8015509541
 21
401.0740378369
 31
0.0
  0
LINE
  5
B1
330
75
100
AcDbEntity
  8
64647040_EINSATZ
  6
Continuous
 62
     7
100
AcDbLine
 10
321.4627230026
 20
402.1509183466
 30
0.0
 11
321.3840527413
 21
402.1191334978
 31
0.0
  0
SPLINE
  5
B2
330
75
100
AcDbEntity
  8
64647040_EINSATZ
  6
Continuous
 62
     7
100
AcDbSpline
210
0.0
220
0.0
230
1.0
 70
     8
 71
     3
 72
    20
 73
    16
 74
     0
 42
0.0000000631015441
 43
0.0000000001
 40
0.0
 40
0.0
 40
0.0
 40
0.0
 40
0.2125265405902705
 40
0.2125265405902705
 40
0.2125265405902705
 40
0.4250001490954964
 40
0.4250001490954964
 40
0.4250001490954964
 40
0.638312117778163
 40
0.638312117778163
 40
0.638312117778163
 40
0.8534671345903798
 40
0.8534671345903798
 40
0.8534671345903798
 40
1.0
 40
1.0
 40
1.0
 40
1.0
 10
321.331694901288
 20
402.2058330316211
 30
0.0
 10
321.3358595809976
 20
402.1955250876232
 30
0.0
 10
321.3418663521084
 20
402.1857961153644
 30
0.0
 10
321.3492119929504
 20
402.1774510673018
 30
0.0
 10
321.35655661504
 20
402.1691071765974
 30
0.0
 10
321.3654402975152
 20
402.1619170626961
 30
0.0
 10
321.3751249255325
 20
402.1564606934003
 30
0.0
 10
321.3848482662293
 20
402.1509825131815
 30
0.0
 10
321.3956433711714
 20
402.1471012596033
 30
0.0
 10
321.4066260568072
 20
402.1451177200789
 30
0.0
 10
321.4177026704051
 20
402.1431172165957
 30
0.0
 10
321.4292720330658
 20
402.142991543983
 30
0.0
 10
321.4403913792659
 20
402.1447389772628
 30
0.0
 10
321.448021335972
 20
402.1459380441892
 30
0.0
 10
321.4555618051746
 20
402.1480250350357
 30
0.0
 10
321.4627230026261
 20
402.1509183466149
 30
0.0
  0
LINE
  5
B3
330
75
100
AcDbEntity
  8
64647040_EINSATZ
  6
Continuous
 62
     7
100
AcDbLine
 10
321.3316949013
 20
402.2058330316
 30
0.0
 11
321.2380432529
 21
402.4376289953
 31
0.0
  0
LINE
  5
B4
330
75
100
AcDbEntity
  8
64647040_EINSATZ
  6
Continuous
 62
     7
100
AcDbLine
 10
321.5797088446
 20
402.1981836948
 30
0.0
 11
321.4627230026
 21
402.1509183466
 31
0.0
  0
SPLINE
  5
B5
330
75
100
AcDbEntity
  8
64647040_EINSATZ
  6
Continuous
 62
     7
100
AcDbSpline
210
0.0
220
0.0
230
1.0
 70
     8
 71
     3
 72
    20
 73
    16
 74
     0
 42
0.000000063088464
 43
0.0000000001
 40
0.0
 40
0.0
 40
0.0
 40
0.0
 40
0.2174785466303456
 40
0.2174785466303456
 40
0.2174785466303456
 40
0.4350168090148732
 40
0.4350168090148732
 40
0.4350168090148732
 40
0.6515958899074934
 40
0.6515958899074934
 40
0.6515958899074934
 40
0.8662118866631088
 40
0.8662118866631088
 40
0.8662118866631088
 40
1.0
 40
1.0
 40
1.0
 40
1.0
 10
321.5797088446425
 20
402.1981836948414
 30
0.0
 10
321.5691593098467
 20
402.1939214061135
 30
0.0
 10
321.5577305008512
 20
402.1914161898399
 30
0.0
 10
321.5463650567204
 20
402.1908809615525
 30
0.0
 10
321.534997870919
 20
402.1903456512454
 30
0.0
 10
321.5233786245662
 20
402.1917674922407
 30
0.0
 10
321.5124803077423
 20
402.1950425740069
 30
0.0
 10
321.5016305694259
 20
402.1983030573184
 30
0.0
 10
321.4911929209637
 20
402.2034929055563
 30
0.0
 10
321.4820552138065
 20
402.2101899109217
 30
0.0
 10
321.4729993965262
 20
402.2168268993776
 30
0.0
 10
321.4649682771905
 20
402.2251300384877
 30
0.0
 10
321.4586463607977
 20
402.2344085521348
 30
0.0
 10
321.4546704225514
 20
402.2402439341591
 30
0.0
 10
321.4513022715195
 20
402.2465418558229
 30
0.0
 10
321.4486571200565
 20
402.2530888354354
 30
0.0
  0
LINE
  5
B6
330
75
100
AcDbEntity
  8
64647040_EINSATZ
  6
Continuous
 62
     7
100
AcDbLine
 10
321.3550054717
 20
402.4848847991
 30
0.0
 11
321.4486571201
 21
402.2530888354
 31
0.0
  0
SPLINE
  5
B7
330
75
100
AcDbEntity
  8
64647040_EINSATZ
  6
Continuous
 62
     7
100
AcDbSpline
210
0.0
220
0.0
230
1.0
 70
     8
 71
     3
 72
    20
 73
    16
 74
     0
 42
0.0000000734542227
 43
0.0000000001
 40
0.0
 40
0.0
 40
0.0
 40
0.0
 40
0.2174093870011151
 40
0.2174093870011151
 40
0.2174093870011151
 40
0.4348768202247125
 40
0.4348768202247125
 40
0.4348768202247125
 40
0.6514121854904935
 40
0.6514121854904935
 40
0.6514121854904935
 40
0.8660380396115136
 40
0.8660380396115136
 40
0.8660380396115136
 40
1.0
 40
1.0
 40
1.0
 40
1.0
 10
323.1321427661013
 20
402.8254077129868
 30
0.0
 10
323.124686442054
 20
402.8223951625233
 30
0.0
 10
323.1163938055186
 20
402.8211562738218
 30
0.0
 10
323.107948278444
 20
402.8217990982199
 30
0.0
 10
323.0995014929699
 20
402.8224420184001
 30
0.0
 10
323.0906672694829
 20
402.8249863694477
 30
0.0
 10
323.0821836533413
 20
402.8292332800796
 30
0.0
 10
323.0737367964553
 20
402.8334617889743
 30
0.0
 10
323.0654019638664
 20
402.8394975759292
 30
0.0
 10
323.057885717052
 20
402.8468455474143
 30
0.0
 10
323.0504350047566
 20
402.8541294515812
 30
0.0
 10
323.0435812276755
 20
402.8629065223831
 30
0.0
 10
323.0379064221403
 20
402.8724450319866
 30
0.0
 10
323.0343330518628
 20
402.878451339427
 30
0.0
 10
323.0311681412044
 20
402.8848403027271
 30
0.0
 10
323.0285199340258
 20
402.8913948455007
 30
0.0
  0
LINE
  5
B8
330
75
100
AcDbEntity
  8
64647040_EINSATZ
  6
Continuous
 62
     7
100
AcDbLine
 10
322.9348682857
 20
403.1231908091
 30
0.0
 11
323.028519934
 21
402.8913948455
 31
0.0
  0
LINE
  5
B9
330
75
100
AcDbEntity
  8
64647040_EINSATZ
  6
Continuous
 62
     7
100
AcDbLine
 10
324.6675649115
 20
403.5536120017
 30
0.0
 11
324.5739132631
 21
403.7854079653
 31
0.0
  0
SPLINE
  5
BA
330
75
100
AcDbEntity
  8
64647040_EINSATZ
  6
Continuous
 62
     7
100
AcDbSpline
210
0.0
220
0.0
230
1.0
 70
     8
 71
     3
 72
    20
 73
    16
 74
     0
 42
0.0000000734876714
 43
0.0000000001
 40
0.0
 40
0.0
 40
0.0
 40
0.0
 40
0.2125265405902869
 40
0.2125265405902869
 40
0.2125265405902869
 40
0.4250001490955228
 40
0.4250001490955228
 40
0.4250001490955228
 40
0.6383121177781937
 40
0.6383121177781937
 40
0.6383121177781937
 40
0.8534671345904412
 40
0.8534671345904412
 40
0.8534671345904412
 40
1.0
 40
1.0
 40
1.0
 40
1.0
 10
324.667564911453
 20
403.5536120017046
 30
0.0
 10
324.6717295911625
 20
403.5433040577066
 30
0.0
 10
324.6772136403402
 20
403.5333638920781
 30
0.0
 10
324.6835586561415
 20
403.5246145652567
 30
0.0
 10
324.689902791965
 20
403.5158664518623
 30
0.0
 10
324.6972810917424
 20
403.5080681238711
 30
0.0
 10
324.7050822913269
 20
403.501850800094
 30
0.0
 10
324.712914674901
 20
403.4956086236057
 30
0.0
 10
324.7213865056835
 20
403.4907887063371
 30
0.0
 10
324.7298056307986
 20
403.487769421131
 30
0.0
 10
324.7382967593647
 20
403.4847243138884
 30
0.0
 10
324.7469658397506
 20
403.4834268511743
 30
0.0
 10
324.755107662246
 20
403.4839712867894
 30
0.0
 10
324.7606944793151
 20
403.4843448717194
 30
0.0
 10
324.7661240122492
 20
403.4855789889525
 30
0.0
 10
324.7711877435285
 20
403.4876248691907
 30
0.0
  0
LINE
  5
BB
330
75
100
AcDbEntity
  8
64647040_EINSATZ
  6
Continuous
 62
     7
100
AcDbLine
 10
324.8539092257
 20
403.5210465174
 30
0.0
 11
324.7711877435
 21
403.4876248692
 31
0.0
  0
SPLINE
  5
BC
330
75
100
AcDbEntity
  8
64647040_EINSATZ
  6
Continuous
 62
     7
100
AcDbSpline
210
0.0
220
0.0
230
1.0
 70
     8
 71
     3
 72
    20
 73
    16
 74
     0
 42
0.0000000734471153
 43
0.0000000001
 40
0.0
 40
0.0
 40
0.0
 40
0.0
 40
0.2174785466303357
 40
0.2174785466303357
 40
0.2174785466303357
 40
0.4350168090148483
 40
0.4350168090148483
 40
0.4350168090148483
 40
0.6515958899074671
 40
0.6515958899074671
 40
0.6515958899074671
 40
0.8662118866630723
 40
0.8662118866630723
 40
0.8662118866630723
 40
1.0
 40
1.0
 40
1.0
 40
1.0
 10
324.8539092257212
 20
403.5210465174364
 30
0.0
 10
324.8464495781287
 20
403.5180326241736
 30
0.0
 10
324.8381533024736
 20
403.5167930335228
 30
0.0
 10
324.8297040293568
 20
403.5174360148041
 30
0.0
 10
324.8212534614511
 20
403.5180790946176
 30
0.0
 10
324.8124151979819
 20
403.5206245256315
 30
0.0
 10
324.8039278092691
 20
403.5248736855831
 30
0.0
 10
324.7954782525153
 20
403.5291039051927
 30
0.0
 10
324.7871407499053
 20
403.5351422674329
 30
0.0
 10
324.779622550808
 20
403.5424935965275
 30
0.0
 10
324.772171727956
 20
403.5497790448247
 30
0.0
 10
324.7653180947213
 20
403.5585579192002
 30
0.0
 10
324.759644076478
 20
403.5680982006913
 30
0.0
 10
324.7560756100919
 20
403.5740982120335
 30
0.0
 10
324.7529148409499
 20
403.5804799214196
 30
0.0
 10
324.7502696894867
 20
403.5870269010321
 30
0.0
  0
LINE
  5
BD
330
75
100
AcDbEntity
  8
64647040_EINSATZ
  6
Continuous
 62
     7
100
AcDbLine
 10
324.6566180411
 20
403.8188228647
 30
0.0
 11
324.7502696895
 21
403.587026901
 31
0.0
  0
LINE
  5
BE
330
75
100
AcDbEntity
  8
64647040_EINSATZ
  6
Continuous
 62
     7
100
AcDbLine
 10
328.8015235778
 20
405.1159862452
 30
0.0
 11
328.7640629185
 21
405.2087046306
 31
0.0
  0
LINE
  5
BF
330
75
100
AcDbEntity
  8
64647040_EINSATZ
  6
Continuous
 62
     7
100
AcDbLine
 10
328.6704112701
 20
405.4405005943
 30
0.0
 11
328.7640629185
 21
405.2087046306
 31
0.0
  0
LINE
  5
C0
330
75
100
AcDbEntity
  8
64647040_EINSATZ
  6
Continuous
 62
     7
100
AcDbLine
 10
331.0820225549
 20
406.1452211142
 30
0.0
 11
330.9883709065
 21
406.3770170778
 31
0.0
  0
LINE
  5
C1
330
75
100
AcDbEntity
  8
64647040_EINSATZ
  6
Continuous
 62
     7
100
AcDbLine
 10
331.0820225549
 20
406.1452211142
 30
0.0
 11
331.1194832142
 21
406.0525027287
 31
0.0
  0
LINE
  5
C2
330
75
100
AcDbEntity
  8
64647040_EINSATZ
  6
Continuous
 62
     7
100
AcDbLine
 10
335.0021641355
 20
407.9986948074
 30
0.0
 11
335.0958157839
 21
407.7668988437
 31
0.0
  0
SPLINE
  5
C3
330
75
100
AcDbEntity
  8
64647040_EINSATZ
  6
Continuous
 62
     7
100
AcDbSpline
210
0.0
220
0.0
230
1.0
 70
     8
 71
     3
 72
    20
 73
    16
 74
     0
 42
0.0000000734807071
 43
0.0000000001
 40
0.0
 40
0.0
 40
0.0
 40
0.0
 40
0.2124602044789375
 40
0.2124602044789375
 40
0.2124602044789375
 40
0.424866054904191
 40
0.424866054904191
 40
0.424866054904191
 40
0.6381326839798532
 40
0.6381326839798532
 40
0.6381326839798532
 40
0.8532925071046277
 40
0.8532925071046277
 40
0.8532925071046277
 40
1.0
 40
1.0
 40
1.0
 40
1.0
 10
335.0958157838555
 20
407.766898843743
 30
0.0
 10
335.0999796942376
 20
407.7565928038975
 30
0.0
 10
335.1029391736106
 20
407.7456348931993
 30
0.0
 10
335.1044523614385
 20
407.7349355206604
 30
0.0
 10
335.1059653336972
 20
407.7242376723585
 30
0.0
 10
335.1060748962904
 20
407.7135047427539
 30
0.0
 10
335.1047825606956
 20
407.7036149616907
 30
0.0
 10
335.10348491933
 20
407.6936845774639
 30
0.0
 10
335.1007396321376
 20
407.684332991651
 30
0.0
 10
335.0967819085291
 20
407.6763125626912
 30
0.0
 10
335.0927894082859
 20
407.6682216579841
 30
0.0
 10
335.087454849271
 20
407.6612641810606
 30
0.0
 10
335.0812200358872
 20
407.655997476047
 30
0.0
 10
335.0769368594675
 20
407.6523793682809
 30
0.0
 10
335.0721678973305
 20
407.6494910031328
 30
0.0
 10
335.0670975663042
 20
407.6474424564252
 30
0.0
  0
LINE
  5
C4
330
75
100
AcDbEntity
  8
64647040_EINSATZ
  6
Continuous
 62
     7
100
AcDbLine
 10
335.1498190485
 20
407.6808641047
 30
0.0
 11
335.0670975663
 21
407.6474424564
 31
0.0
  0
SPLINE
  5
C5
330
75
100
AcDbEntity
  8
64647040_EINSATZ
  6
Continuous
 62
     7
100
AcDbSpline
210
0.0
220
0.0
230
1.0
 70
     8
 71
     3
 72
    20
 73
    16
 74
     0
 42
0.0000000734542227
 43
0.0000000001
 40
0.0
 40
0.0
 40
0.0
 40
0.0
 40
0.2174093870011363
 40
0.2174093870011363
 40
0.2174093870011363
 40
0.4348768202247474
 40
0.4348768202247474
 40
0.4348768202247474
 40
0.6514121854905198
 40
0.6514121854905198
 40
0.6514121854905198
 40
0.8660380396115526
 40
0.8660380396115526
 40
0.8660380396115526
 40
1.0
 40
1.0
 40
1.0
 40
1.0
 10
335.1498190484969
 20
407.680864104671
 30
0.0
 10
335.1572753725441
 20
407.6838766551344
 30
0.0
 10
335.1641012004605
 20
407.6887460225658
 30
0.0
 10
335.1697298608712
 20
407.6950751878152
 30
0.0
 10
335.1753593599629
 20
407.7014052961223
 30
0.0
 10
335.1799467137695
 20
407.7093723163887
 30
0.0
 10
335.183099164492
 20
407.7183205031992
 30
0.0
 10
335.1862379557396
 20
407.7272299177832
 30
0.0
 10
335.1880407226194
 20
407.7373615607905
 30
0.0
 10
335.1883431282041
 20
407.7478684728954
 30
0.0
 10
335.1886428971
 20
407.7582837747265
 30
0.0
 10
335.1874760260364
 20
407.7693585047033
 30
0.0
 10
335.1849321339793
 20
407.7801619854628
 30
0.0
 10
335.1833302697021
 20
407.7869648330318
 30
0.0
 10
335.1811687690683
 20
407.793759200297
 30
0.0
 10
335.1785205618893
 20
407.8003137430705
 30
0.0
  0
LINE
  5
C6
330
75
100
AcDbEntity
  8
64647040_EINSATZ
  6
Continuous
 62
     7
100
AcDbLine
 10
335.0848689135
 20
408.0321097067
 30
0.0
 11
335.1785205619
 21
407.8003137431
 31
0.0
  0
LINE
  5
C7
330
75
100
AcDbEntity
  8
64647040_EINSATZ
  6
Continuous
 62
     7
100
AcDbLine
 10
336.8175655393
 20
408.4625308993
 30
0.0
 11
336.723913891
 21
408.6943268629
 31
0.0
  0
SPLINE
  5
C8
330
75
100
AcDbEntity
  8
64647040_EINSATZ
  6
Continuous
 62
     7
100
AcDbSpline
210
0.0
220
0.0
230
1.0
 70
     8
 71
     3
 72
    20
 73
    16
 74
     0
 42
0.0000000734876714
 43
0.0000000001
 40
0.0
 40
0.0
 40
0.0
 40
0.0
 40
0.2125265405902722
 40
0.2125265405902722
 40
0.2125265405902722
 40
0.4250001490954936
 40
0.4250001490954936
 40
0.4250001490954936
 40
0.6383121177781517
 40
0.6383121177781517
 40
0.6383121177781517
 40
0.8534671345903888
 40
0.8534671345903888
 40
0.8534671345903888
 40
1.0
 40
1.0
 40
1.0
 40
1.0
 10
336.8175655393164
 20
408.4625308992743
 30
0.0
 10
336.8217302190261
 20
408.4522229552764
 30
0.0
 10
336.8246903434431
 20
408.4412630578526
 30
0.0
 10
336.8262039141558
 20
408.4305617005068
 30
0.0
 10
336.8277172749544
 20
408.4198618273111
 30
0.0
 10
336.8278269440804
 20
408.4091267819109
 30
0.0
 10
336.8265341467325
 20
408.3992352448753
 30
0.0
 10
336.8252361816436
 20
408.3893041680762
 30
0.0
 10
336.8224902524555
 20
408.3799519815844
 30
0.0
 10
336.8185314124175
 20
408.3719316738338
 30
0.0
 10
336.814538714925
 20
408.3638427734649
 30
0.0
 10
336.8092039937059
 20
408.356887407641
 30
0.0
 10
336.8029690599805
 20
408.3516232567005
 30
0.0
 10
336.7986907262066
 20
408.3480110619681
 30
0.0
 10
336.7939277572038
 20
408.3451271411117
 30
0.0
 10
336.7888640259241
 20
408.3430812608749
 30
0.0
  0
LINE
  5
C9
330
75
100
AcDbEntity
  8
64647040_EINSATZ
  6
Continuous
 62
     7
100
AcDbLine
 10
338.3037767049
 20
409.332632873
 30
0.0
 11
338.3974283533
 21
409.1008369093
 31
0.0
  0
SPLINE
  5
CA
330
75
100
AcDbEntity
  8
64647040_EINSATZ
  6
Continuous
 62
     7
100
AcDbSpline
210
0.0
220
0.0
230
1.0
 70
     8
 71
     3
 72
    20
 73
    16
 74
     0
 42
0.0000000630935676
 43
0.0000000001
 40
0.0
 40
0.0
 40
0.0
 40
0.0
 40
0.2124602044789328
 40
0.2124602044789328
 40
0.2124602044789328
 40
0.4248660549041722
 40
0.4248660549041722
 40
0.4248660549041722
 40
0.6381326839798376
 40
0.6381326839798376
 40
0.6381326839798376
 40
0.8532925071045689
 40
0.8532925071045689
 40
0.8532925071045689
 40
1.0
 40
1.0
 40
1.0
 40
1.0
 10
338.3974283532858
 20
409.1008369093395
 30
0.0
 10
338.4015922636678
 20
409.0905308694942
 30
0.0
 10
338.4040290772431
 20
409.0793617881063
 30
0.0
 10
338.4045417892412
 20
409.0682581970939
 30
0.0
 10
338.405054428198
 20
409.0571561879034
 30
0.0
 10
338.4036588745547
 20
409.0458151518663
 30
0.0
 10
338.4004835275805
 20
409.0351645848224
 30
0.0
 10
338.3972951440051
 20
409.0244702911564
 30
0.0
 10
338.3922268976781
 20
409.0141801689316
 30
0.0
 10
338.385705993657
 20
409.0051241478636
 30
0.0
 10
338.3791277902586
 20
408.9959885512695
 30
0.0
 10
338.370892703007
 20
408.9878591848698
 30
0.0
 10
338.36168004132
 20
408.981389351045
 30
0.0
 10
338.3553511501613
 20
408.9769447208737
 30
0.0
 10
338.3484684782858
 20
408.9732023615574
 30
0.0
 10
338.3412979473828
 20
408.9703052790202
 30
0.0
  0
LINE
  5
CB
330
75
100
AcDbEntity
  8
64647040_EINSATZ
  6
Continuous
 62
     7
100
AcDbLine
 10
338.4582837894
 20
409.0175706272
 30
0.0
 11
338.3412979474
 21
408.970305279
 31
0.0
  0
SPLINE
  5
CC
330
75
100
AcDbEntity
  8
64647040_EINSATZ
  6
Continuous
 62
     7
100
AcDbSpline
210
0.0
220
0.0
230
1.0
 70
     8
 71
     3
 72
    20
 73
    16
 74
     0
 42
0.0000000630965777
 43
0.0000000001
 40
0.0
 40
0.0
 40
0.0
 40
0.0
 40
0.2174093870011214
 40
0.2174093870011214
 40
0.2174093870011214
 40
0.4348768202247293
 40
0.4348768202247293
 40
0.4348768202247293
 40
0.6514121854905003
 40
0.6514121854905003
 40
0.6514121854905003
 40
0.8660380396115237
 40
0.8660380396115237
 40
0.8660380396115237
 40
1.0
 40
1.0
 40
1.0
 40
1.0
 10
338.4582837893993
 20
409.0175706272463
 30
0.0
 10
338.4688286239924
 20
409.021831016969
 30
0.0
 10
338.4787855884178
 20
409.0279654456667
 30
0.0
 10
338.4873291084964
 20
409.0354722906666
 30
0.0
 10
338.4958739015756
 20
409.0429802542007
 30
0.0
 10
338.5032409550539
 20
409.0520703460344
 30
0.0
 10
338.5088033141303
 20
409.0619921990217
 30
0.0
 10
338.5143415716708
 20
409.0718710609161
 30
0.0
 10
338.5182439041455
 20
409.0828509834865
 30
0.0
 10
338.5201656056619
 20
409.0940121336153
 30
0.0
 10
338.5220705517699
 20
409.105075969137
 30
0.0
 10
338.5220814775065
 20
409.1166265599099
 30
0.0
 10
338.520186018862
 20
409.1276920247739
 30
0.0
 10
338.5189924668467
 20
409.134659841205
 30
0.0
 10
338.5170387792333
 20
409.1415381703804
 30
0.0
 10
338.5143905720541
 20
409.1480927131539
 30
0.0
  0
LINE
  5
CD
330
75
100
AcDbEntity
  8
64647040_EINSATZ
  6
Continuous
 62
     7
100
AcDbLine
 10
338.4207389237
 20
409.3798886768
 30
0.0
 11
338.5143905721
 21
409.1480927132
 31
0.0
  0
LINE
  5
CE
330
75
100
AcDbEntity
  8
64647040_EINSATZ
  6
Continuous
 62
     7
100
AcDbLine
 10
324.7711877435
 20
403.4876248692
 30
0.0
 11
323.1321427661
 21
402.825407713
 31
0.0
  0
LINE
  5
CF
330
75
100
AcDbEntity
  8
64647040_EINSATZ
  6
Continuous
 62
     7
100
AcDbLine
 10
323.1175774335
 20
402.8195229366
 30
0.0
 11
321.5797088446
 21
402.1981836948
 31
0.0
  0
LINE
  5
D0
330
75
100
AcDbEntity
  8
64647040_EINSATZ
  6
Continuous
 62
     7
100
AcDbLine
 10
338.4582837894
 20
409.0175706272
 30
0.0
 11
338.5369540508
 21
409.049355476
 31
0.0
  0
LINE
  5
D1
330
75
100
AcDbEntity
  8
64647040_EINSATZ
  6
Continuous
 62
     7
100
AcDbLine
 10
338.3412979474
 20
408.970305279
 30
0.0
 11
336.7907153328
 21
408.3438292374
 31
0.0
  0
LINE
  5
D2
330
75
100
AcDbEntity
  8
64647040_EINSATZ
  6
Continuous
 62
     7
100
AcDbLine
 10
336.7888640259
 20
408.3430812609
 30
0.0
 11
335.1498190485
 21
407.6808641047
 31
0.0
  0
LINE
  5
D3
330
75
100
AcDbEntity
  8
64647040_EINSATZ
  6
Continuous
 62
     7
100
AcDbLine
 10
335.0670975663
 20
407.6474424564
 30
0.0
 11
331.1194832142
 21
406.0525027287
 31
0.0
  0
LINE
  5
D4
330
75
100
AcDbEntity
  8
64647040_EINSATZ
  6
Continuous
 62
     7
100
AcDbLine
 10
331.1194832142
 20
406.0525027287
 30
0.0
 11
328.8015235778
 21
405.1159862452
 31
0.0
  0
LINE
  5
D5
330
75
100
AcDbEntity
  8
64647040_EINSATZ
  6
Continuous
 62
     7
100
AcDbLine
 10
328.8015235778
 20
405.1159862452
 30
0.0
 11
324.8539092257
 21
403.5210465174
 31
0.0
  0
ARC
  5
D6
330
75
100
AcDbEntity
  8
64647040_EINSATZ
  6
Continuous
 62
     7
100
AcDbCircle
 10
338.2058149589
 20
407.4056179588
 30
0.0
 40
0.1000000000000042
100
AcDbArc
 50
292.0
 51
4.0955524938
  0
ARC
  5
D7
330
75
100
AcDbEntity
  8
64647040_EINSATZ
  6
Continuous
 62
     7
100
AcDbCircle
 10
322.7640902947
 20
401.1667562223
 30
0.0
 40
0.0999999999999931
100
AcDbArc
 50
219.9044475063
 51
292.0
  0
LINE
  5
D8
330
75
100
AcDbEntity
  8
64647040_EINSATZ
  6
Continuous
 62
     7
100
AcDbLine
 10
321.7228314574
 20
402.2560089839
 30
0.0
 11
322.6873787589
 21
401.1026053043
 31
0.0
  0
LINE
  5
D9
330
75
100
AcDbEntity
  8
64647040_EINSATZ
  6
Continuous
 62
     7
100
AcDbLine
 10
338.3055595918
 20
407.4127599607
 30
0.0
 11
338.1981753347
 21
408.91247999
 31
0.0
  0
ARC
  5
DA
330
75
100
AcDbEntity
  8
64647040_EINSATZ
  6
Continuous
 62
     7
100
AcDbCircle
 10
321.3465920819
 20
402.2118518833
 30
0.0
 40
0.1000000000000042
100
AcDbArc
 50
202.0
 51
292.0
  0
LINE
  5
DB
330
75
100
AcDbEntity
  8
64647040_EINSATZ
  6
Continuous
 62
     7
100
AcDbLine
 10
321.1602220481
 20
402.4061871876
 30
0.0
 11
321.2538736965
 21
402.1743912239
 31
0.0
  0
LINE
  5
DC
330
75
100
AcDbEntity
  8
64647040_EINSATZ
  6
Continuous
 62
     7
100
AcDbLine
 10
338.5922117769
 20
409.1795345208
 30
0.0
 11
338.4985601285
 21
409.4113304845
 31
0.0
  0
ARC
  5
DD
330
75
100
AcDbEntity
  8
64647040_EINSATZ
  6
Continuous
 62
     7
100
AcDbCircle
 10
338.4994933914
 20
409.1420738615
 30
0.0
 40
0.0999999999999913
100
AcDbArc
 50
292.0
 51
22.0
  0
LINE
  5
DF
330
75
100
AcDbEntity
  8
$DDT_AUDIT_GENERATED_(DE)
  6
Continuous
 62
     7
100
AcDbLine
 10
221.2013945304
 20
434.3593753689
 30
0.0
 11
219.4405947839
 21
434.3593753689
 31
0.0
  0
ARC
  5
E0
330
75
100
AcDbEntity
  8
$DDT_AUDIT_GENERATED_(DE)
  6
Continuous
 62
     7
100
AcDbCircle
 10
231.9405947839
 20
418.1112985596
 30
0.0
 40
20.5
100
AcDbArc
 50
24.189514154
 51
30.4619513078
  0
ARC
  5
E1
330
75
100
AcDbEntity
  8
$DDT_AUDIT_GENERATED_(DE)
  6
Continuous
 62
     7
100
AcDbCircle
 10
231.9405947839
 20
418.1112985596
 30
0.0
 40
20.50000000000001
100
AcDbArc
 50
127.5718693197
 51
155.810485846
  0
LINE
  5
E3
330
75
100
AcDbEntity
  8
$DDT_AUDIT_GENERATED_(E2)
  6
Continuous
 62
     7
100
AcDbLine
 10
212.614486368
 20
453.8633397912
 30
0.0
 11
212.6223322776
 21
453.9630315246
 31
0.0
  0
LINE
  5
E4
330
75
100
AcDbEntity
  8
$DDT_AUDIT_GENERATED_(E2)
  6
Continuous
 62
     7
100
AcDbLine
 10
212.6232022741
 20
453.9629630544
 30
0.0
 11
212.6223322776
 21
453.9630315246
 31
0.0
  0
LINE
  5
E6
330
75
100
AcDbEntity
  8
$DDT_AUDIT_GENERATED_(E5)
  6
Continuous
 62
     7
100
AcDbLine
 10
203.6036250169
 20
365.4492759647
 30
0.0
 11
192.2332526009
 21
365.4492759647
 31
0.0
  0
LINE
  5
E7
330
75
100
AcDbEntity
  8
$DDT_AUDIT_GENERATED_(E5)
  6
Continuous
 62
     7
100
AcDbLine
 10
192.2332526009
 20
361.4492759647
 30
0.0
 11
203.6036250169
 21
361.4492759647
 31
0.0
  0
ARC
  5
E8
330
75
100
AcDbEntity
  8
$DDT_AUDIT_GENERATED_(E5)
  6
Continuous
 62
     7
100
AcDbCircle
 10
203.6036250169
 20
360.4492759647
 30
0.0
 40
1.000000000000001
100
AcDbArc
 50
18.0
 51
90.0
  0
ARC
  5
E9
330
75
100
AcDbEntity
  8
$DDT_AUDIT_GENERATED_(E5)
  6
Continuous
 62
     7
100
AcDbCircle
 10
203.6036250169
 20
360.4492759647
 30
0.0
 40
5.000000000000006
100
AcDbArc
 50
18.0
 51
90.0
  0
LINE
  5
EA
330
75
100
AcDbEntity
  8
$DDT_AUDIT_GENERATED_(E5)
  6
Continuous
 62
     7
100
AcDbLine
 10
210.4405947839
 20
355.5875865559
 30
0.0
 11
208.3589075983
 21
361.9943609365
 31
0.0
  0
LINE
  5
EB
330
75
100
AcDbEntity
  8
$DDT_AUDIT_GENERATED_(E5)
  6
Continuous
 62
     7
100
AcDbLine
 10
204.5546815332
 20
360.758292959
 30
0.0
 11
210.4405947839
 21
342.6433146459
 31
0.0
  0
ARC
  5
EC
330
75
100
AcDbEntity
  8
$DDT_AUDIT_GENERATED_(E5)
  6
Continuous
 62
     7
100
AcDbCircle
 10
192.2332526009
 20
363.4492759647
 30
0.0
 40
2.000000000000002
100
AcDbArc
 50
90.0
 51
270.0
  0
ENDBLK
  5
EE
330
75
100
AcDbEntity
  8
0
100
AcDbBlockEnd
  0
BLOCK
  5
2FE
330
EF
100
AcDbEntity
  8
0
100
AcDbBlockBegin
  2
SE1
 70
     0
 10
0.0
 20
0.0
 30
0.0
  3
SE1
  1

  0
LINE
  5
F1
330
EF
100
AcDbEntity
  8
$DDT_AUDIT_GENERATED_(77)
  6
Continuous
 62
     7
100
AcDbLine
 10
77.3571166292
 20
407.5112985596
 30
0.0
 11
86.9845930516
 21
407.5112985596
 31
0.0
  0
LINE
  5
F2
330
EF
100
AcDbEntity
  8
$DDT_AUDIT_GENERATED_(77)
  6
Continuous
 62
     7
100
AcDbLine
 10
109.7296402068
 20
407.5112985596
 30
0.0
 11
119.3571166292
 21
407.5112985596
 31
0.0
  0
LINE
  5
F3
330
EF
100
AcDbEntity
  8
$DDT_AUDIT_GENERATED_(77)
  6
Continuous
 62
     7
100
AcDbLine
 10
77.3571166292
 20
426.5112985596
 30
0.0
 11
119.3571166292
 21
426.5112985596
 31
0.0
  0
LINE
  5
F4
330
EF
100
AcDbEntity
  8
$DDT_AUDIT_GENERATED_(77)
  6
Continuous
 62
     7
100
AcDbLine
 10
76.8571166292
 20
402.5112985596
 30
0.0
 11
76.8571166292
 21
408.0112985596
 31
0.0
  0
LINE
  5
F5
330
EF
100
AcDbEntity
  8
$DDT_AUDIT_GENERATED_(77)
  6
Continuous
 62
     7
100
AcDbLine
 10
76.8571166292
 20
415.1849620536
 30
0.0
 11
76.8571166292
 21
408.0112985596
 31
0.0
  0
LINE
  5
F6
330
EF
100
AcDbEntity
  8
$DDT_AUDIT_GENERATED_(77)
  6
Continuous
 62
     7
100
AcDbLine
 10
76.8571166292
 20
415.1849620536
 30
0.0
 11
76.8571166292
 21
426.0112985596
 31
0.0
  0
LINE
  5
F7
330
EF
100
AcDbEntity
  8
$DDT_AUDIT_GENERATED_(77)
  6
Continuous
 62
     7
100
AcDbLine
 10
76.8571166292
 20
402.5112985596
 30
0.0
 11
76.8571166292
 21
319.5112985596
 31
0.0
  0
LINE
  5
F8
330
EF
100
AcDbEntity
  8
$DDT_AUDIT_GENERATED_(77)
  6
Continuous
 62
     7
100
AcDbLine
 10
119.8571166292
 20
426.0112985596
 30
0.0
 11
119.8571166292
 21
415.1849620536
 31
0.0
  0
LINE
  5
F9
330
EF
100
AcDbEntity
  8
$DDT_AUDIT_GENERATED_(77)
  6
Continuous
 62
     7
100
AcDbLine
 10
119.8571166292
 20
408.0112985596
 30
0.0
 11
119.8571166292
 21
415.1849620536
 31
0.0
  0
LINE
  5
FA
330
EF
100
AcDbEntity
  8
$DDT_AUDIT_GENERATED_(77)
  6
Continuous
 62
     7
100
AcDbLine
 10
119.8571166292
 20
408.0112985596
 30
0.0
 11
119.8571166292
 21
402.5112985596
 31
0.0
  0
LINE
  5
FB
330
EF
100
AcDbEntity
  8
$DDT_AUDIT_GENERATED_(77)
  6
Continuous
 62
     7
100
AcDbLine
 10
119.8571166292
 20
319.5112985596
 30
0.0
 11
119.8571166292
 21
402.5112985596
 31
0.0
  0
ARC
  5
FC
330
EF
100
AcDbEntity
  8
$DDT_AUDIT_GENERATED_(77)
  6
Continuous
 62
     7
100
AcDbCircle
 10
77.3571166292
 20
426.0112985596
 30
0.0
 40
0.5000000000000664
100
AcDbArc
 50
90.0
 51
180.0
  0
ARC
  5
FD
330
EF
100
AcDbEntity
  8
$DDT_AUDIT_GENERATED_(77)
  6
Continuous
 62
     7
100
AcDbCircle
 10
119.3571166292
 20
426.0112985596
 30
0.0
 40
0.4999999999998894
100
AcDbArc
 50
0.0
 51
90.0
  0
ARC
  5
FE
330
EF
100
AcDbEntity
  8
$DDT_AUDIT_GENERATED_(77)
  6
Continuous
 62
     7
100
AcDbCircle
 10
77.3571166292
 20
408.0112985596
 30
0.0
 40
0.5000000000126015
100
AcDbArc
 50
180.0
 51
269.9999999993
  0
ARC
  5
FF
330
EF
100
AcDbEntity
  8
$DDT_AUDIT_GENERATED_(77)
  6
Continuous
 62
     7
100
AcDbCircle
 10
119.3571166292
 20
408.0112985596
 30
0.0
 40
0.5000000000022868
100
AcDbArc
 50
270.0
 51
0.0
  0
ELLIPSE
  5
100
330
EF
100
AcDbEntity
  8
$DDT_AUDIT_GENERATED_(77)
  6
Continuous
 62
     7
100
AcDbEllipse
 10
98.3571166292
 20
411.0044585029
 30
0.0
 11
12.24999999999937
 21
1.387778780781446E-14
 31
0.0
210
0.0
220
0.0
230
1.0
 40
0.260762731
 41
0.0
 42
3.413481710702408
  0
ELLIPSE
  5
101
330
EF
100
AcDbEntity
  8
$DDT_AUDIT_GENERATED_(77)
  6
Continuous
 62
     7
100
AcDbEllipse
 10
98.3571166292
 20
411.0044585029
 30
0.0
 11
12.24999999999937
 21
1.387778780781446E-14
 31
0.0
210
0.0
220
0.0
230
1.0
 40
0.260762731
 41
6.011296250066932
 42
6.283185307179582
  0
LINE
  5
102
330
EF
100
AcDbEntity
  8
$DDT_AUDIT_GENERATED_(83)
  6
Continuous
 62
     7
100
AcDbLine
 10
119.5842895039
 20
428.5041028869
 30
0.0
 11
119.3352408294
 21
428.5041028869
 31
0.0
  0
LINE
  5
103
330
EF
100
AcDbEntity
  8
$DDT_AUDIT_GENERATED_(83)
  6
Continuous
 62
     7
100
AcDbLine
 10
119.3352408294
 20
428.5041028869
 30
0.0
 11
77.378992429
 21
428.5041028869
 31
0.0
  0
LINE
  5
104
330
EF
100
AcDbEntity
  8
$DDT_AUDIT_GENERATED_(83)
  6
Continuous
 62
     7
100
AcDbLine
 10
77.378992429
 20
428.5041028869
 30
0.0
 11
77.1299437545
 21
428.5041028869
 31
0.0
  0
ARC
  5
105
330
EF
100
AcDbEntity
  8
$DDT_AUDIT_GENERATED_(83)
  6
Continuous
 62
     7
100
AcDbCircle
 10
119.5842895039
 20
428.7541028869
 30
0.0
 40
0.2500000000000202
100
AcDbArc
 50
333.587104578
 51
5.0
  0
ARC
  5
106
330
EF
100
AcDbEntity
  8
$DDT_AUDIT_GENERATED_(83)
  6
Continuous
 62
     7
100
AcDbCircle
 10
119.5842895039
 20
428.7541028869
 30
0.0
 40
0.2500000000000202
100
AcDbArc
 50
270.0
 51
293.5976854981
  0
ARC
  5
107
330
EF
100
AcDbEntity
  8
$DDT_AUDIT_GENERATED_(83)
  6
Continuous
 62
     7
100
AcDbCircle
 10
77.1299437545
 20
428.7541028869
 30
0.0
 40
0.2500000000000002
100
AcDbArc
 50
247.3977471503
 51
270.0
  0
ARC
  5
108
330
EF
100
AcDbEntity
  8
$DDT_AUDIT_GENERATED_(83)
  6
Continuous
 62
     7
100
AcDbCircle
 10
77.1299437545
 20
428.7541028869
 30
0.0
 40
0.2500000000000002
100
AcDbArc
 50
175.0
 51
207.4622413315
  0
LINE
  5
109
330
EF
100
AcDbEntity
  8
$DDT_AUDIT_GENERATED_(83)
  6
Continuous
 62
     7
100
AcDbLine
 10
107.8571166292
 20
459.7793389153
 30
0.0
 11
88.8571166292
 21
459.7793389153
 31
0.0
  0
ELLIPSE
  5
10A
330
EF
100
AcDbEntity
  8
$DDT_AUDIT_GENERATED_(83)
  6
Continuous
 62
     7
100
AcDbEllipse
 10
88.8569786707
 20
460.0839954609
 30
0.0
 11
2.49986204534795
 21
-6.938893903907228E-13
 31
0.0
210
0.0
220
0.0
230
1.0
 40
0.1218693434
 41
3.141537467180043
 42
4.712444166820432
  0
LINE
  5
10B
330
EF
100
AcDbEntity
  8
$DDT_AUDIT_GENERATED_(83)
  6
Continuous
 62
     7
100
AcDbLine
 10
86.3571166292
 20
460.0840122738
 30
0.0
 11
86.3571166292
 21
462.399531443
 31
0.0
  0
ELLIPSE
  5
10C
330
EF
100
AcDbEntity
  8
$DDT_AUDIT_GENERATED_(83)
  6
Continuous
 62
     7
100
AcDbEllipse
 10
88.8569786707
 20
462.3995482559
 30
0.0
 11
2.499862045342681
 21
-6.106226635438361E-13
 31
0.0
210
0.0
220
0.0
230
1.0
 40
0.1218693434
 41
1.570741140359161
 42
3.141647840029719
  0
LINE
  5
10D
330
EF
100
AcDbEntity
  8
$DDT_AUDIT_GENERATED_(83)
  6
Continuous
 62
     7
100
AcDbLine
 10
88.8571166292
 20
462.7042048015
 30
0.0
 11
107.8571166292
 21
462.7042048015
 31
0.0
  0
ELLIPSE
  5
10E
330
EF
100
AcDbEntity
  8
$DDT_AUDIT_GENERATED_(83)
  6
Continuous
 62
     7
100
AcDbEllipse
 10
107.8572545877
 20
462.3995482559
 30
0.0
 11
-2.499862045347953
 21
6.383782391594650E-13
 31
0.0
210
0.0
220
0.0
230
1.0
 40
0.1218693434
 41
3.14153746715389
 42
4.712444166820434
  0
LINE
  5
10F
330
EF
100
AcDbEntity
  8
$DDT_AUDIT_GENERATED_(83)
  6
Continuous
 62
     7
100
AcDbLine
 10
110.3571166292
 20
462.399531443
 30
0.0
 11
110.3571166292
 21
460.0840122738
 31
0.0
  0
ELLIPSE
  5
110
330
EF
100
AcDbEntity
  8
$DDT_AUDIT_GENERATED_(83)
  6
Continuous
 62
     7
100
AcDbEllipse
 10
107.8572545877
 20
460.0839954609
 30
0.0
 11
-2.499862045347731
 21
2.775557561562891E-13
 31
0.0
210
0.0
220
0.0
230
1.0
 40
0.1218693434
 41
1.570741140361163
 42
3.141647839961319
  0
LINE
  5
111
330
EF
100
AcDbEntity
  8
$DDT_AUDIT_GENERATED_(83)
  6
Continuous
 62
     7
100
AcDbLine
 10
79.9069209322
 20
457.1303958848
 30
0.0
 11
116.8073123262
 21
457.1303958848
 31
0.0
  0
LINE
  5
112
330
EF
100
AcDbEntity
  8
$DDT_AUDIT_GENERATED_(83)
  6
Continuous
 62
     7
100
AcDbLine
 10
116.8073123262
 20
457.1303958848
 30
0.0
 11
116.1863900525
 21
464.2275699496
 31
0.0
  0
LINE
  5
113
330
EF
100
AcDbEntity
  8
$DDT_AUDIT_GENERATED_(83)
  6
Continuous
 62
     7
100
AcDbLine
 10
116.1863900523
 20
464.2275699496
 30
0.0
 11
80.5278432061
 21
464.2275699495
 31
0.0
  0
LINE
  5
114
330
EF
100
AcDbEntity
  8
$DDT_AUDIT_GENERATED_(83)
  6
Continuous
 62
     7
100
AcDbLine
 10
80.527843206
 20
464.2275699496
 30
0.0
 11
79.9069209322
 21
457.1303958848
 31
0.0
  0
ARC
  5
115
330
EF
100
AcDbEntity
  8
$DDT_AUDIT_GENERATED_(83)
  6
Continuous
 62
     7
100
AcDbCircle
 10
565.0439816457
 20
501.2455350439
 30
0.0
 40
450.4023281752631
100
AcDbArc
 50
185.6209084345
 51
186.035097541
  0
ARC
  5
116
330
EF
100
AcDbEntity
  8
$DDT_AUDIT_GENERATED_(83)
  6
Continuous
 62
     7
100
AcDbCircle
 10
-389.7753253125
 20
503.4344873849
 30
0.0
 40
471.9591945572609
100
AcDbArc
 50
353.9743615983
 51
354.3696324263
  0
LINE
  5
117
330
EF
100
AcDbEntity
  8
$DDT_AUDIT_GENERATED_(83)
  6
Continuous
 62
     7
100
AcDbLine
 10
79.5763050671
 20
453.8912902017
 30
0.0
 11
117.1379281913
 21
453.8912902017
 31
0.0
  0
LINE
  5
118
330
EF
100
AcDbEntity
  8
$DDT_AUDIT_GENERATED_(83)
  6
Continuous
 62
     7
100
AcDbLine
 10
115.9258804436
 20
467.7624161521
 30
0.0
 11
80.7883528148
 21
467.7624161521
 31
0.0
  0
LINE
  5
119
330
EF
100
AcDbEntity
  8
$DDT_AUDIT_GENERATED_(83)
  6
Continuous
 62
     7
100
AcDbLine
 10
80.7883528148
 20
467.7624161521
 30
0.0
 11
80.527843206
 21
464.7847776971
 31
0.0
  0
LINE
  5
11A
330
EF
100
AcDbEntity
  8
$DDT_AUDIT_GENERATED_(83)
  6
Continuous
 62
     7
100
AcDbLine
 10
80.527843206
 20
464.7847776971
 30
0.0
 11
116.1863900525
 21
464.7847776971
 31
0.0
  0
LINE
  5
11B
330
EF
100
AcDbEntity
  8
$DDT_AUDIT_GENERATED_(83)
  6
Continuous
 62
     7
100
AcDbLine
 10
116.1863900525
 20
464.7847776971
 30
0.0
 11
115.9258804436
 21
467.7624161521
 31
0.0
  0
LINE
  5
11C
330
EF
100
AcDbEntity
  8
$DDT_AUDIT_GENERATED_(83)
  6
Continuous
 62
     7
100
AcDbLine
 10
116.6844874015
 20
464.7674208968
 30
0.0
 11
116.4239777926
 21
467.7450593518
 31
0.0
  0
ELLIPSE
  5
11D
330
EF
100
AcDbEntity
  8
$DDT_AUDIT_GENERATED_(83)
  6
Continuous
 62
     7
100
AcDbEllipse
 10
115.9258804436
 20
467.7014814804
 30
0.0
 11
0.4980973490445115
 21
0.04357787138795089
 31
0.0
210
0.0
220
0.0
230
1.0
 40
0.1214124427
 41
0.0000000000409126
 42
1.560174513919287
  0
ELLIPSE
  5
11E
330
EF
100
AcDbEntity
  8
$DDT_AUDIT_GENERATED_(83)
  6
Continuous
 62
     7
100
AcDbEllipse
 10
116.1863900525
 20
464.7238430254
 30
0.0
 11
-0.4980973490460103
 21
-0.04357787137312941
 31
0.0
210
0.0
220
0.0
230
1.0
 40
0.1214124427
 41
3.141592653589793
 42
4.70176716751258
  0
LINE
  5
11F
330
EF
100
AcDbEntity
  8
$DDT_AUDIT_GENERATED_(83)
  6
Continuous
 62
     7
100
AcDbLine
 10
117.3054096752
 20
457.6702468329
 30
0.0
 11
116.6844874015
 21
464.7674208968
 31
0.0
  0
ELLIPSE
  5
120
330
EF
100
AcDbEntity
  8
$DDT_AUDIT_GENERATED_(83)
  6
Continuous
 62
     7
100
AcDbEllipse
 10
116.8073123256
 20
457.6266689611
 30
0.0
 11
-0.4980973495371001
 21
-0.0435778714691637
 31
0.0
210
0.0
220
0.0
230
1.0
 40
0.992489739
 41
1.484181973852353
 42
3.141592653589886
  0
LINE
  5
121
330
EF
100
AcDbEntity
  8
$DDT_AUDIT_GENERATED_(83)
  6
Continuous
 62
     7
100
AcDbLine
 10
80.2902554658
 20
467.7450593517
 30
0.0
 11
80.0297458569
 21
464.7674208968
 31
0.0
  0
ELLIPSE
  5
122
330
EF
100
AcDbEntity
  8
$DDT_AUDIT_GENERATED_(83)
  6
Continuous
 62
     7
100
AcDbEllipse
 10
80.527843206
 20
464.7238430254
 30
0.0
 11
-0.4980973490459479
 21
0.04357787137337921
 31
0.0
210
0.0
220
0.0
230
1.0
 40
0.1214124427
 41
4.723010793256581
 42
6.283185307179586
  0
ELLIPSE
  5
123
330
EF
100
AcDbEntity
  8
$DDT_AUDIT_GENERATED_(83)
  6
Continuous
 62
     7
100
AcDbEllipse
 10
80.7883528148
 20
467.7014814804
 30
0.0
 11
0.4980973490475438
 21
-0.04357787137346247
 31
0.0
210
0.0
220
0.0
230
1.0
 40
0.1214124427
 41
1.581418139667327
 42
3.141592653589793
  0
LINE
  5
124
330
EF
100
AcDbEntity
  8
$DDT_AUDIT_GENERATED_(83)
  6
Continuous
 62
     7
100
AcDbLine
 10
80.0297458569
 20
464.7674208968
 30
0.0
 11
79.4088235833
 21
457.6702468331
 31
0.0
  0
ELLIPSE
  5
125
330
EF
100
AcDbEntity
  8
$DDT_AUDIT_GENERATED_(83)
  6
Continuous
 62
     7
100
AcDbEllipse
 10
79.9069209329
 20
457.6266689612
 30
0.0
 11
-0.4980973496306849
 21
0.04357787149755765
 31
0.0
210
0.0
220
0.0
230
0.9999999999999999
 40
0.992489739
 41
0.0
 42
1.657410679568612
  0
LINE
  5
126
330
EF
100
AcDbEntity
  8
$DDT_AUDIT_GENERATED_(83)
  6
Continuous
 62
     7
100
AcDbLine
 10
116.1863900523
 20
464.2275699496
 30
0.0
 11
116.1863900525
 21
464.7847776971
 31
0.0
  0
LINE
  5
127
330
EF
100
AcDbEntity
  8
$DDT_AUDIT_GENERATED_(83)
  6
Continuous
 62
     7
100
AcDbLine
 10
80.527843206
 20
464.7847776971
 30
0.0
 11
80.527843206
 21
464.2275699496
 31
0.0
  0
LINE
  5
128
330
EF
100
AcDbEntity
  8
$DDT_AUDIT_GENERATED_(83)
  6
Continuous
 62
     7
100
AcDbLine
 10
115.9258804436
 20
467.7624161521
 30
0.0
 11
115.9258804436
 21
468.2014814804
 31
0.0
  0
LINE
  5
129
330
EF
100
AcDbEntity
  8
$DDT_AUDIT_GENERATED_(83)
  6
Continuous
 62
     7
100
AcDbLine
 10
119.8333381785
 20
428.7758918226
 30
0.0
 11
117.6360255404
 21
453.8912902016
 31
0.0
  0
ELLIPSE
  5
12A
330
EF
100
AcDbEntity
  8
$DDT_AUDIT_GENERATED_(83)
  6
Continuous
 62
     7
100
AcDbEllipse
 10
117.1379281908
 20
453.8477123302
 30
0.0
 11
0.4980973496028357
 21
0.04357787142561521
 31
0.0
210
0.0
220
0.0
230
1.0
 40
0.0868265939
 41
0.0
 42
1.563200129137429
  0
LINE
  5
12B
330
EF
100
AcDbEntity
  8
$DDT_AUDIT_GENERATED_(83)
  6
Continuous
 62
     7
100
AcDbLine
 10
117.1379281913
 20
453.8912902017
 30
0.0
 11
119.3352408294
 21
428.7758918226
 31
0.0
  0
ARC
  5
12C
330
EF
100
AcDbEntity
  8
$DDT_AUDIT_GENERATED_(83)
  6
Continuous
 62
     7
100
AcDbCircle
 10
77.1299437545
 20
426.0139432648
 30
0.0
 40
2.773154355242849
100
AcDbArc
 50
94.9441458641
 51
95.1525040712
  0
LINE
  5
12D
330
EF
100
AcDbEntity
  8
$DDT_AUDIT_GENERATED_(83)
  6
Continuous
 62
     7
100
AcDbLine
 10
77.378992429
 20
428.7758918226
 30
0.0
 11
79.5763050671
 21
453.8912902017
 31
0.0
  0
ELLIPSE
  5
12E
330
EF
100
AcDbEntity
  8
$DDT_AUDIT_GENERATED_(83)
  6
Continuous
 62
     7
100
AcDbEllipse
 10
79.5763050676
 20
453.8477123302
 30
0.0
 11
0.4980973495268721
 21
-0.04357787141923142
 31
0.0
210
0.0
220
0.0
230
0.9999999999999998
 40
0.0868265939
 41
1.578392524300918
 42
3.141592653589793
  0
LINE
  5
12F
330
EF
100
AcDbEntity
  8
$DDT_AUDIT_GENERATED_(83)
  6
Continuous
 62
     7
100
AcDbLine
 10
79.078207718
 20
453.8912902016
 30
0.0
 11
76.8808950799
 21
428.7758918226
 31
0.0
  0
LINE
  5
130
330
EF
100
AcDbEntity
  8
$DDT_AUDIT_GENERATED_(83)
  6
Continuous
 62
     7
100
AcDbLine
 10
117.6360255404
 20
453.8912902016
 30
0.0
 11
117.3054096752
 21
457.6702468329
 31
0.0
  0
LINE
  5
131
330
EF
100
AcDbEntity
  8
$DDT_AUDIT_GENERATED_(83)
  6
Continuous
 62
     7
100
AcDbLine
 10
79.4088235833
 20
457.6702468331
 30
0.0
 11
79.078207718
 21
453.8912902016
 31
0.0
  0
ELLIPSE
  5
132
330
EF
100
AcDbEntity
  8
$DDT_AUDIT_GENERATED_(83)
  6
Continuous
 62
     7
100
AcDbEllipse
 10
116.1863900522
 20
464.7238430258
 30
0.0
 11
-0.4980973494676488
 21
-0.04357787138697945
 31
0.0
210
0.0
220
0.0
230
1.0
 40
0.992489739
 41
1.48418197315823
 42
3.141592653589793
  0
LINE
  5
133
330
EF
100
AcDbEntity
  8
$DDT_AUDIT_GENERATED_(83)
  6
Continuous
 62
     7
100
AcDbLine
 10
80.7883528148
 20
467.7624161521
 30
0.0
 11
80.7883528148
 21
468.2014814804
 31
0.0
  0
ELLIPSE
  5
134
330
EF
100
AcDbEntity
  8
$DDT_AUDIT_GENERATED_(83)
  6
Continuous
 62
     7
100
AcDbEllipse
 10
80.5278432062
 20
464.7238430254
 30
0.0
 11
-0.4980973492686135
 21
0.04357787136455294
 31
0.0
210
0.0
220
0.0
230
0.9999999999999999
 40
0.992489739
 41
0.0
 42
1.657410680442896
  0
LINE
  5
135
330
EF
100
AcDbEntity
  8
$DDT_AUDIT_GENERATED_(83)
  6
Continuous
 62
     7
100
AcDbLine
 10
86.8571166292
 20
462.5707427665
 30
0.0
 11
86.8571166292
 21
460.5802853497
 31
0.0
  0
LINE
  5
136
330
EF
100
AcDbEntity
  8
$DDT_AUDIT_GENERATED_(83)
  6
Continuous
 62
     7
100
AcDbLine
 10
88.8571166292
 20
462.7004778773
 30
0.0
 11
88.8571166292
 21
460.3365466629
 31
0.0
  0
LINE
  5
137
330
EF
100
AcDbEntity
  8
$DDT_AUDIT_GENERATED_(83)
  6
Continuous
 62
     7
100
AcDbLine
 10
88.8571166292
 20
460.3365466629
 30
0.0
 11
107.8571166292
 21
460.3365466629
 31
0.0
  0
LINE
  5
138
330
EF
100
AcDbEntity
  8
$DDT_AUDIT_GENERATED_(83)
  6
Continuous
 62
     7
100
AcDbLine
 10
107.8571166292
 20
460.3365466629
 30
0.0
 11
107.8571166292
 21
462.7004778773
 31
0.0
  0
LINE
  5
139
330
EF
100
AcDbEntity
  8
$DDT_AUDIT_GENERATED_(83)
  6
Continuous
 62
     7
100
AcDbLine
 10
109.8571166292
 20
460.5802853497
 30
0.0
 11
109.8571166292
 21
462.5711151626
 31
0.0
  0
ARC
  5
13A
330
EF
100
AcDbEntity
  8
$DDT_AUDIT_GENERATED_(83)
  6
Continuous
 62
     7
100
AcDbCircle
 10
86.3589731463
 20
460.5821558089
 30
0.0
 40
0.498146994554972
100
AcDbArc
 50
269.7864669628
 51
359.7848633565
  0
ARC
  5
13B
330
EF
100
AcDbEntity
  8
$DDT_AUDIT_GENERATED_(83)
  6
Continuous
 62
     7
100
AcDbCircle
 10
86.3589731463
 20
462.897674978
 30
0.0
 40
0.4981469945365894
100
AcDbArc
 50
269.786466962
 51
312.6918812692
  0
LINE
  5
13C
330
EF
100
AcDbEntity
  8
$DDT_AUDIT_GENERATED_(83)
  6
Continuous
 62
     7
100
AcDbLine
 10
107.8571166292
 20
459.7793389153
 30
0.0
 11
107.8571166292
 21
460.3365466629
 31
0.0
  0
LINE
  5
13D
330
EF
100
AcDbEntity
  8
$DDT_AUDIT_GENERATED_(83)
  6
Continuous
 62
     7
100
AcDbLine
 10
88.8571166292
 20
460.3365466629
 30
0.0
 11
88.8571166292
 21
459.7793389153
 31
0.0
  0
ARC
  5
13E
330
EF
100
AcDbEntity
  8
$DDT_AUDIT_GENERATED_(83)
  6
Continuous
 62
     7
100
AcDbCircle
 10
110.3552601121
 20
462.8976749781
 30
0.0
 40
0.4981469945560201
100
AcDbArc
 50
227.2569166627
 51
270.2135330371
  0
ARC
  5
13F
330
EF
100
AcDbEntity
  8
$DDT_AUDIT_GENERATED_(83)
  6
Continuous
 62
     7
100
AcDbCircle
 10
110.3552601121
 20
460.5821558089
 30
0.0
 40
0.4981469945355996
100
AcDbArc
 50
180.2151366413
 51
270.2135330381
  0
LINE
  5
140
330
EF
100
AcDbEntity
  8
$DDT_AUDIT_GENERATED_(83)
  6
Continuous
 62
     7
100
AcDbLine
 10
88.8571166292
 20
462.7006069136
 30
0.0
 11
88.8571166292
 21
462.7042048015
 31
0.0
  0
SPLINE
  5
141
330
EF
100
AcDbEntity
  8
$DDT_AUDIT_GENERATED_(83)
  6
Continuous
 62
     7
100
AcDbSpline
210
0.0
220
0.0
230
1.0
 70
    12
 71
     3
 72
     8
 73
     4
 74
     0
 42
0.000000004653303
 43
0.0000000001
 40
0.0
 40
0.0
 40
0.0
 40
0.0
 40
1.0
 40
1.0
 40
1.0
 40
1.0
 10
88.85711662920184
 20
460.3365466628514
 30
0.0
 41
1.0
 10
87.68548759124609
 20
460.3365349782136
 30
0.0
 41
0.8047099331477315
 10
86.85702075090892
 20
460.4374996880773
 30
0.0
 41
0.8047099331477315
 10
86.85711662920185
 20
460.5802853496625
 30
0.0
 41
1.0
  0
SPLINE
  5
142
330
EF
100
AcDbEntity
  8
$DDT_AUDIT_GENERATED_(83)
  6
Continuous
 62
     7
100
AcDbSpline
210
0.0
220
0.0
230
1.0
 70
    12
 71
     3
 72
     8
 73
     4
 74
     0
 42
0.000000004653303
 43
0.0000000001
 40
0.0
 40
0.0
 40
0.0
 40
0.0
 40
1.0
 40
1.0
 40
1.0
 40
1.0
 10
109.8571166292019
 20
460.5802853496625
 30
0.0
 41
1.0
 10
109.8572125074923
 20
460.4374996880792
 30
0.0
 41
0.8047099331477519
 10
109.0287456671577
 20
460.3365349782134
 30
0.0
 41
0.8047099331477519
 10
107.8571166292018
 20
460.3365466628514
 30
0.0
 41
1.0
  0
LINE
  5
143
330
EF
100
AcDbEntity
  8
$DDT_AUDIT_GENERATED_(83)
  6
Continuous
 62
     7
100
AcDbLine
 10
115.9258804436
 20
468.2014814804
 30
0.0
 11
80.7883528148
 21
468.2014814804
 31
0.0
  0
ARC
  5
144
330
EF
100
AcDbEntity
  8
$DDT_AUDIT_GENERATED_(83)
  6
Continuous
 62
     7
100
AcDbCircle
 10
115.9258804436
 20
467.7014814804
 30
0.0
 40
0.4999999999999333
100
AcDbArc
 50
5.0
 51
90.0
  0
ARC
  5
145
330
EF
100
AcDbEntity
  8
$DDT_AUDIT_GENERATED_(83)
  6
Continuous
 62
     7
100
AcDbCircle
 10
80.7883528148
 20
467.7014814804
 30
0.0
 40
0.5000000000036364
100
AcDbArc
 50
90.0
 51
175.0
  0
ARC
  5
146
330
EF
100
AcDbEntity
  8
$DDT_AUDIT_GENERATED_(83)
  6
Continuous
 62
     7
100
AcDbCircle
 10
119.5923060637
 20
428.7405423616
 30
0.0
 40
0.2344190746227923
100
AcDbArc
 50
291.8378165162
 51
9.610439349
  0
ARC
  5
147
330
EF
100
AcDbEntity
  8
$DDT_AUDIT_GENERATED_(83)
  6
Continuous
 62
     7
100
AcDbCircle
 10
77.121927868
 20
428.7405451336
 30
0.0
 40
0.2344212063594425
100
AcDbArc
 50
170.3904502198
 51
248.1446357239
  0
LINE
  5
148
330
EF
100
AcDbEntity
  8
$DDT_AUDIT_GENERATED_(83)
  6
Continuous
 62
     7
100
AcDbLine
 10
88.8546166292
 20
462.7004778773
 30
0.0
 11
107.8596166292
 21
462.7004778773
 31
0.0
  0
ARC
  5
149
330
EF
100
AcDbEntity
  8
$DDT_AUDIT_GENERATED_(83)
  6
Continuous
 62
     7
100
AcDbCircle
 10
88.8562472612
 20
442.8896637904
 30
0.0
 40
19.81081935074454
100
AcDbArc
 50
89.9978282303
 51
91.0634011383
  0
SPLINE
  5
14A
330
EF
100
AcDbEntity
  8
$DDT_AUDIT_GENERATED_(83)
  6
Continuous
 62
     7
100
AcDbSpline
210
0.0
220
0.0
230
1.0
 70
     8
 71
     3
 72
    20
 73
    16
 74
     0
 42
0.0000000041327015
 43
0.0000000001
 40
0.2344121022170273
 40
0.2344121022170273
 40
0.2344121022170273
 40
0.2344121022170273
 40
0.2535457782744494
 40
0.303508686406999
 40
0.3593890890663104
 40
0.4200128232992196
 40
0.4842929240480132
 40
0.5512811313809128
 40
0.6201269406385439
 40
0.6900362103504379
 40
0.7601571706861643
 40
0.8292694927198205
 40
0.894728585937088
 40
0.9540854972200757
 40
1.0
 40
1.0
 40
1.0
 40
1.0
 10
86.64917370677925
 20
462.519475230685
 30
0.0
 10
86.64935343987656
 20
462.5195556392688
 30
0.0
 10
86.6529741164213
 20
462.5211628262156
 30
0.0
 10
86.67684150710582
 20
462.5297644113278
 30
0.0
 10
86.73565832285301
 20
462.5460602908393
 30
0.0
 10
86.82526394601814
 20
462.5657944243737
 30
0.0
 10
86.94479244437538
 20
462.5870447172315
 30
0.0
 10
87.09243205921828
 20
462.6083967028798
 30
0.0
 10
87.2654683648838
 20
462.6287838214834
 30
0.0
 10
87.46027882068638
 20
462.6473859919855
 30
0.0
 10
87.67168405667397
 20
462.6635490951367
 30
0.0
 10
87.8924521311176
 20
462.676756417979
 30
0.0
 10
88.10966154516325
 20
462.6866182215441
 30
0.0
 10
88.31243570681718
 20
462.693335914266
 30
0.0
 10
88.42862641993129
 20
462.6958269582497
 30
0.0
 10
88.4885825122518
 20
462.6970711416562
 30
0.0
  0
SPLINE
  5
14B
330
EF
100
AcDbEntity
  8
$DDT_AUDIT_GENERATED_(83)
  6
Continuous
 62
     7
100
AcDbSpline
210
0.0
220
0.0
230
1.0
 70
     8
 71
     3
 72
    22
 73
    18
 74
     0
 42
0.0000000040554891
 43
0.0000000001
 40
0.0
 40
0.0
 40
0.0
 40
0.0
 40
0.0302639346148867
 40
0.0858051664054116
 40
0.1425759813732128
 40
0.2025022230414458
 40
0.2638399816081665
 40
0.3257790604804053
 40
0.3876005427777292
 40
0.448684871189541
 40
0.508434187032883
 40
0.5662209239836289
 40
0.6213490759614896
 40
0.6730453790919524
 40
0.7205220061383338
 40
0.7631765357689483
 40
0.7695186930705517
 40
0.7695186930705517
 40
0.7695186930705517
 40
0.7695186930705517
 10
108.180682631943
 20
462.6978227613591
 30
0.0
 10
108.220883375745
 20
462.6971252522444
 30
0.0
 10
108.3176314144293
 20
462.6953979318088
 30
0.0
 10
108.4915917582787
 20
462.6906083356254
 30
0.0
 10
108.6904923054843
 20
462.6829858292472
 30
0.0
 10
108.8910115742418
 20
462.6728768982146
 30
0.0
 10
109.0876185372978
 20
462.660286713161
 30
0.0
 10
109.2749714908079
 20
462.6454372446173
 30
0.0
 10
109.4485906527704
 20
462.6286676368487
 30
0.0
 10
109.6049871941852
 20
462.6104329995957
 30
0.0
 10
109.7413285050479
 20
462.5913213174894
 30
0.0
 10
109.8554241556462
 20
462.5720831252056
 30
0.0
 10
109.9456830937668
 20
462.5536870325271
 30
0.0
 10
110.0111663987374
 20
462.5373999375892
 30
0.0
 10
110.0517194557742
 20
462.5248845508169
 30
0.0
 10
110.0641110521338
 20
462.5199230101143
 30
0.0
 10
110.0650483491653
 20
462.519495111462
 30
0.0
 10
110.065076733532
 20
462.5194803327105
 30
0.0
  0
ARC
  5
14C
330
EF
100
AcDbEntity
  8
$DDT_AUDIT_GENERATED_(83)
  6
Continuous
 62
     7
100
AcDbCircle
 10
107.6429700344
 20
416.9863876301
 30
0.0
 40
45.71459763138753
100
AcDbArc
 50
89.3260495665
 51
89.7314527909
  0
LINE
  5
14D
330
EF
100
AcDbEntity
  8
$DDT_AUDIT_GENERATED_(96)
  6
Continuous
 62
     7
100
AcDbLine
 10
122.7571166292
 20
319.5112985596
 30
0.0
 11
123.8571166292
 21
319.5112985596
 31
0.0
  0
LINE
  5
14E
330
EF
100
AcDbEntity
  8
$DDT_AUDIT_GENERATED_(96)
  6
Continuous
 62
     7
100
AcDbLine
 10
72.8571166292
 20
319.5112985596
 30
0.0
 11
73.9571166292
 21
319.5112985596
 31
0.0
  0
LINE
  5
14F
330
EF
100
AcDbEntity
  8
$DDT_AUDIT_GENERATED_(96)
  6
Continuous
 62
     7
100
AcDbLine
 10
73.9571166292
 20
319.5112985596
 30
0.0
 11
122.7571166292
 21
319.5112985596
 31
0.0
  0
LINE
  5
150
330
EF
100
AcDbEntity
  8
$DDT_AUDIT_GENERATED_(96)
  6
Continuous
 62
     7
100
AcDbLine
 10
72.3571166292
 20
319.0112985596
 30
0.0
 11
72.3571166292
 21
311.5112985596
 31
0.0
  0
LINE
  5
151
330
EF
100
AcDbEntity
  8
$DDT_AUDIT_GENERATED_(96)
  6
Continuous
 62
     7
100
AcDbLine
 10
124.3571166292
 20
319.0112985596
 30
0.0
 11
124.3571166292
 21
311.5112985596
 31
0.0
  0
ARC
  5
152
330
EF
100
AcDbEntity
  8
$DDT_AUDIT_GENERATED_(96)
  6
Continuous
 62
     7
100
AcDbCircle
 10
72.8571166292
 20
319.0112985596
 30
0.0
 40
0.5000000000000004
100
AcDbArc
 50
90.0
 51
180.0
  0
ARC
  5
153
330
EF
100
AcDbEntity
  8
$DDT_AUDIT_GENERATED_(96)
  6
Continuous
 62
     7
100
AcDbCircle
 10
123.8571166292
 20
319.0112985596
 30
0.0
 40
0.499999999999997
100
AcDbArc
 50
0.0
 51
90.0
  0
LINE
  5
154
330
EF
100
AcDbEntity
  8
$DDT_AUDIT_GENERATED_(96)
  6
Continuous
 62
     7
100
AcDbLine
 10
73.9571166292
 20
311.5112985596
 30
0.0
 11
72.3571166292
 21
311.5112985596
 31
0.0
  0
LINE
  5
155
330
EF
100
AcDbEntity
  8
$DDT_AUDIT_GENERATED_(96)
  6
Continuous
 62
     7
100
AcDbLine
 10
124.3571166292
 20
311.5112985596
 30
0.0
 11
122.7571166292
 21
311.5112985596
 31
0.0
  0
LINE
  5
156
330
EF
100
AcDbEntity
  8
$DDT_AUDIT_GENERATED_(96)
  6
Continuous
 62
     7
100
AcDbLine
 10
122.7571166292
 20
311.5112985596
 30
0.0
 11
73.9571166292
 21
311.5112985596
 31
0.0
  0
ELLIPSE
  5
157
330
EF
100
AcDbEntity
  8
02636038_GEH_USE
  6
Continuous
 62
     7
100
AcDbEllipse
 10
98.3571166292
 20
405.908758836
 30
0.0
 11
10.05000000000001
 21
0.0
 31
0.0
210
0.0
220
0.0
230
1.0
 40
0.3746065934
 41
5.690415244709935
 42
6.283185307179586
  0
ELLIPSE
  5
158
330
EF
100
AcDbEntity
  8
02636038_GEH_USE
  6
Continuous
 62
     7
100
AcDbEllipse
 10
98.3571166292
 20
405.908758836
 30
0.0
 11
10.05000000000001
 21
0.0
 31
0.0
210
0.0
220
0.0
230
1.0
 40
0.3746065934
 41
0.0
 42
3.734362716059449
  0
ELLIPSE
  5
159
330
EF
100
AcDbEntity
  8
02636038_GEH_USE
  6
Continuous
 62
     7
100
AcDbEllipse
 10
98.3571166292
 20
405.908758836
 30
0.0
 11
10.75
 21
0.0
 31
0.0
210
0.0
220
0.0
230
1.0
 40
0.3746065934
 41
5.540956332600993
 42
6.283185307179586
  0
ELLIPSE
  5
15A
330
EF
100
AcDbEntity
  8
02636038_GEH_USE
  6
Continuous
 62
     7
100
AcDbEllipse
 10
98.3571166292
 20
405.908758836
 30
0.0
 11
10.75
 21
0.0
 31
0.0
210
0.0
220
0.0
230
1.0
 40
0.3746065934
 41
0.0
 42
3.883821628168389
  0
ELLIPSE
  5
15B
330
EF
100
AcDbEntity
  8
02636038_GEH_USE
  6
Continuous
 62
     7
100
AcDbEllipse
 10
98.3571166292
 20
406.2031792524
 30
0.0
 11
11.3
 21
-2.775557561562892E-14
 31
0.0
210
0.0
220
0.0
230
1.0
 40
0.3746065934
 41
-0.7751090107149734
 42
-0.7001925476853188
  0
ELLIPSE
  5
15C
330
EF
100
AcDbEntity
  8
02636038_GEH_USE
  6
Continuous
 62
     7
100
AcDbEllipse
 10
98.3571166292
 20
406.2031792524
 30
0.0
 11
11.3
 21
-2.775557561562892E-14
 31
0.0
210
0.0
220
0.0
230
1.0
 40
0.3746065934
 41
3.849414151614232
 42
3.916701664304767
  0
LINE
  5
15D
330
EF
100
AcDbEntity
  8
02636038_GEH_USE
  6
Continuous
 62
     7
100
AcDbLine
 10
109.3571166292
 20
405.2342580132
 30
0.0
 11
109.3571166292
 21
407.1721004917
 31
0.0
  0
ELLIPSE
  5
15E
330
EF
100
AcDbEntity
  8
02636038_GEH_USE
  6
Continuous
 62
     7
100
AcDbEllipse
 10
98.3571166292
 20
408.6903103997
 30
0.0
 11
-11.79999999999975
 21
0.0
 31
0.0
210
0.0
220
0.0
230
1.0
 40
0.3746065934
 41
2.771250021498071
 42
3.511935285681516
  0
LINE
  5
15F
330
EF
100
AcDbEntity
  8
02636038_GEH_USE
  6
Continuous
 62
     7
100
AcDbLine
 10
109.3571166292
 20
405.2342580132
 30
0.0
 11
109.3571166292
 21
405.070027961
 31
0.0
  0
LINE
  5
160
330
EF
100
AcDbEntity
  8
02636038_GEH_USE
  6
Continuous
 62
     7
100
AcDbLine
 10
109.3571166292
 20
407.1721004917
 30
0.0
 11
109.3571166292
 21
408.6060255891
 31
0.0
  0
LINE
  5
161
330
EF
100
AcDbEntity
  8
02636038_GEH_USE
  6
Continuous
 62
     7
100
AcDbLine
 10
109.3571166292
 20
408.6060255891
 30
0.0
 11
109.3571166292
 21
410.2901919644
 31
0.0
  0
LINE
  5
162
330
EF
100
AcDbEntity
  8
02636038_GEH_USE
  6
Continuous
 62
     7
100
AcDbLine
 10
87.3571166292
 20
407.1721004917
 30
0.0
 11
87.3571166292
 21
405.2342580132
 31
0.0
  0
ELLIPSE
  5
163
330
EF
100
AcDbEntity
  8
02636038_GEH_USE
  6
Continuous
 62
     7
100
AcDbEllipse
 10
98.3571166292
 20
408.6903103997
 30
0.0
 11
11.79999999999976
 21
0.0
 31
0.0
210
0.0
220
0.0
230
1.0
 40
0.3746065934
 41
2.771250021498071
 42
3.511935285681512
  0
LINE
  5
164
330
EF
100
AcDbEntity
  8
02636038_GEH_USE
  6
Continuous
 62
     7
100
AcDbLine
 10
87.3571166292
 20
410.2901919644
 30
0.0
 11
87.3571166292
 21
408.6060255891
 31
0.0
  0
LINE
  5
165
330
EF
100
AcDbEntity
  8
02636038_GEH_USE
  6
Continuous
 62
     7
100
AcDbLine
 10
87.3571166292
 20
408.6060255891
 30
0.0
 11
87.3571166292
 21
407.1721004917
 31
0.0
  0
LINE
  5
166
330
EF
100
AcDbEntity
  8
02636038_GEH_USE
  6
Continuous
 62
     7
100
AcDbLine
 10
87.3571166292
 20
405.069982414
 30
0.0
 11
87.3571166292
 21
405.2342580132
 31
0.0
  0
LINE
  5
167
330
EF
100
AcDbEntity
  8
02636038_GEH_USE
  6
Continuous
 62
     7
100
AcDbLine
 10
90.2850209173
 20
403.2409133163
 30
0.0
 11
90.4395191935
 21
403.1818338273
 31
0.0
  0
LINE
  5
168
330
EF
100
AcDbEntity
  8
02636038_GEH_USE
  6
Continuous
 62
     7
100
AcDbLine
 10
106.2747140649
 20
403.1818338273
 30
0.0
 11
106.4292123411
 21
403.2409133163
 31
0.0
  0
ARC
  5
169
330
EF
100
AcDbEntity
  8
02636038_GEH_USE
  6
Continuous
 62
     7
100
AcDbCircle
 10
104.570372811
 20
409.6025546437
 30
0.0
 40
6.587815752193744
100
AcDbArc
 50
291.8305839183
 51
316.6318252272
  0
ARC
  5
16A
330
EF
100
AcDbEntity
  8
02636038_GEH_USE
  6
Continuous
 62
     7
100
AcDbCircle
 10
92.2286600305
 20
409.7103388762
 30
0.0
 40
6.723806670532574
100
AcDbArc
 50
223.5799133673
 51
248.3671528159
  0
LINE
  5
16B
330
EF
100
AcDbEntity
  8
02636038_GEH_USE
  6
Continuous
 62
     7
100
AcDbLine
 10
86.5571166292
 20
411.862304478
 30
0.0
 11
86.5571166292
 21
408.6903103997
 31
0.0
  0
LINE
  5
16C
330
EF
100
AcDbEntity
  8
02636038_GEH_USE
  6
Continuous
 62
     7
100
AcDbLine
 10
110.1571166292
 20
408.6903103997
 30
0.0
 11
110.1571166292
 21
411.862304478
 31
0.0
  0
ELLIPSE
  5
16D
330
EF
100
AcDbEntity
  8
64647040_EINSATZ
  6
Continuous
 62
     7
100
AcDbEllipse
 10
98.3571166292
 20
404.2922743516
 30
0.0
 11
7.875000000000004
 21
0.0
 31
0.0
210
0.0
220
0.0
230
1.0
 40
0.3746065934
 41
3.15834000336022
 42
6.266437957408085
  0
ELLIPSE
  5
16E
330
EF
100
AcDbEntity
  8
64647040_EINSATZ
  6
Continuous
 62
     7
100
AcDbEllipse
 10
98.3571166292
 20
404.6107014396
 30
0.0
 11
-8.000000000000002
 21
0.0
 31
0.0
210
0.0
220
0.0
230
1.0
 40
0.3746065934
 41
0.2003696311097804
 42
2.941223022480013
  0
ELLIPSE
  5
16F
330
EF
100
AcDbEntity
  8
64647040_EINSATZ
  6
Continuous
 62
     7
100
AcDbEllipse
 10
98.3571166292
 20
404.1934687051
 30
0.0
 11
7.875000000000004
 21
0.0
 31
0.0
210
0.0
220
0.0
230
1.0
 40
0.3746065934
 41
0.0
 42
6.283185307179586
  0
SPLINE
  5
170
330
EF
100
AcDbEntity
  8
64647040_EINSATZ
  6
Continuous
 62
     7
100
AcDbSpline
210
0.0
220
0.0
230
1.0
 70
     8
 71
     3
 72
    11
 73
     7
 74
     0
 42
0.0000001309405227
 43
0.0000000001
 40
0.0
 40
0.0
 40
0.0
 40
0.0
 40
0.1662420688397998
 40
0.1662420688397998
 40
0.1662420688397998
 40
0.2466610680643018
 40
0.2466610680643018
 40
0.2466610680643018
 40
0.2466610680643018
 10
98.8971207465299
 20
404.7302859683756
 30
0.0
 10
98.89929598255641
 20
404.7269922445528
 30
0.0
 10
98.90270314377496
 20
404.7249560236891
 30
0.0
 10
98.90688780368674
 20
404.7242689363873
 30
0.0
 10
98.90891964671319
 20
404.7239353242008
 30
0.0
 10
98.91115364060809
 20
404.7239067506164
 30
0.0
 10
98.91352813440675
 20
404.7241535942679
 30
0.0
  0
SPLINE
  5
171
330
EF
100
AcDbEntity
  8
64647040_EINSATZ
  6
Continuous
 62
     7
100
AcDbSpline
210
0.0
220
0.0
230
1.0
 70
    12
 71
     2
 72
     6
 73
     3
 74
     0
 42
0.0000010477141042
 43
0.0000000001
 40
0.0
 40
0.0
 40
0.0
 40
1.0
 40
1.0
 40
1.0
 10
98.89157164226329
 20
404.7380438982539
 30
0.0
 41
1.0
 10
98.89454577621218
 20
404.7341849664461
 30
0.0
 41
1.0
 10
98.89712074652988
 20
404.7302859683756
 30
0.0
 41
1.0
  0
SPLINE
  5
172
330
EF
100
AcDbEntity
  8
64647040_EINSATZ
  6
Continuous
 62
     7
100
AcDbSpline
210
0.0
220
0.0
230
1.0
 70
     8
 71
     3
 72
    10
 73
     6
 74
     0
 42
0.0000000721503655
 43
0.0000000001
 40
0.0
 40
0.0
 40
0.0
 40
0.0
 40
0.5
 40
0.5
 40
1.0
 40
1.0
 40
1.0
 40
1.0
 10
98.93318157680554
 20
404.8630042256292
 30
0.0
 10
98.91879708819717
 20
404.8396017190418
 30
0.0
 10
98.9058278409423
 20
404.8149523895752
 30
0.0
 10
98.88819502330801
 20
404.7697099116578
 30
0.0
 10
98.88386538582317
 20
404.7480427478681
 30
0.0
 10
98.8915716422633
 20
404.7380438982539
 30
0.0
  0
LINE
  5
173
330
EF
100
AcDbEntity
  8
64647040_EINSATZ
  6
Continuous
 62
     7
100
AcDbLine
 10
99.0010458411
 20
405.0419200252
 30
0.0
 11
98.9331815768
 21
404.8630042256
 31
0.0
  0
SPLINE
  5
174
330
EF
100
AcDbEntity
  8
64647040_EINSATZ
  6
Continuous
 62
     7
100
AcDbSpline
210
0.0
220
0.0
230
1.0
 70
     8
 71
     3
 72
    14
 73
    10
 74
     0
 42
0.000000064139817
 43
0.0000000001
 40
0.0
 40
0.0
 40
0.0
 40
0.0
 40
0.1662420688398022
 40
0.1662420688398022
 40
0.1662420688398022
 40
0.331065087576697
 40
0.331065087576697
 40
0.331065087576697
 40
0.4361428186191413
 40
0.4361428186191413
 40
0.4361428186191413
 40
0.4361428186191413
 10
98.64449094771105
 20
404.8586679069685
 30
0.0
 10
98.65224629945249
 20
404.8569150839644
 30
0.0
 10
98.66075233922685
 20
404.8567274003263
 30
0.0
 10
98.66914058002551
 20
404.8579912139629
 30
0.0
 10
98.67748815009261
 20
404.859248899947
 30
0.0
 10
98.6859350555869
 20
404.8619351286219
 30
0.0
 10
98.69391935339642
 20
404.8656253197634
 30
0.0
 10
98.6989888970742
 20
404.8679683667811
 30
0.0
 10
98.703939645025
 20
404.8707402614675
 30
0.0
 10
98.70870993600157
 20
404.8738541971358
 30
0.0
  0
SPLINE
  5
175
330
EF
100
AcDbEntity
  8
64647040_EINSATZ
  6
Continuous
 62
     7
100
AcDbSpline
210
0.0
220
0.0
230
1.0
 70
    12
 71
     2
 72
     6
 73
     3
 74
     0
 42
0.0000005263775065
 43
0.0000000001
 40
0.0
 40
0.0
 40
0.0
 40
1.0
 40
1.0
 40
1.0
 10
98.62592328295045
 20
404.8626837069747
 30
0.0
 41
1.0
 10
98.63531042648061
 20
404.8607428391356
 30
0.0
 41
1.0
 10
98.64449094771105
 20
404.8586679069685
 30
0.0
 41
1.0
  0
SPLINE
  5
176
330
EF
100
AcDbEntity
  8
64647040_EINSATZ
  6
Continuous
 62
     7
100
AcDbSpline
210
0.0
220
0.0
230
1.0
 70
     8
 71
     3
 72
    10
 73
     6
 74
     0
 42
0.0000000656403794
 43
0.0000000001
 40
0.0
 40
0.0
 40
0.0
 40
0.0
 40
0.5
 40
0.5
 40
1.0
 40
1.0
 40
1.0
 40
1.0
 10
98.57472521708307
 20
404.9861562715155
 30
0.0
 10
98.56916000878073
 20
404.9596582276832
 30
0.0
 10
98.56975365440861
 20
404.933088611611
 30
0.0
 10
98.58513646298348
 20
404.8874970062418
 30
0.0
 10
98.60160032490217
 20
404.8677126752511
 30
0.0
 10
98.62592328295044
 20
404.8626837069747
 30
0.0
  0
LINE
  5
177
330
EF
100
AcDbEntity
  8
64647040_EINSATZ
  6
Continuous
 62
     7
100
AcDbLine
 10
98.5951137097
 20
405.1787659982
 30
0.0
 11
98.5747252171
 21
404.9861562715
 31
0.0
  0
LINE
  5
178
330
EF
100
AcDbEntity
  8
64647040_EINSATZ
  6
Continuous
 62
     7
100
AcDbLine
 10
98.3014560323
 20
404.9996333321
 30
0.0
 11
98.3013253753
 21
405.19325502
 31
0.0
  0
SPLINE
  5
179
330
EF
100
AcDbEntity
  8
64647040_EINSATZ
  6
Continuous
 62
     7
100
AcDbSpline
210
0.0
220
0.0
230
1.0
 70
     8
 71
     3
 72
    20
 73
    16
 74
     0
 42
0.0000000641306053
 43
0.0000000001
 40
0.0
 40
0.0
 40
0.0
 40
0.0
 40
0.166242068839801
 40
0.166242068839801
 40
0.166242068839801
 40
0.3310650875766957
 40
0.3310650875766957
 40
0.3310650875766957
 40
0.5632461486775338
 40
0.5632461486775338
 40
0.5632461486775338
 40
0.8533054901458648
 40
0.8533054901458648
 40
0.8533054901458648
 40
1.0
 40
1.0
 40
1.0
 40
1.0
 10
98.223521170587
 20
404.8825293315511
 30
0.0
 10
98.2323136581742
 20
404.8833441893089
 30
0.0
 10
98.24093585376664
 20
404.8858142448211
 30
0.0
 10
98.24861395775679
 20
404.889571027093
 30
0.0
 10
98.25625483414298
 20
404.8933095944511
 30
0.0
 10
98.26318702327276
 20
404.8983821531247
 30
0.0
 10
98.26914660115222
 20
404.9042359754595
 30
0.0
 10
98.27750770747987
 20
404.9124487099777
 30
0.0
 10
98.28422817666517
 20
404.9224106738866
 30
0.0
 10
98.28926901274274
 20
404.9330761106805
 30
0.0
 10
98.29555211368326
 20
404.9463699402992
 30
0.0
 10
98.29944813462795
 20
404.9611831312884
 30
0.0
 10
98.30096650714809
 20
404.9762489642824
 30
0.0
 10
98.30174224755724
 20
404.9839461369432
 30
0.0
 10
98.30190891595615
 20
404.9917929233949
 30
0.0
 10
98.30145603228043
 20
404.9996333321052
 30
0.0
  0
SPLINE
  5
17A
330
EF
100
AcDbEntity
  8
64647040_EINSATZ
  6
Continuous
 62
     7
100
AcDbSpline
210
0.0
220
0.0
230
1.0
 70
    12
 71
     2
 72
     6
 73
     3
 74
     0
 42
0.0000004804408833
 43
0.0000000001
 40
0.0
 40
0.0
 40
0.0
 40
1.0
 40
1.0
 40
1.0
 10
98.20281163152757
 20
404.8804506005053
 30
0.0
 41
1.0
 10
98.21311292327098
 20
404.8815647306923
 30
0.0
 41
1.0
 10
98.22352117058702
 20
404.8825293315511
 30
0.0
 41
1.0
  0
SPLINE
  5
17B
330
EF
100
AcDbEntity
  8
64647040_EINSATZ
  6
Continuous
 62
     7
100
AcDbSpline
210
0.0
220
0.0
230
1.0
 70
     8
 71
     3
 72
    10
 73
     6
 74
     0
 42
0.0000000598218303
 43
0.0000000001
 40
0.3356875718561703
 40
0.3356875718561703
 40
0.3356875718561703
 40
0.3356875718561703
 40
0.5
 40
0.5
 40
1.0
 40
1.0
 40
1.0
 40
1.0
 10
98.11135440659471
 20
404.9290813515354
 30
0.0
 10
98.11650513921442
 20
404.9218701712742
 30
0.0
 10
98.12234144107462
 20
404.9151502158435
 30
0.0
 10
98.14850697651949
 20
404.890508828366
 30
0.0
 10
98.17612003081878
 20
404.8775637860322
 30
0.0
 10
98.20281163152757
 20
404.8804506005052
 30
0.0
  0
LINE
  5
17C
330
EF
100
AcDbEntity
  8
64647040_EINSATZ
  6
Continuous
 62
     7
100
AcDbLine
 10
97.8701269271
 20
404.9154318418
 30
0.0
 11
97.8146769394
 21
405.1004292405
 31
0.0
  0
SPLINE
  5
17D
330
EF
100
AcDbEntity
  8
64647040_EINSATZ
  6
Continuous
 62
     7
100
AcDbSpline
210
0.0
220
0.0
230
1.0
 70
     8
 71
     3
 72
    20
 73
    16
 74
     0
 42
0.0000000728576669
 43
0.0000000001
 40
0.0
 40
0.0
 40
0.0
 40
0.0
 40
0.1662420688398013
 40
0.1662420688398013
 40
0.1662420688398013
 40
0.3310650875766956
 40
0.3310650875766956
 40
0.3310650875766956
 40
0.5632461486775328
 40
0.5632461486775328
 40
0.5632461486775328
 40
0.8533054901458635
 40
0.8533054901458635
 40
0.8533054901458635
 40
1.0
 40
1.0
 40
1.0
 40
1.0
 10
97.88080980124785
 20
404.7878925432202
 30
0.0
 10
97.88548890469924
 20
404.7907977491168
 30
0.0
 10
97.88917649086912
 20
404.7951778781551
 30
0.0
 10
97.89164672886663
 20
404.8005093495432
 30
0.0
 10
97.89410498981331
 20
404.8058149710724
 30
0.0
 10
97.89546168020328
 20
404.8121736914048
 30
0.0
 10
97.8959054982569
 20
404.8190211103187
 30
0.0
 10
97.89652816147422
 20
404.8286278305876
 30
0.0
 10
97.8954106201202
 20
404.8394591847364
 30
0.0
 10
97.89316293840722
 20
404.850558027281
 30
0.0
 10
97.89036133746889
 20
404.8643920712686
 30
0.0
 10
97.88572819318362
 20
404.8790908849434
 30
0.0
 10
97.87994085808164
 20
404.8934943152589
 30
0.0
 10
97.87698409375642
 20
404.9008530646948
 30
0.0
 10
97.87369200168895
 20
404.9082148881209
 30
0.0
 10
97.87012692710384
 20
404.9154318417732
 30
0.0
  0
SPLINE
  5
17E
330
EF
100
AcDbEntity
  8
64647040_EINSATZ
  6
Continuous
 62
     7
100
AcDbSpline
210
0.0
220
0.0
230
1.0
 70
    12
 71
     2
 72
     6
 73
     3
 74
     0
 42
0.0000007823805836
 43
0.0000000001
 40
0.0
 40
0.0
 40
0.0
 40
1.0
 40
1.0
 40
1.0
 10
97.87008975500008
 20
404.7809369735767
 30
0.0
 41
1.0
 10
97.87527083796341
 20
404.7844534594363
 30
0.0
 41
1.0
 10
97.88080980124785
 20
404.7878925432203
 30
0.0
 41
1.0
  0
SPLINE
  5
17F
330
EF
100
AcDbEntity
  8
64647040_EINSATZ
  6
Continuous
 62
     7
100
AcDbSpline
210
0.0
220
0.0
230
1.0
 70
     8
 71
     3
 72
     8
 73
     4
 74
     0
 42
0.0000000907028849
 43
0.0000000001
 40
0.7275562210217619
 40
0.7275562210217619
 40
0.7275562210217619
 40
0.7275562210217619
 40
1.0
 40
1.0
 40
1.0
 40
1.0
 10
97.84185901153668
 20
404.7776083809433
 30
0.0
 10
97.85273960037192
 20
404.7752434104074
 30
0.0
 10
97.86277482170378
 20
404.7759722085481
 30
0.0
 10
97.8700897550001
 20
404.7809369735766
 30
0.0
  0
ELLIPSE
  5
180
330
EF
100
AcDbEntity
  8
64647040_EINSATZ
  6
Continuous
 62
     7
100
AcDbEllipse
 10
98.3571166292
 20
404.2576826325
 30
0.0
 11
8.422375322854236
 21
0.0
 31
0.0
210
0.0
220
0.0
230
1.0
 40
0.3746065934
 41
5.884452435778533
 42
6.283185307179586
  0
ELLIPSE
  5
181
330
EF
100
AcDbEntity
  8
64647040_EINSATZ
  6
Continuous
 62
     7
100
AcDbEllipse
 10
98.3571166292
 20
404.2576826325
 30
0.0
 11
8.422375322854236
 21
0.0
 31
0.0
210
0.0
220
0.0
230
1.0
 40
0.3746065934
 41
3.125286460862254
 42
3.567351874868308
  0
ELLIPSE
  5
182
330
EF
100
AcDbEntity
  8
64647040_EINSATZ
  6
Continuous
 62
     7
100
AcDbEllipse
 10
98.3571166292
 20
404.1934687051
 30
0.0
 11
8.327218268566533
 21
0.0
 31
0.0
210
0.0
220
0.0
230
1.0
 40
0.3746065934
 41
0.6476522160148153
 42
2.485339738968439
  0
ELLIPSE
  5
183
330
EF
100
AcDbEntity
  8
64647040_EINSATZ
  6
Continuous
 62
     7
100
AcDbEllipse
 10
98.3571166292
 20
404.1934687051
 30
0.0
 11
8.327218268566533
 21
0.0
 31
0.0
210
0.0
220
0.0
230
1.0
 40
0.3746065934
 41
4.240125372674753
 42
5.234812214744029
  0
ELLIPSE
  5
184
330
EF
100
AcDbEntity
  8
64647040_EINSATZ
  6
Continuous
 62
     7
100
AcDbEllipse
 10
98.3571166292
 20
404.2693543014
 30
0.0
 11
-6.390109892686962
 21
0.0
 31
0.0
210
0.0
220
0.0
230
1.0
 40
0.3746065934
 41
6.186178411912332
 42
6.283185307179586
  0
ELLIPSE
  5
185
330
EF
100
AcDbEntity
  8
64647040_EINSATZ
  6
Continuous
 62
     7
100
AcDbEllipse
 10
98.3571166292
 20
404.2693543014
 30
0.0
 11
-6.390109892686962
 21
0.0
 31
0.0
210
0.0
220
0.0
230
1.0
 40
0.3746065934
 41
2.843883943630327
 42
3.141592653589793
  0
ELLIPSE
  5
186
330
EF
100
AcDbEntity
  8
64647040_EINSATZ
  6
Continuous
 62
     7
100
AcDbEllipse
 10
98.3571166292
 20
404.2693543014
 30
0.0
 11
-6.390109892686962
 21
0.0
 31
0.0
210
0.0
220
0.0
230
1.0
 40
0.3746065934
 41
0.0
 42
0.3080260457036998
  0
ELLIPSE
  5
187
330
EF
100
AcDbEntity
  8
64647040_EINSATZ
  6
Continuous
 62
     7
100
AcDbEllipse
 10
98.3571166292
 20
404.1934687051
 30
0.0
 11
-6.29177167464824
 21
0.0
 31
0.0
210
0.0
220
0.0
230
1.0
 40
0.3746065934
 41
1.237537979127369
 42
2.068535364564088
  0
ELLIPSE
  5
188
330
EF
100
AcDbEntity
  8
64647040_EINSATZ
  6
Continuous
 62
     7
100
AcDbEllipse
 10
98.3571166292
 20
404.1934687051
 30
0.0
 11
-6.29177167464824
 21
0.0
 31
0.0
210
0.0
220
0.0
230
1.0
 40
0.3746065934
 41
3.847658421863581
 42
5.660437411635347
  0
ELLIPSE
  5
189
330
EF
100
AcDbEntity
  8
64647040_EINSATZ
  6
Continuous
 62
     7
100
AcDbEllipse
 10
98.3571166292
 20
404.1934687051
 30
0.0
 11
6.275000000000001
 21
0.0
 31
0.0
210
0.0
220
0.0
230
1.0
 40
0.3746065934
 41
4.161664196624068
 42
5.307767555918748
  0
ELLIPSE
  5
18A
330
EF
100
AcDbEntity
  8
64647040_EINSATZ
  6
Continuous
 62
     7
100
AcDbEllipse
 10
98.3571166292
 20
404.1934687051
 30
0.0
 11
6.275000000000001
 21
0.0
 31
0.0
210
0.0
220
0.0
230
1.0
 40
0.3746065934
 41
0.6445374743713832
 42
2.465209574214158
  0
ELLIPSE
  5
18B
330
EF
100
AcDbEntity
  8
64647040_EINSATZ
  6
Continuous
 62
     7
100
AcDbEllipse
 10
98.3571166292
 20
404.2861870905
 30
0.0
 11
6.175
 21
0.0
 31
0.0
210
0.0
220
0.0
230
1.0
 40
0.3746065934
 41
0.0
 42
0.1260265359509153
  0
ELLIPSE
  5
18C
330
EF
100
AcDbEntity
  8
64647040_EINSATZ
  6
Continuous
 62
     7
100
AcDbEllipse
 10
98.3571166292
 20
404.2861870905
 30
0.0
 11
6.175
 21
0.0
 31
0.0
210
0.0
220
0.0
230
1.0
 40
0.3746065934
 41
2.955648274463693
 42
3.310825748772888
  0
ELLIPSE
  5
18D
330
EF
100
AcDbEntity
  8
64647040_EINSATZ
  6
Continuous
 62
     7
100
AcDbEllipse
 10
98.3571166292
 20
404.2720885939
 30
0.0
 11
4.650545274088401
 21
0.0
 31
0.0
210
0.0
220
0.0
230
1.0
 40
0.3746065934
 41
6.155735230448226
 42
6.283185307179586
  0
ELLIPSE
  5
18E
330
EF
100
AcDbEntity
  8
64647040_EINSATZ
  6
Continuous
 62
     7
100
AcDbEllipse
 10
98.3571166292
 20
404.2720885939
 30
0.0
 11
4.650545274088401
 21
0.0
 31
0.0
210
0.0
220
0.0
230
1.0
 40
0.3746065934
 41
3.034682638256883
 42
3.203790629791039
  0
ELLIPSE
  5
18F
330
EF
100
AcDbEntity
  8
64647040_EINSATZ
  6
Continuous
 62
     7
100
AcDbEllipse
 10
98.3571166292
 20
404.1934687051
 30
0.0
 11
-4.551708104323339
 21
0.0
 31
0.0
210
0.0
220
0.0
230
1.0
 40
0.3746065934
 41
1.06366012137679
 42
2.02816806984162
  0
ELLIPSE
  5
190
330
EF
100
AcDbEntity
  8
64647040_EINSATZ
  6
Continuous
 62
     7
100
AcDbEllipse
 10
98.3571166292
 20
404.1934687051
 30
0.0
 11
-4.551708104323339
 21
0.0
 31
0.0
210
0.0
220
0.0
230
1.0
 40
0.3746065934
 41
3.793611697315861
 42
5.567279673423989
  0
ELLIPSE
  5
191
330
EF
100
AcDbEntity
  8
64647040_EINSATZ
  6
Continuous
 62
     7
100
AcDbEllipse
 10
98.3571166292
 20
404.1934687051
 30
0.0
 11
-4.537499999999998
 21
0.0
 31
0.0
210
0.0
220
0.0
230
1.0
 40
0.3746065934
 41
3.785541293656259
 42
5.545435896196474
  0
ELLIPSE
  5
192
330
EF
100
AcDbEntity
  8
64647040_EINSATZ
  6
Continuous
 62
     7
100
AcDbEllipse
 10
98.3571166292
 20
404.1934687051
 30
0.0
 11
-4.537499999999998
 21
0.0
 31
0.0
210
0.0
220
0.0
230
1.0
 40
0.3746065934
 41
1.031494016578324
 42
2.184677120403514
  0
ELLIPSE
  5
193
330
EF
100
AcDbEntity
  8
64647040_EINSATZ
  6
Continuous
 62
     7
100
AcDbEllipse
 10
98.3571166292
 20
404.2861870905
 30
0.0
 11
4.437499999999999
 21
0.0
 31
0.0
210
0.0
220
0.0
230
1.0
 40
0.3746065934
 41
3.113415383364257
 42
3.141592653589793
  0
ELLIPSE
  5
194
330
EF
100
AcDbEntity
  8
64647040_EINSATZ
  6
Continuous
 62
     7
100
AcDbEllipse
 10
98.3571166292
 20
404.2693543014
 30
0.0
 11
-2.877609892686964
 21
0.0
 31
0.0
210
0.0
220
0.0
230
1.0
 40
0.3746065934
 41
3.066933858619616
 42
3.141592653589793
  0
ELLIPSE
  5
195
330
EF
100
AcDbEntity
  8
64647040_EINSATZ
  6
Continuous
 62
     7
100
AcDbEllipse
 10
98.3571166292
 20
404.2693543014
 30
0.0
 11
-2.877609892686964
 21
0.0
 31
0.0
210
0.0
220
0.0
230
1.0
 40
0.3746065934
 41
0.0746587949701766
 42
0.1466002259783847
  0
ELLIPSE
  5
196
330
EF
100
AcDbEntity
  8
64647040_EINSATZ
  6
Continuous
 62
     7
100
AcDbEllipse
 10
98.3571166292
 20
404.1934687051
 30
0.0
 11
-2.779271674648244
 21
0.0
 31
0.0
210
0.0
220
0.0
230
1.0
 40
0.3746065934
 41
1.020688301223432
 42
2.244888582050852
  0
ELLIPSE
  5
197
330
EF
100
AcDbEntity
  8
64647040_EINSATZ
  6
Continuous
 62
     7
100
AcDbEllipse
 10
98.3571166292
 20
404.1934687051
 30
0.0
 11
-2.779271674648244
 21
0.0
 31
0.0
210
0.0
220
0.0
230
1.0
 40
0.3746065934
 41
3.786533589149452
 42
5.541450407596632
  0
ELLIPSE
  5
198
330
EF
100
AcDbEntity
  8
64647040_EINSATZ
  6
Continuous
 62
     7
100
AcDbEllipse
 10
98.3571166292
 20
404.1934687051
 30
0.0
 11
2.7625
 21
0.0
 31
0.0
210
0.0
220
0.0
230
1.0
 40
0.3746065934
 41
4.315606209292135
 42
5.303606424425922
  0
ELLIPSE
  5
199
330
EF
100
AcDbEntity
  8
64647040_EINSATZ
  6
Continuous
 62
     7
100
AcDbEllipse
 10
98.3571166292
 20
404.1934687051
 30
0.0
 11
2.7625
 21
0.0
 31
0.0
210
0.0
220
0.0
230
1.0
 40
0.3746065934
 41
0.7138880455872214
 42
2.506278854342607
  0
ELLIPSE
  5
19A
330
EF
100
AcDbEntity
  8
64647040_EINSATZ
  6
Continuous
 62
     7
100
AcDbEllipse
 10
98.3571166292
 20
404.2861870905
 30
0.0
 11
2.6625
 21
0.0
 31
0.0
210
0.0
220
0.0
230
1.0
 40
0.3746065934
 41
3.141592653589793
 42
3.151624158969371
  0
ELLIPSE
  5
19B
330
EF
100
AcDbEntity
  8
64647040_EINSATZ
  6
Continuous
 62
     7
100
AcDbEllipse
 10
98.3571166292
 20
405.7001424688
 30
0.0
 11
8.925000000000001
 21
0.0
 31
0.0
210
0.0
220
0.0
230
1.0
 40
0.3746065934
 41
0.0
 42
0.1227956961802365
  0
ELLIPSE
  5
19C
330
EF
100
AcDbEntity
  8
64647040_EINSATZ
  6
Continuous
 62
     7
100
AcDbEllipse
 10
98.3571166292
 20
405.7001424688
 30
0.0
 11
8.925000000000001
 21
0.0
 31
0.0
210
0.0
220
0.0
230
1.0
 40
0.3746065934
 41
3.018675674067391
 42
3.272497751387505
  0
ELLIPSE
  5
19D
330
EF
100
AcDbEntity
  8
64647040_EINSATZ
  6
Continuous
 62
     7
100
AcDbEllipse
 10
98.3571166292
 20
405.7001424688
 30
0.0
 11
8.925000000000001
 21
0.0
 31
0.0
210
0.0
220
0.0
230
1.0
 40
0.3746065934
 41
6.152280209381887
 42
6.283185307179586
  0
ELLIPSE
  5
19E
330
EF
100
AcDbEntity
  8
64647040_EINSATZ
  6
Continuous
 62
     7
100
AcDbEllipse
 10
98.3571166292
 20
405.7001424688
 30
0.0
 11
-4.43749999999992
 21
-4.163336342344338E-14
 31
0.0
210
0.0
220
0.0
230
1.0
 40
0.3746065934
 41
-3.61446545259071
 42
-3.593488558254864
  0
SPLINE
  5
19F
330
EF
100
AcDbEntity
  8
64647040_EINSATZ
  6
Continuous
 62
     7
100
AcDbSpline
210
0.0
220
0.0
230
1.0
 70
    12
 71
     2
 72
     6
 73
     3
 74
     0
 42
0.0000000102330537
 43
0.0000000001
 40
0.0
 40
0.0
 40
0.0
 40
1.0
 40
1.0
 40
1.0
 10
102.307661175256
 20
404.943047433336
 30
0.0
 41
1.0
 10
102.2814575495612
 20
404.4550368059016
 30
0.0
 41
1.0
 10
102.2539620101075
 20
403.9672994201565
 30
0.0
 41
1.0
  0
SPLINE
  5
1A0
330
EF
100
AcDbEntity
  8
64647040_EINSATZ
  6
Continuous
 62
     7
100
AcDbSpline
210
0.0
220
0.0
230
1.0
 70
     8
 71
     3
 72
    20
 73
    16
 74
     0
 42
0.0000000778858822
 43
0.0000000001
 40
0.0
 40
0.0
 40
0.0
 40
0.0
 40
0.2315617253407084
 40
0.2315617253407084
 40
0.2315617253407084
 40
0.4631201962701202
 40
0.4631201962701202
 40
0.4631201962701202
 40
0.6947246953612264
 40
0.6947246953612264
 40
0.6947246953612264
 40
0.9263410357669383
 40
0.9263410357669383
 40
0.9263410357669383
 40
1.0
 40
1.0
 40
1.0
 40
1.0
 10
102.2539620096815
 20
403.9672994199698
 30
0.0
 10
102.2533573634444
 20
403.9565735982155
 30
0.0
 10
102.25182618113
 20
403.9452704892644
 30
0.0
 10
102.2494857853524
 20
403.9343282736418
 30
0.0
 10
102.2471454090003
 20
403.9233861488406
 30
0.0
 10
102.2439306435805
 20
403.9125032736873
 30
0.0
 10
102.2400906396761
 20
403.9025839147203
 30
0.0
 10
102.2362498912834
 20
403.892662632618
 30
0.0
 10
102.2316768542685
 20
403.8834317707686
 30
0.0
 10
102.2267331400426
 20
403.8756592233414
 30
0.0
 10
102.2217892027387
 20
403.8678863251891
 30
0.0
 10
102.2163374667955
 20
403.8613576211897
 30
0.0
 10
102.2108200722773
 20
403.8566162088364
 30
0.0
 10
102.2090427517323
 20
403.8550888557425
 30
0.0
 10
102.2072485658702
 20
403.8537335081001
 30
0.0
 10
102.2054531677306
 20
403.8525620597395
 30
0.0
  0
LINE
  5
1A1
330
EF
100
AcDbEntity
  8
64647040_EINSATZ
  6
Continuous
 62
     7
100
AcDbLine
 10
102.2054531677
 20
403.8525620597
 30
0.0
 11
102.1947331215
 21
403.8456064901
 31
0.0
  0
SPLINE
  5
1A2
330
EF
100
AcDbEntity
  8
64647040_EINSATZ
  6
Continuous
 62
     7
100
AcDbSpline
210
0.0
220
0.0
230
1.0
 70
     8
 71
     3
 72
    11
 73
     7
 74
     0
 42
0.0000001313671053
 43
0.0000000001
 40
0.0
 40
0.0
 40
0.0
 40
0.0
 40
0.2315601448090092
 40
0.2315601448090092
 40
0.2315601448090092
 40
0.2991849979699772
 40
0.2991849979699772
 40
0.2991849979699772
 40
0.2991849979699772
 10
102.1947331214828
 20
403.8456064900958
 30
0.0
 10
102.1891141040787
 20
403.8419809154847
 30
0.0
 10
102.1833789775204
 20
403.8401050621441
 30
0.0
 10
102.1780086358898
 20
403.840132784322
 30
0.0
 10
102.1764402725045
 20
403.8401408803524
 30
0.0
 10
102.1748904343798
 20
403.8403113782039
 30
0.0
 10
102.1733701223803
 20
403.8406402081733
 30
0.0
  0
SPLINE
  5
1A3
330
EF
100
AcDbEntity
  8
64647040_EINSATZ
  6
Continuous
 62
     7
100
AcDbSpline
210
0.0
220
0.0
230
1.0
 70
    12
 71
     2
 72
     6
 73
     3
 74
     0
 42
0.0000000104573887
 43
0.0000000001
 40
0.8961709860271786
 40
0.8961709860271786
 40
0.8961709860271786
 40
1.0
 40
1.0
 40
1.0
 10
99.62304705768223
 20
403.2666080443851
 30
0.0
 41
1.0
 10
99.61732679754833
 20
403.2172922186697
 30
0.0
 41
1.0
 10
99.61160236876015
 20
403.167982146544
 30
0.0
 41
1.0
  0
ARC
  5
1A4
330
EF
100
AcDbEntity
  8
64647040_EINSATZ
  6
Continuous
 62
     7
100
AcDbCircle
 10
99.5046303355
 20
403.1830383904
 30
0.0
 40
0.1080264151892949
100
AcDbArc
 50
276.0295403736
 51
351.9882848328
  0
LINE
  5
1A5
330
EF
100
AcDbEntity
  8
64647040_EINSATZ
  6
Continuous
 62
     7
100
AcDbLine
 10
99.51597756
 20
403.0756095913
 30
0.0
 11
99.4952680209
 21
403.0735308603
 31
0.0
  0
ARC
  5
1A6
330
EF
100
AcDbEntity
  8
64647040_EINSATZ
  6
Continuous
 62
     7
100
AcDbCircle
 10
99.483527495
 20
403.1580737831
 30
0.0
 40
0.0853542367994091
100
AcDbArc
 50
215.3813519241
 51
277.906134343
  0
ARC
  5
1A7
330
EF
100
AcDbEntity
  8
64647040_EINSATZ
  6
Continuous
 62
     7
100
AcDbCircle
 10
96.1643493153
 20
403.3067631658
 30
0.0
 40
0.070150110590204
100
AcDbArc
 50
256.2342857781
 51
302.8118529549
  0
LINE
  5
1A8
330
EF
100
AcDbEntity
  8
64647040_EINSATZ
  6
Continuous
 62
     7
100
AcDbLine
 10
96.1290892712
 20
403.2426437877
 30
0.0
 11
96.1476569359
 21
403.2386279877
 31
0.0
  0
ARC
  5
1A9
330
EF
100
AcDbEntity
  8
64647040_EINSATZ
  6
Continuous
 62
     7
100
AcDbCircle
 10
96.159874614
 20
403.3552133926
 30
0.0
 40
0.1167032702473809
100
AcDbArc
 50
185.5419919945
 51
254.7048379211
  0
SPLINE
  5
1AA
330
EF
100
AcDbEntity
  8
64647040_EINSATZ
  6
Continuous
 62
     7
100
AcDbSpline
210
0.0
220
0.0
230
1.0
 70
    12
 71
     2
 72
     6
 73
     3
 74
     0
 42
0.0000000103603476
 43
0.0000000001
 40
0.7205408485004691
 40
0.7205408485004691
 40
0.7205408485004691
 40
1.0
 40
1.0
 40
1.0
 10
96.01636067064838
 20
403.6122911253581
 30
0.0
 41
1.0
 10
96.030009619126
 20
403.4780982765756
 30
0.0
 41
1.0
 10
96.04371685182592
 20
403.3439427449732
 30
0.0
 41
1.0
  0
SPLINE
  5
1AB
330
EF
100
AcDbEntity
  8
64647040_EINSATZ
  6
Continuous
 62
     7
100
AcDbSpline
210
0.0
220
0.0
230
1.0
 70
     8
 71
     3
 72
    11
 73
     7
 74
     0
 42
0.0000002072590423
 43
0.0000000001
 40
0.7282014890303099
 40
0.7282014890303099
 40
0.7282014890303099
 40
0.7282014890303099
 40
0.9263410358271561
 40
0.9263410358271561
 40
0.9263410358271561
 40
1.0
 40
1.0
 40
1.0
 40
1.0
 10
94.08386817387168
 20
404.2393715609987
 30
0.0
 10
94.08147890645728
 20
404.2391316844831
 30
0.0
 10
94.07894996001413
 20
404.2402798899188
 30
0.0
 10
94.07644144532706
 20
404.2427610477186
 30
0.0
 10
94.07549684867942
 20
404.2436953429619
 30
0.0
 10
94.0745495204171
 20
404.2448193667363
 30
0.0
 10
94.07360783464408
 20
404.246123283196
 30
0.0
  0
SPLINE
  5
1AC
330
EF
100
AcDbEntity
  8
64647040_EINSATZ
  6
Continuous
 62
     7
100
AcDbSpline
210
0.0
220
0.0
230
1.0
 70
    12
 71
     2
 72
     6
 73
     3
 74
     0
 42
0.0000010484004189
 43
0.0000000001
 40
0.0
 40
0.0
 40
0.0
 40
1.0
 40
1.0
 40
1.0
 10
94.07360783464406
 20
404.246123283196
 30
0.0
 41
1.0
 10
94.07080826754012
 20
404.2499997372441
 30
0.0
 41
1.0
 10
94.06805873037744
 20
404.2538812130743
 30
0.0
 41
1.0
  0
ARC
  5
1AD
330
EF
100
AcDbEntity
  8
64647040_EINSATZ
  6
Continuous
 62
     7
100
AcDbCircle
 10
94.3067182253
 20
404.3647963049
 30
0.0
 40
0.2631739198469191
100
AcDbArc
 50
178.3847068454
 51
204.9262723606
  0
SPLINE
  5
1AE
330
EF
100
AcDbEntity
  8
64647040_EINSATZ
  6
Continuous
 62
     7
100
AcDbSpline
210
0.0
220
0.0
230
1.0
 70
    12
 71
     2
 72
     6
 73
     3
 74
     0
 42
0.0000000102049537
 43
0.0000000001
 40
0.0
 40
0.0
 40
0.0
 40
0.2677576428739766
 40
0.2677576428739766
 40
0.2677576428739766
 10
94.04364888370834
 20
404.3722147696286
 30
0.0
 41
1.0
 10
94.0400355321835
 20
404.503351470543
 30
0.0
 41
1.0
 10
94.0365254724257
 20
404.6344980992018
 30
0.0
 41
1.0
  0
ELLIPSE
  5
1AF
330
EF
100
AcDbEntity
  8
64647040_EINSATZ
  6
Continuous
 62
     7
100
AcDbEllipse
 10
-79.0948150514
 20
442.2491674251
 30
0.0
 11
83.29424773800066
 21
-190.1211824126733
 31
0.0
210
0.0
220
0.0
230
1.0
 40
0.8401263723
 41
1.029683067159299
 42
1.031637187642427
  0
SPLINE
  5
1B0
330
EF
100
AcDbEntity
  8
64647040_EINSATZ
  6
Continuous
 62
     7
100
AcDbSpline
210
0.0
220
0.0
230
1.0
 70
     8
 71
     3
 72
    20
 73
    16
 74
     0
 42
0.0000000779808214
 43
0.0000000001
 40
0.0
 40
0.0
 40
0.0
 40
0.0
 40
0.2315031754664697
 40
0.2315031754664697
 40
0.2315031754664697
 40
0.4629973077209971
 40
0.4629973077209971
 40
0.4629973077209971
 40
0.6946193130915668
 40
0.6946193130915668
 40
0.6946193130915668
 40
0.9262742376843552
 40
0.9262742376843552
 40
0.9262742376843552
 40
1.0
 40
1.0
 40
1.0
 40
1.0
 10
100.7159779559634
 20
404.2999334080165
 30
0.0
 10
100.7153915404362
 20
404.2892055525121
 30
0.0
 10
100.7139069399152
 20
404.2778947795875
 30
0.0
 10
100.7116314195363
 20
404.2669414505442
 30
0.0
 10
100.7093559516426
 20
404.2559883741409
 30
0.0
 10
100.7062258152925
 20
404.2450909068419
 30
0.0
 10
100.702471690011
 20
404.2351558654802
 30
0.0
 10
100.6987155421018
 20
404.2252154713699
 30
0.0
 10
100.6942296643442
 20
404.215964641061
 30
0.0
 10
100.6893568793748
 20
404.2081750469493
 30
0.0
 10
100.6844834831629
 20
404.2003844757104
 30
0.0
 10
100.6790873930375
 20
404.1938408448917
 30
0.0
 10
100.6736000518181
 20
404.1890905823466
 30
0.0
 10
100.6718310861454
 20
404.1875592302688
 30
0.0
 10
100.6700427353279
 20
404.1862007213472
 30
0.0
 10
100.6682506000393
 20
404.1850270282939
 30
0.0
  0
SPLINE
  5
1B1
330
EF
100
AcDbEntity
  8
64647040_EINSATZ
  6
Continuous
 62
     7
100
AcDbSpline
210
0.0
220
0.0
230
1.0
 70
    12
 71
     2
 72
     6
 73
     3
 74
     0
 42
0.0000007825351782
 43
0.0000000001
 40
0.0
 40
0.0
 40
0.0
 40
1.0
 40
1.0
 40
1.0
 10
100.6682506000393
 20
404.1850270282939
 30
0.0
 41
1.0
 10
100.6629279567911
 20
404.1815411589818
 30
0.0
 41
1.0
 10
100.6575305537915
 20
404.1780714586502
 30
0.0
 41
1.0
  0
SPLINE
  5
1B2
330
EF
100
AcDbEntity
  8
64647040_EINSATZ
  6
Continuous
 62
     7
100
AcDbSpline
210
0.0
220
0.0
230
1.0
 70
     8
 71
     3
 72
    11
 73
     7
 74
     0
 42
0.0000001304087947
 43
0.0000000001
 40
0.0
 40
0.0
 40
0.0
 40
0.0
 40
0.231498784958019
 40
0.231498784958019
 40
0.231498784958019
 40
0.2991763776892606
 40
0.2991763776892606
 40
0.2991763776892606
 40
0.2991763776892606
 10
100.6575305537915
 20
404.1780714586502
 30
0.0
 10
100.6518969754301
 20
404.1744499338707
 30
0.0
 10
100.6461214315864
 20
404.1725831936514
 30
0.0
 10
100.6406921586022
 20
404.1726231259342
 30
0.0
 10
100.6391049129971
 20
404.1726348001198
 30
0.0
 10
100.6375345418017
 20
404.1728094945752
 30
0.0
 10
100.6359924833272
 20
404.1731430347942
 30
0.0
  0
ELLIPSE
  5
1B3
330
EF
100
AcDbEntity
  8
64647040_EINSATZ
  6
Continuous
 62
     7
100
AcDbEllipse
 10
45.3246226948
 20
478.0127959477
 30
0.0
 11
-1.806423326538346
 21
-207.5590497628934
 31
0.0
210
0.0
220
0.0
230
1.0
 40
0.280734833
 41
1.207651894114825
 42
1.211090261140647
  0
ARC
  5
1B4
330
EF
100
AcDbEntity
  8
64647040_EINSATZ
  6
Continuous
 62
     7
100
AcDbCircle
 10
99.0448703027
 20
403.8253539847
 30
0.0
 40
0.1081065175450382
100
AcDbArc
 50
276.2137458293
 51
352.1461913256
  0
LINE
  5
1B5
330
EF
100
AcDbEntity
  8
64647040_EINSATZ
  6
Continuous
 62
     7
100
AcDbLine
 10
99.0565715207
 20
403.7178825903
 30
0.0
 11
99.0358619816
 21
403.7158038592
 31
0.0
  0
ARC
  5
1B6
330
EF
100
AcDbEntity
  8
64647040_EINSATZ
  6
Continuous
 62
     7
100
AcDbCircle
 10
99.0243149565
 20
403.800820489
 30
0.0
 40
0.0857972093142023
100
AcDbArc
 50
215.366074798
 51
277.7346283309
  0
ARC
  5
1B7
330
EF
100
AcDbEntity
  8
64647040_EINSATZ
  6
Continuous
 62
     7
100
AcDbCircle
 10
97.0517611832
 20
403.8832092589
 30
0.0
 40
0.070711140135713
100
AcDbArc
 50
256.4227042548
 51
302.8040487959
  0
LINE
  5
1B8
330
EF
100
AcDbEntity
  8
64647040_EINSATZ
  6
Continuous
 62
     7
100
AcDbLine
 10
97.0351612522
 20
403.814474205
 30
0.0
 11
97.0165935874
 21
403.818490005
 31
0.0
  0
ARC
  5
1B9
330
EF
100
AcDbEntity
  8
64647040_EINSATZ
  6
Continuous
 62
     7
100
AcDbCircle
 10
97.0477383855
 20
403.930813144
 30
0.0
 40
0.1165610827438073
100
AcDbArc
 50
185.2825325551
 51
254.5024466234
  0
ELLIPSE
  5
1BA
330
EF
100
AcDbEntity
  8
64647040_EINSATZ
  6
Continuous
 62
     7
100
AcDbEllipse
 10
200.8085153054
 20
470.344538933
 30
0.0
 11
-19.55204981049276
 21
-206.6437939088007
 31
0.0
210
0.0
220
0.0
230
0.9999999999999999
 40
0.5029235065
 41
-1.199432657806468
 42
-1.196376373518017
  0
SPLINE
  5
1BB
330
EF
100
AcDbEntity
  8
64647040_EINSATZ
  6
Continuous
 62
     7
100
AcDbSpline
210
0.0
220
0.0
230
1.0
 70
     8
 71
     3
 72
    11
 73
     7
 74
     0
 42
0.0000002050420542
 43
0.0000000001
 40
0.7282099511796818
 40
0.7282099511796818
 40
0.7282099511796818
 40
0.7282099511796818
 40
0.9262742376864965
 40
0.9262742376864965
 40
0.9262742376864965
 40
1.0
 40
1.0
 40
1.0
 40
1.0
 10
95.79856366289629
 20
404.4114850536773
 30
0.0
 10
95.79611199577889
 20
404.4112388988553
 30
0.0
 10
95.79353363961968
 20
404.4123809823776
 30
0.0
 10
95.79099621069716
 20
404.4148573681667
 30
0.0
 10
95.79003948665544
 20
404.4157910762206
 30
0.0
 10
95.78908274470795
 20
404.4169151751677
 30
0.0
 10
95.78813451467262
 20
404.4182198145786
 30
0.0
  0
SPLINE
  5
1BC
330
EF
100
AcDbEntity
  8
64647040_EINSATZ
  6
Continuous
 62
     7
100
AcDbSpline
210
0.0
220
0.0
230
1.0
 70
    12
 71
     2
 72
     6
 73
     3
 74
     0
 42
0.000001048380935
 43
0.0000000001
 40
0.0
 40
0.0
 40
0.0
 40
1.0
 40
1.0
 40
1.0
 10
95.78813451467262
 20
404.4182198145786
 30
0.0
 41
1.0
 10
95.78531827070532
 20
404.4220945946776
 30
0.0
 41
1.0
 10
95.782585410406
 20
404.4259777444569
 30
0.0
 41
1.0
  0
ARC
  5
1BD
330
EF
100
AcDbEntity
  8
64647040_EINSATZ
  6
Continuous
 62
     7
100
AcDbCircle
 10
96.0230948836
 20
404.5353329574
 30
0.0
 40
0.2642032726714002
100
AcDbArc
 50
191.4723552591
 51
204.4504155208
  0
SPLINE
  5
1BE
330
EF
100
AcDbEntity
  8
64647040_EINSATZ
  6
Continuous
 62
     7
100
AcDbSpline
210
0.0
220
0.0
230
1.0
 70
     8
 71
     3
 72
    11
 73
     7
 74
     0
 42
0.0000001953289537
 43
0.0000000001
 40
0.7298018939319403
 40
0.7298018939319403
 40
0.7298018939319403
 40
0.7298018939319403
 40
0.9322077561190306
 40
0.9322077561190306
 40
0.9322077561190306
 40
1.0
 40
1.0
 40
1.0
 40
1.0
 10
101.2294700014595
 20
404.95661451107
 30
0.0
 10
101.2265837219157
 20
404.9563245948822
 30
0.0
 10
101.2237292476293
 20
404.9575191130115
 30
0.0
 10
101.2210848240577
 20
404.9601384330251
 30
0.0
 10
101.2201873083408
 20
404.96102742861
 30
0.0
 10
101.2193086768373
 20
404.9620810439566
 30
0.0
 10
101.2184556079243
 20
404.9632911951106
 30
0.0
  0
SPLINE
  5
1BF
330
EF
100
AcDbEntity
  8
64647040_EINSATZ
  6
Continuous
 62
     7
100
AcDbSpline
210
0.0
220
0.0
230
1.0
 70
    12
 71
     2
 72
     6
 73
     3
 74
     0
 42
0.0000010483867374
 43
0.0000000001
 40
0.0
 40
0.0
 40
0.0
 40
1.0
 40
1.0
 40
1.0
 10
101.2184556079243
 20
404.9632911951106
 30
0.0
 41
1.0
 10
101.2157185645667
 20
404.9671739250132
 30
0.0
 41
1.0
 10
101.2129065036577
 20
404.971049124989
 30
0.0
 41
1.0
  0
SPLINE
  5
1C0
330
EF
100
AcDbEntity
  8
64647040_EINSATZ
  6
Continuous
 62
     7
100
AcDbSpline
210
0.0
220
0.0
230
1.0
 70
     8
 71
     3
 72
    20
 73
    16
 74
     0
 42
0.0000000817534634
 43
0.0000000001
 40
0.0
 40
0.0
 40
0.0
 40
0.0
 40
0.2280395246138482
 40
0.2280395246138482
 40
0.2280395246138482
 40
0.4560243241927631
 40
0.4560243241927631
 40
0.4560243241927631
 40
0.6848913991840037
 40
0.6848913991840037
 40
0.6848913991840037
 40
0.9162090720228627
 40
0.9162090720228627
 40
0.9162090720228627
 40
1.0
 40
1.0
 40
1.0
 40
1.0
 10
101.2129065036577
 20
404.971049124989
 30
0.0
 10
101.2099976092366
 20
404.975057767744
 30
0.0
 10
101.2073232847338
 20
404.9809096023307
 30
0.0
 10
101.2051141914721
 20
404.9881146609014
 30
0.0
 10
101.202905389149
 20
404.9953187705625
 30
0.0
 10
101.2011018109451
 20
405.0040724783502
 30
0.0
 10
101.1998716140867
 20
405.0136461860283
 30
0.0
 10
101.1986365412111
 20
405.0232578401243
 30
0.0
 10
101.197946699164
 20
405.0339561744443
 30
0.0
 10
101.1978786152724
 20
405.0448644041184
 30
0.0
 10
101.1978098049235
 20
405.0558890249533
 30
0.0
 10
101.1983748038759
 20
405.0674257488911
 30
0.0
 10
101.1995399420989
 20
405.0785433825876
 30
0.0
 10
101.1999670939646
 20
405.0826192234475
 30
0.0
 10
101.20047574624
 20
405.0866672420397
 30
0.0
 10
101.2010605363208
 20
405.0906437876626
 30
0.0
  0
SPLINE
  5
1C1
330
EF
100
AcDbEntity
  8
64647040_EINSATZ
  6
Continuous
 62
     7
100
AcDbSpline
210
0.0
220
0.0
230
1.0
 70
    12
 71
     2
 72
     6
 73
     3
 74
     0
 42
0.0000000099276033
 43
0.0000000001
 40
0.0
 40
0.0
 40
0.0
 40
0.4103225934209971
 40
0.4103225934209971
 40
0.4103225934209971
 10
101.2010605363208
 20
405.0906437876626
 30
0.0
 41
1.0
 10
101.2311206766531
 20
405.2951133133062
 30
0.0
 41
1.0
 10
101.260894875454
 20
405.499604592342
 30
0.0
 41
1.0
  0
SPLINE
  5
1C2
330
EF
100
AcDbEntity
  8
64647040_EINSATZ
  6
Continuous
 62
     7
100
AcDbSpline
210
0.0
220
0.0
230
1.0
 70
     8
 71
     3
 72
    14
 73
    10
 74
     0
 42
0.0000000789889645
 43
0.0000000001
 40
0.5357265208560155
 40
0.5357265208560155
 40
0.5357265208560155
 40
0.5357265208560155
 40
0.702546017013065
 40
0.702546017013065
 40
0.702546017013065
 40
0.9322077561171234
 40
0.9322077561171234
 40
0.9322077561171234
 40
1.0
 40
1.0
 40
1.0
 40
1.0
 10
99.90220610311322
 20
405.6482423584732
 30
0.0
 10
99.89634286648783
 20
405.6444368703245
 30
0.0
 10
99.88997651455891
 20
405.6414768771049
 30
0.0
 10
99.88337255702072
 20
405.6395132421201
 30
0.0
 10
99.87427878423412
 20
405.6368092800965
 30
0.0
 10
99.86448040813991
 20
405.6359190221835
 30
0.0
 10
99.85479177186635
 20
405.6369221185404
 30
0.0
 10
99.85189370679666
 20
405.6372221647421
 30
0.0
 10
99.8489897822036
 20
405.6376888517092
 30
0.0
 10
99.84610229208967
 20
405.6383185910486
 30
0.0
  0
LINE
  5
1C3
330
EF
100
AcDbEntity
  8
64647040_EINSATZ
  6
Continuous
 62
     7
100
AcDbLine
 10
99.8461022921
 20
405.638318591
 30
0.0
 11
99.8275346273
 21
405.6423343911
 31
0.0
  0
ARC
  5
1C4
330
EF
100
AcDbEntity
  8
64647040_EINSATZ
  6
Continuous
 62
     7
100
AcDbCircle
 10
99.8560399425
 20
405.7458746173
 30
0.0
 40
0.1073924179436599
100
AcDbArc
 50
178.9443887859
 51
254.6074143873
  0
SPLINE
  5
1C5
330
EF
100
AcDbEntity
  8
64647040_EINSATZ
  6
Continuous
 62
     7
100
AcDbSpline
210
0.0
220
0.0
230
1.0
 70
    12
 71
     2
 72
     6
 73
     3
 74
     0
 42
0.00000000982223
 43
0.0000000001
 40
0.0
 40
0.0
 40
0.0
 40
0.0624227002218602
 40
0.0624227002218602
 40
0.0624227002218602
 10
99.74866575062235
 20
405.7478530915567
 30
0.0
 41
1.0
 10
99.74840803555789
 20
405.7796288036844
 30
0.0
 41
1.0
 10
99.7481467948705
 20
405.8114034453471
 30
0.0
 41
1.0
  0
SPLINE
  5
1C6
330
EF
100
AcDbEntity
  8
64647040_EINSATZ
  6
Continuous
 62
     7
100
AcDbSpline
210
0.0
220
0.0
230
1.0
 70
    12
 71
     2
 72
     6
 73
     3
 74
     0
 42
0.0000000098374499
 43
0.0000000001
 40
0.9744908612483058
 40
0.9744908612483058
 40
0.9744908612483058
 40
1.0
 40
1.0
 40
1.0
 10
97.69540603476538
 20
405.8750753338173
 30
0.0
 41
1.0
 10
97.69459270736431
 20
405.8621356503207
 30
0.0
 41
1.0
 10
97.6937796965408
 20
405.8491957434108
 30
0.0
 41
1.0
  0
ARC
  5
1C7
330
EF
100
AcDbEntity
  8
64647040_EINSATZ
  6
Continuous
 62
     7
100
AcDbCircle
 10
97.589719544
 20
405.8557104691
 30
0.0
 40
0.1042638816169381
100
AcDbArc
 50
276.4993466247
 51
356.4176511773
  0
LINE
  5
1C8
330
EF
100
AcDbEntity
  8
64647040_EINSATZ
  6
Continuous
 62
     7
100
AcDbLine
 10
97.6015213691
 20
405.7521166762
 30
0.0
 11
97.5808118301
 21
405.7500379451
 31
0.0
  0
ARC
  5
1C9
330
EF
100
AcDbEntity
  8
64647040_EINSATZ
  6
Continuous
 62
     7
100
AcDbCircle
 10
97.5710964372
 20
405.8403582846
 30
0.0
 40
0.0908413594229846
100
AcDbArc
 50
215.9459452554
 51
276.139468606
  0
SPLINE
  5
1CA
330
EF
100
AcDbEntity
  8
64647040_EINSATZ
  6
Continuous
 62
     7
100
AcDbSpline
210
0.0
220
0.0
230
1.0
 70
    12
 71
     2
 72
     6
 73
     3
 74
     0
 42
0.0000000098641471
 43
0.0000000001
 40
0.7565601418685295
 40
0.7565601418685295
 40
0.7565601418685295
 40
1.0
 40
1.0
 40
1.0
 10
95.81240724611148
 20
405.6007816336041
 30
0.0
 41
1.0
 10
95.82455936400541
 20
405.4779905620693
 30
0.0
 41
1.0
 10
95.83680227814936
 20
405.3551977058705
 30
0.0
 41
1.0
  0
SPLINE
  5
1CB
330
EF
100
AcDbEntity
  8
64647040_EINSATZ
  6
Continuous
 62
     7
100
AcDbSpline
210
0.0
220
0.0
230
1.0
 70
     8
 71
     3
 72
    20
 73
    16
 74
     0
 42
0.000000077933225
 43
0.0000000001
 40
0.0
 40
0.0
 40
0.0
 40
0.0
 40
0.2348909762855377
 40
0.2348909762855377
 40
0.2348909762855377
 40
0.4699467598198088
 40
0.4699467598198088
 40
0.4699467598198088
 40
0.7025460169960478
 40
0.7025460169960478
 40
0.7025460169960478
 40
0.9322077561132641
 40
0.9322077561132641
 40
0.9322077561132641
 40
1.0
 40
1.0
 40
1.0
 40
1.0
 10
95.8368022781899
 20
405.3551977058881
 30
0.0
 10
95.83791433016034
 20
405.3440485318348
 30
0.0
 10
95.8379771195379
 20
405.3323219724402
 30
0.0
 10
95.83698601135465
 20
405.3209807728237
 30
0.0
 10
95.83599449441395
 20
405.3096348958167
 30
0.0
 10
95.83391974761733
 20
405.2983595572992
 30
0.0
 10
95.83094909290615
 20
405.2881151219476
 30
0.0
 10
95.82800929944788
 20
405.2779771130039
 30
0.0
 10
95.82411035644955
 20
405.2685652359223
 30
0.0
 10
95.81960066464892
 20
405.2606885647018
 30
0.0
 10
95.81514692146217
 20
405.2529096138703
 30
0.0
 10
95.80997436814064
 20
405.2464111470885
 30
0.0
 10
95.8045291084955
 20
405.2417449862502
 30
0.0
 10
95.80290032232506
 20
405.2403492441299
 30
0.0
 10
95.80123897032051
 20
405.2391057483829
 30
0.0
 10
95.79955790183305
 20
405.2380240755477
 30
0.0
  0
SPLINE
  5
1CC
330
EF
100
AcDbEntity
  8
64647040_EINSATZ
  6
Continuous
 62
     7
100
AcDbSpline
210
0.0
220
0.0
230
1.0
 70
    12
 71
     2
 72
     6
 73
     3
 74
     0
 42
0.0000007825365226
 43
0.0000000001
 40
0.0
 40
0.0
 40
0.0
 40
1.0
 40
1.0
 40
1.0
 10
95.79955790183305
 20
405.2380240755477
 30
0.0
 41
1.0
 10
95.79416424926085
 20
405.2345535640767
 30
0.0
 41
1.0
 10
95.78883785558526
 20
405.2310685059041
 30
0.0
 41
1.0
  0
SPLINE
  5
1CD
330
EF
100
AcDbEntity
  8
64647040_EINSATZ
  6
Continuous
 62
     7
100
AcDbSpline
210
0.0
220
0.0
230
1.0
 70
     8
 71
     3
 72
    11
 73
     7
 74
     0
 42
0.0000001259966942
 43
0.0000000001
 40
0.0
 40
0.0
 40
0.0
 40
0.0
 40
0.2280395246138006
 40
0.2280395246138006
 40
0.2280395246138006
 40
0.2976203304513039
 40
0.2976203304513039
 40
0.2976203304513039
 40
0.2976203304513039
 10
95.78883785558526
 20
405.2310685059041
 30
0.0
 10
95.78332804717483
 20
405.2274634395121
 30
0.0
 10
95.77749522942487
 20
405.2256215820797
 30
0.0
 10
95.77181529232146
 20
405.2256919568572
 30
0.0
 10
95.77008200768347
 20
405.2257134323627
 30
0.0
 10
95.76834837723406
 20
405.2259130710283
 30
0.0
 10
95.76662700497693
 20
405.2262858537584
 30
0.0
  0
SPLINE
  5
1CE
330
EF
100
AcDbEntity
  8
64647040_EINSATZ
  6
Continuous
 62
     7
100
AcDbSpline
210
0.0
220
0.0
230
1.0
 70
    12
 71
     2
 72
     6
 73
     3
 74
     0
 42
0.0000000102054906
 43
0.0000000001
 40
0.525030990021649
 40
0.525030990021649
 40
0.525030990021649
 40
1.0
 40
1.0
 40
1.0
 10
104.3622057046798
 20
404.6689426334377
 30
0.0
 41
1.0
 10
104.3558453670208
 20
404.4363187836695
 30
0.0
 41
1.0
 10
104.3492517201253
 20
404.203717638127
 30
0.0
 41
1.0
  0
ARC
  5
1CF
330
EF
100
AcDbEntity
  8
64647040_EINSATZ
  6
Continuous
 62
     7
100
AcDbCircle
 10
104.0762550824
 20
404.199154329
 30
0.0
 40
0.2730347745162859
100
AcDbArc
 50
335.3828722141
 51
0.9576455673
  0
LINE
  5
1D0
330
EF
100
AcDbEntity
  8
64647040_EINSATZ
  6
Continuous
 62
     7
100
AcDbLine
 10
104.3244741705
 20
404.0854209899
 30
0.0
 11
104.3189250662
 21
404.0776630601
 31
0.0
  0
SPLINE
  5
1D1
330
EF
100
AcDbEntity
  8
64647040_EINSATZ
  6
Continuous
 62
     7
100
AcDbSpline
210
0.0
220
0.0
230
1.0
 70
     8
 71
     3
 72
    11
 73
     7
 74
     0
 42
0.0000002081589837
 43
0.0000000001
 40
0.0
 40
0.0
 40
0.0
 40
0.0
 40
0.231576835486446
 40
0.231576835486446
 40
0.231576835486446
 40
0.2714423156741267
 40
0.2714423156741267
 40
0.2714423156741267
 40
0.2714423156741267
 10
104.3189250662499
 20
404.0776630600582
 30
0.0
 10
104.3160096545986
 20
404.0736152878512
 30
0.0
 10
104.3130230482728
 20
404.0713063170527
 30
0.0
 10
104.3102173395474
 20
404.0709267735534
 30
0.0
 10
104.3097343412122
 20
404.0708614357381
 30
0.0
 10
104.3092544233326
 20
404.0708529640324
 30
0.0
 10
104.3087787891731
 20
404.070900701493
 30
0.0
  0
SPLINE
  5
1D2
330
EF
100
AcDbEntity
  8
64647040_EINSATZ
  6
Continuous
 62
     7
100
AcDbSpline
210
0.0
220
0.0
230
1.0
 70
    12
 71
     2
 72
     6
 73
     3
 74
     0
 42
0.0000000102356099
 43
0.0000000001
 40
0.5063091198772884
 40
0.5063091198772884
 40
0.5063091198772884
 40
1.0
 40
1.0
 40
1.0
 10
103.7862794656408
 20
404.1233434233374
 30
0.0
 41
1.0
 10
103.7727597312858
 20
403.882541637035
 30
0.0
 41
1.0
 10
103.7590139779379
 20
403.6417879581838
 30
0.0
 41
1.0
  0
SPLINE
  5
1D3
330
EF
100
AcDbEntity
  8
64647040_EINSATZ
  6
Continuous
 62
     7
100
AcDbSpline
210
0.0
220
0.0
230
1.0
 70
     8
 71
     3
 72
    20
 73
    16
 74
     0
 42
0.0000000778449563
 43
0.0000000001
 40
0.0
 40
0.0
 40
0.0
 40
0.0
 40
0.2315776513680541
 40
0.2315776513680541
 40
0.2315776513680541
 40
0.4631536226836963
 40
0.4631536226836963
 40
0.4631536226836963
 40
0.6947533629860224
 40
0.6947533629860224
 40
0.6947533629860224
 40
0.9263592170253135
 40
0.9263592170253135
 40
0.9263592170253135
 40
1.0
 40
1.0
 40
1.0
 40
1.0
 10
103.7590139774761
 20
403.6417879579814
 30
0.0
 10
103.7584016583406
 20
403.6310632763076
 30
0.0
 10
103.7568508918841
 20
403.6197637472869
 30
0.0
 10
103.754483265709
 20
403.6088266274475
 30
0.0
 10
103.7521156496812
 20
403.5978895544828
 30
0.0
 10
103.7488654127242
 20
403.5870133416248
 30
0.0
 10
103.7449894616013
 20
403.5771009709731
 30
0.0
 10
103.7411131224555
 20
403.5671876079901
 30
0.0
 10
103.7365034028999
 20
403.5579649838538
 30
0.0
 10
103.7315297923797
 20
403.5501993664227
 30
0.0
 10
103.7265560659854
 20
403.5424335680699
 30
0.0
 10
103.7210807382532
 20
403.5359107527357
 30
0.0
 10
103.7155505014914
 20
403.531172756968
 30
0.0
 10
103.7137694080483
 20
403.5296468162971
 30
0.0
 10
103.7119725003416
 20
403.5282925741193
 30
0.0
 10
103.7101754621365
 20
403.527121899277
 30
0.0
  0
LINE
  5
1D4
330
EF
100
AcDbEntity
  8
64647040_EINSATZ
  6
Continuous
 62
     7
100
AcDbLine
 10
103.7101754621
 20
403.5271218993
 30
0.0
 11
103.6994554159
 21
403.5201663296
 31
0.0
  0
SPLINE
  5
1D5
330
EF
100
AcDbEntity
  8
64647040_EINSATZ
  6
Continuous
 62
     7
100
AcDbSpline
210
0.0
220
0.0
230
1.0
 70
     8
 71
     3
 72
    11
 73
     7
 74
     0
 42
0.000000131774897
 43
0.0000000001
 40
0.0
 40
0.0
 40
0.0
 40
0.0
 40
0.2315768356817537
 40
0.2315768356817537
 40
0.2315768356817537
 40
0.2991873400862314
 40
0.2991873400862314
 40
0.2991873400862314
 40
0.2991873400862314
 10
103.6994554158887
 20
403.5201663296334
 30
0.0
 10
103.6938427024677
 20
403.5165391465916
 30
0.0
 10
103.6881248184889
 20
403.5146594629201
 30
0.0
 10
103.6827795477217
 20
403.5146819085604
 30
0.0
 10
103.6812189537083
 20
403.5146884617424
 30
0.0
 10
103.6796775874589
 20
403.5148571937344
 30
0.0
 10
103.6781662684676
 20
403.515184076822
 30
0.0
  0
SPLINE
  5
1D6
330
EF
100
AcDbEntity
  8
64647040_EINSATZ
  6
Continuous
 62
     7
100
AcDbSpline
210
0.0
220
0.0
230
1.0
 70
    12
 71
     2
 72
     6
 73
     3
 74
     0
 42
0.0000000102876131
 43
0.0000000001
 40
0.4434559684346368
 40
0.4434559684346368
 40
0.4434559684346368
 40
1.0
 40
1.0
 40
1.0
 10
102.8448301449784
 20
403.6954094381821
 30
0.0
 41
1.0
 10
102.8228552811151
 20
403.4257774126852
 30
0.0
 41
1.0
 10
102.8006458584914
 20
403.1562322574086
 30
0.0
 41
1.0
  0
ARC
  5
1D7
330
EF
100
AcDbEntity
  8
64647040_EINSATZ
  6
Continuous
 62
     7
100
AcDbCircle
 10
102.6707600132
 20
403.1626153912
 30
0.0
 40
0.1300425976019748
100
AcDbArc
 50
297.6330207132
 51
357.1865092494
  0
LINE
  5
1D8
330
EF
100
AcDbEntity
  8
64647040_EINSATZ
  6
Continuous
 62
     7
100
AcDbLine
 10
102.7310746406
 20
403.0474059172
 30
0.0
 11
102.7159142058
 21
403.0417267183
 31
0.0
  0
SPLINE
  5
1D9
330
EF
100
AcDbEntity
  8
64647040_EINSATZ
  6
Continuous
 62
     7
100
AcDbSpline
210
0.0
220
0.0
230
1.0
 70
     8
 71
     3
 72
    11
 73
     7
 74
     0
 42
0.0000000981597769
 43
0.0000000001
 40
0.0
 40
0.0
 40
0.0
 40
0.0
 40
0.2315768356270573
 40
0.2315768356270573
 40
0.2315768356270573
 40
0.3564567641995949
 40
0.3564567641995949
 40
0.3564567641995949
 40
0.3564567641995949
 10
102.7159142058471
 20
403.0417267183191
 30
0.0
 10
102.7079866878005
 20
403.0387673109727
 30
0.0
 10
102.6999271905126
 20
403.037567098725
 30
0.0
 10
102.6924066290729
 20
403.0382240601097
 30
0.0
 10
102.6883510865773
 20
403.038578333502
 30
0.0
 10
102.6843920404821
 20
403.0394779005088
 30
0.0
 10
102.6806242130847
 20
403.0408893471017
 30
0.0
  0
SPLINE
  5
1DA
330
EF
100
AcDbEntity
  8
64647040_EINSATZ
  6
Continuous
 62
     7
100
AcDbSpline
210
0.0
220
0.0
230
1.0
 70
    12
 71
     2
 72
     6
 73
     3
 74
     0
 42
0.0000000103633097
 43
0.0000000001
 40
0.8027210423815123
 40
0.8027210423815123
 40
0.8027210423815123
 40
1.0
 40
1.0
 40
1.0
 10
101.5588695222313
 20
402.9695110071777
 30
0.0
 41
1.0
 10
101.5491744664623
 20
402.8748189823823
 30
0.0
 41
1.0
 10
101.5394585653482
 20
402.7801403543905
 30
0.0
 41
1.0
  0
ARC
  5
1DB
330
EF
100
AcDbEntity
  8
64647040_EINSATZ
  6
Continuous
 62
     7
100
AcDbCircle
 10
101.4228249353
 20
402.7920085055
 30
0.0
 40
0.1172359034968292
100
AcDbArc
 50
285.3686553884
 51
354.1898192011
  0
LINE
  5
1DC
330
EF
100
AcDbEntity
  8
64647040_EINSATZ
  6
Continuous
 62
     7
100
AcDbLine
 10
101.453895809
 20
402.678964895
 30
0.0
 11
101.4353281442
 21
402.674949095
 31
0.0
  0
ARC
  5
1DD
330
EF
100
AcDbEntity
  8
64647040_EINSATZ
  6
Continuous
 62
     7
100
AcDbCircle
 10
101.4185241018
 20
402.7427329956
 30
0.0
 40
0.0698357574726587
100
AcDbArc
 50
237.2522971808
 51
283.9232734671
  0
SPLINE
  5
1DE
330
EF
100
AcDbEntity
  8
64647040_EINSATZ
  6
Continuous
 62
     7
100
AcDbSpline
210
0.0
220
0.0
230
1.0
 70
    12
 71
     2
 72
     6
 73
     3
 74
     0
 42
0.0000000104605634
 43
0.0000000001
 40
0.9214626930661849
 40
0.9214626930661849
 40
0.9214626930661849
 40
1.0
 40
1.0
 40
1.0
 10
100.0700745284337
 20
402.6137189031242
 30
0.0
 41
1.0
 10
100.0657380840292
 20
402.5764294116952
 30
0.0
 41
1.0
 10
100.0613999283251
 20
402.5391422907988
 30
0.0
 41
1.0
  0
ARC
  5
1DF
330
EF
100
AcDbEntity
  8
64647040_EINSATZ
  6
Continuous
 62
     7
100
AcDbCircle
 10
99.9544785287
 20
402.5543183862
 30
0.0
 40
0.1079930531437706
100
AcDbArc
 50
275.9518387334
 51
351.9215740258
  0
LINE
  5
1E0
330
EF
100
AcDbEntity
  8
64647040_EINSATZ
  6
Continuous
 62
     7
100
AcDbLine
 10
99.9656765939
 20
402.4469074795
 30
0.0
 11
99.9449670548
 21
402.4448287485
 31
0.0
  0
ARC
  5
1E1
330
EF
100
AcDbEntity
  8
64647040_EINSATZ
  6
Continuous
 62
     7
100
AcDbCircle
 10
99.9331452669
 20
402.5291720832
 30
0.0
 40
0.0851677919550604
100
AcDbArc
 50
215.3878882531
 51
277.9787519634
  0
SPLINE
  5
1E2
330
EF
100
AcDbEntity
  8
64647040_EINSATZ
  6
Continuous
 62
     7
100
AcDbSpline
210
0.0
220
0.0
230
1.0
 70
    12
 71
     2
 72
     6
 73
     3
 74
     0
 42
0.0000000105769734
 43
0.0000000001
 40
0.0
 40
0.0
 40
0.0
 40
0.0418236917032617
 40
0.0418236917032617
 40
0.0418236917032617
 10
98.46719720089968
 20
402.4496616864024
 30
0.0
 41
1.0
 10
98.46960038601603
 20
402.4692858464436
 30
0.0
 41
1.0
 10
98.47200357048438
 20
402.4889107027134
 30
0.0
 41
1.0
  0
ARC
  5
1E3
330
EF
100
AcDbEntity
  8
64647040_EINSATZ
  6
Continuous
 62
     7
100
AcDbCircle
 10
98.3706606206
 20
402.4647095291
 30
0.0
 40
0.0977023484869714
100
AcDbArc
 50
268.3437176283
 51
351.1401981305
  0
LINE
  5
1E4
330
EF
100
AcDbEntity
  8
64647040_EINSATZ
  6
Continuous
 62
     7
100
AcDbLine
 10
98.346396583
 20
402.3670480002
 30
0.0
 11
98.3678366754
 21
402.3670480002
 31
0.0
  0
ARC
  5
1E5
330
EF
100
AcDbEntity
  8
64647040_EINSATZ
  6
Continuous
 62
     7
100
AcDbCircle
 10
98.3438862925
 20
402.4650867656
 30
0.0
 40
0.0980708982685811
100
AcDbArc
 50
189.0493416957
 51
271.4667425617
  0
SPLINE
  5
1E6
330
EF
100
AcDbEntity
  8
64647040_EINSATZ
  6
Continuous
 62
     7
100
AcDbSpline
210
0.0
220
0.0
230
1.0
 70
    12
 71
     2
 72
     6
 73
     3
 74
     0
 42
0.0000000105769734
 43
0.0000000001
 40
0.9581763082891912
 40
0.9581763082891912
 40
0.9581763082891912
 40
1.0
 40
1.0
 40
1.0
 10
98.24222968788891
 20
402.4889107027191
 30
0.0
 41
1.0
 10
98.2446328723578
 20
402.469285846445
 30
0.0
 41
1.0
 10
98.24703605747469
 20
402.4496616863994
 30
0.0
 41
1.0
  0
ARC
  5
1E7
330
EF
100
AcDbEntity
  8
64647040_EINSATZ
  6
Continuous
 62
     7
100
AcDbCircle
 10
96.7813037666
 20
402.5288875274
 30
0.0
 40
0.0849163190557776
100
AcDbArc
 50
261.8504162032
 51
324.7058533646
  0
LINE
  5
1E8
330
EF
100
AcDbEntity
  8
64647040_EINSATZ
  6
Continuous
 62
     7
100
AcDbLine
 10
96.7692662036
 20
402.4448287485
 30
0.0
 11
96.7485566645
 21
402.4469074795
 31
0.0
  0
ARC
  5
1E9
330
EF
100
AcDbEntity
  8
64647040_EINSATZ
  6
Continuous
 62
     7
100
AcDbCircle
 10
96.75989182
 20
402.5544606621
 30
0.0
 40
0.1081488457181232
100
AcDbArc
 50
188.1428474399
 51
263.9837401277
  0
SPLINE
  5
1EA
330
EF
100
AcDbEntity
  8
64647040_EINSATZ
  6
Continuous
 62
     7
100
AcDbSpline
210
0.0
220
0.0
230
1.0
 70
    12
 71
     2
 72
     6
 73
     3
 74
     0
 42
0.0000000104605634
 43
0.0000000001
 40
0.0
 40
0.0
 40
0.0
 40
0.0785373069072943
 40
0.0785373069072943
 40
0.0785373069072943
 10
96.65283332973878
 20
402.5391422907959
 30
0.0
 41
1.0
 10
96.64849517403616
 20
402.5764294116794
 30
0.0
 41
1.0
 10
96.64415872963326
 20
402.6137189030954
 30
0.0
 41
1.0
  0
ARC
  5
1EB
330
EF
100
AcDbEntity
  8
64647040_EINSATZ
  6
Continuous
 62
     7
100
AcDbCircle
 10
95.2956360572
 20
402.7428319053
 30
0.0
 40
0.0699142360168168
100
AcDbArc
 50
256.154376942
 51
302.815152396
  0
LINE
  5
1EC
330
EF
100
AcDbEntity
  8
64647040_EINSATZ
  6
Continuous
 62
     7
100
AcDbLine
 10
95.2603374494
 20
402.678964895
 30
0.0
 11
95.2789051142
 21
402.674949095
 31
0.0
  0
ARC
  5
1ED
330
EF
100
AcDbEntity
  8
64647040_EINSATZ
  6
Continuous
 62
     7
100
AcDbCircle
 10
95.2909712027
 20
402.7916388364
 30
0.0
 40
0.1167640523011975
100
AcDbArc
 50
185.6514309477
 51
254.7900932849
  0
SPLINE
  5
1EE
330
EF
100
AcDbEntity
  8
64647040_EINSATZ
  6
Continuous
 62
     7
100
AcDbSpline
210
0.0
220
0.0
230
1.0
 70
    12
 71
     2
 72
     6
 73
     3
 74
     0
 42
0.0000000103633089
 43
0.0000000001
 40
0.802474492872303
 40
0.802474492872303
 40
0.802474492872303
 40
1.0
 40
1.0
 40
1.0
 10
95.15533950339933
 20
402.9697476900407
 30
0.0
 41
1.0
 10
95.16504664948664
 20
402.8749373070606
 30
0.0
 41
1.0
 10
95.17477469305466
 20
402.7801403543904
 30
0.0
 41
1.0
  0
SPLINE
  5
1EF
330
EF
100
AcDbEntity
  8
64647040_EINSATZ
  6
Continuous
 62
     7
100
AcDbSpline
210
0.0
220
0.0
230
1.0
 70
     8
 71
     3
 72
    14
 73
    10
 74
     0
 42
0.000000098030916
 43
0.0000000001
 40
0.6448051798054288
 40
0.6448051798054288
 40
0.6448051798054288
 40
0.6448051798054288
 40
0.6947533630130645
 40
0.6947533630130645
 40
0.6947533630130645
 40
0.9263592170319837
 40
0.9263592170319837
 40
0.9263592170319837
 40
1.0
 40
1.0
 40
1.0
 40
1.0
 10
94.03354240286426
 20
403.0408587195896
 30
0.0
 10
94.03203881103725
 20
403.0402954629114
 30
0.0
 10
94.03050736412116
 20
403.039815958849
 30
0.0
 10
94.02895374854373
 20
403.0394233083204
 30
0.0
 10
94.02174977586513
 20
403.0376026238979
 30
0.0
 10
94.01387081505736
 20
403.0375993297272
 30
0.0
 10
94.0059749651179
 20
403.039415906757
 30
0.0
 10
94.00343199143333
 20
403.0400009618957
 30
0.0
 10
94.0008725384405
 20
403.0407734811468
 30
0.0
 10
93.99831905255576
 20
403.0417267183191
 30
0.0
  0
LINE
  5
1F0
330
EF
100
AcDbEntity
  8
64647040_EINSATZ
  6
Continuous
 62
     7
100
AcDbLine
 10
93.9983190526
 20
403.0417267183
 30
0.0
 11
93.9831586178
 21
403.0474059172
 31
0.0
  0
ARC
  5
1F1
330
EF
100
AcDbEntity
  8
64647040_EINSATZ
  6
Continuous
 62
     7
100
AcDbCircle
 10
94.0418565579
 20
403.161581865
 30
0.0
 40
0.1283806654013221
100
AcDbArc
 50
182.3882000155
 51
242.7922701554
  0
SPLINE
  5
1F2
330
EF
100
AcDbEntity
  8
64647040_EINSATZ
  6
Continuous
 62
     7
100
AcDbSpline
210
0.0
220
0.0
230
1.0
 70
    12
 71
     2
 72
     6
 73
     3
 74
     0
 42
0.0000000102876131
 43
0.0000000001
 40
0.0
 40
0.0
 40
0.0
 40
0.5565440315177325
 40
0.5565440315177325
 40
0.5565440315177325
 10
93.91358739973474
 20
403.1562322574483
 30
0.0
 41
1.0
 10
93.89137797711369
 20
403.4257774126932
 30
0.0
 41
1.0
 10
93.86940311325216
 20
403.695409438168
 30
0.0
 41
1.0
  0
SPLINE
  5
1F3
330
EF
100
AcDbEntity
  8
64647040_EINSATZ
  6
Continuous
 62
     7
100
AcDbSpline
210
0.0
220
0.0
230
1.0
 70
     8
 71
     3
 72
    11
 73
     7
 74
     0
 42
0.0000001313462317
 43
0.0000000001
 40
0.700846419875794
 40
0.700846419875794
 40
0.700846419875794
 40
0.700846419875794
 40
0.926359217104709
 40
0.926359217104709
 40
0.926359217104709
 40
1.0
 40
1.0
 40
1.0
 40
1.0
 10
93.03611673694019
 20
403.5151878790434
 30
0.0
 10
93.03110159556948
 20
403.5141031600617
 30
0.0
 10
93.02565185564835
 20
403.514793712181
 30
0.0
 10
93.02020170847999
 20
403.517210450945
 30
0.0
 10
93.01839898319776
 20
403.5180098268032
 30
0.0
 10
93.0165857203911
 20
403.5189979991869
 30
0.0
 10
93.01477784251412
 20
403.5201663296334
 30
0.0
  0
LINE
  5
1F4
330
EF
100
AcDbEntity
  8
64647040_EINSATZ
  6
Continuous
 62
     7
100
AcDbLine
 10
93.0147778425
 20
403.5201663296
 30
0.0
 11
93.0040577963
 21
403.5271218993
 31
0.0
  0
SPLINE
  5
1F5
330
EF
100
AcDbEntity
  8
64647040_EINSATZ
  6
Continuous
 62
     7
100
AcDbSpline
210
0.0
220
0.0
230
1.0
 70
     8
 71
     3
 72
    20
 73
    16
 74
     0
 42
0.0000000778261939
 43
0.0000000001
 40
0.0
 40
0.0
 40
0.0
 40
0.0
 40
0.2315768354864464
 40
0.2315768354864464
 40
0.2315768354864464
 40
0.4631521973025191
 40
0.4631521973025191
 40
0.4631521973025191
 40
0.6947491985089959
 40
0.6947491985089959
 40
0.6947491985089959
 40
0.9263566104963636
 40
0.9263566104963636
 40
0.9263566104963636
 40
1.0
 40
1.0
 40
1.0
 40
1.0
 10
93.00405779626632
 20
403.5271218992771
 30
0.0
 10
92.99847873554543
 20
403.5307563606985
 30
0.0
 10
92.99285056554112
 20
403.5362384240603
 30
0.0
 10
92.98763509859418
 20
403.5431130739692
 30
0.0
 10
92.98241965082863
 20
403.5499876985946
 30
0.0
 10
92.97747266875324
 20
403.5584443859885
 30
0.0
 10
92.97319272667
 20
403.5677806000036
 30
0.0
 10
92.96891239275564
 20
403.5771176687546
 30
0.0
 10
92.96518055612441
 20
403.5875918258645
 30
0.0
 10
92.96229338203358
 20
403.5983331350903
 30
0.0
 10
92.95940608860808
 20
403.6090748882834
 30
0.0
 10
92.95728333698978
 20
403.620380022829
 30
0.0
 10
92.95609192486043
 20
403.6313102415069
 30
0.0
 10
92.95570820220874
 20
403.6348305787532
 30
0.0
 10
92.9554165173703
 20
403.6383333846678
 30
0.0
 10
92.95521928035346
 20
403.6417879582324
 30
0.0
  0
SPLINE
  5
1F6
330
EF
100
AcDbEntity
  8
64647040_EINSATZ
  6
Continuous
 62
     7
100
AcDbSpline
210
0.0
220
0.0
230
1.0
 70
    12
 71
     2
 72
     6
 73
     3
 74
     0
 42
0.0000000102356099
 43
0.0000000001
 40
0.0
 40
0.0
 40
0.0
 40
0.493690880054498
 40
0.493690880054498
 40
0.493690880054498
 10
92.95521928035348
 20
403.6417879582324
 30
0.0
 41
1.0
 10
92.94147352700676
 20
403.8825416370622
 30
0.0
 41
1.0
 10
92.92795379265368
 20
404.1233434233313
 30
0.0
 41
1.0
  0
SPLINE
  5
1F7
330
EF
100
AcDbEntity
  8
64647040_EINSATZ
  6
Continuous
 62
     7
100
AcDbSpline
210
0.0
220
0.0
230
1.0
 70
     8
 71
     3
 72
    11
 73
     7
 74
     0
 42
0.000000208206083
 43
0.0000000001
 40
0.728199189685725
 40
0.728199189685725
 40
0.728199189685725
 40
0.728199189685725
 40
0.9263592170636006
 40
0.9263592170636006
 40
0.9263592170636006
 40
1.0
 40
1.0
 40
1.0
 40
1.0
 10
92.40549730564794
 20
404.0709041839243
 30
0.0
 10
92.40313452076045
 20
404.0706669696418
 30
0.0
 10
92.40062657438835
 20
404.0718175993741
 30
0.0
 10
92.39813038402033
 20
404.0743005031666
 30
0.0
 10
92.39719075988928
 20
404.0752351259216
 30
0.0
 10
92.3962472581325
 20
404.0763592561269
 30
0.0
 10
92.39530819215294
 20
404.0776630600582
 30
0.0
  0
LINE
  5
1F8
330
EF
100
AcDbEntity
  8
64647040_EINSATZ
  6
Continuous
 62
     7
100
AcDbLine
 10
92.3953081922
 20
404.0776630601
 30
0.0
 11
92.3897590879
 21
404.0854209899
 31
0.0
  0
ARC
  5
1F9
330
EF
100
AcDbEntity
  8
64647040_EINSATZ
  6
Continuous
 62
     7
100
AcDbCircle
 10
92.627626395
 20
404.1969861199
 30
0.0
 40
0.2627311059739275
100
AcDbArc
 50
178.5318457734
 51
205.1276361976
  0
SPLINE
  5
1FA
330
EF
100
AcDbEntity
  8
64647040_EINSATZ
  6
Continuous
 62
     7
100
AcDbSpline
210
0.0
220
0.0
230
1.0
 70
    12
 71
     2
 72
     6
 73
     3
 74
     0
 42
0.0000000102054906
 43
0.0000000001
 40
0.0
 40
0.0
 40
0.0
 40
0.4749690101279356
 40
0.4749690101279356
 40
0.4749690101279356
 10
92.36498153841497
 20
404.2037176379907
 30
0.0
 41
1.0
 10
92.35838789151761
 20
404.4363187836001
 30
0.0
 41
1.0
 10
92.35202755385663
 20
404.6689426334413
 30
0.0
 41
1.0
  0
LINE
  5
1FB
330
EF
100
AcDbEntity
  8
64647040_EINSATZ
  6
Continuous
 62
     7
100
AcDbLine
 10
104.8290308278
 20
404.6762244287
 30
0.0
 11
104.8290308278
 21
404.6842560287
 31
0.0
  0
ARC
  5
1FC
330
EF
100
AcDbEntity
  8
64647040_EINSATZ
  6
Continuous
 62
     7
100
AcDbCircle
 10
105.6786948161
 20
404.6350971613
 30
0.0
 40
0.8510848884212233
100
AcDbArc
 50
168.5720900751
 51
176.6887390852
  0
SPLINE
  5
1FD
330
EF
100
AcDbEntity
  8
64647040_EINSATZ
  6
Continuous
 62
     7
100
AcDbSpline
210
0.0
220
0.0
230
1.0
 70
    12
 71
     2
 72
     6
 73
     3
 74
     0
 42
0.0000000100221455
 43
0.0000000001
 40
0.0
 40
0.0
 40
0.0
 40
0.5360419836965542
 40
0.5360419836965542
 40
0.5360419836965542
 10
104.8444828767308
 20
404.8037267181921
 30
0.0
 41
1.0
 10
104.8939960132245
 20
405.06653373141
 30
0.0
 41
1.0
 10
104.9432518359926
 20
405.3293855280088
 30
0.0
 41
1.0
  0
SPLINE
  5
1FE
330
EF
100
AcDbEntity
  8
64647040_EINSATZ
  6
Continuous
 62
     7
100
AcDbSpline
210
0.0
220
0.0
230
1.0
 70
     8
 71
     3
 72
    11
 73
     7
 74
     0
 42
0.0000001926979068
 43
0.0000000001
 40
0.7299612795054511
 40
0.7299612795054511
 40
0.7299612795054511
 40
0.7299612795054511
 40
0.9340165526357721
 40
0.9340165526357721
 40
0.9340165526357721
 40
1.0
 40
1.0
 40
1.0
 40
1.0
 10
104.6224999636658
 20
405.2971915438137
 30
0.0
 10
104.6195099248794
 20
405.2968911637826
 30
0.0
 10
104.616567499703
 20
405.2981029881208
 30
0.0
 10
104.6138668768574
 20
405.3007669656709
 30
0.0
 10
104.6129818170601
 20
405.3016400159136
 30
0.0
 10
104.6121175021618
 20
405.3026694582108
 30
0.0
 10
104.6112802513027
 20
405.3038477810862
 30
0.0
  0
LINE
  5
1FF
330
EF
100
AcDbEntity
  8
64647040_EINSATZ
  6
Continuous
 62
     7
100
AcDbLine
 10
104.6112802513
 20
405.3038477811
 30
0.0
 11
104.605731147
 21
405.311605711
 31
0.0
  0
SPLINE
  5
200
330
EF
100
AcDbEntity
  8
64647040_EINSATZ
  6
Continuous
 62
     7
100
AcDbSpline
210
0.0
220
0.0
230
1.0
 70
     8
 71
     3
 72
    20
 73
    16
 74
     0
 42
0.0000000817664572
 43
0.0000000001
 40
0.0
 40
0.0
 40
0.0
 40
0.0
 40
0.2274863333635815
 40
0.2274863333635815
 40
0.2274863333635815
 40
0.4548919042039777
 40
0.4548919042039777
 40
0.4548919042039777
 40
0.6835816436548183
 40
0.6835816436548183
 40
0.6835816436548183
 40
0.9153618865420613
 40
0.9153618865420613
 40
0.9153618865420613
 40
1.0
 40
1.0
 40
1.0
 40
1.0
 10
104.6057311470361
 20
405.3116057109646
 30
0.0
 10
104.6028480993981
 20
405.3156098168317
 30
0.0
 10
104.6002336358345
 20
405.3214546458505
 30
0.0
 10
104.5981078556805
 20
405.3286479736302
 30
0.0
 10
104.595982493811
 20
405.3358398859963
 30
0.0
 10
104.5942874580144
 20
405.3445752608227
 30
0.0
 10
104.5931667611325
 20
405.3541257874238
 30
0.0
 10
104.5920396288665
 20
405.3637311560685
 30
0.0
 10
104.5914628504198
 20
405.3744200240914
 30
0.0
 10
104.5914873688847
 20
405.3853206064023
 30
0.0
 10
104.5915122161729
 20
405.3963673791467
 30
0.0
 10
104.5921552398835
 20
405.4079298031138
 30
0.0
 10
104.5933666411327
 20
405.4190763922059
 30
0.0
 10
104.5938143286776
 20
405.4231957449859
 30
0.0
 10
104.5943408105105
 20
405.4272873480986
 30
0.0
 10
104.5949402840965
 20
405.4313062800074
 30
0.0
  0
SPLINE
  5
201
330
EF
100
AcDbEntity
  8
64647040_EINSATZ
  6
Continuous
 62
     7
100
AcDbSpline
210
0.0
220
0.0
230
1.0
 70
    12
 71
     2
 72
     6
 73
     3
 74
     0
 42
0.0000000099207528
 43
0.0000000001
 40
0.0
 40
0.0
 40
0.0
 40
0.525834660272674
 40
0.525834660272674
 40
0.525834660272674
 10
104.5949402840965
 20
405.4313062800075
 30
0.0
 41
1.0
 10
104.634036801387
 20
405.6934324592938
 30
0.0
 41
1.0
 10
104.6728928412335
 20
405.9555776613422
 30
0.0
 41
1.0
  0
SPLINE
  5
202
330
EF
100
AcDbEntity
  8
64647040_EINSATZ
  6
Continuous
 62
     7
100
AcDbSpline
210
0.0
220
0.0
230
1.0
 70
     8
 71
     3
 72
    14
 73
    10
 74
     0
 42
0.0000001243990366
 43
0.0000000001
 40
0.7028867624791619
 40
0.7028867624791619
 40
0.7028867624791619
 40
0.7028867624791619
 40
0.704269823626313
 40
0.704269823626313
 40
0.704269823626313
 40
0.9340165526915168
 40
0.9340165526915168
 40
0.9340165526915168
 40
1.0
 40
1.0
 40
1.0
 40
1.0
 10
103.9897741244131
 20
405.884236223906
 30
0.0
 10
103.9897395916049
 20
405.8842287549127
 30
0.0
 10
103.9897050560532
 20
405.8842213564876
 30
0.0
 10
103.989670517857
 20
405.8842140286932
 30
0.0
 10
103.9839318605124
 20
405.8829964867905
 30
0.0
 10
103.9779591639225
 20
405.8836953972403
 30
0.0
 10
103.9722512228774
 20
405.8862633195334
 30
0.0
 10
103.9705897753093
 20
405.8870107813967
 30
0.0
 10
103.9689415954771
 20
405.8879163127461
 30
0.0
 10
103.9673187594381
 20
405.8889733093175
 30
0.0
  0
LINE
  5
203
330
EF
100
AcDbEntity
  8
64647040_EINSATZ
  6
Continuous
 62
     7
100
AcDbLine
 10
103.9673187594
 20
405.8889733093
 30
0.0
 11
103.9565987132
 21
405.895928879
 31
0.0
  0
SPLINE
  5
204
330
EF
100
AcDbEntity
  8
64647040_EINSATZ
  6
Continuous
 62
     7
100
AcDbSpline
210
0.0
220
0.0
230
1.0
 70
     8
 71
     3
 72
    20
 73
    16
 74
     0
 42
0.0000000779842952
 43
0.0000000001
 40
0.0
 40
0.0
 40
0.0
 40
0.0
 40
0.2274863332652766
 40
0.2274863332652766
 40
0.2274863332652766
 40
0.4548919040074019
 40
0.4548919040074019
 40
0.4548919040074019
 40
0.6835816433594271
 40
0.6835816433594271
 40
0.6835816433594271
 40
0.9153618861465055
 40
0.9153618861465055
 40
0.9153618861465055
 40
1.0
 40
1.0
 40
1.0
 40
1.0
 10
103.9565987131903
 20
405.8959288789612
 30
0.0
 10
103.9510474304702
 20
405.8995170214209
 30
0.0
 10
103.9456959203692
 20
405.9049689853977
 30
0.0
 10
103.9409911668225
 20
405.911825445643
 30
0.0
 10
103.9362873390186
 20
405.9186805567592
 30
0.0
 10
103.9321011383796
 20
405.9271258813925
 30
0.0
 10
103.9287772550492
 20
405.9364572106595
 30
0.0
 10
103.9254342849646
 20
405.9458421232719
 30
0.0
 10
103.9228725781678
 20
405.9563762078133
 30
0.0
 10
103.921297319562
 20
405.9672003108869
 30
0.0
 10
103.9197009347694
 20
405.9781695787119
 30
0.0
 10
103.9190740468974
 20
405.9897327984646
 30
0.0
 10
103.9194630052716
 20
406.0009583139224
 30
0.0
 10
103.9196067494024
 20
406.005106834867
 30
0.0
 10
103.919886951172
 20
406.009238221916
 30
0.0
 10
103.920300315785
 20
406.0133071058882
 30
0.0
  0
SPLINE
  5
205
330
EF
100
AcDbEntity
  8
64647040_EINSATZ
  6
Continuous
 62
     7
100
AcDbSpline
210
0.0
220
0.0
230
1.0
 70
    12
 71
     2
 72
     6
 73
     3
 74
     0
 42
0.0000000098565629
 43
0.0000000001
 40
0.0
 40
0.0
 40
0.0
 40
0.2558857700246851
 40
0.2558857700246851
 40
0.2558857700246851
 10
103.9203003157849
 20
406.0133071058883
 30
0.0
 41
1.0
 10
103.9334190060941
 20
406.14245027632
 30
0.0
 41
1.0
 10
103.946486319011
 20
406.2715926091529
 30
0.0
 41
1.0
  0
SPLINE
  5
206
330
EF
100
AcDbEntity
  8
64647040_EINSATZ
  6
Continuous
 62
     7
100
AcDbSpline
210
0.0
220
0.0
230
1.0
 70
     8
 71
     3
 72
    14
 73
    10
 74
     0
 42
0.0000000939281029
 43
0.0000000001
 40
0.6468134787543662
 40
0.6468134787543662
 40
0.6468134787543662
 40
0.6468134787543662
 40
0.7042698230198452
 40
0.7042698230198452
 40
0.7042698230198452
 40
0.9340165525562255
 40
0.9340165525562255
 40
0.9340165525562255
 40
1.0
 40
1.0
 40
1.0
 40
1.0
 10
102.9775843288837
 20
406.391357170308
 30
0.0
 10
102.9756992514322
 20
406.3906505186092
 30
0.0
 10
102.9737882088227
 20
406.3900594199861
 30
0.0
 10
102.971860578946
 20
406.3895891735429
 30
0.0
 10
102.9641508753175
 20
406.3877083868041
 30
0.0
 10
102.9559596779912
 20
406.3877087638404
 30
0.0
 10
102.947973425787
 20
406.3896013173673
 30
0.0
 10
102.9456488153543
 20
406.3901521952461
 30
0.0
 10
102.94332909132
 20
406.3908620379346
 30
0.0
 10
102.9410312636952
 20
406.3917256756325
 30
0.0
  0
LINE
  5
207
330
EF
100
AcDbEntity
  8
64647040_EINSATZ
  6
Continuous
 62
     7
100
AcDbLine
 10
102.9410312637
 20
406.3917256756
 30
0.0
 11
102.9258708289
 21
406.3974048745
 31
0.0
  0
SPLINE
  5
208
330
EF
100
AcDbEntity
  8
64647040_EINSATZ
  6
Continuous
 62
     7
100
AcDbSpline
210
0.0
220
0.0
230
1.0
 70
     8
 71
     3
 72
    20
 73
    16
 74
     0
 42
0.0000000736868104
 43
0.0000000001
 40
0.0
 40
0.0
 40
0.0
 40
0.0
 40
0.227486333265265
 40
0.227486333265265
 40
0.227486333265265
 40
0.454891904007379
 40
0.454891904007379
 40
0.454891904007379
 40
0.683581643359405
 40
0.683581643359405
 40
0.683581643359405
 40
0.9153618861464811
 40
0.9153618861464811
 40
0.9153618861464811
 40
1.0
 40
1.0
 40
1.0
 40
1.0
 10
102.9258708289023
 20
406.3974048744649
 30
0.0
 10
102.9180296218436
 20
406.4003325275382
 30
0.0
 10
102.9103057617748
 20
406.4051396417998
 30
0.0
 10
102.9033426560146
 20
406.4114206678007
 30
0.0
 10
102.8963809203677
 20
406.4177004578995
 30
0.0
 10
102.8899888375418
 20
406.4256240838741
 30
0.0
 10
102.8846882849189
 20
406.434530074126
 30
0.0
 10
102.8793572949024
 20
406.4434872052967
 30
0.0
 10
102.8749852358403
 20
406.4536793311111
 30
0.0
 10
102.8719175514346
 20
406.4642744540151
 30
0.0
 10
102.8688087255466
 20
406.4750116707602
 30
0.0
 10
102.8669546474645
 20
406.4864525344978
 30
0.0
 10
102.8664946560933
 20
406.4976745467578
 30
0.0
 10
102.8663246608851
 20
406.5018217730545
 30
0.0
 10
102.8663394873037
 20
406.5059677102724
 30
0.0
 10
102.8665385760297
 20
406.5100667985704
 30
0.0
  0
SPLINE
  5
209
330
EF
100
AcDbEntity
  8
64647040_EINSATZ
  6
Continuous
 62
     7
100
AcDbSpline
210
0.0
220
0.0
230
1.0
 70
    12
 71
     2
 72
     6
 73
     3
 74
     0
 42
0.0000000098225984
 43
0.0000000001
 40
0.0
 40
0.0
 40
0.0
 40
0.0989392765820641
 40
0.0989392765820641
 40
0.0989392765820641
 10
102.8665385760298
 20
406.5100667985704
 30
0.0
 41
1.0
 10
102.8689814220463
 20
406.5603711679755
 30
0.0
 41
1.0
 10
102.8714179431309
 20
406.610674721416
 30
0.0
 41
1.0
  0
SPLINE
  5
20A
330
EF
100
AcDbEntity
  8
64647040_EINSATZ
  6
Continuous
 62
     7
100
AcDbSpline
210
0.0
220
0.0
230
1.0
 70
     8
 71
     3
 72
    14
 73
    10
 74
     0
 42
0.0000000785996586
 43
0.0000000001
 40
0.5358521909207472
 40
0.5358521909207472
 40
0.5358521909207472
 40
0.5358521909207472
 40
0.7042698228896171
 40
0.7042698228896171
 40
0.7042698228896171
 40
0.9340165525271574
 40
0.9340165525271574
 40
0.9340165525271574
 40
1.0
 40
1.0
 40
1.0
 40
1.0
 10
101.6587071006419
 20
406.7879262229935
 30
0.0
 10
101.6527469751845
 20
406.784057639332
 30
0.0
 10
101.6462732774422
 20
406.7810499639668
 30
0.0
 10
101.6395634660848
 20
406.7790619887803
 30
0.0
 10
101.6304081197338
 20
406.7763494533005
 30
0.0
 10
101.6205566382324
 20
406.7754600034213
 30
0.0
 10
101.6108363247589
 20
406.7764793064255
 30
0.0
 10
101.6080069698209
 20
406.7767760015884
 30
0.0
 10
101.6051737869439
 20
406.7772317137619
 30
0.0
 10
101.6023575608887
 20
406.7778431371044
 30
0.0
  0
LINE
  5
20B
330
EF
100
AcDbEntity
  8
64647040_EINSATZ
  6
Continuous
 62
     7
100
AcDbLine
 10
101.6023575609
 20
406.7778431371
 30
0.0
 11
101.5837898961
 21
406.7818589371
 31
0.0
  0
ARC
  5
20C
330
EF
100
AcDbEntity
  8
64647040_EINSATZ
  6
Continuous
 62
     7
100
AcDbCircle
 10
101.612750925
 20
406.8851910114
 30
0.0
 40
0.1073138331187937
100
AcDbArc
 50
178.6432130671
 51
254.3433330641
  0
ARC
  5
20D
330
EF
100
AcDbEntity
  8
64647040_EINSATZ
  6
Continuous
 62
     7
100
AcDbCircle
 10
100.0519171866
 20
407.1120108269
 30
0.0
 40
0.0914817044041495
100
AcDbArc
 50
264.1078714088
 51
324.1122223669
  0
LINE
  5
20E
330
EF
100
AcDbEntity
  8
64647040_EINSATZ
  6
Continuous
 62
     7
100
AcDbLine
 10
100.0425260516
 20
407.0210124268
 30
0.0
 11
100.0218165125
 21
407.0230911579
 31
0.0
  0
ARC
  5
20F
330
EF
100
AcDbEntity
  8
64647040_EINSATZ
  6
Continuous
 62
     7
100
AcDbCircle
 10
100.0339307428
 20
407.1266527114
 30
0.0
 40
0.1042676840827951
100
AcDbArc
 50
209.559895488
 51
263.3280824366
  0
ARC
  5
210
330
EF
100
AcDbEntity
  8
64647040_EINSATZ
  6
Continuous
 62
     7
100
AcDbCircle
 10
98.3683028167
 20
407.2042244831
 30
0.0
 40
0.0995636147313233
100
AcDbArc
 50
269.7317491471
 51
320.115587722
  0
LINE
  5
211
330
EF
100
AcDbEntity
  8
64647040_EINSATZ
  6
Continuous
 62
     7
100
AcDbLine
 10
98.3678366754
 20
407.1046619596
 30
0.0
 11
98.346396583
 21
407.1046619596
 31
0.0
  0
ARC
  5
212
330
EF
100
AcDbEntity
  8
64647040_EINSATZ
  6
Continuous
 62
     7
100
AcDbCircle
 10
98.3459642958
 20
407.2042626911
 30
0.0
 40
0.0996016696680029
100
AcDbArc
 50
218.4642459761
 51
270.2486736273
  0
ARC
  5
213
330
EF
100
AcDbEntity
  8
64647040_EINSATZ
  6
Continuous
 62
     7
100
AcDbCircle
 10
96.6801785423
 20
407.1267696915
 30
0.0
 40
0.104398333144061
100
AcDbArc
 50
276.7320365773
 51
331.9805160661
  0
LINE
  5
214
330
EF
100
AcDbEntity
  8
64647040_EINSATZ
  6
Continuous
 62
     7
100
AcDbLine
 10
96.6924167459
 20
407.0230911579
 30
0.0
 11
96.6717072068
 21
407.0210124268
 31
0.0
  0
ARC
  5
215
330
EF
100
AcDbEntity
  8
64647040_EINSATZ
  6
Continuous
 62
     7
100
AcDbCircle
 10
96.6622435206
 20
407.1119180794
 30
0.0
 40
0.0913969312181569
100
AcDbArc
 50
215.9264580189
 51
275.9433385771
  0
ARC
  5
216
330
EF
100
AcDbEntity
  8
64647040_EINSATZ
  6
Continuous
 62
     7
100
AcDbCircle
 10
95.1008336144
 20
406.8856709189
 30
0.0
 40
0.1079521408981918
100
AcDbArc
 50
285.9194617315
 51
1.0939930913
  0
LINE
  5
217
330
EF
100
AcDbEntity
  8
64647040_EINSATZ
  6
Continuous
 62
     7
100
AcDbLine
 10
95.1304433623
 20
406.7818589371
 30
0.0
 11
95.1118756975
 21
406.7778431371
 31
0.0
  0
SPLINE
  5
218
330
EF
100
AcDbEntity
  8
64647040_EINSATZ
  6
Continuous
 62
     7
100
AcDbSpline
210
0.0
220
0.0
230
1.0
 70
     8
 71
     3
 72
    14
 73
    10
 74
     0
 42
0.0000000786077998
 43
0.0000000001
 40
0.0
 40
0.0
 40
0.0
 40
0.0
 40
0.2274863332652295
 40
0.2274863332652295
 40
0.2274863332652295
 40
0.4548919040073334
 40
0.4548919040073334
 40
0.4548919040073334
 40
0.4640245335791909
 40
0.4640245335791909
 40
0.4640245335791909
 40
0.4640245335791909
 10
95.11187569751428
 20
406.7778431371044
 30
0.0
 10
95.10229726904359
 20
406.7757635899955
 30
0.0
 10
95.09242667296141
 20
406.7755132526305
 30
0.0
 10
95.08308167749499
 20
406.7771065842595
 30
0.0
 10
95.07373852082061
 20
406.7786996023726
 30
0.0
 10
95.06466452275478
 20
406.7821775691411
 30
0.0
 10
95.05658966153406
 20
406.7872388535425
 30
0.0
 10
95.05626534361193
 20
406.7874421344653
 30
0.0
 10
95.05594228445914
 20
406.7876481863333
 30
0.0
 10
95.05562052030896
 20
406.7878569728984
 30
0.0
  0
SPLINE
  5
219
330
EF
100
AcDbEntity
  8
64647040_EINSATZ
  6
Continuous
 62
     7
100
AcDbSpline
210
0.0
220
0.0
230
1.0
 70
    12
 71
     2
 72
     6
 73
     3
 74
     0
 42
0.0000000098225984
 43
0.0000000001
 40
0.9010607234204309
 40
0.9010607234204309
 40
0.9010607234204309
 40
1.0
 40
1.0
 40
1.0
 10
93.84281531517689
 20
406.6106747213872
 30
0.0
 41
1.0
 10
93.84525183626127
 20
406.5603711679501
 30
0.0
 41
1.0
 10
93.84769468227758
 20
406.510066798549
 30
0.0
 41
1.0
  0
SPLINE
  5
21A
330
EF
100
AcDbEntity
  8
64647040_EINSATZ
  6
Continuous
 62
     7
100
AcDbSpline
210
0.0
220
0.0
230
1.0
 70
     8
 71
     3
 72
    20
 73
    16
 74
     0
 42
0.0000000736901362
 43
0.0000000001
 40
0.0
 40
0.0
 40
0.0
 40
0.0
 40
0.2354503935954051
 40
0.2354503935954051
 40
0.2354503935954051
 40
0.471057081217388
 40
0.471057081217388
 40
0.471057081217388
 40
0.7042698238249282
 40
0.7042698238249282
 40
0.7042698238249282
 40
0.9340165527358489
 40
0.9340165527358489
 40
0.9340165527358489
 40
1.0
 40
1.0
 40
1.0
 40
1.0
 10
93.8476946822776
 20
406.510066798549
 30
0.0
 10
93.84824195539991
 20
406.4987988588328
 30
0.0
 10
93.84736775327383
 20
406.4870707138165
 30
0.0
 10
93.84513457099607
 20
406.4758468966828
 30
0.0
 10
93.84290053128034
 20
406.4646187701262
 30
0.0
 10
93.83924228711803
 20
406.4535831224591
 30
0.0
 10
93.83445992852498
 20
406.4436815080469
 30
0.0
 10
93.8297261215084
 20
406.4338804170438
 30
0.0
 10
93.82375696704008
 20
406.4249159570126
 30
0.0
 10
93.81705843749958
 20
406.4175669509399
 30
0.0
 10
93.81045790119646
 20
406.4103254539695
 30
0.0
 10
93.80296466415504
 20
406.4044503384775
 30
0.0
 10
93.79521335584857
 20
406.4004474980729
 30
0.0
 10
93.79295713206601
 20
406.3992823652512
 30
0.0
 10
93.79066788197554
 20
406.3982656558438
 30
0.0
 10
93.78836242950065
 20
406.3974048744649
 30
0.0
  0
LINE
  5
21B
330
EF
100
AcDbEntity
  8
64647040_EINSATZ
  6
Continuous
 62
     7
100
AcDbLine
 10
93.7883624295
 20
406.3974048745
 30
0.0
 11
93.7732019947
 21
406.3917256756
 31
0.0
  0
SPLINE
  5
21C
330
EF
100
AcDbEntity
  8
64647040_EINSATZ
  6
Continuous
 62
     7
100
AcDbSpline
210
0.0
220
0.0
230
1.0
 70
     8
 71
     3
 72
    11
 73
     7
 74
     0
 42
0.0000000940342073
 43
0.0000000001
 40
0.0
 40
0.0
 40
0.0
 40
0.0
 40
0.2274863332652452
 40
0.2274863332652452
 40
0.2274863332652452
 40
0.3545422733893371
 40
0.3545422733893371
 40
0.3545422733893371
 40
0.3545422733893371
 10
93.77320199470776
 20
406.3917256756325
 30
0.0
 10
93.76538672096538
 20
406.388788307768
 30
0.0
 10
93.75723753002288
 20
406.3876492724631
 30
0.0
 10
93.74942863737576
 20
406.3883966104627
 30
0.0
 10
93.74506651481542
 20
406.3888140806593
 30
0.0
 10
93.74074373019901
 20
406.3898260545318
 30
0.0
 10
93.7365677038633
 20
406.3913915001984
 30
0.0
  0
SPLINE
  5
21D
330
EF
100
AcDbEntity
  8
64647040_EINSATZ
  6
Continuous
 62
     7
100
AcDbSpline
210
0.0
220
0.0
230
1.0
 70
    12
 71
     2
 72
     6
 73
     3
 74
     0
 42
0.0000000098565629
 43
0.0000000001
 40
0.7441142293943201
 40
0.7441142293943201
 40
0.7441142293943201
 40
1.0
 40
1.0
 40
1.0
 10
92.7677469377668
 20
406.2715926090381
 30
0.0
 41
1.0
 10
92.78081425071274
 20
406.1424502759167
 30
0.0
 41
1.0
 10
92.79393294105073
 20
406.0133071052014
 30
0.0
 41
1.0
  0
SPLINE
  5
21E
330
EF
100
AcDbEntity
  8
64647040_EINSATZ
  6
Continuous
 62
     7
100
AcDbSpline
210
0.0
220
0.0
230
1.0
 70
     8
 71
     3
 72
    20
 73
    16
 74
     0
 42
0.000000077999188
 43
0.0000000001
 40
0.0
 40
0.0
 40
0.0
 40
0.0
 40
0.2354503935964843
 40
0.2354503935964843
 40
0.2354503935964843
 40
0.4710570812181556
 40
0.4710570812181556
 40
0.4710570812181556
 40
0.7042698238253906
 40
0.7042698238253906
 40
0.7042698238253906
 40
0.9340165527360117
 40
0.9340165527360117
 40
0.9340165527360117
 40
1.0
 40
1.0
 40
1.0
 40
1.0
 10
92.7939329410507
 20
406.0133071052014
 30
0.0
 10
92.7950692389017
 20
406.00212219566
 30
0.0
 10
92.7951844694694
 20
405.9903566197651
 30
0.0
 10
92.79426475187165
 20
405.9789773082506
 30
0.0
 10
92.79334468114517
 20
405.9675936276107
 30
0.0
 10
92.79136194131343
 20
405.956279778495
 30
0.0
 10
92.78848146592847
 20
405.9460002492518
 30
0.0
 10
92.78563023377531
 20
405.9358250800937
 30
0.0
 10
92.78181878658197
 20
405.92637826139
 30
0.0
 10
92.77737354651586
 20
405.9184796680732
 30
0.0
 10
92.77299333616445
 20
405.9106966238072
 30
0.0
 10
92.76787546285387
 20
405.9041995549162
 30
0.0
 10
92.76245526814256
 20
405.8995471237268
 30
0.0
 10
92.76087757677354
 20
405.8981929102855
 30
0.0
 10
92.75926671974779
 20
405.8969838558101
 30
0.0
 10
92.75763454521267
 20
405.8959288789612
 30
0.0
  0
LINE
  5
21F
330
EF
100
AcDbEntity
  8
64647040_EINSATZ
  6
Continuous
 62
     7
100
AcDbLine
 10
92.7576345452
 20
405.895928879
 30
0.0
 11
92.746914499
 21
405.8889733093
 31
0.0
  0
SPLINE
  5
220
330
EF
100
AcDbEntity
  8
64647040_EINSATZ
  6
Continuous
 62
     7
100
AcDbSpline
210
0.0
220
0.0
230
1.0
 70
     8
 71
     3
 72
    11
 73
     7
 74
     0
 42
0.0000001248563803
 43
0.0000000001
 40
0.0
 40
0.0
 40
0.0
 40
0.0
 40
0.2274863332651585
 40
0.2274863332651585
 40
0.2274863332651585
 40
0.2974782529708722
 40
0.2974782529708722
 40
0.2974782529708722
 40
0.2974782529708722
 10
92.74691449896487
 20
405.8889733093176
 30
0.0
 10
92.74139497794097
 20
405.8853782974631
 30
0.0
 10
92.73552254603376
 20
405.8835477452539
 30
0.0
 10
92.729781919335
 20
405.8836268494996
 30
0.0
 10
92.72801539083292
 20
405.883651191773
 30
0.0
 10
92.72624642627788
 20
405.8838564125604
 30
0.0
 10
92.7244884329934
 20
405.884237199401
 30
0.0
  0
SPLINE
  5
221
330
EF
100
AcDbEntity
  8
64647040_EINSATZ
  6
Continuous
 62
     7
100
AcDbSpline
210
0.0
220
0.0
230
1.0
 70
    12
 71
     2
 72
     6
 73
     3
 74
     0
 42
0.0000000099207528
 43
0.0000000001
 40
0.474165339909365
 40
0.474165339909365
 40
0.474165339909365
 40
1.0
 40
1.0
 40
1.0
 10
92.04134041746745
 20
405.9555776614138
 30
0.0
 41
1.0
 10
92.08019645730067
 20
405.6934324594554
 30
0.0
 41
1.0
 10
92.11929297457542
 20
405.431306280274
 30
0.0
 41
1.0
  0
SPLINE
  5
222
330
EF
100
AcDbEntity
  8
64647040_EINSATZ
  6
Continuous
 62
     7
100
AcDbSpline
210
0.0
220
0.0
230
1.0
 70
     8
 71
     3
 72
    20
 73
    16
 74
     0
 42
0.0000000817830737
 43
0.0000000001
 40
0.0
 40
0.0
 40
0.0
 40
0.0
 40
0.2354503935705606
 40
0.2354503935705606
 40
0.2354503935705606
 40
0.4710570812001934
 40
0.4710570812001934
 40
0.4710570812001934
 40
0.7042698238153136
 40
0.7042698238153136
 40
0.7042698238153136
 40
0.9340165527336918
 40
0.9340165527336918
 40
0.9340165527336918
 40
1.0
 40
1.0
 40
1.0
 40
1.0
 10
92.11929297458349
 20
405.4313062802818
 30
0.0
 10
92.12094086033453
 20
405.4202586808035
 30
0.0
 10
92.12203767082325
 20
405.4085528802206
 30
0.0
 10
92.12249409513988
 20
405.3971507200573
 30
0.0
 10
92.1229506947022
 20
405.3857441819958
 30
0.0
 10
92.1227785796439
 20
405.3743240599759
 30
0.0
 10
92.1219962871043
 20
405.3638638907336
 30
0.0
 10
92.1212219365739
 20
405.3535099154744
 30
0.0
 10
92.11982794048306
 20
405.3438063752725
 30
0.0
 10
92.11793892565575
 20
405.3355953898467
 30
0.0
 10
92.11607754535285
 20
405.3275045234766
 30
0.0
 10
92.11368381038156
 20
405.3206369978874
 30
0.0
 10
92.11096410657768
 20
405.3155831240488
 30
0.0
 10
92.11017246468174
 20
405.3141120600815
 30
0.0
 10
92.10934977796492
 20
405.3127829883547
 30
0.0
 10
92.10850211136686
 20
405.3116057109646
 30
0.0
  0
LINE
  5
223
330
EF
100
AcDbEntity
  8
64647040_EINSATZ
  6
Continuous
 62
     7
100
AcDbLine
 10
92.1085021114
 20
405.311605711
 30
0.0
 11
92.1029530071
 21
405.3038477811
 31
0.0
  0
SPLINE
  5
224
330
EF
100
AcDbEntity
  8
64647040_EINSATZ
  6
Continuous
 62
     7
100
AcDbSpline
210
0.0
220
0.0
230
1.0
 70
     8
 71
     3
 72
    11
 73
     7
 74
     0
 42
0.0000001927612834
 43
0.0000000001
 40
0.0
 40
0.0
 40
0.0
 40
0.0
 40
0.2274863333433286
 40
0.2274863333433286
 40
0.2274863333433286
 40
0.2698074440457102
 40
0.2698074440457102
 40
0.2698074440457102
 40
0.2698074440457102
 10
92.10295300710023
 20
405.3038477810863
 30
0.0
 10
92.10010538503116
 20
405.2998401193587
 30
0.0
 10
92.09690990868904
 20
405.297562357015
 30
0.0
 10
92.09362876216133
 20
405.2971965264084
 30
0.0
 10
92.09301824746973
 20
405.2971284572264
 30
0.0
 10
92.09240164766925
 20
405.2971261750445
 30
0.0
 10
92.09178071881627
 20
405.2971887382238
 30
0.0
  0
SPLINE
  5
225
330
EF
100
AcDbEntity
  8
64647040_EINSATZ
  6
Continuous
 62
     7
100
AcDbSpline
210
0.0
220
0.0
230
1.0
 70
    12
 71
     2
 72
     6
 73
     3
 74
     0
 42
0.0000000100221455
 43
0.0000000001
 40
0.4639580162840231
 40
0.4639580162840231
 40
0.4639580162840231
 40
1.0
 40
1.0
 40
1.0
 10
91.77098142240845
 20
405.3293855280085
 30
0.0
 41
1.0
 10
91.82023724517856
 20
405.0665337313992
 30
0.0
 41
1.0
 10
91.86975038167198
 20
404.8037267181828
 30
0.0
 41
1.0
  0
ARC
  5
226
330
EF
100
AcDbEntity
  8
64647040_EINSATZ
  6
Continuous
 62
     7
100
AcDbCircle
 10
91.0057972075
 20
404.6312505022
 30
0.0
 40
0.8810012101320721
100
AcDbArc
 50
3.4492894613
 51
11.2898813802
  0
LINE
  5
227
330
EF
100
AcDbEntity
  8
64647040_EINSATZ
  6
Continuous
 62
     7
100
AcDbLine
 10
91.8852024306
 20
404.6842560287
 30
0.0
 11
91.8852024306
 21
404.6762244287
 31
0.0
  0
ARC
  5
228
330
EF
100
AcDbEntity
  8
64647040_EINSATZ
  6
Continuous
 62
     7
100
AcDbCircle
 10
102.4132601986
 20
404.6802402287
 30
0.0
 40
0.6621256612767852
100
AcDbArc
 50
359.6524982857
 51
0.3475017143
  0
ARC
  5
229
330
EF
100
AcDbEntity
  8
64647040_EINSATZ
  6
Continuous
 62
     7
100
AcDbCircle
 10
104.0680021869
 20
404.641780121
 30
0.0
 40
0.9935368900399217
100
AcDbArc
 50
170.6189250212
 51
177.5497314251
  0
SPLINE
  5
22A
330
EF
100
AcDbEntity
  8
64647040_EINSATZ
  6
Continuous
 62
     7
100
AcDbSpline
210
0.0
220
0.0
230
1.0
 70
    12
 71
     2
 72
     6
 73
     3
 74
     0
 42
0.0000000100768653
 43
0.0000000001
 40
0.0
 40
0.0
 40
0.0
 40
0.3516191261412618
 40
0.3516191261412618
 40
0.3516191261412618
 10
103.0877528046092
 20
404.8037267181833
 30
0.0
 41
1.0
 10
103.1146352207651
 20
404.9761126384806
 30
0.0
 41
1.0
 10
103.1413662569446
 20
405.1485202965613
 30
0.0
 41
1.0
  0
SPLINE
  5
22B
330
EF
100
AcDbEntity
  8
64647040_EINSATZ
  6
Continuous
 62
     7
100
AcDbSpline
210
0.0
220
0.0
230
1.0
 70
     8
 71
     3
 72
    11
 73
     7
 74
     0
 42
0.0000001969382351
 43
0.0000000001
 40
0.7293613024647133
 40
0.7293613024647133
 40
0.7293613024647133
 40
0.7293613024647133
 40
0.9310036385212338
 40
0.9310036385212338
 40
0.9310036385212338
 40
1.0
 40
1.0
 40
1.0
 40
1.0
 10
102.9283023919723
 20
405.1271358621858
 30
0.0
 10
102.9254890333157
 20
405.1268532854955
 30
0.0
 10
102.9226808796286
 20
405.1280363640939
 30
0.0
 10
102.920053886039
 20
405.1306265916032
 30
0.0
 10
102.919143084425
 20
405.1315246460961
 30
0.0
 10
102.9182486259534
 20
405.1325923818579
 30
0.0
 10
102.9173775235344
 20
405.1338213899288
 30
0.0
  0
SPLINE
  5
22C
330
EF
100
AcDbEntity
  8
64647040_EINSATZ
  6
Continuous
 62
     7
100
AcDbSpline
210
0.0
220
0.0
230
1.0
 70
    12
 71
     2
 72
     6
 73
     3
 74
     0
 42
0.0000010484016844
 43
0.0000000001
 40
0.0
 40
0.0
 40
0.0
 40
1.0
 40
1.0
 40
1.0
 10
102.9173775235344
 20
405.1338213899288
 30
0.0
 41
1.0
 10
102.9146264978023
 20
405.137702716343
 30
0.0
 41
1.0
 10
102.9118284192678
 20
405.1415793198071
 30
0.0
 41
1.0
  0
SPLINE
  5
22D
330
EF
100
AcDbEntity
  8
64647040_EINSATZ
  6
Continuous
 62
     7
100
AcDbSpline
210
0.0
220
0.0
230
1.0
 70
     8
 71
     3
 72
    20
 73
    16
 74
     0
 42
0.0000000818615402
 43
0.0000000001
 40
0.0
 40
0.0
 40
0.0
 40
0.0
 40
0.2289377704749248
 40
0.2289377704749248
 40
0.2289377704749248
 40
0.4578289888433252
 40
0.4578289888433252
 40
0.4578289888433252
 40
0.6874672639041093
 40
0.6874672639041093
 40
0.6874672639041093
 40
0.9190278165324414
 40
0.9190278165324414
 40
0.9190278165324414
 40
1.0
 40
1.0
 40
1.0
 40
1.0
 10
102.9118284192678
 20
405.1415793198071
 30
0.0
 10
102.9089273751936
 20
405.1455985770827
 30
0.0
 10
102.9062294750208
 20
405.1514656076703
 30
0.0
 10
102.903963924675
 20
405.1586900175533
 30
0.0
 10
102.9016986283888
 20
405.1659136172884
 30
0.0
 10
102.8998037771754
 20
405.1746918697431
 30
0.0
 10
102.8984474696968
 20
405.1842946907872
 30
0.0
 10
102.897086645239
 20
405.1939294925913
 30
0.0
 10
102.8962313316397
 20
405.2046563002492
 30
0.0
 10
102.8959638984565
 20
405.2155948854883
 30
0.0
 10
102.8956942391266
 20
405.2266245248576
 30
0.0
 10
102.89601531772
 20
405.2381691920273
 30
0.0
 10
102.8969086388401
 20
405.2492906961342
 30
0.0
 10
102.8972248644581
 20
405.2532275833627
 30
0.0
 10
102.8976130552091
 20
405.2571379805521
 30
0.0
 10
102.8980693373464
 20
405.2609819525777
 30
0.0
  0
SPLINE
  5
22E
330
EF
100
AcDbEntity
  8
64647040_EINSATZ
  6
Continuous
 62
     7
100
AcDbSpline
210
0.0
220
0.0
230
1.0
 70
    12
 71
     2
 72
     6
 73
     3
 74
     0
 42
0.0000000099917357
 43
0.0000000001
 40
0.0
 40
0.0
 40
0.0
 40
0.399733656306697
 40
0.399733656306697
 40
0.399733656306697
 10
102.8980693373464
 20
405.2609819525777
 30
0.0
 41
1.0
 10
102.9216452855672
 20
405.4596265733726
 30
0.0
 41
1.0
 10
102.9450314048654
 20
405.6582802773778
 30
0.0
 41
1.0
  0
SPLINE
  5
22F
330
EF
100
AcDbEntity
  8
64647040_EINSATZ
  6
Continuous
 62
     7
100
AcDbSpline
210
0.0
220
0.0
230
1.0
 70
     8
 71
     3
 72
    11
 73
     7
 74
     0
 42
0.0000001262963075
 43
0.0000000001
 40
0.702189934660789
 40
0.702189934660789
 40
0.702189934660789
 40
0.702189934660789
 40
0.9310036384966712
 40
0.9310036384966712
 40
0.9310036384966712
 40
1.0
 40
1.0
 40
1.0
 40
1.0
 10
102.4707516087696
 20
405.5557032235303
 30
0.0
 10
102.4651969929621
 20
405.5545018562999
 30
0.0
 10
102.4593656806836
 20
405.5551830825609
 30
0.0
 10
102.4537317545482
 20
405.5576974749222
 30
0.0
 10
102.4520103790521
 20
405.5584657159845
 30
0.0
 10
102.4502976744722
 20
405.5594048719562
 30
0.0
 10
102.4486071214825
 20
405.5605075445782
 30
0.0
  0
LINE
  5
230
330
EF
100
AcDbEntity
  8
64647040_EINSATZ
  6
Continuous
 62
     7
100
AcDbLine
 10
102.4486071215
 20
405.5605075446
 30
0.0
 11
102.4378870752
 21
405.5674631142
 31
0.0
  0
SPLINE
  5
231
330
EF
100
AcDbEntity
  8
64647040_EINSATZ
  6
Continuous
 62
     7
100
AcDbSpline
210
0.0
220
0.0
230
1.0
 70
     8
 71
     3
 72
    20
 73
    16
 74
     0
 42
0.0000000779754339
 43
0.0000000001
 40
0.0
 40
0.0
 40
0.0
 40
0.0
 40
0.228937770474167
 40
0.228937770474167
 40
0.228937770474167
 40
0.4578289888418133
 40
0.4578289888418133
 40
0.4578289888418133
 40
0.6874672639018289
 40
0.6874672639018289
 40
0.6874672639018289
 40
0.9190278165293866
 40
0.9190278165293866
 40
0.9190278165293866
 40
1.0
 40
1.0
 40
1.0
 40
1.0
 10
102.4378870752347
 20
405.5674631142219
 30
0.0
 10
102.4323079410485
 20
405.571064146968
 30
0.0
 10
102.4268697238864
 20
405.5765299213862
 30
0.0
 10
102.4220282984671
 20
405.5834038301943
 30
0.0
 10
102.4171874159671
 20
405.5902769681599
 30
0.0
 10
102.4128105675452
 20
405.5987459135991
 30
0.0
 10
102.4092671061086
 20
405.608107088361
 30
0.0
 10
102.4057118437034
 20
405.6174994391161
 30
0.0
 10
102.4028987977005
 20
405.6280453310053
 30
0.0
 10
102.4010649289291
 20
405.638880284458
 30
0.0
 10
102.3992157948082
 20
405.6498054293974
 30
0.0
 10
102.3983119371302
 20
405.6613213551301
 30
0.0
 10
102.3984292466421
 20
405.672492701411
 30
0.0
 10
102.3984707728884
 20
405.6764472322081
 30
0.0
 10
102.3986374284206
 20
405.6803849932476
 30
0.0
 10
102.3989274473028
 20
405.6842657712677
 30
0.0
  0
SPLINE
  5
232
330
EF
100
AcDbEntity
  8
64647040_EINSATZ
  6
Continuous
 62
     7
100
AcDbSpline
210
0.0
220
0.0
230
1.0
 70
    12
 71
     2
 72
     6
 73
     3
 74
     0
 42
0.0000000099390778
 43
0.0000000001
 40
0.0
 40
0.0
 40
0.0
 40
0.5026364716425535
 40
0.5026364716425535
 40
0.5026364716425535
 10
102.3989274473028
 20
405.6842657712677
 30
0.0
 41
1.0
 10
102.4177691416951
 20
405.9364384337832
 30
0.0
 41
1.0
 10
102.4363403400637
 20
406.1885973152552
 30
0.0
 41
1.0
  0
LINE
  5
233
330
EF
100
AcDbEntity
  8
64647040_EINSATZ
  6
Continuous
 62
     7
100
AcDbLine
 10
94.2763461832
 20
405.5674631142
 30
0.0
 11
94.2656261369
 21
405.5605075446
 31
0.0
  0
SPLINE
  5
234
330
EF
100
AcDbEntity
  8
64647040_EINSATZ
  6
Continuous
 62
     7
100
AcDbSpline
210
0.0
220
0.0
230
1.0
 70
     8
 71
     3
 72
    11
 73
     7
 74
     0
 42
0.0000001267807067
 43
0.0000000001
 40
0.0
 40
0.0
 40
0.0
 40
0.0
 40
0.2289377704741384
 40
0.2289377704741384
 40
0.2289377704741384
 40
0.2997968449762227
 40
0.2997968449762227
 40
0.2997968449762227
 40
0.2997968449762227
 10
94.26562613692045
 20
405.5605075445782
 30
0.0
 10
94.26009074152535
 20
405.5568970520405
 30
0.0
 10
94.25426060585727
 20
405.5550514948591
 30
0.0
 10
94.24861426483574
 20
405.5551205459084
 30
0.0
 10
94.24686649296741
 20
405.5551419200126
 30
0.0
 10
94.24512142669953
 20
405.5553468416656
 30
0.0
 10
94.24339231673672
 20
405.5557301442643
 30
0.0
  0
SPLINE
  5
235
330
EF
100
AcDbEntity
  8
64647040_EINSATZ
  6
Continuous
 62
     7
100
AcDbSpline
210
0.0
220
0.0
230
1.0
 70
    12
 71
     2
 72
     6
 73
     3
 74
     0
 42
0.0000000099917357
 43
0.0000000001
 40
0.6002663437041115
 40
0.6002663437041115
 40
0.6002663437041115
 40
1.0
 40
1.0
 40
1.0
 10
93.76920185353741
 20
405.6582802773779
 30
0.0
 41
1.0
 10
93.79258797283522
 20
405.4596265733763
 30
0.0
 41
1.0
 10
93.81616392105643
 20
405.2609819525777
 30
0.0
 41
1.0
  0
SPLINE
  5
236
330
EF
100
AcDbEntity
  8
64647040_EINSATZ
  6
Continuous
 62
     7
100
AcDbSpline
210
0.0
220
0.0
230
1.0
 70
     8
 71
     3
 72
    20
 73
    16
 74
     0
 42
0.0000000818780493
 43
0.0000000001
 40
0.0
 40
0.0
 40
0.0
 40
0.0
 40
0.2340589631874801
 40
0.2340589631874801
 40
0.2340589631874801
 40
0.4682296685041973
 40
0.4682296685041973
 40
0.4682296685041973
 40
0.7007223725396423
 40
0.7007223725396423
 40
0.7007223725396423
 40
0.9310036385124791
 40
0.9310036385124791
 40
0.9310036385124791
 40
1.0
 40
1.0
 40
1.0
 40
1.0
 10
93.8161639210117
 20
405.2609819525333
 30
0.0
 10
93.8174668280758
 20
405.2500055462605
 30
0.0
 10
93.81821163896647
 20
405.2383771671962
 30
0.0
 10
93.81834205450805
 20
405.22705417001
 30
0.0
 10
93.81847250642035
 20
405.2157280150285
 30
0.0
 10
93.81799180154502
 20
405.2043933221762
 30
0.0
 10
93.81695243038051
 20
405.1940078389712
 30
0.0
 10
93.81592048057257
 20
405.1836965105791
 30
0.0
 10
93.81430956239336
 20
405.1740335994116
 30
0.0
 10
93.81226933985991
 20
405.1658432734965
 30
0.0
 10
93.8102482018433
 20
405.1577295609949
 30
0.0
 10
93.80775019939497
 20
405.1508354784242
 30
0.0
 10
93.80499291165007
 20
405.14574446928
 30
0.0
 10
93.80415582583818
 20
405.1441988882898
 30
0.0
 10
93.80329084065495
 20
405.1428068323729
 30
0.0
 10
93.80240483913512
 20
405.1415793198071
 30
0.0
  0
SPLINE
  5
237
330
EF
100
AcDbEntity
  8
64647040_EINSATZ
  6
Continuous
 62
     7
100
AcDbSpline
210
0.0
220
0.0
230
1.0
 70
    12
 71
     2
 72
     6
 73
     3
 74
     0
 42
0.0000010484016844
 43
0.0000000001
 40
0.0
 40
0.0
 40
0.0
 40
1.0
 40
1.0
 40
1.0
 10
93.80240483913512
 20
405.1415793198071
 30
0.0
 41
1.0
 10
93.79960676060067
 20
405.1377027163431
 30
0.0
 41
1.0
 10
93.7968557348685
 20
405.1338213899288
 30
0.0
 41
1.0
  0
SPLINE
  5
238
330
EF
100
AcDbEntity
  8
64647040_EINSATZ
  6
Continuous
 62
     7
100
AcDbSpline
210
0.0
220
0.0
230
1.0
 70
     8
 71
     3
 72
    11
 73
     7
 74
     0
 42
0.0000001969127222
 43
0.0000000001
 40
0.0
 40
0.0
 40
0.0
 40
0.0
 40
0.2289377704741448
 40
0.2289377704741448
 40
0.2289377704741448
 40
0.2705545631305583
 40
0.2705545631305583
 40
0.2705545631305583
 40
0.2705545631305583
 10
93.79685573486849
 20
405.1338213899289
 30
0.0
 10
93.79400347507672
 20
405.1297972359048
 30
0.0
 10
93.79086844661069
 20
405.1275095357123
 30
0.0
 10
93.7877051295656
 20
405.127144112982
 30
0.0
 10
93.78713004264198
 20
405.127077679605
 30
0.0
 10
93.78655113320883
 20
405.1270744170227
 30
0.0
 10
93.78596992964931
 20
405.1271334862985
 30
0.0
  0
SPLINE
  5
239
330
EF
100
AcDbEntity
  8
64647040_EINSATZ
  6
Continuous
 62
     7
100
AcDbSpline
210
0.0
220
0.0
230
1.0
 70
    12
 71
     2
 72
     6
 73
     3
 74
     0
 42
0.0000000100768653
 43
0.0000000001
 40
0.6483808738550543
 40
0.6483808738550543
 40
0.6483808738550543
 40
1.0
 40
1.0
 40
1.0
 10
93.57286700145833
 20
405.1485202965613
 30
0.0
 41
1.0
 10
93.59959803763793
 20
404.9761126384794
 30
0.0
 41
1.0
 10
93.62648045379376
 20
404.8037267181828
 30
0.0
 41
1.0
  0
ARC
  5
23A
330
EF
100
AcDbEntity
  8
64647040_EINSATZ
  6
Continuous
 62
     7
100
AcDbCircle
 10
92.6158122915
 20
404.6386282365
 30
0.0
 40
1.024064276729561
100
AcDbArc
 50
2.5536929042
 51
9.2776506509
  0
ARC
  5
23B
330
EF
100
AcDbEntity
  8
64647040_EINSATZ
  6
Continuous
 62
     7
100
AcDbCircle
 10
94.3009730598
 20
404.6802402287
 30
0.0
 40
0.6621256612767852
100
AcDbArc
 50
179.6524982857
 51
180.3475017143
  0
SPLINE
  5
23C
330
EF
100
AcDbEntity
  8
64647040_EINSATZ
  6
Continuous
 62
     7
100
AcDbSpline
210
0.0
220
0.0
230
1.0
 70
    12
 71
     2
 72
     6
 73
     3
 74
     0
 42
0.0000000102058168
 43
0.0000000001
 40
0.3443304522458757
 40
0.3443304522458757
 40
0.3443304522458757
 40
1.0
 40
1.0
 40
1.0
 10
106.1304399294496
 20
404.6689426519666
 30
0.0
 41
1.0
 10
106.1215327709573
 20
404.3478307520795
 30
0.0
 41
1.0
 10
106.1122826014315
 20
404.0267524716311
 30
0.0
 41
1.0
  0
ARC
  5
23D
330
EF
100
AcDbEntity
  8
64647040_EINSATZ
  6
Continuous
 62
     7
100
AcDbCircle
 10
105.839697631
 20
404.0225721828
 30
0.0
 40
0.2726170224244526
100
AcDbArc
 50
335.2590049672
 51
0.8786035849
  0
LINE
  5
23E
330
EF
100
AcDbEntity
  8
64647040_EINSATZ
  6
Continuous
 62
     7
100
AcDbLine
 10
106.0872908539
 20
403.9084773237
 30
0.0
 11
106.0817417497
 21
403.9007193938
 31
0.0
  0
SPLINE
  5
23F
330
EF
100
AcDbEntity
  8
64647040_EINSATZ
  6
Continuous
 62
     7
100
AcDbSpline
210
0.0
220
0.0
230
1.0
 70
     8
 71
     3
 72
    11
 73
     7
 74
     0
 42
0.0000002087285402
 43
0.0000000001
 40
0.0
 40
0.0
 40
0.0
 40
0.0
 40
0.231584040150168
 40
0.231584040150168
 40
0.231584040150168
 40
0.2714434918721202
 40
0.2714434918721202
 40
0.2714434918721202
 40
0.2714434918721202
 10
106.081741749652
 20
403.9007193937912
 30
0.0
 10
106.0788305557118
 20
403.8966711034026
 30
0.0
 10
106.0758552908277
 20
403.8943609627545
 30
0.0
 10
106.0730660191491
 20
403.8939798452142
 30
0.0
 10
106.0725859384938
 20
403.8939142484637
 30
0.0
 10
106.0721090986119
 20
403.8939054844458
 30
0.0
 10
106.0716366788394
 20
403.8939528989969
 30
0.0
  0
SPLINE
  5
240
330
EF
100
AcDbEntity
  8
64647040_EINSATZ
  6
Continuous
 62
     7
100
AcDbSpline
210
0.0
220
0.0
230
1.0
 70
    12
 71
     2
 72
     6
 73
     3
 74
     0
 42
0.0000000102362469
 43
0.0000000001
 40
0.319515226224049
 40
0.319515226224049
 40
0.319515226224049
 40
1.0
 40
1.0
 40
1.0
 10
105.3775415739202
 20
403.9636193135257
 30
0.0
 41
1.0
 10
105.358788539274
 20
403.631733025302
 30
0.0
 41
1.0
 10
105.3397042227917
 20
403.2999175088396
 30
0.0
 41
1.0
  0
SPLINE
  5
241
330
EF
100
AcDbEntity
  8
64647040_EINSATZ
  6
Continuous
 62
     7
100
AcDbSpline
210
0.0
220
0.0
230
1.0
 70
     8
 71
     3
 72
    20
 73
    16
 74
     0
 42
0.0000000778208788
 43
0.0000000001
 40
0.0
 40
0.0
 40
0.0
 40
0.0
 40
0.2315845260763442
 40
0.2315845260763442
 40
0.2315845260763442
 40
0.4631680514514231
 40
0.4631680514514231
 40
0.4631680514514231
 40
0.6947657379533895
 40
0.6947657379533895
 40
0.6947657379533895
 40
0.9263670666172419
 40
0.9263670666172419
 40
0.9263670666172419
 40
1.0
 40
1.0
 40
1.0
 40
1.0
 10
105.3397042231752
 20
403.2999175090076
 30
0.0
 10
105.3390874382836
 20
403.2891935684106
 30
0.0
 10
105.3375252817864
 20
403.2778962197793
 30
0.0
 10
105.3351418316027
 20
403.266962179798
 30
0.0
 10
105.3327583875047
 20
403.2560281677351
 30
0.0
 10
105.3294875520767
 20
403.2451559741667
 30
0.0
 10
105.3255907395303
 20
403.2352477760078
 30
0.0
 10
105.3216936945705
 20
403.2253389869052
 30
0.0
 10
105.3170626297407
 20
403.2161211105511
 30
0.0
 10
105.3120716101921
 20
403.2083594586351
 30
0.0
 10
105.3070805213714
 20
403.2005976989924
 30
0.0
 10
105.3015914174224
 20
403.1940782025128
 30
0.0
 10
105.2960536538471
 20
403.1893421104696
 30
0.0
 10
105.2942702936668
 20
403.1878169175203
 30
0.0
 10
105.2924717285021
 20
403.1864632569118
 30
0.0
 10
105.2906736624035
 20
403.1852929851859
 30
0.0
  0
LINE
  5
242
330
EF
100
AcDbEntity
  8
64647040_EINSATZ
  6
Continuous
 62
     7
100
AcDbLine
 10
105.2906736624
 20
403.1852929852
 30
0.0
 11
105.2799536162
 21
403.1783374155
 31
0.0
  0
SPLINE
  5
243
330
EF
100
AcDbEntity
  8
64647040_EINSATZ
  6
Continuous
 62
     7
100
AcDbSpline
210
0.0
220
0.0
230
1.0
 70
     8
 71
     3
 72
    11
 73
     7
 74
     0
 42
0.0000001320134094
 43
0.0000000001
 40
0.0
 40
0.0
 40
0.0
 40
0.0
 40
0.2315840401501863
 40
0.2315840401501863
 40
0.2315840401501863
 40
0.2991883503267259
 40
0.2991883503267259
 40
0.2991883503267259
 40
0.2991883503267259
 10
105.2799536161557
 20
403.1783374155422
 30
0.0
 10
105.2743446187144
 20
403.174709323046
 30
0.0
 10
105.2686368300993
 20
403.1728274123068
 30
0.0
 10
105.263306219117
 20
403.1728467502759
 30
0.0
 10
105.2617500978283
 20
403.1728523954496
 30
0.0
 10
105.2602136153699
 20
403.1730200998527
 30
0.0
 10
105.2587074864013
 20
403.1733458596352
 30
0.0
  0
SPLINE
  5
244
330
EF
100
AcDbEntity
  8
64647040_EINSATZ
  6
Continuous
 62
     7
100
AcDbSpline
210
0.0
220
0.0
230
1.0
 70
    12
 71
     2
 72
     6
 73
     3
 74
     0
 42
0.0000000102889054
 43
0.0000000001
 40
0.4262845666047969
 40
0.4262845666047969
 40
0.4262845666047969
 40
1.0
 40
1.0
 40
1.0
 10
104.1370606209946
 20
403.2284772836764
 30
0.0
 41
1.0
 10
104.1142634750775
 20
402.9505801563503
 30
0.0
 41
1.0
 10
104.0912740389205
 20
402.6727544313715
 30
0.0
 41
1.0
  0
ARC
  5
245
330
EF
100
AcDbEntity
  8
64647040_EINSATZ
  6
Continuous
 62
     7
100
AcDbCircle
 10
103.9613565111
 20
402.6793069186
 30
0.0
 40
0.1300826633659391
100
AcDbArc
 50
297.5615993981
 51
357.1126913355
  0
LINE
  5
246
330
EF
100
AcDbEntity
  8
64647040_EINSATZ
  6
Continuous
 62
     7
100
AcDbLine
 10
104.0215460173
 20
402.5639868308
 30
0.0
 11
104.0063855825
 21
402.558307632
 31
0.0
  0
SPLINE
  5
247
330
EF
100
AcDbEntity
  8
64647040_EINSATZ
  6
Continuous
 62
     7
100
AcDbSpline
210
0.0
220
0.0
230
1.0
 70
     8
 71
     3
 72
    11
 73
     7
 74
     0
 42
0.0000000982858632
 43
0.0000000001
 40
0.0
 40
0.0
 40
0.0
 40
0.0
 40
0.2315840404747507
 40
0.2315840404747507
 40
0.2315840404747507
 40
0.3564575717756087
 40
0.3564575717756087
 40
0.3564575717756087
 40
0.3564575717756087
 10
104.0063855825275
 20
402.5583076320002
 30
0.0
 10
103.9984610254915
 20
402.5553469859041
 30
0.0
 10
103.9904096895069
 20
402.5541436462085
 30
0.0
 10
103.9829010115501
 20
402.5547961908638
 30
0.0
 10
103.978852215137
 20
402.5551480531324
 30
0.0
 10
103.9749010552696
 20
402.556044720059
 30
0.0
 10
103.9711417185186
 20
402.5574529835347
 30
0.0
  0
SPLINE
  5
248
330
EF
100
AcDbEntity
  8
64647040_EINSATZ
  6
Continuous
 62
     7
100
AcDbSpline
210
0.0
220
0.0
230
1.0
 70
    12
 71
     2
 72
     6
 73
     3
 74
     0
 42
0.0000000103647713
 43
0.0000000001
 40
0.7801681169227456
 40
0.7801681169227456
 40
0.7801681169227456
 40
1.0
 40
1.0
 40
1.0
 10
102.4737551258336
 20
402.3989871923269
 30
0.0
 41
1.0
 10
102.4629227983363
 20
402.2934888491937
 30
0.0
 41
1.0
 10
102.4520705037199
 20
402.18800336652
 30
0.0
 41
1.0
  0
ARC
  5
249
330
EF
100
AcDbEntity
  8
64647040_EINSATZ
  6
Continuous
 62
     7
100
AcDbCircle
 10
102.3354272662
 20
402.1999940833
 30
0.0
 40
0.1172579310339419
100
AcDbArc
 50
285.3143856344
 51
354.1307127043
  0
LINE
  5
24A
330
EF
100
AcDbEntity
  8
64647040_EINSATZ
  6
Continuous
 62
     7
100
AcDbLine
 10
102.3663968703
 20
402.0868998483
 30
0.0
 11
102.3478292056
 21
402.0828840483
 31
0.0
  0
ARC
  5
24B
330
EF
100
AcDbEntity
  8
64647040_EINSATZ
  6
Continuous
 62
     7
100
AcDbCircle
 10
102.3310026367
 20
402.1505208987
 30
0.0
 40
0.0696984716661771
100
AcDbArc
 50
237.2503850908
 51
283.9703344753
  0
SPLINE
  5
24C
330
EF
100
AcDbEntity
  8
64647040_EINSATZ
  6
Continuous
 62
     7
100
AcDbSpline
210
0.0
220
0.0
230
1.0
 70
    12
 71
     2
 72
     6
 73
     3
 74
     0
 42
0.0000000104622356
 43
0.0000000001
 40
0.8893344723639798
 40
0.8893344723639798
 40
0.8893344723639798
 40
1.0
 40
1.0
 40
1.0
 10
100.5460390159874
 20
401.9837653265301
 30
0.0
 41
1.0
 10
100.5399221329432
 20
401.9312304934395
 30
0.0
 41
1.0
 10
100.5338026292022
 20
401.8786992982658
 30
0.0
 41
1.0
  0
ARC
  5
24D
330
EF
100
AcDbEntity
  8
64647040_EINSATZ
  6
Continuous
 62
     7
100
AcDbCircle
 10
100.4269106695
 20
401.8939452435
 30
0.0
 40
0.1079737487493106
100
AcDbArc
 50
275.9065807044
 51
351.8826811319
  0
LINE
  5
24E
330
EF
100
AcDbEntity
  8
64647040_EINSATZ
  6
Continuous
 62
     7
100
AcDbLine
 10
100.4380219006
 20
401.7865447269
 30
0.0
 11
100.4173123615
 21
401.7844659959
 31
0.0
  0
ARC
  5
24F
330
EF
100
AcDbEntity
  8
64647040_EINSATZ
  6
Continuous
 62
     7
100
AcDbCircle
 10
100.405443338
 20
401.8686931359
 30
0.0
 40
0.0850593018697636
100
AcDbArc
 50
215.3917214117
 51
278.0211258781
  0
LINE
  5
250
330
EF
100
AcDbEntity
  8
64647040_EINSATZ
  6
Continuous
 62
     7
100
AcDbLine
 10
98.4758942214
 20
401.8369499197
 30
0.0
 11
98.4671972009
 21
401.7659207877
 31
0.0
  0
ARC
  5
251
330
EF
100
AcDbEntity
  8
64647040_EINSATZ
  6
Continuous
 62
     7
100
AcDbCircle
 10
98.3707310505
 20
401.7809820968
 30
0.0
 40
0.0976348359915273
100
AcDbArc
 50
268.3012234165
 51
351.126024165
  0
LINE
  5
252
330
EF
100
AcDbEntity
  8
64647040_EINSATZ
  6
Continuous
 62
     7
100
AcDbLine
 10
98.3678366754
 20
401.683390172
 30
0.0
 11
98.346396583
 21
401.683390172
 31
0.0
  0
ARC
  5
253
330
EF
100
AcDbEntity
  8
64647040_EINSATZ
  6
Continuous
 62
     7
100
AcDbCircle
 10
98.343819717
 20
401.7813643534
 30
0.0
 40
0.0980080632271456
100
AcDbArc
 50
189.0661359812
 51
271.5066164577
  0
LINE
  5
254
330
EF
100
AcDbEntity
  8
64647040_EINSATZ
  6
Continuous
 62
     7
100
AcDbLine
 10
98.2470360575
 20
401.7659207877
 30
0.0
 11
98.2383390371
 21
401.8369499197
 31
0.0
  0
ARC
  5
255
330
EF
100
AcDbEntity
  8
64647040_EINSATZ
  6
Continuous
 62
     7
100
AcDbCircle
 10
96.3090071429
 20
401.8684065251
 30
0.0
 40
0.0848061895918278
100
AcDbArc
 50
261.8065325777
 51
324.7026742797
  0
LINE
  5
256
330
EF
100
AcDbEntity
  8
64647040_EINSATZ
  6
Continuous
 62
     7
100
AcDbLine
 10
96.2969208969
 20
401.7844659959
 30
0.0
 11
96.2762113578
 21
401.7865447269
 31
0.0
  0
ARC
  5
257
330
EF
100
AcDbEntity
  8
64647040_EINSATZ
  6
Continuous
 62
     7
100
AcDbCircle
 10
96.2874671438
 20
401.8940954846
 30
0.0
 40
0.1081381440066368
100
AcDbArc
 50
188.185310333
 51
264.025426848
  0
SPLINE
  5
258
330
EF
100
AcDbEntity
  8
64647040_EINSATZ
  6
Continuous
 62
     7
100
AcDbSpline
210
0.0
220
0.0
230
1.0
 70
    12
 71
     2
 72
     6
 73
     3
 74
     0
 42
0.0000000104622574
 43
0.0000000001
 40
0.0
 40
0.0
 40
0.0
 40
0.1032984916027007
 40
0.1032984916027007
 40
0.1032984916027007
 10
96.18043062838893
 20
401.8786992982588
 30
0.0
 41
1.0
 10
96.17471850177336
 20
401.9277334766498
 30
0.0
 41
1.0
 10
96.16900865854743
 20
401.9767708247246
 30
0.0
 41
1.0
  0
ARC
  5
259
330
EF
100
AcDbEntity
  8
64647040_EINSATZ
  6
Continuous
 62
     7
100
AcDbCircle
 10
94.3831573426
 20
402.1506200314
 30
0.0
 40
0.0697770458281119
100
AcDbArc
 50
256.1077088569
 51
302.8170795172
  0
LINE
  5
25A
330
EF
100
AcDbEntity
  8
64647040_EINSATZ
  6
Continuous
 62
     7
100
AcDbLine
 10
94.3478363881
 20
402.0868998483
 30
0.0
 11
94.3664040528
 21
402.0828840483
 31
0.0
  0
ARC
  5
25B
330
EF
100
AcDbEntity
  8
64647040_EINSATZ
  6
Continuous
 62
     7
100
AcDbCircle
 10
94.3783818624
 20
402.1996346817
 30
0.0
 40
0.1167996946433802
100
AcDbArc
 50
185.7151834719
 51
254.8397180543
  0
SPLINE
  5
25C
330
EF
100
AcDbEntity
  8
64647040_EINSATZ
  6
Continuous
 62
     7
100
AcDbSpline
210
0.0
220
0.0
230
1.0
 70
    12
 71
     2
 72
     6
 73
     3
 74
     0
 42
0.0000000103647668
 43
0.0000000001
 40
0.7782704267950742
 40
0.7782704267950742
 40
0.7782704267950742
 40
1.0
 40
1.0
 40
1.0
 10
94.24029111477093
 20
402.4008086139209
 30
0.0
 41
1.0
 10
94.2512167780581
 20
402.2943994484939
 30
0.0
 41
1.0
 10
94.26216275468293
 20
402.1880033665199
 30
0.0
 41
1.0
  0
SPLINE
  5
25D
330
EF
100
AcDbEntity
  8
64647040_EINSATZ
  6
Continuous
 62
     7
100
AcDbSpline
210
0.0
220
0.0
230
1.0
 70
     8
 71
     3
 72
    14
 73
    10
 74
     0
 42
0.0000000981560945
 43
0.0000000001
 40
0.6448042988065558
 40
0.6448042988065558
 40
0.6448042988065558
 40
0.6448042988065558
 40
0.6947657373185953
 40
0.6947657373185953
 40
0.6947657373185953
 40
0.9263670664640468
 40
0.9263670664640468
 40
0.9263670664640468
 40
1.0
 40
1.0
 40
1.0
 40
1.0
 10
92.74302508850948
 20
402.5574224274012
 30
0.0
 10
92.74152441062778
 20
402.5568602624278
 30
0.0
 10
92.7399957531215
 20
402.5563818539314
 30
0.0
 10
92.73844477049637
 20
402.5559902912258
 30
0.0
 10
92.7312550460859
 20
402.5541751658357
 30
0.0
 10
92.7233875615654
 20
402.5541763133378
 30
0.0
 10
92.7154981617784
 20
402.5559953197144
 30
0.0
 10
92.71295748967579
 20
402.5565811055638
 30
0.0
 10
92.71039985628315
 20
402.5573541272268
 30
0.0
 10
92.70784767587536
 20
402.5583076320002
 30
0.0
  0
LINE
  5
25E
330
EF
100
AcDbEntity
  8
64647040_EINSATZ
  6
Continuous
 62
     7
100
AcDbLine
 10
92.7078476759
 20
402.558307632
 30
0.0
 11
92.6926872411
 21
402.5639868308
 31
0.0
  0
ARC
  5
25F
330
EF
100
AcDbEntity
  8
64647040_EINSATZ
  6
Continuous
 62
     7
100
AcDbCircle
 10
92.7512826014
 20
402.6782849504
 30
0.0
 40
0.1284425022870208
100
AcDbArc
 50
182.4678235239
 51
242.857883817
  0
SPLINE
  5
260
330
EF
100
AcDbEntity
  8
64647040_EINSATZ
  6
Continuous
 62
     7
100
AcDbSpline
210
0.0
220
0.0
230
1.0
 70
    12
 71
     2
 72
     6
 73
     3
 74
     0
 42
0.0000000102889114
 43
0.0000000001
 40
0.0
 40
0.0
 40
0.0
 40
0.570340473922624
 40
0.570340473922624
 40
0.570340473922624
 10
92.62295922178312
 20
402.6727544308525
 30
0.0
 41
1.0
 10
92.60010502412658
 20
402.9489458080291
 30
0.0
 41
1.0
 10
92.57744086101782
 20
403.2252077499467
 30
0.0
 41
1.0
  0
SPLINE
  5
261
330
EF
100
AcDbEntity
  8
64647040_EINSATZ
  6
Continuous
 62
     7
100
AcDbSpline
210
0.0
220
0.0
230
1.0
 70
     8
 71
     3
 72
    11
 73
     7
 74
     0
 42
0.0000001315809411
 43
0.0000000001
 40
0.7008455271978863
 40
0.7008455271978863
 40
0.7008455271978863
 40
0.7008455271978863
 40
0.9263670665973863
 40
0.9263670665973863
 40
0.9263670665973863
 40
1.0
 40
1.0
 40
1.0
 40
1.0
 10
91.45557537938917
 20
403.1733496304471
 30
0.0
 10
91.45057678769672
 20
403.1722684912721
 30
0.0
 10
91.44514018573533
 20
403.1729620482402
 30
0.0
 10
91.43969731589539
 20
403.1753806091537
 30
0.0
 10
91.43789726152549
 20
403.1761804704896
 30
0.0
 10
91.43608607424227
 20
403.177168953186
 30
0.0
 10
91.43427964224715
 20
403.1783374155423
 30
0.0
  0
LINE
  5
262
330
EF
100
AcDbEntity
  8
64647040_EINSATZ
  6
Continuous
 62
     7
100
AcDbLine
 10
91.4342796422
 20
403.1783374155
 30
0.0
 11
91.423559596
 21
403.1852929852
 31
0.0
  0
SPLINE
  5
263
330
EF
100
AcDbEntity
  8
64647040_EINSATZ
  6
Continuous
 62
     7
100
AcDbSpline
210
0.0
220
0.0
230
1.0
 70
     8
 71
     3
 72
    20
 73
    16
 74
     0
 42
0.0000000778023642
 43
0.0000000001
 40
0.0
 40
0.0
 40
0.0
 40
0.0
 40
0.2315840404726008
 40
0.2315840404726008
 40
0.2315840404726008
 40
0.4631672028362716
 40
0.4631672028362716
 40
0.4631672028362716
 40
0.6947632589842127
 40
0.6947632589842127
 40
0.6947632589842127
 40
0.9263655154548205
 40
0.9263655154548205
 40
0.9263655154548205
 40
1.0
 40
1.0
 40
1.0
 40
1.0
 10
91.42355959599935
 20
403.185292985186
 30
0.0
 10
91.41797657478769
 20
403.1889266958009
 30
0.0
 10
91.41233803662625
 20
403.1944067090935
 30
0.0
 10
91.4071076215261
 20
403.2012784384355
 30
0.0
 10
91.40187721788786
 20
403.2081501527187
 30
0.0
 10
91.39691037638084
 20
403.2166030185672
 30
0.0
 10
91.39260986963885
 20
403.2259353024399
 30
0.0
 10
91.38830912831241
 20
403.2352680953709
 30
0.0
 10
91.38455570576176
 20
403.2457377133655
 30
0.0
 10
91.38165049958695
 20
403.2564751453465
 30
0.0
 10
91.37874522189739
 20
403.2672128416408
 30
0.0
 10
91.37660764204247
 20
403.2785144648458
 30
0.0
 10
91.37540782159037
 20
403.2894425176123
 30
0.0
 10
91.37502142941206
 20
403.2929618059406
 30
0.0
 10
91.37472768079992
 20
403.296463694511
 30
0.0
 10
91.3745290374892
 20
403.2999175080164
 30
0.0
  0
SPLINE
  5
264
330
EF
100
AcDbEntity
  8
64647040_EINSATZ
  6
Continuous
 62
     7
100
AcDbSpline
210
0.0
220
0.0
230
1.0
 70
    12
 71
     2
 72
     6
 73
     3
 74
     0
 42
0.0000000102362469
 43
0.0000000001
 40
0.0
 40
0.0
 40
0.0
 40
0.6804847747369142
 40
0.6804847747369142
 40
0.6804847747369142
 10
91.37452903748908
 20
403.2999175080164
 30
0.0
 41
1.0
 10
91.35544472098076
 20
403.6317330249298
 30
0.0
 41
1.0
 10
91.33669168630826
 20
403.9636193136287
 30
0.0
 41
1.0
  0
SPLINE
  5
265
330
EF
100
AcDbEntity
  8
64647040_EINSATZ
  6
Continuous
 62
     7
100
AcDbSpline
210
0.0
220
0.0
230
1.0
 70
     8
 71
     3
 72
    11
 73
     7
 74
     0
 42
0.0000002087609966
 43
0.0000000001
 40
0.7281981975800856
 40
0.7281981975800856
 40
0.7281981975800856
 40
0.7281981975800856
 40
0.9263670666532098
 40
0.9263670666532098
 40
0.9263670666532098
 40
1.0
 40
1.0
 40
1.0
 40
1.0
 10
90.6426391299294
 20
403.8939563508528
 30
0.0
 10
90.64029181307913
 20
403.8937206909222
 30
0.0
 10
90.63779614119449
 20
403.8948726893196
 30
0.0
 10
90.63530716463826
 20
403.8973565369323
 30
0.0
 10
90.63437039873165
 20
403.8982913724795
 30
0.0
 10
90.63342908697808
 20
403.8994156026307
 30
0.0
 10
90.63249150875083
 20
403.9007193937912
 30
0.0
  0
LINE
  5
266
330
EF
100
AcDbEntity
  8
64647040_EINSATZ
  6
Continuous
 62
     7
100
AcDbLine
 10
90.6324915088
 20
403.9007193938
 30
0.0
 11
90.6269424045
 21
403.9084773237
 31
0.0
  0
ARC
  5
267
330
EF
100
AcDbEntity
  8
64647040_EINSATZ
  6
Continuous
 62
     7
100
AcDbCircle
 10
90.8643454088
 20
404.0204189739
 30
0.0
 40
0.2624711784485795
100
AcDbArc
 50
178.6173035381
 51
205.2450886532
  0
SPLINE
  5
268
330
EF
100
AcDbEntity
  8
64647040_EINSATZ
  6
Continuous
 62
     7
100
AcDbSpline
210
0.0
220
0.0
230
1.0
 70
    12
 71
     2
 72
     6
 73
     3
 74
     0
 42
0.0000000102058168
 43
0.0000000001
 40
0.0
 40
0.0
 40
0.0
 40
0.6556695466907118
 40
0.6556695466907118
 40
0.6556695466907118
 10
90.60195065595752
 20
404.0267524726356
 30
0.0
 41
1.0
 10
90.59270048644633
 20
404.3478307525776
 30
0.0
 41
1.0
 10
90.58379332796808
 20
404.6689426519395
 30
0.0
 41
1.0
  0
ELLIPSE
  5
269
330
EF
100
AcDbEntity
  8
64647040_EINSATZ
  6
Continuous
 62
     7
100
AcDbEllipse
 10
98.3571166292
 20
405.5842444869
 30
0.0
 11
-9.050000000000001
 21
0.0
 31
0.0
210
0.0
220
0.0
230
1.0
 40
0.3746065934
 41
4.110851461400689
 42
5.366227882960604
  0
LINE
  5
26A
330
EF
100
AcDbEntity
  8
64647040_EINSATZ
  6
Continuous
 62
     7
100
AcDbLine
 10
89.1919652393
 20
405.1159862452
 30
0.0
 11
89.3181385343
 21
405.1159862452
 31
0.0
  0
ARC
  5
26B
330
EF
100
AcDbEntity
  8
64647040_EINSATZ
  6
Continuous
 62
     7
100
AcDbCircle
 10
89.1881677878
 20
405.2131311623
 30
0.0
 40
0.0972191111002277
100
AcDbArc
 50
182.6096648419
 51
272.2385856595
  0
LINE
  5
26C
330
EF
100
AcDbEntity
  8
64647040_EINSATZ
  6
Continuous
 62
     7
100
AcDbLine
 10
89.0910495023
 20
406.1452211142
 30
0.0
 11
89.0910495023
 21
407.3664791579
 31
0.0
  0
ARC
  5
26D
330
EF
100
AcDbEntity
  8
64647040_EINSATZ
  6
Continuous
 62
     7
100
AcDbCircle
 10
89.1879099312
 20
406.1493669918
 30
0.0
 40
0.0969491154674244
100
AcDbArc
 50
182.4509119972
 51
272.3973385043
  0
LINE
  5
26E
330
EF
100
AcDbEntity
  8
64647040_EINSATZ
  6
Continuous
 62
     7
100
AcDbLine
 10
89.3181385343
 20
406.0525027287
 30
0.0
 11
89.1919652393
 21
406.0525027287
 31
0.0
  0
ARC
  5
26F
330
EF
100
AcDbEntity
  8
64647040_EINSATZ
  6
Continuous
 62
     7
100
AcDbCircle
 10
89.3143298563
 20
406.1496621147
 30
0.0
 40
0.0972340080515264
100
AcDbArc
 50
182.617799514
 51
272.2448628913
  0
LINE
  5
270
330
EF
100
AcDbEntity
  8
64647040_EINSATZ
  6
Continuous
 62
     7
100
AcDbLine
 10
89.2171973188
 20
407.4742547598
 30
0.0
 11
89.2171973188
 21
406.1452211142
 31
0.0
  0
LINE
  5
271
330
EF
100
AcDbEntity
  8
64647040_EINSATZ
  6
Continuous
 62
     7
100
AcDbLine
 10
90.9924924543
 20
407.6808641047
 30
0.0
 11
91.0817104468
 21
407.6474424564
 31
0.0
  0
ARC
  5
272
330
EF
100
AcDbEntity
  8
64647040_EINSATZ
  6
Continuous
 62
     7
100
AcDbCircle
 10
91.0523326098
 20
407.7976513184
 30
0.0
 40
0.1312253691227008
100
AcDbArc
 50
178.8374491502
 51
242.8700249871
  0
LINE
  5
273
330
EF
100
AcDbEntity
  8
64647040_EINSATZ
  6
Continuous
 62
     7
100
AcDbLine
 10
90.9211342524
 20
408.4414060037
 30
0.0
 11
90.9211342524
 21
407.8003137431
 31
0.0
  0
LINE
  5
274
330
EF
100
AcDbEntity
  8
64647040_EINSATZ
  6
Continuous
 62
     7
100
AcDbLine
 10
92.6889012053
 20
408.4625308993
 30
0.0
 11
92.6889012053
 21
409.0176287253
 31
0.0
  0
ARC
  5
275
330
EF
100
AcDbEntity
  8
64647040_EINSATZ
  6
Continuous
 62
     7
100
AcDbCircle
 10
92.8209057663
 20
408.4603500938
 30
0.0
 40
0.1320225739627367
100
AcDbArc
 50
179.053520695
 51
242.6539534422
  0
LINE
  5
276
330
EF
100
AcDbEntity
  8
64647040_EINSATZ
  6
Continuous
 62
     7
100
AcDbLine
 10
92.8494773998
 20
408.3096596126
 30
0.0
 11
92.7602594073
 21
408.3430812609
 31
0.0
  0
ARC
  5
277
330
EF
100
AcDbEntity
  8
64647040_EINSATZ
  6
Continuous
 62
     7
100
AcDbCircle
 10
92.9093106512
 20
408.42646264
 30
0.0
 40
0.1312362951505059
100
AcDbArc
 50
178.8415042657
 51
242.875855864
  0
LINE
  5
278
330
EF
100
AcDbEntity
  8
64647040_EINSATZ
  6
Continuous
 62
     7
100
AcDbLine
 10
92.7781011818
 20
409.0401895863
 30
0.0
 11
92.7781011818
 21
408.4291159999
 31
0.0
  0
LINE
  5
279
330
EF
100
AcDbEntity
  8
64647040_EINSATZ
  6
Continuous
 62
     7
100
AcDbLine
 10
97.1071166292
 20
409.0175706272
 30
0.0
 11
97.1071166292
 21
408.970305279
 31
0.0
  0
LINE
  5
27A
330
EF
100
AcDbEntity
  8
64647040_EINSATZ
  6
Continuous
 62
     7
100
AcDbLine
 10
97.1071166292
 20
409.0175706272
 30
0.0
 11
97.1071166292
 21
409.1480927132
 31
0.0
  0
LINE
  5
27B
330
EF
100
AcDbEntity
  8
64647040_EINSATZ
  6
Continuous
 62
     7
100
AcDbLine
 10
97.1071166292
 20
409.6443210597
 30
0.0
 11
97.1071166292
 21
409.1480927132
 31
0.0
  0
LINE
  5
27C
330
EF
100
AcDbEntity
  8
64647040_EINSATZ
  6
Continuous
 62
     7
100
AcDbLine
 10
99.6071166292
 20
409.1480927132
 30
0.0
 11
99.6071166292
 21
409.6443210597
 31
0.0
  0
LINE
  5
27D
330
EF
100
AcDbEntity
  8
64647040_EINSATZ
  6
Continuous
 62
     7
100
AcDbLine
 10
99.6071166292
 20
409.1480927132
 30
0.0
 11
99.6071166292
 21
409.0175706272
 31
0.0
  0
LINE
  5
27E
330
EF
100
AcDbEntity
  8
64647040_EINSATZ
  6
Continuous
 62
     7
100
AcDbLine
 10
99.6071166292
 20
408.970305279
 30
0.0
 11
99.6071166292
 21
409.0175706272
 31
0.0
  0
LINE
  5
27F
330
EF
100
AcDbEntity
  8
64647040_EINSATZ
  6
Continuous
 62
     7
100
AcDbLine
 10
103.9361320766
 20
409.0401895863
 30
0.0
 11
103.9361320766
 21
408.4291159999
 31
0.0
  0
ARC
  5
280
330
EF
100
AcDbEntity
  8
64647040_EINSATZ
  6
Continuous
 62
     7
100
AcDbCircle
 10
103.8041180481
 20
408.4269433709
 30
0.0
 40
0.1320319053352079
100
AcDbArc
 50
297.3397761698
 51
0.9428637004
  0
LINE
  5
281
330
EF
100
AcDbEntity
  8
64647040_EINSATZ
  6
Continuous
 62
     7
100
AcDbLine
 10
103.9539738511
 20
408.3430812609
 30
0.0
 11
103.8647558586
 21
408.3096596126
 31
0.0
  0
ARC
  5
282
330
EF
100
AcDbEntity
  8
64647040_EINSATZ
  6
Continuous
 62
     7
100
AcDbCircle
 10
103.8941336956
 20
408.4598684746
 30
0.0
 40
0.1312253691227321
100
AcDbArc
 50
297.1299750129
 51
1.1625508498
  0
LINE
  5
283
330
EF
100
AcDbEntity
  8
64647040_EINSATZ
  6
Continuous
 62
     7
100
AcDbLine
 10
104.0253320531
 20
409.0176287253
 30
0.0
 11
104.0253320531
 21
408.4625308993
 31
0.0
  0
LINE
  5
284
330
EF
100
AcDbEntity
  8
64647040_EINSATZ
  6
Continuous
 62
     7
100
AcDbLine
 10
105.793099006
 20
407.8003137431
 30
0.0
 11
105.793099006
 21
408.4414060037
 31
0.0
  0
ARC
  5
285
330
EF
100
AcDbEntity
  8
64647040_EINSATZ
  6
Continuous
 62
     7
100
AcDbCircle
 10
105.661094445
 20
407.7981329376
 30
0.0
 40
0.1320225739627359
100
AcDbArc
 50
297.3460465578
 51
0.946479305
  0
LINE
  5
286
330
EF
100
AcDbEntity
  8
64647040_EINSATZ
  6
Continuous
 62
     7
100
AcDbLine
 10
105.6325228116
 20
407.6474424564
 30
0.0
 11
105.7217408041
 21
407.6808641047
 31
0.0
  0
LINE
  5
287
330
EF
100
AcDbEntity
  8
64647040_EINSATZ
  6
Continuous
 62
     7
100
AcDbLine
 10
107.4970359396
 20
406.1452211142
 30
0.0
 11
107.4970359396
 21
407.4742547598
 31
0.0
  0
ARC
  5
288
330
EF
100
AcDbEntity
  8
64647040_EINSATZ
  6
Continuous
 62
     7
100
AcDbCircle
 10
107.4001620052
 20
406.1493805771
 30
0.0
 40
0.0969631904082946
100
AcDbArc
 50
267.5959285877
 51
357.541409007
  0
LINE
  5
289
330
EF
100
AcDbEntity
  8
64647040_EINSATZ
  6
Continuous
 62
     7
100
AcDbLine
 10
107.5222680191
 20
406.0525027287
 30
0.0
 11
107.3960947241
 21
406.0525027287
 31
0.0
  0
ARC
  5
28A
330
EF
100
AcDbEntity
  8
64647040_EINSATZ
  6
Continuous
 62
     7
100
AcDbCircle
 10
107.5260654706
 20
406.1496476458
 30
0.0
 40
0.0972191111002385
100
AcDbArc
 50
267.7614143405
 51
357.3903351581
  0
LINE
  5
28B
330
EF
100
AcDbEntity
  8
64647040_EINSATZ
  6
Continuous
 62
     7
100
AcDbLine
 10
107.6231837561
 20
407.3664791579
 30
0.0
 11
107.6231837561
 21
406.1452211142
 31
0.0
  0
ARC
  5
28C
330
EF
100
AcDbEntity
  8
64647040_EINSATZ
  6
Continuous
 62
     7
100
AcDbCircle
 10
107.5263233272
 20
405.2128505083
 30
0.0
 40
0.0969491154674295
100
AcDbArc
 50
267.6026614957
 51
357.5490880028
  0
LINE
  5
28D
330
EF
100
AcDbEntity
  8
64647040_EINSATZ
  6
Continuous
 62
     7
100
AcDbLine
 10
107.3960947241
 20
405.1159862452
 30
0.0
 11
107.5222680191
 21
405.1159862452
 31
0.0
  0
ELLIPSE
  5
28E
330
EF
100
AcDbEntity
  8
64647040_EINSATZ
  6
Continuous
 62
     7
100
AcDbEllipse
 10
98.3571166292
 20
405.5842444869
 30
0.0
 11
9.25000000000836
 21
2.747801985947262E-12
 31
0.0
210
0.0
220
0.0
230
1.0
 40
0.3746065934
 41
0.6883131267069046
 42
0.9058557524863744
  0
ELLIPSE
  5
28F
330
EF
100
AcDbEntity
  8
64647040_EINSATZ
  6
Continuous
 62
     7
100
AcDbEllipse
 10
98.3571166292
 20
405.5842444869
 30
0.0
 11
9.124999999999311
 21
-2.220446049250313E-13
 31
0.0
210
0.0
220
0.0
230
1.0
 40
0.3746065934
 41
0.933936184024341
 42
1.433377936380024
  0
ELLIPSE
  5
290
330
EF
100
AcDbEntity
  8
64647040_EINSATZ
  6
Continuous
 62
     7
100
AcDbEllipse
 10
98.3571166292
 20
405.5842444869
 30
0.0
 11
9.249999999997636
 21
-1.526556658859590E-13
 31
0.0
210
0.0
220
0.0
230
1.0
 40
0.3746065934
 41
1.43524647941492
 42
1.706346174174844
  0
ELLIPSE
  5
291
330
EF
100
AcDbEntity
  8
64647040_EINSATZ
  6
Continuous
 62
     7
100
AcDbEllipse
 10
98.3571166292
 20
405.5842444869
 30
0.0
 11
-9.125000000000334
 21
5.551115123125783E-14
 31
0.0
210
0.0
220
0.0
230
1.0
 40
0.3746065934
 41
4.849807370799615
 42
5.346122822196826
  0
ELLIPSE
  5
292
330
EF
100
AcDbEntity
  8
64647040_EINSATZ
  6
Continuous
 62
     7
100
AcDbEllipse
 10
98.3571166292
 20
405.5842444869
 30
0.0
 11
-9.250000000008779
 21
2.511879593214417E-12
 31
0.0
210
0.0
220
0.0
230
1.0
 40
0.3746065934
 41
-0.9061658633656018
 42
-0.6936718253218608
  0
ELLIPSE
  5
293
330
EF
100
AcDbEntity
  8
64647040_EINSATZ
  6
Continuous
 62
     7
100
AcDbEllipse
 10
98.3571166292
 20
405.6769628724
 30
0.0
 11
9.350000000022705
 21
4.718447854656915E-13
 31
0.0
210
0.0
220
0.0
230
1.0
 40
0.3746065934
 41
3.007501337395975
 42
3.275683969783572
  0
ELLIPSE
  5
294
330
EF
100
AcDbEntity
  8
64647040_EINSATZ
  6
Continuous
 62
     7
100
AcDbEllipse
 10
98.3571166292
 20
405.6769628724
 30
0.0
 11
-9.349999999984741
 21
0.0
 31
0.0
210
0.0
220
0.0
230
1.0
 40
0.3746065934
 41
3.007501337395728
 42
3.275683969783858
  0
ARC
  5
295
330
EF
100
AcDbEntity
  8
64647040_EINSATZ
  6
Continuous
 62
     7
100
AcDbCircle
 10
309.7196619597
 20
430.8064063955
 30
0.0
 40
213.4584735678769
100
AcDbArc
 50
186.8897933415
 51
186.9166961835
  0
ARC
  5
296
330
EF
100
AcDbEntity
  8
64647040_EINSATZ
  6
Continuous
 62
     7
100
AcDbCircle
 10
744.1073169899
 20
369.2073370775
 30
0.0
 40
646.80782702094
100
AcDbArc
 50
176.8078099098
 51
176.810634756
  0
ARC
  5
297
330
EF
100
AcDbEntity
  8
64647040_EINSATZ
  6
Continuous
 62
     7
100
AcDbCircle
 10
-263.5683333548
 20
406.8249640342
 30
0.0
 40
362.1671884055707
100
AcDbArc
 50
359.7395663453
 51
359.7455691474
  0
SPLINE
  5
298
330
EF
100
AcDbEntity
  8
64647040_EINSATZ
  6
Continuous
 62
     7
100
AcDbSpline
210
0.0
220
0.0
230
1.0
 70
     8
 71
     3
 72
    11
 73
     7
 74
     0
 42
0.0000003441506804
 43
0.0000000001
 40
0.0
 40
0.0
 40
0.0
 40
0.0
 40
0.2289377704749271
 40
0.2289377704749271
 40
0.2289377704749271
 40
0.2616917636565074
 40
0.2616917636565074
 40
0.2616917636565074
 40
0.2616917636565074
 10
93.63885957657787
 20
404.676224428722
 30
0.0
 10
93.63888482918064
 20
404.6720608526581
 30
0.0
 10
93.63865855492577
 20
404.6696073800956
 30
0.0
 10
93.6381938366861
 20
404.669063030307
 30
0.0
 10
93.63812734365403
 20
404.6689851433965
 30
0.0
 10
93.6380556983402
 20
404.6689460154134
 30
0.0
 10
93.6379790314668
 20
404.6689452805587
 30
0.0
  0
SPLINE
  5
299
330
EF
100
AcDbEntity
  8
64647040_EINSATZ
  6
Continuous
 62
     7
100
AcDbSpline
210
0.0
220
0.0
230
1.0
 70
     8
 71
     3
 72
    11
 73
     7
 74
     0
 42
0.0000003378352016
 43
0.0000000001
 40
0.7376450658852106
 40
0.7376450658852106
 40
0.7376450658852106
 40
0.7376450658852106
 40
0.9310036385224203
 40
0.9310036385224203
 40
0.9310036385224203
 40
1.0
 40
1.0
 40
1.0
 40
1.0
 10
103.0762649243633
 20
404.6689458440515
 30
0.0
 10
103.0758113130907
 20
404.6689456425505
 30
0.0
 10
103.075524920846
 20
404.6702821265213
 30
0.0
 10
103.0754193840866
 20
404.6728953838957
 30
0.0
 10
103.0753812259796
 20
404.6738402390832
 30
0.0
 10
103.0753659694829
 20
404.6749528400711
 30
0.0
 10
103.075373681825
 20
404.676224428722
 30
0.0
  0
SPLINE
  5
29A
330
EF
100
AcDbEntity
  8
64647040_EINSATZ
  6
Continuous
 62
     7
100
AcDbSpline
210
0.0
220
0.0
230
1.0
 70
     8
 71
     3
 72
    11
 73
     7
 74
     0
 42
0.0000003368266185
 43
0.0000000001
 40
0.0
 40
0.0
 40
0.0
 40
0.0
 40
0.2274863332644969
 40
0.2274863332644969
 40
0.2274863332644969
 40
0.2614986970279423
 40
0.2614986970279423
 40
0.2614986970279423
 40
0.2614986970279423
 10
91.88520243058773
 20
404.676224428722
 30
0.0
 10
91.88522076821157
 20
404.6720772326451
 30
0.0
 10
91.88492001386649
 20
404.6696270435683
 30
0.0
 10
91.88432195222335
 20
404.6690698985856
 30
0.0
 10
91.88423251955224
 20
404.6689865844915
 30
0.0
 10
91.88413606934716
 20
404.6689452217315
 30
0.0
 10
91.88403282403618
 20
404.6689453774389
 30
0.0
  0
SPLINE
  5
29B
330
EF
100
AcDbEntity
  8
64647040_EINSATZ
  6
Continuous
 62
     7
100
AcDbSpline
210
0.0
220
0.0
230
1.0
 70
     8
 71
     3
 72
    11
 73
     7
 74
     0
 42
0.0000003301072662
 43
0.0000000001
 40
0.738216486694098
 40
0.738216486694098
 40
0.738216486694098
 40
0.738216486694098
 40
0.9340165527280078
 40
0.9340165527280078
 40
0.9340165527280078
 40
1.0
 40
1.0
 40
1.0
 40
1.0
 10
104.8302108091206
 20
404.6689455142747
 30
0.0
 10
104.8296163063325
 20
404.6689452157614
 30
0.0
 10
104.8292369247364
 20
404.6703218769767
 30
0.0
 10
104.8290953412284
 20
404.673012864717
 30
0.0
 10
104.8290469845643
 20
404.6739319490934
 30
0.0
 10
104.829025436232
 20
404.6750050802992
 30
0.0
 10
104.8290308278152
 20
404.676224428722
 30
0.0
  0
ARC
  5
29C
330
EF
100
AcDbEntity
  8
64647040_EINSATZ
  6
Continuous
 62
     7
100
AcDbCircle
 10
-86.58648442
 20
436.8948420545
 30
0.0
 40
188.3011949781997
100
AcDbArc
 50
350.2610500936
 51
350.2685487608
  0
LINE
  5
29D
330
EF
100
AcDbEntity
  8
64647040_EINSATZ
  6
Continuous
 62
     7
100
AcDbLine
 10
102.3073746276
 20
405.0000894594
 30
0.0
 11
102.3076611753
 21
404.9430474333
 31
0.0
  0
LINE
  5
29E
330
EF
100
AcDbEntity
  8
64647040_EINSATZ
  6
Continuous
 62
     7
100
AcDbLine
 10
101.92304911
 20
405.0262310299
 30
0.0
 11
102.3076611753
 21
404.9430474333
 31
0.0
  0
LINE
  5
29F
330
EF
100
AcDbEntity
  8
64647040_EINSATZ
  6
Continuous
 62
     7
100
AcDbLine
 10
97.7240697847
 20
404.7416389836
 30
0.0
 11
97.6915007004
 21
404.8099683542
 31
0.0
  0
SPLINE
  5
2A0
330
EF
100
AcDbEntity
  8
64647040_EINSATZ
  6
Continuous
 62
     7
100
AcDbSpline
210
0.0
220
0.0
230
1.0
 70
    12
 71
     2
 72
     6
 73
     3
 74
     0
 42
0.0000010477141042
 43
0.0000000001
 40
0.0
 40
0.0
 40
0.0
 40
1.0
 40
1.0
 40
1.0
 10
97.82266161613771
 20
404.6224365592023
 30
0.0
 41
1.0
 10
97.8196874821888
 20
404.6262954910101
 30
0.0
 41
1.0
 10
97.81711251187107
 20
404.6301944890806
 30
0.0
 41
1.0
  0
SPLINE
  5
2A1
330
EF
100
AcDbEntity
  8
64647040_EINSATZ
  6
Continuous
 62
     7
100
AcDbSpline
210
0.0
220
0.0
230
1.0
 70
     8
 71
     3
 72
    20
 73
    16
 74
     0
 42
0.0000000688531994
 43
0.0000000001
 40
0.0
 40
0.0
 40
0.0
 40
0.0
 40
0.1662420688385254
 40
0.1662420688385254
 40
0.1662420688385254
 40
0.3310650875756723
 40
0.3310650875756723
 40
0.3310650875756723
 40
0.5632461486768662
 40
0.5632461486768662
 40
0.5632461486768662
 40
0.8533054901456426
 40
0.8533054901456426
 40
0.8533054901456426
 40
1.0
 40
1.0
 40
1.0
 40
1.0
 10
97.81711251187109
 20
404.6301944890806
 30
0.0
 10
97.81493727584649
 20
404.6334882129034
 30
0.0
 10
97.81153011462794
 20
404.637911854677
 30
0.0
 10
97.80734545471616
 20
404.6429773041344
 30
0.0
 10
97.8031810843006
 20
404.6480181935513
 30
0.0
 10
97.7981675451203
 20
404.6538094911463
 30
0.0
 10
97.79283562075148
 20
404.6598984366245
 30
0.0
 10
97.78535509319055
 20
404.6684410417548
 30
0.0
 10
97.77705418186588
 20
404.6778109616178
 30
0.0
 10
97.76883464382593
 20
404.6872856356981
 30
0.0
 10
97.75858948084206
 20
404.6990952507519
 30
0.0
 10
97.7481412044127
 20
404.7114539236347
 30
0.0
 10
97.73843830410134
 20
404.7234537785541
 30
0.0
 10
97.73348106748273
 20
404.7295845351646
 30
0.0
 10
97.72865867783342
 20
404.7356872577387
 30
0.0
 10
97.72406978468003
 20
404.7416389836051
 30
0.0
  0
SPLINE
  5
2A2
330
EF
100
AcDbEntity
  8
64647040_EINSATZ
  6
Continuous
 62
     7
100
AcDbSpline
210
0.0
220
0.0
230
1.0
 70
     8
 71
     3
 72
     8
 73
     4
 74
     0
 42
0.0000002515966858
 43
0.0000000001
 40
0.7539747293325973
 40
0.7539747293325973
 40
0.7539747293325973
 40
0.7539747293325973
 40
1.0
 40
1.0
 40
1.0
 40
1.0
 10
97.82619439693121
 20
404.615163157216
 30
0.0
 10
97.82733129620857
 20
404.6152545927092
 30
0.0
 10
97.82645348379167
 20
404.6175166198369
 30
0.0
 10
97.82266161613772
 20
404.6224365592022
 30
0.0
  0
ARC
  5
2A3
330
EF
100
AcDbEntity
  8
64647040_EINSATZ
  6
Continuous
 62
     7
100
AcDbCircle
 10
98.3612833874
 20
405.3518920279
 30
0.0
 40
0.9102934338208248
100
AcDbArc
 50
233.2040050463
 51
299.4655698997
  0
ARC
  5
2A4
330
EF
100
AcDbEntity
  8
64647040_EINSATZ
  6
Continuous
 62
     7
100
AcDbCircle
 10
98.7229955819
 20
404.8717536154
 30
0.0
 40
0.3000840339611117
100
AcDbArc
 50
308.7104482874
 51
318.9249209729
  0
ARC
  5
2A5
330
EF
100
AcDbEntity
  8
64647040_EINSATZ
  6
Continuous
 62
     7
100
AcDbCircle
 10
98.5664709616
 20
405.01421221
 30
0.0
 40
0.5117022667927119
100
AcDbArc
 50
318.4156473216
 51
326.2598279796
  0
ARC
  5
2A6
330
EF
100
AcDbEntity
  8
64647040_EINSATZ
  6
Continuous
 62
     7
100
AcDbCircle
 10
101.25880676
 20
409.4270622566
 30
0.0
 40
8.041617612760938
100
AcDbArc
 50
279.1721783981
 51
306.9526199343
  0
ARC
  5
2A7
330
EF
100
AcDbEntity
  8
64647040_EINSATZ
  6
Continuous
 62
     7
100
AcDbCircle
 10
95.7677978296
 20
410.1488037311
 30
0.0
 40
8.821149124330624
100
AcDbArc
 50
235.0239520204
 51
261.9217766535
  0
SPLINE
  5
2A8
330
EF
100
AcDbEntity
  8
64647040_EINSATZ
  6
Continuous
 62
     7
100
AcDbSpline
210
0.0
220
0.0
230
1.0
 70
     8
 71
     3
 72
    18
 73
    14
 74
     0
 42
0.0000000029169257
 43
0.0000000001
 40
0.0
 40
0.0
 40
0.0
 40
0.0
 40
0.0722985804755195
 40
0.1720147365578765
 40
0.2718050124850417
 40
0.3716866690521032
 40
0.4716793173424749
 40
0.5718037557921688
 40
0.672078385730996
 40
0.7725103508935516
 40
0.8730760461242826
 40
0.9736518540782017
 40
1.0
 40
1.0
 40
1.0
 40
1.0
 10
101.3872912724738
 20
402.1201291686978
 30
0.0
 10
101.5017033645128
 20
402.1435637452244
 30
0.0
 10
101.7316586757574
 20
402.1911471026711
 30
0.0
 10
102.1088798933745
 20
402.2876294816134
 30
0.0
 10
102.4922768671127
 20
402.401482751393
 30
0.0
 10
102.8543919993078
 20
402.5275272930166
 30
0.0
 10
103.1897291366311
 20
402.6637839531548
 30
0.0
 10
103.4973927097206
 20
402.8100373734642
 30
0.0
 10
103.7749822948868
 20
402.9654511975365
 30
0.0
 10
104.0223416676845
 20
403.1299124803866
 30
0.0
 10
104.2324956673943
 20
403.3010697957459
 30
0.0
 10
104.3768799664501
 20
403.4396275711653
 30
0.0
 10
104.432295475875
 20
403.5137556282476
 30
0.0
 10
104.4456711892696
 20
403.5317537722041
 30
0.0
  0
ARC
  5
2A9
330
EF
100
AcDbEntity
  8
64647040_EINSATZ
  6
Continuous
 62
     7
100
AcDbCircle
 10
97.4434116485
 20
411.8555427438
 30
0.0
 40
9.96136457824683
100
AcDbArc
 50
258.2645069185
 51
263.3232764346
  0
ARC
  5
2AA
330
EF
100
AcDbEntity
  8
64647040_EINSATZ
  6
Continuous
 62
     7
100
AcDbCircle
 10
96.0546381326
 20
407.7041249221
 30
0.0
 40
5.637860937108122
100
AcDbArc
 50
228.1008031652
 51
263.5093807483
  0
SPLINE
  5
2AB
330
EF
100
AcDbEntity
  8
64647040_EINSATZ
  6
Continuous
 62
     7
100
AcDbSpline
210
0.0
220
0.0
230
1.0
 70
     8
 71
     3
 72
    14
 73
    10
 74
     0
 42
0.0000000062134009
 43
0.0000000001
 40
0.0
 40
0.0
 40
0.0
 40
0.0
 40
0.1329954691835925
 40
0.2817487153486117
 40
0.4302779850411982
 40
0.5786906386462805
 40
0.7271633743069116
 40
0.8761468695790288
 40
1.0
 40
1.0
 40
1.0
 40
1.0
 10
103.3277418756817
 20
405.608371201401
 30
0.0
 10
103.419313143252
 20
405.5615417831263
 30
0.0
 10
103.5819578190737
 20
405.4774911047151
 30
0.0
 10
103.8176322431443
 20
405.3281636050721
 30
0.0
 10
104.0237050097668
 20
405.1725339244874
 30
0.0
 10
104.1968435867516
 20
405.0115801885603
 30
0.0
 10
104.3331334828875
 20
404.8496490517587
 30
0.0
 10
104.4328991299161
 20
404.6917077008055
 30
0.0
 10
104.4673045200694
 20
404.5992360530983
 30
0.0
 10
104.485082297429
 20
404.5495905082635
 30
0.0
  0
ARC
  5
2AC
330
EF
100
AcDbEntity
  8
64647040_EINSATZ
  6
Continuous
 62
     7
100
AcDbCircle
 10
94.3603684759
 20
403.3573223348
 30
0.0
 40
2.460454906948774
100
AcDbArc
 50
110.2391716618
 51
147.6103996241
  0
SPLINE
  5
2AD
330
EF
100
AcDbEntity
  8
64647040_EINSATZ
  6
Continuous
 62
     7
100
AcDbSpline
210
0.0
220
0.0
230
1.0
 70
     8
 71
     3
 72
    19
 73
    15
 74
     0
 42
0.0000000033027228
 43
0.0000000001
 40
0.0
 40
0.0
 40
0.0
 40
0.0
 40
0.0149486762164215
 40
0.106990851714034
 40
0.1991221322500551
 40
0.2913689990057667
 40
0.3837631347866458
 40
0.4763406150605908
 40
0.5691368871177873
 40
0.6621707423056927
 40
0.755402413365637
 40
0.8485479142935741
 40
0.9409688995117317
 40
1.0
 40
1.0
 40
1.0
 40
1.0
 10
100.3962009233075
 20
402.6611078305021
 30
0.0
 10
100.4188949076457
 20
402.6649378802943
 30
0.0
 10
100.5582288169789
 20
402.6885247343816
 30
0.0
 10
100.8260088955615
 20
402.7488267812246
 30
0.0
 10
101.1677581152165
 20
402.8376225453331
 30
0.0
 10
101.4898728862301
 20
402.9399586566141
 30
0.0
 10
101.7864660848801
 20
403.0527904099652
 30
0.0
 10
102.0561461899923
 20
403.1761096233699
 30
0.0
 10
102.2966146816148
 20
403.3091475291596
 30
0.0
 10
102.5057963412386
 20
403.4512706953519
 30
0.0
 10
102.6823726799896
 20
403.6022765972997
 30
0.0
 10
102.8216923581182
 20
403.759882268162
 30
0.0
 10
102.9183795026749
 20
403.9088967577287
 30
0.0
 10
102.9486320001774
 20
403.9970921088844
 30
0.0
 10
102.962099974939
 20
404.0376770770442
 30
0.0
  0
SPLINE
  5
2AE
330
EF
100
AcDbEntity
  8
64647040_EINSATZ
  6
Continuous
 62
     7
100
AcDbSpline
210
0.0
220
0.0
230
1.0
 70
     8
 71
     3
 72
    17
 73
    13
 74
     0
 42
0.0000000040131945
 43
0.0000000001
 40
0.0
 40
0.0
 40
0.0
 40
0.0
 40
0.0542793394680645
 40
0.1692896500755905
 40
0.2857549220808606
 40
0.4027630191851156
 40
0.519716372303705
 40
0.6364412559249579
 40
0.7529208047736133
 40
0.8691834530366569
 40
0.9852685732708698
 40
1.0
 40
1.0
 40
1.0
 40
1.0
 10
93.90283331436362
 20
403.761230411688
 30
0.0
 10
93.9226726671083
 20
403.7333927158358
 30
0.0
 10
93.97592803449434
 20
403.659600940593
 30
0.0
 10
94.11092707237873
 20
403.5310976815174
 30
0.0
 10
94.2983352710028
 20
403.3862626849499
 30
0.0
 10
94.52213369291775
 20
403.2481050098781
 30
0.0
 10
94.77627941915098
 20
403.1191932437399
 30
0.0
 10
95.05903421982761
 20
403.0003259549638
 30
0.0
 10
95.36854555154986
 20
402.8916438390559
 30
0.0
 10
95.6992981649495
 20
402.7963940676089
 30
0.0
 10
95.95530537680254
 20
402.73190785467
 30
0.0
 10
96.08763438796325
 20
402.7064478542378
 30
0.0
 10
96.10498337684514
 20
402.7031171527834
 30
0.0
  0
SPLINE
  5
2AF
330
EF
100
AcDbEntity
  8
64647040_EINSATZ
  6
Continuous
 62
     7
100
AcDbSpline
210
0.0
220
0.0
230
1.0
 70
     8
 71
     3
 72
    15
 73
    11
 74
     0
 42
0.0000000075222934
 43
0.0000000001
 40
0.0
 40
0.0
 40
0.0
 40
0.0
 40
0.1180626345008313
 40
0.2587539219321969
 40
0.399103927567115
 40
0.5393347229782064
 40
0.6798545328578978
 40
0.8218197082476536
 40
0.9648188947764937
 40
1.0
 40
1.0
 40
1.0
 40
1.0
 10
101.9388234985362
 20
405.2168606021759
 30
0.0
 10
102.0113360595158
 20
405.1799200616996
 30
0.0
 10
102.1446091802365
 20
405.1112418899595
 30
0.0
 10
102.3334651052073
 20
404.9872698849521
 30
0.0
 10
102.4957722548308
 20
404.855814946502
 30
0.0
 10
102.623976427157
 20
404.7210130127012
 30
0.0
 10
102.7168203365629
 20
404.5854251647341
 30
0.0
 10
102.7746390720445
 20
404.4520963571077
 30
0.0
 10
102.7932989830263
 20
404.3499123975463
 30
0.0
 10
102.794437408902
 20
404.2981276119785
 30
0.0
 10
102.7946166292014
 20
404.2861870905373
 30
0.0
  0
SPLINE
  5
2B0
330
EF
100
AcDbEntity
  8
64647040_EINSATZ
  6
Continuous
 62
     7
100
AcDbSpline
210
0.0
220
0.0
230
1.0
 70
     8
 71
     3
 72
    15
 73
    11
 74
     0
 42
0.0000000063394121
 43
0.0000000001
 40
0.0
 40
0.0
 40
0.0
 40
0.0
 40
0.1169345949715908
 40
0.2539922361662373
 40
0.3862910214308431
 40
0.5154372972733999
 40
0.6433300560674948
 40
0.7709781757336679
 40
0.8987052876589868
 40
1.0
 40
1.0
 40
1.0
 40
1.0
 10
93.92356809308485
 20
404.3266891291152
 30
0.0
 10
93.92813893152395
 20
404.3704475361342
 30
0.0
 10
93.93804704358908
 20
404.4509455739504
 30
0.0
 10
93.99851134796599
 20
404.588152778788
 30
0.0
 10
94.0957598311151
 20
404.7280639497281
 30
0.0
 10
94.22875568702317
 20
404.8652717659756
 30
0.0
 10
94.39562980909355
 20
404.9982217772931
 30
0.0
 10
94.59443812718395
 20
405.1250520539699
 30
0.0
 10
94.81304765895194
 20
405.2408850980548
 30
0.0
 10
94.96061545284478
 20
405.3032230710644
 30
0.0
 10
95.0382488075316
 20
405.335671427654
 30
0.0
  0
ARC
  5
2B1
330
EF
100
AcDbEntity
  8
64647040_EINSATZ
  6
Continuous
 62
     7
100
AcDbCircle
 10
100.862199556
 20
404.2671248111
 30
0.0
 40
0.374673977631967
100
AcDbArc
 50
332.4962979372
 51
2.9162951142
  0
SPLINE
  5
2B2
330
EF
100
AcDbEntity
  8
64647040_EINSATZ
  6
Continuous
 62
     7
100
AcDbSpline
210
0.0
220
0.0
230
1.0
 70
     8
 71
     3
 72
    14
 73
    10
 74
     0
 42
0.0000000076507517
 43
0.0000000001
 40
0.0
 40
0.0
 40
0.0
 40
0.0
 40
0.0813014801595033
 40
0.239379915556472
 40
0.3981246355159195
 40
0.5576917297870626
 40
0.7180672821082899
 40
0.8781817899770537
 40
1.0
 40
1.0
 40
1.0
 40
1.0
 10
100.1465256089794
 20
403.3871743351258
 30
0.0
 10
100.1957357391647
 20
403.4017522371421
 30
0.0
 10
100.3185519219737
 20
403.4384992661597
 30
0.0
 10
100.5163037664878
 20
403.517611506681
 30
0.0
 10
100.7206764865494
 20
403.6180511237783
 30
0.0
 10
100.8968710027548
 20
403.7303196796088
 30
0.0
 10
101.0386977836581
 20
403.8514972885745
 30
0.0
 10
101.1429383004429
 20
403.9752840123904
 30
0.0
 10
101.1774965546855
 20
404.0538960600332
 30
0.0
 10
101.1945282539586
 20
404.0940981483549
 30
0.0
  0
SPLINE
  5
2B3
330
EF
100
AcDbEntity
  8
64647040_EINSATZ
  6
Continuous
 62
     7
100
AcDbSpline
210
0.0
220
0.0
230
1.0
 70
     8
 71
     3
 72
    15
 73
    11
 74
     0
 42
0.0000000062250416
 43
0.0000000001
 40
0.0
 40
0.0
 40
0.0
 40
0.0
 40
0.0996770731627988
 40
0.2268690818476983
 40
0.3591820568447288
 40
0.4945576749843553
 40
0.6306419977632842
 40
0.7662754904770132
 40
0.9013488875760349
 40
1.0
 40
1.0
 40
1.0
 40
1.0
 10
95.5172221857461
 20
404.0979711188219
 30
0.0
 10
95.53346932427117
 20
404.059396794367
 30
0.0
 10
95.56584168025665
 20
403.9852580110366
 30
0.0
 10
95.66148498419378
 20
403.8665436609409
 30
0.0
 10
95.79362374985017
 20
403.7483029421167
 30
0.0
 10
95.9622384715109
 20
403.6360424744428
 30
0.0
 10
96.16314650699422
 20
403.5326150942746
 30
0.0
 10
96.3912338115045
 20
403.4404853567542
 30
0.0
 10
96.62679689079359
 20
403.3639016147716
 30
0.0
 10
96.77696376075616
 20
403.3276549585864
 30
0.0
 10
96.85205789055948
 20
403.3097930785776
 30
0.0
  0
SPLINE
  5
2B4
330
EF
100
AcDbEntity
  8
64647040_EINSATZ
  6
Continuous
 62
     7
100
AcDbSpline
210
0.0
220
0.0
230
1.0
 70
     8
 71
     3
 72
    14
 73
    10
 74
     0
 42
0.0000000111706092
 43
0.0000000001
 40
0.0
 40
0.0
 40
0.0
 40
0.0
 40
0.1043287774114668
 40
0.2671235506127037
 40
0.4289624675973083
 40
0.5901562776631349
 40
0.7516515574834305
 40
0.9165177774494216
 40
1.0
 40
1.0
 40
1.0
 40
1.0
 10
100.4035174362105
 20
404.8704509404346
 30
0.0
 10
100.4509771964715
 20
404.8501558964074
 30
0.0
 10
100.5533821256922
 20
404.8058888675863
 30
0.0
 10
100.7005697830162
 20
404.7200443932881
 30
0.0
 10
100.8324110654404
 20
404.6222083237785
 30
0.0
 10
100.9296257918805
 20
404.5221785357969
 30
0.0
 10
100.9914839417168
 20
404.4250313749663
 30
0.0
 10
101.0165935058653
 20
404.345672772683
 30
0.0
 10
101.0189760009375
 20
404.3029995776487
 30
0.0
 10
101.0196166292015
 20
404.2861870905373
 30
0.0
  0
SPLINE
  5
2B5
330
EF
100
AcDbEntity
  8
64647040_EINSATZ
  6
Continuous
 62
     7
100
AcDbSpline
210
0.0
220
0.0
230
1.0
 70
     8
 71
     3
 72
    13
 73
     9
 74
     0
 42
0.0000000131857376
 43
0.0000000001
 40
0.0
 40
0.0
 40
0.0
 40
0.0
 40
0.1134818904949189
 40
0.2955054927842667
 40
0.4682714941413971
 40
0.6515855463181204
 40
0.8313638668691999
 40
1.0
 40
1.0
 40
1.0
 40
1.0
 10
95.6986529860583
 20
404.2784913947501
 30
0.0
 10
95.69734687124378
 20
404.2991183341533
 30
0.0
 10
95.6953138854431
 20
404.3449133358777
 30
0.0
 10
95.72426359069246
 20
404.4267395873493
 30
0.0
 10
95.7858657907334
 20
404.5239068743921
 30
0.0
 10
95.88294863715944
 20
404.6230515509448
 30
0.0
 10
96.01612098994552
 20
404.7226940590549
 30
0.0
 10
96.11914816241475
 20
404.7785959284111
 30
0.0
 10
96.17889355703599
 20
404.8105210871388
 30
0.0
  0
LINE
  5
2B6
330
EF
100
AcDbEntity
  8
64647040_EINSATZ
  6
Continuous
 62
     7
100
AcDbLine
 10
89.5084775368
 20
405.2637280041
 30
0.0
 11
90.0068018356
 21
403.8458454989
 31
0.0
  0
LINE
  5
2B7
330
EF
100
AcDbEntity
  8
64647040_EINSATZ
  6
Continuous
 62
     7
100
AcDbLine
 10
106.7074314228
 20
403.8458454989
 30
0.0
 11
107.2057557216
 21
405.2637280041
 31
0.0
  0
LINE
  5
2B8
330
EF
100
AcDbEntity
  8
64647040_EINSATZ
  6
Continuous
 62
     7
100
AcDbLine
 10
95.2584536598
 20
405.3361858644
 30
0.0
 11
95.4875228183
 21
404.1889489821
 31
0.0
  0
LINE
  5
2B9
330
EF
100
AcDbEntity
  8
64647040_EINSATZ
  6
Continuous
 62
     7
100
AcDbLine
 10
101.2267104401
 20
404.1889489821
 30
0.0
 11
101.3830685175
 21
404.9720301894
 31
0.0
  0
LINE
  5
2BA
330
EF
100
AcDbEntity
  8
64647040_EINSATZ
  6
Continuous
 62
     7
100
AcDbLine
 10
91.8693702835
 20
404.6689428142
 30
0.0
 11
91.9848074966
 21
404.0908037523
 31
0.0
  0
LINE
  5
2BB
330
EF
100
AcDbEntity
  8
64647040_EINSATZ
  6
Continuous
 62
     7
100
AcDbLine
 10
104.7294257618
 20
404.0908037523
 30
0.0
 11
104.8448629749
 21
404.6689428142
 31
0.0
  0
LINE
  5
2BC
330
EF
100
AcDbEntity
  8
64647040_EINSATZ
  6
Continuous
 62
     7
100
AcDbLine
 10
93.6315843376
 20
404.6689428142
 30
0.0
 11
93.7155639779
 21
404.1638018005
 31
0.0
  0
LINE
  5
2BD
330
EF
100
AcDbEntity
  8
64647040_EINSATZ
  6
Continuous
 62
     7
100
AcDbLine
 10
102.9986692805
 20
404.1638018005
 30
0.0
 11
103.0826489208
 21
404.6689428142
 31
0.0
  0
SPLINE
  5
2BE
330
EF
100
AcDbEntity
  8
64647040_EINSATZ
  6
Continuous
 62
     7
100
AcDbSpline
210
0.0
220
0.0
230
1.0
 70
     8
 71
     3
 72
    21
 73
    17
 74
     0
 42
0.000000002188459
 43
0.0000000001
 40
0.0
 40
0.0
 40
0.0
 40
0.0
 40
0.0445148446350949
 40
0.1207276703425084
 40
0.1968862568680604
 40
0.2729813376795051
 40
0.3490032292247077
 40
0.4249428630871559
 40
0.5007939587211753
 40
0.5765572498520128
 40
0.6522482290956988
 40
0.7279104713305191
 40
0.8036001046039178
 40
0.8794573174664825
 40
0.9557176258264303
 40
1.0
 40
1.0
 40
1.0
 40
1.0
 10
103.4454840004844
 20
408.3726395971723
 30
0.0
 10
103.547848300837
 20
408.3466772958726
 30
0.0
 10
103.7829981615708
 20
408.2866603704464
 30
0.0
 10
104.1797217289798
 20
408.167078774202
 30
0.0
 10
104.6044204039874
 20
408.0234277147989
 30
0.0
 10
105.005530980953
 20
407.868642238942
 30
0.0
 10
105.3775208825563
 20
407.7053803384676
 30
0.0
 10
105.719817257278
 20
407.5339776688743
 30
0.0
 10
106.0307084378267
 20
407.3554754706724
 30
0.0
 10
106.3089855339764
 20
407.1708236127723
 30
0.0
 10
106.5536162452771
 20
406.9810199658347
 30
0.0
 10
106.7635668982457
 20
406.7872946533705
 30
0.0
 10
106.9389581673082
 20
406.5901515683615
 30
0.0
 10
107.0769282557843
 20
406.3926417996491
 30
0.0
 10
107.1715067510027
 20
406.216754945608
 30
0.0
 10
107.2027014080458
 20
406.1187926088003
 30
0.0
 10
107.2158456642695
 20
406.0764036457995
 30
0.0
  0
SPLINE
  5
2BF
330
EF
100
AcDbEntity
  8
64647040_EINSATZ
  6
Continuous
 62
     7
100
AcDbSpline
210
0.0
220
0.0
230
1.0
 70
     8
 71
     3
 72
    20
 73
    16
 74
     0
 42
0.0000000023957924
 43
0.0000000001
 40
0.0
 40
0.0
 40
0.0
 40
0.0
 40
0.0303004127707445
 40
0.1138808597892039
 40
0.1962712636222605
 40
0.2778059543468815
 40
0.3588555621450762
 40
0.4396891047618978
 40
0.5204687900158498
 40
0.6012618516189925
 40
0.6821171181952747
 40
0.7630547794903453
 40
0.8440780361897893
 40
0.9251818415083207
 40
1.0
 40
1.0
 40
1.0
 40
1.0
 10
89.49849694257519
 20
406.0767677275476
 30
0.0
 10
89.50609534956574
 20
406.1039512030663
 30
0.0
 10
89.53093284029802
 20
406.1911172086492
 30
0.0
 10
89.61602388400657
 20
406.3565280332132
 30
0.0
 10
89.74971549936345
 20
406.5577183782923
 30
0.0
 10
89.92163533869852
 20
406.7574462898058
 30
0.0
 10
90.12747558928336
 20
406.9527285426458
 30
0.0
 10
90.36766243998206
 20
407.1435992135675
 30
0.0
 10
90.6411992217841
 20
407.329103569463
 30
0.0
 10
90.94728328192484
 20
407.508458827133
 30
0.0
 10
91.28450114848603
 20
407.6806704112398
 30
0.0
 10
91.65243130451009
 20
407.8452795873699
 30
0.0
 10
92.04622593661064
 20
408.0000234191378
 30
0.0
 10
92.46548227130839
 20
408.1456305160447
 30
0.0
 10
92.73387194079817
 20
408.2252855389769
 30
0.0
 10
92.8870015295911
 20
408.2703287328742
 30
0.0
  0
LINE
  5
2C0
330
EF
100
AcDbEntity
  8
64647040_EINSATZ
  6
Continuous
 62
     7
100
AcDbLine
 10
89.0071166292
 20
407.2892235243
 30
0.0
 11
89.0071166292
 21
405.6769628724
 31
0.0
  0
LINE
  5
2C1
330
EF
100
AcDbEntity
  8
64647040_EINSATZ
  6
Continuous
 62
     7
100
AcDbLine
 10
107.7071166292
 20
405.6769628724
 30
0.0
 11
107.7071166292
 21
407.2892235243
 31
0.0
  0
SPLINE
  5
2C2
330
EF
100
AcDbEntity
  8
64647040_EINSATZ
  6
Continuous
 62
     7
100
AcDbSpline
210
0.0
220
0.0
230
1.0
 70
     8
 71
     3
 72
    12
 73
     8
 74
     0
 42
0.0000000045394854
 43
0.0000000001
 40
0.5109110065613751
 40
0.5109110065613751
 40
0.5109110065613751
 40
0.5109110065613751
 40
0.5599328598344003
 40
0.6853306113128051
 40
0.8104060511005794
 40
0.9348427608099397
 40
0.9667280785850613
 40
0.9667280785850613
 40
0.9667280785850613
 40
0.9667280785850613
 10
106.8766820116985
 20
404.3148098947753
 30
0.0
 10
106.90637947585
 20
404.3421467858943
 30
0.0
 10
107.0089024862896
 20
404.4400359121956
 30
0.0
 10
107.1658378913577
 20
404.6120964731167
 30
0.0
 10
107.3249789360882
 20
404.8315498266659
 30
0.0
 10
107.4205230045841
 20
405.0057078847845
 30
0.0
 10
107.4587746966806
 20
405.0966700799634
 30
0.0
 10
107.4665258193704
 20
405.1158811175309
 30
0.0
  0
SPLINE
  5
2C3
330
EF
100
AcDbEntity
  8
64647040_EINSATZ
  6
Continuous
 62
     7
100
AcDbSpline
210
0.0
220
0.0
230
1.0
 70
     8
 71
     3
 72
    12
 73
     8
 74
     0
 42
0.0000000045381432
 43
0.0000000001
 40
0.0334330131331763
 40
0.0334330131331763
 40
0.0334330131331763
 40
0.0334330131331763
 40
0.059777133726623
 40
0.1822501427555289
 40
0.3054973243782177
 40
0.4297123434762651
 40
0.4889819839403837
 40
0.4889819839403837
 40
0.4889819839403837
 40
0.4889819839403837
 10
89.2475699047319
 20
405.1158973103527
 30
0.0
 10
89.25393073594844
 20
405.1001168139197
 30
0.0
 10
89.29020123589149
 20
405.0133680649377
 30
0.0
 10
89.38115600088966
 20
404.8447013115991
 30
0.0
 10
89.53581146927591
 20
404.6278193201401
 30
0.0
 10
89.69426858769741
 20
404.4511915689411
 30
0.0
 10
89.80140511032242
 20
404.3480867980141
 30
0.0
 10
89.83730661272573
 20
404.3150348503707
 30
0.0
  0
LINE
  5
2C4
330
EF
100
AcDbEntity
  8
64647040_EINSATZ
  6
Continuous
 62
     7
100
AcDbLine
 10
97.0900945117
 20
403.82363006
 30
0.0
 11
98.1001998134
 21
404.4790244128
 31
0.0
  0
LINE
  5
2C5
330
EF
100
AcDbEntity
  8
64647040_EINSATZ
  6
Continuous
 62
     7
100
AcDbLine
 10
96.2023889581
 20
403.2476532723
 30
0.0
 11
96.4668211058
 21
403.4192268062
 31
0.0
  0
LINE
  5
2C6
330
EF
100
AcDbEntity
  8
64647040_EINSATZ
  6
Continuous
 62
     7
100
AcDbLine
 10
95.3335522223
 20
402.6839192841
 30
0.0
 11
95.5688339893
 21
402.8365789535
 31
0.0
  0
LINE
  5
2C7
330
EF
100
AcDbEntity
  8
64647040_EINSATZ
  6
Continuous
 62
     7
100
AcDbLine
 10
94.421001692
 20
402.0918221401
 30
0.0
 11
94.6925660329
 21
402.2680233096
 31
0.0
  0
LINE
  5
2C8
330
EF
100
AcDbEntity
  8
64647040_EINSATZ
  6
Continuous
 62
     7
100
AcDbLine
 10
95.7985622685
 20
404.4114823915
 30
0.0
 11
97.8258163572
 21
404.6149691036
 31
0.0
  0
LINE
  5
2C9
330
EF
100
AcDbEntity
  8
64647040_EINSATZ
  6
Continuous
 62
     7
100
AcDbLine
 10
94.0838593815
 20
404.2393681733
 30
0.0
 11
95.4500739096
 21
404.3765026864
 31
0.0
  0
LINE
  5
2CA
330
EF
100
AcDbEntity
  8
64647040_EINSATZ
  6
Continuous
 62
     7
100
AcDbLine
 10
92.4054853948
 20
404.0709004878
 30
0.0
 11
93.7092523028
 21
404.2017667876
 31
0.0
  0
LINE
  5
2CB
330
EF
100
AcDbEntity
  8
64647040_EINSATZ
  6
Continuous
 62
     7
100
AcDbLine
 10
90.6426254017
 20
403.8939524743
 30
0.0
 11
91.9990045242
 21
404.0300997533
 31
0.0
  0
LINE
  5
2CC
330
EF
100
AcDbEntity
  8
64647040_EINSATZ
  6
Continuous
 62
     7
100
AcDbLine
 10
96.7059482254
 20
405.0231228723
 30
0.0
 11
97.8414528851
 21
404.777536813
 31
0.0
  0
LINE
  5
2CD
330
EF
100
AcDbEntity
  8
64647040_EINSATZ
  6
Continuous
 62
     7
100
AcDbLine
 10
95.0893291005
 20
405.3727639918
 30
0.0
 11
95.7664455803
 21
405.2263177693
 31
0.0
  0
LINE
  5
2CE
330
EF
100
AcDbEntity
  8
64647040_EINSATZ
  6
Continuous
 62
     7
100
AcDbLine
 10
92.9831091413
 20
405.8282955965
 30
0.0
 11
94.2434840843
 21
405.55570269
 31
0.0
  0
LINE
  5
2CF
330
EF
100
AcDbEntity
  8
64647040_EINSATZ
  6
Continuous
 62
     7
100
AcDbLine
 10
92.1493218628
 20
406.0086264567
 30
0.0
 11
92.7242989802
 21
405.8842708556
 31
0.0
  0
LINE
  5
2D0
330
EF
100
AcDbEntity
  8
64647040_EINSATZ
  6
Continuous
 62
     7
100
AcDbLine
 10
97.9072402788
 20
405.2145048309
 30
0.0
 11
98.1114623678
 21
404.9289919678
 31
0.0
  0
LINE
  5
2D1
330
EF
100
AcDbEntity
  8
64647040_EINSATZ
  6
Continuous
 62
     7
100
AcDbLine
 10
97.4464852608
 20
405.8586637705
 30
0.0
 11
97.4976638333
 21
405.7871135242
 31
0.0
  0
LINE
  5
2D2
330
EF
100
AcDbEntity
  8
64647040_EINSATZ
  6
Continuous
 62
     7
100
AcDbLine
 10
96.5817881839
 20
407.0675542447
 30
0.0
 11
96.5883482663
 21
407.058382916
 31
0.0
  0
LINE
  5
2D3
330
EF
100
AcDbEntity
  8
64647040_EINSATZ
  6
Continuous
 62
     7
100
AcDbLine
 10
98.708807953
 20
404.8739122895
 30
0.0
 11
99.1822227195
 21
405.1810816153
 31
0.0
  0
LINE
  5
2D4
330
EF
100
AcDbEntity
  8
64647040_EINSATZ
  6
Continuous
 62
     7
100
AcDbLine
 10
99.9022206345
 20
405.6482433724
 30
0.0
 11
100.082935868
 21
405.7654982203
 31
0.0
  0
LINE
  5
2D5
330
EF
100
AcDbEntity
  8
64647040_EINSATZ
  6
Continuous
 62
     7
100
AcDbLine
 10
101.658720587
 20
406.7879266784
 30
0.0
 11
101.7602668125
 21
406.853813693
 31
0.0
  0
LINE
  5
2D6
330
EF
100
AcDbEntity
  8
64647040_EINSATZ
  6
Continuous
 62
     7
100
AcDbLine
 10
98.9140462414
 20
404.7242007596
 30
0.0
 11
100.4112717389
 21
404.8744855687
 31
0.0
  0
LINE
  5
2D7
330
EF
100
AcDbEntity
  8
64647040_EINSATZ
  6
Continuous
 62
     7
100
AcDbLine
 10
101.2295337408
 20
404.9566190542
 30
0.0
 11
102.2210513343
 21
405.0561431623
 31
0.0
  0
LINE
  5
2D8
330
EF
100
AcDbEntity
  8
64647040_EINSATZ
  6
Continuous
 62
     7
100
AcDbLine
 10
102.9283580999
 20
405.1271394567
 30
0.0
 11
103.9424119804
 21
405.2289256567
 31
0.0
  0
LINE
  5
2D9
330
EF
100
AcDbEntity
  8
64647040_EINSATZ
  6
Continuous
 62
     7
100
AcDbLine
 10
104.6225671705
 20
405.2971965972
 30
0.0
 11
105.5544004018
 21
405.3907298556
 31
0.0
  0
LINE
  5
2DA
330
EF
100
AcDbEntity
  8
64647040_EINSATZ
  6
Continuous
 62
     7
100
AcDbLine
 10
98.8196921978
 20
404.5659639799
 30
0.0
 11
100.6359339241
 21
404.1731486404
 31
0.0
  0
LINE
  5
2DB
330
EF
100
AcDbEntity
  8
64647040_EINSATZ
  6
Continuous
 62
     7
100
AcDbLine
 10
101.1760777134
 20
404.0563267643
 30
0.0
 11
102.1733195069
 21
403.8406440895
 31
0.0
  0
LINE
  5
2DC
330
EF
100
AcDbEntity
  8
64647040_EINSATZ
  6
Continuous
 62
     7
100
AcDbLine
 10
102.7718087582
 20
403.7112033026
 30
0.0
 11
103.6781190313
 21
403.5151872258
 31
0.0
  0
LINE
  5
2DD
330
EF
100
AcDbEntity
  8
64647040_EINSATZ
  6
Continuous
 62
     7
100
AcDbLine
 10
104.3053749109
 20
403.379524815
 30
0.0
 11
105.2586622248
 21
403.1733485806
 31
0.0
  0
LINE
  5
2DE
330
EF
100
AcDbEntity
  8
64647040_EINSATZ
  6
Continuous
 62
     7
100
AcDbLine
 10
98.4536837609
 20
404.4505490619
 30
0.0
 11
98.9540949136
 21
403.7509488298
 31
0.0
  0
LINE
  5
2DF
330
EF
100
AcDbEntity
  8
64647040_EINSATZ
  6
Continuous
 62
     7
100
AcDbLine
 10
99.3346852097
 20
403.2188642469
 30
0.0
 11
99.4136738309
 21
403.1084341387
 31
0.0
  0
LINE
  5
2E0
330
EF
100
AcDbEntity
  8
64647040_EINSATZ
  6
Continuous
 62
     7
100
AcDbLine
 10
99.7947623824
 20
402.5756529694
 30
0.0
 11
99.8634458007
 21
402.4796300587
 31
0.0
  0
LINE
  5
2E1
330
EF
100
AcDbEntity
  8
64647040_EINSATZ
  6
Continuous
 62
     7
100
AcDbLine
 10
100.2457021416
 20
401.9452162604
 30
0.0
 11
100.335833596
 21
401.819207905
 31
0.0
  0
LINE
  5
2E2
330
EF
100
AcDbEntity
  8
64647040_EINSATZ
  6
Continuous
 62
     7
100
AcDbLine
 10
96.8507852996
 20
402.4796270416
 30
0.0
 11
96.919470876
 21
402.5756529694
 31
0.0
  0
LINE
  5
2E3
330
EF
100
AcDbEntity
  8
64647040_EINSATZ
  6
Continuous
 62
     7
100
AcDbLine
 10
96.378397997
 20
401.8192055766
 30
0.0
 11
96.4685311168
 21
401.9452162604
 31
0.0
  0
LINE
  5
2E4
330
EF
100
AcDbEntity
  8
64647040_EINSATZ
  6
Continuous
 62
     7
100
AcDbLine
 10
94.0336044136
 20
403.0408769929
 30
0.0
 11
94.5542616117
 21
403.2359186122
 31
0.0
  0
LINE
  5
2E5
330
EF
100
AcDbEntity
  8
64647040_EINSATZ
  6
Continuous
 62
     7
100
AcDbLine
 10
92.7430861977
 20
402.5574403603
 30
0.0
 11
93.3080339144
 21
402.7690734999
 31
0.0
  0
LINE
  5
2E6
330
EF
100
AcDbEntity
  8
64647040_EINSATZ
  6
Continuous
 62
     7
100
AcDbLine
 10
93.0361075115
 20
403.5151857734
 30
0.0
 11
93.9407512064
 21
403.7108414039
 31
0.0
  0
LINE
  5
2E7
330
EF
100
AcDbEntity
  8
64647040_EINSATZ
  6
Continuous
 62
     7
100
AcDbLine
 10
91.455565848
 20
403.1733474591
 30
0.0
 11
92.4073160313
 21
403.379191244
 31
0.0
  0
LINE
  5
2E8
330
EF
100
AcDbEntity
  8
64647040_EINSATZ
  6
Continuous
 62
     7
100
AcDbLine
 10
92.2843026512
 20
404.6689428142
 30
0.0
 11
93.637972802
 21
404.6689428142
 31
0.0
  0
LINE
  5
2E9
330
EF
100
AcDbEntity
  8
64647040_EINSATZ
  6
Continuous
 62
     7
100
AcDbLine
 10
90.5850771508
 20
404.6689428142
 30
0.0
 11
91.8839195345
 21
404.6689428142
 31
0.0
  0
LINE
  5
2EA
330
EF
100
AcDbEntity
  8
64647040_EINSATZ
  6
Continuous
 62
     7
100
AcDbLine
 10
92.7719460151
 20
405.2289131361
 30
0.0
 11
93.7859540447
 21
405.1271315385
 31
0.0
  0
LINE
  5
2EB
330
EF
100
AcDbEntity
  8
64647040_EINSATZ
  6
Continuous
 62
     7
100
AcDbLine
 10
91.1598328566
 20
405.3907298556
 30
0.0
 11
92.091632089
 21
405.2972000099
 31
0.0
  0
LINE
  5
2EC
330
EF
100
AcDbEntity
  8
64647040_EINSATZ
  6
Continuous
 62
     7
100
AcDbLine
 10
93.9482838918
 20
406.3120709883
 30
0.0
 11
94.976974928
 21
405.9267165435
 31
0.0
  0
LINE
  5
2ED
330
EF
100
AcDbEntity
  8
64647040_EINSATZ
  6
Continuous
 62
     7
100
AcDbLine
 10
93.4470041209
 20
406.4998536956
 30
0.0
 11
93.7364459034
 21
406.3914268955
 31
0.0
  0
LINE
  5
2EE
330
EF
100
AcDbEntity
  8
64647040_EINSATZ
  6
Continuous
 62
     7
100
AcDbLine
 10
94.9539664459
 20
406.853813693
 30
0.0
 11
95.0555853472
 21
406.7878795236
 31
0.0
  0
LINE
  5
2EF
330
EF
100
AcDbEntity
  8
64647040_EINSATZ
  6
Continuous
 62
     7
100
AcDbLine
 10
100.1259230421
 20
407.0584361118
 30
0.0
 11
100.1324450745
 21
407.0675542447
 31
0.0
  0
LINE
  5
2F0
330
EF
100
AcDbEntity
  8
64647040_EINSATZ
  6
Continuous
 62
     7
100
AcDbLine
 10
101.7373451532
 20
405.9267490679
 30
0.0
 11
102.765945286
 21
406.3120694597
 31
0.0
  0
LINE
  5
2F1
330
EF
100
AcDbEntity
  8
64647040_EINSATZ
  6
Continuous
 62
     7
100
AcDbLine
 10
102.9777506773
 20
406.3914131558
 30
0.0
 11
103.2672291375
 21
406.4998536956
 31
0.0
  0
LINE
  5
2F2
330
EF
100
AcDbEntity
  8
64647040_EINSATZ
  6
Continuous
 62
     7
100
AcDbLine
 10
102.4707526348
 20
405.5557034385
 30
0.0
 11
103.7311174014
 21
405.828294144
 31
0.0
  0
LINE
  5
2F3
330
EF
100
AcDbEntity
  8
64647040_EINSATZ
  6
Continuous
 62
     7
100
AcDbLine
 10
103.9897813386
 20
405.884237778
 30
0.0
 11
104.5649113956
 21
406.0086264567
 31
0.0
  0
LINE
  5
2F4
330
EF
100
AcDbEntity
  8
64647040_EINSATZ
  6
Continuous
 62
     7
100
AcDbLine
 10
103.0763613603
 20
404.6689428142
 30
0.0
 11
104.4364707698
 21
404.6689428142
 31
0.0
  0
LINE
  5
2F5
330
EF
100
AcDbEntity
  8
64647040_EINSATZ
  6
Continuous
 62
     7
100
AcDbLine
 10
104.8303241041
 20
404.6689428142
 30
0.0
 11
106.1291561076
 21
404.6689428142
 31
0.0
  0
LINE
  5
2F6
330
EF
100
AcDbEntity
  8
64647040_EINSATZ
  6
Continuous
 62
     7
100
AcDbLine
 10
103.0049809556
 20
404.2017667876
 30
0.0
 11
104.3087498936
 21
404.070900284
 31
0.0
  0
LINE
  5
2F7
330
EF
100
AcDbEntity
  8
64647040_EINSATZ
  6
Continuous
 62
     7
100
AcDbLine
 10
104.7152287342
 20
404.0300997533
 30
0.0
 11
106.071609422
 21
403.8939523172
 31
0.0
  0
LINE
  5
2F8
330
EF
100
AcDbEntity
  8
64647040_EINSATZ
  6
Continuous
 62
     7
100
AcDbLine
 10
102.1578330126
 20
403.2367197587
 30
0.0
 11
102.6806247642
 21
403.0408785216
 31
0.0
  0
LINE
  5
2F9
330
EF
100
AcDbEntity
  8
64647040_EINSATZ
  6
Continuous
 62
     7
100
AcDbLine
 10
103.4044296899
 20
402.769736424
 30
0.0
 11
103.9711439116
 21
402.55744154
 31
0.0
  0
LINE
  5
2FA
330
EF
100
AcDbEntity
  8
64647040_EINSATZ
  6
Continuous
 62
     7
100
AcDbLine
 10
101.1472836533
 20
402.8353562941
 30
0.0
 11
101.3806834585
 21
402.6839177124
 31
0.0
  0
LINE
  5
2FB
330
EF
100
AcDbEntity
  8
64647040_EINSATZ
  6
Continuous
 62
     7
100
AcDbLine
 10
102.0214911906
 20
402.2681375276
 30
0.0
 11
102.2932334357
 21
402.0918209272
 31
0.0
  0
ARC
  5
2FC
330
EF
100
AcDbEntity
  8
$DDT_AUDIT_GENERATED_(DE)
  6
Continuous
 62
     7
100
AcDbCircle
 10
98.3571166292
 20
418.1112985596
 30
0.0
 40
20.5
100
AcDbArc
 50
24.189514154
 51
30.4619513078
  0
ARC
  5
2FD
330
EF
100
AcDbEntity
  8
$DDT_AUDIT_GENERATED_(DE)
  6
Continuous
 62
     7
100
AcDbCircle
 10
98.3571166292
 20
418.1112985596
 30
0.0
 40
20.5
100
AcDbArc
 50
149.5380486922
 51
155.810485846
  0
ENDBLK
  5
2FF
330
EF
100
AcDbEntity
  8
0
100
AcDbBlockEnd
  0
BLOCK
  5
34B
330
300
100
AcDbEntity
  8
0
100
AcDbBlockBegin
  2
SE2
 70
     0
 10
0.0
 20
0.0
 30
0.0
  3
SE2
  1

  0
LINE
  5
302
330
300
100
AcDbEntity
  8
$DDT_AUDIT_GENERATED_(77)
  6
Continuous
 62
     7
100
AcDbLine
 10
77.3571166292
 20
90.2087655682
 30
0.0
 11
119.3571166292
 21
90.2087655682
 31
0.0
  0
LINE
  5
303
330
300
100
AcDbEntity
  8
$DDT_AUDIT_GENERATED_(77)
  6
Continuous
 62
     7
100
AcDbLine
 10
76.8571166292
 20
90.7087655682
 30
0.0
 11
76.8571166292
 21
221.2087655682
 31
0.0
  0
LINE
  5
304
330
300
100
AcDbEntity
  8
$DDT_AUDIT_GENERATED_(77)
  6
Continuous
 62
     7
100
AcDbLine
 10
77.3571166292
 20
221.7087655682
 30
0.0
 11
119.3571166292
 21
221.7087655682
 31
0.0
  0
LINE
  5
305
330
300
100
AcDbEntity
  8
$DDT_AUDIT_GENERATED_(77)
  6
Continuous
 62
     7
100
AcDbLine
 10
119.8571166292
 20
221.2087655682
 30
0.0
 11
119.8571166292
 21
90.7087655682
 31
0.0
  0
ARC
  5
306
330
300
100
AcDbEntity
  8
$DDT_AUDIT_GENERATED_(77)
  6
Continuous
 62
     7
100
AcDbCircle
 10
77.3571166292
 20
90.7087655682
 30
0.0
 40
0.5000000000000282
100
AcDbArc
 50
180.0
 51
270.0
  0
ARC
  5
307
330
300
100
AcDbEntity
  8
$DDT_AUDIT_GENERATED_(77)
  6
Continuous
 62
     7
100
AcDbCircle
 10
119.3571166292
 20
90.7087655682
 30
0.0
 40
0.5000000000000525
100
AcDbArc
 50
270.0
 51
0.0
  0
ARC
  5
308
330
300
100
AcDbEntity
  8
$DDT_AUDIT_GENERATED_(77)
  6
Continuous
 62
     7
100
AcDbCircle
 10
77.3571166292
 20
221.2087655682
 30
0.0
 40
0.4999999999999935
100
AcDbArc
 50
90.0
 51
180.0
  0
ARC
  5
309
330
300
100
AcDbEntity
  8
$DDT_AUDIT_GENERATED_(77)
  6
Continuous
 62
     7
100
AcDbCircle
 10
119.3571166292
 20
221.2087655682
 30
0.0
 40
0.4999999999998686
100
AcDbArc
 50
0.0
 51
90.0
  0
ELLIPSE
  5
30A
330
300
100
AcDbEntity
  8
$DDT_AUDIT_GENERATED_(83)
  6
Continuous
 62
     7
100
AcDbEllipse
 10
116.8073123256
 20
178.4125694255
 30
0.0
 11
-0.4999711539720419
 21
0.005370818702367356
 31
0.0
210
0.0
220
0.0
230
0.9999999999999999
 40
0.1218624168
 41
3.141579919625528
 42
3.229516084874218
  0
ELLIPSE
  5
30B
330
300
100
AcDbEntity
  8
$DDT_AUDIT_GENERATED_(83)
  6
Continuous
 62
     7
100
AcDbEllipse
 10
79.9069209329
 20
178.4125694255
 30
0.0
 11
0.4999711540677118
 21
0.005370818705961763
 31
0.0
210
0.0
220
0.0
230
1.0
 40
0.1218624168
 41
3.053669222170382
 42
3.141592654056173
  0
LINE
  5
30C
330
300
100
AcDbEntity
  8
$DDT_AUDIT_GENERATED_(83)
  6
Continuous
 62
     7
100
AcDbLine
 10
86.8571166292
 20
154.7229023682
 30
0.0
 11
86.8571166292
 21
135.864512094
 31
0.0
  0
LINE
  5
30D
330
300
100
AcDbEntity
  8
$DDT_AUDIT_GENERATED_(83)
  6
Continuous
 62
     7
100
AcDbLine
 10
109.8571166292
 20
135.864512094
 30
0.0
 11
109.8571166292
 21
154.7229023682
 31
0.0
  0
ARC
  5
30E
330
300
100
AcDbEntity
  8
$DDT_AUDIT_GENERATED_(83)
  6
Continuous
 62
     7
100
AcDbCircle
 10
88.8496905608
 20
154.7154205313
 30
0.0
 40
1.992587978143952
100
AcDbArc
 50
174.4561749415
 51
179.7848633587
  0
ARC
  5
30F
330
300
100
AcDbEntity
  8
$DDT_AUDIT_GENERATED_(83)
  6
Continuous
 62
     7
100
AcDbCircle
 10
107.8645426976
 20
154.7154205313
 30
0.0
 40
1.992587978144093
100
AcDbArc
 50
0.2151366413
 51
5.5438250589
  0
ARC
  5
310
330
300
100
AcDbEntity
  8
$DDT_AUDIT_GENERATED_(83)
  6
Continuous
 62
     7
100
AcDbCircle
 10
107.8645426976
 20
135.8719939309
 30
0.0
 40
1.992587978145323
100
AcDbArc
 50
353.054745559
 51
359.7848633587
  0
SPLINE
  5
311
330
300
100
AcDbEntity
  8
$DDT_AUDIT_GENERATED_(83)
  6
Continuous
 62
     7
100
AcDbSpline
210
0.0
220
0.0
230
1.0
 70
     8
 71
     3
 72
     8
 73
     4
 74
     0
 42
0.0000000796307553
 43
0.0000000001
 40
0.0
 40
0.0
 40
0.0
 40
0.0
 40
0.10629138355638
 40
0.10629138355638
 40
0.10629138355638
 40
0.10629138355638
 10
86.85711662920185
 20
154.7229023681811
 30
0.0
 10
86.85711662920187
 20
154.7262936287331
 30
0.0
 10
86.85468141887635
 20
154.7296804499584
 30
0.0
 10
86.84995714863493
 20
154.7330198316849
 30
0.0
  0
SPLINE
  5
312
330
300
100
AcDbEntity
  8
$DDT_AUDIT_GENERATED_(83)
  6
Continuous
 62
     7
100
AcDbSpline
210
0.0
220
0.0
230
1.0
 70
     8
 71
     3
 72
     8
 73
     4
 74
     0
 42
0.0000000796307553
 43
0.0000000001
 40
0.8937086163743477
 40
0.8937086163743477
 40
0.8937086163743477
 40
0.8937086163743477
 40
1.0
 40
1.0
 40
1.0
 40
1.0
 10
109.864276109784
 20
154.7330198316903
 30
0.0
 10
109.8595518395349
 20
154.729680449962
 30
0.0
 10
109.8571166292043
 20
154.7262936287349
 30
0.0
 10
109.8571166292019
 20
154.7229023681812
 30
0.0
  0
LINE
  5
313
330
300
100
AcDbEntity
  8
$DDT_AUDIT_GENERATED_(83)
  6
Continuous
 62
     7
100
AcDbLine
 10
88.8571166292
 20
133.8830176786
 30
0.0
 11
88.8571166292
 21
133.8795372116
 31
0.0
  0
ARC
  5
314
330
300
100
AcDbEntity
  8
$DDT_AUDIT_GENERATED_(83)
  6
Continuous
 62
     7
100
AcDbCircle
 10
88.8495236714
 20
154.3499806437
 30
0.0
 40
1.992420465657956
100
AcDbArc
 50
173.5139142906
 51
179.7896805615
  0
ARC
  5
315
330
300
100
AcDbEntity
  8
$DDT_AUDIT_GENERATED_(83)
  6
Continuous
 62
     7
100
AcDbCircle
 10
107.864709587
 20
154.3499806437
 30
0.0
 40
1.99242046565778
100
AcDbArc
 50
0.2103194385
 51
6.9408933035
  0
ELLIPSE
  5
316
330
300
100
AcDbEntity
  8
$DDT_AUDIT_GENERATED_(83)
  6
Continuous
 62
     7
100
AcDbEllipse
 10
98.3571166292
 20
219.818140934
 30
0.0
 11
-3.250000000000035
 21
-7.137899008768675E-15
 31
0.0
210
0.0
220
0.0
230
1.0
 40
0.0871590615
 41
0.0
 42
6.283185307179586
  0
ELLIPSE
  5
317
330
300
100
AcDbEntity
  8
$DDT_AUDIT_GENERATED_(83)
  6
Continuous
 62
     7
100
AcDbEllipse
 10
78.2953453373
 20
220.3152910208
 30
0.0
 11
0.4646057836809255
 21
0.1904787160993716
 31
0.0
210
0.0
220
0.0
230
0.9999999999999999
 40
0.9710952386
 41
1.175177737602237
 42
2.738377867845044
  0
ELLIPSE
  5
318
330
300
100
AcDbEntity
  8
$DDT_AUDIT_GENERATED_(83)
  6
Continuous
 62
     7
100
AcDbEllipse
 10
118.4188879211
 20
220.3152910208
 30
0.0
 11
0.4646057836809742
 21
-0.1904787160994098
 31
0.0
210
0.0
220
0.0
230
1.0
 40
0.9710952386
 41
0.4032147857715105
 42
1.966414915961802
  0
ELLIPSE
  5
319
330
300
100
AcDbEntity
  8
$DDT_AUDIT_GENERATED_(83)
  6
Continuous
 62
     7
100
AcDbEllipse
 10
118.6697648662
 20
220.3171192914
 30
0.0
 11
-0.2497727077950644
 21
-0.01065806928009923
 31
0.0
210
0.0
220
0.0
230
1.0
 40
0.4380490987
 41
3.044487404943228
 42
3.141592653589903
  0
LINE
  5
31A
330
300
100
AcDbEntity
  8
$DDT_AUDIT_GENERATED_(83)
  6
Continuous
 62
     7
100
AcDbLine
 10
118.4105239323
 20
220.8059757066
 30
0.0
 11
118.4105239323
 21
220.8050243811
 31
0.0
  0
LINE
  5
31B
330
300
100
AcDbEntity
  8
$DDT_AUDIT_GENERATED_(83)
  6
Continuous
 62
     7
100
AcDbLine
 10
78.3037093261
 20
220.8059757066
 30
0.0
 11
78.3037093261
 21
220.8050243811
 31
0.0
  0
ELLIPSE
  5
31C
330
300
100
AcDbEntity
  8
$DDT_AUDIT_GENERATED_(83)
  6
Continuous
 62
     7
100
AcDbEllipse
 10
78.0444683922
 20
220.3171192914
 30
0.0
 11
0.2497727077963689
 21
-0.01065806928155637
 31
0.0
210
0.0
220
0.0
230
1.0
 40
0.4380490987
 41
3.141592653590013
 42
3.238697902243455
  0
LINE
  5
31D
330
300
100
AcDbEntity
  8
$DDT_AUDIT_GENERATED_(83)
  6
Continuous
 62
     7
100
AcDbLine
 10
119.834289504
 20
179.2753955287
 30
0.0
 11
119.8342895039
 21
198.8851611106
 31
0.0
  0
LINE
  5
31E
330
300
100
AcDbEntity
  8
$DDT_AUDIT_GENERATED_(83)
  6
Continuous
 62
     7
100
AcDbLine
 10
76.8799437545
 20
198.8851611106
 30
0.0
 11
76.8799437545
 21
179.2753955287
 31
0.0
  0
LINE
  5
31F
330
300
100
AcDbEntity
  8
$DDT_AUDIT_GENERATED_(83)
  6
Continuous
 62
     7
100
AcDbLine
 10
116.6863612062
 20
120.6053543635
 30
0.0
 11
117.3072834796
 21
178.4071986068
 31
0.0
  0
LINE
  5
320
330
300
100
AcDbEntity
  8
$DDT_AUDIT_GENERATED_(83)
  6
Continuous
 62
     7
100
AcDbLine
 10
79.4069497787
 20
178.4071986068
 30
0.0
 11
80.0278720525
 21
120.6053543635
 31
0.0
  0
LINE
  5
321
330
300
100
AcDbEntity
  8
$DDT_AUDIT_GENERATED_(83)
  6
Continuous
 62
     7
100
AcDbLine
 10
80.527843206
 20
120.1107251822
 30
0.0
 11
116.1863900525
 21
120.1107251821
 31
0.0
  0
ARC
  5
322
330
300
100
AcDbEntity
  8
$DDT_AUDIT_GENERATED_(83)
  6
Continuous
 62
     7
100
AcDbCircle
 10
116.1863900525
 20
120.6107251822
 30
0.0
 40
0.5000000000002641
100
AcDbArc
 50
270.0
 51
359.3845376769
  0
ARC
  5
323
330
300
100
AcDbEntity
  8
$DDT_AUDIT_GENERATED_(83)
  6
Continuous
 62
     7
100
AcDbCircle
 10
80.527843206
 20
120.6107251822
 30
0.0
 40
0.4999999999957719
100
AcDbArc
 50
180.6154623234
 51
270.0
  0
LINE
  5
324
330
300
100
AcDbEntity
  8
$DDT_AUDIT_GENERATED_(83)
  6
Continuous
 62
     7
100
AcDbLine
 10
77.378992429
 20
178.7763468542
 30
0.0
 11
79.4031977696
 21
178.7763468542
 31
0.0
  0
LINE
  5
325
330
300
100
AcDbEntity
  8
$DDT_AUDIT_GENERATED_(83)
  6
Continuous
 62
     7
100
AcDbLine
 10
117.3110354722
 20
178.7763468542
 30
0.0
 11
119.3352408294
 21
178.7763468542
 31
0.0
  0
ARC
  5
326
330
300
100
AcDbEntity
  8
$DDT_AUDIT_GENERATED_(83)
  6
Continuous
 62
     7
100
AcDbCircle
 10
119.3380134873
 20
179.2726228708
 30
0.0
 40
0.4937924447717994
100
AcDbArc
 50
291.8799195733
 51
338.1199429508
  0
ARC
  5
327
330
300
100
AcDbEntity
  8
$DDT_AUDIT_GENERATED_(83)
  6
Continuous
 62
     7
100
AcDbCircle
 10
77.376219771
 20
179.2726228708
 30
0.0
 40
0.4937924447717582
100
AcDbArc
 50
201.8799194693
 51
248.1199431601
  0
LINE
  5
328
330
300
100
AcDbEntity
  8
$DDT_AUDIT_GENERATED_(83)
  6
Continuous
 62
     7
100
AcDbLine
 10
88.8546166292
 20
156.3386597171
 30
0.0
 11
107.8596166292
 21
156.3386597171
 31
0.0
  0
LINE
  5
329
330
300
100
AcDbEntity
  8
$DDT_AUDIT_GENERATED_(83)
  6
Continuous
 62
     7
100
AcDbLine
 10
107.8596166292
 20
133.8831467149
 30
0.0
 11
88.8546166292
 21
133.8831467149
 31
0.0
  0
ARC
  5
32A
330
300
100
AcDbEntity
  8
$DDT_AUDIT_GENERATED_(83)
  6
Continuous
 62
     7
100
AcDbCircle
 10
88.8494066195
 20
154.3490398468
 30
0.0
 40
1.993017329276647
100
AcDbArc
 50
168.8520888059
 51
174.4110603104
  0
ARC
  5
32B
330
300
100
AcDbEntity
  8
$DDT_AUDIT_GENERATED_(83)
  6
Continuous
 62
     7
100
AcDbCircle
 10
88.8494066195
 20
154.3490398468
 30
0.0
 40
1.993017329276647
100
AcDbArc
 50
89.232622953
 51
103.1573140395
  0
LINE
  5
32C
330
300
100
AcDbEntity
  8
$DDT_AUDIT_GENERATED_(83)
  6
Continuous
 62
     7
100
AcDbLine
 10
109.838278596
 20
154.5895917201
 30
0.0
 11
109.8483695997
 21
154.5431413599
 31
0.0
  0
ARC
  5
32D
330
300
100
AcDbEntity
  8
$DDT_AUDIT_GENERATED_(83)
  6
Continuous
 62
     7
100
AcDbCircle
 10
107.8727410658
 20
154.3637064631
 30
0.0
 40
1.978474647800244
100
AcDbArc
 50
78.4447594358
 51
91.0022440296
  0
ARC
  5
32E
330
300
100
AcDbEntity
  8
$DDT_AUDIT_GENERATED_(83)
  6
Continuous
 62
     7
100
AcDbCircle
 10
107.8727410658
 20
154.3637064631
 30
0.0
 40
1.978474647800244
100
AcDbArc
 50
6.5558360556
 51
10.4894535996
  0
LINE
  5
32F
330
300
100
AcDbEntity
  8
$DDT_AUDIT_GENERATED_(83)
  6
Continuous
 62
     7
100
AcDbLine
 10
86.8486866267
 20
154.7152968058
 30
0.0
 11
86.8658636587
 21
154.9087493904
 31
0.0
  0
LINE
  5
330
330
300
100
AcDbEntity
  8
$DDT_AUDIT_GENERATED_(83)
  6
Continuous
 62
     7
100
AcDbLine
 10
86.8756979249
 20
135.6217270948
 30
0.0
 11
86.8658636587
 21
135.6786650721
 31
0.0
  0
ARC
  5
331
330
300
100
AcDbEntity
  8
$DDT_AUDIT_GENERATED_(83)
  6
Continuous
 62
     7
100
AcDbCircle
 10
88.8490266446
 20
135.8684344431
 30
0.0
 40
1.988690713015042
100
AcDbArc
 50
187.1261958581
 51
270.7799950426
  0
LINE
  5
332
330
300
100
AcDbEntity
  8
$DDT_AUDIT_GENERATED_(83)
  6
Continuous
 62
     7
100
AcDbLine
 10
109.8483695997
 20
154.9087493904
 30
0.0
 11
109.8655466317
 21
154.7152968059
 31
0.0
  0
ARC
  5
333
330
300
100
AcDbEntity
  8
$DDT_AUDIT_GENERATED_(83)
  6
Continuous
 62
     7
100
AcDbCircle
 10
107.8727410658
 20
135.8580999689
 30
0.0
 40
1.978474647800117
100
AcDbArc
 50
268.9977559704
 51
353.4441639444
  0
LINE
  5
334
330
300
100
AcDbEntity
  8
$DDT_AUDIT_GENERATED_(83)
  6
Continuous
 62
     7
100
AcDbLine
 10
109.8483695997
 20
135.6786650721
 30
0.0
 11
109.838278596
 21
135.6322147119
 31
0.0
  0
ARC
  5
335
330
300
100
AcDbEntity
  8
$DDT_AUDIT_GENERATED_(83)
  6
Continuous
 62
     7
100
AcDbCircle
 10
119.5842895039
 20
198.8851611106
 30
0.0
 40
0.250000000000021
100
AcDbArc
 50
0.0000000001
 51
2.4433900797
  0
LINE
  5
336
330
300
100
AcDbEntity
  8
$DDT_AUDIT_GENERATED_(83)
  6
Continuous
 62
     7
100
AcDbLine
 10
119.8340622117
 20
198.8958191799
 30
0.0
 11
118.919537574
 21
220.3277773607
 31
0.0
  0
LINE
  5
337
330
300
100
AcDbEntity
  8
$DDT_AUDIT_GENERATED_(83)
  6
Continuous
 62
     7
100
AcDbLine
 10
118.4105239323
 20
220.8059757066
 30
0.0
 11
78.3037093261
 21
220.8059757066
 31
0.0
  0
LINE
  5
338
330
300
100
AcDbEntity
  8
$DDT_AUDIT_GENERATED_(83)
  6
Continuous
 62
     7
100
AcDbLine
 10
77.7946956844
 20
220.3277773607
 30
0.0
 11
76.8801710467
 21
198.8958191799
 31
0.0
  0
ARC
  5
339
330
300
100
AcDbEntity
  8
$DDT_AUDIT_GENERATED_(83)
  6
Continuous
 62
     7
100
AcDbCircle
 10
77.1299437545
 20
198.8851611106
 30
0.0
 40
0.2499999999931152
100
AcDbArc
 50
177.5566099195
 51
180.0
  0
LINE
  5
33A
330
300
100
AcDbEntity
  8
$DDT_AUDIT_GENERATED_(96)
  6
Continuous
 62
     7
100
AcDbLine
 10
122.7571166292
 20
174.2087655682
 30
0.0
 11
119.8571166292
 21
174.2087655682
 31
0.0
  0
LINE
  5
33B
330
300
100
AcDbEntity
  8
$DDT_AUDIT_GENERATED_(96)
  6
Continuous
 62
     7
100
AcDbLine
 10
76.8571166292
 20
174.2087655682
 30
0.0
 11
73.9571166292
 21
174.2087655682
 31
0.0
  0
ARC
  5
33C
330
300
100
AcDbEntity
  8
$DDT_AUDIT_GENERATED_(96)
  6
Continuous
 62
     7
100
AcDbCircle
 10
73.9571166292
 20
175.8087655682
 30
0.0
 40
1.600000000000001
100
AcDbArc
 50
180.0
 51
270.0
  0
ARC
  5
33D
330
300
100
AcDbEntity
  8
$DDT_AUDIT_GENERATED_(96)
  6
Continuous
 62
     7
100
AcDbCircle
 10
122.7571166292
 20
175.8087655682
 30
0.0
 40
1.600000000000001
100
AcDbArc
 50
270.0
 51
0.0
  0
LINE
  5
33E
330
300
100
AcDbEntity
  8
$DDT_AUDIT_GENERATED_(96)
  6
Continuous
 62
     7
100
AcDbLine
 10
72.3571166292
 20
175.8087655682
 30
0.0
 11
72.3571166292
 21
224.6087655682
 31
0.0
  0
LINE
  5
33F
330
300
100
AcDbEntity
  8
$DDT_AUDIT_GENERATED_(96)
  6
Continuous
 62
     7
100
AcDbLine
 10
124.3571166292
 20
224.6087655682
 30
0.0
 11
124.3571166292
 21
175.8087655682
 31
0.0
  0
ARC
  5
340
330
300
100
AcDbEntity
  8
$DDT_AUDIT_GENERATED_(96)
  6
Continuous
 62
     7
100
AcDbCircle
 10
73.9571166292
 20
224.6087655682
 30
0.0
 40
1.599999999999997
100
AcDbArc
 50
90.0
 51
180.0
  0
ARC
  5
341
330
300
100
AcDbEntity
  8
$DDT_AUDIT_GENERATED_(96)
  6
Continuous
 62
     7
100
AcDbCircle
 10
122.7571166292
 20
224.6087655682
 30
0.0
 40
1.600000000000001
100
AcDbArc
 50
0.0
 51
90.0
  0
LINE
  5
342
330
300
100
AcDbEntity
  8
$DDT_AUDIT_GENERATED_(96)
  6
Continuous
 62
     7
100
AcDbLine
 10
73.9571166292
 20
226.2087655682
 30
0.0
 11
96.3571166292
 21
226.2087655682
 31
0.0
  0
LINE
  5
343
330
300
100
AcDbEntity
  8
$DDT_AUDIT_GENERATED_(96)
  6
Continuous
 62
     7
100
AcDbLine
 10
100.3571166292
 20
226.2087655682
 30
0.0
 11
122.7571166292
 21
226.2087655682
 31
0.0
  0
LINE
  5
344
330
300
100
AcDbEntity
  8
$DDT_AUDIT_GENERATED_(E5)
  6
Continuous
 62
     7
100
AcDbLine
 10
100.3571166292
 20
228.5457353353
 30
0.0
 11
100.3571166292
 21
239.9161077513
 31
0.0
  0
LINE
  5
345
330
300
100
AcDbEntity
  8
$DDT_AUDIT_GENERATED_(E5)
  6
Continuous
 62
     7
100
AcDbLine
 10
96.3571166292
 20
239.9161077513
 30
0.0
 11
96.3571166292
 21
228.5457353353
 31
0.0
  0
LINE
  5
346
330
300
100
AcDbEntity
  8
$DDT_AUDIT_GENERATED_(E5)
  6
Continuous
 62
     7
100
AcDbLine
 10
96.3571166292
 20
228.5457353353
 30
0.0
 11
96.3571166292
 21
225.6925657864
 31
0.0
  0
LINE
  5
347
330
300
100
AcDbEntity
  8
$DDT_AUDIT_GENERATED_(E5)
  6
Continuous
 62
     7
100
AcDbLine
 10
100.3571166292
 20
225.6925657864
 30
0.0
 11
100.3571166292
 21
228.5457353353
 31
0.0
  0
LINE
  5
348
330
300
100
AcDbEntity
  8
$DDT_AUDIT_GENERATED_(E5)
  6
Continuous
 62
     7
100
AcDbLine
 10
100.3571166292
 20
221.7087655682
 30
0.0
 11
100.3571166292
 21
225.6925657864
 31
0.0
  0
LINE
  5
349
330
300
100
AcDbEntity
  8
$DDT_AUDIT_GENERATED_(E5)
  6
Continuous
 62
     7
100
AcDbLine
 10
96.3571166292
 20
225.6925657864
 30
0.0
 11
96.3571166292
 21
221.7087655682
 31
0.0
  0
ARC
  5
34A
330
300
100
AcDbEntity
  8
$DDT_AUDIT_GENERATED_(E5)
  6
Continuous
 62
     7
100
AcDbCircle
 10
98.3571166292
 20
239.9161077513
 30
0.0
 40
2.000000000000002
100
AcDbArc
 50
0.0
 51
180.0
  0
ENDBLK
  5
34C
330
300
100
AcDbEntity
  8
0
100
AcDbBlockEnd
  0
ENDSEC
  0
SECTION
  2
ENTITIES
  0
INSERT
  5
5F
330
1F
100
AcDbEntity
  8
Default
100
AcDbBlockReference
  2
SEANNOT_GROUP
 10
0.0
 20
0.0
 30
0.0
  0
INSERT
  5
66
330
1F
100
AcDbEntity
  8
Default
100
AcDbBlockReference
  2
SEANNOT_GROUP1
 10
0.0
 20
0.0
 30
0.0
  0
INSERT
  5
6C
330
1F
100
AcDbEntity
  8
Default
100
AcDbBlockReference
  2
SEANNOT_GROUP2
 10
0.0
 20
0.0
 30
0.0
  0
INSERT
  5
71
330
1F
100
AcDbEntity
  8
Default
100
AcDbBlockReference
  2
SEANNOT_GROUP3
 10
0.0
 20
0.0
 30
0.0
  0
INSERT
  5
76
330
1F
100
AcDbEntity
  8
Default
100
AcDbBlockReference
  2
SE
 10
0.0
 20
0.0
 30
0.0
  0
INSERT
  5
F0
330
1F
100
AcDbEntity
  8
Default
100
AcDbBlockReference
  2
SE1
 10
0.0
 20
0.0
 30
0.0
  0
INSERT
  5
301
330
1F
100
AcDbEntity
  8
Default
100
AcDbBlockReference
  2
SE2
 10
0.0
 20
0.0
 30
0.0
  0
TEXT
  5
34E
330
1F
100
AcDbEntity
  8
Default
  6
Continuous
 62
     7
100
AcDbText
 10
5.9362635081
 20
53.4225120485
 30
0.0
 40
10.0
  1
Grohe AG^J
  7
SEACAD_seiso_ttf
 11
5.9362635081
 21
63.4225120485
 31
0.0
100
AcDbText
 73
     3
  0
TEXT
  5
34F
330
1F
100
AcDbEntity
  8
Default
  6
Continuous
 62
     7
100
AcDbText
 10
5.9362635081
 20
37.0588756849
 30
0.0
 40
10.0
  1
 
  7
SEACAD_seiso_ttf
 11
5.9362635081
 21
47.0588756849
 31
0.0
100
AcDbText
 73
     3
  0
TEXT
  5
350
330
1F
100
AcDbEntity
  8
Default
  6
Continuous
 62
     7
100
AcDbText
 10
5.9362635081
 20
20.6952393213
 30
0.0
 40
10.0
  1
ecn:
  7
SEACAD_seiso_ttf
 11
5.9362635081
 21
30.6952393213
 31
0.0
100
AcDbText
 73
     3
  0
TEXT
  5
351
330
1F
100
AcDbEntity
  8
Default
  6
Continuous
 62
     7
100
AcDbText
 10
5.9362635081
 20
4.3316029576
 30
0.0
 40
10.0
  1
unit: mm
  7
SEACAD_seiso_ttf
 11
5.9362635081
 21
14.3316029576
 31
0.0
100
AcDbText
 73
     3
  0
LINE
  5
352
330
1F
100
AcDbEntity
  8
Default
  6
Continuous
 62
     7
100
AcDbLine
 10
0.0
 20
0.0
 30
0.0
 11
100.0
 21
0.0
 31
0.0
  0
LINE
  5
353
330
1F
100
AcDbEntity
  8
Default
  6
Continuous
 62
     7
100
AcDbLine
 10
0.0
 20
0.0
 30
0.0
 11
0.0
 21
100.0
 31
0.0
  0
TEXT
  5
354
330
1F
100
AcDbEntity
  8
Default
  6
Continuous
 62
     7
100
AcDbText
 10
24.3923665681
 20
-18.2375342018
 30
0.0
 40
10.0
  1
100 mm
  7
SEACAD_seiso_ttf
 11
24.3923665681
 21
-8.2375342018
 31
0.0
100
AcDbText
 73
     3
  0
TEXT
  5
355
330
1F
100
AcDbEntity
  8
Default
  6
Continuous
 62
     7
100
AcDbText
 10
-7.6150308803
 20
24.6231930421
 30
0.0
 40
10.0
  1
100 mm
 50
90.0
  7
SEACAD_seiso_ttf
 11
-17.6150308803
 21
24.6231930421
 31
0.0
100
AcDbText
 73
     3
  0
TEXT
  5
356
330
1F
100
AcDbEntity
  8
Default
  6
Continuous
 62
     7
100
AcDbText
 10
28.4878128572
 20
20.0907663715
 30
0.0
 40
10.0
  1
221455
  7
SEACAD_seiso_ttf
 11
28.4878128572
 21
30.0907663715
 31
0.0
100
AcDbText
 73
     3
  0
TEXT
  5
357
330
1F
100
AcDbEntity
  8
Default
  6
Continuous
 62
     7
100
AcDbText
 10
5.9012241913
 20
36.7242780188
 30
0.0
 40
10.0
  1
23129000
  7
SEACAD_seiso_ttf
 11
5.9012241913
 21
46.7242780188
 31
0.0
100
AcDbText
 73
     3
  0
ENDSEC
  0
SECTION
  2
OBJECTS
  0
DICTIONARY
  5
C
330
0
100
AcDbDictionary
281
     1
  3
ACAD_GROUP
350
D
  3
ACAD_LAYOUT
350
1A
  3
ACAD_MLEADERSTYLE
350
35B
  3
ACAD_MLINESTYLE
350
17
  3
ACAD_PLOTSETTINGS
350
19
  3
ACAD_PLOTSTYLENAME
350
E
  3
ACAD_SCALELIST
350
3B
  3
ACAD_TABLESTYLE
350
35A
  3
ACAD_VISUALSTYLE
350
2A
  3
AcDbVariableDictionary
350
358
  0
DICTIONARY
  5
D
102
{ACAD_REACTORS
330
C
102
}
330
C
100
AcDbDictionary
281
     1
  0
DICTIONARY
  5
1A
102
{ACAD_REACTORS
330
C
102
}
330
C
100
AcDbDictionary
281
     1
  3
Layout1
350
1E
  3
Model
350
22
  0
DICTIONARY
  5
35B
102
{ACAD_REACTORS
330
C
102
}
330
C
100
AcDbDictionary
281
     1
  0
DICTIONARY
  5
17
102
{ACAD_REACTORS
330
C
102
}
330
C
100
AcDbDictionary
281
     1
  3
Standard
350
18
  0
DICTIONARY
  5
19
102
{ACAD_REACTORS
330
C
102
}
330
C
100
AcDbDictionary
281
     1
  0
ACDBDICTIONARYWDFLT
  5
E
102
{ACAD_REACTORS
330
C
102
}
330
C
100
AcDbDictionary
281
     1
  3
Normal
350
F
100
AcDbDictionaryWithDefault
340
F
  0
DICTIONARY
  5
3B
102
{ACAD_REACTORS
330
C
102
}
330
C
100
AcDbDictionary
281
     1
  3
A0
350
3C
  3
A1
350
3D
  3
A2
350
3E
  3
A3
350
3F
  3
A4
350
40
  3
A5
350
41
  3
A6
350
42
  3
A7
350
43
  3
A8
350
44
  3
A9
350
45
  3
B0
350
46
  3
B1
350
47
  3
B2
350
48
  3
B3
350
49
  3
B4
350
4A
  3
B5
350
4B
  3
B6
350
4C
  3
B7
350
4D
  3
B8
350
4E
  3
B9
350
4F
  3
C0
350
50
  3
C1
350
51
  3
C2
350
52
  3
C3
350
53
  3
C4
350
54
  3
C5
350
55
  3
C6
350
56
  3
C7
350
57
  3
C8
350
58
  3
C9
350
59
  3
D0
350
5A
  3
D1
350
5B
  3
D2
350
5C
  0
DICTIONARY
  5
35A
102
{ACAD_REACTORS
330
C
102
}
330
C
100
AcDbDictionary
281
     1
  0
DICTIONARY
  5
2A
102
{ACAD_REACTORS
330
C
102
}
330
C
100
AcDbDictionary
281
     1
  3
2dWireframe
350
2F
  3
3D Hidden
350
31
  3
3dWireframe
350
30
  3
Basic
350
32
  3
Brighten
350
36
  3
ColorChange
350
3A
  3
Conceptual
350
34
  3
Dim
350
35
  3
Facepattern
350
39
  3
Flat
350
2B
  3
FlatWithEdges
350
2C
  3
Gouraud
350
2D
  3
GouraudWithEdges
350
2E
  3
Linepattern
350
38
  3
Realistic
350
33
  3
Thicken
350
37
  0
DICTIONARY
  5
358
102
{ACAD_REACTORS
330
C
102
}
330
C
100
AcDbDictionary
281
     1
  3
CANNOSCALE
350
359
  3
PSOLHEIGHT
350
35D
  3
PSOLWIDTH
350
35C
  0
LAYOUT
  5
1E
102
{ACAD_REACTORS
330
1A
102
}
330
1A
100
AcDbPlotSettings
  1

  2
none_device
  4

  6

 40
0.0
 41
0.0
 42
0.0
 43
0.0
 44
0.0
 45
0.0
 46
0.0
 47
0.0
 48
0.0
 49
0.0
140
0.0
141
0.0
142
1.0
143
1.0
 70
   688
 72
     0
 73
     0
 74
     5
  7

 75
    16
147
1.0
148
0.0
149
0.0
100
AcDbLayout
  1
Layout1
 70
     1
 71
     1
 10
0.0
 20
0.0
 11
3000.0
 21
4500.0
 12
0.0
 22
0.0
 32
0.0
 14
0.0
 24
0.0
 34
0.0
 15
3000.0
 25
4500.0
 35
0.0
146
0.0
 13
0.0
 23
0.0
 33
0.0
 16
1.0
 26
0.0
 36
0.0
 17
0.0
 27
1.0
 37
0.0
 76
     0
330
1B
  0
LAYOUT
  5
22
102
{ACAD_REACTORS
330
1A
102
}
330
1A
100
AcDbPlotSettings
  1

  2
none_device
  4

  6

 40
0.0
 41
0.0
 42
0.0
 43
0.0
 44
0.0
 45
0.0
 46
0.0
 47
0.0
 48
0.0
 49
0.0
140
0.0
141
0.0
142
1.0
143
1.0
 70
  1712
 72
     0
 73
     0
 74
     0
  7

 75
     0
147
1.0
148
0.0
149
0.0
100
AcDbLayout
  1
Model
 70
     1
 71
     0
 10
0.0
 20
0.0
 11
3000.0
 21
4500.0
 12
0.0
 22
0.0
 32
0.0
 14
0.0
 24
0.0
 34
0.0
 15
3000.0
 25
4500.0
 35
0.0
146
0.0
 13
0.0
 23
0.0
 33
0.0
 16
1.0
 26
0.0
 36
0.0
 17
0.0
 27
1.0
 37
0.0
 76
     0
330
1F
331
29
  0
MLINESTYLE
  5
18
102
{ACAD_REACTORS
330
17
102
}
330
17
100
AcDbMlineStyle
  2
Standard
 70
     0
  3

 62
   256
 51
90.0
 52
90.0
 71
     2
 49
0.5
 62
   256
  6
BYLAYER
 49
-0.5
 62
   256
  6
BYLAYER
  0
ACDBPLACEHOLDER
  5
F
102
{ACAD_REACTORS
330
E
102
}
330
E
  0
SCALE
  5
3C
102
{ACAD_REACTORS
330
3B
102
}
330
3B
100
AcDbScale
 70
     0
300
1:1
140
1.0
141
1.0
290
     1
  0
SCALE
  5
3D
102
{ACAD_REACTORS
330
3B
102
}
330
3B
100
AcDbScale
 70
     0
300
1:2
140
1.0
141
2.0
290
     0
  0
SCALE
  5
3E
102
{ACAD_REACTORS
330
3B
102
}
330
3B
100
AcDbScale
 70
     0
300
1:4
140
1.0
141
4.0
290
     0
  0
SCALE
  5
3F
102
{ACAD_REACTORS
330
3B
102
}
330
3B
100
AcDbScale
 70
     0
300
1:5
140
1.0
141
5.0
290
     0
  0
SCALE
  5
40
102
{ACAD_REACTORS
330
3B
102
}
330
3B
100
AcDbScale
 70
     0
300
1:8
140
1.0
141
8.0
290
     0
  0
SCALE
  5
41
102
{ACAD_REACTORS
330
3B
102
}
330
3B
100
AcDbScale
 70
     0
300
1:10
140
1.0
141
10.0
290
     0
  0
SCALE
  5
42
102
{ACAD_REACTORS
330
3B
102
}
330
3B
100
AcDbScale
 70
     0
300
1:16
140
1.0
141
16.0
290
     0
  0
SCALE
  5
43
102
{ACAD_REACTORS
330
3B
102
}
330
3B
100
AcDbScale
 70
     0
300
1:20
140
1.0
141
20.0
290
     0
  0
SCALE
  5
44
102
{ACAD_REACTORS
330
3B
102
}
330
3B
100
AcDbScale
 70
     0
300
1:30
140
1.0
141
30.0
290
     0
  0
SCALE
  5
45
102
{ACAD_REACTORS
330
3B
102
}
330
3B
100
AcDbScale
 70
     0
300
1:40
140
1.0
141
40.0
290
     0
  0
SCALE
  5
46
102
{ACAD_REACTORS
330
3B
102
}
330
3B
100
AcDbScale
 70
     0
300
1:50
140
1.0
141
50.0
290
     0
  0
SCALE
  5
47
102
{ACAD_REACTORS
330
3B
102
}
330
3B
100
AcDbScale
 70
     0
300
1:100
140
1.0
141
100.0
290
     0
  0
SCALE
  5
48
102
{ACAD_REACTORS
330
3B
102
}
330
3B
100
AcDbScale
 70
     0
300
2:1
140
2.0
141
1.0
290
     0
  0
SCALE
  5
49
102
{ACAD_REACTORS
330
3B
102
}
330
3B
100
AcDbScale
 70
     0
300
4:1
140
4.0
141
1.0
290
     0
  0
SCALE
  5
4A
102
{ACAD_REACTORS
330
3B
102
}
330
3B
100
AcDbScale
 70
     0
300
8:1
140
8.0
141
1.0
290
     0
  0
SCALE
  5
4B
102
{ACAD_REACTORS
330
3B
102
}
330
3B
100
AcDbScale
 70
     0
300
10:1
140
10.0
141
1.0
290
     0
  0
SCALE
  5
4C
102
{ACAD_REACTORS
330
3B
102
}
330
3B
100
AcDbScale
 70
     0
300
100:1
140
100.0
141
1.0
290
     0
  0
SCALE
  5
4D
102
{ACAD_REACTORS
330
3B
102
}
330
3B
100
AcDbScale
 70
     0
300
1/128" = 1'-0"
140
0.0078125
141
12.0
290
     0
  0
SCALE
  5
4E
102
{ACAD_REACTORS
330
3B
102
}
330
3B
100
AcDbScale
 70
     0
300
1/64" = 1'-0"
140
0.015625
141
12.0
290
     0
  0
SCALE
  5
4F
102
{ACAD_REACTORS
330
3B
102
}
330
3B
100
AcDbScale
 70
     0
300
1/32" = 1'-0"
140
0.03125
141
12.0
290
     0
  0
SCALE
  5
50
102
{ACAD_REACTORS
330
3B
102
}
330
3B
100
AcDbScale
 70
     0
300
1/16" = 1'-0"
140
0.0625
141
12.0
290
     0
  0
SCALE
  5
51
102
{ACAD_REACTORS
330
3B
102
}
330
3B
100
AcDbScale
 70
     0
300
3/32" = 1'-0"
140
0.09375
141
12.0
290
     0
  0
SCALE
  5
52
102
{ACAD_REACTORS
330
3B
102
}
330
3B
100
AcDbScale
 70
     0
300
1/8" = 1'-0"
140
0.125
141
12.0
290
     0
  0
SCALE
  5
53
102
{ACAD_REACTORS
330
3B
102
}
330
3B
100
AcDbScale
 70
     0
300
3/16" = 1'-0"
140
0.1875
141
12.0
290
     0
  0
SCALE
  5
54
102
{ACAD_REACTORS
330
3B
102
}
330
3B
100
AcDbScale
 70
     0
300
1/4" = 1'-0"
140
0.25
141
12.0
290
     0
  0
SCALE
  5
55
102
{ACAD_REACTORS
330
3B
102
}
330
3B
100
AcDbScale
 70
     0
300
3/8" = 1'-0"
140
0.375
141
12.0
290
     0
  0
SCALE
  5
56
102
{ACAD_REACTORS
330
3B
102
}
330
3B
100
AcDbScale
 70
     0
300
1/2" = 1'-0"
140
0.5
141
12.0
290
     0
  0
SCALE
  5
57
102
{ACAD_REACTORS
330
3B
102
}
330
3B
100
AcDbScale
 70
     0
300
3/4" = 1'-0"
140
0.75
141
12.0
290
     0
  0
SCALE
  5
58
102
{ACAD_REACTORS
330
3B
102
}
330
3B
100
AcDbScale
 70
     0
300
1" = 1'-0"
140
1.0
141
12.0
290
     0
  0
SCALE
  5
59
102
{ACAD_REACTORS
330
3B
102
}
330
3B
100
AcDbScale
 70
     0
300
1-1/2" = 1'-0"
140
1.5
141
12.0
290
     0
  0
SCALE
  5
5A
102
{ACAD_REACTORS
330
3B
102
}
330
3B
100
AcDbScale
 70
     0
300
3" = 1'-0"
140
3.0
141
12.0
290
     0
  0
SCALE
  5
5B
102
{ACAD_REACTORS
330
3B
102
}
330
3B
100
AcDbScale
 70
     0
300
6" = 1'-0"
140
6.0
141
12.0
290
     0
  0
SCALE
  5
5C
102
{ACAD_REACTORS
330
3B
102
}
330
3B
100
AcDbScale
 70
     0
300
1'-0" = 1'-0"
140
12.0
141
12.0
290
     0
  0
VISUALSTYLE
  5
2F
102
{ACAD_REACTORS
330
2A
102
}
330
2A
100
AcDbVisualStyle
  2
2dWireframe
 70
     4
 71
     0
 72
     2
 73
     0
 90
        0
 40
-0.6
 41
-30.0
 62
     5
 63
     7
 74
     1
 91
        4
 64
     7
 65
   257
 75
     1
175
     1
 42
1.0
 92
        0
 66
   257
 43
1.0
 76
     1
 77
     6
 78
     2
 67
     7
 79
     5
170
     0
171
     0
290
     0
174
     0
 93
        1
 44
0.0
173
     0
291
     0
 45
0.0
1001
ACAD
1000
AcDbSavedByObjectVersion
1070
     0
  0
VISUALSTYLE
  5
31
102
{ACAD_REACTORS
330
2A
102
}
330
2A
100
AcDbVisualStyle
  2
3D Hidden
 70
     6
 71
     1
 72
     2
 73
     2
 90
        0
 40
-0.6
 41
-30.0
 62
     5
 63
     7
 74
     2
 91
        2
 64
     7
 65
   257
 75
     2
175
     1
 42
40.0
 92
        0
 66
   257
 43
1.0
 76
     1
 77
     6
 78
     2
 67
     7
 79
     3
170
     0
171
     0
290
     0
174
     0
 93
        1
 44
0.0
173
     0
291
     0
 45
0.0
1001
ACAD
1000
AcDbSavedByObjectVersion
1070
     0
  0
VISUALSTYLE
  5
30
102
{ACAD_REACTORS
330
2A
102
}
330
2A
100
AcDbVisualStyle
  2
3dWireframe
 70
     5
 71
     0
 72
     2
 73
     0
 90
        0
 40
-0.6
 41
-30.0
 62
     5
 63
     7
 74
     1
 91
        4
 64
     7
 65
   257
 75
     1
175
     1
 42
1.0
 92
        0
 66
   257
 43
1.0
 76
     1
 77
     6
 78
     2
 67
     7
 79
     5
170
     0
171
     0
290
     0
174
     0
 93
        1
 44
0.0
173
     0
291
     0
 45
0.0
1001
ACAD
1000
AcDbSavedByObjectVersion
1070
     0
  0
VISUALSTYLE
  5
32
102
{ACAD_REACTORS
330
2A
102
}
330
2A
100
AcDbVisualStyle
  2
Basic
 70
     7
 71
     1
 72
     0
 73
     1
 90
        0
 40
-0.6
 41
-30.0
 62
     5
 63
     7
 74
     0
 91
        4
 64
     7
 65
   257
 75
     1
175
     1
 42
1.0
 92
        8
 66
     7
 43
1.0
 76
     1
 77
     6
 78
     2
 67
     7
 79
     5
170
     0
171
     0
290
     0
174
     0
 93
        1
 44
0.0
173
     0
291
     1
 45
0.0
1001
ACAD
1000
AcDbSavedByObjectVersion
1070
     0
  0
VISUALSTYLE
  5
36
102
{ACAD_REACTORS
330
2A
102
}
330
2A
100
AcDbVisualStyle
  2
Brighten
 70
    12
 71
     2
 72
     2
 73
     0
 90
        0
 40
-0.6
 41
-30.0
 62
     5
 63
     7
 74
     1
 91
        4
 64
     7
 65
   257
 75
     1
175
     1
 42
1.0
 92
        8
 66
     7
 43
1.0
 76
     1
 77
     6
 78
     2
 67
     7
 79
     5
170
     0
171
     0
290
     0
174
     0
 93
        1
 44
50.0
173
     0
291
     1
 45
0.0
1001
ACAD
1000
AcDbSavedByObjectVersion
1070
     0
  0
VISUALSTYLE
  5
3A
102
{ACAD_REACTORS
330
2A
102
}
330
2A
100
AcDbVisualStyle
  2
ColorChange
 70
    16
 71
     2
 72
     2
 73
     3
 90
        0
 40
-0.6
 41
-30.0
 62
     5
 63
     8
 74
     1
 91
        4
 64
     7
 65
   257
 75
     1
175
     1
 42
1.0
 92
        8
 66
     8
 43
1.0
 76
     1
 77
     6
 78
     2
 67
     7
 79
     5
170
     0
171
     0
290
     0
174
     0
 93
        1
 44
0.0
173
     0
291
     1
 45
0.0
1001
ACAD
1000
AcDbSavedByObjectVersion
1070
     0
  0
VISUALSTYLE
  5
34
102
{ACAD_REACTORS
330
2A
102
}
330
2A
100
AcDbVisualStyle
  2
Conceptual
 70
     9
 71
     3
 72
     2
 73
     0
 90
        0
 40
-0.6
 41
-30.0
 62
     5
 63
     7
 74
     2
 91
        2
 64
     7
 65
   257
 75
     1
175
     1
 42
40.0
 92
        8
 66
     7
 43
1.0
 76
     1
 77
     6
 78
     2
 67
     7
 79
     3
170
     0
171
     0
290
     0
174
     0
 93
        1
 44
0.0
173
     0
291
     0
 45
0.0
1001
ACAD
1000
AcDbSavedByObjectVersion
1070
     0
  0
VISUALSTYLE
  5
35
102
{ACAD_REACTORS
330
2A
102
}
330
2A
100
AcDbVisualStyle
  2
Dim
 70
    11
 71
     2
 72
     2
 73
     0
 90
        0
 40
-0.6
 41
-30.0
 62
     5
 63
     7
 74
     1
 91
        4
 64
     7
 65
   257
 75
     1
175
     1
 42
1.0
 92
        8
 66
     7
 43
1.0
 76
     1
 77
     6
 78
     2
 67
     7
 79
     5
170
     0
171
     0
290
     0
174
     0
 93
        1
 44
-50.0
173
     0
291
     1
 45
0.0
1001
ACAD
1000
AcDbSavedByObjectVersion
1070
     0
  0
VISUALSTYLE
  5
39
102
{ACAD_REACTORS
330
2A
102
}
330
2A
100
AcDbVisualStyle
  2
Facepattern
 70
    15
 71
     2
 72
     2
 73
     0
 90
        0
 40
-0.6
 41
-30.0
 62
     5
 63
     7
 74
     1
 91
        4
 64
     7
 65
   257
 75
     1
175
     1
 42
1.0
 92
        8
 66
     7
 43
1.0
 76
     1
 77
     6
 78
     2
 67
     7
 79
     5
170
     0
171
     0
290
     0
174
     0
 93
        1
 44
0.0
173
     0
291
     1
 45
0.0
1001
ACAD
1000
AcDbSavedByObjectVersion
1070
     0
  0
VISUALSTYLE
  5
2B
102
{ACAD_REACTORS
330
2A
102
}
330
2A
100
AcDbVisualStyle
  2
Flat
 70
     0
 71
     2
 72
     1
 73
     1
 90
        2
 40
-0.6
 41
30.0
 62
     5
 63
     7
 74
     0
 91
        4
 64
     7
 65
   257
 75
     1
175
     1
 42
1.0
 92
        8
 66
     7
 43
1.0
 76
     1
 77
     6
 78
     2
 67
     7
 79
     5
170
     0
171
     0
290
     0
174
     0
 93
       13
 44
0.0
173
     0
291
     1
 45
0.0
1001
ACAD
1000
AcDbSavedByObjectVersion
1070
     0
  0
VISUALSTYLE
  5
2C
102
{ACAD_REACTORS
330
2A
102
}
330
2A
100
AcDbVisualStyle
  2
FlatWithEdges
 70
     1
 71
     2
 72
     1
 73
     1
 90
        2
 40
-0.6
 41
30.0
 62
     5
 63
     7
 74
     1
 91
        4
 64
     7
 65
   257
 75
     1
175
     1
 42
1.0
 92
        0
 66
   257
 43
1.0
 76
     1
 77
     6
 78
     2
 67
     7
 79
     5
170
     0
171
     0
290
     0
174
     0
 93
       13
 44
0.0
173
     0
291
     1
 45
0.0
1001
ACAD
1000
AcDbSavedByObjectVersion
1070
     0
  0
VISUALSTYLE
  5
2D
102
{ACAD_REACTORS
330
2A
102
}
330
2A
100
AcDbVisualStyle
  2
Gouraud
 70
     2
 71
     2
 72
     2
 73
     1
 90
        2
 40
-0.6
 41
30.0
 62
     5
 63
     7
 74
     0
 91
        4
 64
     7
 65
   257
 75
     1
175
     1
 42
1.0
 92
        0
 66
     7
 43
1.0
 76
     1
 77
     6
 78
     2
 67
     7
 79
     5
170
     0
171
     0
290
     0
174
     0
 93
       13
 44
0.0
173
     0
291
     1
 45
0.0
1001
ACAD
1000
AcDbSavedByObjectVersion
1070
     0
  0
VISUALSTYLE
  5
2E
102
{ACAD_REACTORS
330
2A
102
}
330
2A
100
AcDbVisualStyle
  2
GouraudWithEdges
 70
     3
 71
     2
 72
     2
 73
     1
 90
        2
 40
-0.6
 41
30.0
 62
     5
 63
     7
 74
     1
 91
        4
 64
     7
 65
   257
 75
     1
175
     1
 42
1.0
 92
        0
 66
   257
 43
1.0
 76
     1
 77
     6
 78
     2
 67
     7
 79
     5
170
     0
171
     0
290
     0
174
     0
 93
       13
 44
0.0
173
     0
291
     1
 45
0.0
1001
ACAD
1000
AcDbSavedByObjectVersion
1070
     0
  0
VISUALSTYLE
  5
38
102
{ACAD_REACTORS
330
2A
102
}
330
2A
100
AcDbVisualStyle
  2
Linepattern
 70
    14
 71
     2
 72
     2
 73
     0
 90
        0
 40
-0.6
 41
-30.0
 62
     5
 63
     7
 74
     1
 91
        4
 64
     7
 65
   257
 75
     7
175
     7
 42
1.0
 92
        8
 66
     7
 43
1.0
 76
     1
 77
     6
 78
     2
 67
     7
 79
     5
170
     0
171
     0
290
     0
174
     0
 93
        1
 44
0.0
173
     0
291
     1
 45
0.0
1001
ACAD
1000
AcDbSavedByObjectVersion
1070
     0
  0
VISUALSTYLE
  5
33
102
{ACAD_REACTORS
330
2A
102
}
330
2A
100
AcDbVisualStyle
  2
Realistic
 70
     8
 71
     2
 72
     2
 73
     0
 90
        0
 40
-0.6
 41
-30.0
 62
     5
 63
     7
 74
     1
 91
        0
 64
     7
 65
   257
 75
     1
175
     1
 42
1.0
 92
        8
 66
     8
 43
1.0
 76
     1
 77
     6
 78
     2
 67
     7
 79
     5
170
     0
171
     0
290
     0
174
     0
 93
       13
 44
0.0
173
     0
291
     0
 45
0.0
1001
ACAD
1000
AcDbSavedByObjectVersion
1070
     0
  0
VISUALSTYLE
  5
37
102
{ACAD_REACTORS
330
2A
102
}
330
2A
100
AcDbVisualStyle
  2
Thicken
 70
    13
 71
     2
 72
     2
 73
     0
 90
        0
 40
-0.6
 41
-30.0
 62
     5
 63
     7
 74
     1
 91
        4
 64
     7
 65
   257
 75
     1
175
     1
 42
1.0
 92
       12
 66
     7
 43
1.0
 76
     1
 77
     6
 78
     2
 67
     7
 79
     5
170
     0
171
     0
290
     0
174
     0
 93
        1
 44
0.0
173
     0
291
     1
 45
0.0
1001
ACAD
1000
AcDbSavedByObjectVersion
1070
     0
  0
DICTIONARYVAR
  5
359
102
{ACAD_REACTORS
330
358
102
}
330
358
100
DictionaryVariables
280
     0
  1
1:1
  0
DICTIONARYVAR
  5
35D
102
{ACAD_REACTORS
330
358
102
}
330
358
100
DictionaryVariables
280
     0
  1
80.000000
  0
DICTIONARYVAR
  5
35C
102
{ACAD_REACTORS
330
358
102
}
330
358
100
DictionaryVariables
280
     0
  1
5.000000
  0
ENDSEC
  0
EOF
