  0
SECTION
  2
HEADER
  9
$ACADVER
  1
AC1015
  9
$ACADMAINTVER
 70
     6
  9
$DWGCODEPAGE
  3
ANSI_1252
  9
$INSBASE
 10
0.0
 20
0.0
 30
0.0
  9
$EXTMIN
 10
0.0
 20
0.0
 30
0.0
  9
$EXTMAX
 10
3000.0
 20
4500.0
 30
0.0
  9
$LIMMIN
 10
0.0
 20
0.0
  9
$LIMMAX
 10
3000.0
 20
4500.0
  9
$ORTHOMODE
 70
     0
  9
$REGENMODE
 70
     1
  9
$FILLMODE
 70
     1
  9
$QTEXTMODE
 70
     0
  9
$MIRRTEXT
 70
     1
  9
$LTSCALE
 40
1.0
  9
$ATTMODE
 70
     1
  9
$TEXTSIZE
 40
2.5
  9
$TRACEWID
 40
1.0
  9
$TEXTSTYLE
  7
Standard
  9
$CLAYER
  8
0
  9
$CELTYPE
  6
ByLayer
  9
$CECOLOR
 62
   256
  9
$CELTSCALE
 40
1.0
  9
$DISPSILH
 70
     0
  9
$DIMSCALE
 40
1.0
  9
$DIMASZ
 40
2.5
  9
$DIMEXO
 40
0.625
  9
$DIMDLI
 40
3.75
  9
$DIMRND
 40
0.0
  9
$DIMDLE
 40
0.0
  9
$DIMEXE
 40
1.25
  9
$DIMTP
 40
0.0
  9
$DIMTM
 40
0.0
  9
$DIMTXT
 40
2.5
  9
$DIMCEN
 40
2.5
  9
$DIMTSZ
 40
0.0
  9
$DIMTOL
 70
     0
  9
$DIMLIM
 70
     0
  9
$DIMTIH
 70
     0
  9
$DIMTOH
 70
     0
  9
$DIMSE1
 70
     0
  9
$DIMSE2
 70
     0
  9
$DIMTAD
 70
     1
  9
$DIMZIN
 70
     8
  9
$DIMBLK
  1

  9
$DIMASO
 70
     1
  9
$DIMSHO
 70
     1
  9
$DIMPOST
  1

  9
$DIMAPOST
  1

  9
$DIMALT
 70
     0
  9
$DIMALTD
 70
     3
  9
$DIMALTF
 40
0.0393700787
  9
$DIMLFAC
 40
1.0
  9
$DIMTOFL
 70
     1
  9
$DIMTVP
 40
0.0
  9
$DIMTIX
 70
     0
  9
$DIMSOXD
 70
     0
  9
$DIMSAH
 70
     0
  9
$DIMBLK1
  1

  9
$DIMBLK2
  1

  9
$DIMSTYLE
  2
ISO-25
  9
$DIMCLRD
 70
     0
  9
$DIMCLRE
 70
     0
  9
$DIMCLRT
 70
     0
  9
$DIMTFAC
 40
1.0
  9
$DIMGAP
 40
0.625
  9
$DIMJUST
 70
     0
  9
$DIMSD1
 70
     0
  9
$DIMSD2
 70
     0
  9
$DIMTOLJ
 70
     0
  9
$DIMTZIN
 70
     8
  9
$DIMALTZ
 70
     0
  9
$DIMALTTZ
 70
     0
  9
$DIMUPT
 70
     0
  9
$DIMDEC
 70
     2
  9
$DIMTDEC
 70
     2
  9
$DIMALTU
 70
     2
  9
$DIMALTTD
 70
     3
  9
$DIMTXSTY
  7
Standard
  9
$DIMAUNIT
 70
     0
  9
$DIMADEC
 70
     0
  9
$DIMALTRND
 40
0.0
  9
$DIMAZIN
 70
     0
  9
$DIMDSEP
 70
    44
  9
$DIMATFIT
 70
     3
  9
$DIMFRAC
 70
     0
  9
$DIMLDRBLK
  1

  9
$DIMLUNIT
 70
     2
  9
$DIMLWD
 70
    -2
  9
$DIMLWE
 70
    -2
  9
$DIMTMOVE
 70
     0
  9
$LUNITS
 70
     2
  9
$LUPREC
 70
     4
  9
$SKETCHINC
 40
1.0
  9
$FILLETRAD
 40
10.0
  9
$AUNITS
 70
     0
  9
$AUPREC
 70
     0
  9
$MENU
  1
.
  9
$ELEVATION
 40
0.0
  9
$PELEVATION
 40
0.0
  9
$THICKNESS
 40
0.0
  9
$LIMCHECK
 70
     0
  9
$CHAMFERA
 40
10.0
  9
$CHAMFERB
 40
10.0
  9
$CHAMFERC
 40
20.0
  9
$CHAMFERD
 40
0.0
  9
$SKPOLY
 70
     0
  9
$TDCREATE
 40
2455757.429763935
  9
$TDUCREATE
 40
2455757.346430602
  9
$TDUPDATE
 40
2455757.429763947
  9
$TDUUPDATE
 40
2455757.346430613
  9
$TDINDWG
 40
0.0000000116
  9
$TDUSRTIMER
 40
0.0000000116
  9
$USRTIMER
 70
     1
  9
$ANGBASE
 50
0.0
  9
$ANGDIR
 70
     0
  9
$PDMODE
 70
     0
  9
$PDSIZE
 40
0.0
  9
$PLINEWID
 40
0.0
  9
$SPLFRAME
 70
     0
  9
$SPLINETYPE
 70
     6
  9
$SPLINESEGS
 70
     8
  9
$HANDSEED
  5
2A8
  9
$SURFTAB1
 70
     6
  9
$SURFTAB2
 70
     6
  9
$SURFTYPE
 70
     6
  9
$SURFU
 70
     6
  9
$SURFV
 70
     6
  9
$UCSBASE
  2

  9
$UCSNAME
  2

  9
$UCSORG
 10
0.0
 20
0.0
 30
0.0
  9
$UCSXDIR
 10
1.0
 20
0.0
 30
0.0
  9
$UCSYDIR
 10
0.0
 20
1.0
 30
0.0
  9
$UCSORTHOREF
  2

  9
$UCSORTHOVIEW
 70
     0
  9
$UCSORGTOP
 10
0.0
 20
0.0
 30
0.0
  9
$UCSORGBOTTOM
 10
0.0
 20
0.0
 30
0.0
  9
$UCSORGLEFT
 10
0.0
 20
0.0
 30
0.0
  9
$UCSORGRIGHT
 10
0.0
 20
0.0
 30
0.0
  9
$UCSORGFRONT
 10
0.0
 20
0.0
 30
0.0
  9
$UCSORGBACK
 10
0.0
 20
0.0
 30
0.0
  9
$PUCSBASE
  2

  9
$PUCSNAME
  2

  9
$PUCSORG
 10
0.0
 20
0.0
 30
0.0
  9
$PUCSXDIR
 10
1.0
 20
0.0
 30
0.0
  9
$PUCSYDIR
 10
0.0
 20
1.0
 30
0.0
  9
$PUCSORTHOREF
  2

  9
$PUCSORTHOVIEW
 70
     0
  9
$PUCSORGTOP
 10
0.0
 20
0.0
 30
0.0
  9
$PUCSORGBOTTOM
 10
0.0
 20
0.0
 30
0.0
  9
$PUCSORGLEFT
 10
0.0
 20
0.0
 30
0.0
  9
$PUCSORGRIGHT
 10
0.0
 20
0.0
 30
0.0
  9
$PUCSORGFRONT
 10
0.0
 20
0.0
 30
0.0
  9
$PUCSORGBACK
 10
0.0
 20
0.0
 30
0.0
  9
$USERI1
 70
     0
  9
$USERI2
 70
     0
  9
$USERI3
 70
     0
  9
$USERI4
 70
     0
  9
$USERI5
 70
     0
  9
$USERR1
 40
0.0
  9
$USERR2
 40
0.0
  9
$USERR3
 40
0.0
  9
$USERR4
 40
0.0
  9
$USERR5
 40
0.0
  9
$WORLDVIEW
 70
     1
  9
$SHADEDGE
 70
     3
  9
$SHADEDIF
 70
    70
  9
$TILEMODE
 70
     1
  9
$MAXACTVP
 70
    64
  9
$PINSBASE
 10
0.0
 20
0.0
 30
0.0
  9
$PLIMCHECK
 70
     0
  9
$PEXTMIN
 10
0.0
 20
0.0
 30
0.0
  9
$PEXTMAX
 10
3000.0
 20
4500.0
 30
0.0
  9
$PLIMMIN
 10
0.0
 20
0.0
  9
$PLIMMAX
 10
3000.0
 20
4500.0
  9
$UNITMODE
 70
     0
  9
$VISRETAIN
 70
     1
  9
$PLINEGEN
 70
     0
  9
$PSLTSCALE
 70
     1
  9
$TREEDEPTH
 70
  3020
  9
$CMLSTYLE
  2
Standard
  9
$CMLJUST
 70
     0
  9
$CMLSCALE
 40
20.0
  9
$PROXYGRAPHICS
 70
     1
  9
$MEASUREMENT
 70
     1
  9
$CELWEIGHT
370
    -1
  9
$ENDCAPS
280
     0
  9
$JOINSTYLE
280
     0
  9
$LWDISPLAY
290
     0
  9
$INSUNITS
 70
     4
  9
$HYPERLINKBASE
  1

  9
$STYLESHEET
  1

  9
$XEDIT
290
     1
  9
$CEPSNTYPE
380
     0
  9
$PSTYLEMODE
290
     1
  9
$FINGERPRINTGUID
  2
{811771D8-8694-49D0-8875-CEA323874643}
  9
$VERSIONGUID
  2
{FAEB1C32-E019-11D5-929B-00C0DF256EC4}
  9
$EXTNAMES
290
     1
  9
$PSVPSCALE
 40
0.0
  9
$OLESTARTUP
290
     0
  0
ENDSEC
  0
SECTION
  2
CLASSES
  0
CLASS
  1
ACDBDICTIONARYWDFLT
  2
AcDbDictionaryWithDefault
  3
ObjectDBX Classes
 90
        0
280
     0
281
     0
  0
CLASS
  1
VISUALSTYLE
  2
AcDbVisualStyle
  3
ObjectDBX Classes
 90
     4095
280
     0
281
     0
  0
CLASS
  1
SCALE
  2
AcDbScale
  3
ObjectDBX Classes
 90
     1153
280
     0
281
     0
  0
CLASS
  1
DICTIONARYVAR
  2
AcDbDictionaryVar
  3
ObjectDBX Classes
 90
        0
280
     0
281
     0
  0
CLASS
  1
ACDBPLACEHOLDER
  2
AcDbPlaceHolder
  3
ObjectDBX Classes
 90
        0
280
     0
281
     0
  0
CLASS
  1
LAYOUT
  2
AcDbLayout
  3
ObjectDBX Classes
 90
        0
280
     0
281
     0
  0
ENDSEC
  0
SECTION
  2
TABLES
  0
TABLE
  2
VPORT
  5
8
330
0
100
AcDbSymbolTable
 70
     1
  0
VPORT
  5
29
330
8
100
AcDbSymbolTableRecord
100
AcDbViewportTableRecord
  2
*Active
 70
     0
 10
0.0
 20
0.0
 11
1.0
 21
1.0
 12
344.1869158879
 22
148.5
 13
0.0
 23
0.0
 14
10.0
 24
10.0
 15
10.0
 25
10.0
 16
0.0
 26
0.0
 36
1.0
 17
0.0
 27
0.0
 37
0.0
 40
297.0
 41
1.9729729729
 42
50.0
 43
0.0
 44
0.0
 50
0.0
 51
0.0
 71
     0
 72
   100
 73
     1
 74
     3
 75
     0
 76
     0
 77
     0
 78
     0
281
     0
 65
     1
110
0.0
120
0.0
130
0.0
111
1.0
121
0.0
131
0.0
112
0.0
122
1.0
132
0.0
 79
     0
146
0.0
  0
ENDTAB
  0
TABLE
  2
LTYPE
  5
5
330
0
100
AcDbSymbolTable
 70
     2
  0
LTYPE
  5
14
330
5
100
AcDbSymbolTableRecord
100
AcDbLinetypeTableRecord
  2
ByBlock
 70
     0
  3

 72
    65
 73
     0
 40
0.0
  0
LTYPE
  5
15
330
5
100
AcDbSymbolTableRecord
100
AcDbLinetypeTableRecord
  2
ByLayer
 70
     0
  3

 72
    65
 73
     0
 40
0.0
  0
LTYPE
  5
16
330
5
100
AcDbSymbolTableRecord
100
AcDbLinetypeTableRecord
  2
Continuous
 70
     0
  3
Solid line
 72
    65
 73
     0
 40
0.0
  0
LTYPE
  5
60
330
5
100
AcDbSymbolTableRecord
100
AcDbLinetypeTableRecord
  2
CENTER2
 70
     0
  3
Center (.5x) ___ _ ___ _ ___ _ ___ _ ___ _ ___
 72
    65
 73
     4
 40
28.575
 49
19.05
 74
     4
 75
     0
340
0
 46
0.0
 50
0.0
 44
0.0
 45
0.0
 49
-3.175
 74
     4
 75
     0
340
0
 46
0.0
 50
0.0
 44
0.0
 45
0.0
 49
3.175
 74
     4
 75
     0
340
0
 46
0.0
 50
0.0
 44
0.0
 45
0.0
 49
-3.175
 74
     4
 75
     0
340
0
 46
0.0
 50
0.0
 44
0.0
 45
0.0
  0
ENDTAB
  0
TABLE
  2
LAYER
  5
2
330
0
100
AcDbSymbolTable
 70
     5
  0
LAYER
  5
10
330
2
100
AcDbSymbolTableRecord
100
AcDbLayerTableRecord
  2
0
 70
     0
 62
     7
  6
Continuous
370
    -3
390
F
  0
LAYER
  5
5D
330
2
100
AcDbSymbolTableRecord
100
AcDbLayerTableRecord
  2
Default
 70
     0
 62
     7
  6
Continuous
370
    -3
390
F
  0
LAYER
  5
77
330
2
100
AcDbSymbolTableRecord
100
AcDbLayerTableRecord
  2
DV1_Default
 70
     0
 62
     7
  6
Continuous
370
    -3
390
F
  0
LAYER
  5
19E
330
2
100
AcDbSymbolTableRecord
100
AcDbLayerTableRecord
  2
DV2_Default
 70
     0
 62
     7
  6
Continuous
370
    -3
390
F
  0
LAYER
  5
20C
330
2
100
AcDbSymbolTableRecord
100
AcDbLayerTableRecord
  2
DV3_Default
 70
     0
 62
     7
  6
Continuous
370
    -3
390
F
  0
ENDTAB
  0
TABLE
  2
STYLE
  5
3
330
0
100
AcDbSymbolTable
 70
     2
  0
STYLE
  5
11
330
3
100
AcDbSymbolTableRecord
100
AcDbTextStyleTableRecord
  2
Standard
 70
     0
 40
0.0
 41
1.0
 50
0.0
 71
     0
 42
2.5
  3
txt
  4

  0
STYLE
  5
297
330
3
100
AcDbSymbolTableRecord
100
AcDbTextStyleTableRecord
  2
SEACAD_seiso_ttf
 70
     0
 40
0.0
 41
1.0
 50
0.0
 71
     0
 42
0.2
  3
seiso.ttf
  4

  0
ENDTAB
  0
TABLE
  2
VIEW
  5
6
330
0
100
AcDbSymbolTable
 70
     0
  0
ENDTAB
  0
TABLE
  2
UCS
  5
7
330
0
100
AcDbSymbolTable
 70
     0
  0
ENDTAB
  0
TABLE
  2
APPID
  5
9
330
0
100
AcDbSymbolTable
 70
     1
  0
APPID
  5
12
330
9
100
AcDbSymbolTableRecord
100
AcDbRegAppTableRecord
  2
ACAD
 70
     0
  0
ENDTAB
  0
TABLE
  2
DIMSTYLE
  5
A
330
0
100
AcDbSymbolTable
 70
     1
100
AcDbDimStyleTable
  0
DIMSTYLE
105
27
330
A
100
AcDbSymbolTableRecord
100
AcDbDimStyleTableRecord
  2
ISO-25
 70
     0
 41
2.5
 42
0.625
 43
3.75
 44
1.25
 73
     0
 74
     0
 77
     1
 78
     8
140
2.5
141
2.5
143
0.0393700787
147
0.625
171
     3
172
     1
271
     2
272
     2
274
     3
278
    44
283
     0
284
     8
340
11
  0
ENDTAB
  0
TABLE
  2
BLOCK_RECORD
  5
1
330
0
100
AcDbSymbolTable
 70
     8
  0
BLOCK_RECORD
  5
1F
330
1
100
AcDbSymbolTableRecord
100
AcDbBlockTableRecord
  2
*Model_Space
340
22
  0
BLOCK_RECORD
  5
1B
330
1
100
AcDbSymbolTableRecord
100
AcDbBlockTableRecord
  2
*Paper_Space
340
1E
  0
BLOCK_RECORD
  5
5E
330
1
100
AcDbSymbolTableRecord
100
AcDbBlockTableRecord
  2
SEANNOT_GROUP
340
0
102
{BLKREFS
331
5F
102
}
  0
BLOCK_RECORD
  5
65
330
1
100
AcDbSymbolTableRecord
100
AcDbBlockTableRecord
  2
SEANNOT_GROUP1
340
0
102
{BLKREFS
331
66
102
}
  0
BLOCK_RECORD
  5
6B
330
1
100
AcDbSymbolTableRecord
100
AcDbBlockTableRecord
  2
SEANNOT_GROUP2
340
0
102
{BLKREFS
331
6C
102
}
  0
BLOCK_RECORD
  5
70
330
1
100
AcDbSymbolTableRecord
100
AcDbBlockTableRecord
  2
SEANNOT_GROUP3
340
0
102
{BLKREFS
331
71
102
}
  0
BLOCK_RECORD
  5
75
330
1
100
AcDbSymbolTableRecord
100
AcDbBlockTableRecord
  2
SE
340
0
102
{BLKREFS
331
76
102
}
  0
BLOCK_RECORD
  5
19C
330
1
100
AcDbSymbolTableRecord
100
AcDbBlockTableRecord
  2
SE1
340
0
102
{BLKREFS
331
19D
102
}
  0
BLOCK_RECORD
  5
20A
330
1
100
AcDbSymbolTableRecord
100
AcDbBlockTableRecord
  2
SE2
340
0
102
{BLKREFS
331
20B
102
}
  0
ENDTAB
  0
ENDSEC
  0
SECTION
  2
BLOCKS
  0
BLOCK
  5
20
330
1F
100
AcDbEntity
  8
0
100
AcDbBlockBegin
  2
*Model_Space
 70
     0
 10
0.0
 20
0.0
 30
0.0
  3
*Model_Space
  1

  0
ENDBLK
  5
21
330
1F
100
AcDbEntity
  8
0
100
AcDbBlockEnd
  0
BLOCK
  5
1C
330
1B
100
AcDbEntity
 67
     1
  8
0
100
AcDbBlockBegin
  2
*Paper_Space
 70
     0
 10
0.0
 20
0.0
 30
0.0
  3
*Paper_Space
  1

  0
ENDBLK
  5
1D
330
1B
100
AcDbEntity
 67
     1
  8
0
100
AcDbBlockEnd
  0
BLOCK
  5
63
330
5E
100
AcDbEntity
  8
0
100
AcDbBlockBegin
  2
SEANNOT_GROUP
 70
     0
 10
0.0
 20
0.0
 30
0.0
  3
SEANNOT_GROUP
  1

  0
LINE
  5
61
330
5E
100
AcDbEntity
  8
Default
  6
CENTER2
 62
     7
100
AcDbLine
 10
138.9685463217
 20
320.9136332898
 30
0.0
 11
98.9685472157
 21
320.9136332898
 31
0.0
  0
LINE
  5
62
330
5E
100
AcDbEntity
  8
Default
  6
CENTER2
 62
     7
100
AcDbLine
 10
118.9685467687
 20
340.9136328428
 30
0.0
 11
118.9685467687
 21
300.9136337368
 31
0.0
  0
ENDBLK
  5
64
330
5E
100
AcDbEntity
  8
0
100
AcDbBlockEnd
  0
BLOCK
  5
69
330
65
100
AcDbEntity
  8
0
100
AcDbBlockBegin
  2
SEANNOT_GROUP1
 70
     0
 10
0.0
 20
0.0
 30
0.0
  3
SEANNOT_GROUP1
  1

  0
LINE
  5
67
330
65
100
AcDbEntity
  8
Default
  6
CENTER2
 62
     7
100
AcDbLine
 10
342.8856339637
 20
320.9136332898
 30
0.0
 11
302.8856348577
 21
320.9136332898
 31
0.0
  0
LINE
  5
68
330
65
100
AcDbEntity
  8
Default
  6
CENTER2
 62
     7
100
AcDbLine
 10
322.8856344107
 20
340.9136328428
 30
0.0
 11
322.8856344107
 21
300.9136337368
 31
0.0
  0
ENDBLK
  5
6A
330
65
100
AcDbEntity
  8
0
100
AcDbBlockEnd
  0
BLOCK
  5
6E
330
6B
100
AcDbEntity
  8
0
100
AcDbBlockBegin
  2
SEANNOT_GROUP2
 70
     0
 10
0.0
 20
0.0
 30
0.0
  3
SEANNOT_GROUP2
  1

  0
LINE
  5
6D
330
6B
100
AcDbEntity
  8
Default
  6
CENTER2
 62
     7
100
AcDbLine
 10
146.8685467687
 20
206.9683124327
 30
0.0
 11
91.0685467687
 21
206.9683124327
 31
0.0
  0
ENDBLK
  5
6F
330
6B
100
AcDbEntity
  8
0
100
AcDbBlockEnd
  0
BLOCK
  5
73
330
70
100
AcDbEntity
  8
0
100
AcDbBlockBegin
  2
SEANNOT_GROUP3
 70
     0
 10
0.0
 20
0.0
 30
0.0
  3
SEANNOT_GROUP3
  1

  0
LINE
  5
72
330
70
100
AcDbEntity
  8
Default
  6
CENTER2
 62
     7
100
AcDbLine
 10
118.9685467687
 20
179.0683124327
 30
0.0
 11
118.9685467687
 21
234.8683124327
 31
0.0
  0
ENDBLK
  5
74
330
70
100
AcDbEntity
  8
0
100
AcDbBlockEnd
  0
BLOCK
  5
19A
330
75
100
AcDbEntity
  8
0
100
AcDbBlockBegin
  2
SE
 70
     0
 10
0.0
 20
0.0
 30
0.0
  3
SE
  1

  0
ARC
  5
78
330
75
100
AcDbEntity
  8
DV1_Default
  6
Continuous
 62
     7
100
AcDbCircle
 10
155.5685467687
 20
371.9136332898
 30
0.0
 40
20.0
100
AcDbArc
 50
58.6918789828
 51
65.1654125103
  0
ARC
  5
79
330
75
100
AcDbEntity
  8
DV1_Default
  6
Continuous
 62
     7
100
AcDbCircle
 10
155.5685467687
 20
371.9136332898
 30
0.0
 40
20.0
100
AcDbArc
 50
294.8345874897
 51
313.5405783455
  0
LINE
  5
7A
330
75
100
AcDbEntity
  8
DV1_Default
  6
Continuous
 62
     7
100
AcDbLine
 10
143.3685467687
 20
328.9136332898
 30
0.0
 11
144.4685467687
 21
328.9136332898
 31
0.0
  0
LINE
  5
7B
330
75
100
AcDbEntity
  8
DV1_Default
  6
Continuous
 62
     7
100
AcDbLine
 10
93.4685467687
 20
328.9136332898
 30
0.0
 11
94.5685467687
 21
328.9136332898
 31
0.0
  0
LINE
  5
7C
330
75
100
AcDbEntity
  8
DV1_Default
  6
Continuous
 62
     7
100
AcDbLine
 10
94.5685467687
 20
328.9136332898
 30
0.0
 11
143.3685467687
 21
328.9136332898
 31
0.0
  0
LINE
  5
7D
330
75
100
AcDbEntity
  8
DV1_Default
  6
Continuous
 62
     7
100
AcDbLine
 10
92.9685467687
 20
328.4136332898
 30
0.0
 11
92.9685467687
 21
320.9136332898
 31
0.0
  0
LINE
  5
7E
330
75
100
AcDbEntity
  8
DV1_Default
  6
Continuous
 62
     7
100
AcDbLine
 10
144.9685467687
 20
328.4136332898
 30
0.0
 11
144.9685467687
 21
320.9136332898
 31
0.0
  0
ARC
  5
7F
330
75
100
AcDbEntity
  8
DV1_Default
  6
Continuous
 62
     7
100
AcDbCircle
 10
93.4685467687
 20
328.4136332898
 30
0.0
 40
0.5000000000000004
100
AcDbArc
 50
90.0
 51
180.0
  0
ARC
  5
80
330
75
100
AcDbEntity
  8
DV1_Default
  6
Continuous
 62
     7
100
AcDbCircle
 10
144.4685467687
 20
328.4136332898
 30
0.0
 40
0.499999999999997
100
AcDbArc
 50
0.0
 51
90.0
  0
LINE
  5
81
330
75
100
AcDbEntity
  8
DV1_Default
  6
Continuous
 62
     7
100
AcDbLine
 10
94.5685467687
 20
320.9136332898
 30
0.0
 11
92.9685467687
 21
320.9136332898
 31
0.0
  0
LINE
  5
82
330
75
100
AcDbEntity
  8
DV1_Default
  6
Continuous
 62
     7
100
AcDbLine
 10
144.9685467687
 20
320.9136332898
 30
0.0
 11
143.3685467687
 21
320.9136332898
 31
0.0
  0
LINE
  5
83
330
75
100
AcDbEntity
  8
DV1_Default
  6
Continuous
 62
     7
100
AcDbLine
 10
143.3685467687
 20
320.9136332898
 30
0.0
 11
94.5685467687
 21
320.9136332898
 31
0.0
  0
ELLIPSE
  5
84
330
75
100
AcDbEntity
  8
DV1_Default
  6
Continuous
 62
     7
100
AcDbEllipse
 10
-3898.7215596389
 20
500.8291666943
 30
0.0
 11
4077.287007178536
 21
-427.3801322126288
 31
0.0
210
0.0
220
0.0
230
1.0
 40
0.8648412799
 41
0.094697911954185
 42
0.0986041297399858
  0
ARC
  5
85
330
75
100
AcDbEntity
  8
DV1_Default
  6
Continuous
 62
     7
100
AcDbCircle
 10
334.3823458876
 20
423.9372913343
 30
0.0
 40
139.2413657318633
100
AcDbArc
 50
179.014397502
 51
180.5256532056
  0
ARC
  5
86
330
75
100
AcDbEntity
  8
DV1_Default
  6
Continuous
 62
     7
100
AcDbCircle
 10
361.7024526316
 20
430.1802099576
 30
0.0
 40
170.9320772593515
100
AcDbArc
 50
180.0000000236
 51
181.3427011602
  0
ARC
  5
87
330
75
100
AcDbEntity
  8
DV1_Default
  6
Continuous
 62
     7
100
AcDbCircle
 10
7.9031207497
 20
422.6435438235
 30
0.0
 40
182.9482830221955
100
AcDbArc
 50
0.0313524245
 51
1.1060486915
  0
LINE
  5
88
330
75
100
AcDbEntity
  8
DV1_Default
  6
Continuous
 62
     7
100
AcDbLine
 10
190.8513713843
 20
422.7436852841
 30
0.0
 11
190.8513713843
 21
408.887866858
 31
0.0
  0
LINE
  5
89
330
75
100
AcDbEntity
  8
DV1_Default
  6
Continuous
 62
     7
100
AcDbLine
 10
190.8513713844
 20
422.7436852841
 30
0.0
 11
190.8513713844
 21
422.7448358947
 31
0.0
  0
LINE
  5
8A
330
75
100
AcDbEntity
  8
DV1_Default
  6
Continuous
 62
     7
100
AcDbLine
 10
166.5049479822
 20
398.9402442431
 30
0.0
 11
187.7169367569
 21
396.0899753793
 31
0.0
  0
SPLINE
  5
8B
330
75
100
AcDbEntity
  8
DV1_Default
  6
Continuous
 62
     7
100
AcDbSpline
210
0.0
220
0.0
230
1.0
 70
    12
 71
     3
 72
     8
 73
     4
 74
     0
 42
0.0000001551760581
 43
0.0000000001
 40
0.0
 40
0.0
 40
0.0
 40
0.0
 40
1.0
 40
1.0
 40
1.0
 40
1.0
 10
187.7392379281322
 20
396.1478595080936
 30
0.0
 41
1.034698051645345
 10
187.7337950967528
 20
396.1460288356953
 30
0.0
 41
1.066614503763307
 10
187.7261206695001
 20
396.1254800955297
 30
0.0
 41
1.120549337335532
 10
187.7169282062588
 20
396.0898824361635
 30
0.0
 41
1.196502552362021
  0
SPLINE
  5
8C
330
75
100
AcDbEntity
  8
DV1_Default
  6
Continuous
 62
     7
100
AcDbSpline
210
0.0
220
0.0
230
1.0
 70
     8
 71
     3
 72
     8
 73
     4
 74
     0
 42
0.0000001534267156
 43
0.0000000001
 40
0.0
 40
0.0
 40
0.0
 40
0.0
 40
1.0
 40
1.0
 40
1.0
 40
1.0
 10
166.5049392871515
 20
398.940156841336
 30
0.0
 10
166.5146758084904
 20
398.9780583227907
 30
0.0
 10
166.5225303310908
 20
398.9973355516068
 30
0.0
 10
166.5277471086394
 20
398.9969694990035
 30
0.0
  0
ELLIPSE
  5
8D
330
75
100
AcDbEntity
  8
DV1_Default
  6
Continuous
 62
     7
100
AcDbEllipse
 10
166.4613510979
 20
398.5017701564
 30
0.0
 11
0.4999999999969335
 21
-2.450817326860033E-10
 31
0.0
210
0.0
220
0.0
230
1.0
 40
0.8799491122
 41
1.48352661544478
 42
3.141592653589793
  0
LINE
  5
8E
330
75
100
AcDbEntity
  8
DV1_Default
  6
Continuous
 62
     7
100
AcDbLine
 10
187.7172239087
 20
379.2465889172
 30
0.0
 11
166.5049492699
 21
379.4909488133
 31
0.0
  0
ELLIPSE
  5
8F
330
75
100
AcDbEntity
  8
DV1_Default
  6
Continuous
 62
     7
100
AcDbEllipse
 10
499.5664670932
 20
91.6410813247
 30
0.0
 11
-287.0384312505433
 21
363.3016619172597
 31
0.0
210
0.0
220
0.0
230
0.9999999999999998
 40
0.3369867298
 41
0.3667830037876125
 42
0.4395524816353222
  0
LINE
  5
90
330
75
100
AcDbEntity
  8
DV1_Default
  6
Continuous
 62
     7
100
AcDbLine
 10
166.5049247832
 20
379.4907652217
 30
0.0
 11
166.5049247832
 21
398.9400700311
 31
0.0
  0
LINE
  5
91
330
75
100
AcDbEntity
  8
DV1_Default
  6
Continuous
 62
     7
100
AcDbLine
 10
165.9613510974
 20
398.5017702028
 30
0.0
 11
165.9613510934
 21
379.0666995751
 31
0.0
  0
ELLIPSE
  5
92
330
75
100
AcDbEntity
  8
DV1_Default
  6
Continuous
 62
     7
100
AcDbEllipse
 10
166.4613510939
 20
379.0666995364
 30
0.0
 11
0.4999999999969265
 21
2.504940699310509E-11
 31
0.0
210
0.0
220
0.0
230
1.0
 40
0.8513886772
 41
1.483520155265647
 42
3.141592653589837
  0
LINE
  5
93
330
75
100
AcDbEntity
  8
DV1_Default
  6
Continuous
 62
     7
100
AcDbLine
 10
165.961351096
 20
395.9808031372
 30
0.0
 11
165.961351096
 21
394.8639681007
 31
0.0
  0
LINE
  5
94
330
75
100
AcDbEntity
  8
DV1_Default
  6
Continuous
 62
     7
100
AcDbLine
 10
165.961351096
 20
363.3529660377
 30
0.0
 11
165.9613510955
 21
379.0666995751
 31
0.0
  0
ELLIPSE
  5
95
330
75
100
AcDbEntity
  8
DV1_Default
  6
Continuous
 62
     7
100
AcDbEllipse
 10
194.3947350832
 20
448.6612723828
 30
0.0
 11
-0.02938528633721071
 21
-0.4991317328777722
 31
0.0
210
0.0
220
0.0
230
1.0
 40
0.1069852773
 41
3.139636224992784
 42
3.644852876514703
  0
SPLINE
  5
96
330
75
100
AcDbEntity
  8
DV1_Default
  6
Continuous
 62
     7
100
AcDbSpline
210
0.0
220
0.0
230
1.0
 70
     8
 71
     3
 72
    10
 73
     6
 74
     0
 42
0.0000000133631371
 43
0.0000000001
 40
0.0
 40
0.0
 40
0.0
 40
0.0
 40
0.5
 40
0.5
 40
1.0
 40
1.0
 40
1.0
 40
1.0
 10
194.3947289028449
 20
449.1000331907912
 30
0.0
 10
194.524565753608
 20
449.1014940638714
 30
0.0
 10
194.6536262203441
 20
449.0564473554513
 30
0.0
 10
194.8383682678042
 20
448.8983768606207
 30
0.0
 10
194.8929470143223
 20
448.7862966901936
 30
0.0
 10
194.8945463206722
 20
448.6723221398431
 30
0.0
  0
SPLINE
  5
97
330
75
100
AcDbEntity
  8
DV1_Default
  6
Continuous
 62
     7
100
AcDbSpline
210
0.0
220
0.0
230
1.0
 70
     8
 71
     3
 72
     8
 73
     4
 74
     0
 42
0.0000001478720692
 43
0.0000000001
 40
0.0
 40
0.0
 40
0.0
 40
0.0
 40
1.0
 40
1.0
 40
1.0
 40
1.0
 10
190.8173254754716
 20
407.9680359345688
 30
0.0
 10
190.8174161293653
 20
407.9906143943421
 30
0.0
 10
190.8195553653704
 20
408.0130701490751
 30
0.0
 10
190.8236263502986
 20
408.0351885892983
 30
0.0
  0
SPLINE
  5
98
330
75
100
AcDbEntity
  8
DV1_Default
  6
Continuous
 62
     7
100
AcDbSpline
210
0.0
220
0.0
230
1.0
 70
     8
 71
     3
 72
     8
 73
     4
 74
     0
 42
0.000000096038783
 43
0.0000000001
 40
0.0
 40
0.0
 40
0.0
 40
0.0
 40
1.0
 40
1.0
 40
1.0
 40
1.0
 10
190.8236263502986
 20
408.0351885892983
 30
0.0
 10
190.8298631329102
 20
408.069074222827
 30
0.0
 10
190.8406338256058
 20
408.1021681625497
 30
0.0
 10
190.8555183314004
 20
408.1336987373994
 30
0.0
  0
SPLINE
  5
99
330
75
100
AcDbEntity
  8
DV1_Default
  6
Continuous
 62
     7
100
AcDbSpline
210
0.0
220
0.0
230
1.0
 70
     8
 71
     3
 72
    19
 73
    15
 74
     0
 42
0.0000000061864062
 43
0.0000000001
 40
0.0
 40
0.0
 40
0.0
 40
0.0
 40
0.0313059204265944
 40
0.0625776949128226
 40
0.1251213604464894
 40
0.2501200939047616
 40
0.3751048112500492
 40
0.5000889467444805
 40
0.6250255603782138
 40
0.7499607935509517
 40
0.8748965864971444
 40
0.937442016952247
 40
0.9687178431725983
 40
1.0
 40
1.0
 40
1.0
 40
1.0
 10
190.8513759376781
 20
408.8878348712057
 30
0.0
 10
190.8513526902365
 20
408.8529196241528
 30
0.0
 10
190.8513133633871
 20
408.7831268804151
 30
0.0
 10
190.8511687652298
 20
408.6458239871184
 30
0.0
 10
190.8505094805968
 20
408.4209419388702
 30
0.0
 10
190.8486764489902
 20
408.1388547618416
 30
0.0
 10
190.8451819099857
 20
407.8768603095724
 30
0.0
 10
190.8406012827507
 20
407.7019621843777
 30
0.0
 10
190.8352179033839
 20
407.6205163275426
 30
0.0
 10
190.8293406250573
 20
407.635659896057
 30
0.0
 10
190.824285521941
 20
407.7282955315654
 30
0.0
 10
190.8207997360725
 20
407.8332147322971
 30
0.0
 10
190.818832676052
 20
407.9049379529739
 30
0.0
 10
190.8178656877576
 20
407.9450703150908
 30
0.0
 10
190.8173254754716
 20
407.9680359345688
 30
0.0
  0
SPLINE
  5
9A
330
75
100
AcDbEntity
  8
DV1_Default
  6
Continuous
 62
     7
100
AcDbSpline
210
0.0
220
0.0
230
1.0
 70
     8
 71
     3
 72
    19
 73
    15
 74
     0
 42
0.000000005794329
 43
0.0000000001
 40
0.0
 40
0.0
 40
0.0
 40
0.0
 40
0.0308738303345395
 40
0.0621580508703291
 40
0.1247326338027641
 40
0.2497881710755983
 40
0.3748282242571204
 40
0.4998681494791788
 40
0.6248601950559897
 40
0.749850669791264
 40
0.8748417123148167
 40
0.937414575878875
 40
0.9687041466177116
 40
1.0
 40
1.0
 40
1.0
 40
1.0
 10
195.2952148226885
 20
407.813176927397
 30
0.0
 10
195.2946941553545
 20
407.7917524069404
 30
0.0
 10
195.2936316193376
 20
407.7505788931248
 30
0.0
 10
195.2914403553125
 20
407.6721935255436
 30
0.0
 10
195.2874377487906
 20
407.5601044524981
 30
0.0
 10
195.2813913350992
 20
407.459100039436
 30
0.0
 10
195.2739462327631
 20
407.4398513878943
 30
0.0
 10
195.266683586229
 20
407.5245641679114
 30
0.0
 10
195.2599785868228
 20
407.7092098788683
 30
0.0
 10
195.2541892863773
 20
407.9868473312739
 30
0.0
 10
195.2503783088967
 20
408.2871390861858
 30
0.0
 10
195.2483505651632
 20
408.5271154361633
 30
0.0
 10
195.2473956014654
 20
408.6724139791991
 30
0.0
 10
195.2469965343525
 20
408.7478254128591
 30
0.0
 10
195.2467612064638
 20
408.790128241124
 30
0.0
  0
SPLINE
  5
9B
330
75
100
AcDbEntity
  8
DV1_Default
  6
Continuous
 62
     7
100
AcDbSpline
210
0.0
220
0.0
230
1.0
 70
    12
 71
     3
 72
     8
 73
     4
 74
     0
 42
0.0000000577104184
 43
0.0000000001
 40
0.0
 40
0.0
 40
0.0
 40
0.0
 40
1.0
 40
1.0
 40
1.0
 40
1.0
 10
195.2952123561678
 20
407.8136677811182
 30
0.0
 41
1.153290061664045
 10
195.2948942996755
 20
407.869652441184
 30
0.0
 41
1.09764752641729
 10
195.282154014585
 20
407.9257625083349
 30
0.0
 41
1.057153193025947
 10
195.2560866764266
 20
407.979532056326
 30
0.0
 41
1.031807061490017
  0
ELLIPSE
  5
9C
330
75
100
AcDbEntity
  8
DV1_Default
  6
Continuous
 62
     7
100
AcDbEllipse
 10
-469.5159725698
 20
441.9887696396
 30
0.0
 11
664.5559338255598
 21
-40.21584329381973
 31
0.0
210
0.0
220
0.0
230
0.9999999999999999
 40
0.4993147631
 41
0.018184344706604
 42
0.042240582529428
  0
SPLINE
  5
9D
330
75
100
AcDbEntity
  8
DV1_Default
  6
Continuous
 62
     7
100
AcDbSpline
210
0.0
220
0.0
230
1.0
 70
     8
 71
     3
 72
     8
 73
     4
 74
     0
 42
0.0000000358412896
 43
0.0000000001
 40
0.0
 40
0.0
 40
0.0
 40
0.0
 40
1.0
 40
1.0
 40
1.0
 40
1.0
 10
195.2951257518862
 20
415.8214273378094
 30
0.0
 10
195.2946113072803
 20
415.9117503819947
 30
0.0
 10
195.2608035202621
 20
416.0004186268297
 30
0.0
 10
195.2009444707037
 20
416.0726209637524
 30
0.0
  0
SPLINE
  5
9E
330
75
100
AcDbEntity
  8
DV1_Default
  6
Continuous
 62
     7
100
AcDbSpline
210
0.0
220
0.0
230
1.0
 70
     8
 71
     3
 72
     8
 73
     4
 74
     0
 42
0.0000000649595751
 43
0.0000000001
 40
0.0
 40
0.0
 40
0.0
 40
0.0
 40
0.9999999999999999
 40
0.9999999999999999
 40
0.9999999999999999
 40
0.9999999999999999
 10
190.8173180247155
 20
415.9794615320655
 30
0.0
 10
190.8175461649376
 20
416.025356229749
 30
0.0
 10
190.827518965524
 20
416.0771966900957
 30
0.0
 10
190.8496745161181
 20
416.1278160113628
 30
0.0
  0
ARC
  5
9F
330
75
100
AcDbEntity
  8
DV1_Default
  6
Continuous
 62
     7
100
AcDbCircle
 10
361.7024524236
 20
411.9738608088
 30
0.0
 40
170.9320770513717
100
AcDbArc
 50
178.657306616
 51
181.3428155253
  0
ARC
  5
A0
330
75
100
AcDbEntity
  8
DV1_Default
  6
Continuous
 62
     7
100
AcDbCircle
 10
436.0049448874
 20
420.8288133053
 30
0.0
 40
240.7619047329736
100
AcDbArc
 50
180.317110769
 51
181.1918481251
  0
SPLINE
  5
A1
330
75
100
AcDbEntity
  8
DV1_Default
  6
Continuous
 62
     7
100
AcDbSpline
210
0.0
220
0.0
230
1.0
 70
    12
 71
     3
 72
     8
 73
     4
 74
     0
 42
0.0000000648300902
 43
0.0000000001
 40
0.0
 40
0.0
 40
0.0
 40
0.0
 40
1.0
 40
1.0
 40
1.0
 40
1.0
 10
195.2467298287965
 20
419.496213537649
 30
0.0
 41
1.161535855645216
 10
195.2478982718605
 20
419.4528763113116
 30
0.0
 41
1.083625184056269
 10
195.2255931882019
 20
419.4093187695791
 30
0.0
 41
1.033897447719645
 10
195.17821667788
 20
419.3693875801292
 30
0.0
 41
1.012352646635344
  0
ELLIPSE
  5
A2
330
75
100
AcDbEntity
  8
DV1_Default
  6
Continuous
 62
     7
100
AcDbEllipse
 10
-3898.9361292935
 20
296.9593152144
 30
0.0
 11
4077.505082332528
 21
427.3577679174446
 31
0.0
210
0.0
220
0.0
230
0.9999999999999999
 40
0.8648187595
 41
-0.0860992689079527
 42
-0.0837096815259128
  0
ELLIPSE
  5
A3
330
75
100
AcDbEntity
  8
DV1_Default
  6
Continuous
 62
     7
100
AcDbEllipse
 10
501.3792573087
 20
95.6104118072
 30
0.0
 11
-285.7067193560467
 21
361.6089234535994
 31
0.0
210
0.0
220
0.0
230
1.0
 40
0.3369903935
 41
0.4107949379066426
 42
0.438708907454633
  0
ELLIPSE
  5
A4
330
75
100
AcDbEntity
  8
DV1_Default
  6
Continuous
 62
     7
100
AcDbEllipse
 10
501.3792573087
 20
95.6104118072
 30
0.0
 11
-285.7067193560467
 21
361.6089234535994
 31
0.0
210
0.0
220
0.0
230
1.0
 40
0.3369903935
 41
0.4031568021013254
 42
0.4107949379066426
  0
LINE
  5
A5
330
75
100
AcDbEntity
  8
DV1_Default
  6
Continuous
 62
     7
100
AcDbLine
 10
190.9666697527
 20
382.0781411225
 30
0.0
 11
190.9666697527
 21
432.462834546
 31
0.0
  0
ELLIPSE
  5
A6
330
75
100
AcDbEntity
  8
DV1_Default
  6
Continuous
 62
     7
100
AcDbEllipse
 10
532.3641011264
 20
144.7781178329
 30
0.0
 11
-316.2378282980101
 21
365.4270409164217
 31
0.0
210
0.0
220
0.0
230
1.0
 40
0.3534241332
 41
0.3538396578643178
 42
0.3946044985317944
  0
ELLIPSE
  5
A7
330
75
100
AcDbEntity
  8
DV1_Default
  6
Continuous
 62
     7
100
AcDbEllipse
 10
532.3641011264
 20
144.7781178329
 30
0.0
 11
-316.2378282980101
 21
365.4270409164217
 31
0.0
210
0.0
220
0.0
230
1.0
 40
0.3534241332
 41
0.3946044985317944
 42
0.4216276728128275
  0
SPLINE
  5
A8
330
75
100
AcDbEntity
  8
DV1_Default
  6
Continuous
 62
     7
100
AcDbSpline
210
0.0
220
0.0
230
1.0
 70
     8
 71
     3
 72
    10
 73
     6
 74
     0
 42
0.0000000132624709
 43
0.0000000001
 40
0.0
 40
0.0
 40
0.0
 40
0.0
 40
0.5
 40
0.5
 40
1.0
 40
1.0
 40
1.0
 40
1.0
 10
190.9664590484217
 20
448.8396107938405
 30
0.0
 10
190.9665341041994
 20
448.954512417605
 30
0.0
 10
191.0204382097137
 20
449.0680155092966
 30
0.0
 10
191.2054891799011
 20
449.2282755530814
 30
0.0
 10
191.3354981918055
 20
449.2740470883761
 30
0.0
 10
191.4663111804947
 20
449.2725319528031
 30
0.0
  0
SPLINE
  5
A9
330
75
100
AcDbEntity
  8
DV1_Default
  6
Continuous
 62
     7
100
AcDbSpline
210
0.0
220
0.0
230
1.0
 70
     8
 71
     3
 72
    10
 73
     6
 74
     0
 42
0.0000000133360778
 43
0.0000000001
 40
0.0
 40
0.0
 40
0.0
 40
0.0
 40
0.5
 40
0.5
 40
1.0
 40
1.0
 40
1.0
 40
1.0
 10
191.46652171338
 20
432.8957872335137
 30
0.0
 10
191.3357088163189
 20
432.8941369864174
 30
0.0
 10
191.2056998939435
 20
432.8465417067031
 30
0.0
 10
191.0206489959321
 20
432.6862817680012
 30
0.0
 10
190.9667448708676
 20
432.5746025236476
 30
0.0
 10
190.9666697354107
 20
432.4628351947388
 30
0.0
  0
ELLIPSE
  5
AA
330
75
100
AcDbEntity
  8
DV1_Default
  6
Continuous
 62
     7
100
AcDbEllipse
 10
533.1138429952
 20
144.9944346939
 30
0.0
 11
-316.4690194563053
 21
365.6944299463273
 31
0.0
210
0.0
220
0.0
230
1.0
 40
0.3534240183
 41
0.3538646034028156
 42
0.4216029406966486
  0
SPLINE
  5
AB
330
75
100
AcDbEntity
  8
DV1_Default
  6
Continuous
 62
     7
100
AcDbSpline
210
0.0
220
0.0
230
1.0
 70
    12
 71
     3
 72
    15
 73
    11
 74
     0
 42
0.0000000020884333
 43
0.0000000001
 40
0.0
 40
0.0
 40
0.0
 40
0.0
 40
0.10250232751297
 40
0.2364631176275967
 40
0.3705679768790315
 40
0.504988482380204
 40
0.6397004114218964
 40
0.7746200062804907
 40
0.9097558086219156
 40
1.0
 40
1.0
 40
1.0
 40
1.0
 10
190.9666638784157
 20
382.0781406914621
 30
0.0
 41
1.196509873173538
 10
190.9666319256742
 20
381.9301436278886
 30
0.0
 41
1.196509873173538
 10
190.933250239203
 20
381.5859158513295
 30
0.0
 41
1.196509873173538
 10
190.7615437272449
 20
381.0568533939079
 30
0.0
 41
1.196509873173538
 10
190.4379010538726
 20
380.5224340691291
 30
0.0
 41
1.196509873173538
 10
189.9924900053578
 20
380.0538667992073
 30
0.0
 41
1.196509873173538
 10
189.4468873068902
 20
379.6742551735481
 30
0.0
 41
1.196509873173538
 10
188.8276490161975
 20
379.4026644248792
 30
0.0
 41
1.196509873173538
 10
188.2390283126566
 20
379.2695538416764
 30
0.0
 41
1.196509873173538
 10
187.8658730673511
 20
379.2465296182203
 30
0.0
 41
1.196509873173538
 10
187.7171280485962
 20
379.2468875746263
 30
0.0
 41
1.196509873173538
  0
SPLINE
  5
AC
330
75
100
AcDbEntity
  8
DV1_Default
  6
Continuous
 62
     7
100
AcDbSpline
210
0.0
220
0.0
230
1.0
 70
    12
 71
     3
 72
    14
 73
    10
 74
     0
 42
0.0000000027298379
 43
0.0000000001
 40
0.0
 40
0.0
 40
0.0
 40
0.0
 40
0.1308749710049796
 40
0.3008370480647496
 40
0.4705193817270502
 40
0.6399328234656347
 40
0.8089756353734046
 40
0.9776243249947596
 40
1.0
 40
1.0
 40
1.0
 40
1.0
 10
187.7173104909421
 20
396.0898280930141
 30
0.0
 41
1.196513452215699
 10
187.8866692240875
 20
396.0657625908477
 30
0.0
 41
1.196513452215699
 10
188.2783750519396
 20
396.0389834670349
 30
0.0
 41
1.196513452215698
 10
188.8800308639109
 20
396.1013239809222
 30
0.0
 41
1.196513452215699
 10
189.4874011845317
 20
396.2925163020291
 30
0.0
 41
1.196513452215699
 10
190.020882936106
 20
396.5977570113642
 30
0.0
 41
1.196513452215699
 10
190.4551367203664
 20
397.0019780850261
 30
0.0
 41
1.196513452215699
 10
190.6788623508204
 20
397.3460665349343
 30
0.0
 41
1.196513452215699
 10
190.768827462255
 20
397.5407639460737
 30
0.0
 41
1.196513452215699
 10
190.7789677620216
 20
397.5637268022821
 30
0.0
 41
1.196513452215699
  0
ELLIPSE
  5
AD
330
75
100
AcDbEntity
  8
DV1_Default
  6
Continuous
 62
     7
100
AcDbEllipse
 10
191.4663050376
 20
448.8336772806
 30
0.0
 11
-0.02938528633721071
 21
-0.4991317328777028
 31
0.0
210
0.0
220
0.0
230
0.9999999999999998
 40
0.1069852773
 41
3.141592653589793
 42
3.644461126005003
  0
LINE
  5
AE
330
75
100
AcDbEntity
  8
DV1_Default
  6
Continuous
 62
     7
100
AcDbLine
 10
191.4662997742
 20
449.2724873916
 30
0.0
 11
194.3947405069
 21
449.1000818645
 31
0.0
  0
LINE
  5
AF
330
75
100
AcDbEntity
  8
DV1_Default
  6
Continuous
 62
     7
100
AcDbLine
 10
194.3945305965
 20
433.0829784242
 30
0.0
 11
191.4665103084
 21
432.8958394916
 31
0.0
  0
ARC
  5
B0
330
75
100
AcDbEntity
  8
DV1_Default
  6
Continuous
 62
     7
100
AcDbCircle
 10
27.0631638122
 20
439.7424731949
 30
0.0
 40
167.5930088182833
100
AcDbArc
 50
357.7209478605
 51
3.2007759037
  0
ELLIPSE
  5
B1
330
75
100
AcDbEntity
  8
DV1_Default
  6
Continuous
 62
     7
100
AcDbEllipse
 10
194.3945146083
 20
432.6560091879
 30
0.0
 11
-0.4994794830199129
 21
0.02280890302919225
 31
0.0
210
0.0
220
0.0
230
1.0
 40
0.8538282005
 41
3.192703689259854
 42
4.751349283612262
  0
ARC
  5
B2
330
75
100
AcDbEntity
  8
DV1_Default
  6
Continuous
 62
     7
100
AcDbCircle
 10
-6.0250643857
 20
442.1115064689
 30
0.0
 40
201.1418179756508
100
AcDbArc
 50
357.3053018308
 51
359.6344599114
  0
ARC
  5
B3
330
75
100
AcDbEntity
  8
DV1_Default
  6
Continuous
 62
     7
100
AcDbCircle
 10
53.8921774631
 20
441.9927607493
 30
0.0
 40
141.1972614111259
100
AcDbArc
 50
359.5275277809
 51
0.4436669619
  0
ARC
  5
B4
330
75
100
AcDbEntity
  8
DV1_Default
  6
Continuous
 62
     7
100
AcDbCircle
 10
53.8921774631
 20
441.9927607493
 30
0.0
 40
141.1972614111259
100
AcDbArc
 50
0.4436669619
 51
2.7121869207
  0
ELLIPSE
  5
B5
330
75
100
AcDbEntity
  8
DV1_Default
  6
Continuous
 62
     7
100
AcDbEllipse
 10
-3833.7147689827
 20
143.5634854311
 30
0.0
 11
3942.029152428262
 21
968.0408340256145
 31
0.0
210
0.0
220
0.0
230
0.9999999999999998
 40
0.8595701862
 41
-0.2199245684534059
 42
-0.1961487294141158
  0
ELLIPSE
  5
B6
330
75
100
AcDbEntity
  8
DV1_Default
  6
Continuous
 62
     7
100
AcDbEllipse
 10
-167.1836778843
 20
648.0540041481
 30
0.0
 11
337.198191154379
 21
-361.2970315016702
 31
0.0
210
0.0
220
0.0
230
1.0
 40
0.3665159611
 41
0.3417805187716296
 42
0.3650098024762898
  0
ELLIPSE
  5
B7
330
75
100
AcDbEntity
  8
DV1_Default
  6
Continuous
 62
     7
100
AcDbEllipse
 10
-470.062978918
 20
400.146048742
 30
0.0
 11
664.9691969284459
 21
40.24059196752826
 31
0.0
210
0.0
220
0.0
230
1.0
 40
0.499314776
 41
-0.0422336095600606
 42
-0.0250923169971582
  0
ELLIPSE
  5
B8
330
75
100
AcDbEntity
  8
DV1_Default
  6
Continuous
 62
     7
100
AcDbEllipse
 10
166.461351096
 20
363.3529660299
 30
0.0
 11
0.4318854345367467
 21
0.2519423970573642
 31
0.0
210
0.0
220
0.0
230
1.0
 40
0.4952940688
 41
3.141592653589668
 42
4.567080902277059
  0
ELLIPSE
  5
B9
330
75
100
AcDbEntity
  8
DV1_Default
  6
Continuous
 62
     7
100
AcDbEllipse
 10
176.2087384045
 20
346.6437711801
 30
0.0
 11
0.4318854345367329
 21
0.2519423970573608
 31
0.0
210
0.0
220
0.0
230
1.0
 40
0.4952940688
 41
3.141592653589793
 42
4.567031096381321
  0
LINE
  5
BA
330
75
100
AcDbEntity
  8
DV1_Default
  6
Continuous
 62
     7
100
AcDbLine
 10
176.2696688521
 20
346.3956418834
 30
0.0
 11
166.5222857677
 21
363.104829492
 31
0.0
  0
ELLIPSE
  5
BB
330
75
100
AcDbEntity
  8
DV1_Default
  6
Continuous
 62
     7
100
AcDbEllipse
 10
166.461351096
 20
363.3529660299
 30
0.0
 11
-0.4999999999999935
 21
-3.469446951953614E-12
 31
0.0
210
0.0
220
0.0
230
1.0
 40
0.5
 41
0.0000000000002194
 42
1.69296937444133
  0
ELLIPSE
  5
BC
330
75
100
AcDbEntity
  8
DV1_Default
  6
Continuous
 62
     7
100
AcDbEllipse
 10
166.461351096
 20
379.0666995545
 30
0.0
 11
0.5000000000000004
 21
-6.938893903907228E-15
 31
0.0
210
0.0
220
0.0
230
1.0
 40
0.5
 41
3.141592653589793
 42
4.834502814929214
  0
LINE
  5
BD
330
75
100
AcDbEntity
  8
DV1_Default
  6
Continuous
 62
     7
100
AcDbLine
 10
166.5222857677
 20
378.8185652421
 30
0.0
 11
166.5222857677
 21
363.104829492
 31
0.0
  0
ARC
  5
BE
330
75
100
AcDbEntity
  8
DV1_Default
  6
Continuous
 62
     7
100
AcDbCircle
 10
163.8756869678
 20
379.0868092991
 30
0.0
 40
2.660119494562137
100
AcDbArc
 50
354.2130563791
 51
8.736391291
  0
LINE
  5
BF
330
75
100
AcDbEntity
  8
DV1_Default
  6
Continuous
 62
     7
100
AcDbLine
 10
166.5222658
 20
378.8186444741
 30
0.0
 11
187.7348727542
 21
378.5738507844
 31
0.0
  0
SPLINE
  5
C0
330
75
100
AcDbEntity
  8
DV1_Default
  6
Continuous
 62
     7
100
AcDbSpline
210
0.0
220
0.0
230
1.0
 70
    12
 71
     3
 72
     8
 73
     4
 74
     0
 42
0.0000000147460833
 43
0.0000000001
 40
0.0
 40
0.0
 40
0.0
 40
0.0
 40
1.0
 40
1.0
 40
1.0
 40
1.0
 10
187.7171280485962
 20
379.2468875746263
 30
0.0
 41
1.196236798027345
 10
187.7510181917346
 20
379.098527285313
 30
0.0
 41
0.9573990742002034
 10
187.7587572001162
 20
378.8236232871341
 30
0.0
 41
0.9365764941803524
 10
187.7348827407313
 20
378.5738101176285
 30
0.0
 41
1.133769057967792
  0
SPLINE
  5
C1
330
75
100
AcDbEntity
  8
DV1_Default
  6
Continuous
 62
     7
100
AcDbSpline
210
0.0
220
0.0
230
1.0
 70
     8
 71
     3
 72
    10
 73
     6
 74
     0
 42
0.0000000147674003
 43
0.0000000001
 40
0.0
 40
0.0
 40
0.0
 40
0.0
 40
0.5
 40
0.5
 40
1.0
 40
1.0
 40
1.0
 40
1.0
 10
190.9666638784157
 20
382.0781406914621
 30
0.0
 10
190.9700028148193
 20
382.0086200198782
 30
0.0
 10
191.0344610677854
 20
381.9403757334308
 30
0.0
 10
191.2449842192827
 20
381.8494711199208
 30
0.0
 10
191.3894032347446
 20
381.8275214907707
 30
0.0
 10
191.5274480083734
 20
381.8359960882642
 30
0.0
  0
SPLINE
  5
C2
330
75
100
AcDbEntity
  8
DV1_Default
  6
Continuous
 62
     7
100
AcDbSpline
210
0.0
220
0.0
230
1.0
 70
    12
 71
     3
 72
    25
 73
    21
 74
     0
 42
0.0000000017976148
 43
0.0000000001
 40
0.0
 40
0.0
 40
0.0
 40
0.0
 40
0.0478600178254341
 40
0.0957425378120976
 40
0.1436179258483377
 40
0.3575590308021221
 40
0.5714901418740133
 40
0.6044509007518353
 40
0.6374116036253745
 40
0.6703734658922142
 40
0.703336955997758
 40
0.7363014411933814
 40
0.7692650579329433
 40
0.8022270920741637
 40
0.8351893998022586
 40
0.8681537742569171
 40
0.9011223141360674
 40
0.9340943440900003
 40
0.9670583753695361
 40
1.0
 40
1.0
 40
1.0
 40
1.0
 10
187.7348827407313
 20
378.5738101176285
 30
0.0
 41
1.0
 10
187.8267271270587
 20
378.5745773246144
 30
0.0
 41
1.0
 10
188.0104409673991
 20
378.576184632869
 30
0.0
 41
1.0
 10
188.2866516471318
 20
378.6024765669293
 30
0.0
 41
1.0
 10
188.8781351596308
 20
378.6967804451758
 30
0.0
 41
1.0
 10
189.7636743529255
 20
379.014045240945
 30
0.0
 41
1.0
 10
190.4659907326768
 20
379.5567539892854
 30
0.0
 41
1.0
 10
190.8057183744079
 20
379.9413041014375
 30
0.0
 41
1.0
 10
190.917660836581
 20
380.0822490017335
 30
0.0
 41
1.0
 10
191.0210100184634
 20
380.2277965210388
 30
0.0
 41
1.0
 10
191.1155201715185
 20
380.3775185287594
 30
0.0
 41
1.0
 10
191.2008861146483
 20
380.5309674615625
 30
0.0
 41
1.0
 10
191.2768289950378
 20
380.687690025088
 30
0.0
 41
1.0
 10
191.3430920910161
 20
380.8472211459215
 30
0.0
 41
1.0
 10
191.3995215896879
 20
381.0090771719184
 30
0.0
 41
1.0
 10
191.4459390023008
 20
381.1727828278349
 30
0.0
 41
1.0
 10
191.4822516275117
 20
381.3378623115733
 30
0.0
 41
1.0
 10
191.5080630853425
 20
381.5037892759443
 30
0.0
 41
1.0
 10
191.5243114641557
 20
381.6700727766734
 30
0.0
 41
1.0
 10
191.5264109675148
 20
381.7807023465258
 30
0.0
 41
1.0
 10
191.5274480083734
 20
381.8359960882642
 30
0.0
 41
1.0
  0
SPLINE
  5
C3
330
75
100
AcDbEntity
  8
DV1_Default
  6
Continuous
 62
     7
100
AcDbSpline
210
0.0
220
0.0
230
1.0
 70
     8
 71
     3
 72
    10
 73
     6
 74
     0
 42
0.000000039852843
 43
0.0000000001
 40
0.0
 40
0.0
 40
0.0
 40
0.0
 40
0.2627071143047791
 40
0.2627071143047791
 40
0.9999999999999999
 40
0.9999999999999999
 40
0.9999999999999999
 40
0.9999999999999999
 10
176.2751744872969
 20
346.1485785031301
 30
0.0
 10
176.2780654185833
 20
346.148779362439
 30
0.0
 10
176.2801425331462
 20
346.1550242950715
 30
0.0
 10
176.2844594586123
 20
346.2024655232613
 30
0.0
 10
176.2801796624486
 20
346.2860305728067
 30
0.0
 10
176.2696402331615
 20
346.3956572261727
 30
0.0
  0
SPLINE
  5
C4
330
75
100
AcDbEntity
  8
DV1_Default
  6
Continuous
 62
     7
100
AcDbSpline
210
0.0
220
0.0
230
1.0
 70
     8
 71
     3
 72
    10
 73
     6
 74
     0
 42
0.0000000398290835
 43
0.0000000001
 40
0.0
 40
0.0
 40
0.0
 40
0.0
 40
0.7387353328722065
 40
0.7387353328722065
 40
0.9999999999999999
 40
0.9999999999999999
 40
0.9999999999999999
 40
0.9999999999999999
 10
194.4548021379869
 20
348.8401954989305
 30
0.0
 10
194.4654839055524
 20
348.7302044821524
 30
0.0
 10
194.4697478176321
 20
348.6465342698864
 30
0.0
 10
194.4654018420549
 20
348.5993369278771
 30
0.0
 10
194.4633361279843
 20
348.5931594982729
 30
0.0
 10
194.460468000045
 20
348.5929627139569
 30
0.0
  0
LINE
  5
C5
330
75
100
AcDbEntity
  8
DV1_Default
  6
Continuous
 62
     7
100
AcDbLine
 10
194.4547359536
 20
348.8407898095
 30
0.0
 11
176.2696537737
 21
346.3957131837
 31
0.0
  0
ELLIPSE
  5
C6
330
75
100
AcDbEntity
  8
DV1_Default
  6
Continuous
 62
     7
100
AcDbEllipse
 10
194.3938896851
 20
349.0881332165
 30
0.0
 11
0.4999536207384997
 21
-0.006810074397588239
 31
0.0
210
0.0
220
0.0
230
0.9999999999999999
 40
0.4987092949
 41
4.841284150043798
 42
6.265982891787541
  0
ELLIPSE
  5
C7
330
75
100
AcDbEntity
  8
DV1_Default
  6
Continuous
 62
     7
100
AcDbEllipse
 10
-3833.6625066391
 20
143.3515001839
 30
0.0
 11
3941.548565950209
 21
967.9228029889375
 31
0.0
210
0.0
220
0.0
230
1.0
 40
0.8595702077
 41
-0.2199244890920919
 42
-0.1961487427600188
  0
ELLIPSE
  5
C8
330
75
100
AcDbEntity
  8
DV1_Default
  6
Continuous
 62
     7
100
AcDbEllipse
 10
194.3945146007
 20
432.6560092082
 30
0.0
 11
0.4999535673630984
 21
0.006813991763263139
 31
0.0
210
0.0
220
0.0
230
1.0
 40
0.5012186664
 41
4.827750096733552
 42
6.252358731603626
  0
ELLIPSE
  5
C9
330
75
100
AcDbEntity
  8
DV1_Default
  6
Continuous
 62
     7
100
AcDbEllipse
 10
194.3945252945
 20
432.6560158142
 30
0.0
 11
-0.03189123708860486
 21
0.4989778874516793
 31
0.0
210
0.0
220
0.0
230
1.0
 40
0.1040969499
 41
4.1851322930587
 42
5.732747223852033
  0
ELLIPSE
  5
CA
330
75
100
AcDbEntity
  8
DV1_Default
  6
Continuous
 62
     7
100
AcDbEllipse
 10
191.4665155713
 20
432.4688775569
 30
0.0
 11
-0.03189123708860486
 21
0.4989778874516793
 31
0.0
210
0.0
220
0.0
230
1.0
 40
0.1040969499
 41
4.185503823510006
 42
5.732355527241292
  0
LINE
  5
CB
330
75
100
AcDbEntity
  8
DV1_Default
  6
Continuous
 62
     7
100
AcDbLine
 10
194.4554546787
 20
432.4078750229
 30
0.0
 11
191.5274535344
 21
432.220719084
 31
0.0
  0
LINE
  5
CC
330
75
100
AcDbEntity
  8
DV1_Default
  6
Continuous
 62
     7
100
AcDbLine
 10
191.5274608443
 20
432.2208380511
 30
0.0
 11
191.5274608443
 21
381.835995397
 31
0.0
  0
ELLIPSE
  5
CD
330
75
100
AcDbEntity
  8
DV1_Default
  6
Continuous
 62
     7
100
AcDbEllipse
 10
191.4665261726
 20
432.4688722861
 30
0.0
 11
0.4999999999999866
 21
-6.988853940015360E-11
 31
0.0
210
0.0
220
0.0
230
1.0
 40
0.5
 41
3.165555609404716
 42
4.834547478690462
  0
LINE
  5
CE
330
75
100
AcDbEntity
  8
DV1_Default
  6
Continuous
 62
     7
100
AcDbLine
 10
187.7717081579
 20
396.143839277
 30
0.0
 11
166.5278585612
 21
398.997477916
 31
0.0
  0
ARC
  5
CF
330
75
100
AcDbEntity
  8
DV1_Default
  6
Continuous
 62
     7
100
AcDbCircle
 10
166.461351096
 20
398.5017701891
 30
0.0
 40
0.4999999999999933
100
AcDbArc
 50
82.3542565258
 51
180.0000032801
  0
ARC
  5
D0
330
75
100
AcDbEntity
  8
DV1_Default
  6
Continuous
 62
     7
100
AcDbCircle
 10
194.3947245198
 20
448.6612670625
 30
0.0
 40
0.5000000000000051
100
AcDbArc
 50
2.8795872532
 51
86.6294967665
  0
ARC
  5
D1
330
75
100
AcDbEntity
  8
DV1_Default
  6
Continuous
 62
     7
100
AcDbCircle
 10
193.7134554042
 20
407.8996516131
 30
0.0
 40
2.893446467831724
100
AcDbArc
 50
176.9528995992
 51
181.5741267046
  0
LINE
  5
D2
330
75
100
AcDbEntity
  8
DV1_Default
  6
Continuous
 62
     7
100
AcDbLine
 10
190.7703705361
 20
411.9738608839
 30
0.0
 11
190.7703705361
 21
390.4549759258
 31
0.0
  0
LINE
  5
D3
330
75
100
AcDbEntity
  8
DV1_Default
  6
Continuous
 62
     7
100
AcDbLine
 10
190.7703705361
 20
440.8233133626
 30
0.0
 11
190.7703705361
 21
430.1802098872
 31
0.0
  0
ARC
  5
D4
330
75
100
AcDbEntity
  8
DV1_Default
  6
Continuous
 62
     7
100
AcDbCircle
 10
191.4663156407
 20
448.8336707043
 30
0.0
 40
0.5000009618286795
100
AcDbArc
 50
86.6319546016
 51
176.8892095045
  0
LINE
  5
D5
330
75
100
AcDbEntity
  8
DV1_Default
  6
Continuous
 62
     7
100
AcDbLine
 10
194.4241203696
 20
449.1604041157
 30
0.0
 11
191.4956903239
 21
449.3328090135
 31
0.0
  0
ARC
  5
D6
330
75
100
AcDbEntity
  8
DV1_Default
  6
Continuous
 62
     7
100
AcDbCircle
 10
-2072.2869579352
 20
412.1753560826
 30
0.0
 40
2267.566751440102
100
AcDbArc
 50
0.5019946813
 51
0.7807393354
  0
ARC
  5
D7
330
75
100
AcDbEntity
  8
DV1_Default
  6
Continuous
 62
     7
100
AcDbCircle
 10
-2990.5678846651
 20
398.3859884588
 30
0.0
 40
3185.93582772264
100
AcDbArc
 50
359.2142776703
 51
0.2540974174
  0
SPLINE
  5
D8
330
75
100
AcDbEntity
  8
DV1_Default
  6
Continuous
 62
     7
100
AcDbSpline
210
0.0
220
0.0
230
1.0
 70
     8
 71
     3
 72
    14
 73
    10
 74
     0
 42
0.0000000027825679
 43
0.0000000001
 40
0.0
 40
0.0
 40
0.0
 40
0.0
 40
0.122394879095041
 40
0.2269932587168578
 40
0.3191894055406561
 40
0.4419774868552028
 40
0.5962243709648088
 40
0.7821279183468337
 40
1.0
 40
1.0
 40
1.0
 40
1.0
 10
190.7726328496922
 20
397.5666407084011
 30
0.0
 10
190.7208871411606
 20
397.4526230723894
 30
0.0
 10
190.5973117167768
 20
397.2426412967973
 30
0.0
 10
190.378368557684
 20
396.9741077876271
 30
0.0
 10
190.108151526283
 20
396.7253008947196
 30
0.0
 10
189.7493374260597
 20
396.481191407379
 30
0.0
 10
189.2377802305556
 20
396.2531489461227
 30
0.0
 10
188.5366892989092
 20
396.0962603108999
 30
0.0
 10
188.0490177094642
 20
396.1247497424936
 30
0.0
 10
187.7397287557853
 20
396.1479281758578
 30
0.0
  0
LINE
  5
D9
330
75
100
AcDbEntity
  8
DV1_Default
  6
Continuous
 62
     7
100
AcDbLine
 10
166.0294656615
 20
363.1010236329
 30
0.0
 11
175.77685297
 21
346.3918287831
 31
0.0
  0
ARC
  5
DA
330
75
100
AcDbEntity
  8
DV1_Default
  6
Continuous
 62
     7
100
AcDbCircle
 10
166.461351096
 20
363.3529660299
 30
0.0
 40
0.5000000000000004
100
AcDbArc
 50
180.0000000004
 51
210.2573504595
  0
ARC
  5
DB
330
75
100
AcDbEntity
  8
DV1_Default
  6
Continuous
 62
     7
100
AcDbCircle
 10
176.2087384045
 20
346.6437711801
 30
0.0
 40
0.5000000000016033
100
AcDbArc
 50
210.2573504595
 51
270.0
  0
ARC
  5
DC
330
75
100
AcDbEntity
  8
DV1_Default
  6
Continuous
 62
     7
100
AcDbCircle
 10
176.2087384045
 20
346.6437711801
 30
0.0
 40
0.499999999999997
100
AcDbArc
 50
270.0
 51
277.6834852875
  0
LINE
  5
DD
330
75
100
AcDbEntity
  8
DV1_Default
  6
Continuous
 62
     7
100
AcDbLine
 10
176.2752853496
 20
346.1480533255
 30
0.0
 11
194.49948166
 21
348.5977054051
 31
0.0
  0
ARC
  5
DE
330
75
100
AcDbEntity
  8
DV1_Default
  6
Continuous
 62
     7
100
AcDbCircle
 10
194.3938896905
 20
349.0881332345
 30
0.0
 40
0.4999999999999959
100
AcDbArc
 50
277.7009643399
 51
357.0807473694
  0
LINE
  5
DF
330
75
100
AcDbEntity
  8
DV1_Default
  6
Continuous
 62
     7
100
AcDbLine
 10
98.9685467687
 20
328.9136332898
 30
0.0
 11
98.9685467687
 21
428.4136332898
 31
0.0
  0
LINE
  5
E0
330
75
100
AcDbEntity
  8
DV1_Default
  6
Continuous
 62
     7
100
AcDbLine
 10
138.9685467687
 20
428.4136332898
 30
0.0
 11
138.9685467687
 21
393.9136335804
 31
0.0
  0
LINE
  5
E1
330
75
100
AcDbEntity
  8
DV1_Default
  6
Continuous
 62
     7
100
AcDbLine
 10
163.4685467687
 20
351.9136335804
 30
0.0
 11
140.9685467687
 21
351.9136335804
 31
0.0
  0
LINE
  5
E2
330
75
100
AcDbEntity
  8
DV1_Default
  6
Continuous
 62
     7
100
AcDbLine
 10
138.9685467687
 20
349.9136335804
 30
0.0
 11
138.9685467687
 21
328.9136332898
 31
0.0
  0
LINE
  5
E3
330
75
100
AcDbEntity
  8
DV1_Default
  6
Continuous
 62
     7
100
AcDbLine
 10
99.4685467687
 20
428.9136332898
 30
0.0
 11
138.4685467687
 21
428.9136332898
 31
0.0
  0
LINE
  5
E4
330
75
100
AcDbEntity
  8
DV1_Default
  6
Continuous
 62
     7
100
AcDbLine
 10
163.9685467687
 20
391.4136335804
 30
0.0
 11
163.9685467687
 21
352.4136335804
 31
0.0
  0
LINE
  5
E5
330
75
100
AcDbEntity
  8
DV1_Default
  6
Continuous
 62
     7
100
AcDbLine
 10
140.9685467687
 20
391.9136335804
 30
0.0
 11
163.4685467687
 21
391.9136335804
 31
0.0
  0
SPLINE
  5
E6
330
75
100
AcDbEntity
  8
DV1_Default
  6
Continuous
 62
     7
100
AcDbSpline
210
0.0
220
0.0
230
1.0
 70
    12
 71
     3
 72
     8
 73
     4
 74
     0
 42
0.0000000028450416
 43
0.0000000001
 40
0.0
 40
0.0
 40
0.0
 40
0.0
 40
1.0
 40
1.0
 40
1.0
 40
1.0
 10
140.9685467687083
 20
391.9136335803736
 30
0.0
 41
1.0
 10
139.7969177307526
 20
391.9135377020833
 30
0.0
 41
0.8047099331477756
 10
138.9684508904154
 20
392.7420045424179
 30
0.0
 41
0.8047099331477756
 10
138.9685467687083
 20
393.9136335803736
 30
0.0
 41
1.0
  0
SPLINE
  5
E7
330
75
100
AcDbEntity
  8
DV1_Default
  6
Continuous
 62
     7
100
AcDbSpline
210
0.0
220
0.0
230
1.0
 70
    12
 71
     3
 72
     8
 73
     4
 74
     0
 42
0.0000000028450416
 43
0.0000000001
 40
0.0
 40
0.0
 40
0.0
 40
0.0
 40
1.0
 40
1.0
 40
1.0
 40
1.0
 10
138.9685467687083
 20
349.9136335803736
 30
0.0
 41
1.0
 10
138.9684508904179
 20
351.0852626183294
 30
0.0
 41
0.8047099331477444
 10
139.7969177307526
 20
351.9137294586666
 30
0.0
 41
0.8047099331477444
 10
140.9685467687083
 20
351.9136335803736
 30
0.0
 41
1.0
  0
ARC
  5
E8
330
75
100
AcDbEntity
  8
DV1_Default
  6
Continuous
 62
     7
100
AcDbCircle
 10
99.4685467687
 20
428.4136332898
 30
0.0
 40
0.5000000000000143
100
AcDbArc
 50
90.0
 51
180.0
  0
ARC
  5
E9
330
75
100
AcDbEntity
  8
DV1_Default
  6
Continuous
 62
     7
100
AcDbCircle
 10
138.4685467687
 20
428.4136332898
 30
0.0
 40
0.5000000000000004
100
AcDbArc
 50
0.0
 51
90.0
  0
ARC
  5
EA
330
75
100
AcDbEntity
  8
DV1_Default
  6
Continuous
 62
     7
100
AcDbCircle
 10
163.4685467687
 20
391.4136335804
 30
0.0
 40
0.4999999999998755
100
AcDbArc
 50
0.0
 51
90.0
  0
ARC
  5
EB
330
75
100
AcDbEntity
  8
DV1_Default
  6
Continuous
 62
     7
100
AcDbCircle
 10
163.4685467687
 20
352.4136335804
 30
0.0
 40
0.5000000000000213
100
AcDbArc
 50
270.0
 51
0.0
  0
LINE
  5
EC
330
75
100
AcDbEntity
  8
DV1_Default
  6
Continuous
 62
     7
100
AcDbLine
 10
102.9685467687
 20
429.2136332898
 30
0.0
 11
102.9685467687
 21
555.3351833539
 31
0.0
  0
LINE
  5
ED
330
75
100
AcDbEntity
  8
DV1_Default
  6
Continuous
 62
     7
100
AcDbLine
 10
102.9685467687
 20
568.2382845958
 30
0.0
 11
102.9685467687
 21
555.3351833539
 31
0.0
  0
LINE
  5
EE
330
75
100
AcDbEntity
  8
DV1_Default
  6
Continuous
 62
     7
100
AcDbLine
 10
134.9685467687
 20
555.3351833545
 30
0.0
 11
134.9685467687
 21
429.2136332898
 31
0.0
  0
LINE
  5
EF
330
75
100
AcDbEntity
  8
DV1_Default
  6
Continuous
 62
     7
100
AcDbLine
 10
134.9685467687
 20
555.3351833545
 30
0.0
 11
134.9685467687
 21
568.2382845958
 31
0.0
  0
SPLINE
  5
F0
330
75
100
AcDbEntity
  8
DV1_Default
  6
Continuous
 62
     7
100
AcDbSpline
210
0.0
220
0.0
230
1.0
 70
     8
 71
     3
 72
    24
 73
    20
 74
     0
 42
0.0000000003871116
 43
0.0000000001
 40
0.0
 40
0.0
 40
0.0
 40
0.0
 40
0.1151991500811278
 40
0.1151991500811278
 40
0.2303983001622557
 40
0.2303983001622557
 40
0.3455974502433836
 40
0.3455974502433836
 40
0.4607966003245113
 40
0.4607966003245113
 40
0.5759957504056391
 40
0.5759957504056391
 40
0.6911949004867669
 40
0.6911949004867669
 40
0.8063940505678948
 40
0.8063940505678948
 40
0.9215932006490225
 40
0.9215932006490225
 40
1.0
 40
1.0
 40
1.0
 40
1.0
 10
131.2185467687081
 20
552.8563327977714
 30
0.0
 10
131.2185467687081
 20
553.053589219442
 30
0.0
 10
130.8999125974389
 20
553.2471491253001
 30
0.0
 10
129.6701728959201
 20
553.608737147477
 30
0.0
 10
128.7600958406371
 20
553.7743465118343
 30
0.0
 10
126.499559169619
 20
554.049787193525
 30
0.0
 10
125.1328967054373
 20
554.1610139972961
 30
0.0
 10
122.1848346717654
 20
554.3099229930622
 30
0.0
 10
120.5728353427817
 20
554.3491286518661
 30
0.0
 10
117.3772672467421
 20
554.3493354383639
 30
0.0
 10
115.7715559899078
 20
554.310705771335
 30
0.0
 10
112.8053515754368
 20
554.1612629403052
 30
0.0
 10
111.4549089524429
 20
554.0517860229593
 30
0.0
 10
109.1669631379145
 20
553.7732416672585
 30
0.0
 10
108.2675463403581
 20
553.6089041082464
 30
0.0
 10
107.0368673131427
 20
553.2470739206974
 30
0.0
 10
106.7191127039145
 20
553.051713175279
 30
0.0
 10
106.7181628683185
 20
552.7242399681155
 30
0.0
 10
106.8664254676799
 20
552.5909126253885
 30
0.0
 10
107.1533972439285
 20
552.4626150936863
 30
0.0
  0
SPLINE
  5
F1
330
75
100
AcDbEntity
  8
DV1_Default
  6
Continuous
 62
     7
100
AcDbSpline
210
0.0
220
0.0
230
1.0
 70
     8
 71
     3
 72
     8
 73
     4
 74
     0
 42
0.0000000155692282
 43
0.0000000001
 40
0.0
 40
0.0
 40
0.0
 40
0.0
 40
1.0
 40
1.0
 40
1.0
 40
1.0
 10
130.7869943607293
 20
552.4638799730614
 30
0.0
 10
131.0707892959774
 20
552.5910322463944
 30
0.0
 10
131.2185467687081
 20
552.7233857827264
 30
0.0
 10
131.2185467687081
 20
552.8563327977714
 30
0.0
  0
LINE
  5
F2
330
75
100
AcDbEntity
  8
DV1_Default
  6
Continuous
 62
     7
100
AcDbLine
 10
134.4685467687
 20
568.7382839963
 30
0.0
 11
103.4685467687
 21
568.7382839963
 31
0.0
  0
ARC
  5
F3
330
75
100
AcDbEntity
  8
DV1_Default
  6
Continuous
 62
     7
100
AcDbCircle
 10
134.4685467687
 20
568.2382853469
 30
0.0
 40
0.5000000000019259
100
AcDbArc
 50
0.0000625883
 51
90.0000000001
  0
ARC
  5
F4
330
75
100
AcDbEntity
  8
DV1_Default
  6
Continuous
 62
     7
100
AcDbCircle
 10
103.4685467687
 20
568.2382853469
 30
0.0
 40
0.4999993246848633
100
AcDbArc
 50
90.0000000002
 51
180.0000883099
  0
LINE
  5
F5
330
75
100
AcDbEntity
  8
DV1_Default
  6
Continuous
 62
     7
100
AcDbLine
 10
101.4685467687
 20
429.2136332898
 30
0.0
 11
136.4685467687
 21
429.2136332898
 31
0.0
  0
ARC
  5
F6
330
75
100
AcDbEntity
  8
DV1_Default
  6
Continuous
 62
     7
100
AcDbCircle
 10
101.4685467687
 20
428.7136332898
 30
0.0
 40
0.5000000000000004
100
AcDbArc
 50
90.0
 51
156.4218215218
  0
ARC
  5
F7
330
75
100
AcDbEntity
  8
DV1_Default
  6
Continuous
 62
     7
100
AcDbCircle
 10
136.4685467687
 20
428.7136332898
 30
0.0
 40
0.5000000000000004
100
AcDbArc
 50
23.5781784782
 51
90.0
  0
ELLIPSE
  5
F8
330
75
100
AcDbEntity
  8
DV1_Default
  6
Continuous
 62
     7
100
AcDbEllipse
 10
118.9685475594
 20
545.4169916362
 30
0.0
 11
-10.05
 21
-2.775557561562891E-14
 31
0.0
210
0.0
220
0.0
230
1.0
 40
0.1218693434
 41
2.673275268054872
 42
6.283185307179563
  0
ELLIPSE
  5
F9
330
75
100
AcDbEntity
  8
DV1_Default
  6
Continuous
 62
     7
100
AcDbEllipse
 10
118.9685475594
 20
545.4169916362
 30
0.0
 11
-10.05
 21
-2.775557561562891E-14
 31
0.0
210
0.0
220
0.0
230
1.0
 40
0.1218693434
 41
0.0
 42
0.4683173855349076
  0
ELLIPSE
  5
FA
330
75
100
AcDbEntity
  8
DV1_Default
  6
Continuous
 62
     7
100
AcDbEllipse
 10
118.9685475594
 20
545.4169916362
 30
0.0
 11
-10.75
 21
-2.775557561562891E-14
 31
0.0
210
0.0
220
0.0
230
1.0
 40
0.1218693434
 41
2.522884834649236
 42
6.283185307179565
  0
ELLIPSE
  5
FB
330
75
100
AcDbEntity
  8
DV1_Default
  6
Continuous
 62
     7
100
AcDbEllipse
 10
118.9685475594
 20
545.4169916362
 30
0.0
 11
-10.75
 21
-2.775557561562891E-14
 31
0.0
210
0.0
220
0.0
230
1.0
 40
0.1218693434
 41
0.0
 42
0.6187078189405539
  0
LINE
  5
FC
330
75
100
AcDbEntity
  8
DV1_Default
  6
Continuous
 62
     7
100
AcDbLine
 10
107.9685475594
 20
546.0473828444
 30
0.0
 11
107.9685475594
 21
545.4160655592
 31
0.0
  0
ELLIPSE
  5
FD
330
75
100
AcDbEntity
  8
DV1_Default
  6
Continuous
 62
     7
100
AcDbEllipse
 10
118.9685475594
 20
548.3946300911
 30
0.0
 11
11.80000000000016
 21
0.0
 31
0.0
210
0.0
220
0.0
230
1.0
 40
0.1218693434
 41
2.771250021498076
 42
3.51193528568151
  0
LINE
  5
FE
330
75
100
AcDbEntity
  8
DV1_Default
  6
Continuous
 62
     7
100
AcDbLine
 10
107.9685475594
 20
548.9151134975
 30
0.0
 11
107.9685475594
 21
547.1122209577
 31
0.0
  0
LINE
  5
FF
330
75
100
AcDbEntity
  8
DV1_Default
  6
Continuous
 62
     7
100
AcDbLine
 10
107.9685475594
 20
547.1122209577
 30
0.0
 11
107.9685475594
 21
546.0473828444
 31
0.0
  0
LINE
  5
100
330
75
100
AcDbEntity
  8
DV1_Default
  6
Continuous
 62
     7
100
AcDbLine
 10
129.9685475594
 20
545.4160655592
 30
0.0
 11
129.9685475594
 21
546.0473828444
 31
0.0
  0
ELLIPSE
  5
101
330
75
100
AcDbEntity
  8
DV1_Default
  6
Continuous
 62
     7
100
AcDbEllipse
 10
118.9685475594
 20
548.3946300911
 30
0.0
 11
-11.80000000000002
 21
-1.110223024625157E-13
 31
0.0
210
0.0
220
0.0
230
1.0
 40
0.1218693434
 41
2.771250021498076
 42
3.511935285681501
  0
LINE
  5
102
330
75
100
AcDbEntity
  8
DV1_Default
  6
Continuous
 62
     7
100
AcDbLine
 10
129.9685475594
 20
546.0473828444
 30
0.0
 11
129.9685475594
 21
547.1122209577
 31
0.0
  0
LINE
  5
103
330
75
100
AcDbEntity
  8
DV1_Default
  6
Continuous
 62
     7
100
AcDbLine
 10
129.9685475594
 20
547.1122209577
 30
0.0
 11
129.9685475594
 21
548.9151134975
 31
0.0
  0
LINE
  5
104
330
75
100
AcDbEntity
  8
DV1_Default
  6
Continuous
 62
     7
100
AcDbLine
 10
107.9685475594
 20
545.4160558845
 30
0.0
 11
108.46446157
 21
545.1383748205
 31
0.0
  0
LINE
  5
105
330
75
100
AcDbEntity
  8
DV1_Default
  6
Continuous
 62
     7
100
AcDbLine
 10
129.4726335487
 20
545.1383748205
 30
0.0
 11
129.9685475594
 21
545.4160558845
 31
0.0
  0
LINE
  5
106
330
75
100
AcDbEntity
  8
DV1_Default
  6
Continuous
 62
     7
100
AcDbLine
 10
107.1685475594
 20
553.2480688545
 30
0.0
 11
107.1685475594
 21
548.3946300911
 31
0.0
  0
LINE
  5
107
330
75
100
AcDbEntity
  8
DV1_Default
  6
Continuous
 62
     7
100
AcDbLine
 10
130.7685475594
 20
548.3946300911
 30
0.0
 11
130.7685475594
 21
553.2487327591
 31
0.0
  0
ELLIPSE
  5
108
330
75
100
AcDbEntity
  8
DV1_Default
  6
Continuous
 62
     7
100
AcDbEllipse
 10
118.9685475594
 20
543.6865522565
 30
0.0
 11
7.875000000000012
 21
2.775557561562891E-14
 31
0.0
210
0.0
220
0.0
230
1.0
 40
0.1218693434
 41
3.196725653355597
 42
6.228052307413716
  0
ELLIPSE
  5
109
330
75
100
AcDbEntity
  8
DV1_Default
  6
Continuous
 62
     7
100
AcDbEllipse
 10
118.9685475594
 20
544.0274270239
 30
0.0
 11
-8.000000000000002
 21
0.0
 31
0.0
210
0.0
220
0.0
230
1.0
 40
0.1218693434
 41
-3.843133021285571
 42
-3.407619473601962
  0
ELLIPSE
  5
10A
330
75
100
AcDbEntity
  8
DV1_Default
  6
Continuous
 62
     7
100
AcDbEllipse
 10
118.9685475594
 20
544.0274270239
 30
0.0
 11
-8.000000000000002
 21
0.0
 31
0.0
210
0.0
220
0.0
230
1.0
 40
0.1218693434
 41
0.2660268200121759
 42
0.7015403676957838
  0
ELLIPSE
  5
10B
330
75
100
AcDbEntity
  8
DV1_Default
  6
Continuous
 62
     7
100
AcDbEllipse
 10
118.9685475594
 20
543.5807812556
 30
0.0
 11
7.875000000000012
 21
2.775557561562891E-14
 31
0.0
210
0.0
220
0.0
230
1.0
 40
0.1218693434
 41
0.0
 42
6.283185307179586
  0
ELLIPSE
  5
10C
330
75
100
AcDbEntity
  8
DV1_Default
  6
Continuous
 62
     7
100
AcDbEllipse
 10
118.9685475594
 20
543.6495219765
 30
0.0
 11
8.422375322854235
 21
0.0
 31
0.0
210
0.0
220
0.0
230
1.0
 40
0.1218693434
 41
6.080566969683235
 42
6.283185307179586
  0
ELLIPSE
  5
10D
330
75
100
AcDbEntity
  8
DV1_Default
  6
Continuous
 62
     7
100
AcDbEllipse
 10
118.9685475594
 20
543.6495219765
 30
0.0
 11
8.422375322854235
 21
0.0
 31
0.0
210
0.0
220
0.0
230
1.0
 40
0.1218693434
 41
3.141592653589793
 42
3.18127192304211
  0
ELLIPSE
  5
10E
330
75
100
AcDbEntity
  8
DV1_Default
  6
Continuous
 62
     7
100
AcDbEllipse
 10
118.9685475594
 20
543.6495219765
 30
0.0
 11
8.422375322854235
 21
0.0
 31
0.0
210
0.0
220
0.0
230
1.0
 40
0.1218693434
 41
0.0
 42
0.0649432597695226
  0
ELLIPSE
  5
10F
330
75
100
AcDbEntity
  8
DV1_Default
  6
Continuous
 62
     7
100
AcDbEllipse
 10
118.9685475594
 20
543.5807812556
 30
0.0
 11
8.327218268566538
 21
2.775557561562891E-14
 31
0.0
210
0.0
220
0.0
230
1.0
 40
0.1218693434
 41
0.0808292835232698
 42
3.026801287028681
  0
ELLIPSE
  5
110
330
75
100
AcDbEntity
  8
DV1_Default
  6
Continuous
 62
     7
100
AcDbEllipse
 10
118.9685475594
 20
543.5807812556
 30
0.0
 11
8.327218268566538
 21
2.775557561562891E-14
 31
0.0
210
0.0
220
0.0
230
1.0
 40
0.1218693434
 41
3.304011237255503
 42
6.149833696943586
  0
ELLIPSE
  5
111
330
75
100
AcDbEntity
  8
DV1_Default
  6
Continuous
 62
     7
100
AcDbEllipse
 10
118.9685475594
 20
543.6620164456
 30
0.0
 11
6.390109892686962
 21
0.0
 31
0.0
210
0.0
220
0.0
230
1.0
 40
0.1218693434
 41
3.141592653589793
 42
3.164262514234735
  0
ELLIPSE
  5
112
330
75
100
AcDbEntity
  8
DV1_Default
  6
Continuous
 62
     7
100
AcDbEllipse
 10
118.9685475594
 20
543.5807812556
 30
0.0
 11
-6.29177167464824
 21
0.0
 31
0.0
210
0.0
220
0.0
230
1.0
 40
0.1218693434
 41
0.1782433333124694
 42
3.002677255080859
  0
ELLIPSE
  5
113
330
75
100
AcDbEntity
  8
DV1_Default
  6
Continuous
 62
     7
100
AcDbEllipse
 10
118.9685475594
 20
543.5807812556
 30
0.0
 11
-6.29177167464824
 21
0.0
 31
0.0
210
0.0
220
0.0
230
1.0
 40
0.1218693434
 41
3.232897316012437
 42
6.172879274496648
  0
ELLIPSE
  5
114
330
75
100
AcDbEntity
  8
DV1_Default
  6
Continuous
 62
     7
100
AcDbEllipse
 10
118.9685475594
 20
543.5807812556
 30
0.0
 11
6.275000000000002
 21
0.0
 31
0.0
210
0.0
220
0.0
230
1.0
 40
0.1218693434
 41
3.230001246975682
 42
6.070625276799988
  0
ELLIPSE
  5
115
330
75
100
AcDbEntity
  8
DV1_Default
  6
Continuous
 62
     7
100
AcDbEllipse
 10
118.9685475594
 20
543.5807812556
 30
0.0
 11
6.275000000000002
 21
0.0
 31
0.0
210
0.0
220
0.0
230
1.0
 40
0.1218693434
 41
0.0597321181633255
 42
3.082651413070308
  0
ELLIPSE
  5
116
330
75
100
AcDbEntity
  8
DV1_Default
  6
Continuous
 62
     7
100
AcDbEllipse
 10
118.9685475594
 20
543.6649434935
 30
0.0
 11
4.650545274088398
 21
0.0
 31
0.0
210
0.0
220
0.0
230
1.0
 40
0.1218693434
 41
3.141592653589793
 42
3.160483709631143
  0
ELLIPSE
  5
117
330
75
100
AcDbEntity
  8
DV1_Default
  6
Continuous
 62
     7
100
AcDbEllipse
 10
118.9685475594
 20
543.5807812556
 30
0.0
 11
-4.551708104323342
 21
0.0
 31
0.0
210
0.0
220
0.0
230
1.0
 40
0.1218693434
 41
0.1973838194866636
 42
2.994639738361245
  0
ELLIPSE
  5
118
330
75
100
AcDbEntity
  8
DV1_Default
  6
Continuous
 62
     7
100
AcDbEllipse
 10
118.9685475594
 20
543.5807812556
 30
0.0
 11
-4.551708104323342
 21
0.0
 31
0.0
210
0.0
220
0.0
230
1.0
 40
0.1218693434
 41
3.245001699411353
 42
6.177398384185842
  0
ELLIPSE
  5
119
330
75
100
AcDbEntity
  8
DV1_Default
  6
Continuous
 62
     7
100
AcDbEllipse
 10
118.9685475594
 20
543.5807812556
 30
0.0
 11
-4.537499999999998
 21
0.0
 31
0.0
210
0.0
220
0.0
230
1.0
 40
0.1218693434
 41
3.200899944274105
 42
6.220512175311377
  0
ELLIPSE
  5
11A
330
75
100
AcDbEntity
  8
DV1_Default
  6
Continuous
 62
     7
100
AcDbEllipse
 10
118.9685475594
 20
543.5807812556
 30
0.0
 11
-4.537499999999998
 21
0.0
 31
0.0
210
0.0
220
0.0
230
1.0
 40
0.1218693434
 41
0.2434058833971469
 42
3.04476632024682
  0
ELLIPSE
  5
11B
330
75
100
AcDbEntity
  8
DV1_Default
  6
Continuous
 62
     7
100
AcDbEllipse
 10
118.9685475594
 20
543.5807812556
 30
0.0
 11
-2.779271674648244
 21
0.0
 31
0.0
210
0.0
220
0.0
230
1.0
 40
0.1218693434
 41
0.227092155965014
 42
2.90711277298991
  0
ELLIPSE
  5
11C
330
75
100
AcDbEntity
  8
DV1_Default
  6
Continuous
 62
     7
100
AcDbEllipse
 10
118.9685475594
 20
543.5807812556
 30
0.0
 11
-2.779271674648244
 21
0.0
 31
0.0
210
0.0
220
0.0
230
1.0
 40
0.1218693434
 41
3.209720395914324
 42
6.185917078716924
  0
ELLIPSE
  5
11D
330
75
100
AcDbEntity
  8
DV1_Default
  6
Continuous
 62
     7
100
AcDbEllipse
 10
118.9685475594
 20
543.5807812556
 30
0.0
 11
-2.762500000000001
 21
-2.775557561562891E-14
 31
0.0
210
0.0
220
0.0
230
1.0
 40
0.1218693434
 41
3.226982220130671
 42
6.212861447147554
  0
ELLIPSE
  5
11E
330
75
100
AcDbEntity
  8
DV1_Default
  6
Continuous
 62
     7
100
AcDbEllipse
 10
118.9685475594
 20
543.5807812556
 30
0.0
 11
-2.762500000000001
 21
-2.775557561562891E-14
 31
0.0
210
0.0
220
0.0
230
1.0
 40
0.1218693434
 41
0.2453787233182633
 42
2.928160441271974
  0
ELLIPSE
  5
11F
330
75
100
AcDbEntity
  8
DV1_Default
  6
Continuous
 62
     7
100
AcDbEllipse
 10
118.9685475594
 20
545.1936687521
 30
0.0
 11
8.925000000000004
 21
0.0
 31
0.0
210
0.0
220
0.0
230
1.0
 40
0.1218693434
 41
0.0
 42
0.006675783546053
  0
ELLIPSE
  5
120
330
75
100
AcDbEntity
  8
DV1_Default
  6
Continuous
 62
     7
100
AcDbEllipse
 10
118.9685475594
 20
545.1936687521
 30
0.0
 11
8.925000000000004
 21
0.0
 31
0.0
210
0.0
220
0.0
230
1.0
 40
0.1218693434
 41
3.130532656724485
 42
3.18127192304213
  0
ELLIPSE
  5
121
330
75
100
AcDbEntity
  8
DV1_Default
  6
Continuous
 62
     7
100
AcDbEllipse
 10
118.9685475594
 20
545.1936687521
 30
0.0
 11
8.925000000000004
 21
0.0
 31
0.0
210
0.0
220
0.0
230
1.0
 40
0.1218693434
 41
6.243506037727285
 42
6.283185307179586
  0
LINE
  5
122
330
75
100
AcDbEntity
  8
DV1_Default
  6
Continuous
 62
     7
100
AcDbLine
 10
112.4966333608
 20
544.1031744302
 30
0.0
 11
112.4966333608
 21
544.1005615403
 31
0.0
  0
ARC
  5
123
330
75
100
AcDbEntity
  8
DV1_Default
  6
Continuous
 62
     7
100
AcDbCircle
 10
113.0561868054
 20
544.2517904052
 30
0.0
 40
0.5799137096765169
100
AcDbArc
 50
195.1238359499
 51
195.1914792403
  0
ARC
  5
124
330
75
100
AcDbEntity
  8
DV1_Default
  6
Continuous
 62
     7
100
AcDbCircle
 10
124.7544536105
 20
544.2770990913
 30
0.0
 40
0.7086370825197645
100
AcDbArc
 50
345.5123381548
 51
345.5686156906
  0
LINE
  5
125
330
75
100
AcDbEntity
  8
DV1_Default
  6
Continuous
 62
     7
100
AcDbLine
 10
125.440461758
 20
544.1005615403
 30
0.0
 11
125.440461758
 21
544.1031744302
 31
0.0
  0
ELLIPSE
  5
126
330
75
100
AcDbEntity
  8
DV1_Default
  6
Continuous
 62
     7
100
AcDbEllipse
 10
118.9685475594
 20
545.0696004831
 30
0.0
 11
-9.050000000000001
 21
0.0
 31
0.0
210
0.0
220
0.0
230
1.0
 40
0.1218693434
 41
3.242485415175907
 42
6.173339110701894
  0
ELLIPSE
  5
127
330
75
100
AcDbEntity
  8
DV1_Default
  6
Continuous
 62
     7
100
AcDbEllipse
 10
118.9685475594
 20
545.0696004831
 30
0.0
 11
-9.050000000000001
 21
0.0
 31
0.0
210
0.0
220
0.0
230
1.0
 40
0.1218693434
 41
-3.372742421048117
 42
-3.287023797094257
  0
ELLIPSE
  5
128
330
75
100
AcDbEntity
  8
DV1_Default
  6
Continuous
 62
     7
100
AcDbEllipse
 10
118.9685475594
 20
545.0696004831
 30
0.0
 11
-9.050000000000001
 21
0.0
 31
0.0
210
0.0
220
0.0
230
1.0
 40
0.1218693434
 41
0.1279877600607123
 42
0.2311497674583166
  0
ELLIPSE
  5
129
330
75
100
AcDbEntity
  8
DV1_Default
  6
Continuous
 62
     7
100
AcDbEllipse
 10
118.9685475594
 20
545.0696004831
 30
0.0
 11
9.250000000001673
 21
0.0
 31
0.0
210
0.0
220
0.0
230
1.0
 40
0.1218693434
 41
1.435246479414965
 42
1.706346174174802
  0
LINE
  5
12A
330
75
100
AcDbEntity
  8
DV1_Default
  6
Continuous
 62
     7
100
AcDbLine
 10
120.2185475594
 20
546.298104615
 30
0.0
 11
120.2185475594
 21
546.1865514652
 31
0.0
  0
LINE
  5
12B
330
75
100
AcDbEntity
  8
DV1_Default
  6
Continuous
 62
     7
100
AcDbLine
 10
120.2185475594
 20
546.298104615
 30
0.0
 11
120.2185475594
 21
546.6322679379
 31
0.0
  0
LINE
  5
12C
330
75
100
AcDbEntity
  8
DV1_Default
  6
Continuous
 62
     7
100
AcDbLine
 10
111.6039233845
 20
545.7516857979
 30
0.0
 11
111.693141377
 21
545.7408128597
 31
0.0
  0
SPLINE
  5
12D
330
75
100
AcDbEntity
  8
DV1_Default
  6
Continuous
 62
     7
100
AcDbSpline
210
0.0
220
0.0
230
1.0
 70
     8
 71
     3
 72
    20
 73
    16
 74
     0
 42
0.000000071051698
 43
0.0000000001
 40
0.0
 40
0.0
 40
0.0
 40
0.0
 40
0.2174093870011359
 40
0.2174093870011359
 40
0.2174093870011359
 40
0.4348768202247434
 40
0.4348768202247434
 40
0.4348768202247434
 40
0.6514121854905284
 40
0.6514121854905284
 40
0.6514121854905284
 40
0.866038039611547
 40
0.866038039611547
 40
0.866038039611547
 40
1.0
 40
1.0
 40
1.0
 40
1.0
 10
111.603923384499
 20
545.7516857978698
 30
0.0
 10
111.5958814799613
 20
545.7526658594953
 30
0.0
 10
111.5877285853777
 20
545.7556026529917
 30
0.0
 10
111.5801388352889
 20
545.7602593526523
 30
0.0
 10
111.5725479543128
 20
545.76491674617
 30
0.0
 10
111.5653101356065
 20
545.771425002272
 30
0.0
 10
111.559035184416
 20
545.779252372725
 30
0.0
 10
111.5527874224017
 20
545.7870458274155
 30
0.0
 10
111.5473205457845
 20
545.7963656526565
 30
0.0
 10
111.5431042016579
 20
545.8064362820886
 30
0.0
 10
111.5389246200392
 20
545.8164191052163
 30
0.0
 10
111.5358578571801
 20
545.8274184813745
 30
0.0
 10
111.5341694576989
 20
545.8385122501671
 30
0.0
 10
111.5331062888405
 20
545.845497889309
 30
0.0
 10
111.5325651825542
 20
545.8526201816536
 30
0.0
 10
111.5325651825544
 20
545.8596367902513
 30
0.0
  0
LINE
  5
12E
330
75
100
AcDbEntity
  8
DV1_Default
  6
Continuous
 62
     7
100
AcDbLine
 10
111.5325651826
 20
546.2409281414
 30
0.0
 11
111.5325651826
 21
545.8596367903
 31
0.0
  0
LINE
  5
12F
330
75
100
AcDbEntity
  8
DV1_Default
  6
Continuous
 62
     7
100
AcDbLine
 10
113.3003321355
 20
546.0750733881
 30
0.0
 11
113.3003321355
 21
546.4283884957
 31
0.0
  0
SPLINE
  5
130
330
75
100
AcDbEntity
  8
DV1_Default
  6
Continuous
 62
     7
100
AcDbSpline
210
0.0
220
0.0
230
1.0
 70
     8
 71
     3
 72
    20
 73
    16
 74
     0
 42
0.0000000710789168
 43
0.0000000001
 40
0.0
 40
0.0
 40
0.0
 40
0.0
 40
0.2125265405902761
 40
0.2125265405902761
 40
0.2125265405902761
 40
0.425000149095499
 40
0.425000149095499
 40
0.425000149095499
 40
0.6383121177781582
 40
0.6383121177781582
 40
0.6383121177781582
 40
0.8534671345903848
 40
0.8534671345903848
 40
0.8534671345903848
 40
1.0
 40
1.0
 40
1.0
 40
1.0
 10
113.3003321355208
 20
546.0750733881027
 30
0.0
 10
113.3003321355208
 20
546.0640387803535
 30
0.0
 10
113.3016932057918
 20
546.0526861958033
 30
0.0
 10
113.3042986464845
 20
546.0419577374402
 30
0.0
 10
113.3069037258337
 20
546.0312307669857
 30
0.0
 10
113.3108234611784
 20
546.0208331249288
 30
0.0
 10
113.3157275569991
 20
546.0116132344195
 30
0.0
 10
113.320651256122
 20
546.0023564889411
 30
0.0
 10
113.3267006280536
 20
545.994033669247
 30
0.0
 10
113.3333756607843
 20
545.9873112700542
 30
0.0
 10
113.3401077808472
 20
545.9805313784341
 30
0.0
 10
113.3476595741275
 20
545.9751937384052
 30
0.0
 10
113.355412489663
 20
545.9717226786513
 30
0.0
 10
113.3607324436259
 20
545.9693408807317
 30
0.0
 10
113.3662289273528
 20
545.9677879741847
 30
0.0
 10
113.3716903374654
 20
545.9671223957209
 30
0.0
  0
LINE
  5
131
330
75
100
AcDbEntity
  8
DV1_Default
  6
Continuous
 62
     7
100
AcDbLine
 10
113.46090833
 20
545.9562494576
 30
0.0
 11
113.3716903375
 21
545.9671223957
 31
0.0
  0
SPLINE
  5
132
330
75
100
AcDbEntity
  8
DV1_Default
  6
Continuous
 62
     7
100
AcDbSpline
210
0.0
220
0.0
230
1.0
 70
     8
 71
     3
 72
    20
 73
    16
 74
     0
 42
0.0000000710446287
 43
0.0000000001
 40
0.0
 40
0.0
 40
0.0
 40
0.0
 40
0.217478546630357
 40
0.217478546630357
 40
0.217478546630357
 40
0.4350168090148741
 40
0.4350168090148741
 40
0.4350168090148741
 40
0.6515958899074947
 40
0.6515958899074947
 40
0.6515958899074947
 40
0.8662118866631193
 40
0.8662118866631193
 40
0.8662118866631193
 40
1.0
 40
1.0
 40
1.0
 40
1.0
 10
113.460908329976
 20
545.9562494575538
 30
0.0
 10
113.4528628408793
 20
545.9572299560274
 30
0.0
 10
113.444706309208
 20
545.9601678998653
 30
0.0
 10
113.4371131446187
 20
545.9648265528563
 30
0.0
 10
113.4295188164328
 20
545.9694859197516
 30
0.0
 10
113.4222776564827
 20
545.9759970790357
 30
0.0
 10
113.416000050035
 20
545.983828245767
 30
0.0
 10
113.4097504255921
 20
545.991624505604
 30
0.0
 10
113.4042820380933
 20
546.0009478776924
 30
0.0
 10
113.4000651416241
 20
546.0110223902415
 30
0.0
 10
113.3958860359405
 20
546.0210066174949
 30
0.0
 10
113.3928200820841
 20
546.032007501356
 30
0.0
 10
113.391133076328
 20
546.0431024381896
 30
0.0
 10
113.3900720957185
 20
546.0500801931861
 30
0.0
 10
113.3895321120154
 20
546.0571941332678
 30
0.0
 10
113.3895321120156
 20
546.0642026455355
 30
0.0
  0
LINE
  5
133
330
75
100
AcDbEntity
  8
DV1_Default
  6
Continuous
 62
     7
100
AcDbLine
 10
113.389532112
 20
546.4357281351
 30
0.0
 11
113.389532112
 21
546.0642026455
 31
0.0
  0
LINE
  5
134
330
75
100
AcDbEntity
  8
DV1_Default
  6
Continuous
 62
     7
100
AcDbLine
 10
117.7185475594
 20
546.1865514652
 30
0.0
 11
117.7185475594
 21
546.1711748086
 31
0.0
  0
LINE
  5
135
330
75
100
AcDbEntity
  8
DV1_Default
  6
Continuous
 62
     7
100
AcDbLine
 10
117.7185475594
 20
546.1865514652
 30
0.0
 11
117.7185475594
 21
546.298104615
 31
0.0
  0
LINE
  5
136
330
75
100
AcDbEntity
  8
DV1_Default
  6
Continuous
 62
     7
100
AcDbLine
 10
117.7185475594
 20
546.6322679379
 30
0.0
 11
117.7185475594
 21
546.298104615
 31
0.0
  0
LINE
  5
137
330
75
100
AcDbEntity
  8
DV1_Default
  6
Continuous
 62
     7
100
AcDbLine
 10
120.2185475594
 20
546.1711748086
 30
0.0
 11
120.2185475594
 21
546.1865514652
 31
0.0
  0
LINE
  5
138
330
75
100
AcDbEntity
  8
DV1_Default
  6
Continuous
 62
     7
100
AcDbLine
 10
124.5475630068
 20
546.4357281351
 30
0.0
 11
124.5475630068
 21
546.0642026455
 31
0.0
  0
SPLINE
  5
139
330
75
100
AcDbEntity
  8
DV1_Default
  6
Continuous
 62
     7
100
AcDbSpline
210
0.0
220
0.0
230
1.0
 70
     8
 71
     3
 72
    20
 73
    16
 74
     0
 42
0.0000000710719588
 43
0.0000000001
 40
0.0
 40
0.0
 40
0.0
 40
0.0
 40
0.2124602044789438
 40
0.2124602044789438
 40
0.2124602044789438
 40
0.4248660549042022
 40
0.4248660549042022
 40
0.4248660549042022
 40
0.6381326839798706
 40
0.6381326839798706
 40
0.6381326839798706
 40
0.8532925071046366
 40
0.8532925071046366
 40
0.8532925071046366
 40
1.0
 40
1.0
 40
1.0
 40
1.0
 10
124.5475630067645
 20
546.0642026455355
 30
0.0
 10
124.5475630067645
 20
546.053170076173
 30
0.0
 10
124.5462020826595
 20
546.0418195776022
 30
0.0
 10
124.543597030484
 20
546.0310931355132
 30
0.0
 10
124.5409923494253
 20
546.0203682215172
 30
0.0
 10
124.5370733078963
 20
546.0099726507347
 30
0.0
 10
124.5321702980045
 20
546.000754336854
 30
0.0
 10
124.5272471584747
 20
545.9914981765635
 30
0.0
 10
124.5211986068093
 20
545.9831757709197
 30
0.0
 10
124.5145245638084
 20
545.9764529656948
 30
0.0
 10
124.5077918757935
 20
545.9696710869806
 30
0.0
 10
124.5002394420745
 20
545.9643313658047
 30
0.0
 10
124.4924856813452
 20
545.9608578078589
 30
0.0
 10
124.4871590222977
 20
545.9584715517562
 30
0.0
 10
124.4816553169726
 20
545.9569159034904
 30
0.0
 10
124.4761867888041
 20
545.9562494575538
 30
0.0
  0
LINE
  5
13A
330
75
100
AcDbEntity
  8
DV1_Default
  6
Continuous
 62
     7
100
AcDbLine
 10
124.5654047813
 20
545.9671223957
 30
0.0
 11
124.4761867888
 21
545.9562494576
 31
0.0
  0
SPLINE
  5
13B
330
75
100
AcDbEntity
  8
DV1_Default
  6
Continuous
 62
     7
100
AcDbSpline
210
0.0
220
0.0
230
1.0
 70
     8
 71
     3
 72
    20
 73
    16
 74
     0
 42
0.000000071051698
 43
0.0000000001
 40
0.0
 40
0.0
 40
0.0
 40
0.0
 40
0.2174093870011151
 40
0.2174093870011151
 40
0.2174093870011151
 40
0.4348768202247125
 40
0.4348768202247125
 40
0.4348768202247125
 40
0.6514121854904935
 40
0.6514121854904935
 40
0.6514121854904935
 40
0.8660380396115136
 40
0.8660380396115136
 40
0.8660380396115136
 40
1.0
 40
1.0
 40
1.0
 40
1.0
 10
124.5654047813147
 20
545.9671223957209
 30
0.0
 10
124.5734466858524
 20
545.9681024573467
 30
0.0
 10
124.581599580436
 20
545.971039250843
 30
0.0
 10
124.5891893305249
 20
545.9756959505036
 30
0.0
 10
124.5967802115009
 20
545.9803533440213
 30
0.0
 10
124.6040180302072
 20
545.9868616001233
 30
0.0
 10
124.6102929813978
 20
545.9946889705764
 30
0.0
 10
124.6165407434121
 20
546.0024824252667
 30
0.0
 10
124.6220076200292
 20
546.0118022505078
 30
0.0
 10
124.6262239641559
 20
546.0218728799399
 30
0.0
 10
124.6304035457745
 20
546.0318557030677
 30
0.0
 10
124.6334703086336
 20
546.0428550792259
 30
0.0
 10
124.6351587081148
 20
546.0539488480184
 30
0.0
 10
124.6362218769733
 20
546.0609344871602
 30
0.0
 10
124.6367629832596
 20
546.068056779505
 30
0.0
 10
124.6367629832593
 20
546.0750733881027
 30
0.0
  0
LINE
  5
13C
330
75
100
AcDbEntity
  8
DV1_Default
  6
Continuous
 62
     7
100
AcDbLine
 10
124.6367629833
 20
546.4283884957
 30
0.0
 11
124.6367629833
 21
546.0750733881
 31
0.0
  0
LINE
  5
13D
330
75
100
AcDbEntity
  8
DV1_Default
  6
Continuous
 62
     7
100
AcDbLine
 10
126.4045299362
 20
545.8596367903
 30
0.0
 11
126.4045299362
 21
546.2409281414
 31
0.0
  0
SPLINE
  5
13E
330
75
100
AcDbEntity
  8
DV1_Default
  6
Continuous
 62
     7
100
AcDbSpline
210
0.0
220
0.0
230
1.0
 70
     8
 71
     3
 72
    20
 73
    16
 74
     0
 42
0.0000000710789168
 43
0.0000000001
 40
0.0
 40
0.0
 40
0.0
 40
0.0
 40
0.2125265405902869
 40
0.2125265405902869
 40
0.2125265405902869
 40
0.4250001490955228
 40
0.4250001490955228
 40
0.4250001490955228
 40
0.6383121177781937
 40
0.6383121177781937
 40
0.6383121177781937
 40
0.8534671345904412
 40
0.8534671345904412
 40
0.8534671345904412
 40
1.0
 40
1.0
 40
1.0
 40
1.0
 10
126.4045299362257
 20
545.8596367902513
 30
0.0
 10
126.4045299362257
 20
545.8486021825022
 30
0.0
 10
126.4031688659547
 20
545.837249597952
 30
0.0
 10
126.400563425262
 20
545.8265211395887
 30
0.0
 10
126.3979583459127
 20
545.8157941691343
 30
0.0
 10
126.3940386105681
 20
545.8053965270774
 30
0.0
 10
126.3891345147474
 20
545.7961766365682
 30
0.0
 10
126.3842108156245
 20
545.7869198910898
 30
0.0
 10
126.3781614436928
 20
545.7785970713957
 30
0.0
 10
126.3714864109622
 20
545.7718746722029
 30
0.0
 10
126.3647542908993
 20
545.7650947805827
 30
0.0
 10
126.357202497619
 20
545.7597571405538
 30
0.0
 10
126.3494495820835
 20
545.7562860808
 30
0.0
 10
126.3441296281206
 20
545.7539042828804
 30
0.0
 10
126.3386331443936
 20
545.7523513763334
 30
0.0
 10
126.3331717342811
 20
545.7516857978698
 30
0.0
  0
LINE
  5
13F
330
75
100
AcDbEntity
  8
DV1_Default
  6
Continuous
 62
     7
100
AcDbLine
 10
126.2439537418
 20
545.7408128597
 30
0.0
 11
126.3331717343
 21
545.7516857979
 31
0.0
  0
LINE
  5
140
330
75
100
AcDbEntity
  8
DV1_Default
  6
Continuous
 62
     7
100
AcDbLine
 10
128.1084668698
 20
545.9262884924
 30
0.0
 11
128.1084668698
 21
545.3211917775
 31
0.0
  0
ARC
  5
141
330
75
100
AcDbEntity
  8
DV1_Default
  6
Continuous
 62
     7
100
AcDbCircle
 10
128.0083906988
 20
545.3220129638
 30
0.0
 40
0.1000795400624589
100
AcDbArc
 50
269.5047537468
 51
359.5298635797
  0
LINE
  5
142
330
75
100
AcDbEntity
  8
DV1_Default
  6
Continuous
 62
     7
100
AcDbLine
 10
128.1336989493
 20
545.2219371624
 30
0.0
 11
128.0075256543
 21
545.2219371624
 31
0.0
  0
ARC
  5
143
330
75
100
AcDbEntity
  8
DV1_Default
  6
Continuous
 62
     7
100
AcDbCircle
 10
128.1344970126
 20
545.3220553799
 30
0.0
 40
0.1001213982881165
100
AcDbArc
 50
269.5432930139
 51
359.5057860988
  0
LINE
  5
144
330
75
100
AcDbEntity
  8
DV1_Default
  6
Continuous
 62
     7
100
AcDbLine
 10
128.2346146863
 20
545.8912262642
 30
0.0
 11
128.2346146863
 21
545.3211917775
 31
0.0
  0
ARC
  5
145
330
75
100
AcDbEntity
  8
DV1_Default
  6
Continuous
 62
     7
100
AcDbCircle
 10
128.1345510029
 20
545.0173271275
 30
0.0
 40
0.1000669512885288
100
AcDbArc
 50
269.5121299834
 51
359.5369491293
  0
LINE
  5
146
330
75
100
AcDbEntity
  8
DV1_Default
  6
Continuous
 62
     7
100
AcDbLine
 10
128.0075256543
 20
544.9172638038
 30
0.0
 11
128.1336989493
 21
544.9172638038
 31
0.0
  0
LINE
  5
147
330
75
100
AcDbEntity
  8
DV1_Default
  6
Continuous
 62
     7
100
AcDbLine
 10
109.8033961695
 20
544.9172638038
 30
0.0
 11
109.9295694645
 21
544.9172638038
 31
0.0
  0
LINE
  5
148
330
75
100
AcDbEntity
  8
DV1_Default
  6
Continuous
 62
     7
100
AcDbLine
 10
109.7024804325
 20
545.3211917775
 30
0.0
 11
109.7024804325
 21
545.8912262642
 31
0.0
  0
ARC
  5
149
330
75
100
AcDbEntity
  8
DV1_Default
  6
Continuous
 62
     7
100
AcDbCircle
 10
109.8025441159
 20
545.322000486
 30
0.0
 40
0.1000669512885363
100
AcDbArc
 50
180.4630508707
 51
270.4878700166
  0
LINE
  5
14A
330
75
100
AcDbEntity
  8
DV1_Default
  6
Continuous
 62
     7
100
AcDbLine
 10
109.9295694645
 20
545.2219371624
 30
0.0
 11
109.8033961695
 21
545.2219371624
 31
0.0
  0
ARC
  5
14B
330
75
100
AcDbEntity
  8
DV1_Default
  6
Continuous
 62
     7
100
AcDbCircle
 10
109.9287592257
 20
545.3220687009
 30
0.0
 40
0.100134816589343
100
AcDbArc
 50
180.5017700262
 51
270.4636126474
  0
LINE
  5
14C
330
75
100
AcDbEntity
  8
DV1_Default
  6
Continuous
 62
     7
100
AcDbLine
 10
109.828628249
 20
545.9262884924
 30
0.0
 11
109.828628249
 21
545.3211917775
 31
0.0
  0
ELLIPSE
  5
14D
330
75
100
AcDbEntity
  8
DV1_Default
  6
Continuous
 62
     7
100
AcDbEllipse
 10
118.9685475594
 20
545.0696004831
 30
0.0
 11
9.250000000006805
 21
2.220446049250313E-13
 31
0.0
210
0.0
220
0.0
230
1.0
 40
0.1218693434
 41
0.6498483160173382
 42
0.9209480107770547
  0
ELLIPSE
  5
14E
330
75
100
AcDbEntity
  8
DV1_Default
  6
Continuous
 62
     7
100
AcDbEllipse
 10
118.9685475594
 20
545.0696004831
 30
0.0
 11
9.125000000000128
 21
5.551115123125783E-14
 31
0.0
210
0.0
220
0.0
230
1.0
 40
0.1218693434
 41
0.9228165538123623
 42
1.43337793637997
  0
ELLIPSE
  5
14F
330
75
100
AcDbEntity
  8
DV1_Default
  6
Continuous
 62
     7
100
AcDbEllipse
 10
118.9685475594
 20
545.0696004831
 30
0.0
 11
-9.125000000000334
 21
5.551115123125783E-14
 31
0.0
210
0.0
220
0.0
230
1.0
 40
0.1218693434
 41
-1.433377936379966
 42
-0.9228165538123676
  0
ELLIPSE
  5
150
330
75
100
AcDbEntity
  8
DV1_Default
  6
Continuous
 62
     7
100
AcDbEllipse
 10
118.9685475594
 20
545.0696004831
 30
0.0
 11
-9.250000000015357
 21
9.436895709313831E-13
 31
0.0
210
0.0
220
0.0
230
1.0
 40
0.1218693434
 41
-0.9209480107766694
 42
-0.649848316017116
  0
ELLIPSE
  5
151
330
75
100
AcDbEntity
  8
DV1_Default
  6
Continuous
 62
     7
100
AcDbEllipse
 10
118.9685475594
 20
545.0696004831
 30
0.0
 11
-9.125000000000838
 21
0.0
 31
0.0
210
0.0
220
0.0
230
1.0
 40
0.1218693434
 41
-0.6479797729825005
 42
-0.1374183904149264
  0
ELLIPSE
  5
152
330
75
100
AcDbEntity
  8
DV1_Default
  6
Continuous
 62
     7
100
AcDbEllipse
 10
118.9685475594
 20
545.0696004831
 30
0.0
 11
-9.124999999997698
 21
1.387778780781446E-13
 31
0.0
210
0.0
220
0.0
230
1.0
 40
0.1218693434
 41
0.1374183904149404
 42
0.2697227543488383
  0
ELLIPSE
  5
153
330
75
100
AcDbEntity
  8
DV1_Default
  6
Continuous
 62
     7
100
AcDbEllipse
 10
118.9685475594
 20
545.0696004831
 30
0.0
 11
9.124999999999625
 21
8.326672684688674E-14
 31
0.0
210
0.0
220
0.0
230
1.0
 40
0.1218693434
 41
-0.2697227543488125
 42
-0.1374183904149433
  0
ELLIPSE
  5
154
330
75
100
AcDbEntity
  8
DV1_Default
  6
Continuous
 62
     7
100
AcDbEllipse
 10
118.9685475594
 20
545.0696004831
 30
0.0
 11
9.124999999999952
 21
-2.775557561562891E-14
 31
0.0
210
0.0
220
0.0
230
1.0
 40
0.1218693434
 41
0.1374183904148942
 42
0.6479797729825142
  0
ELLIPSE
  5
155
330
75
100
AcDbEntity
  8
DV1_Default
  6
Continuous
 62
     7
100
AcDbEllipse
 10
118.9685475594
 20
545.1688550983
 30
0.0
 11
-9.350000000001108
 21
0.0
 31
0.0
210
0.0
220
0.0
230
1.0
 40
0.1218693434
 41
3.007501337395837
 42
3.27568396978375
  0
ELLIPSE
  5
156
330
75
100
AcDbEntity
  8
DV1_Default
  6
Continuous
 62
     7
100
AcDbEllipse
 10
118.9685475594
 20
545.1688550983
 30
0.0
 11
9.349999999984231
 21
0.0
 31
0.0
210
0.0
220
0.0
230
1.0
 40
0.1218693434
 41
3.00750133739571
 42
3.275683969783877
  0
ARC
  5
157
330
75
100
AcDbEntity
  8
DV1_Default
  6
Continuous
 62
     7
100
AcDbCircle
 10
-594.9814923963
 20
583.5154412976
 30
0.0
 40
722.0304702785468
100
AcDbArc
 50
356.8400153163
 51
356.8525178623
  0
SPLINE
  5
158
330
75
100
AcDbEntity
  8
DV1_Default
  6
Continuous
 62
     7
100
AcDbSpline
210
0.0
220
0.0
230
1.0
 70
     8
 71
     3
 72
    20
 73
    16
 74
     0
 42
0.0000000857066323
 43
0.0000000001
 40
0.0
 40
0.0
 40
0.0
 40
0.0
 40
0.2315845265246971
 40
0.2315845265246971
 40
0.2315845265246971
 40
0.463168051764622
 40
0.463168051764622
 40
0.463168051764622
 40
0.6947657381314324
 40
0.6947657381314324
 40
0.6947657381314324
 40
0.9263670666601213
 40
0.9263670666601213
 40
0.9263670666601213
 40
1.0
 40
1.0
 40
1.0
 40
1.0
 10
125.9511351531129
 20
543.7141026886229
 30
0.0
 10
125.9505183684722
 20
543.7029306788443
 30
0.0
 10
125.948956211975
 20
543.691616937096
 30
0.0
 10
125.9465727617913
 20
543.6810987435888
 30
0.0
 10
125.9441893176933
 20
543.6705805769383
 30
0.0
 10
125.9409184822653
 20
543.6605678750634
 30
0.0
 10
125.9370216697189
 20
543.6518902668026
 30
0.0
 10
125.9331246247591
 20
543.6432121409927
 30
0.0
 10
125.9284935599294
 20
543.6356299451916
 30
0.0
 10
125.9235025403808
 20
543.6297721914915
 30
0.0
 10
125.91851145156
 20
543.6239143564895
 30
0.0
 10
125.913022347611
 20
543.6196194761424
 30
0.0
 10
125.9074845840357
 20
543.6172436951645
 30
0.0
 10
125.9057012238554
 20
543.6164786077542
 30
0.0
 10
125.9039026586907
 20
543.6159031839137
 30
0.0
 10
125.9021045925921
 20
543.6155224638482
 30
0.0
  0
LINE
  5
159
330
75
100
AcDbEntity
  8
DV1_Default
  6
Continuous
 62
     7
100
AcDbLine
 10
125.9021045926
 20
543.6155224638
 30
0.0
 11
125.8913845463
 21
543.6132596347
 31
0.0
  0
SPLINE
  5
15A
330
75
100
AcDbEntity
  8
DV1_Default
  6
Continuous
 62
     7
100
AcDbSpline
210
0.0
220
0.0
230
1.0
 70
     8
 71
     3
 72
     8
 73
     4
 74
     0
 42
0.0000014107081448
 43
0.0000000001
 40
0.0
 40
0.0
 40
0.0
 40
0.0
 40
1.0
 40
1.0
 40
1.0
 40
1.0
 10
125.8913845463443
 20
543.6132596347352
 30
0.0
 10
125.889048167144
 20
543.612767985357
 30
0.0
 10
125.886694647016
 20
543.6126065358503
 30
0.0
 10
125.8843583855101
 20
543.612770938607
 30
0.0
  0
SPLINE
  5
15B
330
75
100
AcDbEntity
  8
DV1_Default
  6
Continuous
 62
     7
100
AcDbSpline
210
0.0
220
0.0
230
1.0
 70
     8
 71
     3
 72
    11
 73
     7
 74
     0
 42
0.0000014158110956
 43
0.0000000001
 40
0.0
 40
0.0
 40
0.0
 40
0.0
 40
0.2302968282563348
 40
0.2302968282563348
 40
0.2302968282563348
 40
1.0
 40
1.0
 40
1.0
 40
1.0
 10
112.0527228010214
 20
543.6127616237683
 30
0.0
 10
112.0521916108615
 20
543.6127242556285
 30
0.0
 10
112.0516599583807
 20
543.6127042186722
 30
0.0
 10
112.0511282460839
 20
543.6127016528507
 30
0.0
 10
112.049328191714
 20
543.61269296654
 30
0.0
 10
112.0475170044308
 20
543.6128795033048
 30
0.0
 10
112.0457105724357
 20
543.6132596347352
 30
0.0
  0
LINE
  5
15C
330
75
100
AcDbEntity
  8
DV1_Default
  6
Continuous
 62
     7
100
AcDbLine
 10
112.0457105724
 20
543.6132596347
 30
0.0
 11
112.0349905262
 21
543.6155224638
 31
0.0
  0
SPLINE
  5
15D
330
75
100
AcDbEntity
  8
DV1_Default
  6
Continuous
 62
     7
100
AcDbSpline
210
0.0
220
0.0
230
1.0
 70
     8
 71
     3
 72
    20
 73
    16
 74
     0
 42
0.0000000856566321
 43
0.0000000001
 40
0.0
 40
0.0
 40
0.0
 40
0.0
 40
0.2315840402895025
 40
0.2315840402895025
 40
0.2315840402895025
 40
0.4631672024700597
 40
0.4631672024700597
 40
0.4631672024700597
 40
0.6947632584348779
 40
0.6947632584348779
 40
0.6947632584348779
 40
0.9263655147223508
 40
0.9263655147223508
 40
0.9263655147223508
 40
1.0
 40
1.0
 40
1.0
 40
1.0
 10
112.0349905261879
 20
543.6155224638482
 30
0.0
 10
112.0294075049762
 20
543.6167046051519
 30
0.0
 10
112.0237689668148
 20
543.6198224145239
 30
0.0
 10
112.0185385517146
 20
543.6246174000679
 30
0.0
 10
112.0133081480764
 20
543.6294123751043
 30
0.0
 10
112.0083413065694
 20
543.6360167241625
 30
0.0
 10
112.0040407998274
 20
543.6438829849666
 30
0.0
 10
111.999740058501
 20
543.6517496748601
 30
0.0
 10
111.9959866359503
 20
543.6610953558954
 30
0.0
 10
111.9930814297755
 20
543.6711455289757
 30
0.0
 10
111.990176152086
 20
543.6811959494515
 30
0.0
 10
111.988038572231
 20
543.6922281066152
 30
0.0
 10
111.9868387517789
 20
543.7033278622304
 30
0.0
 10
111.9864523596006
 20
543.7069024460304
 30
0.0
 10
111.9861586109885
 20
543.7105045664873
 30
0.0
 10
111.9859599666115
 20
543.7141026886367
 30
0.0
  0
ARC
  5
15E
330
75
100
AcDbEntity
  8
DV1_Default
  6
Continuous
 62
     7
100
AcDbCircle
 10
832.9185874063
 20
583.5154412916
 30
0.0
 40
722.0304701754274
100
AcDbArc
 50
183.1474821377
 51
183.1599846837
  0
SPLINE
  5
15F
330
75
100
AcDbEntity
  8
DV1_Default
  6
Continuous
 62
     7
100
AcDbSpline
210
0.0
220
0.0
230
1.0
 70
    12
 71
     2
 72
     6
 73
     3
 74
     0
 42
0.0000001020737895
 43
0.0000000001
 40
0.0
 40
0.0
 40
0.0
 40
1.0
 40
1.0
 40
1.0
 10
124.3757977276475
 20
543.923144105081
 30
0.0
 41
1.0
 10
124.3731256159901
 20
543.8742328185284
 30
0.0
 41
1.0
 10
124.3704449081266
 20
543.825322106338
 30
0.0
 41
1.0
  0
SPLINE
  5
160
330
75
100
AcDbEntity
  8
DV1_Default
  6
Continuous
 62
     7
100
AcDbSpline
210
0.0
220
0.0
230
1.0
 70
     8
 71
     3
 72
    20
 73
    16
 74
     0
 42
0.0000000857634942
 43
0.0000000001
 40
0.0
 40
0.0
 40
0.0
 40
0.0
 40
0.2315776513076842
 40
0.2315776513076842
 40
0.2315776513076842
 40
0.4631536226414998
 40
0.4631536226414998
 40
0.4631536226414998
 40
0.6947533629619977
 40
0.6947533629619977
 40
0.6947533629619977
 40
0.9263592170194582
 40
0.9263592170194582
 40
0.9263592170194582
 40
1.0
 40
1.0
 40
1.0
 40
1.0
 10
124.3704449076305
 20
543.8253221063452
 30
0.0
 10
124.3698325885292
 20
543.8141500140155
 30
0.0
 10
124.3682818220727
 20
543.8028357398216
 30
0.0
 10
124.3659141958976
 20
543.7923167254578
 30
0.0
 10
124.3635465798698
 20
543.781797756177
 30
0.0
 10
124.3602963429128
 20
543.7717839449565
 30
0.0
 10
124.3564203917899
 20
543.7631050794297
 30
0.0
 10
124.3525440526441
 20
543.7544253450584
 30
0.0
 10
124.3479343330885
 20
543.7468414642657
 30
0.0
 10
124.3429607225683
 20
543.7409822613386
 30
0.0
 10
124.337986996174
 20
543.7351229219049
 30
0.0
 10
124.3325116684418
 20
543.7308267748836
 30
0.0
 10
124.32698143168
 20
543.7284502570419
 30
0.0
 10
124.3252003382369
 20
543.7276848647941
 30
0.0
 10
124.3234034305302
 20
543.7271092202647
 30
0.0
 10
124.3216063923251
 20
543.7267283690546
 30
0.0
  0
LINE
  5
161
330
75
100
AcDbEntity
  8
DV1_Default
  6
Continuous
 62
     7
100
AcDbLine
 10
124.3216063923
 20
543.7267283691
 30
0.0
 11
124.3108863461
 21
543.7244655399
 31
0.0
  0
SPLINE
  5
162
330
75
100
AcDbEntity
  8
DV1_Default
  6
Continuous
 62
     7
100
AcDbSpline
210
0.0
220
0.0
230
1.0
 70
     8
 71
     3
 72
     8
 73
     4
 74
     0
 42
0.0000014091284319
 43
0.0000000001
 40
0.0
 40
0.0
 40
0.0
 40
0.0
 40
1.0
 40
1.0
 40
1.0
 40
1.0
 10
124.3108863460773
 20
543.7244655399418
 30
0.0
 10
124.3085483586665
 20
543.7239740011171
 30
0.0
 10
124.3061921225201
 20
543.7238127439769
 30
0.0
 10
124.3038521710344
 20
543.7239774082011
 30
0.0
  0
SPLINE
  5
163
330
75
100
AcDbEntity
  8
DV1_Default
  6
Continuous
 62
     7
100
AcDbSpline
210
0.0
220
0.0
230
1.0
 70
     8
 71
     3
 72
    11
 73
     7
 74
     0
 42
0.0000014142345584
 43
0.0000000001
 40
0.0
 40
0.0
 40
0.0
 40
0.0
 40
0.2302091761409127
 40
0.2302091761409127
 40
0.2302091761409127
 40
1.0
 40
1.0
 40
1.0
 40
1.0
 10
113.6332289346563
 20
543.7239680864718
 30
0.0
 10
113.6326971094535
 20
543.7239306734822
 30
0.0
 10
113.6321648760029
 20
543.7239105822975
 30
0.0
 10
113.6316326386685
 20
543.7239079529356
 30
0.0
 10
113.6298299133863
 20
543.7238990471022
 30
0.0
 10
113.6280166505797
 20
543.7240854514251
 30
0.0
 10
113.6262087727027
 20
543.7244655399418
 30
0.0
  0
LINE
  5
164
330
75
100
AcDbEntity
  8
DV1_Default
  6
Continuous
 62
     7
100
AcDbLine
 10
113.6262087727
 20
543.7244655399
 30
0.0
 11
113.6154887265
 21
543.7267283691
 31
0.0
  0
SPLINE
  5
165
330
75
100
AcDbEntity
  8
DV1_Default
  6
Continuous
 62
     7
100
AcDbSpline
210
0.0
220
0.0
230
1.0
 70
     8
 71
     3
 72
    20
 73
    16
 74
     0
 42
0.0000000857131399
 43
0.0000000001
 40
0.0
 40
0.0
 40
0.0
 40
0.0
 40
0.2315768355912205
 40
0.2315768355912205
 40
0.2315768355912205
 40
0.4631521975120621
 40
0.4631521975120621
 40
0.4631521975120621
 40
0.69474919882332
 40
0.69474919882332
 40
0.69474919882332
 40
0.9263566109154714
 40
0.9263566109154714
 40
0.9263566109154714
 40
1.0
 40
1.0
 40
1.0
 40
1.0
 10
113.6154887264549
 20
543.7267283690546
 30
0.0
 10
113.609909665734
 20
543.7279107546156
 30
0.0
 10
113.6042814957297
 20
543.7310291755264
 30
0.0
 10
113.5990660287828
 20
543.7358249713602
 30
0.0
 10
113.5938505810172
 20
543.7406207495561
 30
0.0
 10
113.5889035989418
 20
543.7472260944613
 30
0.0
 10
113.5846236568586
 20
543.7550933136264
 30
0.0
 10
113.5803433229442
 20
543.7629612530397
 30
0.0
 10
113.576611486313
 20
543.7723082653181
 30
0.0
 10
113.5737243122221
 20
543.7823596147773
 30
0.0
 10
113.5708370187966
 20
543.7924113796857
 30
0.0
 10
113.5687142671783
 20
543.8034448033695
 30
0.0
 10
113.567522855049
 20
543.8145454510852
 30
0.0
 10
113.5671391323973
 20
543.8181206790622
 30
0.0
 10
113.5668474475589
 20
543.8217234155143
 30
0.0
 10
113.5666502112641
 20
543.8253221063468
 30
0.0
  0
SPLINE
  5
166
330
75
100
AcDbEntity
  8
DV1_Default
  6
Continuous
 62
     7
100
AcDbSpline
210
0.0
220
0.0
230
1.0
 70
    12
 71
     2
 72
     6
 73
     3
 74
     0
 42
0.0000001020737895
 43
0.0000000001
 40
0.0
 40
0.0
 40
0.0
 40
1.0
 40
1.0
 40
1.0
 10
113.5666502112641
 20
543.8253221063469
 30
0.0
 41
1.0
 10
113.5639695034
 20
543.8742328185496
 30
0.0
 41
1.0
 10
113.561297391742
 20
543.9231441051143
 30
0.0
 41
1.0
  0
ARC
  5
167
330
75
100
AcDbEntity
  8
DV1_Default
  6
Continuous
 62
     7
100
AcDbCircle
 10
119.662489749
 20
543.8900145788
 30
0.0
 40
0.1013767538708766
100
AcDbArc
 50
273.1171881989
 51
354.4642712608
  0
LINE
  5
168
330
75
100
AcDbEntity
  8
DV1_Default
  6
Continuous
 62
     7
100
AcDbLine
 10
119.6680024509
 20
543.7887878217
 30
0.0
 11
119.6472929118
 21
543.788111556
 31
0.0
  0
ARC
  5
169
330
75
100
AcDbEntity
  8
DV1_Default
  6
Continuous
 62
     7
100
AcDbCircle
 10
119.6447690897
 20
543.882569207
 30
0.0
 40
0.0944913620650158
100
AcDbArc
 50
245.6868180774
 51
271.53052673
  0
ARC
  5
16A
330
75
100
AcDbEntity
  8
DV1_Default
  6
Continuous
 62
     7
100
AcDbCircle
 10
117.6480566966
 20
543.9059839552
 30
0.0
 40
0.0857848514801971
100
AcDbArc
 50
269.0218021228
 51
282.8554613189
  0
LINE
  5
16B
330
75
100
AcDbEntity
  8
DV1_Default
  6
Continuous
 62
     7
100
AcDbLine
 10
117.6465921824
 20
543.8202116057
 30
0.0
 11
117.6280245176
 21
543.8215180507
 31
0.0
  0
ARC
  5
16C
330
75
100
AcDbEntity
  8
DV1_Default
  6
Continuous
 62
     7
100
AcDbCircle
 10
117.642109121
 20
543.9195878615
 30
0.0
 40
0.0990760507741106
100
AcDbArc
 50
210.5382596721
 51
261.8271725545
  0
LINE
  5
16D
330
75
100
AcDbEntity
  8
DV1_Default
  6
Continuous
 62
     7
100
AcDbLine
 10
122.8168840979
 20
543.8326025832
 30
0.0
 11
122.8061640517
 21
543.830339754
 31
0.0
  0
SPLINE
  5
16E
330
75
100
AcDbEntity
  8
DV1_Default
  6
Continuous
 62
     7
100
AcDbSpline
210
0.0
220
0.0
230
1.0
 70
     8
 71
     3
 72
     8
 73
     4
 74
     0
 42
0.000001406422707
 43
0.0000000001
 40
0.0
 40
0.0
 40
0.0
 40
0.0
 40
0.9999999999999999
 40
0.9999999999999999
 40
0.9999999999999999
 40
0.9999999999999999
 10
122.8061640516714
 20
543.8303397540382
 30
0.0
 10
122.80382329835
 20
543.8298484037986
 30
0.0
 10
122.801462395866
 20
543.8296874779155
 30
0.0
 10
122.7991161086598
 20
543.8298525921814
 30
0.0
  0
LINE
  5
16F
330
75
100
AcDbEntity
  8
DV1_Default
  6
Continuous
 62
     7
100
AcDbLine
 10
112.5338031756
 20
543.8930952763
 30
0.0
 11
111.4266144659
 21
543.8569402591
 31
0.0
  0
LINE
  5
170
330
75
100
AcDbEntity
  8
DV1_Default
  6
Continuous
 62
     7
100
AcDbLine
 10
125.9021045926
 20
543.6155224638
 30
0.0
 11
125.3587623534
 21
543.6537527292
 31
0.0
  0
LINE
  5
171
330
75
100
AcDbEntity
  8
DV1_Default
  6
Continuous
 62
     7
100
AcDbLine
 10
114.2729975781
 20
543.949888308
 30
0.0
 11
113.3426811164
 21
543.9195090173
 31
0.0
  0
LINE
  5
172
330
75
100
AcDbEntity
  8
DV1_Default
  6
Continuous
 62
     7
100
AcDbLine
 10
124.3216063923
 20
543.7267283691
 30
0.0
 11
123.6369692981
 21
543.7749003238
 31
0.0
  0
LINE
  5
173
330
75
100
AcDbEntity
  8
DV1_Default
  6
Continuous
 62
     7
100
AcDbLine
 10
122.8168840979
 20
543.8326025832
 30
0.0
 11
121.8907581609
 21
543.8977660064
 31
0.0
  0
LINE
  5
174
330
75
100
AcDbEntity
  8
DV1_Default
  6
Continuous
 62
     7
100
AcDbLine
 10
126.5104806529
 20
543.8569402591
 30
0.0
 11
125.4032919432
 21
543.8930952763
 31
0.0
  0
LINE
  5
175
330
75
100
AcDbEntity
  8
DV1_Default
  6
Continuous
 62
     7
100
AcDbLine
 10
124.5944140024
 20
543.9195090173
 30
0.0
 11
123.6640975407
 21
543.949888308
 31
0.0
  0
LINE
  5
176
330
75
100
AcDbEntity
  8
DV1_Default
  6
Continuous
 62
     7
100
AcDbLine
 10
112.5783327654
 20
543.6537527292
 30
0.0
 11
112.0349905262
 21
543.6155224638
 31
0.0
  0
LINE
  5
177
330
75
100
AcDbEntity
  8
DV1_Default
  6
Continuous
 62
     7
100
AcDbLine
 10
114.3001258207
 20
543.7749003238
 30
0.0
 11
113.6154887265
 21
543.7267283691
 31
0.0
  0
ARC
  5
178
330
75
100
AcDbEntity
  8
DV1_Default
  6
Continuous
 62
     7
100
AcDbCircle
 10
125.1710650339
 20
543.6562156849
 30
0.0
 40
0.1783310814827359
100
AcDbArc
 50
300.5186275025
 51
354.1748459242
  0
ARC
  5
179
330
75
100
AcDbEntity
  8
DV1_Default
  6
Continuous
 62
     7
100
AcDbCircle
 10
112.8129587939
 20
543.6886266902
 30
0.0
 40
0.2363390969508606
100
AcDbArc
 50
182.083134612
 51
240.2746400665
  0
SPLINE
  5
17A
330
75
100
AcDbEntity
  8
DV1_Default
  6
Continuous
 62
     7
100
AcDbSpline
210
0.0
220
0.0
230
1.0
 70
     8
 71
     3
 72
     8
 73
     4
 74
     0
 42
0.0000013168119934
 43
0.0000000001
 40
0.0
 40
0.0
 40
0.0
 40
0.0
 40
1.0
 40
1.0
 40
1.0
 40
1.0
 10
125.1378810159167
 20
543.6877288314822
 30
0.0
 10
125.1399600587814
 20
543.685156481046
 30
0.0
 10
125.1414746653032
 20
543.6831310475777
 30
0.0
 10
125.1424248354822
 20
543.6816525310774
 30
0.0
  0
SPLINE
  5
17B
330
75
100
AcDbEntity
  8
DV1_Default
  6
Continuous
 62
     7
100
AcDbSpline
210
0.0
220
0.0
230
1.0
 70
     8
 71
     3
 72
     8
 73
     4
 74
     0
 42
0.0000050926855313
 43
0.0000000001
 40
0.0
 40
0.0
 40
0.0
 40
0.0
 40
1.0
 40
1.0
 40
1.0
 40
1.0
 10
112.7934393247909
 20
543.680094396717
 30
0.0
 10
112.7934792612438
 20
543.6802692227442
 30
0.0
 10
112.7938863702041
 20
543.6807727686885
 30
0.0
 10
112.7946606516716
 20
543.6816050345499
 30
0.0
  0
ARC
  5
17C
330
75
100
AcDbEntity
  8
DV1_Default
  6
Continuous
 62
     7
100
AcDbCircle
 10
123.4638838654
 20
543.6532334283
 30
0.0
 40
0.1444828224936361
100
AcDbArc
 50
298.3432259367
 51
355.2373455797
  0
SPLINE
  5
17D
330
75
100
AcDbEntity
  8
DV1_Default
  6
Continuous
 62
     7
100
AcDbSpline
210
0.0
220
0.0
230
1.0
 70
     8
 71
     3
 72
    10
 73
     6
 74
     0
 42
0.0000000441509416
 43
0.0000000001
 40
0.0
 40
0.0
 40
0.0
 40
0.0
 40
0.2645182539075096
 40
0.7447531453994842
 40
1.0
 40
1.0
 40
1.0
 40
1.0
 10
114.324024424011
 20
543.6529704244664
 30
0.0
 10
114.3283113080489
 20
543.6304903126611
 30
0.0
 10
114.3391135111328
 20
543.5773518918303
 30
0.0
 10
114.3915529963704
 20
543.5246058311003
 30
0.0
 10
114.4376856747479
 20
543.4985628206992
 30
0.0
 10
114.4571791065177
 20
543.488296753503
 30
0.0
  0
ARC
  5
17E
330
75
100
AcDbEntity
  8
DV1_Default
  6
Continuous
 62
     7
100
AcDbCircle
 10
121.6409313922
 20
543.7224014307
 30
0.0
 40
0.2197886644308452
100
AcDbArc
 50
288.8613897933
 51
323.4507314803
  0
LINE
  5
17F
330
75
100
AcDbEntity
  8
DV1_Default
  6
Continuous
 62
     7
100
AcDbLine
 10
116.2099903274
 20
543.5208934396
 30
0.0
 11
116.2169574757
 21
543.517482562
 31
0.0
  0
SPLINE
  5
180
330
75
100
AcDbEntity
  8
DV1_Default
  6
Continuous
 62
     7
100
AcDbSpline
210
0.0
220
0.0
230
1.0
 70
     8
 71
     3
 72
    10
 73
     6
 74
     0
 42
0.0000000463701648
 43
0.0000000001
 40
0.0
 40
0.0
 40
0.0
 40
0.0
 40
0.4016106360077012
 40
0.8308663782139989
 40
1.0
 40
1.0
 40
1.0
 40
1.0
 10
116.0892758847418
 20
543.6800358708035
 30
0.0
 10
116.0971657428251
 20
543.645424493044
 30
0.0
 10
116.1117552600248
 20
543.5857646284859
 30
0.0
 10
116.1630021281725
 20
543.5427206922318
 30
0.0
 10
116.1981119657677
 20
543.5261504851887
 30
0.0
 10
116.2099903274308
 20
543.5208934396425
 30
0.0
  0
LINE
  5
181
330
75
100
AcDbEntity
  8
DV1_Default
  6
Continuous
 62
     7
100
AcDbLine
 10
110.0505725958
 20
545.1505215741
 30
0.0
 11
110.5528016476
 21
543.6088046962
 31
0.0
  0
LINE
  5
182
330
75
100
AcDbEntity
  8
DV1_Default
  6
Continuous
 62
     7
100
AcDbLine
 10
127.3842934712
 20
543.6088046962
 30
0.0
 11
127.8865225229
 21
545.1505215741
 31
0.0
  0
LINE
  5
183
330
75
100
AcDbEntity
  8
DV1_Default
  6
Continuous
 62
     7
100
AcDbLine
 10
116.0269771949
 20
544.0018229945
 30
0.0
 11
116.0916770694
 21
543.6540669781
 31
0.0
  0
LINE
  5
184
330
75
100
AcDbEntity
  8
DV1_Default
  6
Continuous
 62
     7
100
AcDbLine
 10
121.8454180494
 20
543.6540669781
 30
0.0
 11
121.9101179239
 21
544.0018229945
 31
0.0
  0
LINE
  5
185
330
75
100
AcDbEntity
  8
DV1_Default
  6
Continuous
 62
     7
100
AcDbLine
 10
112.4953428347
 20
544.0998161554
 30
0.0
 11
112.5800796073
 21
543.6443636111
 31
0.0
  0
LINE
  5
186
330
75
100
AcDbEntity
  8
DV1_Default
  6
Continuous
 62
     7
100
AcDbLine
 10
125.3570155115
 20
543.6443636111
 30
0.0
 11
125.441752284
 21
544.0998161554
 31
0.0
  0
LINE
  5
187
330
75
100
AcDbEntity
  8
DV1_Default
  6
Continuous
 62
     7
100
AcDbLine
 10
114.2520235117
 20
544.0851794012
 30
0.0
 11
114.3188320853
 21
543.6542374562
 31
0.0
  0
LINE
  5
188
330
75
100
AcDbEntity
  8
DV1_Default
  6
Continuous
 62
     7
100
AcDbLine
 10
123.6182630335
 20
543.6542374562
 30
0.0
 11
123.6850716071
 21
544.0851794012
 31
0.0
  0
SPLINE
  5
189
330
75
100
AcDbEntity
  8
DV1_Default
  6
Continuous
 62
     7
100
AcDbSpline
210
0.0
220
0.0
230
1.0
 70
     8
 71
     3
 72
     8
 73
     4
 74
     0
 42
0.0000001696531979
 43
0.0000000001
 40
0.0
 40
0.0
 40
0.0
 40
0.0
 40
1.0
 40
1.0
 40
1.0
 40
1.0
 10
110.0449521692459
 20
545.1962712876755
 30
0.0
 10
110.0386051397335
 20
545.193432470953
 30
0.0
 10
110.0473736052557
 20
545.2059503294324
 30
0.0
 10
110.0712575658126
 20
545.2338248631137
 30
0.0
  0
SPLINE
  5
18A
330
75
100
AcDbEntity
  8
DV1_Default
  6
Continuous
 62
     7
100
AcDbSpline
210
0.0
220
0.0
230
1.0
 70
     8
 71
     3
 72
     8
 73
     4
 74
     0
 42
0.0000002391789394
 43
0.0000000001
 40
0.0
 40
0.0
 40
0.0
 40
0.0
 40
1.0
 40
1.0
 40
1.0
 40
1.0
 10
127.871530339521
 20
545.226880034078
 30
0.0
 10
127.8866827500707
 20
545.2146669635566
 30
0.0
 10
127.8939380543904
 20
545.2038922745924
 30
0.0
 10
127.8932962524803
 20
545.1945559671851
 30
0.0
  0
LINE
  5
18B
330
75
100
AcDbEntity
  8
DV1_Default
  6
Continuous
 62
     7
100
AcDbLine
 10
128.3185475594
 20
545.1688550983
 30
0.0
 11
128.3185475594
 21
545.8660929817
 31
0.0
  0
LINE
  5
18C
330
75
100
AcDbEntity
  8
DV1_Default
  6
Continuous
 62
     7
100
AcDbLine
 10
109.6185475594
 20
545.8660929817
 30
0.0
 11
109.6185475594
 21
545.1688550983
 31
0.0
  0
LINE
  5
18D
330
75
100
AcDbEntity
  8
DV1_Default
  6
Continuous
 62
     7
100
AcDbLine
 10
121.8900217935
 20
543.8938080978
 30
0.0
 11
122.7990718016
 21
543.8298461591
 31
0.0
  0
LINE
  5
18E
330
75
100
AcDbEntity
  8
DV1_Default
  6
Continuous
 62
     7
100
AcDbLine
 10
123.636354382
 20
543.7709338698
 30
0.0
 11
124.3038147685
 21
543.7239704905
 31
0.0
  0
LINE
  5
18F
330
75
100
AcDbEntity
  8
DV1_Default
  6
Continuous
 62
     7
100
AcDbLine
 10
125.358025986
 20
543.6497948206
 30
0.0
 11
125.8843250135
 21
543.6127637378
 31
0.0
  0
LINE
  5
190
330
75
100
AcDbEntity
  8
DV1_Default
  6
Continuous
 62
     7
100
AcDbLine
 10
119.3465838341
 20
543.9142781072
 30
0.0
 11
119.6057517936
 21
543.7964026668
 31
0.0
  0
LINE
  5
191
330
75
100
AcDbEntity
  8
DV1_Default
  6
Continuous
 62
     7
100
AcDbLine
 10
117.6673678578
 20
543.8216480888
 30
0.0
 11
118.025362011
 21
543.897214889
 31
0.0
  0
LINE
  5
192
330
75
100
AcDbEntity
  8
DV1_Default
  6
Continuous
 62
     7
100
AcDbLine
 10
113.3264493174
 20
543.9154752211
 30
0.0
 11
114.2735380256
 21
543.946402206
 31
0.0
  0
LINE
  5
193
330
75
100
AcDbEntity
  8
DV1_Default
  6
Continuous
 62
     7
100
AcDbLine
 10
111.4172966501
 20
543.8531322376
 30
0.0
 11
112.5344511105
 21
543.8896126843
 31
0.0
  0
LINE
  5
194
330
75
100
AcDbEntity
  8
DV1_Default
  6
Continuous
 62
     7
100
AcDbLine
 10
125.4406304746
 20
544.0998161554
 30
0.0
 11
125.5925197561
 21
544.0998161554
 31
0.0
  0
LINE
  5
195
330
75
100
AcDbEntity
  8
DV1_Default
  6
Continuous
 62
     7
100
AcDbLine
 10
123.6635570932
 20
543.946402206
 30
0.0
 11
124.6106458014
 21
543.9154752211
 31
0.0
  0
LINE
  5
196
330
75
100
AcDbEntity
  8
DV1_Default
  6
Continuous
 62
     7
100
AcDbLine
 10
125.4026440082
 20
543.8896126843
 30
0.0
 11
126.5197984687
 21
543.8531322376
 31
0.0
  0
LINE
  5
197
330
75
100
AcDbEntity
  8
DV1_Default
  6
Continuous
 62
     7
100
AcDbLine
 10
113.6332683578
 20
543.7239696467
 30
0.0
 11
114.3007407368
 21
543.7709338698
 31
0.0
  0
LINE
  5
198
330
75
100
AcDbEntity
  8
DV1_Default
  6
Continuous
 62
     7
100
AcDbLine
 10
112.0527608496
 20
543.6127630866
 30
0.0
 11
112.5790691328
 21
543.6497948206
 31
0.0
  0
LINE
  5
199
330
75
100
AcDbEntity
  8
DV1_Default
  6
Continuous
 62
     7
100
AcDbLine
 10
112.3445753627
 20
544.0998161554
 30
0.0
 11
112.4963113685
 21
544.0998161554
 31
0.0
  0
ENDBLK
  5
19B
330
75
100
AcDbEntity
  8
0
100
AcDbBlockEnd
  0
BLOCK
  5
208
330
19C
100
AcDbEntity
  8
0
100
AcDbBlockBegin
  2
SE1
 70
     0
 10
0.0
 20
0.0
 30
0.0
  3
SE1
  1

  0
LINE
  5
19F
330
19C
100
AcDbEntity
  8
DV2_Default
  6
Continuous
 62
     7
100
AcDbLine
 10
297.3856344107
 20
328.9136332898
 30
0.0
 11
298.4856344107
 21
328.9136332898
 31
0.0
  0
LINE
  5
1A0
330
19C
100
AcDbEntity
  8
DV2_Default
  6
Continuous
 62
     7
100
AcDbLine
 10
298.4856344107
 20
328.9136332898
 30
0.0
 11
347.2856344107
 21
328.9136332898
 31
0.0
  0
LINE
  5
1A1
330
19C
100
AcDbEntity
  8
DV2_Default
  6
Continuous
 62
     7
100
AcDbLine
 10
347.2856344107
 20
328.9136332898
 30
0.0
 11
348.3856344107
 21
328.9136332898
 31
0.0
  0
LINE
  5
1A2
330
19C
100
AcDbEntity
  8
DV2_Default
  6
Continuous
 62
     7
100
AcDbLine
 10
348.8856344107
 20
328.4136332898
 30
0.0
 11
348.8856344107
 21
320.9136332898
 31
0.0
  0
LINE
  5
1A3
330
19C
100
AcDbEntity
  8
DV2_Default
  6
Continuous
 62
     7
100
AcDbLine
 10
296.8856344107
 20
328.4136332898
 30
0.0
 11
296.8856344107
 21
320.9136332898
 31
0.0
  0
ARC
  5
1A4
330
19C
100
AcDbEntity
  8
DV2_Default
  6
Continuous
 62
     7
100
AcDbCircle
 10
297.3856344107
 20
328.4136332898
 30
0.0
 40
0.5000000000000004
100
AcDbArc
 50
90.0
 51
180.0
  0
ARC
  5
1A5
330
19C
100
AcDbEntity
  8
DV2_Default
  6
Continuous
 62
     7
100
AcDbCircle
 10
348.3856344107
 20
328.4136332898
 30
0.0
 40
0.5000000000000004
100
AcDbArc
 50
0.0
 51
90.0
  0
LINE
  5
1A6
330
19C
100
AcDbEntity
  8
DV2_Default
  6
Continuous
 62
     7
100
AcDbLine
 10
348.8856344107
 20
320.9136332898
 30
0.0
 11
347.2856344107
 21
320.9136332898
 31
0.0
  0
LINE
  5
1A7
330
19C
100
AcDbEntity
  8
DV2_Default
  6
Continuous
 62
     7
100
AcDbLine
 10
347.2856344107
 20
320.9136332898
 30
0.0
 11
298.4856344107
 21
320.9136332898
 31
0.0
  0
LINE
  5
1A8
330
19C
100
AcDbEntity
  8
DV2_Default
  6
Continuous
 62
     7
100
AcDbLine
 10
298.4856344107
 20
320.9136332898
 30
0.0
 11
296.8856344107
 21
320.9136332898
 31
0.0
  0
LINE
  5
1A9
330
19C
100
AcDbEntity
  8
DV2_Default
  6
Continuous
 62
     7
100
AcDbLine
 10
289.4165429447
 20
389.5898437339
 30
0.0
 11
278.0461705287
 21
389.5898437339
 31
0.0
  0
LINE
  5
1AA
330
19C
100
AcDbEntity
  8
DV2_Default
  6
Continuous
 62
     7
100
AcDbLine
 10
278.0461705287
 20
385.5898437339
 30
0.0
 11
289.4165429447
 21
385.5898437339
 31
0.0
  0
ARC
  5
1AB
330
19C
100
AcDbEntity
  8
DV2_Default
  6
Continuous
 62
     7
100
AcDbCircle
 10
289.4165429447
 20
384.5898437339
 30
0.0
 40
1.000000000000001
100
AcDbArc
 50
18.0
 51
90.0
  0
ARC
  5
1AC
330
19C
100
AcDbEntity
  8
DV2_Default
  6
Continuous
 62
     7
100
AcDbCircle
 10
289.4165429447
 20
384.5898437339
 30
0.0
 40
5.000000000000007
100
AcDbArc
 50
18.0
 51
90.0
  0
LINE
  5
1AD
330
19C
100
AcDbEntity
  8
DV2_Default
  6
Continuous
 62
     7
100
AcDbLine
 10
302.8856344107
 20
359.3165825557
 30
0.0
 11
294.1718255262
 21
386.1349287058
 31
0.0
  0
LINE
  5
1AE
330
19C
100
AcDbEntity
  8
DV2_Default
  6
Continuous
 62
     7
100
AcDbLine
 10
290.367599461
 20
384.8988607283
 30
0.0
 11
302.8856344107
 21
346.3723106457
 31
0.0
  0
ARC
  5
1AF
330
19C
100
AcDbEntity
  8
DV2_Default
  6
Continuous
 62
     7
100
AcDbCircle
 10
278.0461705287
 20
387.5898437339
 30
0.0
 40
2.000000000000002
100
AcDbArc
 50
90.0
 51
270.0
  0
LINE
  5
1B0
330
19C
100
AcDbEntity
  8
DV2_Default
  6
Continuous
 62
     7
100
AcDbLine
 10
355.9446595655
 20
409.1413546446
 30
0.0
 11
363.9443167849
 21
422.9971673916
 31
0.0
  0
ARC
  5
1B1
330
19C
100
AcDbEntity
  8
DV2_Default
  6
Continuous
 62
     7
100
AcDbCircle
 10
362.1996985584
 20
424.0042962037
 30
0.0
 40
2.014439845884125
100
AcDbArc
 50
330.0031280264
 51
60.0657656076
  0
ARC
  5
1B2
330
19C
100
AcDbEntity
  8
DV2_Default
  6
Continuous
 62
     7
100
AcDbCircle
 10
6872.8672230083
 20
11716.8145389875
 30
0.0
 40
13033.18232231821
100
AcDbArc
 50
239.9648310848
 51
240.0351662552
  0
ARC
  5
1B3
330
19C
100
AcDbEntity
  8
DV2_Default
  6
Continuous
 62
     7
100
AcDbCircle
 10
348.3404331812
 20
432.0059675927
 30
0.0
 40
2.014428361161884
100
AcDbArc
 50
59.9510511818
 51
150.0101956744
  0
LINE
  5
1B4
330
19C
100
AcDbEntity
  8
DV2_Default
  6
Continuous
 62
     7
100
AcDbLine
 10
346.595706254
 20
433.0128722356
 30
0.0
 11
342.8856344107
 21
426.5868393033
 31
0.0
  0
ARC
  5
1B5
330
19C
100
AcDbEntity
  8
DV2_Default
  6
Continuous
 62
     7
100
AcDbCircle
 10
354.1998625845
 20
410.1480760142
 30
0.0
 40
2.014398093835578
100
AcDbArc
 50
239.950292669
 51
330.0157065747
  0
ARC
  5
1B6
330
19C
100
AcDbEntity
  8
DV2_Default
  6
Continuous
 62
     7
100
AcDbCircle
 10
-6170.3302057193
 20
-10874.6661067865
 30
0.0
 40
13033.1888346614
100
AcDbArc
 50
59.9648310721
 51
60.0171489542
  0
ELLIPSE
  5
1B7
330
19C
100
AcDbEntity
  8
DV2_Default
  6
Continuous
 62
     7
100
AcDbEllipse
 10
191.8737746474
 20
144.9944346939
 30
0.0
 11
418.8242975171244
 21
-241.8083209072904
 31
0.0
210
0.0
220
0.0
230
0.9999999999999999
 40
0.7073654311
 41
1.536918064333315
 42
1.604656401627129
  0
ARC
  5
1B8
330
19C
100
AcDbEntity
  8
DV2_Default
  6
Continuous
 62
     7
100
AcDbCircle
 10
349.4529387119
 20
379.0658962261
 30
0.0
 40
0.5036787823181788
100
AcDbArc
 50
330.593750061
 51
57.5331698744
  0
ARC
  5
1B9
330
19C
100
AcDbEntity
  8
DV2_Default
  6
Continuous
 62
     7
100
AcDbCircle
 10
659.5995310664
 20
955.1175555992
 30
0.0
 40
692.8117687130355
100
AcDbArc
 50
238.9360407048
 51
239.0100189422
  0
ARC
  5
1BA
330
19C
100
AcDbEntity
  8
DV2_Default
  6
Continuous
 62
     7
100
AcDbCircle
 10
-7.4787073206
 20
-200.2941916096
 30
0.0
 40
680.9893072148344
100
AcDbArc
 50
58.3630323327
 51
59.036416777
  0
LINE
  5
1BB
330
19C
100
AcDbEntity
  8
DV2_Default
  6
Continuous
 62
     7
100
AcDbLine
 10
347.9712672832
 20
449.0836707043
 30
0.0
 11
336.4992958331
 21
429.2136332898
 31
0.0
  0
ARC
  5
1BC
330
19C
100
AcDbEntity
  8
DV2_Default
  6
Continuous
 62
     7
100
AcDbCircle
 10
348.4042799851
 20
448.8336707043
 30
0.0
 40
0.5000000000000061
100
AcDbArc
 50
61.4012569663
 51
150.0
  0
LINE
  5
1BD
330
19C
100
AcDbEntity
  8
DV2_Default
  6
Continuous
 62
     7
100
AcDbLine
 10
302.8856344107
 20
376.2244375309
 30
0.0
 11
299.5553503661
 21
369.5661429338
 31
0.0
  0
LINE
  5
1BE
330
19C
100
AcDbEntity
  8
DV2_Default
  6
Continuous
 62
     7
100
AcDbLine
 10
342.8856344107
 20
366.6761329274
 30
0.0
 11
349.894993821
 21
378.8166995545
 31
0.0
  0
SPLINE
  5
1BF
330
19C
100
AcDbEntity
  8
DV2_Default
  6
Continuous
 62
     7
100
AcDbSpline
210
0.0
220
0.0
230
1.0
 70
     8
 71
     3
 72
     9
 73
     5
 74
     0
 42
0.0000000080717263
 43
0.0000000001
 40
0.0
 40
0.0
 40
0.0
 40
0.0
 40
0.187039961686285
 40
1.0
 40
1.0
 40
1.0
 40
1.0
 10
347.4861049581858
 20
380.7536221650272
 30
0.0
 10
347.5199936252436
 20
380.8174538739316
 30
0.0
 10
347.7044660375558
 20
381.1614762148519
 30
0.0
 10
347.9009812032257
 20
381.50682712893
 30
0.0
 10
348.0887776386808
 20
381.8359292199544
 30
0.0
  0
LINE
  5
1C0
330
19C
100
AcDbEntity
  8
DV2_Default
  6
Continuous
 62
     7
100
AcDbLine
 10
348.0870451408
 20
381.8257394671
 30
0.0
 11
377.1815339391
 21
432.2188722861
 31
0.0
  0
ARC
  5
1C1
330
19C
100
AcDbEntity
  8
DV2_Default
  6
Continuous
 62
     7
100
AcDbCircle
 10
376.7485212372
 20
432.4688722861
 30
0.0
 40
0.5000000000000032
100
AcDbArc
 50
329.9999999975
 51
58.6456177859
  0
LINE
  5
1C2
330
19C
100
AcDbEntity
  8
DV2_Default
  6
Continuous
 62
     7
100
AcDbLine
 10
342.8856344107
 20
328.9136332898
 30
0.0
 11
342.8856344107
 21
428.4136332898
 31
0.0
  0
LINE
  5
1C3
330
19C
100
AcDbEntity
  8
DV2_Default
  6
Continuous
 62
     7
100
AcDbLine
 10
302.8856344107
 20
428.4136332898
 30
0.0
 11
302.8856344107
 21
328.9136332898
 31
0.0
  0
LINE
  5
1C4
330
19C
100
AcDbEntity
  8
DV2_Default
  6
Continuous
 62
     7
100
AcDbLine
 10
303.3856344107
 20
428.9136332898
 30
0.0
 11
342.3856344107
 21
428.9136332898
 31
0.0
  0
ARC
  5
1C5
330
19C
100
AcDbEntity
  8
DV2_Default
  6
Continuous
 62
     7
100
AcDbCircle
 10
342.3856344107
 20
428.4136332898
 30
0.0
 40
0.5000000000000004
100
AcDbArc
 50
0.0
 51
90.0
  0
ARC
  5
1C6
330
19C
100
AcDbEntity
  8
DV2_Default
  6
Continuous
 62
     7
100
AcDbCircle
 10
303.3856344107
 20
428.4136332898
 30
0.0
 40
0.5000000000000004
100
AcDbArc
 50
90.0
 51
180.0
  0
LINE
  5
1C7
330
19C
100
AcDbEntity
  8
DV2_Default
  6
Continuous
 62
     7
100
AcDbLine
 10
487.2059277228
 20
568.299218668
 30
0.0
 11
488.7902291876
 21
555.396118696
 31
0.0
  0
SPLINE
  5
1C8
330
19C
100
AcDbEntity
  8
DV2_Default
  6
Continuous
 62
     7
100
AcDbSpline
210
0.0
220
0.0
230
1.0
 70
     8
 71
     3
 72
    38
 73
    34
 74
     0
 42
0.000000000038687
 43
0.0000000001
 40
0.0
 40
0.0
 40
0.0
 40
0.0
 40
0.2500000000000024
 40
0.2500000000000024
 40
0.312500000000003
 40
0.312500000000003
 40
0.3281250000000032
 40
0.3281250000000032
 40
0.3359375000000033
 40
0.3359375000000033
 40
0.3437500000000033
 40
0.3437500000000033
 40
0.3593750000000032
 40
0.3593750000000032
 40
0.3750000000000032
 40
0.3750000000000032
 40
0.3906250000000031
 40
0.3906250000000031
 40
0.406250000000003
 40
0.406250000000003
 40
0.421875000000003
 40
0.421875000000003
 40
0.4375000000000029
 40
0.4375000000000029
 40
0.4531250000000028
 40
0.4531250000000028
 40
0.4609375000000028
 40
0.4609375000000028
 40
0.4687500000000027
 40
0.4687500000000027
 40
0.5000000000000026
 40
0.5000000000000026
 40
1.0
 40
1.0
 40
1.0
 40
1.0
 10
329.8852112590701
 20
429.2136332898007
 30
0.0
 10
329.8852119681213
 20
450.312469755754
 30
0.0
 10
329.8851936535112
 20
471.411307545056
 30
0.0
 10
329.8852172832691
 20
497.7848513863826
 30
0.0
 10
329.885142089756
 20
503.0595847569862
 30
0.0
 10
329.8852108806113
 20
509.6529357868964
 30
0.0
 10
329.885344530369
 20
510.9715746662752
 30
0.0
 10
329.8852325621476
 20
512.9497073965425
 30
0.0
 10
329.8849109078896
 20
513.6092867023306
 30
0.0
 10
329.8851281798665
 20
514.9271912651299
 30
0.0
 10
329.8815567857283
 20
515.5744374440419
 30
0.0
 10
329.9842122189265
 20
517.5091669549572
 30
0.0
 10
330.1548678024492
 20
518.8000668035369
 30
0.0
 10
330.7364604956123
 20
521.3654431567411
 30
0.0
 10
331.1482983654536
 20
522.6645865022438
 30
0.0
 10
332.1741497694005
 20
525.1247462680074
 30
0.0
 10
332.7919942079498
 20
526.2959628912914
 30
0.0
 10
334.2226092001471
 20
528.5447063775379
 30
0.0
 10
335.0450583411897
 20
529.6155848662878
 30
0.0
 10
336.8562260810676
 20
531.5704460928791
 30
0.0
 10
337.832942749477
 20
532.4763658289708
 30
0.0
 10
339.9414502612847
 20
534.0990284289351
 30
0.0
 10
341.093018070489
 20
534.8188706816172
 30
0.0
 10
343.4581040618102
 20
536.0536318738814
 30
0.0
 10
344.6829926249652
 20
536.562280856745
 30
0.0
 10
346.5974859812623
 20
537.1662589141054
 30
0.0
 10
347.2473134199037
 20
537.3409366204951
 30
0.0
 10
348.5628617606018
 20
537.6318996392566
 30
0.0
 10
349.2104665605256
 20
537.7406332477653
 30
0.0
 10
352.5886145532862
 20
538.1877604892865
 30
0.0
 10
355.3108586972345
 20
538.5020730129678
 30
0.0
 10
401.4722751936627
 20
544.175456007129
 30
0.0
 10
444.9119541394502
 20
549.5047890468668
 30
0.0
 10
488.3548907834698
 20
554.8389109485137
 30
0.0
  0
SPLINE
  5
1C9
330
19C
100
AcDbEntity
  8
DV2_Default
  6
Continuous
 62
     7
100
AcDbSpline
210
0.0
220
0.0
230
1.0
 70
     8
 71
     3
 72
    49
 73
    45
 74
     0
 42
0.0000000000358667
 43
0.0000000001
 40
0.0
 40
0.0
 40
0.0
 40
0.0
 40
0.0018637876306517
 40
0.0018637876306517
 40
0.0018637876306517
 40
0.0533231161137485
 40
0.1531628040498507
 40
0.2530024919859527
 40
0.2779624139699765
 40
0.3029223359540038
 40
0.3135724366058033
 40
0.3188974869317011
 40
0.3215600120946518
 40
0.3242225372576025
 40
0.3314175985293032
 40
0.3350151291651537
 40
0.3386126598010042
 40
0.3461901946145954
 40
0.3537677294281868
 40
0.3613452642417782
 40
0.3689227990553693
 40
0.3846817416272991
 40
0.400440684199229
 40
0.4161996267711587
 40
0.4319585693430884
 40
0.447113638970271
 40
0.46226870859745
 40
0.4694637698691545
 40
0.473061300505005
 40
0.4766588311408553
 40
0.4801607318396747
 40
0.4978600294008081
 40
0.522671446819367
 40
0.5474828642379294
 40
0.572294281656488
 40
0.5971056990750468
 40
0.6219171164936057
 40
0.6467285339121681
 40
0.6715399513307267
 40
0.6963513687492856
 40
0.7211627861678443
 40
0.7459742035864068
 40
0.944465542934884
 40
1.0
 40
1.0
 40
1.0
 40
1.0
 10
315.885211461906
 20
429.2136332898007
 30
0.0
 10
315.8852114709163
 20
429.3802999654773
 30
0.0
 10
315.8852114799266
 20
429.5469666411539
 30
0.0
 10
315.8852114889368
 20
429.7136333168306
 30
0.0
 10
315.8852117377118
 20
434.3153138247279
 30
0.0
 10
315.8852126320839
 20
447.8414449952884
 30
0.0
 10
315.8852150564996
 20
470.274486463565
 30
0.0
 10
315.8851986371097
 20
490.3787368520567
 30
0.0
 10
315.8852425942595
 20
503.8710067730473
 30
0.0
 10
315.8851066738676
 20
509.2154686565863
 30
0.0
 10
315.8854766713487
 20
512.8771240400005
 30
0.0
 10
315.8844389543019
 20
514.6743280149975
 30
0.0
 10
315.887850630536
 20
515.6940858329464
 30
0.0
 10
315.9245457217262
 20
516.9980110787089
 30
0.0
 10
316.0380722301859
 20
518.5518213330852
 30
0.0
 10
316.2213603960315
 20
520.0588774421161
 30
0.0
 10
316.4865153876174
 20
521.7576450577662
 30
0.0
 10
316.8688932713471
 20
523.6401685012585
 30
0.0
 10
317.6175764388421
 20
526.3234790987716
 30
0.0
 10
318.406732807948
 20
528.5230153122109
 30
0.0
 10
319.7419901193003
 20
531.6523220193307
 30
0.0
 10
321.9539223423829
 20
535.5484010716747
 30
0.0
 10
324.9780815323375
 20
539.5199660145996
 30
0.0
 10
328.9416321434733
 20
543.4026932131206
 30
0.0
 10
332.8501806767043
 20
546.2734201286736
 30
0.0
 10
337.5319898106855
 20
548.8328588543167
 30
0.0
 10
341.3756970236662
 20
550.2577939998877
 30
0.0
 10
344.0542584115803
 20
550.9795033942287
 30
0.0
 10
345.6640589859906
 20
551.3267710854836
 30
0.0
 10
346.7663967237502
 20
551.5323765925557
 30
0.0
 10
349.3988991376022
 20
551.8929941161426
 30
0.0
 10
353.3571863031166
 20
552.3640066693387
 30
0.0
 10
359.4754745843123
 20
553.1209899064618
 30
0.0
 10
365.9927057234814
 20
553.9195012351437
 30
0.0
 10
372.5321013082718
 20
554.7228946454026
 30
0.0
 10
379.3414269256879
 20
555.5588523571826
 30
0.0
 10
385.8754596163847
 20
556.3611634740226
 30
0.0
 10
392.4234444271765
 20
557.1651461300637
 30
0.0
 10
399.0602621990752
 20
557.9800472389946
 30
0.0
 10
405.6462554016578
 20
558.7887048941718
 30
0.0
 10
412.2999604239433
 20
559.6056773039426
 30
0.0
 10
434.4324641530118
 20
562.3232070139337
 30
0.0
 10
459.1512447371368
 20
565.3582916462676
 30
0.0
 10
481.7145932565318
 20
568.1287224892318
 30
0.0
 10
486.6487199085162
 20
568.7345576158854
 30
0.0
  0
ARC
  5
1CA
330
19C
100
AcDbEntity
  8
DV2_Default
  6
Continuous
 62
     7
100
AcDbCircle
 10
486.709654647
 20
568.2382839963
 30
0.0
 40
0.4999999999999697
100
AcDbArc
 50
7.0000000017
 51
97.000000003
  0
ARC
  5
1CB
330
19C
100
AcDbEntity
  8
DV2_Default
  6
Continuous
 62
     7
100
AcDbCircle
 10
488.2939561118
 20
555.3351840243
 30
0.0
 40
0.5000000000003342
100
AcDbArc
 50
277.0000000019
 51
7.0000000017
  0
LINE
  5
1CC
330
19C
100
AcDbEntity
  8
DV2_Default
  6
Continuous
 62
     7
100
AcDbLine
 10
340.3856344107
 20
429.2136332898
 30
0.0
 11
305.3856344107
 21
429.2136332898
 31
0.0
  0
ARC
  5
1CD
330
19C
100
AcDbEntity
  8
DV2_Default
  6
Continuous
 62
     7
100
AcDbCircle
 10
305.3856344107
 20
428.7136332898
 30
0.0
 40
0.5000000000000004
100
AcDbArc
 50
90.0
 51
156.4218215218
  0
ARC
  5
1CE
330
19C
100
AcDbEntity
  8
DV2_Default
  6
Continuous
 62
     7
100
AcDbCircle
 10
340.3856344107
 20
428.7136332898
 30
0.0
 40
0.5000000000000004
100
AcDbArc
 50
23.5781784782
 51
90.0
  0
LINE
  5
1CF
330
19C
100
AcDbEntity
  8
DV2_Default
  6
Continuous
 62
     7
100
AcDbLine
 10
483.7914001341
 20
546.7270870778
 30
0.0
 11
462.4516578738
 21
544.1068961946
 31
0.0
  0
SPLINE
  5
1D0
330
19C
100
AcDbEntity
  8
DV2_Default
  6
Continuous
 62
     7
100
AcDbSpline
210
0.0
220
0.0
230
1.0
 70
     8
 71
     3
 72
    10
 73
     6
 74
     0
 42
0.0000000019260148
 43
0.0000000001
 40
0.0
 40
0.0
 40
0.0
 40
0.0
 40
0.5
 40
0.5
 40
1.0
 40
1.0
 40
1.0
 40
1.0
 10
475.6500543168519
 20
546.0473828443688
 30
0.0
 10
474.8083419599452
 20
545.8292602184534
 30
0.0
 10
473.9599005973754
 20
545.6653624319073
 30
0.0
 10
472.2484204036577
 20
545.4551987094192
 30
0.0
 10
471.3853813758758
 20
545.4089343580273
 30
0.0
 10
470.5156062630126
 20
545.4169518945994
 30
0.0
  0
LINE
  5
1D1
330
19C
100
AcDbEntity
  8
DV2_Default
  6
Continuous
 62
     7
100
AcDbLine
 10
476.9949181457
 20
548.9151134975
 30
0.0
 11
468.5169238018
 21
547.8741466847
 31
0.0
  0
LINE
  5
1D2
330
19C
100
AcDbEntity
  8
DV2_Default
  6
Continuous
 62
     7
100
AcDbLine
 10
476.9949181457
 20
548.9151134975
 30
0.0
 11
477.2162855145
 21
547.1122209577
 31
0.0
  0
SPLINE
  5
1D3
330
19C
100
AcDbEntity
  8
DV2_Default
  6
Continuous
 62
     7
100
AcDbSpline
210
0.0
220
0.0
230
1.0
 70
     8
 71
     3
 72
    14
 73
    10
 74
     0
 42
0.0000000049321089
 43
0.0000000001
 40
0.0
 40
0.0
 40
0.0
 40
0.0
 40
0.1250000000000004
 40
0.1250000000000004
 40
0.2500000000000009
 40
0.2500000000000009
 40
0.5000000000000008
 40
0.5000000000000008
 40
1.0
 40
1.0
 40
1.0
 40
1.0
 10
477.2162855145317
 20
547.1122209576581
 30
0.0
 10
477.2265519463194
 20
547.0286075806004
 30
0.0
 10
477.2049137102404
 20
546.9411816288911
 30
0.0
 10
477.1267941286161
 20
546.7913464971688
 30
0.0
 10
477.0713299708044
 20
546.7250777565877
 30
0.0
 10
476.8889450136429
 20
546.5504278993053
 30
0.0
 10
476.7428201727464
 20
546.4605450669638
 30
0.0
 10
476.2964481145297
 20
546.2330783794717
 30
0.0
 10
475.9740305522013
 20
546.1313385408828
 30
0.0
 10
475.6500543168519
 20
546.0473828443688
 30
0.0
  0
SPLINE
  5
1D4
330
19C
100
AcDbEntity
  8
DV2_Default
  6
Continuous
 62
     7
100
AcDbSpline
210
0.0
220
0.0
230
1.0
 70
     8
 71
     3
 72
    18
 73
    14
 74
     0
 42
0.0000000049401632
 43
0.0000000001
 40
0.0
 40
0.0
 40
0.0
 40
0.0
 40
0.2499999999999998
 40
0.2499999999999998
 40
0.4999999999999997
 40
0.4999999999999997
 40
0.6249999999999992
 40
0.6249999999999992
 40
0.7499999999999989
 40
0.7499999999999989
 40
0.8749999999999994
 40
0.8749999999999994
 40
1.0
 40
1.0
 40
1.0
 40
1.0
 10
470.5156062630126
 20
545.4169518945994
 30
0.0
 10
470.3477739459775
 20
545.4184989631688
 30
0.0
 10
470.1801558714129
 20
545.4251956320353
 30
0.0
 10
469.8456177029036
 20
545.4553658543716
 30
0.0
 10
469.6787654007956
 20
545.4786581164957
 30
0.0
 10
469.4345764247689
 20
545.5352504510953
 30
0.0
 10
469.3540623167715
 20
545.5577747875933
 30
0.0
 10
469.1957120326867
 20
545.6139339123257
 30
0.0
 10
469.1174328704388
 20
545.6477823616473
 30
0.0
 10
468.972190283897
 20
545.7310008909428
 30
0.0
 10
468.9031951330716
 20
545.7810749078236
 30
0.0
 10
468.7903496043774
 20
545.908430334743
 30
0.0
 10
468.7487415866921
 20
545.9861423364102
 30
0.0
 10
468.73829117067
 20
546.0712541448097
 30
0.0
  0
LINE
  5
1D5
330
19C
100
AcDbEntity
  8
DV2_Default
  6
Continuous
 62
     7
100
AcDbLine
 10
468.7382911707
 20
546.0712541448
 30
0.0
 11
468.5169238018
 21
547.8741466847
 31
0.0
  0
LINE
  5
1D6
330
19C
100
AcDbEntity
  8
DV2_Default
  6
Continuous
 62
     7
100
AcDbLine
 10
461.8670587764
 20
544.355043789
 30
0.0
 11
462.4516578738
 21
544.1068961946
 31
0.0
  0
LINE
  5
1D7
330
19C
100
AcDbEntity
  8
DV2_Default
  6
Continuous
 62
     7
100
AcDbLine
 10
483.7914001341
 20
546.7270870778
 30
0.0
 11
484.2986018035
 21
547.10929095
 31
0.0
  0
ARC
  5
1D8
330
19C
100
AcDbEntity
  8
DV2_Default
  6
Continuous
 62
     7
100
AcDbCircle
 10
462.2577899049
 20
545.2755486425
 30
0.0
 40
1.000000000000001
100
AcDbArc
 50
187.0
 51
247.0
  0
ARC
  5
1D9
330
19C
100
AcDbEntity
  8
DV2_Default
  6
Continuous
 62
     7
100
AcDbCircle
 10
483.6967867803
 20
547.90792646
 30
0.0
 40
1.000000000000003
100
AcDbArc
 50
307.0
 51
7.0
  0
LINE
  5
1DA
330
19C
100
AcDbEntity
  8
DV2_Default
  6
Continuous
 62
     7
100
AcDbLine
 10
460.4960480988
 20
551.4182751798
 30
0.0
 11
461.2652437532
 21
545.1536792991
 31
0.0
  0
LINE
  5
1DB
330
19C
100
AcDbEntity
  8
DV2_Default
  6
Continuous
 62
     7
100
AcDbLine
 10
484.689332932
 20
548.0297958034
 30
0.0
 11
483.9201372773
 21
554.2943916861
 31
0.0
  0
LINE
  5
1DC
330
19C
100
AcDbEntity
  8
DV2_Default
  6
Continuous
 62
     7
100
AcDbLine
 10
465.0818388429
 20
542.5659486329
 30
0.0
 11
481.6121357356
 21
544.5956138784
 31
0.0
  0
LINE
  5
1DD
330
19C
100
AcDbEntity
  8
DV2_Default
  6
Continuous
 62
     7
100
AcDbLine
 10
478.6589593162
 20
546.0969025856
 30
0.0
 11
478.689426652
 21
545.8487660477
 31
0.0
  0
SPLINE
  5
1DE
330
19C
100
AcDbEntity
  8
DV2_Default
  6
Continuous
 62
     7
100
AcDbSpline
210
0.0
220
0.0
230
1.0
 70
     8
 71
     3
 72
    20
 73
    16
 74
     0
 42
0.0000000734807071
 43
0.0000000001
 40
0.0
 40
0.0
 40
0.0
 40
0.0
 40
0.2124602044789276
 40
0.2124602044789276
 40
0.2124602044789276
 40
0.4248660549041696
 40
0.4248660549041696
 40
0.4248660549041696
 40
0.638132683979827
 40
0.638132683979827
 40
0.638132683979827
 40
0.8532925071045793
 40
0.8532925071045793
 40
0.8532925071045793
 40
1.0
 40
1.0
 40
1.0
 40
1.0
 10
478.6894266520441
 20
545.8487660476842
 30
0.0
 10
478.6907812812289
 20
545.8377334783218
 30
0.0
 10
478.6908038028045
 20
545.8263829797509
 30
0.0
 10
478.6894962286238
 20
545.8156565376618
 30
0.0
 10
478.6881888407206
 20
545.804931623666
 30
0.0
 10
478.6855167834676
 20
545.7945360528834
 30
0.0
 10
478.6817088194495
 20
545.7853177390027
 30
0.0
 10
478.6778852215779
 20
545.7760615787122
 30
0.0
 10
478.672813109268
 20
545.7677391730684
 30
0.0
 10
478.6669144020565
 20
545.7610163678434
 30
0.0
 10
478.6609638627298
 20
545.7542344891292
 30
0.0
 10
478.6540103468717
 20
545.7488947679534
 30
0.0
 10
478.6466248560398
 20
545.7454212100075
 30
0.0
 10
478.6415511901204
 20
545.743034953905
 30
0.0
 10
478.6361971625182
 20
545.741479305639
 30
0.0
 10
478.6307693959293
 20
545.7408128597025
 30
0.0
  0
LINE
  5
1DF
330
19C
100
AcDbEntity
  8
DV2_Default
  6
Continuous
 62
     7
100
AcDbLine
 10
478.7193223711
 20
545.7516857979
 30
0.0
 11
478.6307693959
 21
545.7408128597
 31
0.0
  0
SPLINE
  5
1E0
330
19C
100
AcDbEntity
  8
DV2_Default
  6
Continuous
 62
     7
100
AcDbSpline
210
0.0
220
0.0
230
1.0
 70
     8
 71
     3
 72
    20
 73
    16
 74
     0
 42
0.0000000734542227
 43
0.0000000001
 40
0.0
 40
0.0
 40
0.0
 40
0.0
 40
0.2174093870011359
 40
0.2174093870011359
 40
0.2174093870011359
 40
0.4348768202247434
 40
0.4348768202247434
 40
0.4348768202247434
 40
0.6514121854905284
 40
0.6514121854905284
 40
0.6514121854905284
 40
0.866038039611547
 40
0.866038039611547
 40
0.866038039611547
 40
1.0
 40
1.0
 40
1.0
 40
1.0
 10
478.7193223710528
 20
545.7516857978698
 30
0.0
 10
478.7273043324536
 20
545.7526658594953
 30
0.0
 10
478.7351578609526
 20
545.7556026529917
 30
0.0
 10
478.7422328379168
 20
545.7602593526523
 30
0.0
 10
478.7493088690661
 20
545.76491674617
 30
0.0
 10
478.7558019291598
 20
545.771425002272
 30
0.0
 10
478.7611629238945
 20
545.779252372725
 30
0.0
 10
478.7665006895989
 20
545.7870458274155
 30
0.0
 10
478.7708642908553
 20
545.7963656526565
 30
0.0
 10
478.7738757811777
 20
545.8064362820886
 30
0.0
 10
478.7768610141704
 20
545.8164191052163
 30
0.0
 10
478.7786002543115
 20
545.8274184813745
 30
0.0
 10
478.7789391898482
 20
545.8385122501671
 30
0.0
 10
478.7791526142846
 20
545.845497889309
 30
0.0
 10
478.7788232766464
 20
545.8526201816536
 30
0.0
 10
478.7779617454405
 20
545.8596367902513
 30
0.0
  0
LINE
  5
1E1
330
19C
100
AcDbEntity
  8
DV2_Default
  6
Continuous
 62
     7
100
AcDbLine
 10
478.7474944096
 20
546.1077733282
 30
0.0
 11
478.7779617454
 21
545.8596367903
 31
0.0
  0
LINE
  5
1E2
330
19C
100
AcDbEntity
  8
DV2_Default
  6
Continuous
 62
     7
100
AcDbLine
 10
480.5325520316
 20
546.0750733881
 30
0.0
 11
480.5020846958
 21
546.323209926
 31
0.0
  0
SPLINE
  5
1E3
330
19C
100
AcDbEntity
  8
DV2_Default
  6
Continuous
 62
     7
100
AcDbSpline
210
0.0
220
0.0
230
1.0
 70
     8
 71
     3
 72
    20
 73
    16
 74
     0
 42
0.0000000734876714
 43
0.0000000001
 40
0.0
 40
0.0
 40
0.0
 40
0.0
 40
0.2125265405902761
 40
0.2125265405902761
 40
0.2125265405902761
 40
0.425000149095499
 40
0.425000149095499
 40
0.425000149095499
 40
0.6383121177781582
 40
0.6383121177781582
 40
0.6383121177781582
 40
0.8534671345903848
 40
0.8534671345903848
 40
0.8534671345903848
 40
1.0
 40
1.0
 40
1.0
 40
1.0
 10
480.532552031606
 20
546.0750733881027
 30
0.0
 10
480.5339069110732
 20
546.0640387803535
 30
0.0
 10
480.5339295415111
 20
546.0526861958033
 30
0.0
 10
480.5326218234628
 20
546.0419577374402
 30
0.0
 10
480.5313142867795
 20
546.0312307669857
 30
0.0
 10
480.5286417848209
 20
546.0208331249288
 30
0.0
 10
480.5248329203043
 20
546.0116132344195
 30
0.0
 10
480.5210088304894
 20
546.0023564889411
 30
0.0
 10
480.515935942592
 20
545.994033669247
 30
0.0
 10
480.5100361883636
 20
545.9873112700542
 30
0.0
 10
480.5040859772697
 20
545.9805313784341
 30
0.0
 10
480.4971328511272
 20
545.9751937384052
 30
0.0
 10
480.489747905097
 20
545.9717226786513
 30
0.0
 10
480.48468044722
 20
545.9693408807317
 30
0.0
 10
480.4793333588082
 20
545.9677879741847
 30
0.0
 10
480.4739126572184
 20
545.9671223957209
 30
0.0
  0
LINE
  5
1E4
330
19C
100
AcDbEntity
  8
DV2_Default
  6
Continuous
 62
     7
100
AcDbLine
 10
482.1933207418
 20
546.5308676013
 30
0.0
 11
482.2237880776
 21
546.2827310634
 31
0.0
  0
SPLINE
  5
1E5
330
19C
100
AcDbEntity
  8
DV2_Default
  6
Continuous
 62
     7
100
AcDbSpline
210
0.0
220
0.0
230
1.0
 70
     8
 71
     3
 72
    20
 73
    16
 74
     0
 42
0.0000000630935676
 43
0.0000000001
 40
0.0
 40
0.0
 40
0.0
 40
0.0
 40
0.2124602044789236
 40
0.2124602044789236
 40
0.2124602044789236
 40
0.4248660549041665
 40
0.4248660549041665
 40
0.4248660549041665
 40
0.6381326839798099
 40
0.6381326839798099
 40
0.6381326839798099
 40
0.8532925071045567
 40
0.8532925071045567
 40
0.8532925071045567
 40
1.0
 40
1.0
 40
1.0
 40
1.0
 10
482.223788077621
 20
546.2827310633958
 30
0.0
 10
482.2251427068058
 20
546.2716984940333
 30
0.0
 10
482.2246057169925
 20
546.2602792961022
 30
0.0
 10
482.2222271379298
 20
546.2494213511491
 30
0.0
 10
482.2198488977205
 20
546.238564953023
 30
0.0
 10
482.2155656202968
 20
546.2279715492792
 30
0.0
 10
482.2097419010549
 20
546.2185057317786
 30
0.0
 10
482.2038942721406
 20
546.2090010517252
 30
0.0
 10
482.1963354425112
 20
546.2003733155873
 30
0.0
 10
482.1876928621812
 20
546.1933136051061
 30
0.0
 10
482.1789743392412
 20
546.1861918607394
 30
0.0
 10
482.1689158209342
 20
546.1804708932013
 30
0.0
 10
482.1583425568693
 20
546.1766059259189
 30
0.0
 10
482.1510789625107
 20
546.1739507804144
 30
0.0
 10
482.1434622181276
 20
546.1721173054622
 30
0.0
 10
482.1357861970043
 20
546.1711748085798
 30
0.0
  0
LINE
  5
1E6
330
19C
100
AcDbEntity
  8
DV2_Default
  6
Continuous
 62
     7
100
AcDbLine
 10
482.2610190154
 20
546.1865514652
 30
0.0
 11
482.135786197
 21
546.1711748086
 31
0.0
  0
SPLINE
  5
1E7
330
19C
100
AcDbEntity
  8
DV2_Default
  6
Continuous
 62
     7
100
AcDbSpline
210
0.0
220
0.0
230
1.0
 70
     8
 71
     3
 72
    20
 73
    16
 74
     0
 42
0.0000000630965777
 43
0.0000000001
 40
0.0
 40
0.0
 40
0.0
 40
0.0
 40
0.2174093870011324
 40
0.2174093870011324
 40
0.2174093870011324
 40
0.4348768202247565
 40
0.4348768202247565
 40
0.4348768202247565
 40
0.6514121854905272
 40
0.6514121854905272
 40
0.6514121854905272
 40
0.8660380396115381
 40
0.8660380396115381
 40
0.8660380396115381
 40
1.0
 40
1.0
 40
1.0
 40
1.0
 10
482.2610190154125
 20
546.1865514651987
 30
0.0
 10
482.2723072134797
 20
546.1879374816417
 30
0.0
 10
482.2835126095475
 20
546.1912858327256
 30
0.0
 10
482.2937079306934
 20
546.1963256624764
 30
0.0
 10
482.3039047709615
 20
546.2013662431715
 30
0.0
 10
482.3133734870681
 20
546.2082398638905
 30
0.0
 10
482.321314277871
 20
546.2163839934709
 30
0.0
 10
482.3292206614641
 20
546.2244928347809
 30
0.0
 10
482.3358318382593
 20
546.2340886275975
 30
0.0
 10
482.3405767776028
 20
546.2443720978065
 30
0.0
 10
482.3452803455912
 20
546.2545659059423
 30
0.0
 10
482.3482804119166
 20
546.26572009209
 30
0.0
 10
482.3493134925089
 20
546.2768990911783
 30
0.0
 10
482.3499640133875
 20
546.2839383990148
 30
0.0
 10
482.3498571386542
 20
546.2910880063696
 30
0.0
 10
482.3489956074482
 20
546.2981046149673
 30
0.0
  0
LINE
  5
1E8
330
19C
100
AcDbEntity
  8
DV2_Default
  6
Continuous
 62
     7
100
AcDbLine
 10
482.3185282716
 20
546.5462411529
 30
0.0
 11
482.3489956074
 21
546.298104615
 31
0.0
  0
LINE
  5
1E9
330
19C
100
AcDbEntity
  8
DV2_Default
  6
Continuous
 62
     7
100
AcDbLine
 10
463.9549970722
 20
544.0396055816
 30
0.0
 11
463.9245297363
 21
544.2877421195
 31
0.0
  0
SPLINE
  5
1EA
330
19C
100
AcDbEntity
  8
DV2_Default
  6
Continuous
 62
     7
100
AcDbSpline
210
0.0
220
0.0
230
1.0
 70
     8
 71
     3
 72
    20
 73
    16
 74
     0
 42
0.0000000631015441
 43
0.0000000001
 40
0.0
 40
0.0
 40
0.0
 40
0.0
 40
0.2125265405902813
 40
0.2125265405902813
 40
0.2125265405902813
 40
0.4250001490955159
 40
0.4250001490955159
 40
0.4250001490955159
 40
0.63831211777819
 40
0.63831211777819
 40
0.63831211777819
 40
0.853467134590417
 40
0.853467134590417
 40
0.853467134590417
 40
1.0
 40
1.0
 40
1.0
 40
1.0
 10
463.9549970721619
 20
544.0396055815635
 30
0.0
 10
463.9563519516291
 20
544.0285709738145
 30
0.0
 10
463.9596360036678
 20
544.0176188414833
 30
0.0
 10
463.9645714904968
 20
544.0076569522897
 30
0.0
 10
463.9695062928329
 20
543.9976964446906
 30
0.0
 10
463.9762263327542
 20
543.9884520617643
 30
0.0
 10
463.9841687527833
 20
543.9806750475681
 30
0.0
 10
463.992142921307
 20
543.9728669460593
 30
0.0
 10
464.0015656496232
 20
543.9663239642368
 30
0.0
 10
464.0116607315151
 20
543.9615654839738
 30
0.0
 10
464.021842150256
 20
543.9567663074395
 30
0.0
 10
464.0329847699779
 20
543.9536505456208
 30
0.0
 10
464.044177502657
 20
543.95246053799
 30
0.0
 10
464.0518578162499
 20
543.9516439695927
 30
0.0
 10
464.059681503173
 20
543.951708230912
 30
0.0
 10
464.0673475328787
 20
543.9526495010041
 30
0.0
  0
LINE
  5
1EB
330
19C
100
AcDbEntity
  8
DV2_Default
  6
Continuous
 62
     7
100
AcDbLine
 10
464.1925803513
 20
543.9680261576
 30
0.0
 11
464.0673475329
 21
543.952649501
 31
0.0
  0
SPLINE
  5
1EC
330
19C
100
AcDbEntity
  8
DV2_Default
  6
Continuous
 62
     7
100
AcDbSpline
210
0.0
220
0.0
230
1.0
 70
     8
 71
     3
 72
    20
 73
    16
 74
     0
 42
0.000000063088464
 43
0.0000000001
 40
0.0
 40
0.0
 40
0.0
 40
0.0
 40
0.2174785466303547
 40
0.2174785466303547
 40
0.2174785466303547
 40
0.4350168090148894
 40
0.4350168090148894
 40
0.4350168090148894
 40
0.6515958899075
 40
0.6515958899075
 40
0.6515958899075
 40
0.8662118866631214
 40
0.8662118866631214
 40
0.8662118866631214
 40
1.0
 40
1.0
 40
1.0
 40
1.0
 10
464.1925803512869
 20
543.968026157623
 30
0.0
 10
464.1812871216737
 20
543.9666395233836
 30
0.0
 10
464.1695993422176
 20
543.9671776637153
 30
0.0
 10
464.1584826389302
 20
543.9696022662868
 30
0.0
 10
464.1473642320897
 20
543.9720272404107
 30
0.0
 10
464.1365089014843
 20
543.9764079155948
 30
0.0
 10
464.1268295893363
 20
543.9823920936095
 30
0.0
 10
464.1171934220654
 20
543.988349597557
 30
0.0
 10
464.1084546594152
 20
543.9960640682126
 30
0.0
 10
464.1013616246127
 20
544.0048978912947
 30
0.0
 10
464.0943321558379
 20
544.0136525478341
 30
0.0
 10
464.0887237007935
 20
544.0237513709774
 30
0.0
 10
464.0850186545201
 20
544.0343499593026
 30
0.0
 10
464.0826885010877
 20
544.0410155540466
 30
0.0
 10
464.0810651390902
 20
544.0479706208674
 30
0.0
 10
464.0802046019892
 20
544.0549791331351
 30
0.0
  0
LINE
  5
1ED
330
19C
100
AcDbEntity
  8
DV2_Default
  6
Continuous
 62
     7
100
AcDbLine
 10
464.0497372661
 20
544.303115671
 30
0.0
 11
464.080204602
 21
544.0549791331
 31
0.0
  0
SPLINE
  5
1EE
330
19C
100
AcDbEntity
  8
DV2_Default
  6
Continuous
 62
     7
100
AcDbSpline
210
0.0
220
0.0
230
1.0
 70
     8
 71
     3
 72
    20
 73
    16
 74
     0
 42
0.0000000734542227
 43
0.0000000001
 40
0.0
 40
0.0
 40
0.0
 40
0.0
 40
0.2174093870011387
 40
0.2174093870011387
 40
0.2174093870011387
 40
0.434876820224761
 40
0.434876820224761
 40
0.434876820224761
 40
0.6514121854905537
 40
0.6514121854905537
 40
0.6514121854905537
 40
0.8660380396115868
 40
0.8660380396115868
 40
0.8660380396115868
 40
1.0
 40
1.0
 40
1.0
 40
1.0
 10
465.8544538910729
 20
544.1720785704816
 30
0.0
 10
465.8464719296721
 20
544.171098508856
 30
0.0
 10
465.8381412098838
 20
544.1720481265328
 30
0.0
 10
465.8301498323627
 20
544.1748549104734
 30
0.0
 10
465.8221572641113
 20
544.1776621126304
 30
0.0
 10
465.8142825859986
 20
544.1824062323055
 30
0.0
 10
465.8071872234215
 20
544.1887041543956
 30
0.0
 10
465.8001226048386
 20
544.194974787777
 30
0.0
 10
465.7936339513993
 20
544.2029621236906
 30
0.0
 10
465.7882756094478
 20
544.212005066942
 30
0.0
 10
465.7829639871385
 20
544.2209691643346
 30
0.0
 10
465.778615419932
 20
544.2312210517408
 30
0.0
 10
465.7756027266536
 20
544.241903292261
 30
0.0
 10
465.773705662772
 20
544.2486297960214
 30
0.0
 10
465.7723021792096
 20
544.2556201998306
 30
0.0
 10
465.7714406480042
 20
544.2626368084283
 30
0.0
  0
LINE
  5
1EF
330
19C
100
AcDbEntity
  8
DV2_Default
  6
Continuous
 62
     7
100
AcDbLine
 10
465.7409733122
 20
544.5107733463
 30
0.0
 11
465.771440648
 21
544.2626368084
 31
0.0
  0
LINE
  5
1F0
330
19C
100
AcDbEntity
  8
DV2_Default
  6
Continuous
 62
     7
100
AcDbLine
 10
467.5260309342
 20
544.4780734063
 30
0.0
 11
467.4955635983
 21
544.7262099442
 31
0.0
  0
SPLINE
  5
1F1
330
19C
100
AcDbEntity
  8
DV2_Default
  6
Continuous
 62
     7
100
AcDbSpline
210
0.0
220
0.0
230
1.0
 70
     8
 71
     3
 72
    20
 73
    16
 74
     0
 42
0.0000000734876714
 43
0.0000000001
 40
0.0
 40
0.0
 40
0.0
 40
0.0
 40
0.2125265405902739
 40
0.2125265405902739
 40
0.2125265405902739
 40
0.4250001490954987
 40
0.4250001490954987
 40
0.4250001490954987
 40
0.638312117778172
 40
0.638312117778172
 40
0.638312117778172
 40
0.8534671345904075
 40
0.8534671345904075
 40
0.8534671345904075
 40
1.0
 40
1.0
 40
1.0
 40
1.0
 10
467.5260309341697
 20
544.4780734062795
 30
0.0
 10
467.5273858136369
 20
544.4670387985304
 30
0.0
 10
467.5301102941941
 20
544.4560179594607
 30
0.0
 10
467.5339746164116
 20
544.4459245477906
 30
0.0
 10
467.5378384026938
 20
544.4358325359557
 30
0.0
 10
467.5429469371988
 20
544.4263902850444
 30
0.0
 10
467.5488731555504
 20
544.4183657124104
 30
0.0
 10
467.554823062968
 20
544.4103090628905
 30
0.0
 10
467.5617587367319
 20
544.403460709167
 30
0.0
 10
467.5691095386014
 20
544.3983652736864
 30
0.0
 10
467.576523207229
 20
544.3932262601699
 30
0.0
 10
467.5845610878031
 20
544.3897292843182
 30
0.0
 10
467.5925663947305
 20
544.3881479100158
 30
0.0
 10
467.5980595365191
 20
544.3870627906891
 30
0.0
 10
467.6036234756487
 20
544.3868495898678
 30
0.0
 10
467.6090441772384
 20
544.387515168333
 30
0.0
  0
LINE
  5
1F2
330
19C
100
AcDbEntity
  8
DV2_Default
  6
Continuous
 62
     7
100
AcDbLine
 10
467.6975971524
 20
544.3983881065
 30
0.0
 11
467.6090441772
 21
544.3875151683
 31
0.0
  0
SPLINE
  5
1F3
330
19C
100
AcDbEntity
  8
DV2_Default
  6
Continuous
 62
     7
100
AcDbSpline
210
0.0
220
0.0
230
1.0
 70
     8
 71
     3
 72
    20
 73
    16
 74
     0
 42
0.0000000734471153
 43
0.0000000001
 40
0.0
 40
0.0
 40
0.0
 40
0.0
 40
0.2174785466303385
 40
0.2174785466303385
 40
0.2174785466303385
 40
0.435016809014852
 40
0.435016809014852
 40
0.435016809014852
 40
0.6515958899074702
 40
0.6515958899074702
 40
0.6515958899074702
 40
0.8662118866630932
 40
0.8662118866630932
 40
0.8662118866630932
 40
1.0
 40
1.0
 40
1.0
 40
1.0
 10
467.697597152362
 20
544.3983881065002
 30
0.0
 10
467.689611633121
 20
544.3974076080267
 30
0.0
 10
467.6812772165352
 20
544.3983574895459
 30
0.0
 10
467.6732822612196
 20
544.4011653945713
 30
0.0
 10
467.6652860807359
 20
544.4039737298874
 30
0.0
 10
467.6574077798158
 20
544.4087199383542
 30
0.0
 10
467.6503093553814
 20
544.4150210095337
 30
0.0
 10
467.6432425716923
 20
544.421293994116
 30
0.0
 10
467.6367520057435
 20
544.4292845086163
 30
0.0
 10
467.6313926470447
 20
544.4383312003577
 30
0.0
 10
467.6260813175962
 20
544.4472968178798
 30
0.0
 10
467.6217333561339
 20
544.4575504101741
 30
0.0
 10
467.6187218819194
 20
544.4682341584402
 30
0.0
 10
467.616827925283
 20
544.474953311416
 30
0.0
 10
467.6154265646673
 20
544.481935636579
 30
0.0
 10
467.6145660275662
 20
544.4889441488467
 30
0.0
  0
LINE
  5
1F4
330
19C
100
AcDbEntity
  8
DV2_Default
  6
Continuous
 62
     7
100
AcDbLine
 10
467.5840986917
 20
544.7370806868
 30
0.0
 11
467.6145660276
 21
544.4889441488
 31
0.0
  0
LINE
  5
1F5
330
19C
100
AcDbEntity
  8
DV2_Default
  6
Continuous
 62
     7
100
AcDbLine
 10
471.9235005846
 20
544.9172638038
 30
0.0
 11
471.9113136503
 21
545.016518419
 31
0.0
  0
LINE
  5
1F6
330
19C
100
AcDbEntity
  8
DV2_Default
  6
Continuous
 62
     7
100
AcDbLine
 10
471.8808463144
 20
545.2646549569
 30
0.0
 11
471.9113136503
 21
545.016518419
 31
0.0
  0
LINE
  5
1F7
330
19C
100
AcDbEntity
  8
DV2_Default
  6
Continuous
 62
     7
100
AcDbLine
 10
474.3926790294
 20
545.3211917775
 30
0.0
 11
474.3622116935
 21
545.5693283154
 31
0.0
  0
LINE
  5
1F8
330
19C
100
AcDbEntity
  8
DV2_Default
  6
Continuous
 62
     7
100
AcDbLine
 10
474.3926790294
 20
545.3211917775
 30
0.0
 11
474.4048659637
 21
545.2219371624
 31
0.0
  0
LINE
  5
1F9
330
19C
100
AcDbEntity
  8
DV2_Default
  6
Continuous
 62
     7
100
AcDbLine
 10
482.135786197
 20
546.1711748086
 30
0.0
 11
480.4894214863
 21
545.9690266405
 31
0.0
  0
LINE
  5
1FA
330
19C
100
AcDbEntity
  8
DV2_Default
  6
Continuous
 62
     7
100
AcDbLine
 10
480.4739126572
 20
545.9671223957
 30
0.0
 11
478.7193223711
 21
545.7516857979
 31
0.0
  0
LINE
  5
1FB
330
19C
100
AcDbEntity
  8
DV2_Default
  6
Continuous
 62
     7
100
AcDbLine
 10
478.6307693959
 20
545.7408128597
 30
0.0
 11
474.4048659637
 21
545.2219371624
 31
0.0
  0
LINE
  5
1FC
330
19C
100
AcDbEntity
  8
DV2_Default
  6
Continuous
 62
     7
100
AcDbLine
 10
474.4048659637
 20
545.2219371624
 30
0.0
 11
471.9235005846
 21
544.9172638038
 31
0.0
  0
LINE
  5
1FD
330
19C
100
AcDbEntity
  8
DV2_Default
  6
Continuous
 62
     7
100
AcDbLine
 10
471.9235005846
 20
544.9172638038
 30
0.0
 11
467.6975971524
 21
544.3983881065
 31
0.0
  0
LINE
  5
1FE
330
19C
100
AcDbEntity
  8
DV2_Default
  6
Continuous
 62
     7
100
AcDbLine
 10
467.6090441772
 20
544.3875151683
 30
0.0
 11
465.8544538911
 21
544.1720785705
 31
0.0
  0
LINE
  5
1FF
330
19C
100
AcDbEntity
  8
DV2_Default
  6
Continuous
 62
     7
100
AcDbLine
 10
465.8341692975
 20
544.1695879356
 30
0.0
 11
464.1925803513
 21
543.9680261576
 31
0.0
  0
ARC
  5
200
330
19C
100
AcDbEntity
  8
DV2_Default
  6
Continuous
 62
     7
100
AcDbCircle
 10
481.5999488013
 20
544.6948684936
 30
0.0
 40
0.1000000000000032
100
AcDbArc
 50
277.0
 51
349.0955524937
  0
ARC
  5
201
330
19C
100
AcDbEntity
  8
DV2_Default
  6
Continuous
 62
     7
100
AcDbCircle
 10
465.0696519086
 20
542.665203248
 30
0.0
 40
0.1000000000000006
100
AcDbArc
 50
204.9044475062
 51
277.0
  0
LINE
  5
202
330
19C
100
AcDbEntity
  8
DV2_Default
  6
Continuous
 62
     7
100
AcDbLine
 10
464.3457924653
 20
543.9868382398
 30
0.0
 11
464.9789507756
 21
542.623092626
 31
0.0
  0
LINE
  5
203
330
19C
100
AcDbEntity
  8
DV2_Default
  6
Continuous
 62
     7
100
AcDbLine
 10
481.6981432044
 20
544.675951327
 30
0.0
 11
481.982574083
 21
546.1523627264
 31
0.0
  0
ARC
  5
204
330
19C
100
AcDbEntity
  8
DV2_Default
  6
Continuous
 62
     7
100
AcDbCircle
 10
482.3330482425
 20
546.2961465248
 30
0.0
 40
0.1000000000000032
100
AcDbArc
 50
277.0
 51
7.0
  0
LINE
  5
205
330
19C
100
AcDbEntity
  8
DV2_Default
  6
Continuous
 62
     7
100
AcDbLine
 10
482.4323028577
 20
546.3083334591
 30
0.0
 11
482.4018355218
 21
546.556469997
 31
0.0
  0
LINE
  5
206
330
19C
100
AcDbEntity
  8
DV2_Default
  6
Continuous
 62
     7
100
AcDbLine
 10
463.8412224861
 20
544.2775132753
 30
0.0
 11
463.871689822
 21
544.0293767374
 31
0.0
  0
ARC
  5
207
330
19C
100
AcDbEntity
  8
DV2_Default
  6
Continuous
 62
     7
100
AcDbCircle
 10
463.9709444371
 20
544.0415636718
 30
0.0
 40
0.1000000000000032
100
AcDbArc
 50
187.0
 51
277.0
  0
ENDBLK
  5
209
330
19C
100
AcDbEntity
  8
0
100
AcDbBlockEnd
  0
BLOCK
  5
295
330
20A
100
AcDbEntity
  8
0
100
AcDbBlockBegin
  2
SE2
 70
     0
 10
0.0
 20
0.0
 30
0.0
  3
SE2
  1

  0
ARC
  5
20D
330
20A
100
AcDbEntity
  8
DV3_Default
  6
Continuous
 62
     7
100
AcDbCircle
 10
155.5685467687
 20
206.9683124327
 30
0.0
 40
20.0
100
AcDbArc
 50
57.1388192111
 51
65.1654125103
  0
ARC
  5
20E
330
20A
100
AcDbEntity
  8
DV3_Default
  6
Continuous
 62
     7
100
AcDbCircle
 10
155.5685467687
 20
206.9683124327
 30
0.0
 40
20.0
100
AcDbArc
 50
294.8345874897
 51
301.3081210172
  0
LINE
  5
20F
330
20A
100
AcDbEntity
  8
DV3_Default
  6
Continuous
 62
     7
100
AcDbLine
 10
143.3685467687
 20
180.9683124327
 30
0.0
 11
134.9685467687
 21
180.9683124327
 31
0.0
  0
LINE
  5
210
330
20A
100
AcDbEntity
  8
DV3_Default
  6
Continuous
 62
     7
100
AcDbLine
 10
102.9685467687
 20
180.9683124327
 30
0.0
 11
94.5685467687
 21
180.9683124327
 31
0.0
  0
ARC
  5
211
330
20A
100
AcDbEntity
  8
DV3_Default
  6
Continuous
 62
     7
100
AcDbCircle
 10
94.5685467687
 20
182.5683124327
 30
0.0
 40
1.600000000000001
100
AcDbArc
 50
180.0
 51
270.0
  0
ARC
  5
212
330
20A
100
AcDbEntity
  8
DV3_Default
  6
Continuous
 62
     7
100
AcDbCircle
 10
143.3685467687
 20
182.5683124327
 30
0.0
 40
1.600000000000001
100
AcDbArc
 50
270.0
 51
0.0
  0
LINE
  5
213
330
20A
100
AcDbEntity
  8
DV3_Default
  6
Continuous
 62
     7
100
AcDbLine
 10
92.9685467687
 20
182.5683124327
 30
0.0
 11
92.9685467687
 21
231.3683124327
 31
0.0
  0
LINE
  5
214
330
20A
100
AcDbEntity
  8
DV3_Default
  6
Continuous
 62
     7
100
AcDbLine
 10
144.9685467687
 20
231.3683124327
 30
0.0
 11
144.9685467687
 21
226.9683124327
 31
0.0
  0
LINE
  5
215
330
20A
100
AcDbEntity
  8
DV3_Default
  6
Continuous
 62
     7
100
AcDbLine
 10
144.9685467687
 20
186.9683124327
 30
0.0
 11
144.9685467687
 21
182.5683124327
 31
0.0
  0
ARC
  5
216
330
20A
100
AcDbEntity
  8
DV3_Default
  6
Continuous
 62
     7
100
AcDbCircle
 10
94.5685467687
 20
231.3683124327
 30
0.0
 40
1.599999999999997
100
AcDbArc
 50
90.0
 51
180.0
  0
ARC
  5
217
330
20A
100
AcDbEntity
  8
DV3_Default
  6
Continuous
 62
     7
100
AcDbCircle
 10
143.3685467687
 20
231.3683124327
 30
0.0
 40
1.600000000000001
100
AcDbArc
 50
0.0
 51
90.0
  0
LINE
  5
218
330
20A
100
AcDbEntity
  8
DV3_Default
  6
Continuous
 62
     7
100
AcDbLine
 10
94.5685467687
 20
232.9683124327
 30
0.0
 11
116.9685467687
 21
232.9683124327
 31
0.0
  0
LINE
  5
219
330
20A
100
AcDbEntity
  8
DV3_Default
  6
Continuous
 62
     7
100
AcDbLine
 10
120.9685467687
 20
232.9683124327
 30
0.0
 11
143.3685467687
 21
232.9683124327
 31
0.0
  0
LINE
  5
21A
330
20A
100
AcDbEntity
  8
DV3_Default
  6
Continuous
 62
     7
100
AcDbLine
 10
120.9685467687
 20
240.4374038987
 30
0.0
 11
120.9685467687
 21
251.8077763147
 31
0.0
  0
LINE
  5
21B
330
20A
100
AcDbEntity
  8
DV3_Default
  6
Continuous
 62
     7
100
AcDbLine
 10
116.9685467687
 20
251.8077763147
 30
0.0
 11
116.9685467687
 21
240.4374038987
 31
0.0
  0
LINE
  5
21C
330
20A
100
AcDbEntity
  8
DV3_Default
  6
Continuous
 62
     7
100
AcDbLine
 10
116.9685467687
 20
240.4374038987
 30
0.0
 11
116.9685467687
 21
237.5842343498
 31
0.0
  0
LINE
  5
21D
330
20A
100
AcDbEntity
  8
DV3_Default
  6
Continuous
 62
     7
100
AcDbLine
 10
120.9685467687
 20
237.5842343498
 30
0.0
 11
120.9685467687
 21
240.4374038987
 31
0.0
  0
LINE
  5
21E
330
20A
100
AcDbEntity
  8
DV3_Default
  6
Continuous
 62
     7
100
AcDbLine
 10
120.9685467687
 20
226.9683124327
 30
0.0
 11
120.9685467687
 21
237.5842343498
 31
0.0
  0
LINE
  5
21F
330
20A
100
AcDbEntity
  8
DV3_Default
  6
Continuous
 62
     7
100
AcDbLine
 10
116.9685467687
 20
237.5842343498
 30
0.0
 11
116.9685467687
 21
226.9683124327
 31
0.0
  0
ARC
  5
220
330
20A
100
AcDbEntity
  8
DV3_Default
  6
Continuous
 62
     7
100
AcDbCircle
 10
118.9685467687
 20
251.8077763147
 30
0.0
 40
2.000000000000002
100
AcDbArc
 50
0.0
 51
180.0
  0
ARC
  5
221
330
20A
100
AcDbEntity
  8
DV3_Default
  6
Continuous
 62
     7
100
AcDbCircle
 10
353.3508681201
 20
182.6459012712
 30
0.0
 40
158.2085842639983
100
AcDbArc
 50
179.5663218083
 51
180.8966929609
  0
ELLIPSE
  5
222
330
20A
100
AcDbEntity
  8
DV3_Default
  6
Continuous
 62
     7
100
AcDbEllipse
 10
-3898.7215596389
 20
367.9343895422
 30
0.0
 11
4092.13826244146
 21
-247.6420701666451
 31
0.0
210
0.0
220
0.0
230
1.0
 40
0.4993163798
 41
0.022008906466292
 42
0.0259151242521071
  0
SPLINE
  5
223
330
20A
100
AcDbEntity
  8
DV3_Default
  6
Continuous
 62
     7
100
AcDbSpline
210
0.0
220
0.0
230
1.0
 70
     8
 71
     3
 72
     8
 73
     4
 74
     0
 42
0.0000000413657886
 43
0.0000000001
 40
0.0
 40
0.0
 40
0.0
 40
0.0
 40
1.0
 40
1.0
 40
1.0
 40
1.0
 10
195.2467642303602
 20
173.3226441972455
 30
0.0
 10
195.2479055086784
 20
173.3997076772336
 30
0.0
 10
195.2228888076021
 20
173.4782124522797
 30
0.0
 10
195.1765883360471
 20
173.5462283112164
 30
0.0
  0
ARC
  5
224
330
20A
100
AcDbEntity
  8
DV3_Default
  6
Continuous
 62
     7
100
AcDbCircle
 10
-95.858072909
 20
170.0320369586
 30
0.0
 40
291.0436045608349
100
AcDbArc
 50
359.0143176995
 51
359.2649449427
  0
ARC
  5
225
330
20A
100
AcDbEntity
  8
DV3_Default
  6
Continuous
 62
     7
100
AcDbCircle
 10
703.4727312349
 20
173.328088763
 30
0.0
 40
512.7023601613414
100
AcDbArc
 50
179.2246303642
 51
180.0000000015
  0
ARC
  5
226
330
20A
100
AcDbEntity
  8
DV3_Default
  6
Continuous
 62
     7
100
AcDbCircle
 10
-138.2830081741
 20
185.2477897804
 30
0.0
 40
329.1380358412118
100
AcDbArc
 50
359.1327584848
 51
359.7301207459
  0
LINE
  5
227
330
20A
100
AcDbEntity
  8
DV3_Default
  6
Continuous
 62
     7
100
AcDbLine
 10
190.8513713844
 20
191.6970866759
 30
0.0
 11
190.8513713844
 21
183.6974076868
 31
0.0
  0
LINE
  5
228
330
20A
100
AcDbEntity
  8
DV3_Default
  6
Continuous
 62
     7
100
AcDbLine
 10
166.5049479822
 20
213.8172654691
 30
0.0
 11
187.7169367569
 21
212.4532425582
 31
0.0
  0
SPLINE
  5
229
330
20A
100
AcDbEntity
  8
DV3_Default
  6
Continuous
 62
     7
100
AcDbSpline
210
0.0
220
0.0
230
1.0
 70
    12
 71
     3
 72
     8
 73
     4
 74
     0
 42
0.0000000148662556
 43
0.0000000001
 40
0.0
 40
0.0
 40
0.0
 40
0.0
 40
1.0
 40
1.0
 40
1.0
 40
1.0
 10
187.734620184583
 20
213.1215928897798
 30
0.0
 41
1.134217690026527
 10
187.758562770495
 20
212.9758155599323
 30
0.0
 41
0.9364718271739144
 10
187.7508270965702
 20
212.7005005745199
 30
0.0
 41
0.9572334479524124
 10
187.7169282062588
 20
212.453303800874
 30
0.0
 41
1.196502552362021
  0
LINE
  5
22A
330
20A
100
AcDbEntity
  8
DV3_Default
  6
Continuous
 62
     7
100
AcDbLine
 10
187.7345643785
 20
213.121801375
 30
0.0
 11
166.5222657453
 21
214.4836357428
 31
0.0
  0
LINE
  5
22B
330
20A
100
AcDbEntity
  8
DV3_Default
  6
Continuous
 62
     7
100
AcDbLine
 10
187.7172239087
 20
183.2801910929
 30
0.0
 11
166.5049492699
 21
180.1305912198
 31
0.0
  0
ELLIPSE
  5
22C
330
20A
100
AcDbEntity
  8
DV3_Default
  6
Continuous
 62
     7
100
AcDbEllipse
 10
499.5664670932
 20
368.7837276472
 30
0.0
 11
-192.1569116601476
 21
-421.2539374952504
 31
0.0
210
0.0
220
0.0
230
1.0
 40
0.5836781363
 41
-0.9438023537485085
 42
-0.871032875900795
  0
LINE
  5
22D
330
20A
100
AcDbEntity
  8
DV3_Default
  6
Continuous
 62
     7
100
AcDbLine
 10
165.9613510974
 20
214.0539919885
 30
0.0
 11
165.9613510934
 21
180.3919657204
 31
0.0
  0
LINE
  5
22E
330
20A
100
AcDbEntity
  8
DV3_Default
  6
Continuous
 62
     7
100
AcDbLine
 10
165.9613510974
 20
214.0539919885
 30
0.0
 11
165.961351096
 21
223.1264461616
 31
0.0
  0
LINE
  5
22F
330
20A
100
AcDbEntity
  8
DV3_Default
  6
Continuous
 62
     7
100
AcDbLine
 10
165.9613510967
 20
183.2015602937
 30
0.0
 11
165.9613510963
 21
182.9226436779
 31
0.0
  0
LINE
  5
230
330
20A
100
AcDbEntity
  8
DV3_Default
  6
Continuous
 62
     7
100
AcDbLine
 10
165.9613510963
 20
182.9116185583
 30
0.0
 11
165.9613510963
 21
182.9015432
 31
0.0
  0
LINE
  5
231
330
20A
100
AcDbEntity
  8
DV3_Default
  6
Continuous
 62
     7
100
AcDbLine
 10
165.961351096
 20
189.8806087188
 30
0.0
 11
165.961351096
 21
189.0566681508
 31
0.0
  0
ELLIPSE
  5
232
330
20A
100
AcDbEntity
  8
DV3_Default
  6
Continuous
 62
     7
100
AcDbEllipse
 10
-3833.7223237625
 20
633.6361865957
 30
0.0
 11
4018.965164289218
 21
-569.8062192437714
 31
0.0
210
0.0
220
0.0
230
1.0
 40
0.4962730919
 41
0.0583640683957581
 42
0.082139971003521
  0
ELLIPSE
  5
233
330
20A
100
AcDbEntity
  8
DV3_Default
  6
Continuous
 62
     7
100
AcDbEllipse
 10
194.3940997933
 20
229.3821970107
 30
0.0
 11
0.4998613642564348
 21
0.01177355161590194
 31
0.0
210
0.0
220
0.0
230
0.9999999999999999
 40
0.8652393728
 41
0.0036054562714241
 42
1.428167913419937
  0
ELLIPSE
  5
234
330
20A
100
AcDbEntity
  8
DV3_Default
  6
Continuous
 62
     7
100
AcDbEllipse
 10
-3833.670570254
 20
634.0034159288
 30
0.0
 11
4018.475665014185
 21
-569.7370582442742
 31
0.0
210
0.0
220
0.0
230
1.0
 40
0.4962730696
 41
0.0583641184563619
 42
0.0821400165736094
  0
ELLIPSE
  5
235
330
20A
100
AcDbEntity
  8
DV3_Default
  6
Continuous
 62
     7
100
AcDbEllipse
 10
194.3947245665
 20
181.1340160751
 30
0.0
 11
0.4998602731458163
 21
-0.01181978530038344
 31
0.0
210
0.0
220
0.0
230
1.0
 40
0.866688251
 41
0.0444880007624594
 42
1.469100402565815
  0
ELLIPSE
  5
236
330
20A
100
AcDbEntity
  8
DV3_Default
  6
Continuous
 62
     7
100
AcDbEllipse
 10
194.3947350832
 20
181.1340115283
 30
0.0
 11
-0.05358376790977334
 21
-0.4971164467559436
 31
0.0
210
0.0
220
0.0
230
1.0
 40
0.0584337347
 41
1.073834544198265
 42
2.621466843735133
  0
SPLINE
  5
237
330
20A
100
AcDbEntity
  8
DV3_Default
  6
Continuous
 62
     7
100
AcDbSpline
210
0.0
220
0.0
230
1.0
 70
     8
 71
     3
 72
    10
 73
     6
 74
     0
 42
0.000000016298173
 43
0.0000000001
 40
0.0
 40
0.0
 40
0.0
 40
0.0
 40
0.5
 40
0.5
 40
1.0
 40
1.0
 40
1.0
 40
1.0
 10
194.3947289028449
 20
180.8942558223277
 30
0.0
 10
194.524565753608
 20
180.89693309527
 30
0.0
 10
194.6536262203441
 20
180.9250439601309
 30
0.0
 10
194.8383682678042
 20
181.0164317568217
 30
0.0
 10
194.8929470143223
 20
181.0791631410116
 30
0.0
 10
194.8945463206722
 20
181.14149653673
 30
0.0
  0
ARC
  5
238
330
20A
100
AcDbEntity
  8
DV3_Default
  6
Continuous
 62
     7
100
AcDbCircle
 10
1038.2002736204
 20
164.0527021376
 30
0.0
 40
843.0044793504783
100
AcDbArc
 50
179.1200357184
 51
179.3699585209
  0
SPLINE
  5
239
330
20A
100
AcDbEntity
  8
DV3_Default
  6
Continuous
 62
     7
100
AcDbSpline
210
0.0
220
0.0
230
1.0
 70
    12
 71
     3
 72
     8
 73
     4
 74
     0
 42
0.0000000456439793
 43
0.0000000001
 40
0.0
 40
0.0
 40
0.0
 40
0.0
 40
1.0
 40
1.0
 40
1.0
 40
1.0
 10
195.2952123561678
 20
176.9989997054535
 30
0.0
 41
1.153290061664045
 10
195.2946413909934
 20
176.9401887082875
 30
0.0
 41
1.057092847445528
 10
195.2550791167383
 20
176.8839291682887
 30
0.0
 41
1.006172071518005
 10
195.1759251198594
 20
176.8380363547877
 30
0.0
 41
1.000527733881474
  0
ELLIPSE
  5
23A
330
20A
100
AcDbEntity
  8
DV3_Default
  6
Continuous
 62
     7
100
AcDbEllipse
 10
-469.5159725698
 20
166.5104135815
 30
0.0
 11
662.1443285465867
 21
69.40310780901522
 31
0.0
210
0.0
220
0.0
230
0.9999999999999999
 40
0.8648385385
 41
6.180761064658641
 42
6.204817302481411
  0
SPLINE
  5
23B
330
20A
100
AcDbEntity
  8
DV3_Default
  6
Continuous
 62
     7
100
AcDbSpline
210
0.0
220
0.0
230
1.0
 70
     8
 71
     3
 72
     8
 73
     4
 74
     0
 42
0.0000000749801473
 43
0.0000000001
 40
0.0
 40
0.0
 40
0.0
 40
0.0
 40
1.0
 40
1.0
 40
1.0
 40
1.0
 10
195.2951257518862
 20
190.8689230492487
 30
0.0
 10
195.2947321824006
 20
190.8301775549052
 30
0.0
 10
195.2748525993769
 20
190.7908939665502
 30
0.0
 10
195.2387297397194
 20
190.755469656606
 30
0.0
  0
SPLINE
  5
23C
330
20A
100
AcDbEntity
  8
DV3_Default
  6
Continuous
 62
     7
100
AcDbSpline
210
0.0
220
0.0
230
1.0
 70
     8
 71
     3
 72
     8
 73
     4
 74
     0
 42
0.0000002074448095
 43
0.0000000001
 40
0.0
 40
0.0
 40
0.0
 40
0.0
 40
1.0
 40
1.0
 40
1.0
 40
1.0
 10
190.8173180247155
 20
190.7767503730133
 30
0.0
 10
190.8174319290492
 20
190.7606208892464
 30
0.0
 10
190.819974922694
 20
190.7449526917565
 30
0.0
 10
190.8252504400631
 20
190.729633116848
 30
0.0
  0
SPLINE
  5
23D
330
20A
100
AcDbEntity
  8
DV3_Default
  6
Continuous
 62
     7
100
AcDbSpline
210
0.0
220
0.0
230
1.0
 70
     8
 71
     3
 72
     8
 73
     4
 74
     0
 42
0.0000001932082199
 43
0.0000000001
 40
0.0
 40
0.0
 40
0.0
 40
0.0
 40
1.0
 40
1.0
 40
1.0
 40
1.0
 10
190.8252504400631
 20
190.729633116848
 30
0.0
 10
190.830541313506
 20
190.7142689494367
 30
0.0
 10
190.8385806415869
 20
190.6992554371147
 30
0.0
 10
190.849674516167
 20
190.6844789294891
 30
0.0
  0
ARC
  5
23E
330
20A
100
AcDbEntity
  8
DV3_Default
  6
Continuous
 62
     7
100
AcDbCircle
 10
703.4727311658
 20
183.839529233
 30
0.0
 40
512.7023600922288
100
AcDbArc
 50
179.2247009983
 51
180.5873502549
  0
SPLINE
  5
23F
330
20A
100
AcDbEntity
  8
DV3_Default
  6
Continuous
 62
     7
100
AcDbSpline
210
0.0
220
0.0
230
1.0
 70
     8
 71
     3
 72
    14
 73
    10
 74
     0
 42
0.000000016664736
 43
0.0000000001
 40
0.0
 40
0.0
 40
0.0
 40
0.0
 40
0.1878755918937494
 40
0.3908378940129346
 40
0.59379851108439
 40
0.7967651956175504
 40
0.8983728898583614
 40
0.949181317691645
 40
1.0
 40
1.0
 40
1.0
 40
1.0
 10
190.8355528887823
 20
191.7921862281801
 30
0.0
 10
190.8372784900998
 20
191.8571410253543
 30
0.0
 10
190.8407143919317
 20
191.9663093981331
 30
0.0
 10
190.8451804028993
 20
192.0444061864742
 30
0.0
 10
190.8486742149543
 20
192.0276328836565
 30
0.0
 10
190.8505056796078
 20
191.9339177659666
 30
0.0
 10
190.8511626633555
 20
191.8288180605571
 30
0.0
 10
190.8513447673789
 20
191.7571565601099
 30
0.0
 10
190.851363160536
 20
191.7171478455537
 30
0.0
 10
190.8513763701777
 20
191.6971413940398
 30
0.0
  0
SPLINE
  5
240
330
20A
100
AcDbEntity
  8
DV3_Default
  6
Continuous
 62
     7
100
AcDbSpline
210
0.0
220
0.0
230
1.0
 70
     8
 71
     3
 72
    19
 73
    15
 74
     0
 42
0.0000000057940609
 43
0.0000000001
 40
0.0
 40
0.0
 40
0.0
 40
0.0
 40
0.0313199986506341
 40
0.0626048748913386
 40
0.1251760638209203
 40
0.2502259314113598
 40
0.3752646410644455
 40
0.5003021456268013
 40
0.6252932015077194
 40
0.7502831335918256
 40
0.8752804228085388
 40
0.9378538668788128
 40
0.9691442310604182
 40
1.0
 40
1.0
 40
1.0
 40
1.0
 10
195.2467276659002
 20
191.851896256159
 30
0.0
 10
195.2469780187968
 20
191.8751707187444
 30
0.0
 10
195.2473975359686
 20
191.916767845299
 30
0.0
 10
195.2483040955836
 20
191.99580350395
 30
0.0
 10
195.2503265563942
 20
192.1077528628944
 30
0.0
 10
195.2541247906693
 20
192.206603567594
 30
0.0
 10
195.2599029256922
 20
192.2226400336825
 30
0.0
 10
195.2665990644946
 20
192.1353391921475
 30
0.0
 10
195.2738554753026
 20
191.948255018188
 30
0.0
 10
195.2812961984909
 20
191.6679136223505
 30
0.0
 10
195.2873453121206
 20
191.3662263312577
 30
0.0
 10
195.2913480768692
 20
191.1261160610049
 30
0.0
 10
195.293549880776
 20
190.9816493893732
 30
0.0
 10
195.2946094166987
 20
190.9069156625554
 30
0.0
 10
195.2951282746471
 20
190.8692053484485
 30
0.0
  0
ELLIPSE
  5
241
330
20A
100
AcDbEntity
  8
DV3_Default
  6
Continuous
 62
     7
100
AcDbEllipse
 10
-3898.9361292935
 20
14.8242101236
 30
0.0
 11
4092.352750285938
 21
247.660521630375
 31
0.0
210
0.0
220
0.0
230
1.0
 40
0.4993031919
 41
-0.0384072335230066
 42
-0.0345017821797464
  0
LINE
  5
242
330
20A
100
AcDbEntity
  8
DV3_Default
  6
Continuous
 62
     7
100
AcDbLine
 10
190.9664590659
 20
210.5496713203
 30
0.0
 11
190.9664590659
 21
181.460064714
 31
0.0
  0
ELLIPSE
  5
243
330
20A
100
AcDbEntity
  8
DV3_Default
  6
Continuous
 62
     7
100
AcDbEllipse
 10
501.3765315543
 20
366.4900430081
 30
0.0
 11
-191.2645318260737
 21
-419.2892715957209
 31
0.0
210
0.0
220
0.0
230
1.0
 40
0.5836844833
 41
-0.9303390263612012
 42
-0.907424934308894
  0
ELLIPSE
  5
244
330
20A
100
AcDbEntity
  8
DV3_Default
  6
Continuous
 62
     7
100
AcDbEllipse
 10
501.3765315543
 20
366.4900430081
 30
0.0
 11
-191.2645318260737
 21
-419.2892715957209
 31
0.0
210
0.0
220
0.0
230
1.0
 40
0.5836844833
 41
-0.9429582623090758
 42
-0.9303390263612012
  0
ELLIPSE
  5
245
330
20A
100
AcDbEntity
  8
DV3_Default
  6
Continuous
 62
     7
100
AcDbEllipse
 10
532.3641011264
 20
338.105062793
 30
0.0
 11
-215.9954780241715
 21
-432.3068814453325
 31
0.0
210
0.0
220
0.0
230
1.0
 40
0.6121485553
 41
-0.920141030409054
 42
-0.907392034511787
  0
ELLIPSE
  5
246
330
20A
100
AcDbEntity
  8
DV3_Default
  6
Continuous
 62
     7
100
AcDbEllipse
 10
532.3641011264
 20
338.105062793
 30
0.0
 11
-215.9954780241715
 21
-432.3068814453325
 31
0.0
210
0.0
220
0.0
230
1.0
 40
0.6121485553
 41
-0.907392034511787
 42
-0.8523530154605412
  0
LINE
  5
247
330
20A
100
AcDbEntity
  8
DV3_Default
  6
Continuous
 62
     7
100
AcDbLine
 10
191.5272506226
 20
210.9690857553
 30
0.0
 11
191.5272506226
 21
181.8793853653
 31
0.0
  0
SPLINE
  5
248
330
20A
100
AcDbEntity
  8
DV3_Default
  6
Continuous
 62
     7
100
AcDbSpline
210
0.0
220
0.0
230
1.0
 70
     8
 71
     3
 72
    10
 73
     6
 74
     0
 42
0.0000000124043799
 43
0.0000000001
 40
0.0
 40
0.0
 40
0.0
 40
0.0
 40
0.5
 40
0.5
 40
1.0
 40
1.0
 40
1.0
 40
1.0
 10
191.5272504355179
 20
210.9690844367304
 30
0.0
 10
191.3892026862448
 20
210.9837648822972
 30
0.0
 10
191.24477911045
 20
210.9457479978546
 30
0.0
 10
191.0342499295265
 20
210.7882941049308
 30
0.0
 10
190.9697904044463
 20
210.6700881928259
 30
0.0
 10
190.9664534496986
 20
210.5496720487264
 30
0.0
  0
ELLIPSE
  5
249
330
20A
100
AcDbEntity
  8
DV3_Default
  6
Continuous
 62
     7
100
AcDbEllipse
 10
191.4663156407
 20
181.4496668583
 30
0.0
 11
-0.4999999999999866
 21
1.037772468588216E-14
 31
0.0
210
0.0
220
0.0
230
1.0
 40
0.8660254038
 41
4.590224953163393
 42
6.259235224443351
  0
SPLINE
  5
24A
330
20A
100
AcDbEntity
  8
DV3_Default
  6
Continuous
 62
     7
100
AcDbSpline
210
0.0
220
0.0
230
1.0
 70
     8
 71
     3
 72
    10
 73
     6
 74
     0
 42
0.0000000162127954
 43
0.0000000001
 40
0.0
 40
0.0
 40
0.0
 40
0.0
 40
0.5
 40
0.5
 40
1.0
 40
1.0
 40
1.0
 40
1.0
 10
190.9664590484217
 20
181.4600636104968
 30
0.0
 10
190.9665341041994
 20
181.3973433169722
 30
0.0
 10
191.0204382097137
 20
181.3339176216084
 30
0.0
 10
191.2054891799011
 20
181.2413914935352
 30
0.0
 10
191.3354981918055
 20
181.2128599911625
 30
0.0
 10
191.4663111804947
 20
181.2100807289239
 30
0.0
  0
SPLINE
  5
24B
330
20A
100
AcDbEntity
  8
DV3_Default
  6
Continuous
 62
     7
100
AcDbSpline
210
0.0
220
0.0
230
1.0
 70
     8
 71
     3
 72
    10
 73
     6
 74
     0
 42
0.0000000160252833
 43
0.0000000001
 40
0.0
 40
0.0
 40
0.0
 40
0.0
 40
0.5
 40
0.5
 40
1.0
 40
1.0
 40
1.0
 40
1.0
 10
191.46652171338
 20
152.8451481870185
 30
0.0
 10
191.3357088163189
 20
152.8424450032944
 30
0.0
 10
191.2056998939435
 20
152.8678177261998
 30
0.0
 10
191.0206489959321
 20
152.9603438912382
 30
0.0
 10
190.9667448708676
 20
153.0269284036834
 30
0.0
 10
190.9666697354107
 20
153.095077427947
 30
0.0
  0
ELLIPSE
  5
24C
330
20A
100
AcDbEntity
  8
DV3_Default
  6
Continuous
 62
     7
100
AcDbEllipse
 10
533.1138429952
 20
337.980172196
 30
0.0
 11
-216.1533532930526
 21
-432.6231433552227
 31
0.0
210
0.0
220
0.0
230
1.0
 40
0.6121483565
 41
-0.920116356770575
 42
-0.8523780194767392
  0
SPLINE
  5
24D
330
20A
100
AcDbEntity
  8
DV3_Default
  6
Continuous
 62
     7
100
AcDbSpline
210
0.0
220
0.0
230
1.0
 70
    12
 71
     3
 72
    14
 73
    10
 74
     0
 42
0.0000000030054001
 43
0.0000000001
 40
0.0
 40
0.0
 40
0.0
 40
0.0
 40
0.0641531009585499
 40
0.2285407152249234
 40
0.3933152530840447
 40
0.5584470219997776
 40
0.7238333505816982
 40
0.8894847093235058
 40
1.0
 40
1.0
 40
1.0
 40
1.0
 10
190.8277419998076
 20
182.616894297835
 30
0.0
 41
1.196509873173538
 10
190.8016412274303
 20
182.6549232169228
 30
0.0
 41
1.196509873173538
 10
190.6959077902831
 20
182.7868257245146
 30
0.0
 41
1.196509873173538
 10
190.4379010538726
 20
182.9888721119187
 30
0.0
 41
1.196509873173538
 10
189.9924900053578
 20
183.1851313750923
 30
0.0
 41
1.196509873173538
 10
189.4468873068902
 20
183.3144764885822
 30
0.0
 41
1.196509873173538
 10
188.8276490161975
 20
183.3702901944472
 30
0.0
 41
1.196509873173538
 10
188.2391713199077
 20
183.3519148218144
 30
0.0
 41
1.196509873173538
 10
187.8661629280639
 20
183.305248688502
 30
0.0
 41
1.196509873173538
 10
187.7175608938045
 20
183.2809311082308
 30
0.0
 41
1.196509873173538
  0
SPLINE
  5
24E
330
20A
100
AcDbEntity
  8
DV3_Default
  6
Continuous
 62
     7
100
AcDbSpline
210
0.0
220
0.0
230
1.0
 70
    12
 71
     3
 72
    15
 73
    11
 74
     0
 42
0.00000000247028
 43
0.0000000001
 40
0.0
 40
0.0
 40
0.0
 40
0.0
 40
0.1029054793003687
 40
0.2364442218354248
 40
0.3697631707425329
 40
0.5028708519951616
 40
0.6356873303959001
 40
0.7681941479861605
 40
0.9005591821652169
 40
1.0
 40
1.0
 40
1.0
 40
1.0
 10
187.7169282062588
 20
212.453303800874
 30
0.0
 41
1.196513452215699
 10
187.8864127894702
 20
212.4400341276954
 30
0.0
 41
1.196513452215699
 10
188.2782491340994
 20
212.3924950386566
 30
0.0
 41
1.196513452215698
 10
188.8800308639109
 20
212.2590679328301
 30
0.0
 41
1.196513452215699
 10
189.4874011845317
 20
212.0495639514537
 30
0.0
 41
1.196513452215699
 10
190.020882936106
 20
211.7854440204216
 30
0.0
 41
1.196513452215699
 10
190.4551367203664
 20
211.4795996740473
 30
0.0
 41
1.196513452215699
 10
190.7696361064381
 20
211.1467300591338
 30
0.0
 41
1.196513452215699
 10
190.9346837295537
 20
210.8313069691103
 30
0.0
 41
1.196513452215699
 10
190.9664235156606
 20
210.6329930494443
 30
0.0
 41
1.196513452215699
 10
190.9664534496986
 20
210.5496720487264
 30
0.0
 41
1.196513452215699
  0
ELLIPSE
  5
24F
330
20A
100
AcDbEntity
  8
DV3_Default
  6
Continuous
 62
     7
100
AcDbEllipse
 10
191.4663050376
 20
181.4496645648
 30
0.0
 11
0.05358376790975947
 21
0.4971164467559019
 31
0.0
210
0.0
220
0.0
230
0.9999999999999999
 40
0.0584337347
 41
4.215818948297626
 42
5.762653507049017
  0
LINE
  5
250
330
20A
100
AcDbEntity
  8
DV3_Default
  6
Continuous
 62
     7
100
AcDbLine
 10
191.5272457267
 20
181.8794489367
 30
0.0
 11
194.4556620819
 21
181.5638078932
 31
0.0
  0
LINE
  5
251
330
20A
100
AcDbEntity
  8
DV3_Default
  6
Continuous
 62
     7
100
AcDbLine
 10
191.4662997742
 20
181.2099946495
 30
0.0
 11
194.3947405069
 21
180.8943404608
 31
0.0
  0
LINE
  5
252
330
20A
100
AcDbEntity
  8
DV3_Default
  6
Continuous
 62
     7
100
AcDbLine
 10
194.3945305965
 20
153.1523180469
 30
0.0
 11
191.4665103084
 21
152.8452298043
 31
0.0
  0
ARC
  5
253
330
20A
100
AcDbEntity
  8
DV3_Default
  6
Continuous
 62
     7
100
AcDbCircle
 10
-312.5510508449
 20
164.686766231
 30
0.0
 40
507.2047972198731
100
AcDbArc
 50
358.6965930964
 51
1.831171279
  0
ELLIPSE
  5
254
330
20A
100
AcDbEntity
  8
DV3_Default
  6
Continuous
 62
     7
100
AcDbEllipse
 10
194.3945146083
 20
153.4125105058
 30
0.0
 11
-0.4998067368758297
 21
0.01390056792963109
 31
0.0
210
0.0
220
0.0
230
1.0
 40
0.5200129848
 41
1.585268176339396
 42
3.143913770677353
  0
ARC
  5
255
330
20A
100
AcDbEntity
  8
DV3_Default
  6
Continuous
 62
     7
100
AcDbCircle
 10
-363.4070564481
 20
169.1628468715
 30
0.0
 40
558.5238918981516
100
AcDbArc
 50
358.3826845611
 51
358.6151927535
  0
ARC
  5
256
330
20A
100
AcDbEntity
  8
DV3_Default
  6
Continuous
 62
     7
100
AcDbCircle
 10
-363.4070564481
 20
169.1628468715
 30
0.0
 40
558.5238918981516
100
AcDbArc
 50
358.6151927535
 51
359.7966144327
  0
ARC
  5
257
330
20A
100
AcDbEntity
  8
DV3_Default
  6
Continuous
 62
     7
100
AcDbCircle
 10
-257.3993278848
 20
169.1787326611
 30
0.0
 40
452.4883790472691
100
AcDbArc
 50
359.7469544114
 51
1.5150683193
  0
ARC
  5
258
330
20A
100
AcDbEntity
  8
DV3_Default
  6
Continuous
 62
     7
100
AcDbCircle
 10
-350.3431446324
 20
213.9540609688
 30
0.0
 40
545.4556779939307
100
AcDbArc
 50
1.4054908054
 51
1.6222158522
  0
ELLIPSE
  5
259
330
20A
100
AcDbEntity
  8
DV3_Default
  6
Continuous
 62
     7
100
AcDbEllipse
 10
-470.062978918
 20
190.6683197771
 30
0.0
 11
662.5561225696804
 21
-69.44582473942324
 31
0.0
210
0.0
220
0.0
230
0.9999999999999999
 40
0.8648385617
 41
0.0783742089106344
 42
0.1024187440982423
  0
LINE
  5
25A
330
20A
100
AcDbEntity
  8
DV3_Default
  6
Continuous
 62
     7
100
AcDbLine
 10
176.2697686339
 20
232.5122779614
 30
0.0
 11
194.4550164741
 21
229.8118557167
 31
0.0
  0
LINE
  5
25B
330
20A
100
AcDbEntity
  8
DV3_Default
  6
Continuous
 62
     7
100
AcDbLine
 10
166.5222857677
 20
223.5562312525
 30
0.0
 11
176.2697825619
 21
232.5124006391
 31
0.0
  0
ELLIPSE
  5
25C
330
20A
100
AcDbEntity
  8
DV3_Default
  6
Continuous
 62
     7
100
AcDbEllipse
 10
188.0391565087
 20
211.3460008
 30
0.0
 11
-3.47936396208777
 21
0.4994407365540591
 31
0.0
210
0.0
220
0.0
230
1.0
 40
0.4938155223
 41
3.212238323864929
 42
4.870557282648303
  0
ELLIPSE
  5
25D
330
20A
100
AcDbEntity
  8
DV3_Default
  6
Continuous
 62
     7
100
AcDbEllipse
 10
176.2088518732
 20
232.0826192079
 30
0.0
 11
0.3382923732859755
 21
-0.3681823871079966
 31
0.0
210
0.0
220
0.0
230
1.0
 40
0.8041270841
 41
2.153808895789613
 42
3.141592653589762
  0
SPLINE
  5
25E
330
20A
100
AcDbEntity
  8
DV3_Default
  6
Continuous
 62
     7
100
AcDbSpline
210
0.0
220
0.0
230
1.0
 70
     8
 71
     3
 72
    10
 73
     6
 74
     0
 42
0.0000001510839331
 43
0.0000000001
 40
0.0
 40
0.0
 40
0.0
 40
0.0
 40
0.1583640474836346
 40
0.716595744644578
 40
1.0
 40
1.0
 40
1.0
 40
1.0
 10
194.4675958086472
 20
229.8765791990463
 30
0.0
 10
194.4674450962904
 20
229.876643625489
 30
0.0
 10
194.4663958795529
 20
229.8744658042791
 30
0.0
 10
194.4626166929554
 20
229.8557494180488
 30
0.0
 10
194.4569962845001
 20
229.8230000498745
 30
0.0
 10
194.4550559178011
 20
229.8118833082866
 30
0.0
  0
SPLINE
  5
25F
330
20A
100
AcDbEntity
  8
DV3_Default
  6
Continuous
 62
     7
100
AcDbSpline
210
0.0
220
0.0
230
1.0
 70
     8
 71
     3
 72
     8
 73
     4
 74
     0
 42
0.0000001506151815
 43
0.0000000001
 40
0.0
 40
0.0
 40
0.0
 40
0.0
 40
1.0
 40
1.0
 40
1.0
 40
1.0
 10
176.2697557390202
 20
232.5123658915206
 30
0.0
 10
176.2768896414624
 20
232.554715432055
 30
0.0
 10
176.28115516476
 20
232.5767177569882
 30
0.0
 10
176.2821802377441
 20
232.5768691039414
 30
0.0
  0
SPLINE
  5
260
330
20A
100
AcDbEntity
  8
DV3_Default
  6
Continuous
 62
     7
100
AcDbSpline
210
0.0
220
0.0
230
1.0
 70
    12
 71
     3
 72
     8
 73
     4
 74
     0
 42
0.000000041984362
 43
0.0000000001
 40
0.0
 40
0.0
 40
0.0
 40
0.0
 40
0.9999999999999999
 40
0.9999999999999999
 40
0.9999999999999999
 40
0.9999999999999999
 10
187.7171280485962
 20
183.2808602601729
 30
0.0
 41
1.196236798027345
 10
187.7377025432595
 20
183.1370406930503
 30
0.0
 41
1.038897126390621
 10
187.7494049152425
 20
183.0470245415909
 30
0.0
 41
0.9761718664733747
 10
187.7474263587397
 20
183.0462452296107
 30
0.0
 41
1.008061018275606
  0
ELLIPSE
  5
261
330
20A
100
AcDbEntity
  8
DV3_Default
  6
Continuous
 62
     7
100
AcDbEllipse
 10
194.3945252945
 20
153.4125081944
 30
0.0
 11
-0.05215309943369664
 21
0.4972685767150736
 31
0.0
210
0.0
220
0.0
230
1.0
 40
0.0634364635
 41
2.114581346709708
 42
3.141605925698641
  0
ELLIPSE
  5
262
330
20A
100
AcDbEntity
  8
DV3_Default
  6
Continuous
 62
     7
100
AcDbEllipse
 10
191.4665155713
 20
153.10542106
 30
0.0
 11
-0.05215309943371052
 21
0.4972685767150806
 31
0.0
210
0.0
220
0.0
230
0.9999999999999999
 40
0.0634364635
 41
2.11497304332036
 42
3.141592653589793
  0
ARC
  5
263
330
20A
100
AcDbEntity
  8
DV3_Default
  6
Continuous
 62
     7
100
AcDbCircle
 10
236.2929651239
 20
190.7843290675
 30
0.0
 40
45.46850934824372
100
AcDbArc
 50
178.6906734542
 51
180.0936936569
  0
LINE
  5
264
330
20A
100
AcDbEntity
  8
DV3_Default
  6
Continuous
 62
     7
100
AcDbLine
 10
190.7703705361
 20
173.3280887494
 30
0.0
 11
190.7703705361
 21
167.1832900929
 31
0.0
  0
LINE
  5
265
330
20A
100
AcDbEntity
  8
DV3_Default
  6
Continuous
 62
     7
100
AcDbLine
 10
190.7703705361
 20
196.2634632358
 30
0.0
 11
190.7703705361
 21
183.8395292474
 31
0.0
  0
ARC
  5
266
330
20A
100
AcDbEntity
  8
DV3_Default
  6
Continuous
 62
     7
100
AcDbCircle
 10
-1297.6317474436
 20
191.9039112314
 30
0.0
 40
1492.998784257076
100
AcDbArc
 50
359.5544863535
 51
1.3595486628
  0
ARC
  5
267
330
20A
100
AcDbEntity
  8
DV3_Default
  6
Continuous
 62
     7
100
AcDbCircle
 10
-716.4307620426
 20
178.3188593378
 30
0.0
 40
911.663403050132
100
AcDbArc
 50
358.5648504692
 51
359.1650135481
  0
LINE
  5
268
330
20A
100
AcDbEntity
  8
DV3_Default
  6
Continuous
 62
     7
100
AcDbLine
 10
175.8705594999
 20
232.450801595
 30
0.0
 11
166.1230587227
 21
223.4946285487
 31
0.0
  0
LINE
  5
269
330
20A
100
AcDbEntity
  8
DV3_Default
  6
Continuous
 62
     7
100
AcDbLine
 10
194.5001820691
 20
229.87196485
 30
0.0
 11
176.2822318086
 21
232.5771917322
 31
0.0
  0
ARC
  5
26A
330
20A
100
AcDbEntity
  8
DV3_Default
  6
Continuous
 62
     7
100
AcDbCircle
 10
194.3940997437
 20
229.3821970012
 30
0.0
 40
0.4999999762842764
100
AcDbArc
 50
1.5919902205
 51
81.551846293
  0
ARC
  5
26B
330
20A
100
AcDbEntity
  8
DV3_Default
  6
Continuous
 62
     7
100
AcDbCircle
 10
176.2088518732
 20
232.0826192079
 30
0.0
 40
0.4999999999999991
100
AcDbArc
 50
81.5671532575
 51
132.5773361126
  0
ARC
  5
26C
330
20A
100
AcDbEntity
  8
DV3_Default
  6
Continuous
 62
     7
100
AcDbCircle
 10
166.461351096
 20
223.1264461616
 30
0.0
 40
0.5000000000006632
100
AcDbArc
 50
132.5773361126
 51
180.0
  0
ARC
  5
26D
330
20A
100
AcDbEntity
  8
DV3_Default
  6
Continuous
 62
     7
100
AcDbCircle
 10
166.461351096
 20
180.3919657243
 30
0.0
 40
0.5000000000000004
100
AcDbArc
 50
180.0
 51
270.0
  0
ARC
  5
26E
330
20A
100
AcDbEntity
  8
DV3_Default
  6
Continuous
 62
     7
100
AcDbCircle
 10
166.461351096
 20
180.3919657243
 30
0.0
 40
0.5000000000000004
100
AcDbArc
 50
270.0
 51
278.4673901687
  0
LINE
  5
26F
330
20A
100
AcDbEntity
  8
DV3_Default
  6
Continuous
 62
     7
100
AcDbLine
 10
166.5347017741
 20
179.8973558055
 30
0.0
 11
187.7791835721
 21
183.0509579498
 31
0.0
  0
ARC
  5
270
330
20A
100
AcDbEntity
  8
DV3_Default
  6
Continuous
 62
     7
100
AcDbCircle
 10
188.6542971679
 20
178.9641804665
 30
0.0
 40
4.183922769823184
100
AcDbArc
 50
58.932966929
 51
102.9691490454
  0
ARC
  5
271
330
20A
100
AcDbEntity
  8
DV3_Default
  6
Continuous
 62
     7
100
AcDbCircle
 10
194.394514612
 20
153.4125105036
 30
0.0
 40
0.4999996970853408
100
AcDbArc
 50
275.9884815557
 51
358.4069069916
  0
LINE
  5
272
330
20A
100
AcDbEntity
  8
DV3_Default
  6
Continuous
 62
     7
100
AcDbLine
 10
191.5186686707
 20
152.6081524833
 30
0.0
 11
194.4466783939
 21
152.9152396176
 31
0.0
  0
ARC
  5
273
330
20A
100
AcDbEntity
  8
DV3_Default
  6
Continuous
 62
     7
100
AcDbCircle
 10
191.4665261726
 20
153.1054256062
 30
0.0
 40
0.4999999999999984
100
AcDbArc
 50
181.6927066269
 51
270.0
  0
ARC
  5
274
330
20A
100
AcDbEntity
  8
DV3_Default
  6
Continuous
 62
     7
100
AcDbCircle
 10
191.4665261726
 20
153.1054256062
 30
0.0
 40
0.5000000000000004
100
AcDbArc
 50
270.0
 51
275.9860193234
  0
LINE
  5
275
330
20A
100
AcDbEntity
  8
DV3_Default
  6
Continuous
 62
     7
100
AcDbLine
 10
140.9685467687
 20
186.9683124327
 30
0.0
 11
163.4685467687
 21
186.9683124327
 31
0.0
  0
LINE
  5
276
330
20A
100
AcDbEntity
  8
DV3_Default
  6
Continuous
 62
     7
100
AcDbLine
 10
140.9685467687
 20
186.9683124327
 30
0.0
 11
138.4685467687
 21
186.9683124327
 31
0.0
  0
LINE
  5
277
330
20A
100
AcDbEntity
  8
DV3_Default
  6
Continuous
 62
     7
100
AcDbLine
 10
99.4685467687
 20
186.9683124327
 30
0.0
 11
102.9685467687
 21
186.9683124327
 31
0.0
  0
LINE
  5
278
330
20A
100
AcDbEntity
  8
DV3_Default
  6
Continuous
 62
     7
100
AcDbLine
 10
134.9685467687
 20
186.9683124327
 30
0.0
 11
138.4685467687
 21
186.9683124327
 31
0.0
  0
LINE
  5
279
330
20A
100
AcDbEntity
  8
DV3_Default
  6
Continuous
 62
     7
100
AcDbLine
 10
138.4685467687
 20
226.9683124327
 30
0.0
 11
99.4685467687
 21
226.9683124327
 31
0.0
  0
LINE
  5
27A
330
20A
100
AcDbEntity
  8
DV3_Default
  6
Continuous
 62
     7
100
AcDbLine
 10
140.9685467687
 20
226.9683124327
 30
0.0
 11
138.4685467687
 21
226.9683124327
 31
0.0
  0
LINE
  5
27B
330
20A
100
AcDbEntity
  8
DV3_Default
  6
Continuous
 62
     7
100
AcDbLine
 10
163.4685467687
 20
226.9683124327
 30
0.0
 11
140.9685467687
 21
226.9683124327
 31
0.0
  0
LINE
  5
27C
330
20A
100
AcDbEntity
  8
DV3_Default
  6
Continuous
 62
     7
100
AcDbLine
 10
98.9685467687
 20
226.4683124327
 30
0.0
 11
98.9685467687
 21
187.4683124327
 31
0.0
  0
LINE
  5
27D
330
20A
100
AcDbEntity
  8
DV3_Default
  6
Continuous
 62
     7
100
AcDbLine
 10
138.9685467687
 20
226.4683124327
 30
0.0
 11
138.9685467687
 21
187.4683124327
 31
0.0
  0
LINE
  5
27E
330
20A
100
AcDbEntity
  8
DV3_Default
  6
Continuous
 62
     7
100
AcDbLine
 10
163.9685467687
 20
226.4683124327
 30
0.0
 11
163.9685467687
 21
187.4683124327
 31
0.0
  0
ARC
  5
27F
330
20A
100
AcDbEntity
  8
DV3_Default
  6
Continuous
 62
     7
100
AcDbCircle
 10
99.4685467687
 20
187.4683124327
 30
0.0
 40
0.5000000000000039
100
AcDbArc
 50
180.0
 51
270.0
  0
ARC
  5
280
330
20A
100
AcDbEntity
  8
DV3_Default
  6
Continuous
 62
     7
100
AcDbCircle
 10
163.4685467687
 20
187.4683124327
 30
0.0
 40
0.5000000000000004
100
AcDbArc
 50
270.0
 51
0.0
  0
ARC
  5
281
330
20A
100
AcDbEntity
  8
DV3_Default
  6
Continuous
 62
     7
100
AcDbCircle
 10
99.4685467687
 20
226.4683124327
 30
0.0
 40
0.5000000000000039
100
AcDbArc
 50
90.0
 51
180.0
  0
ARC
  5
282
330
20A
100
AcDbEntity
  8
DV3_Default
  6
Continuous
 62
     7
100
AcDbCircle
 10
163.4685467687
 20
226.4683124327
 30
0.0
 40
0.5000000000000004
100
AcDbArc
 50
0.0
 51
90.0
  0
ARC
  5
283
330
20A
100
AcDbEntity
  8
DV3_Default
  6
Continuous
 62
     7
100
AcDbCircle
 10
138.4685467687
 20
187.4683124327
 30
0.0
 40
0.5000000000000039
100
AcDbArc
 50
270.0
 51
0.0
  0
ARC
  5
284
330
20A
100
AcDbEntity
  8
DV3_Default
  6
Continuous
 62
     7
100
AcDbCircle
 10
138.4685467687
 20
226.4683124327
 30
0.0
 40
0.5000000000000039
100
AcDbArc
 50
0.0
 51
90.0
  0
ARC
  5
285
330
20A
100
AcDbEntity
  8
DV3_Default
  6
Continuous
 62
     7
100
AcDbCircle
 10
118.9685467687
 20
206.9683124327
 30
0.0
 40
18.1
100
AcDbArc
 50
167.231562972
 51
207.8130716703
  0
LINE
  5
286
330
20A
100
AcDbEntity
  8
DV3_Default
  6
Continuous
 62
     7
100
AcDbLine
 10
102.9685467687
 20
43.14429227
 30
0.0
 11
102.9685467687
 21
41.5599906493
 31
0.0
  0
LINE
  5
287
330
20A
100
AcDbEntity
  8
DV3_Default
  6
Continuous
 62
     7
100
AcDbLine
 10
102.9685467687
 20
213.4768224402
 30
0.0
 11
102.9685467687
 21
43.14429227
 31
0.0
  0
LINE
  5
288
330
20A
100
AcDbEntity
  8
DV3_Default
  6
Continuous
 62
     7
100
AcDbLine
 10
134.9685467687
 20
213.4690228075
 30
0.0
 11
134.9685467687
 21
43.14429227
 31
0.0
  0
LINE
  5
289
330
20A
100
AcDbEntity
  8
DV3_Default
  6
Continuous
 62
     7
100
AcDbLine
 10
134.9685467687
 20
41.5599906494
 30
0.0
 11
134.9685467687
 21
43.14429227
 31
0.0
  0
ARC
  5
28A
330
20A
100
AcDbEntity
  8
DV3_Default
  6
Continuous
 62
     7
100
AcDbCircle
 10
103.4685467687
 20
213.4687353815
 30
0.0
 40
0.5000000000000004
100
AcDbArc
 50
90.0
 51
93.3742023088
  0
ARC
  5
28B
330
20A
100
AcDbEntity
  8
DV3_Default
  6
Continuous
 62
     7
100
AcDbCircle
 10
134.4685467687
 20
213.4687353815
 30
0.0
 40
0.5000000000000004
100
AcDbArc
 50
86.8885068912
 51
90.0
  0
LINE
  5
28C
330
20A
100
AcDbEntity
  8
DV3_Default
  6
Continuous
 62
     7
100
AcDbLine
 10
134.4685467687
 20
213.9690644989
 30
0.0
 11
103.4685467687
 21
213.9690644989
 31
0.0
  0
LINE
  5
28D
330
20A
100
AcDbEntity
  8
DV3_Default
  6
Continuous
 62
     7
100
AcDbLine
 10
134.4685467687
 20
213.9687675642
 30
0.0
 11
103.4685467687
 21
213.9687675642
 31
0.0
  0
LINE
  5
28E
330
20A
100
AcDbEntity
  8
DV3_Default
  6
Continuous
 62
     7
100
AcDbLine
 10
103.4685467687
 20
41.0599907316
 30
0.0
 11
134.4685467687
 21
41.0599907316
 31
0.0
  0
ARC
  5
28F
330
20A
100
AcDbEntity
  8
DV3_Default
  6
Continuous
 62
     7
100
AcDbCircle
 10
103.4685467831
 20
213.4690644845
 30
0.0
 40
0.5000000143857064
100
AcDbArc
 50
90.0000016485
 51
180.0000021989
  0
ARC
  5
290
330
20A
100
AcDbEntity
  8
DV3_Default
  6
Continuous
 62
     7
100
AcDbCircle
 10
134.4685467543
 20
213.4690644845
 30
0.0
 40
0.5000000143842139
100
AcDbArc
 50
0.0
 51
89.9999983517
  0
ARC
  5
291
330
20A
100
AcDbEntity
  8
DV3_Default
  6
Continuous
 62
     7
100
AcDbCircle
 10
103.4685467687
 20
41.5599906912
 30
0.0
 40
0.4999999999996517
100
AcDbArc
 50
180.0001235341
 51
270.0
  0
ARC
  5
292
330
20A
100
AcDbEntity
  8
DV3_Default
  6
Continuous
 62
     7
100
AcDbCircle
 10
134.4685467687
 20
41.5599906964
 30
0.0
 40
0.4999999824021883
100
AcDbArc
 50
270.0000000001
 51
359.9999973871
  0
LINE
  5
293
330
20A
100
AcDbEntity
  8
DV3_Default
  6
Continuous
 62
     7
100
AcDbLine
 10
99.2375134147
 20
210.9686165268
 30
0.0
 11
102.9685467687
 21
210.9686165268
 31
0.0
  0
ARC
  5
294
330
20A
100
AcDbEntity
  8
DV3_Default
  6
Continuous
 62
     7
100
AcDbCircle
 10
118.9685467687
 20
206.9683124327
 30
0.0
 40
18.0
100
AcDbArc
 50
167.1594188061
 51
207.1728407176
  0
ENDBLK
  5
296
330
20A
100
AcDbEntity
  8
0
100
AcDbBlockEnd
  0
ENDSEC
  0
SECTION
  2
ENTITIES
  0
INSERT
  5
5F
330
1F
100
AcDbEntity
  8
Default
100
AcDbBlockReference
  2
SEANNOT_GROUP
 10
0.0
 20
0.0
 30
0.0
  0
INSERT
  5
66
330
1F
100
AcDbEntity
  8
Default
100
AcDbBlockReference
  2
SEANNOT_GROUP1
 10
0.0
 20
0.0
 30
0.0
  0
INSERT
  5
6C
330
1F
100
AcDbEntity
  8
Default
100
AcDbBlockReference
  2
SEANNOT_GROUP2
 10
0.0
 20
0.0
 30
0.0
  0
INSERT
  5
71
330
1F
100
AcDbEntity
  8
Default
100
AcDbBlockReference
  2
SEANNOT_GROUP3
 10
0.0
 20
0.0
 30
0.0
  0
INSERT
  5
76
330
1F
100
AcDbEntity
  8
Default
100
AcDbBlockReference
  2
SE
 10
0.0
 20
0.0
 30
0.0
  0
INSERT
  5
19D
330
1F
100
AcDbEntity
  8
Default
100
AcDbBlockReference
  2
SE1
 10
0.0
 20
0.0
 30
0.0
  0
INSERT
  5
20B
330
1F
100
AcDbEntity
  8
Default
100
AcDbBlockReference
  2
SE2
 10
0.0
 20
0.0
 30
0.0
  0
TEXT
  5
298
330
1F
100
AcDbEntity
  8
Default
  6
Continuous
 62
     7
100
AcDbText
 10
5.9362635081
 20
53.4225120485
 30
0.0
 40
10.0
  1
Grohe AG^J
  7
SEACAD_seiso_ttf
 11
5.9362635081
 21
63.4225120485
 31
0.0
100
AcDbText
 73
     3
  0
TEXT
  5
299
330
1F
100
AcDbEntity
  8
Default
  6
Continuous
 62
     7
100
AcDbText
 10
5.9362635081
 20
37.0588756849
 30
0.0
 40
10.0
  1
 
  7
SEACAD_seiso_ttf
 11
5.9362635081
 21
47.0588756849
 31
0.0
100
AcDbText
 73
     3
  0
TEXT
  5
29A
330
1F
100
AcDbEntity
  8
Default
  6
Continuous
 62
     7
100
AcDbText
 10
5.9362635081
 20
20.6952393213
 30
0.0
 40
10.0
  1
ecn:
  7
SEACAD_seiso_ttf
 11
5.9362635081
 21
30.6952393213
 31
0.0
100
AcDbText
 73
     3
  0
TEXT
  5
29B
330
1F
100
AcDbEntity
  8
Default
  6
Continuous
 62
     7
100
AcDbText
 10
5.9362635081
 20
4.3316029576
 30
0.0
 40
10.0
  1
unit: mm
  7
SEACAD_seiso_ttf
 11
5.9362635081
 21
14.3316029576
 31
0.0
100
AcDbText
 73
     3
  0
LINE
  5
29C
330
1F
100
AcDbEntity
  8
Default
  6
Continuous
 62
     7
100
AcDbLine
 10
0.0
 20
0.0
 30
0.0
 11
100.0
 21
0.0
 31
0.0
  0
LINE
  5
29D
330
1F
100
AcDbEntity
  8
Default
  6
Continuous
 62
     7
100
AcDbLine
 10
0.0
 20
0.0
 30
0.0
 11
0.0
 21
100.0
 31
0.0
  0
TEXT
  5
29E
330
1F
100
AcDbEntity
  8
Default
  6
Continuous
 62
     7
100
AcDbText
 10
24.3923665681
 20
-18.2375342018
 30
0.0
 40
10.0
  1
100 mm
  7
SEACAD_seiso_ttf
 11
24.3923665681
 21
-8.2375342018
 31
0.0
100
AcDbText
 73
     3
  0
TEXT
  5
29F
330
1F
100
AcDbEntity
  8
Default
  6
Continuous
 62
     7
100
AcDbText
 10
-7.6150308803
 20
24.6231930421
 30
0.0
 40
10.0
  1
100 mm
 50
90.0
  7
SEACAD_seiso_ttf
 11
-17.6150308803
 21
24.6231930421
 31
0.0
100
AcDbText
 73
     3
  0
TEXT
  5
2A0
330
1F
100
AcDbEntity
  8
Default
  6
Continuous
 62
     7
100
AcDbText
 10
28.4878128572
 20
20.0907663715
 30
0.0
 40
10.0
  1
221455
  7
SEACAD_seiso_ttf
 11
28.4878128572
 21
30.0907663715
 31
0.0
100
AcDbText
 73
     3
  0
TEXT
  5
2A1
330
1F
100
AcDbEntity
  8
Default
  6
Continuous
 62
     7
100
AcDbText
 10
5.9012241913
 20
36.7242780188
 30
0.0
 40
10.0
  1
23184000
  7
SEACAD_seiso_ttf
 11
5.9012241913
 21
46.7242780188
 31
0.0
100
AcDbText
 73
     3
  0
ENDSEC
  0
SECTION
  2
OBJECTS
  0
DICTIONARY
  5
C
330
0
100
AcDbDictionary
281
     1
  3
ACAD_GROUP
350
D
  3
ACAD_LAYOUT
350
1A
  3
ACAD_MLEADERSTYLE
350
2A5
  3
ACAD_MLINESTYLE
350
17
  3
ACAD_PLOTSETTINGS
350
19
  3
ACAD_PLOTSTYLENAME
350
E
  3
ACAD_SCALELIST
350
3B
  3
ACAD_TABLESTYLE
350
2A4
  3
ACAD_VISUALSTYLE
350
2A
  3
AcDbVariableDictionary
350
2A2
  0
DICTIONARY
  5
D
102
{ACAD_REACTORS
330
C
102
}
330
C
100
AcDbDictionary
281
     1
  0
DICTIONARY
  5
1A
102
{ACAD_REACTORS
330
C
102
}
330
C
100
AcDbDictionary
281
     1
  3
Layout1
350
1E
  3
Model
350
22
  0
DICTIONARY
  5
2A5
102
{ACAD_REACTORS
330
C
102
}
330
C
100
AcDbDictionary
281
     1
  0
DICTIONARY
  5
17
102
{ACAD_REACTORS
330
C
102
}
330
C
100
AcDbDictionary
281
     1
  3
Standard
350
18
  0
DICTIONARY
  5
19
102
{ACAD_REACTORS
330
C
102
}
330
C
100
AcDbDictionary
281
     1
  0
ACDBDICTIONARYWDFLT
  5
E
102
{ACAD_REACTORS
330
C
102
}
330
C
100
AcDbDictionary
281
     1
  3
Normal
350
F
100
AcDbDictionaryWithDefault
340
F
  0
DICTIONARY
  5
3B
102
{ACAD_REACTORS
330
C
102
}
330
C
100
AcDbDictionary
281
     1
  3
A0
350
3C
  3
A1
350
3D
  3
A2
350
3E
  3
A3
350
3F
  3
A4
350
40
  3
A5
350
41
  3
A6
350
42
  3
A7
350
43
  3
A8
350
44
  3
A9
350
45
  3
B0
350
46
  3
B1
350
47
  3
B2
350
48
  3
B3
350
49
  3
B4
350
4A
  3
B5
350
4B
  3
B6
350
4C
  3
B7
350
4D
  3
B8
350
4E
  3
B9
350
4F
  3
C0
350
50
  3
C1
350
51
  3
C2
350
52
  3
C3
350
53
  3
C4
350
54
  3
C5
350
55
  3
C6
350
56
  3
C7
350
57
  3
C8
350
58
  3
C9
350
59
  3
D0
350
5A
  3
D1
350
5B
  3
D2
350
5C
  0
DICTIONARY
  5
2A4
102
{ACAD_REACTORS
330
C
102
}
330
C
100
AcDbDictionary
281
     1
  0
DICTIONARY
  5
2A
102
{ACAD_REACTORS
330
C
102
}
330
C
100
AcDbDictionary
281
     1
  3
2dWireframe
350
2F
  3
3D Hidden
350
31
  3
3dWireframe
350
30
  3
Basic
350
32
  3
Brighten
350
36
  3
ColorChange
350
3A
  3
Conceptual
350
34
  3
Dim
350
35
  3
Facepattern
350
39
  3
Flat
350
2B
  3
FlatWithEdges
350
2C
  3
Gouraud
350
2D
  3
GouraudWithEdges
350
2E
  3
Linepattern
350
38
  3
Realistic
350
33
  3
Thicken
350
37
  0
DICTIONARY
  5
2A2
102
{ACAD_REACTORS
330
C
102
}
330
C
100
AcDbDictionary
281
     1
  3
CANNOSCALE
350
2A3
  3
PSOLHEIGHT
350
2A7
  3
PSOLWIDTH
350
2A6
  0
LAYOUT
  5
1E
102
{ACAD_REACTORS
330
1A
102
}
330
1A
100
AcDbPlotSettings
  1

  2
none_device
  4

  6

 40
0.0
 41
0.0
 42
0.0
 43
0.0
 44
0.0
 45
0.0
 46
0.0
 47
0.0
 48
0.0
 49
0.0
140
0.0
141
0.0
142
1.0
143
1.0
 70
   688
 72
     0
 73
     0
 74
     5
  7

 75
    16
147
1.0
148
0.0
149
0.0
100
AcDbLayout
  1
Layout1
 70
     1
 71
     1
 10
0.0
 20
0.0
 11
3000.0
 21
4500.0
 12
0.0
 22
0.0
 32
0.0
 14
0.0
 24
0.0
 34
0.0
 15
3000.0
 25
4500.0
 35
0.0
146
0.0
 13
0.0
 23
0.0
 33
0.0
 16
1.0
 26
0.0
 36
0.0
 17
0.0
 27
1.0
 37
0.0
 76
     0
330
1B
  0
LAYOUT
  5
22
102
{ACAD_REACTORS
330
1A
102
}
330
1A
100
AcDbPlotSettings
  1

  2
none_device
  4

  6

 40
0.0
 41
0.0
 42
0.0
 43
0.0
 44
0.0
 45
0.0
 46
0.0
 47
0.0
 48
0.0
 49
0.0
140
0.0
141
0.0
142
1.0
143
1.0
 70
  1712
 72
     0
 73
     0
 74
     0
  7

 75
     0
147
1.0
148
0.0
149
0.0
100
AcDbLayout
  1
Model
 70
     1
 71
     0
 10
0.0
 20
0.0
 11
3000.0
 21
4500.0
 12
0.0
 22
0.0
 32
0.0
 14
0.0
 24
0.0
 34
0.0
 15
3000.0
 25
4500.0
 35
0.0
146
0.0
 13
0.0
 23
0.0
 33
0.0
 16
1.0
 26
0.0
 36
0.0
 17
0.0
 27
1.0
 37
0.0
 76
     0
330
1F
331
29
  0
MLINESTYLE
  5
18
102
{ACAD_REACTORS
330
17
102
}
330
17
100
AcDbMlineStyle
  2
Standard
 70
     0
  3

 62
   256
 51
90.0
 52
90.0
 71
     2
 49
0.5
 62
   256
  6
BYLAYER
 49
-0.5
 62
   256
  6
BYLAYER
  0
ACDBPLACEHOLDER
  5
F
102
{ACAD_REACTORS
330
E
102
}
330
E
  0
SCALE
  5
3C
102
{ACAD_REACTORS
330
3B
102
}
330
3B
100
AcDbScale
 70
     0
300
1:1
140
1.0
141
1.0
290
     1
  0
SCALE
  5
3D
102
{ACAD_REACTORS
330
3B
102
}
330
3B
100
AcDbScale
 70
     0
300
1:2
140
1.0
141
2.0
290
     0
  0
SCALE
  5
3E
102
{ACAD_REACTORS
330
3B
102
}
330
3B
100
AcDbScale
 70
     0
300
1:4
140
1.0
141
4.0
290
     0
  0
SCALE
  5
3F
102
{ACAD_REACTORS
330
3B
102
}
330
3B
100
AcDbScale
 70
     0
300
1:5
140
1.0
141
5.0
290
     0
  0
SCALE
  5
40
102
{ACAD_REACTORS
330
3B
102
}
330
3B
100
AcDbScale
 70
     0
300
1:8
140
1.0
141
8.0
290
     0
  0
SCALE
  5
41
102
{ACAD_REACTORS
330
3B
102
}
330
3B
100
AcDbScale
 70
     0
300
1:10
140
1.0
141
10.0
290
     0
  0
SCALE
  5
42
102
{ACAD_REACTORS
330
3B
102
}
330
3B
100
AcDbScale
 70
     0
300
1:16
140
1.0
141
16.0
290
     0
  0
SCALE
  5
43
102
{ACAD_REACTORS
330
3B
102
}
330
3B
100
AcDbScale
 70
     0
300
1:20
140
1.0
141
20.0
290
     0
  0
SCALE
  5
44
102
{ACAD_REACTORS
330
3B
102
}
330
3B
100
AcDbScale
 70
     0
300
1:30
140
1.0
141
30.0
290
     0
  0
SCALE
  5
45
102
{ACAD_REACTORS
330
3B
102
}
330
3B
100
AcDbScale
 70
     0
300
1:40
140
1.0
141
40.0
290
     0
  0
SCALE
  5
46
102
{ACAD_REACTORS
330
3B
102
}
330
3B
100
AcDbScale
 70
     0
300
1:50
140
1.0
141
50.0
290
     0
  0
SCALE
  5
47
102
{ACAD_REACTORS
330
3B
102
}
330
3B
100
AcDbScale
 70
     0
300
1:100
140
1.0
141
100.0
290
     0
  0
SCALE
  5
48
102
{ACAD_REACTORS
330
3B
102
}
330
3B
100
AcDbScale
 70
     0
300
2:1
140
2.0
141
1.0
290
     0
  0
SCALE
  5
49
102
{ACAD_REACTORS
330
3B
102
}
330
3B
100
AcDbScale
 70
     0
300
4:1
140
4.0
141
1.0
290
     0
  0
SCALE
  5
4A
102
{ACAD_REACTORS
330
3B
102
}
330
3B
100
AcDbScale
 70
     0
300
8:1
140
8.0
141
1.0
290
     0
  0
SCALE
  5
4B
102
{ACAD_REACTORS
330
3B
102
}
330
3B
100
AcDbScale
 70
     0
300
10:1
140
10.0
141
1.0
290
     0
  0
SCALE
  5
4C
102
{ACAD_REACTORS
330
3B
102
}
330
3B
100
AcDbScale
 70
     0
300
100:1
140
100.0
141
1.0
290
     0
  0
SCALE
  5
4D
102
{ACAD_REACTORS
330
3B
102
}
330
3B
100
AcDbScale
 70
     0
300
1/128" = 1'-0"
140
0.0078125
141
12.0
290
     0
  0
SCALE
  5
4E
102
{ACAD_REACTORS
330
3B
102
}
330
3B
100
AcDbScale
 70
     0
300
1/64" = 1'-0"
140
0.015625
141
12.0
290
     0
  0
SCALE
  5
4F
102
{ACAD_REACTORS
330
3B
102
}
330
3B
100
AcDbScale
 70
     0
300
1/32" = 1'-0"
140
0.03125
141
12.0
290
     0
  0
SCALE
  5
50
102
{ACAD_REACTORS
330
3B
102
}
330
3B
100
AcDbScale
 70
     0
300
1/16" = 1'-0"
140
0.0625
141
12.0
290
     0
  0
SCALE
  5
51
102
{ACAD_REACTORS
330
3B
102
}
330
3B
100
AcDbScale
 70
     0
300
3/32" = 1'-0"
140
0.09375
141
12.0
290
     0
  0
SCALE
  5
52
102
{ACAD_REACTORS
330
3B
102
}
330
3B
100
AcDbScale
 70
     0
300
1/8" = 1'-0"
140
0.125
141
12.0
290
     0
  0
SCALE
  5
53
102
{ACAD_REACTORS
330
3B
102
}
330
3B
100
AcDbScale
 70
     0
300
3/16" = 1'-0"
140
0.1875
141
12.0
290
     0
  0
SCALE
  5
54
102
{ACAD_REACTORS
330
3B
102
}
330
3B
100
AcDbScale
 70
     0
300
1/4" = 1'-0"
140
0.25
141
12.0
290
     0
  0
SCALE
  5
55
102
{ACAD_REACTORS
330
3B
102
}
330
3B
100
AcDbScale
 70
     0
300
3/8" = 1'-0"
140
0.375
141
12.0
290
     0
  0
SCALE
  5
56
102
{ACAD_REACTORS
330
3B
102
}
330
3B
100
AcDbScale
 70
     0
300
1/2" = 1'-0"
140
0.5
141
12.0
290
     0
  0
SCALE
  5
57
102
{ACAD_REACTORS
330
3B
102
}
330
3B
100
AcDbScale
 70
     0
300
3/4" = 1'-0"
140
0.75
141
12.0
290
     0
  0
SCALE
  5
58
102
{ACAD_REACTORS
330
3B
102
}
330
3B
100
AcDbScale
 70
     0
300
1" = 1'-0"
140
1.0
141
12.0
290
     0
  0
SCALE
  5
59
102
{ACAD_REACTORS
330
3B
102
}
330
3B
100
AcDbScale
 70
     0
300
1-1/2" = 1'-0"
140
1.5
141
12.0
290
     0
  0
SCALE
  5
5A
102
{ACAD_REACTORS
330
3B
102
}
330
3B
100
AcDbScale
 70
     0
300
3" = 1'-0"
140
3.0
141
12.0
290
     0
  0
SCALE
  5
5B
102
{ACAD_REACTORS
330
3B
102
}
330
3B
100
AcDbScale
 70
     0
300
6" = 1'-0"
140
6.0
141
12.0
290
     0
  0
SCALE
  5
5C
102
{ACAD_REACTORS
330
3B
102
}
330
3B
100
AcDbScale
 70
     0
300
1'-0" = 1'-0"
140
12.0
141
12.0
290
     0
  0
VISUALSTYLE
  5
2F
102
{ACAD_REACTORS
330
2A
102
}
330
2A
100
AcDbVisualStyle
  2
2dWireframe
 70
     4
 71
     0
 72
     2
 73
     0
 90
        0
 40
-0.6
 41
-30.0
 62
     5
 63
     7
 74
     1
 91
        4
 64
     7
 65
   257
 75
     1
175
     1
 42
1.0
 92
        0
 66
   257
 43
1.0
 76
     1
 77
     6
 78
     2
 67
     7
 79
     5
170
     0
171
     0
290
     0
174
     0
 93
        1
 44
0.0
173
     0
291
     0
 45
0.0
1001
ACAD
1000
AcDbSavedByObjectVersion
1070
     0
  0
VISUALSTYLE
  5
31
102
{ACAD_REACTORS
330
2A
102
}
330
2A
100
AcDbVisualStyle
  2
3D Hidden
 70
     6
 71
     1
 72
     2
 73
     2
 90
        0
 40
-0.6
 41
-30.0
 62
     5
 63
     7
 74
     2
 91
        2
 64
     7
 65
   257
 75
     2
175
     1
 42
40.0
 92
        0
 66
   257
 43
1.0
 76
     1
 77
     6
 78
     2
 67
     7
 79
     3
170
     0
171
     0
290
     0
174
     0
 93
        1
 44
0.0
173
     0
291
     0
 45
0.0
1001
ACAD
1000
AcDbSavedByObjectVersion
1070
     0
  0
VISUALSTYLE
  5
30
102
{ACAD_REACTORS
330
2A
102
}
330
2A
100
AcDbVisualStyle
  2
3dWireframe
 70
     5
 71
     0
 72
     2
 73
     0
 90
        0
 40
-0.6
 41
-30.0
 62
     5
 63
     7
 74
     1
 91
        4
 64
     7
 65
   257
 75
     1
175
     1
 42
1.0
 92
        0
 66
   257
 43
1.0
 76
     1
 77
     6
 78
     2
 67
     7
 79
     5
170
     0
171
     0
290
     0
174
     0
 93
        1
 44
0.0
173
     0
291
     0
 45
0.0
1001
ACAD
1000
AcDbSavedByObjectVersion
1070
     0
  0
VISUALSTYLE
  5
32
102
{ACAD_REACTORS
330
2A
102
}
330
2A
100
AcDbVisualStyle
  2
Basic
 70
     7
 71
     1
 72
     0
 73
     1
 90
        0
 40
-0.6
 41
-30.0
 62
     5
 63
     7
 74
     0
 91
        4
 64
     7
 65
   257
 75
     1
175
     1
 42
1.0
 92
        8
 66
     7
 43
1.0
 76
     1
 77
     6
 78
     2
 67
     7
 79
     5
170
     0
171
     0
290
     0
174
     0
 93
        1
 44
0.0
173
     0
291
     1
 45
0.0
1001
ACAD
1000
AcDbSavedByObjectVersion
1070
     0
  0
VISUALSTYLE
  5
36
102
{ACAD_REACTORS
330
2A
102
}
330
2A
100
AcDbVisualStyle
  2
Brighten
 70
    12
 71
     2
 72
     2
 73
     0
 90
        0
 40
-0.6
 41
-30.0
 62
     5
 63
     7
 74
     1
 91
        4
 64
     7
 65
   257
 75
     1
175
     1
 42
1.0
 92
        8
 66
     7
 43
1.0
 76
     1
 77
     6
 78
     2
 67
     7
 79
     5
170
     0
171
     0
290
     0
174
     0
 93
        1
 44
50.0
173
     0
291
     1
 45
0.0
1001
ACAD
1000
AcDbSavedByObjectVersion
1070
     0
  0
VISUALSTYLE
  5
3A
102
{ACAD_REACTORS
330
2A
102
}
330
2A
100
AcDbVisualStyle
  2
ColorChange
 70
    16
 71
     2
 72
     2
 73
     3
 90
        0
 40
-0.6
 41
-30.0
 62
     5
 63
     8
 74
     1
 91
        4
 64
     7
 65
   257
 75
     1
175
     1
 42
1.0
 92
        8
 66
     8
 43
1.0
 76
     1
 77
     6
 78
     2
 67
     7
 79
     5
170
     0
171
     0
290
     0
174
     0
 93
        1
 44
0.0
173
     0
291
     1
 45
0.0
1001
ACAD
1000
AcDbSavedByObjectVersion
1070
     0
  0
VISUALSTYLE
  5
34
102
{ACAD_REACTORS
330
2A
102
}
330
2A
100
AcDbVisualStyle
  2
Conceptual
 70
     9
 71
     3
 72
     2
 73
     0
 90
        0
 40
-0.6
 41
-30.0
 62
     5
 63
     7
 74
     2
 91
        2
 64
     7
 65
   257
 75
     1
175
     1
 42
40.0
 92
        8
 66
     7
 43
1.0
 76
     1
 77
     6
 78
     2
 67
     7
 79
     3
170
     0
171
     0
290
     0
174
     0
 93
        1
 44
0.0
173
     0
291
     0
 45
0.0
1001
ACAD
1000
AcDbSavedByObjectVersion
1070
     0
  0
VISUALSTYLE
  5
35
102
{ACAD_REACTORS
330
2A
102
}
330
2A
100
AcDbVisualStyle
  2
Dim
 70
    11
 71
     2
 72
     2
 73
     0
 90
        0
 40
-0.6
 41
-30.0
 62
     5
 63
     7
 74
     1
 91
        4
 64
     7
 65
   257
 75
     1
175
     1
 42
1.0
 92
        8
 66
     7
 43
1.0
 76
     1
 77
     6
 78
     2
 67
     7
 79
     5
170
     0
171
     0
290
     0
174
     0
 93
        1
 44
-50.0
173
     0
291
     1
 45
0.0
1001
ACAD
1000
AcDbSavedByObjectVersion
1070
     0
  0
VISUALSTYLE
  5
39
102
{ACAD_REACTORS
330
2A
102
}
330
2A
100
AcDbVisualStyle
  2
Facepattern
 70
    15
 71
     2
 72
     2
 73
     0
 90
        0
 40
-0.6
 41
-30.0
 62
     5
 63
     7
 74
     1
 91
        4
 64
     7
 65
   257
 75
     1
175
     1
 42
1.0
 92
        8
 66
     7
 43
1.0
 76
     1
 77
     6
 78
     2
 67
     7
 79
     5
170
     0
171
     0
290
     0
174
     0
 93
        1
 44
0.0
173
     0
291
     1
 45
0.0
1001
ACAD
1000
AcDbSavedByObjectVersion
1070
     0
  0
VISUALSTYLE
  5
2B
102
{ACAD_REACTORS
330
2A
102
}
330
2A
100
AcDbVisualStyle
  2
Flat
 70
     0
 71
     2
 72
     1
 73
     1
 90
        2
 40
-0.6
 41
30.0
 62
     5
 63
     7
 74
     0
 91
        4
 64
     7
 65
   257
 75
     1
175
     1
 42
1.0
 92
        8
 66
     7
 43
1.0
 76
     1
 77
     6
 78
     2
 67
     7
 79
     5
170
     0
171
     0
290
     0
174
     0
 93
       13
 44
0.0
173
     0
291
     1
 45
0.0
1001
ACAD
1000
AcDbSavedByObjectVersion
1070
     0
  0
VISUALSTYLE
  5
2C
102
{ACAD_REACTORS
330
2A
102
}
330
2A
100
AcDbVisualStyle
  2
FlatWithEdges
 70
     1
 71
     2
 72
     1
 73
     1
 90
        2
 40
-0.6
 41
30.0
 62
     5
 63
     7
 74
     1
 91
        4
 64
     7
 65
   257
 75
     1
175
     1
 42
1.0
 92
        0
 66
   257
 43
1.0
 76
     1
 77
     6
 78
     2
 67
     7
 79
     5
170
     0
171
     0
290
     0
174
     0
 93
       13
 44
0.0
173
     0
291
     1
 45
0.0
1001
ACAD
1000
AcDbSavedByObjectVersion
1070
     0
  0
VISUALSTYLE
  5
2D
102
{ACAD_REACTORS
330
2A
102
}
330
2A
100
AcDbVisualStyle
  2
Gouraud
 70
     2
 71
     2
 72
     2
 73
     1
 90
        2
 40
-0.6
 41
30.0
 62
     5
 63
     7
 74
     0
 91
        4
 64
     7
 65
   257
 75
     1
175
     1
 42
1.0
 92
        0
 66
     7
 43
1.0
 76
     1
 77
     6
 78
     2
 67
     7
 79
     5
170
     0
171
     0
290
     0
174
     0
 93
       13
 44
0.0
173
     0
291
     1
 45
0.0
1001
ACAD
1000
AcDbSavedByObjectVersion
1070
     0
  0
VISUALSTYLE
  5
2E
102
{ACAD_REACTORS
330
2A
102
}
330
2A
100
AcDbVisualStyle
  2
GouraudWithEdges
 70
     3
 71
     2
 72
     2
 73
     1
 90
        2
 40
-0.6
 41
30.0
 62
     5
 63
     7
 74
     1
 91
        4
 64
     7
 65
   257
 75
     1
175
     1
 42
1.0
 92
        0
 66
   257
 43
1.0
 76
     1
 77
     6
 78
     2
 67
     7
 79
     5
170
     0
171
     0
290
     0
174
     0
 93
       13
 44
0.0
173
     0
291
     1
 45
0.0
1001
ACAD
1000
AcDbSavedByObjectVersion
1070
     0
  0
VISUALSTYLE
  5
38
102
{ACAD_REACTORS
330
2A
102
}
330
2A
100
AcDbVisualStyle
  2
Linepattern
 70
    14
 71
     2
 72
     2
 73
     0
 90
        0
 40
-0.6
 41
-30.0
 62
     5
 63
     7
 74
     1
 91
        4
 64
     7
 65
   257
 75
     7
175
     7
 42
1.0
 92
        8
 66
     7
 43
1.0
 76
     1
 77
     6
 78
     2
 67
     7
 79
     5
170
     0
171
     0
290
     0
174
     0
 93
        1
 44
0.0
173
     0
291
     1
 45
0.0
1001
ACAD
1000
AcDbSavedByObjectVersion
1070
     0
  0
VISUALSTYLE
  5
33
102
{ACAD_REACTORS
330
2A
102
}
330
2A
100
AcDbVisualStyle
  2
Realistic
 70
     8
 71
     2
 72
     2
 73
     0
 90
        0
 40
-0.6
 41
-30.0
 62
     5
 63
     7
 74
     1
 91
        0
 64
     7
 65
   257
 75
     1
175
     1
 42
1.0
 92
        8
 66
     8
 43
1.0
 76
     1
 77
     6
 78
     2
 67
     7
 79
     5
170
     0
171
     0
290
     0
174
     0
 93
       13
 44
0.0
173
     0
291
     0
 45
0.0
1001
ACAD
1000
AcDbSavedByObjectVersion
1070
     0
  0
VISUALSTYLE
  5
37
102
{ACAD_REACTORS
330
2A
102
}
330
2A
100
AcDbVisualStyle
  2
Thicken
 70
    13
 71
     2
 72
     2
 73
     0
 90
        0
 40
-0.6
 41
-30.0
 62
     5
 63
     7
 74
     1
 91
        4
 64
     7
 65
   257
 75
     1
175
     1
 42
1.0
 92
       12
 66
     7
 43
1.0
 76
     1
 77
     6
 78
     2
 67
     7
 79
     5
170
     0
171
     0
290
     0
174
     0
 93
        1
 44
0.0
173
     0
291
     1
 45
0.0
1001
ACAD
1000
AcDbSavedByObjectVersion
1070
     0
  0
DICTIONARYVAR
  5
2A3
102
{ACAD_REACTORS
330
2A2
102
}
330
2A2
100
DictionaryVariables
280
     0
  1
1:1
  0
DICTIONARYVAR
  5
2A7
102
{ACAD_REACTORS
330
2A2
102
}
330
2A2
100
DictionaryVariables
280
     0
  1
80.000000
  0
DICTIONARYVAR
  5
2A6
102
{ACAD_REACTORS
330
2A2
102
}
330
2A2
100
DictionaryVariables
280
     0
  1
5.000000
  0
ENDSEC
  0
EOF
