  0
SECTION
  2
HEADER
  9
$ACADVER
  1
AC1015
  9
$ACADMAINTVER
 70
     6
  9
$DWGCODEPAGE
  3
ANSI_1252
  9
$INSBASE
 10
0.0
 20
0.0
 30
0.0
  9
$EXTMIN
 10
0.0
 20
0.0
 30
0.0
  9
$EXTMAX
 10
3000.0
 20
4500.0
 30
0.0
  9
$LIMMIN
 10
0.0
 20
0.0
  9
$LIMMAX
 10
3000.0
 20
4500.0
  9
$ORTHOMODE
 70
     0
  9
$REGENMODE
 70
     1
  9
$FILLMODE
 70
     1
  9
$QTEXTMODE
 70
     0
  9
$MIRRTEXT
 70
     1
  9
$LTSCALE
 40
1.0
  9
$ATTMODE
 70
     1
  9
$TEXTSIZE
 40
10.0
  9
$TRACEWID
 40
1.0
  9
$TEXTSTYLE
  7
Standard
  9
$CLAYER
  8
0
  9
$CELTYPE
  6
ByLayer
  9
$CECOLOR
 62
   256
  9
$CELTSCALE
 40
1.0
  9
$DISPSILH
 70
     0
  9
$DIMSCALE
 40
1.0
  9
$DIMASZ
 40
2.5
  9
$DIMEXO
 40
0.625
  9
$DIMDLI
 40
3.75
  9
$DIMRND
 40
0.0
  9
$DIMDLE
 40
0.0
  9
$DIMEXE
 40
1.25
  9
$DIMTP
 40
0.0
  9
$DIMTM
 40
0.0
  9
$DIMTXT
 40
2.5
  9
$DIMCEN
 40
2.5
  9
$DIMTSZ
 40
0.0
  9
$DIMTOL
 70
     0
  9
$DIMLIM
 70
     0
  9
$DIMTIH
 70
     0
  9
$DIMTOH
 70
     0
  9
$DIMSE1
 70
     0
  9
$DIMSE2
 70
     0
  9
$DIMTAD
 70
     1
  9
$DIMZIN
 70
     8
  9
$DIMBLK
  1

  9
$DIMASO
 70
     1
  9
$DIMSHO
 70
     1
  9
$DIMPOST
  1

  9
$DIMAPOST
  1

  9
$DIMALT
 70
     0
  9
$DIMALTD
 70
     3
  9
$DIMALTF
 40
0.0393700787
  9
$DIMLFAC
 40
1.0
  9
$DIMTOFL
 70
     1
  9
$DIMTVP
 40
0.0
  9
$DIMTIX
 70
     0
  9
$DIMSOXD
 70
     0
  9
$DIMSAH
 70
     0
  9
$DIMBLK1
  1

  9
$DIMBLK2
  1

  9
$DIMSTYLE
  2
ISO-25
  9
$DIMCLRD
 70
     0
  9
$DIMCLRE
 70
     0
  9
$DIMCLRT
 70
     0
  9
$DIMTFAC
 40
1.0
  9
$DIMGAP
 40
0.625
  9
$DIMJUST
 70
     0
  9
$DIMSD1
 70
     0
  9
$DIMSD2
 70
     0
  9
$DIMTOLJ
 70
     0
  9
$DIMTZIN
 70
     8
  9
$DIMALTZ
 70
     0
  9
$DIMALTTZ
 70
     0
  9
$DIMUPT
 70
     0
  9
$DIMDEC
 70
     2
  9
$DIMTDEC
 70
     2
  9
$DIMALTU
 70
     2
  9
$DIMALTTD
 70
     3
  9
$DIMTXSTY
  7
Standard
  9
$DIMAUNIT
 70
     0
  9
$DIMADEC
 70
     0
  9
$DIMALTRND
 40
0.0
  9
$DIMAZIN
 70
     0
  9
$DIMDSEP
 70
    44
  9
$DIMATFIT
 70
     3
  9
$DIMFRAC
 70
     0
  9
$DIMLDRBLK
  1

  9
$DIMLUNIT
 70
     2
  9
$DIMLWD
 70
    -2
  9
$DIMLWE
 70
    -2
  9
$DIMTMOVE
 70
     0
  9
$LUNITS
 70
     2
  9
$LUPREC
 70
     4
  9
$SKETCHINC
 40
1.0
  9
$FILLETRAD
 40
10.0
  9
$AUNITS
 70
     0
  9
$AUPREC
 70
     0
  9
$MENU
  1
.
  9
$ELEVATION
 40
0.0
  9
$PELEVATION
 40
0.0
  9
$THICKNESS
 40
0.0
  9
$LIMCHECK
 70
     0
  9
$CHAMFERA
 40
0.0
  9
$CHAMFERB
 40
0.0
  9
$CHAMFERC
 40
0.0
  9
$CHAMFERD
 40
0.0
  9
$SKPOLY
 70
     0
  9
$TDCREATE
 40
2458212.596711192
  9
$TDUCREATE
 40
2458212.513377859
  9
$TDUPDATE
 40
2458212.596717315
  9
$TDUUPDATE
 40
2458212.513383981
  9
$TDINDWG
 40
0.0000000116
  9
$TDUSRTIMER
 40
0.0000000116
  9
$USRTIMER
 70
     1
  9
$ANGBASE
 50
0.0
  9
$ANGDIR
 70
     0
  9
$PDMODE
 70
     0
  9
$PDSIZE
 40
0.0
  9
$PLINEWID
 40
0.0
  9
$SPLFRAME
 70
     0
  9
$SPLINETYPE
 70
     6
  9
$SPLINESEGS
 70
     8
  9
$HANDSEED
  5
21D
  9
$SURFTAB1
 70
     6
  9
$SURFTAB2
 70
     6
  9
$SURFTYPE
 70
     6
  9
$SURFU
 70
     6
  9
$SURFV
 70
     6
  9
$UCSBASE
  2

  9
$UCSNAME
  2

  9
$UCSORG
 10
0.0
 20
0.0
 30
0.0
  9
$UCSXDIR
 10
1.0
 20
0.0
 30
0.0
  9
$UCSYDIR
 10
0.0
 20
1.0
 30
0.0
  9
$UCSORTHOREF
  2

  9
$UCSORTHOVIEW
 70
     0
  9
$UCSORGTOP
 10
0.0
 20
0.0
 30
0.0
  9
$UCSORGBOTTOM
 10
0.0
 20
0.0
 30
0.0
  9
$UCSORGLEFT
 10
0.0
 20
0.0
 30
0.0
  9
$UCSORGRIGHT
 10
0.0
 20
0.0
 30
0.0
  9
$UCSORGFRONT
 10
0.0
 20
0.0
 30
0.0
  9
$UCSORGBACK
 10
0.0
 20
0.0
 30
0.0
  9
$PUCSBASE
  2

  9
$PUCSNAME
  2

  9
$PUCSORG
 10
0.0
 20
0.0
 30
0.0
  9
$PUCSXDIR
 10
1.0
 20
0.0
 30
0.0
  9
$PUCSYDIR
 10
0.0
 20
1.0
 30
0.0
  9
$PUCSORTHOREF
  2

  9
$PUCSORTHOVIEW
 70
     0
  9
$PUCSORGTOP
 10
0.0
 20
0.0
 30
0.0
  9
$PUCSORGBOTTOM
 10
0.0
 20
0.0
 30
0.0
  9
$PUCSORGLEFT
 10
0.0
 20
0.0
 30
0.0
  9
$PUCSORGRIGHT
 10
0.0
 20
0.0
 30
0.0
  9
$PUCSORGFRONT
 10
0.0
 20
0.0
 30
0.0
  9
$PUCSORGBACK
 10
0.0
 20
0.0
 30
0.0
  9
$USERI1
 70
     0
  9
$USERI2
 70
     0
  9
$USERI3
 70
     0
  9
$USERI4
 70
     0
  9
$USERI5
 70
     0
  9
$USERR1
 40
0.0
  9
$USERR2
 40
0.0
  9
$USERR3
 40
0.0
  9
$USERR4
 40
0.0
  9
$USERR5
 40
0.0
  9
$WORLDVIEW
 70
     1
  9
$SHADEDGE
 70
     3
  9
$SHADEDIF
 70
    70
  9
$TILEMODE
 70
     1
  9
$MAXACTVP
 70
    64
  9
$PINSBASE
 10
0.0
 20
0.0
 30
0.0
  9
$PLIMCHECK
 70
     0
  9
$PEXTMIN
 10
0.0
 20
0.0
 30
0.0
  9
$PEXTMAX
 10
3000.0
 20
4500.0
 30
0.0
  9
$PLIMMIN
 10
0.0
 20
0.0
  9
$PLIMMAX
 10
3000.0
 20
4500.0
  9
$UNITMODE
 70
     0
  9
$VISRETAIN
 70
     1
  9
$PLINEGEN
 70
     0
  9
$PSLTSCALE
 70
     1
  9
$TREEDEPTH
 70
  3020
  9
$CMLSTYLE
  2
Standard
  9
$CMLJUST
 70
     0
  9
$CMLSCALE
 40
20.0
  9
$PROXYGRAPHICS
 70
     1
  9
$MEASUREMENT
 70
     1
  9
$CELWEIGHT
370
    -1
  9
$ENDCAPS
280
     0
  9
$JOINSTYLE
280
     0
  9
$LWDISPLAY
290
     0
  9
$INSUNITS
 70
     4
  9
$HYPERLINKBASE
  1

  9
$STYLESHEET
  1

  9
$XEDIT
290
     1
  9
$CEPSNTYPE
380
     0
  9
$PSTYLEMODE
290
     1
  9
$FINGERPRINTGUID
  2
{1A10D488-9B39-4992-9B82-1F1DC7DFB5A3}
  9
$VERSIONGUID
  2
{FAEB1C32-E019-11D5-929B-00C0DF256EC4}
  9
$EXTNAMES
290
     1
  9
$PSVPSCALE
 40
0.0
  9
$OLESTARTUP
290
     0
  0
ENDSEC
  0
SECTION
  2
CLASSES
  0
CLASS
  1
ACDBDICTIONARYWDFLT
  2
AcDbDictionaryWithDefault
  3
ObjectDBX Classes
 90
        0
280
     0
281
     0
  0
CLASS
  1
VISUALSTYLE
  2
AcDbVisualStyle
  3
ObjectDBX Classes
 90
     4095
280
     0
281
     0
  0
CLASS
  1
MATERIAL
  2
AcDbMaterial
  3
ObjectDBX Classes
 90
     1153
280
     0
281
     0
  0
CLASS
  1
SCALE
  2
AcDbScale
  3
ObjectDBX Classes
 90
     1153
280
     0
281
     0
  0
CLASS
  1
SUN
  2
AcDbSun
  3
SCENEOE
 90
     1153
280
     0
281
     0
  0
CLASS
  1
DICTIONARYVAR
  2
AcDbDictionaryVar
  3
ObjectDBX Classes
 90
        0
280
     0
281
     0
  0
CLASS
  1
ACDBPLACEHOLDER
  2
AcDbPlaceHolder
  3
ObjectDBX Classes
 90
        0
280
     0
281
     0
  0
CLASS
  1
LAYOUT
  2
AcDbLayout
  3
ObjectDBX Classes
 90
        0
280
     0
281
     0
  0
ENDSEC
  0
SECTION
  2
TABLES
  0
TABLE
  2
VPORT
  5
8
330
0
100
AcDbSymbolTable
 70
     1
  0
VPORT
  5
29
330
8
100
AcDbSymbolTableRecord
100
AcDbViewportTableRecord
  2
*Active
 70
     0
 10
0.0
 20
0.0
 11
1.0
 21
1.0
 12
344.1869158879
 22
148.5
 13
0.0
 23
0.0
 14
10.0
 24
10.0
 15
10.0
 25
10.0
 16
0.0
 26
0.0
 36
1.0
 17
0.0
 27
0.0
 37
0.0
 40
297.0
 41
1.9729729729
 42
50.0
 43
0.0
 44
0.0
 50
0.0
 51
0.0
 71
     0
 72
   100
 73
     1
 74
     3
 75
     0
 76
     0
 77
     0
 78
     0
281
     0
 65
     1
110
0.0
120
0.0
130
0.0
111
1.0
121
0.0
131
0.0
112
0.0
122
1.0
132
0.0
 79
     0
146
0.0
  0
ENDTAB
  0
TABLE
  2
LTYPE
  5
5
330
0
100
AcDbSymbolTable
 70
     2
  0
LTYPE
  5
14
330
5
100
AcDbSymbolTableRecord
100
AcDbLinetypeTableRecord
  2
ByBlock
 70
     0
  3

 72
    65
 73
     0
 40
0.0
  0
LTYPE
  5
15
330
5
100
AcDbSymbolTableRecord
100
AcDbLinetypeTableRecord
  2
ByLayer
 70
     0
  3

 72
    65
 73
     0
 40
0.0
  0
LTYPE
  5
16
330
5
100
AcDbSymbolTableRecord
100
AcDbLinetypeTableRecord
  2
Continuous
 70
     0
  3
Solid line
 72
    65
 73
     0
 40
0.0
  0
LTYPE
  5
6B
330
5
100
AcDbSymbolTableRecord
100
AcDbLinetypeTableRecord
  2
CENTER2
 70
     0
  3
Center (.5x) ___ _ ___ _ ___ _ ___ _ ___ _ ___
 72
    65
 73
     4
 40
28.575
 49
19.05
 74
     4
 75
     0
340
0
 46
0.0
 50
0.0
 44
0.0
 45
0.0
 49
-3.175
 74
     4
 75
     0
340
0
 46
0.0
 50
0.0
 44
0.0
 45
0.0
 49
3.175
 74
     4
 75
     0
340
0
 46
0.0
 50
0.0
 44
0.0
 45
0.0
 49
-3.175
 74
     4
 75
     0
340
0
 46
0.0
 50
0.0
 44
0.0
 45
0.0
  0
ENDTAB
  0
TABLE
  2
LAYER
  5
2
330
0
100
AcDbSymbolTable
 70
    12
  0
LAYER
  5
10
330
2
100
AcDbSymbolTableRecord
100
AcDbLayerTableRecord
  2
0
 70
     0
 62
     7
  6
Continuous
370
    -3
390
F
  0
LAYER
  5
6A
330
2
100
AcDbSymbolTableRecord
100
AcDbLayerTableRecord
  2
Default
 70
     0
 62
     7
  6
Continuous
370
    -3
390
F
  0
LAYER
  5
72
330
2
100
AcDbSymbolTableRecord
100
AcDbLayerTableRecord
  2
(2_2) 411134038_
 70
     0
 62
     7
  6
Continuous
370
    -3
390
F
  0
LAYER
  5
79
330
2
100
AcDbSymbolTableRecord
100
AcDbLayerTableRecord
  2
(6_6) 411022038_
 70
     0
 62
     7
  6
Continuous
370
    -3
390
F
  0
LAYER
  5
81
330
2
100
AcDbSymbolTableRecord
100
AcDbLayerTableRecord
  2
(9_9) 411016038_
 70
     0
 62
     7
  6
Continuous
370
    -3
390
F
  0
LAYER
  5
E2
330
2
100
AcDbSymbolTableRecord
100
AcDbLayerTableRecord
  2
(5_5) 411142031_
 70
     0
 62
     7
  6
Continuous
370
    -3
390
F
  0
LAYER
  5
EC
330
2
100
AcDbSymbolTableRecord
100
AcDbLayerTableRecord
  2
(2_2) 408676138_
 70
     0
 62
     7
  6
Continuous
370
    -3
390
F
  0
LAYER
  5
F1
330
2
100
AcDbSymbolTableRecord
100
AcDbLayerTableRecord
  2
(5_5) 408666038_
 70
     0
 62
     7
  6
Continuous
370
    -3
390
F
  0
LAYER
  5
F8
330
2
100
AcDbSymbolTableRecord
100
AcDbLayerTableRecord
  2
(3_3) 411014038_
 70
     0
 62
     7
  6
Continuous
370
    -3
390
F
  0
LAYER
  5
FB
330
2
100
AcDbSymbolTableRecord
100
AcDbLayerTableRecord
  2
(5_5) 411021031_
 70
     0
 62
     7
  6
Continuous
370
    -3
390
F
  0
LAYER
  5
10E
330
2
100
AcDbSymbolTableRecord
100
AcDbLayerTableRecord
  2
(2_2) 411849038_
 70
     0
 62
     7
  6
Continuous
370
    -3
390
F
  0
LAYER
  5
11B
330
2
100
AcDbSymbolTableRecord
100
AcDbLayerTableRecord
  2
(3_3) 408813038_
 70
     0
 62
     7
  6
Continuous
370
    -3
390
F
  0
ENDTAB
  0
TABLE
  2
STYLE
  5
3
330
0
100
AcDbSymbolTable
 70
     1
  0
STYLE
  5
11
330
3
100
AcDbSymbolTableRecord
100
AcDbTextStyleTableRecord
  2
Standard
 70
     0
 40
0.0
 41
1.0
 50
0.0
 71
     0
 42
10.0
  3
txt
  4

  0
ENDTAB
  0
TABLE
  2
VIEW
  5
6
330
0
100
AcDbSymbolTable
 70
     0
  0
ENDTAB
  0
TABLE
  2
UCS
  5
7
330
0
100
AcDbSymbolTable
 70
     0
  0
ENDTAB
  0
TABLE
  2
APPID
  5
9
330
0
100
AcDbSymbolTable
 70
     1
  0
APPID
  5
12
330
9
100
AcDbSymbolTableRecord
100
AcDbRegAppTableRecord
  2
ACAD
 70
     0
  0
ENDTAB
  0
TABLE
  2
DIMSTYLE
  5
A
330
0
100
AcDbSymbolTable
 70
     1
100
AcDbDimStyleTable
  0
DIMSTYLE
105
27
330
A
100
AcDbSymbolTableRecord
100
AcDbDimStyleTableRecord
  2
ISO-25
 70
     0
 41
2.5
 42
0.625
 43
3.75
 44
1.25
 73
     0
 74
     0
 77
     1
 78
     8
140
2.5
141
2.5
143
0.0393700787
147
0.625
171
     3
172
     1
178
     0
271
     2
272
     2
274
     3
278
    44
283
     0
284
     8
340
11
  0
ENDTAB
  0
TABLE
  2
BLOCK_RECORD
  5
1
330
0
100
AcDbSymbolTable
 70
     4
  0
BLOCK_RECORD
  5
1F
330
1
100
AcDbSymbolTableRecord
100
AcDbBlockTableRecord
  2
*Model_Space
340
22
  0
BLOCK_RECORD
  5
1B
330
1
100
AcDbSymbolTableRecord
100
AcDbBlockTableRecord
  2
*Paper_Space
340
1E
  0
BLOCK_RECORD
  5
70
330
1
100
AcDbSymbolTableRecord
100
AcDbBlockTableRecord
  2
SE
340
0
102
{BLKREFS
331
71
102
}
  0
BLOCK_RECORD
  5
124
330
1
100
AcDbSymbolTableRecord
100
AcDbBlockTableRecord
  2
SE1
340
0
102
{BLKREFS
331
125
102
}
  0
BLOCK_RECORD
  5
188
330
1
100
AcDbSymbolTableRecord
100
AcDbBlockTableRecord
  2
SE2
340
0
102
{BLKREFS
331
189
102
}
  0
ENDTAB
  0
ENDSEC
  0
SECTION
  2
BLOCKS
  0
BLOCK
  5
20
330
1F
100
AcDbEntity
  8
0
100
AcDbBlockBegin
  2
*Model_Space
 70
     0
 10
0.0
 20
0.0
 30
0.0
  3
*Model_Space
  1
*Model_Space
  0
ENDBLK
  5
21
330
1F
100
AcDbEntity
  8
0
100
AcDbBlockEnd
  0
BLOCK
  5
1C
330
1B
100
AcDbEntity
 67
     1
  8
0
100
AcDbBlockBegin
  2
*Paper_Space
 70
     0
 10
0.0
 20
0.0
 30
0.0
  3
*Paper_Space
  1
*Paper_Space
  0
ENDBLK
  5
1D
330
1B
100
AcDbEntity
 67
     1
  8
0
100
AcDbBlockEnd
  0
BLOCK
  5
122
330
70
100
AcDbEntity
  8
0
100
AcDbBlockBegin
  2
SE
 70
     0
 10
0.0
 20
0.0
 30
0.0
  3
SE
  1
SE
  0
CIRCLE
  5
73
330
70
100
AcDbEntity
  8
(2_2) 411134038_
  6
Continuous
 62
     7
100
AcDbCircle
 10
96.35
 20
414.7953891046
 30
0.0
 40
78.9999999999987
  0
ARC
  5
74
330
70
100
AcDbEntity
  8
(2_2) 411134038_
  6
Continuous
 62
     7
100
AcDbCircle
 10
96.35
 20
449.7953891046
 30
0.0
 40
18.25000000000002
100
AcDbArc
 50
0.0
 51
78.5516709662
  0
ARC
  5
75
330
70
100
AcDbEntity
  8
(2_2) 411134038_
  6
Continuous
 62
     7
100
AcDbCircle
 10
96.35
 20
449.7953891046
 30
0.0
 40
18.25000000000002
100
AcDbArc
 50
101.3832581302
 51
0.0
  0
ARC
  5
76
330
70
100
AcDbEntity
  8
(2_2) 411134038_
  6
Continuous
 62
     7
100
AcDbCircle
 10
96.35
 20
376.2953891046
 30
0.0
 40
24.25000000000001
100
AcDbArc
 50
0.0
 51
71.2958042044
  0
ARC
  5
77
330
70
100
AcDbEntity
  8
(2_2) 411134038_
  6
Continuous
 62
     7
100
AcDbCircle
 10
96.35
 20
376.2953891046
 30
0.0
 40
24.25000000000001
100
AcDbArc
 50
108.6874943834
 51
261.0061178489
  0
ARC
  5
78
330
70
100
AcDbEntity
  8
(2_2) 411134038_
  6
Continuous
 62
     7
100
AcDbCircle
 10
96.35
 20
376.2953891046
 30
0.0
 40
24.25000000000001
100
AcDbArc
 50
279.015720454
 51
360.0
  0
ARC
  5
7A
330
70
100
AcDbEntity
  8
(6_6) 411022038_
  6
Continuous
 62
     7
100
AcDbCircle
 10
96.35
 20
449.7953891046
 30
0.0
 40
15.03193111042372
100
AcDbArc
 50
281.3516690601
 51
258.64833094
  0
ELLIPSE
  5
7B
330
70
100
AcDbEntity
  8
(6_6) 411022038_
  6
Continuous
 62
     7
100
AcDbEllipse
 10
98.340502496
 20
435.0459981794
 30
0.0
 11
-0.00238491923214507
 21
0.09997155675618014
 31
0.0
210
0.0
220
0.0
230
1.0
 40
0.0137680324
 41
3.141908715814251
 42
4.58869878421296
  0
ARC
  5
7C
330
70
100
AcDbEntity
  8
(6_6) 411022038_
  6
Continuous
 62
     7
100
AcDbCircle
 10
98.2525134388
 20
439.6198107658
 30
0.0
 40
4.674294579339453
100
AcDbArc
 50
271.1074100398
 51
281.7750754651
  0
ARC
  5
7D
330
70
100
AcDbEntity
  8
(6_6) 411022038_
  6
Continuous
 62
     7
100
AcDbCircle
 10
96.35
 20
521.2491305786
 30
0.0
 40
86.32611049201722
100
AcDbArc
 50
268.6771767894
 51
271.3228232106
  0
ARC
  5
7E
330
70
100
AcDbEntity
  8
(6_6) 411022038_
  6
Continuous
 62
     7
100
AcDbCircle
 10
94.3823739944
 20
439.2436966523
 30
0.0
 40
4.296169169837244
100
AcDbArc
 50
256.8478130328
 51
269.6636052158
  0
LINE
  5
7F
330
70
100
AcDbEntity
  8
(6_6) 411022038_
  6
Continuous
 62
     7
100
AcDbLine
 10
111.2410372869
 20
447.8537311312
 30
0.0
 11
111.3117663221
 21
447.8452974738
 31
0.0
  0
LINE
  5
80
330
70
100
AcDbEntity
  8
(6_6) 411022038_
  6
Continuous
 62
     7
100
AcDbLine
 10
81.3882336835
 20
447.8452975012
 30
0.0
 11
81.4589627843
 21
447.8537311643
 31
0.0
  0
CIRCLE
  5
82
330
70
100
AcDbEntity
  8
(9_9) 411016038_
  6
Continuous
 62
     7
100
AcDbCircle
 10
96.35
 20
449.7953891046
 30
0.0
 40
18.0
  0
LINE
  5
83
330
70
100
AcDbEntity
  8
(9_9) 411016038_
  6
Continuous
 62
     7
100
AcDbLine
 10
92.8637704307
 20
468.2407401359
 30
0.0
 11
93.0152378375
 21
476.9183020578
 31
0.0
  0
SPLINE
  5
84
330
70
100
AcDbEntity
  8
(9_9) 411016038_
  6
Continuous
 62
     7
100
AcDbSpline
210
0.0
220
0.0
230
1.0
 70
     8
 71
     5
 72
    14
 73
     8
 74
     0
 42
0.000000001
 43
0.0000000001
 40
0.0
 40
0.0
 40
0.0
 40
0.0
 40
0.0
 40
0.0
 40
0.5
 40
0.5
 40
1.0
 40
1.0
 40
1.0
 40
1.0
 40
1.0
 40
1.0
 10
92.86377043073092
 20
468.2407401358504
 30
0.0
 10
92.86142029124188
 20
468.1061007346962
 30
0.0
 10
92.85907015175283
 20
467.9714613335419
 30
0.0
 10
92.80794460660374
 20
467.6744597264503
 30
0.0
 10
92.64273180022961
 20
467.464978374971
 30
0.0
 10
92.3574767931305
 20
467.3477832219355
 30
0.0
 10
92.22785274465083
 20
467.317523812369
 30
0.0
 10
92.10003206528114
 20
467.2864660455688
 30
0.0
  0
SPLINE
  5
85
330
70
100
AcDbEntity
  8
(9_9) 411016038_
  6
Continuous
 62
     7
100
AcDbSpline
210
0.0
220
0.0
230
1.0
 70
     8
 71
     5
 72
    14
 73
     8
 74
     0
 42
0.000000001
 43
0.0000000001
 40
0.0
 40
0.0
 40
0.0
 40
0.0
 40
0.0
 40
0.0
 40
0.5
 40
0.5
 40
1.0
 40
1.0
 40
1.0
 40
1.0
 40
1.0
 40
1.0
 10
99.83622956926916
 20
468.2407401358504
 30
0.0
 10
99.8385797087582
 20
468.1061007346962
 30
0.0
 10
99.84092984824724
 20
467.9714613335419
 30
0.0
 10
99.89205539339633
 20
467.6744597264503
 30
0.0
 10
100.0572681997705
 20
467.464978374971
 30
0.0
 10
100.3425232068696
 20
467.3477832219355
 30
0.0
 10
100.4721472553493
 20
467.317523812369
 30
0.0
 10
100.5999679347189
 20
467.2864660455688
 30
0.0
  0
LINE
  5
86
330
70
100
AcDbEntity
  8
(9_9) 411016038_
  6
Continuous
 62
     7
100
AcDbLine
 10
99.6847621625
 20
476.9183020578
 30
0.0
 11
99.8362295693
 21
468.2407401359
 31
0.0
  0
ARC
  5
87
330
70
100
AcDbEntity
  8
(9_9) 411016038_
  6
Continuous
 62
     7
100
AcDbCircle
 10
96.35
 20
449.7953891046
 30
0.0
 40
27.50000000000057
100
AcDbArc
 50
83.4063204254
 51
96.5936795746
  0
ARC
  5
88
330
70
100
AcDbEntity
  8
(9_9) 411016038_
  6
Continuous
 62
     7
100
AcDbCircle
 10
93.2152073765
 20
476.9148115765
 30
0.0
 40
0.2000000000000005
100
AcDbArc
 50
96.5936795746
 51
179.0
  0
ARC
  5
89
330
70
100
AcDbEntity
  8
(9_9) 411016038_
  6
Continuous
 62
     7
100
AcDbCircle
 10
99.4847926235
 20
476.9148115765
 30
0.0
 40
0.200000000000002
100
AcDbArc
 50
1.0
 51
83.4063204254
  0
ARC
  5
8A
330
70
100
AcDbEntity
  8
(9_9) 411016038_
  6
Continuous
 62
     7
100
AcDbCircle
 10
96.4795730535
 20
452.5864842115
 30
0.0
 40
12.29854377240219
100
AcDbArc
 50
81.0167883946
 51
83.0213728852
  0
ELLIPSE
  5
8B
330
70
100
AcDbEntity
  8
(9_9) 411016038_
  6
Continuous
 62
     7
100
AcDbEllipse
 10
92.1412181683
 20
449.574671671
 30
0.0
 11
16.81841798782461
 21
0.8820210806553819
 31
0.0
210
0.0
220
0.0
230
1.0
 40
0.9681819375
 41
1.132195976654173
 42
1.139273057077842
  0
ARC
  5
8C
330
70
100
AcDbEntity
  8
(9_9) 411016038_
  6
Continuous
 62
     7
100
AcDbCircle
 10
96.35
 20
449.7953891046
 30
0.0
 40
15.05
100
AcDbArc
 50
291.6994169517
 51
306.3005830483
  0
ARC
  5
8D
330
70
100
AcDbEntity
  8
(9_9) 411016038_
  6
Continuous
 62
     7
100
AcDbCircle
 10
96.35
 20
449.7953891046
 30
0.0
 40
15.05
100
AcDbArc
 50
52.1994169517
 51
69.8005830483
  0
ARC
  5
8E
330
70
100
AcDbEntity
  8
(9_9) 411016038_
  6
Continuous
 62
     7
100
AcDbCircle
 10
96.35
 20
449.7953891046
 30
0.0
 40
15.05
100
AcDbArc
 50
233.6994169517
 51
248.3005830483
  0
ARC
  5
8F
330
70
100
AcDbEntity
  8
(9_9) 411016038_
  6
Continuous
 62
     7
100
AcDbCircle
 10
96.35
 20
449.7953891046
 30
0.0
 40
15.05
100
AcDbArc
 50
110.1994169517
 51
127.8005830483
  0
ARC
  5
90
330
70
100
AcDbEntity
  8
(9_9) 411016038_
  6
Continuous
 62
     7
100
AcDbCircle
 10
92.6249228088
 20
451.5127688022
 30
0.0
 40
16.46832801120687
100
AcDbArc
 50
37.9321694226
 51
38.1566576019
  0
ARC
  5
91
330
70
100
AcDbEntity
  8
(9_9) 411016038_
  6
Continuous
 62
     7
100
AcDbCircle
 10
99.7203640068
 20
452.1333881553
 30
0.0
 40
16.46832800933184
100
AcDbArc
 50
277.4321694226
 51
277.6566576019
  0
ARC
  5
92
330
70
100
AcDbEntity
  8
(9_9) 411016038_
  6
Continuous
 62
     7
100
AcDbCircle
 10
92.2912776194
 20
449.2078444439
 30
0.0
 40
16.46386939174797
100
AcDbArc
 50
305.2451001435
 51
305.494382824
  0
ARC
  5
93
330
70
100
AcDbEntity
  8
(9_9) 411016038_
  6
Continuous
 62
     7
100
AcDbCircle
 10
98.9990613084
 20
452.9260296585
 30
0.0
 40
16.46386939242416
100
AcDbArc
 50
292.5056171748
 51
292.7548998542
  0
ARC
  5
94
330
70
100
AcDbEntity
  8
(9_9) 411016038_
  6
Continuous
 62
     7
100
AcDbCircle
 10
92.9195892526
 20
447.5464170714
 30
0.0
 40
16.46832801017212
100
AcDbArc
 50
95.9321694226
 51
96.1566576019
  0
ARC
  5
95
330
70
100
AcDbEntity
  8
(9_9) 411016038_
  6
Continuous
 62
     7
100
AcDbCircle
 10
100.4087223807
 20
449.207844444
 30
0.0
 40
16.46386939184367
100
AcDbArc
 50
234.505617176
 51
234.7548998565
  0
ARC
  5
96
330
70
100
AcDbEntity
  8
(9_9) 411016038_
  6
Continuous
 62
     7
100
AcDbCircle
 10
100.1187564587
 20
448.1761090623
 30
0.0
 40
16.46832800974855
100
AcDbArc
 50
219.4321694238
 51
219.6566576019
  0
ARC
  5
97
330
70
100
AcDbEntity
  8
(9_9) 411016038_
  6
Continuous
 62
     7
100
AcDbCircle
 10
92.2772883164
 20
450.2764874631
 30
0.0
 40
16.46386939102677
100
AcDbArc
 50
56.005617176
 51
56.2548998565
  0
ARC
  5
98
330
70
100
AcDbEntity
  8
(9_9) 411016038_
  6
Continuous
 62
     7
100
AcDbCircle
 10
99.7804107474
 20
447.5464170714
 30
0.0
 40
16.46832801024439
100
AcDbArc
 50
83.8433423981
 51
84.0678305774
  0
ARC
  5
99
330
70
100
AcDbEntity
  8
(9_9) 411016038_
  6
Continuous
 62
     7
100
AcDbCircle
 10
92.5812435411
 20
448.1761090625
 30
0.0
 40
16.46832801002579
100
AcDbArc
 50
320.3433423981
 51
320.5678305762
  0
ARC
  5
9A
330
70
100
AcDbEntity
  8
(9_9) 411016038_
  6
Continuous
 62
     7
100
AcDbCircle
 10
92.9796359935
 20
452.1333881568
 30
0.0
 40
16.46832801089383
100
AcDbArc
 50
262.3433423981
 51
262.5678305774
  0
ARC
  5
9B
330
70
100
AcDbEntity
  8
(9_9) 411016038_
  6
Continuous
 62
     7
100
AcDbCircle
 10
93.7009386912
 20
452.9260296576
 30
0.0
 40
16.46386939142763
100
AcDbArc
 50
247.2451001458
 51
247.4943828252
  0
ARC
  5
9C
330
70
100
AcDbEntity
  8
(9_9) 411016038_
  6
Continuous
 62
     7
100
AcDbCircle
 10
100.0750771899
 20
451.5127688032
 30
0.0
 40
16.46832800956725
100
AcDbArc
 50
141.8433423981
 51
142.0678305774
  0
ARC
  5
9D
330
70
100
AcDbEntity
  8
(9_9) 411016038_
  6
Continuous
 62
     7
100
AcDbCircle
 10
100.4227116841
 20
450.2764874624
 30
0.0
 40
16.46386939189239
100
AcDbArc
 50
123.7451001435
 51
123.994382824
  0
ARC
  5
9E
330
70
100
AcDbEntity
  8
(9_9) 411016038_
  6
Continuous
 62
     7
100
AcDbCircle
 10
98.9162029255
 20
446.5964770026
 30
0.0
 40
16.46386939179955
100
AcDbArc
 50
65.7451001435
 51
65.994382824
  0
LINE
  5
9F
330
70
100
AcDbEntity
  8
(9_9) 411016038_
  6
Continuous
 62
     7
100
AcDbLine
 10
101.8505811373
 20
435.8034156384
 30
0.0
 11
101.8496941917
 21
435.8056672809
 31
0.0
  0
LINE
  5
A0
330
70
100
AcDbEntity
  8
(9_9) 411016038_
  6
Continuous
 62
     7
100
AcDbLine
 10
105.612646483
 20
461.6344065064
 30
0.0
 11
105.6141364048
 21
461.6363135195
 31
0.0
  0
LINE
  5
A1
330
70
100
AcDbEntity
  8
(9_9) 411016038_
  6
Continuous
 62
     7
100
AcDbLine
 10
87.4004369415
 20
437.71796082
 30
0.0
 11
87.3989974499
 21
437.7160154588
 31
0.0
  0
LINE
  5
A2
330
70
100
AcDbEntity
  8
(9_9) 411016038_
  6
Continuous
 62
     7
100
AcDbLine
 10
90.8503058083
 20
435.8056672809
 30
0.0
 11
90.8494188627
 21
435.8034156384
 31
0.0
  0
LINE
  5
A3
330
70
100
AcDbEntity
  8
(9_9) 411016038_
  6
Continuous
 62
     7
100
AcDbLine
 10
105.2995630585
 20
437.71796082
 30
0.0
 11
105.3010025501
 21
437.7160154588
 31
0.0
  0
LINE
  5
A4
330
70
100
AcDbEntity
  8
(9_9) 411016038_
  6
Continuous
 62
     7
100
AcDbLine
 10
87.087353517
 20
461.6344065064
 30
0.0
 11
87.0858635952
 21
461.6363135195
 31
0.0
  0
LINE
  5
A5
330
70
100
AcDbEntity
  8
(9_9) 411016038_
  6
Continuous
 62
     7
100
AcDbLine
 10
91.2183986411
 20
463.9242822107
 30
0.0
 11
91.2175709407
 21
463.9265562991
 31
0.0
  0
LINE
  5
A6
330
70
100
AcDbEntity
  8
(9_9) 411016038_
  6
Continuous
 62
     7
100
AcDbLine
 10
101.4816013589
 20
463.9242822107
 30
0.0
 11
101.4824290593
 21
463.9265562991
 31
0.0
  0
ARC
  5
A7
330
70
100
AcDbEntity
  8
(9_9) 411016038_
  6
Continuous
 62
     7
100
AcDbCircle
 10
95.3123880869
 20
453.5284250585
 30
0.0
 40
15.50412160608965
100
AcDbArc
 50
208.8330851332
 51
209.4205248355
  0
ARC
  5
A8
330
70
100
AcDbEntity
  8
(9_9) 411016038_
  6
Continuous
 62
     7
100
AcDbCircle
 10
95.3123880868
 20
446.0623531508
 30
0.0
 40
15.50412160604516
100
AcDbArc
 50
150.5794751645
 51
151.1669148668
  0
ARC
  5
A9
330
70
100
AcDbEntity
  8
(9_9) 411016038_
  6
Continuous
 62
     7
100
AcDbCircle
 10
96.35
 20
449.7953891046
 30
0.0
 40
15.09377592431731
100
AcDbArc
 50
166.0804533264
 51
193.9195466736
  0
ARC
  5
AA
330
70
100
AcDbEntity
  8
(9_9) 411016038_
  6
Continuous
 62
     7
100
AcDbCircle
 10
83.6545535328
 20
446.6378016442
 30
0.0
 40
2.011580576442894
100
AcDbArc
 50
193.6103088512
 51
196.9481530349
  0
ARC
  5
AB
330
70
100
AcDbEntity
  8
(9_9) 411016038_
  6
Continuous
 62
     7
100
AcDbCircle
 10
83.6612958025
 20
452.9511347153
 30
0.0
 40
2.018566943122972
100
AcDbArc
 50
163.0576248169
 51
166.3839132944
  0
ARC
  5
AC
330
70
100
AcDbEntity
  8
(9_9) 411016038_
  6
Continuous
 62
     7
100
AcDbCircle
 10
97.3876119131
 20
453.5284250585
 30
0.0
 40
15.50412160617532
100
AcDbArc
 50
330.5794751645
 51
331.1669148668
  0
ARC
  5
AD
330
70
100
AcDbEntity
  8
(9_9) 411016038_
  6
Continuous
 62
     7
100
AcDbCircle
 10
97.3876119131
 20
446.0623531508
 30
0.0
 40
15.50412160608359
100
AcDbArc
 50
28.8330851332
 51
29.4205248355
  0
ARC
  5
AE
330
70
100
AcDbEntity
  8
(9_9) 411016038_
  6
Continuous
 62
     7
100
AcDbCircle
 10
96.35
 20
449.7953891046
 30
0.0
 40
15.09377592431731
100
AcDbArc
 50
346.0804533264
 51
13.9195466736
  0
ARC
  5
AF
330
70
100
AcDbEntity
  8
(9_9) 411016038_
  6
Continuous
 62
     7
100
AcDbCircle
 10
109.038704194
 20
446.6396434949
 30
0.0
 40
2.018566946748938
100
AcDbArc
 50
343.0576248209
 51
346.3839132924
  0
ARC
  5
B0
330
70
100
AcDbEntity
  8
(9_9) 411016038_
  6
Continuous
 62
     7
100
AcDbCircle
 10
109.0454464678
 20
452.9529765652
 30
0.0
 40
2.011580575852029
100
AcDbArc
 50
13.610308851
 51
16.9481530357
  0
ARC
  5
B1
330
70
100
AcDbEntity
  8
(9_9) 411016038_
  6
Continuous
 62
     7
100
AcDbCircle
 10
95.9470408923
 20
434.2603674149
 30
0.0
 40
3.948227739732213
100
AcDbArc
 50
163.0356994767
 51
165.2338259423
  0
ARC
  5
B2
330
70
100
AcDbEntity
  8
(9_9) 411016038_
  6
Continuous
 62
     7
100
AcDbCircle
 10
98.6537328607
 20
457.4152556542
 30
0.0
 40
7.169281556529432
100
AcDbArc
 50
70.5921925123
 51
73.9933567902
  0
ARC
  5
B3
330
70
100
AcDbEntity
  8
(9_9) 411016038_
  6
Continuous
 62
     7
100
AcDbCircle
 10
100.9740686348
 20
463.9869857864
 30
0.0
 40
0.2000076167777101
100
AcDbArc
 50
125.7889286564
 51
130.2730466117
  0
ARC
  5
B4
330
70
100
AcDbEntity
  8
(9_9) 411016038_
  6
Continuous
 62
     7
100
AcDbCircle
 10
94.0452363703
 20
457.4184840747
 30
0.0
 40
7.165894070183618
100
AcDbArc
 50
106.0058390684
 51
109.4086116291
  0
ARC
  5
B5
330
70
100
AcDbEntity
  8
(9_9) 411016038_
  6
Continuous
 62
     7
100
AcDbCircle
 10
91.7259313652
 20
463.9869857864
 30
0.0
 40
0.2000076167777049
100
AcDbArc
 50
49.7269533883
 51
64.5142081829
  0
ARC
  5
B6
330
70
100
AcDbEntity
  8
(9_9) 411016038_
  6
Continuous
 62
     7
100
AcDbCircle
 10
86.2490142531
 20
438.7329970543
 30
0.0
 40
1.467555325586746
100
AcDbArc
 50
317.6082919869
 51
320.768474235
  0
ARC
  5
B7
330
70
100
AcDbEntity
  8
(9_9) 411016038_
  6
Continuous
 62
     7
100
AcDbCircle
 10
106.4498560709
 20
438.7320990179
 30
0.0
 40
1.466115551223681
100
AcDbArc
 50
219.4892502469
 51
222.3955525083
  0
ARC
  5
B8
330
70
100
AcDbEntity
  8
(9_9) 411016038_
  6
Continuous
 62
     7
100
AcDbCircle
 10
83.5450500242
 20
440.9901332276
 30
0.0
 40
3.948227739725779
100
AcDbArc
 50
109.0356994767
 51
111.2338259423
  0
ARC
  5
B9
330
70
100
AcDbEntity
  8
(9_9) 411016038_
  6
Continuous
 62
     7
100
AcDbCircle
 10
83.540701796
 20
458.5943182704
 30
0.0
 40
3.948227739720913
100
AcDbArc
 50
40.0356994767
 51
42.2338259423
  0
ARC
  5
BA
330
70
100
AcDbEntity
  8
(9_9) 411016038_
  6
Continuous
 62
     7
100
AcDbCircle
 10
109.1549499758
 20
458.6006449817
 30
0.0
 40
3.948227739707983
100
AcDbArc
 50
289.0356994767
 51
291.2338259423
  0
ARC
  5
BB
330
70
100
AcDbEntity
  8
(9_9) 411016038_
  6
Continuous
 62
     7
100
AcDbCircle
 10
109.159298204
 20
440.9964599388
 30
0.0
 40
3.948227739735573
100
AcDbArc
 50
220.0356994767
 51
222.2338259423
  0
LINE
  5
BC
330
70
100
AcDbEntity
  8
(9_9) 411016038_
  6
Continuous
 62
     7
100
AcDbLine
 10
97.5485107758
 20
434.9141673219
 30
0.0
 11
97.4941808494
 21
434.909891464
 31
0.0
  0
ARC
  5
BD
330
70
100
AcDbEntity
  8
(9_9) 411016038_
  6
Continuous
 62
     7
100
AcDbCircle
 10
83.7463772857
 20
442.0718791719
 30
0.0
 40
0.1500000000000007
100
AcDbArc
 50
221.9664505528
 51
258.0
  0
LINE
  5
BE
330
70
100
AcDbEntity
  8
(9_9) 411016038_
  6
Continuous
 62
     7
100
AcDbLine
 10
82.1603886796
 20
444.7656050991
 30
0.0
 11
82.1151009315
 21
444.6703163585
 31
0.0
  0
LINE
  5
BF
330
70
100
AcDbEntity
  8
(9_9) 411016038_
  6
Continuous
 62
     7
100
AcDbLine
 10
82.1603886796
 20
444.7656050991
 30
0.0
 11
82.1622335172
 21
444.7692710686
 31
0.0
  0
LINE
  5
C0
330
70
100
AcDbEntity
  8
(9_9) 411016038_
  6
Continuous
 62
     7
100
AcDbLine
 10
86.5691901891
 20
438.350759097
 30
0.0
 11
86.4640008086
 21
438.3426277724
 31
0.0
  0
ARC
  5
C1
330
70
100
AcDbEntity
  8
(9_9) 411016038_
  6
Continuous
 62
     7
100
AcDbCircle
 10
83.5368823297
 20
440.9997959547
 30
0.0
 40
3.953298033152388
100
AcDbArc
 50
317.7675838313
 51
319.9628907497
  0
LINE
  5
C2
330
70
100
AcDbEntity
  8
(9_9) 411016038_
  6
Continuous
 62
     7
100
AcDbLine
 10
86.5732737972
 20
438.3511676353
 30
0.0
 11
86.5691901891
 21
438.350759097
 31
0.0
  0
LINE
  5
C3
330
70
100
AcDbEntity
  8
(9_9) 411016038_
  6
Continuous
 62
     7
100
AcDbLine
 10
92.0787364686
 20
435.3593195421
 30
0.0
 11
92.1292072087
 21
435.2666716678
 31
0.0
  0
LINE
  5
C4
330
70
100
AcDbEntity
  8
(9_9) 411016038_
  6
Continuous
 62
     7
100
AcDbLine
 10
92.0787364686
 20
435.3593195421
 30
0.0
 11
92.0768550053
 21
435.36296685
 31
0.0
  0
ARC
  5
C5
330
70
100
AcDbEntity
  8
(9_9) 411016038_
  6
Continuous
 62
     7
100
AcDbCircle
 10
92.8992391592
 20
435.4219357679
 30
0.0
 40
0.1500000000000005
100
AcDbArc
 50
210.0
 51
246.0335494471
  0
LINE
  5
C6
330
70
100
AcDbEntity
  8
(9_9) 411016038_
  6
Continuous
 62
     7
100
AcDbLine
 10
95.2058191506
 20
434.909891464
 30
0.0
 11
95.1514892242
 21
434.9141673219
 31
0.0
  0
ARC
  5
C7
330
70
100
AcDbEntity
  8
(9_9) 411016038_
  6
Continuous
 62
     7
100
AcDbCircle
 10
95.963055549
 20
435.018576688
 30
0.0
 40
0.1500000000000008
100
AcDbArc
 50
278.9664505529
 51
315.0
  0
LINE
  5
C8
330
70
100
AcDbEntity
  8
(9_9) 411016038_
  6
Continuous
 62
     7
100
AcDbLine
 10
95.9864339639
 20
434.8704097223
 30
0.0
 11
95.9319547136
 21
434.8718363117
 31
0.0
  0
ARC
  5
C9
330
70
100
AcDbEntity
  8
(9_9) 411016038_
  6
Continuous
 62
     7
100
AcDbCircle
 10
95.963055549
 20
435.018576688
 30
0.0
 40
0.150000000000002
100
AcDbArc
 50
222.0
 51
258.0335494471
  0
ARC
  5
CA
330
70
100
AcDbEntity
  8
(9_9) 411016038_
  6
Continuous
 62
     7
100
AcDbCircle
 10
96.736944451
 20
435.018576688
 30
0.0
 40
0.1500000000000007
100
AcDbArc
 50
281.9664505529
 51
318.0
  0
LINE
  5
CB
330
70
100
AcDbEntity
  8
(9_9) 411016038_
  6
Continuous
 62
     7
100
AcDbLine
 10
96.7680452864
 20
434.8718363117
 30
0.0
 11
96.7135660361
 21
434.8704097223
 31
0.0
  0
ARC
  5
CC
330
70
100
AcDbEntity
  8
(9_9) 411016038_
  6
Continuous
 62
     7
100
AcDbCircle
 10
96.736944451
 20
435.018576688
 30
0.0
 40
0.1500000000000043
100
AcDbArc
 50
225.0
 51
261.0335494471
  0
LINE
  5
CD
330
70
100
AcDbEntity
  8
(9_9) 411016038_
  6
Continuous
 62
     7
100
AcDbLine
 10
100.6212635314
 20
435.3593195421
 30
0.0
 11
100.5707927913
 21
435.2666716678
 31
0.0
  0
ARC
  5
CE
330
70
100
AcDbEntity
  8
(9_9) 411016038_
  6
Continuous
 62
     7
100
AcDbCircle
 10
96.7480810589
 20
434.2589810653
 30
0.0
 40
3.953298033166613
100
AcDbArc
 50
14.7675838313
 51
16.9628907497
  0
LINE
  5
CF
330
70
100
AcDbEntity
  8
(9_9) 411016038_
  6
Continuous
 62
     7
100
AcDbLine
 10
100.6231449947
 20
435.36296685
 30
0.0
 11
100.6212635314
 21
435.3593195421
 31
0.0
  0
LINE
  5
D0
330
70
100
AcDbEntity
  8
(9_9) 411016038_
  6
Continuous
 62
     7
100
AcDbLine
 10
106.1308098109
 20
438.350759097
 30
0.0
 11
106.2359991914
 21
438.3426277724
 31
0.0
  0
LINE
  5
D1
330
70
100
AcDbEntity
  8
(9_9) 411016038_
  6
Continuous
 62
     7
100
AcDbLine
 10
106.1308098109
 20
438.350759097
 30
0.0
 11
106.1267262028
 21
438.3511676353
 31
0.0
  0
LINE
  5
D2
330
70
100
AcDbEntity
  8
(9_9) 411016038_
  6
Continuous
 62
     7
100
AcDbLine
 10
107.7200879318
 20
440.1202513666
 30
0.0
 11
107.6846943605
 21
440.0788108191
 31
0.0
  0
LINE
  5
D3
330
70
100
AcDbEntity
  8
(9_9) 411016038_
  6
Continuous
 62
     7
100
AcDbLine
 10
110.5396113204
 20
444.7656050991
 30
0.0
 11
110.5848990685
 21
444.6703163585
 31
0.0
  0
ARC
  5
D4
330
70
100
AcDbEntity
  8
(9_9) 411016038_
  6
Continuous
 62
     7
100
AcDbCircle
 10
109.153204311
 20
440.9853719274
 30
0.0
 40
3.953298033158681
100
AcDbArc
 50
68.7675838313
 51
70.9628907497
  0
LINE
  5
D5
330
70
100
AcDbEntity
  8
(9_9) 411016038_
  6
Continuous
 62
     7
100
AcDbLine
 10
110.5377664828
 20
444.7692710686
 30
0.0
 11
110.5396113204
 21
444.7656050991
 31
0.0
  0
LINE
  5
D6
330
70
100
AcDbEntity
  8
(9_9) 411016038_
  6
Continuous
 62
     7
100
AcDbLine
 10
82.1603886796
 20
454.8251731102
 30
0.0
 11
82.1151009315
 21
454.9204618508
 31
0.0
  0
ARC
  5
D7
330
70
100
AcDbEntity
  8
(9_9) 411016038_
  6
Continuous
 62
     7
100
AcDbCircle
 10
83.546795689
 20
458.6054062819
 30
0.0
 40
3.953298033154865
100
AcDbArc
 50
248.7675838313
 51
250.9628907497
  0
LINE
  5
D8
330
70
100
AcDbEntity
  8
(9_9) 411016038_
  6
Continuous
 62
     7
100
AcDbLine
 10
82.1622335172
 20
454.8215071407
 30
0.0
 11
82.1603886796
 21
454.8251731102
 31
0.0
  0
LINE
  5
D9
330
70
100
AcDbEntity
  8
(9_9) 411016038_
  6
Continuous
 62
     7
100
AcDbLine
 10
86.5691901891
 20
461.2400191123
 30
0.0
 11
86.4640008086
 21
461.2481504369
 31
0.0
  0
LINE
  5
DA
330
70
100
AcDbEntity
  8
(9_9) 411016038_
  6
Continuous
 62
     7
100
AcDbLine
 10
86.5691901891
 20
461.2400191123
 30
0.0
 11
86.5732737972
 21
461.2396105739
 31
0.0
  0
LINE
  5
DB
330
70
100
AcDbEntity
  8
(9_9) 411016038_
  6
Continuous
 62
     7
100
AcDbLine
 10
110.5396113204
 20
454.8251731102
 30
0.0
 11
110.5848990685
 21
454.9204618508
 31
0.0
  0
LINE
  5
DC
330
70
100
AcDbEntity
  8
(9_9) 411016038_
  6
Continuous
 62
     7
100
AcDbLine
 10
110.5396113204
 20
454.8251731102
 30
0.0
 11
110.5377664828
 21
454.8215071407
 31
0.0
  0
LINE
  5
DD
330
70
100
AcDbEntity
  8
(9_9) 411016038_
  6
Continuous
 62
     7
100
AcDbLine
 10
106.1308098109
 20
461.2400191123
 30
0.0
 11
106.2359991914
 21
461.2481504369
 31
0.0
  0
ARC
  5
DE
330
70
100
AcDbEntity
  8
(9_9) 411016038_
  6
Continuous
 62
     7
100
AcDbCircle
 10
109.1631176704
 20
458.5909822545
 30
0.0
 40
3.953298033188489
100
AcDbArc
 50
137.7675838313
 51
139.9628907497
  0
LINE
  5
DF
330
70
100
AcDbEntity
  8
(9_9) 411016038_
  6
Continuous
 62
     7
100
AcDbLine
 10
106.1267262028
 20
461.2396105739
 30
0.0
 11
106.1308098109
 21
461.2400191123
 31
0.0
  0
ARC
  5
E0
330
70
100
AcDbEntity
  8
(9_9) 411016038_
  6
Continuous
 62
     7
100
AcDbCircle
 10
108.9536227143
 20
442.0718791719
 30
0.0
 40
0.1499999999999998
100
AcDbArc
 50
282.0
 51
318.0335494472
  0
ARC
  5
E1
330
70
100
AcDbEntity
  8
(9_9) 411016038_
  6
Continuous
 62
     7
100
AcDbCircle
 10
100.9730645491
 20
464.0005663479
 30
0.0
 40
0.1866841843782676
100
AcDbArc
 50
78.6110900567
 51
127.9658048157
  0
LINE
  5
E3
330
70
100
AcDbEntity
  8
(5_5) 411142031_
  6
Continuous
 62
     7
100
AcDbLine
 10
90.7189394943
 20
435.8580252761
 30
0.0
 11
90.7121707691
 21
435.8412720934
 31
0.0
  0
LINE
  5
E4
330
70
100
AcDbEntity
  8
(5_5) 411142031_
  6
Continuous
 62
     7
100
AcDbLine
 10
105.1855474202
 20
437.634301378
 30
0.0
 11
105.196168047
 21
437.6196833393
 31
0.0
  0
LINE
  5
E5
330
70
100
AcDbEntity
  8
(5_5) 411142031_
  6
Continuous
 62
     7
100
AcDbLine
 10
101.6142932295
 20
463.8753809265
 30
0.0
 11
101.620621088
 21
463.8923055528
 31
0.0
  0
LINE
  5
E6
330
70
100
AcDbEntity
  8
(5_5) 411142031_
  6
Continuous
 62
     7
100
AcDbLine
 10
87.1991401365
 20
461.7210218621
 30
0.0
 11
87.1881404934
 21
461.735356876
 31
0.0
  0
LINE
  5
E7
330
70
100
AcDbEntity
  8
(5_5) 411142031_
  6
Continuous
 62
     7
100
AcDbLine
 10
91.1325884878
 20
463.7499900777
 30
0.0
 11
91.0659099198
 21
463.9283300089
 31
0.0
  0
LINE
  5
E8
330
70
100
AcDbEntity
  8
(5_5) 411142031_
  6
Continuous
 62
     7
100
AcDbLine
 10
91.079378912
 20
463.8923055528
 30
0.0
 11
91.0857067705
 21
463.8753809265
 31
0.0
  0
LINE
  5
E9
330
70
100
AcDbEntity
  8
(5_5) 411142031_
  6
Continuous
 62
     7
100
AcDbLine
 10
105.5118595066
 20
461.735356876
 30
0.0
 11
105.5008598635
 21
461.7210218621
 31
0.0
  0
LINE
  5
EA
330
70
100
AcDbEntity
  8
(5_5) 411142031_
  6
Continuous
 62
     7
100
AcDbLine
 10
101.9878292309
 20
435.8412720934
 30
0.0
 11
101.9810605057
 21
435.8580252761
 31
0.0
  0
LINE
  5
EB
330
70
100
AcDbEntity
  8
(5_5) 411142031_
  6
Continuous
 62
     7
100
AcDbLine
 10
87.503831953
 20
437.6196833393
 30
0.0
 11
87.5144525798
 21
437.634301378
 31
0.0
  0
ARC
  5
ED
330
70
100
AcDbEntity
  8
(2_2) 408676138_
  6
Continuous
 62
     7
100
AcDbCircle
 10
96.35
 20
376.2953891046
 30
0.0
 40
21.11401101274038
100
AcDbArc
 50
279.7421040508
 51
260.2578959492
  0
ARC
  5
EE
330
70
100
AcDbEntity
  8
(2_2) 408676138_
  6
Continuous
 62
     7
100
AcDbCircle
 10
92.8279149795
 20
355.7811236622
 30
0.0
 40
0.299999999999955
100
AcDbArc
 50
260.2578959461
 51
267.7227754979
  0
ARC
  5
EF
330
70
100
AcDbEntity
  8
(2_2) 408676138_
  6
Continuous
 62
     7
100
AcDbCircle
 10
96.35
 20
444.3613229816
 30
0.0
 40
88.950193425428
100
AcDbArc
 50
267.7230302272
 51
272.2769697728
  0
ARC
  5
F0
330
70
100
AcDbEntity
  8
(2_2) 408676138_
  6
Continuous
 62
     7
100
AcDbCircle
 10
99.8720850205
 20
355.7811236622
 30
0.0
 40
0.2999999999999993
100
AcDbArc
 50
272.2772244991
 51
279.7421040509
  0
ARC
  5
F2
330
70
100
AcDbEntity
  8
(5_5) 408666038_
  6
Continuous
 62
     7
100
AcDbCircle
 10
96.35
 20
376.2953891046
 30
0.0
 40
24.08823939537753
100
AcDbArc
 50
0.0
 51
71.185558094
  0
ARC
  5
F3
330
70
100
AcDbEntity
  8
(5_5) 408666038_
  6
Continuous
 62
     7
100
AcDbCircle
 10
96.35
 20
376.2953891046
 30
0.0
 40
24.08823939537753
100
AcDbArc
 50
108.814441906
 51
260.5892061373
  0
ARC
  5
F4
330
70
100
AcDbEntity
  8
(5_5) 408666038_
  6
Continuous
 62
     7
100
AcDbCircle
 10
96.35
 20
376.2953891046
 30
0.0
 40
24.08823939537753
100
AcDbArc
 50
279.4107938627
 51
0.0
  0
ARC
  5
F5
330
70
100
AcDbEntity
  8
(5_5) 408666038_
  6
Continuous
 62
     7
100
AcDbCircle
 10
96.35
 20
376.2953891046
 30
0.0
 40
24.08824701076469
100
AcDbArc
 50
0.0
 51
71.1855646205
  0
ARC
  5
F6
330
70
100
AcDbEntity
  8
(5_5) 408666038_
  6
Continuous
 62
     7
100
AcDbCircle
 10
96.35
 20
376.2953891046
 30
0.0
 40
24.08824701076469
100
AcDbArc
 50
108.8144353795
 51
260.5892454568
  0
ARC
  5
F7
330
70
100
AcDbEntity
  8
(5_5) 408666038_
  6
Continuous
 62
     7
100
AcDbCircle
 10
96.35
 20
376.2953891046
 30
0.0
 40
24.08824701076469
100
AcDbArc
 50
279.4107545432
 51
0.0
  0
ARC
  5
F9
330
70
100
AcDbEntity
  8
(3_3) 411014038_
  6
Continuous
 62
     7
100
AcDbCircle
 10
96.35
 20
449.7953891046
 30
0.0
 40
18.1332470107647
100
AcDbArc
 50
0.0
 51
77.8567954376
  0
ARC
  5
FA
330
70
100
AcDbEntity
  8
(3_3) 411014038_
  6
Continuous
 62
     7
100
AcDbCircle
 10
96.35
 20
449.7953891046
 30
0.0
 40
18.1332470107647
100
AcDbArc
 50
101.8364479115
 51
360.0
  0
ARC
  5
FC
330
70
100
AcDbEntity
  8
(5_5) 411021031_
  6
Continuous
 62
     7
100
AcDbCircle
 10
96.35
 20
449.7953891046
 30
0.0
 40
15.09162234303088
100
AcDbArc
 50
91.1390336777
 51
94.8609663223
  0
ARC
  5
FD
330
70
100
AcDbEntity
  8
(5_5) 411021031_
  6
Continuous
 62
     7
100
AcDbCircle
 10
96.4290306626
 20
449.794975455
 30
0.0
 40
15.09381370559304
100
AcDbArc
 50
90.3
 51
91.4389431837
  0
ARC
  5
FE
330
70
100
AcDbEntity
  8
(5_5) 411021031_
  6
Continuous
 62
     7
100
AcDbCircle
 10
96.2709693374
 20
449.794975455
 30
0.0
 40
15.09381370565209
100
AcDbArc
 50
88.5610568163
 51
89.7
  0
LINE
  5
FF
330
70
100
AcDbEntity
  8
(5_5) 411021031_
  6
Continuous
 62
     7
100
AcDbLine
 10
96.65
 20
464.8243262896
 30
0.0
 11
96.65
 21
464.8840293663
 31
0.0
  0
LINE
  5
100
330
70
100
AcDbEntity
  8
(5_5) 411021031_
  6
Continuous
 62
     7
100
AcDbLine
 10
96.35
 20
464.8273202151
 30
0.0
 11
96.35
 21
464.8885822583
 31
0.0
  0
LINE
  5
101
330
70
100
AcDbEntity
  8
(5_5) 411021031_
  6
Continuous
 62
     7
100
AcDbLine
 10
96.05
 20
464.8243262896
 30
0.0
 11
96.05
 21
464.8840293663
 31
0.0
  0
ARC
  5
102
330
70
100
AcDbEntity
  8
(5_5) 411021031_
  6
Continuous
 62
     7
100
AcDbCircle
 10
96.35
 20
449.7953891046
 30
0.0
 40
15.09162234303088
100
AcDbArc
 50
97.1390336777
 51
101.4299901688
  0
ARC
  5
103
330
70
100
AcDbEntity
  8
(5_5) 411021031_
  6
Continuous
 62
     7
100
AcDbCircle
 10
96.4286409626
 20
449.8032386747
 30
0.0
 40
15.09381370560944
100
AcDbArc
 50
96.3
 51
97.4389431837
  0
ARC
  5
104
330
70
100
AcDbEntity
  8
(5_5) 411021031_
  6
Continuous
 62
     7
100
AcDbCircle
 10
96.2714455138
 20
449.7867167672
 30
0.0
 40
15.09381370566036
100
AcDbArc
 50
94.5610568163
 51
95.7
  0
LINE
  5
105
330
70
100
AcDbEntity
  8
(5_5) 411021031_
  6
Continuous
 62
     7
100
AcDbLine
 10
94.7787353411
 20
464.7449737236
 30
0.0
 11
94.7723317138
 21
464.805900167
 31
0.0
  0
LINE
  5
106
330
70
100
AcDbEntity
  8
(5_5) 411021031_
  6
Continuous
 62
     7
100
AcDbLine
 10
95.0774048601
 20
464.7733547381
 30
0.0
 11
95.0711641893
 21
464.8327307551
 31
0.0
  0
LINE
  5
107
330
70
100
AcDbEntity
  8
(5_5) 411021031_
  6
Continuous
 62
     7
100
AcDbLine
 10
94.4806917229
 20
464.7106376602
 30
0.0
 11
94.474451052
 21
464.7700136772
 31
0.0
  0
ARC
  5
108
330
70
100
AcDbEntity
  8
(5_5) 411021031_
  6
Continuous
 62
     7
100
AcDbCircle
 10
96.35
 20
449.7953891046
 30
0.0
 40
15.09162234303088
100
AcDbArc
 50
84.5700098312
 51
88.8609663223
  0
SPLINE
  5
109
330
70
100
AcDbEntity
  8
(5_5) 411021031_
  6
Continuous
 62
     7
100
AcDbSpline
210
0.0
220
0.0
230
1.0
 70
     8
 71
     3
 72
     8
 73
     4
 74
     0
 42
0.000000001
 43
0.0000000001
 40
0.6682604458787912
 40
0.6682604458787912
 40
0.6682604458787912
 40
0.6682604458787912
 40
1.0
 40
1.0
 40
1.0
 40
1.0
 10
97.9917692668568
 20
464.7480107203799
 30
0.0
 10
97.92734770156504
 20
464.7874238612666
 30
0.0
 10
97.85433918329457
 20
464.8120429186276
 30
0.0
 10
97.77811123682389
 20
464.819288839383
 30
0.0
  0
ARC
  5
10A
330
70
100
AcDbEntity
  8
(5_5) 411021031_
  6
Continuous
 62
     7
100
AcDbCircle
 10
97.7383574808
 20
464.3291873252
 30
0.0
 40
0.500000797029659
100
AcDbArc
 50
59.8304385889
 51
84.5410813509
  0
SPLINE
  5
10B
330
70
100
AcDbEntity
  8
(5_5) 411021031_
  6
Continuous
 62
     7
100
AcDbSpline
210
0.0
220
0.0
230
1.0
 70
     8
 71
     3
 72
     8
 73
     4
 74
     0
 42
0.000000001
 43
0.0000000001
 40
0.0
 40
0.0
 40
0.0
 40
0.0
 40
0.4458174818704722
 40
0.4458174818704722
 40
0.4458174818704722
 40
0.4458174818704722
 10
93.35928695439617
 20
464.587708071699
 30
0.0
 10
93.25842493564011
 20
464.5673157751313
 30
0.0
 10
93.16641388858108
 20
464.5161636381177
 30
0.0
 10
93.0959733943607
 20
464.4420962352281
 30
0.0
  0
ARC
  5
10C
330
70
100
AcDbEntity
  8
(5_5) 411021031_
  6
Continuous
 62
     7
100
AcDbCircle
 10
93.4500949682
 20
464.1044106822
 30
0.0
 40
0.5000017561677765
100
AcDbArc
 50
101.4587138341
 51
138.5805606425
  0
ARC
  5
10D
330
70
100
AcDbEntity
  8
(5_5) 411021031_
  6
Continuous
 62
     7
100
AcDbCircle
 10
89.2966975161
 20
436.8048219394
 30
0.0
 40
0.1499999999999995
100
AcDbArc
 50
195.0
 51
288.0
  0
CIRCLE
  5
10F
330
70
100
AcDbEntity
  8
(2_2) 411849038_
  6
Continuous
 62
     7
100
AcDbCircle
 10
96.35
 20
376.2953891046
 30
0.0
 40
24.0
  0
ARC
  5
110
330
70
100
AcDbEntity
  8
(2_2) 411849038_
  6
Continuous
 62
     7
100
AcDbCircle
 10
96.35
 20
376.2953891046
 30
0.0
 40
23.99999999999991
100
AcDbArc
 50
259.6302401945
 51
266.9117471667
  0
ARC
  5
111
330
70
100
AcDbEntity
  8
(2_2) 411849038_
  6
Continuous
 62
     7
100
AcDbCircle
 10
96.35
 20
376.2953891046
 30
0.0
 40
23.99999999999991
100
AcDbArc
 50
267.0767417965
 51
275.2696716141
  0
ARC
  5
112
330
70
100
AcDbEntity
  8
(2_2) 411849038_
  6
Continuous
 62
     7
100
AcDbCircle
 10
96.35
 20
376.2953891046
 30
0.0
 40
23.99999999999991
100
AcDbArc
 50
275.3986984888
 51
280.3697598055
  0
ARC
  5
113
330
70
100
AcDbEntity
  8
(2_2) 411849038_
  6
Continuous
 62
     7
100
AcDbCircle
 10
91.85
 20
351.7037238499
 30
0.0
 40
0.9999999999999948
100
AcDbArc
 50
0.0
 51
79.6302401945
  0
ARC
  5
114
330
70
100
AcDbEntity
  8
(2_2) 411849038_
  6
Continuous
 62
     7
100
AcDbCircle
 10
100.85
 20
351.7037238499
 30
0.0
 40
1.000000000000008
100
AcDbArc
 50
100.3697598055
 51
180.0
  0
ARC
  5
115
330
70
100
AcDbEntity
  8
(2_2) 411849038_
  6
Continuous
 62
     7
100
AcDbCircle
 10
96.35
 20
376.2953891046
 30
0.0
 40
36.50000000000233
100
AcDbArc
 50
264.7840914295
 51
275.2159085705
  0
LINE
  5
116
330
70
100
AcDbEntity
  8
(2_2) 411849038_
  6
Continuous
 62
     7
100
AcDbLine
 10
99.85
 20
340.1457003093
 30
0.0
 11
99.85
 21
351.7037238499
 31
0.0
  0
LINE
  5
117
330
70
100
AcDbEntity
  8
(2_2) 411849038_
  6
Continuous
 62
     7
100
AcDbLine
 10
92.85
 20
340.1457003093
 30
0.0
 11
92.85
 21
351.7037238499
 31
0.0
  0
ARC
  5
118
330
70
100
AcDbEntity
  8
(2_2) 411849038_
  6
Continuous
 62
     7
100
AcDbCircle
 10
99.65
 20
340.1457003093
 30
0.0
 40
0.2000000000000055
100
AcDbArc
 50
275.2159085705
 51
0.0
  0
ARC
  5
119
330
70
100
AcDbEntity
  8
(2_2) 411849038_
  6
Continuous
 62
     7
100
AcDbCircle
 10
93.05
 20
340.1457003093
 30
0.0
 40
0.1999999999999997
100
AcDbArc
 50
180.0
 51
264.7840914295
  0
ARC
  5
11A
330
70
100
AcDbEntity
  8
(2_2) 411849038_
  6
Continuous
 62
     7
100
AcDbCircle
 10
96.35
 20
376.2953891046
 30
0.0
 40
21.10105825781017
100
AcDbArc
 50
261.5307071152
 51
278.2283023889
  0
ARC
  5
11C
330
70
100
AcDbEntity
  8
(3_3) 408813038_
  6
Continuous
 62
     7
100
AcDbCircle
 10
96.3499999812
 20
376.5236495463
 30
0.0
 40
24.98599861761875
100
AcDbArc
 50
71.935273756
 51
108.0647261041
  0
ARC
  5
11D
330
70
100
AcDbEntity
  8
(3_3) 408813038_
  6
Continuous
 62
     7
100
AcDbCircle
 10
96.3499999805
 20
377.6953891823
 30
0.0
 40
24.0
100
AcDbArc
 50
71.8728208978
 51
108.5091999628
  0
LINE
  5
11E
330
70
100
AcDbEntity
  8
(3_3) 408813038_
  6
Continuous
 62
     7
100
AcDbLine
 10
104.1201979876
 20
399.0027452527
 30
0.0
 11
104.0979333744
 21
400.2782840871
 31
0.0
  0
LINE
  5
11F
330
70
100
AcDbEntity
  8
(3_3) 408813038_
  6
Continuous
 62
     7
100
AcDbLine
 10
88.6020672052
 20
400.2783172923
 30
0.0
 11
88.5798020124
 21
399.0027452527
 31
0.0
  0
SPLINE
  5
120
330
70
100
AcDbEntity
  8
(3_3) 408813038_
  6
Continuous
 62
     7
100
AcDbSpline
210
0.0
220
0.0
230
1.0
 70
     8
 71
     3
 72
    10
 73
     6
 74
     0
 42
0.000000001
 43
0.0000000001
 40
0.0
 40
0.0
 40
0.0
 40
0.0
 40
0.2466944431093659
 40
0.4996610654221741
 40
1.0
 40
1.0
 40
1.0
 40
1.0
 10
88.6300524662034
 20
400.392725914628
 30
0.0
 10
88.62427684617018
 20
400.3835449237836
 30
0.0
 10
88.61451469991388
 20
400.3677004287105
 30
0.0
 10
88.60348406156848
 20
400.3275732432066
 30
0.0
 10
88.6023750617973
 20
400.300005116673
 30
0.0
 10
88.60206161654699
 20
400.2780086047237
 30
0.0
  0
SPLINE
  5
121
330
70
100
AcDbEntity
  8
(3_3) 408813038_
  6
Continuous
 62
     7
100
AcDbSpline
210
0.0
220
0.0
230
1.0
 70
     8
 71
     3
 72
    10
 73
     6
 74
     0
 42
0.000000001
 43
0.0000000001
 40
0.0
 40
0.0
 40
0.0
 40
0.0
 40
0.246652237010227
 40
0.499247291085995
 40
1.0
 40
1.0
 40
1.0
 40
1.0
 10
88.6300524662034
 20
400.392725914628
 30
0.0
 10
88.63706491602309
 20
400.4009913297454
 30
0.0
 10
88.64921569572715
 20
400.4150460897038
 30
0.0
 10
88.68418409647306
 20
400.4376544961616
 30
0.0
 10
88.71014437518525
 20
400.4470102235704
 30
0.0
 10
88.73105853535185
 20
400.4539420234271
 30
0.0
  0
ENDBLK
  5
123
330
70
100
AcDbEntity
  8
0
100
AcDbBlockEnd
  0
BLOCK
  5
186
330
124
100
AcDbEntity
  8
0
100
AcDbBlockBegin
  2
SE1
 70
     0
 10
0.0
 20
0.0
 30
0.0
  3
SE1
  1
SE1
  0
LINE
  5
126
330
124
100
AcDbEntity
  8
(2_2) 411134038_
  6
Continuous
 62
     7
100
AcDbLine
 10
324.0500025
 20
336.0235667314
 30
0.0
 11
324.0500025
 21
493.7953891046
 31
0.0
  0
LINE
  5
127
330
124
100
AcDbEntity
  8
(2_2) 411134038_
  6
Continuous
 62
     7
100
AcDbLine
 10
328.0500025
 20
336.0235667314
 30
0.0
 11
324.0500025
 21
336.0235667314
 31
0.0
  0
LINE
  5
128
330
124
100
AcDbEntity
  8
(2_2) 411134038_
  6
Continuous
 62
     7
100
AcDbLine
 10
328.0500025
 20
336.0235667314
 30
0.0
 11
328.0500025
 21
335.7953891046
 31
0.0
  0
LINE
  5
129
330
124
100
AcDbEntity
  8
(2_2) 411134038_
  6
Continuous
 62
     7
100
AcDbLine
 10
334.7152232773
 20
430.7482275372
 30
0.0
 11
334.4187729565
 21
468.8549980539
 31
0.0
  0
LINE
  5
12A
330
124
100
AcDbEntity
  8
(2_2) 411134038_
  6
Continuous
 62
     7
100
AcDbLine
 10
334.7233928989
 20
401.3429961827
 30
0.0
 11
334.2945848052
 21
351.2340914394
 31
0.0
  0
LINE
  5
12B
330
124
100
AcDbEntity
  8
(2_2) 411134038_
  6
Continuous
 62
     7
100
AcDbLine
 10
328.0500025
 20
335.7953891046
 30
0.0
 11
333.2638571217
 21
335.7953891046
 31
0.0
  0
LINE
  5
12C
330
124
100
AcDbEntity
  8
(2_2) 411134038_
  6
Continuous
 62
     7
100
AcDbLine
 10
333.2638571217
 20
493.7953891046
 30
0.0
 11
324.0500025
 21
493.7953891046
 31
0.0
  0
ARC
  5
12D
330
124
100
AcDbEntity
  8
(2_2) 411134038_
  6
Continuous
 62
     7
100
AcDbCircle
 10
333.2638571217
 20
336.5953891046
 30
0.0
 40
0.800000000000009
100
AcDbArc
 50
270.0
 51
359.0040995139
  0
ARC
  5
12E
330
124
100
AcDbEntity
  8
(2_2) 411134038_
  6
Continuous
 62
     7
100
AcDbCircle
 10
333.2638571217
 20
492.9953891046
 30
0.0
 40
0.8000000000060388
100
AcDbArc
 50
0.9959005345
 51
90.0
  0
ARC
  5
12F
330
124
100
AcDbEntity
  8
(2_2) 411134038_
  6
Continuous
 62
     7
100
AcDbCircle
 10
333.6188306732
 20
468.8453890878
 30
0.0
 40
0.8000000000165391
100
AcDbArc
 50
0.4457338467
 51
0.481460736
  0
ARC
  5
130
330
124
100
AcDbEntity
  8
(2_2) 411134038_
  6
Continuous
 62
     7
100
AcDbCircle
 10
-4165.2564996179
 20
414.7953891046
 30
0.0
 40
4500.0
100
AcDbArc
 50
0.6882372851
 51
0.995900511
  0
ARC
  5
131
330
124
100
AcDbEntity
  8
(2_2) 411134038_
  6
Continuous
 62
     7
100
AcDbCircle
 10
-4165.2564996179
 20
414.7953891046
 30
0.0
 40
4500.0
100
AcDbArc
 50
359.8286056427
 51
0.2032510817
  0
ARC
  5
132
330
124
100
AcDbEntity
  8
(2_2) 411134038_
  6
Continuous
 62
     7
100
AcDbCircle
 10
-4165.2564996179
 20
414.7953891046
 30
0.0
 40
4500.0
100
AcDbArc
 50
359.004099489
 51
359.19076391
  0
ARC
  5
133
330
124
100
AcDbEntity
  8
(6_6) 411022038_
  6
Continuous
 62
     7
100
AcDbCircle
 10
247.2376050084
 20
449.7953891046
 30
0.0
 40
120.0
100
AcDbArc
 50
352.9224822956
 51
7.1028008461
  0
ARC
  5
134
330
124
100
AcDbEntity
  8
(6_6) 411022038_
  6
Continuous
 62
     7
100
AcDbCircle
 10
366.2240103502
 20
435.0222599902
 30
0.0
 40
0.1000000000000089
100
AcDbArc
 50
337.9749616005
 51
352.9224822956
  0
ARC
  5
135
330
124
100
AcDbEntity
  8
(9_9) 411016038_
  6
Continuous
 62
     7
100
AcDbCircle
 10
348.7806848256
 20
414.2375632215
 30
0.0
 40
18.15574016764185
100
AcDbArc
 50
104.744343275
 51
104.7451384576
  0
LINE
  5
136
330
124
100
AcDbEntity
  8
(9_9) 411016038_
  6
Continuous
 62
     7
100
AcDbLine
 10
342.7897786773
 20
468.2372496546
 30
0.0
 11
342.7897786773
 21
476.9148115765
 31
0.0
  0
LINE
  5
137
330
124
100
AcDbEntity
  8
(9_9) 411016038_
  6
Continuous
 62
     7
100
AcDbLine
 10
342.7897786773
 20
476.9148115765
 30
0.0
 11
342.7897786773
 21
477.0953891046
 31
0.0
  0
LINE
  5
138
330
124
100
AcDbEntity
  8
(9_9) 411016038_
  6
Continuous
 62
     7
100
AcDbLine
 10
342.7897786773
 20
467.0921207462
 30
0.0
 11
342.7897786773
 21
468.2372496546
 31
0.0
  0
LINE
  5
139
330
124
100
AcDbEntity
  8
(9_9) 411016038_
  6
Continuous
 62
     7
100
AcDbLine
 10
342.7897786773
 20
467.0921207462
 30
0.0
 11
342.7897786773
 21
431.9953891046
 31
0.0
  0
ARC
  5
13A
330
124
100
AcDbEntity
  8
(9_9) 411016038_
  6
Continuous
 62
     7
100
AcDbCircle
 10
358.0374012579
 20
504.3816045774
 30
0.0
 40
27.26811889750379
100
AcDbArc
 50
270.0268060565
 51
276.6217395633
  0
LINE
  5
13B
330
124
100
AcDbEntity
  8
(9_9) 411016038_
  6
Continuous
 62
     7
100
AcDbLine
 10
365.0752993525
 20
467.7953891046
 30
0.0
 11
362.5266768823
 21
467.7953891046
 31
0.0
  0
LINE
  5
13C
330
124
100
AcDbEntity
  8
(9_9) 411016038_
  6
Continuous
 62
     7
100
AcDbLine
 10
362.5708320681
 20
431.7953891046
 30
0.0
 11
365.0752993525
 21
431.7953891046
 31
0.0
  0
LINE
  5
13D
330
124
100
AcDbEntity
  8
(9_9) 411016038_
  6
Continuous
 62
     7
100
AcDbLine
 10
342.9897786773
 20
431.7953891046
 30
0.0
 11
344.1745286612
 21
431.7953891046
 31
0.0
  0
ARC
  5
13E
330
124
100
AcDbEntity
  8
(9_9) 411016038_
  6
Continuous
 62
     7
100
AcDbCircle
 10
247.2897786773
 20
449.7953891046
 30
0.0
 40
120.0
100
AcDbArc
 50
7.3045490964
 51
7.6372753151
  0
ARC
  5
13F
330
124
100
AcDbEntity
  8
(9_9) 411016038_
  6
Continuous
 62
     7
100
AcDbCircle
 10
247.2897786773
 20
449.7953891046
 30
0.0
 40
120.0
100
AcDbArc
 50
352.3627246849
 51
352.6954509036
  0
LINE
  5
140
330
124
100
AcDbEntity
  8
(9_9) 411016038_
  6
Continuous
 62
     7
100
AcDbLine
 10
366.0664286401
 20
432.6624878804
 30
0.0
 11
366.2252931808
 21
433.8472421966
 31
0.0
  0
LINE
  5
141
330
124
100
AcDbEntity
  8
(9_9) 411016038_
  6
Continuous
 62
     7
100
AcDbLine
 10
366.2252931808
 20
465.7435360127
 30
0.0
 11
366.0664286401
 21
466.9282903289
 31
0.0
  0
LINE
  5
142
330
124
100
AcDbEntity
  8
(9_9) 411016038_
  6
Continuous
 62
     7
100
AcDbLine
 10
361.171683842
 20
477.2953891046
 30
0.0
 11
342.9897786773
 21
477.2953891046
 31
0.0
  0
ARC
  5
143
330
124
100
AcDbEntity
  8
(9_9) 411016038_
  6
Continuous
 62
     7
100
AcDbCircle
 10
365.0752993525
 20
466.7953891046
 30
0.0
 40
0.9999999999999892
100
AcDbArc
 50
7.6372753151
 51
90.0
  0
ARC
  5
144
330
124
100
AcDbEntity
  8
(9_9) 411016038_
  6
Continuous
 62
     7
100
AcDbCircle
 10
365.0752993525
 20
432.7953891046
 30
0.0
 40
1.000000000000001
100
AcDbArc
 50
270.0
 51
352.3627246849
  0
LINE
  5
145
330
124
100
AcDbEntity
  8
(9_9) 411016038_
  6
Continuous
 62
     7
100
AcDbLine
 10
348.6955820519
 20
432.3598975544
 30
0.0
 11
358.0497786773
 21
432.3598975544
 31
0.0
  0
SPLINE
  5
146
330
124
100
AcDbEntity
  8
(9_9) 411016038_
  6
Continuous
 62
     7
100
AcDbSpline
210
0.0
220
0.0
230
1.0
 70
     8
 71
     3
 72
    27
 73
    23
 74
     0
 42
0.000000001
 43
0.0000000001
 40
0.0
 40
0.0
 40
0.0
 40
0.0
 40
0.0179091938155727
 40
0.067388215761446
 40
0.1172040746546514
 40
0.1671761297367299
 40
0.2170630166265203
 40
0.2666723123630554
 40
0.3158451130523155
 40
0.3644507693564865
 40
0.4130853438942962
 40
0.4635904051683206
 40
0.5129734379776054
 40
0.5629060303433999
 40
0.6131991806356712
 40
0.6636419450256252
 40
0.7139218245281035
 40
0.7637766389172567
 40
0.8128681596619429
 40
0.8535140306213774
 40
0.8799512668237579
 40
0.8828476182013072
 40
0.8828476182013072
 40
0.8828476182013072
 40
0.8828476182013072
 10
358.0497219942123
 20
432.3516520510484
 30
0.0
 10
358.0978674331204
 20
432.3516764743863
 30
0.0
 10
358.2524442463518
 20
432.3516766226978
 30
0.0
 10
358.5463612202139
 20
432.3446790462161
 30
0.0
 10
358.9041067000469
 20
432.3309241924185
 30
0.0
 10
359.2599462932133
 20
432.3105014801951
 30
0.0
 10
359.6054153391366
 20
432.2844559648685
 30
0.0
 10
359.9376313302506
 20
432.2532277272491
 30
0.0
 10
360.2530794263042
 20
432.2175277735012
 30
0.0
 10
360.5486196146196
 20
432.1779307915879
 30
0.0
 10
360.8312108601306
 20
432.1343521210504
 30
0.0
 10
361.0946362355529
 20
432.0906037954771
 30
0.0
 10
361.3378671657698
 20
432.0469449678901
 30
0.0
 10
361.5571827572084
 20
432.0048909794906
 30
0.0
 10
361.7528400439277
 20
431.9650048817583
 30
0.0
 10
361.9222669448748
 20
431.9284736745537
 30
0.0
 10
362.0632382394592
 20
431.8964489549592
 30
0.0
 10
362.1739003861949
 20
431.8700370517141
 30
0.0
 10
362.2489146566908
 20
431.8512367523744
 30
0.0
 10
362.2877760139569
 20
431.8410205033766
 30
0.0
 10
362.2982637154275
 20
431.8381125983418
 30
0.0
 10
362.2987533716294
 20
431.8379750396713
 30
0.0
 10
362.2987559161201
 20
431.8379744489804
 30
0.0
  0
ARC
  5
147
330
124
100
AcDbEntity
  8
(9_9) 411016038_
  6
Continuous
 62
     7
100
AcDbCircle
 10
358.2826435196
 20
415.5015071443
 30
0.0
 40
16.8496636664349
100
AcDbArc
 50
88.949204252
 51
90.792124499
  0
ARC
  5
148
330
124
100
AcDbEntity
  8
(9_9) 411016038_
  6
Continuous
 62
     7
100
AcDbCircle
 10
358.2826435196
 20
415.5015071443
 30
0.0
 40
16.8496636664349
100
AcDbArc
 50
75.2588395642
 51
79.8710091719
  0
ARC
  5
149
330
124
100
AcDbEntity
  8
(9_9) 411016038_
  6
Continuous
 62
     7
100
AcDbCircle
 10
348.4440539856
 20
415.6508390381
 30
0.0
 40
16.70045208788946
100
AcDbArc
 50
89.1370306579
 51
104.8094825142
  0
LINE
  5
14A
330
124
100
AcDbEntity
  8
(9_9) 411016038_
  6
Continuous
 62
     7
100
AcDbLine
 10
361.5270122254
 20
468.777896453
 30
0.0
 11
361.3817862472
 21
477.0978871698
 31
0.0
  0
SPLINE
  5
14B
330
124
100
AcDbEntity
  8
(9_9) 411016038_
  6
Continuous
 62
     7
100
AcDbSpline
210
0.0
220
0.0
230
1.0
 70
     8
 71
     3
 72
    15
 73
    11
 74
     0
 42
0.000000001
 43
0.0000000001
 40
0.0
 40
0.0
 40
0.0
 40
0.0
 40
0.113088261824435
 40
0.2316583914547223
 40
0.3521814113701567
 40
0.4707035106313865
 40
0.5907290392830133
 40
0.7204570842272795
 40
0.8588556043044633
 40
1.0
 40
1.0
 40
1.0
 40
1.0
 10
362.5268588906299
 20
467.7953890273019
 30
0.0
 10
362.4587890925521
 20
467.7950317768319
 30
0.0
 10
362.3411676048022
 20
467.7959088562105
 30
0.0
 10
362.1450814464954
 20
467.8161351742151
 30
0.0
 10
361.9566021274485
 20
467.8698541666689
 30
0.0
 10
361.7835199709971
 20
467.9696226912841
 30
0.0
 10
361.6508786573302
 20
468.1268175363943
 30
0.0
 10
361.5695670308731
 20
468.3247598742225
 30
0.0
 10
361.5320317375956
 20
468.5511120422614
 30
0.0
 10
361.5279484427032
 20
468.6929833409004
 30
0.0
 10
361.5270112692403
 20
468.7779366167151
 30
0.0
  0
ARC
  5
14C
330
124
100
AcDbEntity
  8
(9_9) 411016038_
  6
Continuous
 62
     7
100
AcDbCircle
 10
361.1817993809
 20
477.095389104
 30
0.0
 40
0.2000000000657779
100
AcDbArc
 50
0.3609662895
 51
96.5569339958
  0
ARC
  5
14D
330
124
100
AcDbEntity
  8
(9_9) 411016038_
  6
Continuous
 62
     7
100
AcDbCircle
 10
342.9897786773
 20
477.0953891046
 30
0.0
 40
0.2000000000000057
100
AcDbArc
 50
90.0
 51
180.0
  0
ARC
  5
14E
330
124
100
AcDbEntity
  8
(9_9) 411016038_
  6
Continuous
 62
     7
100
AcDbCircle
 10
342.9897786773
 20
431.9953891046
 30
0.0
 40
0.2000000000000057
100
AcDbArc
 50
180.0
 51
270.0
  0
LINE
  5
14F
330
124
100
AcDbEntity
  8
(9_9) 411016038_
  6
Continuous
 62
     7
100
AcDbLine
 10
342.4897786773
 20
432.7953891046
 30
0.0
 11
342.5897786773
 21
432.7953891046
 31
0.0
  0
LINE
  5
150
330
124
100
AcDbEntity
  8
(9_9) 411016038_
  6
Continuous
 62
     7
100
AcDbLine
 10
342.5897786773
 20
466.7953891046
 30
0.0
 11
342.4897786773
 21
466.7953891046
 31
0.0
  0
ARC
  5
151
330
124
100
AcDbEntity
  8
(9_9) 411016038_
  6
Continuous
 62
     7
100
AcDbCircle
 10
366.2167123564
 20
434.550900078
 30
0.0
 40
0.0999999999996392
100
AcDbArc
 50
352.695450902
 51
0.0
  0
ARC
  5
152
330
124
100
AcDbEntity
  8
(9_9) 411016038_
  6
Continuous
 62
     7
100
AcDbCircle
 10
366.2167123564
 20
465.0398781313
 30
0.0
 40
0.1000000000000029
100
AcDbArc
 50
0.0
 51
7.304549098
  0
LINE
  5
153
330
124
100
AcDbEntity
  8
(9_9) 411016038_
  6
Continuous
 62
     7
100
AcDbLine
 10
366.3167123564
 20
434.550900078
 30
0.0
 11
366.3167123564
 21
465.0398781313
 31
0.0
  0
ARC
  5
154
330
124
100
AcDbEntity
  8
(9_9) 411016038_
  6
Continuous
 62
     7
100
AcDbCircle
 10
342.5897786773
 20
466.9953891046
 30
0.0
 40
0.1999999999999919
100
AcDbArc
 50
270.0
 51
0.0
  0
ARC
  5
155
330
124
100
AcDbEntity
  8
(9_9) 411016038_
  6
Continuous
 62
     7
100
AcDbCircle
 10
342.5897786773
 20
432.5953891046
 30
0.0
 40
0.1999999999999988
100
AcDbArc
 50
0.0
 51
90.0
  0
ARC
  5
156
330
124
100
AcDbEntity
  8
(2_2) 408676138_
  6
Continuous
 62
     7
100
AcDbCircle
 10
247.5004735452
 20
376.2953891046
 30
0.0
 40
120.0
100
AcDbArc
 50
350.0978888238
 51
10.0139669597
  0
ARC
  5
157
330
124
100
AcDbEntity
  8
(2_2) 408676138_
  6
Continuous
 62
     7
100
AcDbCircle
 10
365.3768911633
 20
397.1098112569
 30
0.0
 40
0.3000000000000294
100
AcDbArc
 50
10.0139669596
 51
67.2354053607
  0
ARC
  5
158
330
124
100
AcDbEntity
  8
(2_2) 408676138_
  6
Continuous
 62
     7
100
AcDbCircle
 10
365.4173014983
 20
355.7111309087
 30
0.0
 40
0.300000000000008
100
AcDbArc
 50
284.6103841507
 51
350.0978888238
  0
LINE
  5
159
330
124
100
AcDbEntity
  8
(5_5) 408666038_
  6
Continuous
 62
     7
100
AcDbLine
 10
342.4897786773
 20
400.0483696646
 30
0.0
 11
342.4897786773
 21
352.5424085446
 31
0.0
  0
LINE
  5
15A
330
124
100
AcDbEntity
  8
(5_5) 408666038_
  6
Continuous
 62
     7
100
AcDbLine
 10
334.3034731834
 20
352.2727054968
 30
0.0
 11
342.2915239844
 21
352.34241616
 31
0.0
  0
LINE
  5
15B
330
124
100
AcDbEntity
  8
(5_5) 408666038_
  6
Continuous
 62
     7
100
AcDbLine
 10
342.2915239844
 20
400.2483620493
 30
0.0
 11
334.7145918011
 21
400.3144849347
 31
0.0
  0
ARC
  5
15C
330
124
100
AcDbEntity
  8
(5_5) 408666038_
  6
Continuous
 62
     7
100
AcDbCircle
 10
342.2897786773
 20
352.5424085446
 30
0.0
 40
0.2000000000000024
100
AcDbArc
 50
270.5
 51
0.0
  0
ARC
  5
15D
330
124
100
AcDbEntity
  8
(5_5) 408666038_
  6
Continuous
 62
     7
100
AcDbCircle
 10
342.2897786773
 20
400.0483696646
 30
0.0
 40
0.1999999999999919
100
AcDbArc
 50
0.0
 51
89.5
  0
LINE
  5
15E
330
124
100
AcDbEntity
  8
(3_3) 411014038_
  6
Continuous
 62
     7
100
AcDbLine
 10
342.4897786773
 20
467.5933696646
 30
0.0
 11
342.4897786773
 21
431.9974085446
 31
0.0
  0
LINE
  5
15F
330
124
100
AcDbEntity
  8
(3_3) 411014038_
  6
Continuous
 62
     7
100
AcDbLine
 10
334.7075762726
 20
431.731232051
 30
0.0
 11
342.2915239844
 21
431.79741616
 31
0.0
  0
LINE
  5
160
330
124
100
AcDbEntity
  8
(3_3) 411014038_
  6
Continuous
 62
     7
100
AcDbLine
 10
342.2915239844
 20
467.7933620493
 30
0.0
 11
334.4264982057
 21
467.8619990894
 31
0.0
  0
ARC
  5
161
330
124
100
AcDbEntity
  8
(3_3) 411014038_
  6
Continuous
 62
     7
100
AcDbCircle
 10
342.2897786773
 20
431.9974085446
 30
0.0
 40
0.1999999999999988
100
AcDbArc
 50
270.4999999999
 51
0.0
  0
ARC
  5
162
330
124
100
AcDbEntity
  8
(3_3) 411014038_
  6
Continuous
 62
     7
100
AcDbCircle
 10
342.2897786773
 20
467.5933696646
 30
0.0
 40
0.2000000000000057
100
AcDbArc
 50
0.0
 51
89.5
  0
ARC
  5
163
330
124
100
AcDbEntity
  8
(2_2) 411849038_
  6
Continuous
 62
     7
100
AcDbCircle
 10
358.041807563
 20
303.6622655252
 30
0.0
 40
36.28426390608278
100
AcDbArc
 50
84.7685821397
 51
89.9868127948
  0
LINE
  5
164
330
124
100
AcDbEntity
  8
(2_2) 411849038_
  6
Continuous
 62
     7
100
AcDbLine
 10
342.7897786773
 20
352.8841237821
 30
0.0
 11
342.7897786773
 21
400.0953891046
 31
0.0
  0
LINE
  5
165
330
124
100
AcDbEntity
  8
(2_2) 411849038_
  6
Continuous
 62
     7
100
AcDbLine
 10
342.7897786773
 20
351.7037238499
 30
0.0
 11
342.7897786773
 21
352.8841237821
 31
0.0
  0
LINE
  5
166
330
124
100
AcDbEntity
  8
(2_2) 411849038_
  6
Continuous
 62
     7
100
AcDbLine
 10
342.7897786773
 20
340.1457003093
 30
0.0
 11
342.7897786773
 21
351.7037238499
 31
0.0
  0
LINE
  5
167
330
124
100
AcDbEntity
  8
(2_2) 411849038_
  6
Continuous
 62
     7
100
AcDbLine
 10
342.7897786773
 20
340.1457003093
 30
0.0
 11
342.7897786773
 21
339.9953891046
 31
0.0
  0
LINE
  5
168
330
124
100
AcDbEntity
  8
(2_2) 411849038_
  6
Continuous
 62
     7
100
AcDbLine
 10
362.5349146794
 20
352.2953891046
 30
0.0
 11
364.1442656769
 21
352.2953891046
 31
0.0
  0
LINE
  5
169
330
124
100
AcDbEntity
  8
(2_2) 411849038_
  6
Continuous
 62
     7
100
AcDbLine
 10
345.5565691068
 20
400.2953891046
 30
0.0
 11
342.9897786773
 21
400.2953891046
 31
0.0
  0
LINE
  5
16A
330
124
100
AcDbEntity
  8
(2_2) 411849038_
  6
Continuous
 62
     7
100
AcDbLine
 10
364.1442656769
 20
400.2953891046
 30
0.0
 11
361.8577071547
 21
400.2953891046
 31
0.0
  0
LINE
  5
16B
330
124
100
AcDbEntity
  8
(2_2) 411849038_
  6
Continuous
 62
     7
100
AcDbLine
 10
342.5932691586
 20
398.9449439013
 30
0.0
 11
342.4897786773
 21
398.9431374682
 31
0.0
  0
LINE
  5
16C
330
124
100
AcDbEntity
  8
(2_2) 411849038_
  6
Continuous
 62
     7
100
AcDbLine
 10
342.4897786773
 20
353.647640741
 30
0.0
 11
342.5932691586
 21
353.645834308
 31
0.0
  0
LINE
  5
16D
330
124
100
AcDbEntity
  8
(2_2) 411849038_
  6
Continuous
 62
     7
100
AcDbLine
 10
365.1268069702
 20
353.109344468
 30
0.0
 11
365.2897786773
 21
353.9700327135
 31
0.0
  0
LINE
  5
16E
330
124
100
AcDbEntity
  8
(2_2) 411849038_
  6
Continuous
 62
     7
100
AcDbLine
 10
365.2897786773
 20
398.6207454957
 30
0.0
 11
365.1268069702
 21
399.4814337412
 31
0.0
  0
ARC
  5
16F
330
124
100
AcDbEntity
  8
(2_2) 411849038_
  6
Continuous
 62
     7
100
AcDbCircle
 10
247.3848234718
 20
376.2953891046
 30
0.0
 40
120.0
100
AcDbArc
 50
10.191636514
 51
10.722043075
  0
ARC
  5
170
330
124
100
AcDbEntity
  8
(2_2) 411849038_
  6
Continuous
 62
     7
100
AcDbCircle
 10
247.3848234718
 20
376.2953891046
 30
0.0
 40
119.9999999999996
100
AcDbArc
 50
349.277956925
 51
349.808363486
  0
ARC
  5
171
330
124
100
AcDbEntity
  8
(2_2) 411849038_
  6
Continuous
 62
     7
100
AcDbCircle
 10
364.1442656769
 20
353.2953891046
 30
0.0
 40
1.000000000000001
100
AcDbArc
 50
270.0
 51
349.277956925
  0
ARC
  5
172
330
124
100
AcDbEntity
  8
(2_2) 411849038_
  6
Continuous
 62
     7
100
AcDbCircle
 10
364.1442656769
 20
399.2953891046
 30
0.0
 40
1.000000000000206
100
AcDbArc
 50
10.7220430749
 51
90.0
  0
ARC
  5
173
330
124
100
AcDbEntity
  8
(2_2) 411849038_
  6
Continuous
 62
     7
100
AcDbCircle
 10
353.6993004805
 20
423.0832999684
 30
0.0
 40
24.19045850138586
100
AcDbArc
 50
250.621330568
 51
289.4764755329
  0
ARC
  5
174
330
124
100
AcDbEntity
  8
(2_2) 411849038_
  6
Continuous
 62
     7
100
AcDbCircle
 10
359.7735407382
 20
404.8072648987
 30
0.0
 40
4.970903470191386
100
AcDbArc
 50
291.8067521179
 51
294.7883136985
  0
ARC
  5
175
330
124
100
AcDbEntity
  8
(2_2) 411849038_
  6
Continuous
 62
     7
100
AcDbCircle
 10
353.6409759959
 20
422.1067742064
 30
0.0
 40
23.2695214678842
100
AcDbArc
 50
249.6671313178
 51
250.6895025841
  0
ARC
  5
176
330
124
100
AcDbEntity
  8
(2_2) 411849038_
  6
Continuous
 62
     7
100
AcDbCircle
 10
362.5475313305
 20
351.3006773439
 30
0.0
 40
0.9937898703974244
100
AcDbArc
 50
90.7249843297
 51
180.1502647201
  0
LINE
  5
177
330
124
100
AcDbEntity
  8
(2_2) 411849038_
  6
Continuous
 62
     7
100
AcDbLine
 10
361.5501587545
 20
339.9963581854
 30
0.0
 11
361.5501587545
 21
351.298112399
 31
0.0
  0
LINE
  5
178
330
124
100
AcDbEntity
  8
(2_2) 411849038_
  6
Continuous
 62
     7
100
AcDbLine
 10
342.9897786773
 20
339.7953891046
 30
0.0
 11
361.3403615722
 21
339.7953891046
 31
0.0
  0
ARC
  5
179
330
124
100
AcDbEntity
  8
(2_2) 411849038_
  6
Continuous
 62
     7
100
AcDbCircle
 10
342.9897786773
 20
400.0953891046
 30
0.0
 40
0.1999999999999988
100
AcDbArc
 50
90.0
 51
180.0
  0
ARC
  5
17A
330
124
100
AcDbEntity
  8
(2_2) 411849038_
  6
Continuous
 62
     7
100
AcDbCircle
 10
342.9897786773
 20
339.9953891046
 30
0.0
 40
0.1999999999999919
100
AcDbArc
 50
180.0
 51
270.0
  0
ARC
  5
17B
330
124
100
AcDbEntity
  8
(2_2) 411849038_
  6
Continuous
 62
     7
100
AcDbCircle
 10
361.3501587495
 20
339.9953891051
 30
0.0
 40
0.1999999996863208
100
AcDbArc
 50
264.805568257
 51
0.4697375321
  0
ARC
  5
17C
330
124
100
AcDbEntity
  8
(2_2) 411849038_
  6
Continuous
 62
     7
100
AcDbCircle
 10
342.5897786773
 20
353.4458647689
 30
0.0
 40
0.1999999999999941
100
AcDbArc
 50
0.0
 51
89.0
  0
ARC
  5
17D
330
124
100
AcDbEntity
  8
(2_2) 411849038_
  6
Continuous
 62
     7
100
AcDbCircle
 10
342.5897786773
 20
399.1449134403
 30
0.0
 40
0.2000000000000057
100
AcDbArc
 50
271.0
 51
0.0
  0
ARC
  5
17E
330
124
100
AcDbEntity
  8
(2_2) 411849038_
  6
Continuous
 62
     7
100
AcDbCircle
 10
365.3929749202
 20
355.0801542075
 30
0.0
 40
0.1000000000003795
100
AcDbArc
 50
349.8083634872
 51
0.0
  0
ARC
  5
17F
330
124
100
AcDbEntity
  8
(2_2) 411849038_
  6
Continuous
 62
     7
100
AcDbCircle
 10
365.3929749202
 20
397.5106240017
 30
0.0
 40
0.1000000000000029
100
AcDbArc
 50
0.0
 51
10.1916365128
  0
LINE
  5
180
330
124
100
AcDbEntity
  8
(2_2) 411849038_
  6
Continuous
 62
     7
100
AcDbLine
 10
365.4929749202
 20
355.0801542075
 30
0.0
 11
365.4929749202
 21
397.5106240017
 31
0.0
  0
LINE
  5
181
330
124
100
AcDbEntity
  8
(3_3) 408813038_
  6
Continuous
 62
     7
100
AcDbLine
 10
361.2494893782
 20
401.6953891046
 30
0.0
 11
346.1645406357
 21
401.6953891046
 31
0.0
  0
LINE
  5
182
330
124
100
AcDbEntity
  8
(3_3) 408813038_
  6
Continuous
 62
     7
100
AcDbLine
 10
361.4567895768
 20
400.1732128473
 30
0.0
 11
361.4333689462
 21
401.514979878
 31
0.0
  0
LINE
  5
183
330
124
100
AcDbEntity
  8
(3_3) 408813038_
  6
Continuous
 62
     7
100
AcDbLine
 10
345.980675408
 20
401.514979878
 30
0.0
 11
345.9571652109
 21
400.1680815856
 31
0.0
  0
SPLINE
  5
184
330
124
100
AcDbEntity
  8
(3_3) 408813038_
  6
Continuous
 62
     7
100
AcDbSpline
210
0.0
220
0.0
230
1.0
 70
     8
 71
     3
 72
    13
 73
     9
 74
     0
 42
0.000000001
 43
0.0000000001
 40
0.0
 40
0.0
 40
0.0
 40
0.0
 40
0.2554480123726968
 40
0.3808182218131972
 40
0.5000000133769851
 40
0.6191818021612706
 40
0.7445520046050251
 40
1.0
 40
1.0
 40
1.0
 40
1.0
 10
361.4334603370422
 20
401.5096873389513
 30
0.0
 10
361.4330697776037
 20
401.5387210663759
 30
0.0
 10
361.4313773727845
 20
401.5753689310116
 30
0.0
 10
361.4140082625672
 20
401.6252377192541
 30
0.0
 10
361.3917816672345
 20
401.6562748071595
 30
0.0
 10
361.360361402082
 20
401.6779563483651
 30
0.0
 10
361.3101970810801
 20
401.6944524854702
 30
0.0
 10
361.2735252647333
 20
401.6955050398734
 30
0.0
 10
361.244489145826
 20
401.6953888319779
 30
0.0
  0
SPLINE
  5
185
330
124
100
AcDbEntity
  8
(3_3) 408813038_
  6
Continuous
 62
     7
100
AcDbSpline
210
0.0
220
0.0
230
1.0
 70
     8
 71
     3
 72
    13
 73
     9
 74
     0
 42
0.000000001
 43
0.0000000001
 40
0.0
 40
0.0
 40
0.0
 40
0.0
 40
0.255448016554514
 40
0.3808182243781283
 40
0.5000000116524115
 40
0.6191817967470731
 40
0.7445519990174472
 40
1.0
 40
1.0
 40
1.0
 40
1.0
 10
346.1695535641828
 20
401.6953892839283
 30
0.0
 10
346.1405174383103
 20
401.6955054945311
 30
0.0
 10
346.1038456134156
 20
401.6944529431876
 30
0.0
 10
346.0536812799735
 20
401.6779568086018
 30
0.0
 10
346.0222610070072
 20
401.6562752676553
 30
0.0
 10
346.0000344065709
 20
401.6252381775957
 30
0.0
 10
345.9826652939228
 20
401.5753693851119
 30
0.0
 10
345.9809728904073
 20
401.5387215172369
 30
0.0
 10
345.9805823323622
 20
401.5096877875024
 30
0.0
  0
ENDBLK
  5
187
330
124
100
AcDbEntity
  8
0
100
AcDbBlockEnd
  0
BLOCK
  5
1D3
330
188
100
AcDbEntity
  8
0
100
AcDbBlockBegin
  2
SE2
 70
     0
 10
0.0
 20
0.0
 30
0.0
  3
SE2
  1
SE2
  0
LINE
  5
18A
330
188
100
AcDbEntity
  8
(2_2) 411134038_
  6
Continuous
 62
     7
100
AcDbLine
 10
17.35
 20
192.0513201602
 30
0.0
 11
175.35
 21
192.0513201602
 31
0.0
  0
SPLINE
  5
18B
330
188
100
AcDbEntity
  8
(2_2) 411134038_
  6
Continuous
 62
     7
100
AcDbSpline
210
0.0
220
0.0
230
1.0
 70
     8
 71
     3
 72
     8
 73
     4
 74
     0
 42
0.000000001
 43
0.0000000001
 40
0.0734494860904414
 40
0.0734494860904414
 40
0.0734494860904414
 40
0.0734494860904414
 40
0.0901324467310638
 40
0.0901324467310638
 40
0.0901324467310638
 40
0.0901324467310638
 10
78.28353831295713
 20
181.4872458059982
 30
0.0
 10
78.07139188876036
 20
181.4921775965213
 30
0.0
 10
77.89211480565993
 20
181.4972011917422
 30
0.0
 10
77.74803143475216
 20
181.502251139165
 30
0.0
  0
SPLINE
  5
18C
330
188
100
AcDbEntity
  8
(2_2) 411134038_
  6
Continuous
 62
     7
100
AcDbSpline
210
0.0
220
0.0
230
1.0
 70
     8
 71
     3
 72
    28
 73
    24
 74
     0
 42
0.000000001
 43
0.0000000001
 40
0.1461957144704607
 40
0.1461957144704607
 40
0.1461957144704607
 40
0.1461957144704607
 40
0.1875
 40
0.1875
 40
0.21875
 40
0.21875
 40
0.2499999999999999
 40
0.2499999999999999
 40
0.2812499999999999
 40
0.2812499999999999
 40
0.3124999999999999
 40
0.3124999999999999
 40
0.3749999999999998
 40
0.3749999999999998
 40
0.4062499999999998
 40
0.4062499999999998
 40
0.4374999999999998
 40
0.4374999999999998
 40
0.4999999999999998
 40
0.4999999999999998
 40
0.5624999999999998
 40
0.5624999999999998
 40
0.6012546136908756
 40
0.6012546136908756
 40
0.6012546136908756
 40
0.6012546136908756
 10
77.4670554639191
 20
181.5541227811941
 30
0.0
 10
77.68691697812115
 20
181.5668237927052
 30
0.0
 10
78.11800374569403
 20
181.5792546449623
 30
0.0
 10
79.2311444280257
 20
181.6001228114682
 30
0.0
 10
79.81718990553682
 20
181.608633193748
 30
0.0
 10
81.19856594210302
 20
181.6247159375746
 30
0.0
 10
82.0034614199564
 20
181.6323430774275
 30
0.0
 10
83.76336986647125
 20
181.6460219617659
 30
0.0
 10
84.72224517046908
 20
181.652148142209
 30
0.0
 10
86.80004957189502
 20
181.6629539736027
 30
0.0
 10
87.91318262870946
 20
181.6675758960505
 30
0.0
 10
91.35199767181084
 20
181.6786557853372
 30
0.0
 10
93.85957903968828
 20
181.6825416706783
 30
0.0
 10
97.58332300199231
 20
181.6825537202112
 30
0.0
 10
98.84271215317439
 20
181.6815957424787
 30
0.0
 10
101.2895014846989
 20
181.6778104651073
 30
0.0
 10
102.4766783546679
 20
181.675011543247
 30
0.0
 10
105.9300226633556
 20
181.6639076312873
 30
0.0
 10
108.0772364983915
 20
181.6527359178225
 30
0.0
 10
111.5899209471008
 20
181.6253646105385
 30
0.0
 10
113.0070856481018
 20
181.608830379665
 30
0.0
 10
114.5438683351955
 20
181.5799376636669
 30
0.0
 10
114.9591476234004
 20
181.5682373077454
 30
0.0
 10
115.189858728776
 20
181.5563366767313
 30
0.0
  0
SPLINE
  5
18D
330
188
100
AcDbEntity
  8
(2_2) 411134038_
  6
Continuous
 62
     7
100
AcDbSpline
210
0.0
220
0.0
230
1.0
 70
     8
 71
     3
 72
    10
 73
     6
 74
     0
 42
0.000000001
 43
0.0000000001
 40
0.6557362306641169
 40
0.6557362306641169
 40
0.6557362306641169
 40
0.6557362306641169
 40
0.6562499999999998
 40
0.6562499999999998
 40
0.6760928917480166
 40
0.6760928917480166
 40
0.6760928917480166
 40
0.6760928917480166
 10
115.0480915383426
 20
181.505831006613
 30
0.0
 10
115.0441540453017
 20
181.505674563623
 30
0.0
 10
115.0401842260734
 20
181.5055182007641
 30
0.0
 10
114.8816112952881
 20
181.4993260182048
 30
0.0
 10
114.680076123317
 20
181.4933993951951
 30
0.0
 10
114.4315088616205
 20
181.4875822073015
 30
0.0
  0
LINE
  5
18E
330
188
100
AcDbEntity
  8
(2_2) 411134038_
  6
Continuous
 62
     7
100
AcDbLine
 10
17.35
 20
192.0513201602
 30
0.0
 11
17.35
 21
182.8374655386
 31
0.0
  0
LINE
  5
18F
330
188
100
AcDbEntity
  8
(2_2) 411134038_
  6
Continuous
 62
     7
100
AcDbLine
 10
175.35
 20
182.8374655386
 30
0.0
 11
175.35
 21
192.0513201602
 31
0.0
  0
ARC
  5
190
330
188
100
AcDbEntity
  8
(2_2) 411134038_
  6
Continuous
 62
     7
100
AcDbCircle
 10
18.15
 20
182.8374655386
 30
0.0
 40
0.800000000000009
100
AcDbArc
 50
180.0
 51
269.0040994897
  0
ARC
  5
191
330
188
100
AcDbEntity
  8
(2_2) 411134038_
  6
Continuous
 62
     7
100
AcDbCircle
 10
174.55
 20
182.8374655386
 30
0.0
 40
0.8000000000001699
100
AcDbArc
 50
270.9959005103
 51
0.0
  0
SPLINE
  5
192
330
188
100
AcDbEntity
  8
(2_2) 411134038_
  6
Continuous
 62
     7
100
AcDbSpline
210
0.0
220
0.0
230
1.0
 70
     8
 71
     3
 72
    11
 73
     7
 74
     0
 42
0.000000001
 43
0.0000000001
 40
0.0
 40
0.0
 40
0.0
 40
0.0
 40
0.1524228380846017
 40
0.3094194384270771
 40
0.430190611843466
 40
0.4335811309624632
 40
0.4335811309624632
 40
0.4335811309624632
 40
0.4335811309624632
 10
115.1457979397785
 20
181.5573930200912
 30
0.0
 10
115.1715784781127
 20
181.5560098881625
 30
0.0
 10
115.2144721311109
 20
181.55371142819
 30
0.0
 10
115.2544524697621
 20
181.5506751382976
 30
0.0
 10
115.2654522798854
 20
181.5495356167436
 30
0.0
 10
115.26560516493
 20
181.549514643536
 30
0.0
 10
115.2656057293102
 20
181.5495144569277
 30
0.0
  0
SPLINE
  5
193
330
188
100
AcDbEntity
  8
(2_2) 411134038_
  6
Continuous
 62
     7
100
AcDbSpline
210
0.0
220
0.0
230
1.0
 70
     8
 71
     3
 72
    11
 73
     7
 74
     0
 42
0.000000001
 43
0.0000000001
 40
0.6201980885505589
 40
0.6201980885505589
 40
0.6201980885505589
 40
0.6201980885505589
 40
0.6715133997162495
 40
0.8037997115404298
 40
0.9694648877322793
 40
1.0
 40
1.0
 40
1.0
 40
1.0
 10
77.4375286742584
 20
181.5496532563881
 30
0.0
 10
77.43752013700718
 20
181.5496525155376
 30
0.0
 10
77.44011040351323
 20
181.5499524530467
 30
0.0
 10
77.4591226528726
 20
181.5516246374652
 30
0.0
 10
77.48833585082102
 20
181.5538326994883
 30
0.0
 10
77.51445616727365
 20
181.5552057291842
 30
0.0
 10
77.51922060606748
 20
181.5554562704005
 30
0.0
  0
ARC
  5
194
330
188
100
AcDbEntity
  8
(2_2) 411134038_
  6
Continuous
 62
     7
100
AcDbCircle
 10
96.35
 20
4681.3578222781
 30
0.0
 40
4500.0
100
AcDbArc
 50
269.004099489
 51
269.7699993542
  0
ARC
  5
195
330
188
100
AcDbEntity
  8
(2_2) 411134038_
  6
Continuous
 62
     7
100
AcDbCircle
 10
96.35
 20
4681.3578222781
 30
0.0
 40
4500.0
100
AcDbArc
 50
270.2300006458
 51
270.995900511
  0
ARC
  5
196
330
188
100
AcDbEntity
  8
(6_6) 411022038_
  6
Continuous
 62
     7
100
AcDbCircle
 10
96.35
 20
268.8637176518
 30
0.0
 40
120.0
100
AcDbArc
 50
262.8971991539
 51
270.0
  0
ARC
  5
197
330
188
100
AcDbEntity
  8
(6_6) 411022038_
  6
Continuous
 62
     7
100
AcDbCircle
 10
96.35
 20
268.8637176518
 30
0.0
 40
120.0
100
AcDbArc
 50
270.0
 51
277.1028008461
  0
LINE
  5
198
330
188
100
AcDbEntity
  8
(9_9) 411016038_
  6
Continuous
 62
     7
100
AcDbLine
 10
93.0637399698
 20
173.3115439829
 30
0.0
 11
93.2152073765
 21
173.3115439829
 31
0.0
  0
LINE
  5
199
330
188
100
AcDbEntity
  8
(9_9) 411016038_
  6
Continuous
 62
     7
100
AcDbLine
 10
93.2152073765
 20
173.3115439829
 30
0.0
 11
99.4847926235
 21
173.3115439829
 31
0.0
  0
LINE
  5
19A
330
188
100
AcDbEntity
  8
(9_9) 411016038_
  6
Continuous
 62
     7
100
AcDbLine
 10
99.4847926235
 20
173.3115439829
 30
0.0
 11
99.6362600302
 21
173.3115439829
 31
0.0
  0
LINE
  5
19B
330
188
100
AcDbEntity
  8
(9_9) 411016038_
  6
Continuous
 62
     7
100
AcDbLine
 10
92.1472539312
 20
173.3115439829
 30
0.0
 11
93.0637399698
 21
173.3115439829
 31
0.0
  0
LINE
  5
19C
330
188
100
AcDbEntity
  8
(9_9) 411016038_
  6
Continuous
 62
     7
100
AcDbLine
 10
99.6362600302
 20
173.3115439829
 30
0.0
 11
100.5527460688
 21
173.3115439829
 31
0.0
  0
LINE
  5
19D
330
188
100
AcDbEntity
  8
(9_9) 411016038_
  6
Continuous
 62
     7
100
AcDbLine
 10
114.15
 20
173.3115439829
 30
0.0
 11
100.5527460688
 21
173.3115439829
 31
0.0
  0
LINE
  5
19E
330
188
100
AcDbEntity
  8
(9_9) 411016038_
  6
Continuous
 62
     7
100
AcDbLine
 10
92.1472539312
 20
173.3115439829
 30
0.0
 11
78.55
 21
173.3115439829
 31
0.0
  0
LINE
  5
19F
330
188
100
AcDbEntity
  8
(9_9) 411016038_
  6
Continuous
 62
     7
100
AcDbLine
 10
114.35
 20
151.0260233077
 30
0.0
 11
114.35
 21
173.1115439829
 31
0.0
  0
LINE
  5
1A0
330
188
100
AcDbEntity
  8
(9_9) 411016038_
  6
Continuous
 62
     7
100
AcDbLine
 10
78.35
 20
173.1115439829
 30
0.0
 11
78.35
 21
151.0260233077
 31
0.0
  0
ARC
  5
1A1
330
188
100
AcDbEntity
  8
(9_9) 411016038_
  6
Continuous
 62
     7
100
AcDbCircle
 10
96.35
 20
268.8115439829
 30
0.0
 40
120.0
100
AcDbArc
 50
262.3627246849
 51
262.6954509036
  0
ARC
  5
1A2
330
188
100
AcDbEntity
  8
(9_9) 411016038_
  6
Continuous
 62
     7
100
AcDbCircle
 10
96.35
 20
268.8115439829
 30
0.0
 40
120.0
100
AcDbArc
 50
277.3045490964
 51
277.6372753151
  0
LINE
  5
1A3
330
188
100
AcDbEntity
  8
(9_9) 411016038_
  6
Continuous
 62
     7
100
AcDbLine
 10
79.2170987758
 20
150.0348940202
 30
0.0
 11
80.401853092
 21
149.8760294795
 31
0.0
  0
LINE
  5
1A4
330
188
100
AcDbEntity
  8
(9_9) 411016038_
  6
Continuous
 62
     7
100
AcDbLine
 10
112.298146908
 20
149.8760294795
 30
0.0
 11
113.4829012242
 21
150.0348940202
 31
0.0
  0
ARC
  5
1A5
330
188
100
AcDbEntity
  8
(9_9) 411016038_
  6
Continuous
 62
     7
100
AcDbCircle
 10
113.35
 20
151.0260233077
 30
0.0
 40
0.9999999999999902
100
AcDbArc
 50
277.6372753151
 51
0.0
  0
ARC
  5
1A6
330
188
100
AcDbEntity
  8
(9_9) 411016038_
  6
Continuous
 62
     7
100
AcDbCircle
 10
79.35
 20
151.0260233077
 30
0.0
 40
1.000000000000001
100
AcDbArc
 50
180.0
 51
262.3627246849
  0
ARC
  5
1A7
330
188
100
AcDbEntity
  8
(9_9) 411016038_
  6
Continuous
 62
     7
100
AcDbCircle
 10
114.15
 20
173.1115439829
 30
0.0
 40
0.1999999999999988
100
AcDbArc
 50
0.0
 51
90.0
  0
ARC
  5
1A8
330
188
100
AcDbEntity
  8
(9_9) 411016038_
  6
Continuous
 62
     7
100
AcDbCircle
 10
78.55
 20
173.1115439829
 30
0.0
 40
0.2000000000000057
100
AcDbArc
 50
90.0
 51
180.0
  0
LINE
  5
1A9
330
188
100
AcDbEntity
  8
(9_9) 411016038_
  6
Continuous
 62
     7
100
AcDbLine
 10
79.35
 20
173.6115439829
 30
0.0
 11
79.35
 21
173.5115439829
 31
0.0
  0
LINE
  5
1AA
330
188
100
AcDbEntity
  8
(9_9) 411016038_
  6
Continuous
 62
     7
100
AcDbLine
 10
113.35
 20
173.5115439829
 30
0.0
 11
113.35
 21
173.6115439829
 31
0.0
  0
ARC
  5
1AB
330
188
100
AcDbEntity
  8
(9_9) 411016038_
  6
Continuous
 62
     7
100
AcDbCircle
 10
81.1055109734
 20
149.8846103038
 30
0.0
 40
0.0999999999996394
100
AcDbArc
 50
262.695450902
 51
270.0
  0
ARC
  5
1AC
330
188
100
AcDbEntity
  8
(9_9) 411016038_
  6
Continuous
 62
     7
100
AcDbCircle
 10
111.5944890266
 20
149.8846103038
 30
0.0
 40
0.1000000000000029
100
AcDbArc
 50
270.0
 51
277.304549098
  0
LINE
  5
1AD
330
188
100
AcDbEntity
  8
(9_9) 411016038_
  6
Continuous
 62
     7
100
AcDbLine
 10
81.1055109734
 20
149.7846103038
 30
0.0
 11
111.5944890266
 21
149.7846103038
 31
0.0
  0
ARC
  5
1AE
330
188
100
AcDbEntity
  8
(9_9) 411016038_
  6
Continuous
 62
     7
100
AcDbCircle
 10
113.55
 20
173.5115439829
 30
0.0
 40
0.1999999999999919
100
AcDbArc
 50
180.0
 51
270.0
  0
ARC
  5
1AF
330
188
100
AcDbEntity
  8
(9_9) 411016038_
  6
Continuous
 62
     7
100
AcDbCircle
 10
79.15
 20
173.5115439829
 30
0.0
 40
0.1999999999999988
100
AcDbArc
 50
270.0
 51
0.0
  0
ARC
  5
1B0
330
188
100
AcDbEntity
  8
(2_2) 408676138_
  6
Continuous
 62
     7
100
AcDbCircle
 10
96.35
 20
268.600849115
 30
0.0
 40
120.0
100
AcDbArc
 50
259.9860330403
 51
270.0
  0
ARC
  5
1B1
330
188
100
AcDbEntity
  8
(2_2) 408676138_
  6
Continuous
 62
     7
100
AcDbCircle
 10
96.35
 20
268.600849115
 30
0.0
 40
120.0
100
AcDbArc
 50
270.0
 51
280.0139669597
  0
ARC
  5
1B2
330
188
100
AcDbEntity
  8
(2_2) 408676138_
  6
Continuous
 62
     7
100
AcDbCircle
 10
75.5355778477
 20
150.724431497
 30
0.0
 40
0.3000000000000001
100
AcDbArc
 50
202.7645946393
 51
259.9860330404
  0
ARC
  5
1B3
330
188
100
AcDbEntity
  8
(2_2) 408676138_
  6
Continuous
 62
     7
100
AcDbCircle
 10
117.1644221523
 20
150.724431497
 30
0.0
 40
0.3000000000000294
100
AcDbArc
 50
280.0139669596
 51
337.2354053607
  0
LINE
  5
1B4
330
188
100
AcDbEntity
  8
(5_5) 408666038_
  6
Continuous
 62
     7
100
AcDbLine
 10
120.10298056
 20
173.6115439829
 30
0.0
 11
114.14798056
 21
173.6115439829
 31
0.0
  0
LINE
  5
1B5
330
188
100
AcDbEntity
  8
(5_5) 408666038_
  6
Continuous
 62
     7
100
AcDbLine
 10
78.55201944
 20
173.6115439829
 30
0.0
 11
72.59701944
 21
173.6115439829
 31
0.0
  0
LINE
  5
1B6
330
188
100
AcDbEntity
  8
(5_5) 408666038_
  6
Continuous
 62
     7
100
AcDbLine
 10
72.3305970244
 20
181.4219262591
 30
0.0
 11
72.3970270554
 21
173.8097986758
 31
0.0
  0
LINE
  5
1B7
330
188
100
AcDbEntity
  8
(5_5) 408666038_
  6
Continuous
 62
     7
100
AcDbLine
 10
120.3029729446
 20
173.8097986758
 30
0.0
 11
120.3694029756
 21
181.4219262591
 31
0.0
  0
ARC
  5
1B8
330
188
100
AcDbEntity
  8
(5_5) 408666038_
  6
Continuous
 62
     7
100
AcDbCircle
 10
72.59701944
 20
173.8115439829
 30
0.0
 40
0.1999999999999988
100
AcDbArc
 50
180.5
 51
270.0
  0
ARC
  5
1B9
330
188
100
AcDbEntity
  8
(5_5) 408666038_
  6
Continuous
 62
     7
100
AcDbCircle
 10
120.10298056
 20
173.8115439829
 30
0.0
 40
0.1999999999999919
100
AcDbArc
 50
270.0
 51
359.5
  0
LINE
  5
1BA
330
188
100
AcDbEntity
  8
(3_3) 411014038_
  6
Continuous
 62
     7
100
AcDbLine
 10
78.55201944
 20
173.6115439829
 30
0.0
 11
114.14798056
 21
173.6115439829
 31
0.0
  0
LINE
  5
1BB
330
188
100
AcDbEntity
  8
(3_3) 411014038_
  6
Continuous
 62
     7
100
AcDbLine
 10
78.2842086585
 20
181.5810172233
 30
0.0
 11
78.3520270554
 21
173.8097986758
 31
0.0
  0
LINE
  5
1BC
330
188
100
AcDbEntity
  8
(3_3) 411014038_
  6
Continuous
 62
     7
100
AcDbLine
 10
114.3479729446
 20
173.8097986758
 30
0.0
 11
114.4157918498
 21
181.5810754788
 31
0.0
  0
ARC
  5
1BD
330
188
100
AcDbEntity
  8
(3_3) 411014038_
  6
Continuous
 62
     7
100
AcDbCircle
 10
78.55201944
 20
173.8115439829
 30
0.0
 40
0.1999999999999988
100
AcDbArc
 50
180.5
 51
270.0
  0
ARC
  5
1BE
330
188
100
AcDbEntity
  8
(3_3) 411014038_
  6
Continuous
 62
     7
100
AcDbCircle
 10
114.14798056
 20
173.8115439829
 30
0.0
 40
0.2000000000000057
100
AcDbArc
 50
270.0
 51
359.5
  0
LINE
  5
1BF
330
188
100
AcDbEntity
  8
(2_2) 411849038_
  6
Continuous
 62
     7
100
AcDbLine
 10
72.55
 20
173.3115439829
 30
0.0
 11
78.55
 21
173.3115439829
 31
0.0
  0
LINE
  5
1C0
330
188
100
AcDbEntity
  8
(2_2) 411849038_
  6
Continuous
 62
     7
100
AcDbLine
 10
114.15
 20
173.3115439829
 30
0.0
 11
120.15
 21
173.3115439829
 31
0.0
  0
LINE
  5
1C1
330
188
100
AcDbEntity
  8
(2_2) 411849038_
  6
Continuous
 62
     7
100
AcDbLine
 10
72.35
 20
173.1115439829
 30
0.0
 11
72.35
 21
151.9570569834
 31
0.0
  0
LINE
  5
1C2
330
188
100
AcDbEntity
  8
(2_2) 411849038_
  6
Continuous
 62
     7
100
AcDbLine
 10
120.35
 20
151.9570569834
 30
0.0
 11
120.35
 21
173.1115439829
 31
0.0
  0
LINE
  5
1C3
330
188
100
AcDbEntity
  8
(2_2) 411849038_
  6
Continuous
 62
     7
100
AcDbLine
 10
118.9995547967
 20
173.5080535016
 30
0.0
 11
118.9977483636
 21
173.6115439829
 31
0.0
  0
LINE
  5
1C4
330
188
100
AcDbEntity
  8
(2_2) 411849038_
  6
Continuous
 62
     7
100
AcDbLine
 10
73.7022516364
 20
173.6115439829
 30
0.0
 11
73.7004452033
 21
173.5080535016
 31
0.0
  0
LINE
  5
1C5
330
188
100
AcDbEntity
  8
(2_2) 411849038_
  6
Continuous
 62
     7
100
AcDbLine
 10
73.1639553634
 20
150.97451569
 30
0.0
 11
74.0246436089
 21
150.8115439829
 31
0.0
  0
LINE
  5
1C6
330
188
100
AcDbEntity
  8
(2_2) 411849038_
  6
Continuous
 62
     7
100
AcDbLine
 10
118.6753563911
 20
150.8115439829
 30
0.0
 11
119.5360446366
 21
150.97451569
 31
0.0
  0
ARC
  5
1C7
330
188
100
AcDbEntity
  8
(2_2) 411849038_
  6
Continuous
 62
     7
100
AcDbCircle
 10
96.35
 20
268.7164991884
 30
0.0
 40
119.9999999999998
100
AcDbArc
 50
259.277956925
 51
259.808363486
  0
ARC
  5
1C8
330
188
100
AcDbEntity
  8
(2_2) 411849038_
  6
Continuous
 62
     7
100
AcDbCircle
 10
96.35
 20
268.7164991884
 30
0.0
 40
120.0
100
AcDbArc
 50
280.191636514
 51
280.722043075
  0
ARC
  5
1C9
330
188
100
AcDbEntity
  8
(2_2) 411849038_
  6
Continuous
 62
     7
100
AcDbCircle
 10
73.35
 20
151.9570569834
 30
0.0
 40
0.9999999999999662
100
AcDbArc
 50
180.0
 51
259.2779569251
  0
ARC
  5
1CA
330
188
100
AcDbEntity
  8
(2_2) 411849038_
  6
Continuous
 62
     7
100
AcDbCircle
 10
119.35
 20
151.9570569834
 30
0.0
 40
1.000000000000101
100
AcDbArc
 50
280.7220430749
 51
0.0
  0
ARC
  5
1CB
330
188
100
AcDbEntity
  8
(2_2) 411849038_
  6
Continuous
 62
     7
100
AcDbCircle
 10
72.55
 20
173.1115439829
 30
0.0
 40
0.1999999999999919
100
AcDbArc
 50
90.0
 51
180.0
  0
ARC
  5
1CC
330
188
100
AcDbEntity
  8
(2_2) 411849038_
  6
Continuous
 62
     7
100
AcDbCircle
 10
120.15
 20
173.1115439829
 30
0.0
 40
0.1999999999999988
100
AcDbArc
 50
0.0
 51
90.0
  0
ARC
  5
1CD
330
188
100
AcDbEntity
  8
(2_2) 411849038_
  6
Continuous
 62
     7
100
AcDbCircle
 10
73.5004756643
 20
173.5115439829
 30
0.0
 40
0.1999999999999976
100
AcDbArc
 50
270.0
 51
359.0
  0
ARC
  5
1CE
330
188
100
AcDbEntity
  8
(2_2) 411849038_
  6
Continuous
 62
     7
100
AcDbCircle
 10
119.1995243357
 20
173.5115439829
 30
0.0
 40
0.1999999999999919
100
AcDbArc
 50
181.0
 51
270.0
  0
ARC
  5
1CF
330
188
100
AcDbEntity
  8
(2_2) 411849038_
  6
Continuous
 62
     7
100
AcDbCircle
 10
75.1347651029
 20
150.7083477401
 30
0.0
 40
0.1000000000003795
100
AcDbArc
 50
259.8083634872
 51
270.0
  0
ARC
  5
1D0
330
188
100
AcDbEntity
  8
(2_2) 411849038_
  6
Continuous
 62
     7
100
AcDbCircle
 10
117.5652348971
 20
150.7083477401
 30
0.0
 40
0.1000000000000029
100
AcDbArc
 50
270.0
 51
280.1916365128
  0
LINE
  5
1D1
330
188
100
AcDbEntity
  8
(2_2) 411849038_
  6
Continuous
 62
     7
100
AcDbLine
 10
75.1347651029
 20
150.6083477401
 30
0.0
 11
78.4414037639
 21
150.6083477401
 31
0.0
  0
LINE
  5
1D2
330
188
100
AcDbEntity
  8
(2_2) 411849038_
  6
Continuous
 62
     7
100
AcDbLine
 10
114.2585962361
 20
150.6083477401
 30
0.0
 11
117.5652348971
 21
150.6083477401
 31
0.0
  0
ENDBLK
  5
1D4
330
188
100
AcDbEntity
  8
0
100
AcDbBlockEnd
  0
ENDSEC
  0
SECTION
  2
ENTITIES
  0
LINE
  5
6C
330
1F
100
AcDbEntity
  8
Default
  6
CENTER2
 62
     7
100
AcDbLine
 10
96.35
 20
496.6089286432
 30
0.0
 11
96.35
 21
331.5976021726
 31
0.0
  0
LINE
  5
6D
330
1F
100
AcDbEntity
  8
Default
  6
CENTER2
 62
     7
100
AcDbLine
 10
178.3190890689
 20
414.7953891046
 30
0.0
 11
14.1568774858
 21
414.7953891046
 31
0.0
  0
LINE
  5
6E
330
1F
100
AcDbEntity
  8
Default
  6
CENTER2
 62
     7
100
AcDbLine
 10
316.5035538603
 20
414.909477918
 30
0.0
 11
338.4390217873
 21
414.909477918
 31
0.0
  0
LINE
  5
6F
330
1F
100
AcDbEntity
  8
Default
  6
CENTER2
 62
     7
100
AcDbLine
 10
96.35
 20
196.3395812982
 30
0.0
 11
96.35
 21
179.6403218441
 31
0.0
  0
INSERT
  5
71
330
1F
100
AcDbEntity
  8
Default
100
AcDbBlockReference
  2
SE
 10
0.0
 20
0.0
 30
0.0
  0
INSERT
  5
125
330
1F
100
AcDbEntity
  8
Default
100
AcDbBlockReference
  2
SE1
 10
0.0
 20
0.0
 30
0.0
  0
INSERT
  5
189
330
1F
100
AcDbEntity
  8
Default
100
AcDbBlockReference
  2
SE2
 10
0.0
 20
0.0
 30
0.0
  0
MTEXT
  5
1D5
330
1F
100
AcDbEntity
  8
Default
100
AcDbMText
 10
5.9362635081
 20
63.4225120485
 30
0.0
 40
10.0
 41
113.8626497168
 71
     1
 72
     1
  1
{\fSolid Edge ISO|b0||i0||c0|p34;\C7;\H10.;\W1.;Grohe AG\P}{\fSolid Edge ISO|b0||i0||c0|p34;\C7;\H10.;\W1.;\P}{\fSolid Edge ISO|b0||i0||c0|p34;\C7;\H10.;\W1.;ecn:\P}{\fSolid Edge ISO|b0||i0||c0|p34;\C7;\H10.;\W1.;unit: mm}
 73
     1
 44
1.0
1001
ACAD
1000
ACAD_MTEXT_DEFINED_HEIGHT_BEGIN
1070
    46
1040
65.4545454545
1000
ACAD_MTEXT_DEFINED_HEIGHT_END
  0
LINE
  5
1D6
330
1F
100
AcDbEntity
  8
Default
  6
Continuous
 62
     7
100
AcDbLine
 10
0.0
 20
0.0
 30
0.0
 11
100.0
 21
0.0
 31
0.0
  0
LINE
  5
1D7
330
1F
100
AcDbEntity
  8
Default
  6
Continuous
 62
     7
100
AcDbLine
 10
0.0
 20
0.0
 30
0.0
 11
0.0
 21
100.0
 31
0.0
  0
MTEXT
  5
1D8
330
1F
100
AcDbEntity
  8
Default
100
AcDbMText
 10
24.3923665681
 20
-8.2375342018
 30
0.0
 40
10.0
 41
35.00001
 71
     1
 72
     1
  1
{\fSolid Edge ISO|b0||i0||c0|p34;\C7;\H10.;\W1.;100 mm}
 73
     1
 44
1.0
1001
ACAD
1000
ACAD_MTEXT_DEFINED_HEIGHT_BEGIN
1070
    46
1040
16.3636363636
1000
ACAD_MTEXT_DEFINED_HEIGHT_END
  0
MTEXT
  5
1D9
330
1F
100
AcDbEntity
  8
Default
100
AcDbMText
 10
-20.5695763349
 20
24.6231930421
 30
0.0
 40
10.0
 41
35.00001
 71
     1
 72
     1
  1
{\fSolid Edge ISO|b0||i0||c0|p34;\C7;\H10.;\W1.;100 mm}
 11
6.123233995736766E-17
 21
1.0
 31
0.0
 73
     1
 44
1.0
1001
ACAD
1000
ACAD_MTEXT_DEFINED_HEIGHT_BEGIN
1070
    46
1040
16.3636363636
1000
ACAD_MTEXT_DEFINED_HEIGHT_END
  0
MTEXT
  5
1DA
330
1F
100
AcDbEntity
  8
Default
100
AcDbMText
 10
28.4878128572
 20
24.8634936442
 30
0.0
 40
10.0
 41
86.691737001
 71
     4
 72
     1
  1
{\fSolid Edge ISO|b0||i0||c0|p34;\C7;\H10.;\W1.;242272}
 73
     1
 44
1.0
1001
ACAD
1000
ACAD_MTEXT_DEFINED_HEIGHT_BEGIN
1070
    46
1040
16.3636363636
1000
ACAD_MTEXT_DEFINED_HEIGHT_END
  0
MTEXT
  5
1DB
330
1F
100
AcDbEntity
  8
Default
100
AcDbMText
 10
5.9012241913
 20
41.4970052916
 30
0.0
 40
10.0
 41
109.9146987306
 71
     4
 72
     1
  1
{\fSolid Edge ISO|b0||i0||c0|p34;\C7;\H10.;\W1.;24133000}
 73
     1
 44
1.0
1001
ACAD
1000
ACAD_MTEXT_DEFINED_HEIGHT_BEGIN
1070
    46
1040
16.3636363636
1000
ACAD_MTEXT_DEFINED_HEIGHT_END
  0
ENDSEC
  0
SECTION
  2
OBJECTS
  0
DICTIONARY
  5
C
330
0
100
AcDbDictionary
281
     1
  3
ACAD_GROUP
350
D
  3
ACAD_LAYOUT
350
1A
  3
ACAD_MATERIAL
350
43
  3
ACAD_MLEADERSTYLE
350
1DE
  3
ACAD_MLINESTYLE
350
17
  3
ACAD_PLOTSETTINGS
350
19
  3
ACAD_PLOTSTYLENAME
350
E
  3
ACAD_SCALELIST
350
47
  3
ACAD_VISUALSTYLE
350
2A
  3
AcDbVariableDictionary
350
1DC
  0
DICTIONARY
  5
D
102
{ACAD_REACTORS
330
C
102
}
330
C
100
AcDbDictionary
281
     1
  0
DICTIONARY
  5
1A
102
{ACAD_REACTORS
330
C
102
}
330
C
100
AcDbDictionary
281
     1
  3
Layout1
350
1E
  3
Model
350
22
  0
DICTIONARY
  5
43
102
{ACAD_REACTORS
330
C
102
}
330
C
100
AcDbDictionary
281
     1
  3
ByBlock
350
45
  3
ByLayer
350
44
  3
Global
350
46
  0
DICTIONARY
  5
1DE
102
{ACAD_REACTORS
330
C
102
}
330
C
100
AcDbDictionary
281
     1
  0
DICTIONARY
  5
17
102
{ACAD_REACTORS
330
C
102
}
330
C
100
AcDbDictionary
281
     1
  3
Standard
350
18
  0
DICTIONARY
  5
19
102
{ACAD_REACTORS
330
C
102
}
330
C
100
AcDbDictionary
281
     1
  0
ACDBDICTIONARYWDFLT
  5
E
102
{ACAD_REACTORS
330
C
102
}
330
C
100
AcDbDictionary
281
     1
  3
Normal
350
F
100
AcDbDictionaryWithDefault
340
F
  0
DICTIONARY
  5
47
102
{ACAD_REACTORS
330
C
102
}
330
C
100
AcDbDictionary
281
     1
  3
A0
350
48
  3
A1
350
49
  3
A2
350
4A
  3
A3
350
4B
  3
A4
350
4C
  3
A5
350
4D
  3
A6
350
4E
  3
A7
350
4F
  3
A8
350
50
  3
A9
350
51
  3
B0
350
52
  3
B1
350
53
  3
B2
350
54
  3
B3
350
55
  3
B4
350
56
  3
B5
350
57
  3
B6
350
58
  3
B7
350
59
  3
B8
350
5A
  3
B9
350
5B
  3
C0
350
5C
  3
C1
350
5D
  3
C2
350
5E
  3
C3
350
5F
  3
C4
350
60
  3
C5
350
61
  3
C6
350
62
  3
C7
350
63
  3
C8
350
64
  3
C9
350
65
  3
D0
350
66
  3
D1
350
67
  3
D2
350
68
  0
DICTIONARY
  5
2A
102
{ACAD_REACTORS
330
C
102
}
330
C
100
AcDbDictionary
281
     1
  3
2dWireframe
350
2F
  3
Basic
350
32
  3
Brighten
350
36
  3
ColorChange
350
3A
  3
Conceptual
350
34
  3
Dim
350
35
  3
EdgeColorOff
350
3D
  3
Facepattern
350
39
  3
Flat
350
2B
  3
FlatWithEdges
350
2C
  3
Gouraud
350
2D
  3
GouraudWithEdges
350
2E
  3
Hidden
350
31
  3
JitterOff
350
3B
  3
Linepattern
350
38
  3
OverhangOff
350
3C
  3
Realistic
350
33
  3
Shaded
350
42
  3
Shaded with edges
350
41
  3
Shades of Gray
350
3E
  3
Sketchy
350
3F
  3
Thicken
350
37
  3
Wireframe
350
30
  3
X-Ray
350
40
  0
DICTIONARY
  5
1DC
102
{ACAD_REACTORS
330
C
102
}
330
C
100
AcDbDictionary
281
     1
  3
CANNOSCALE
350
1E5
  3
DIMASSOC
350
1E3
  3
HIDETEXT
350
1E4
  3
MSLTSCALE
350
1E6
  3
PSOLHEIGHT
350
1E0
  3
PSOLWIDTH
350
1DF
  0
LAYOUT
  5
1E
102
{ACAD_REACTORS
330
1A
102
}
330
1A
100
AcDbPlotSettings
  1

  2
none_device
  4

  6

 40
0.0
 41
0.0
 42
0.0
 43
0.0
 44
0.0
 45
0.0
 46
0.0
 47
0.0
 48
0.0
 49
0.0
140
0.0
141
0.0
142
1.0
143
1.0
 70
   688
 72
     1
 73
     0
 74
     5
  7

 75
    16
147
1.0
148
0.0
149
0.0
100
AcDbLayout
  1
Layout1
 70
     1
 71
     1
 10
0.0
 20
0.0
 11
3000.0
 21
4500.0
 12
0.0
 22
0.0
 32
0.0
 14
0.0
 24
0.0
 34
0.0
 15
3000.0
 25
4500.0
 35
0.0
146
0.0
 13
0.0
 23
0.0
 33
0.0
 16
1.0
 26
0.0
 36
0.0
 17
0.0
 27
1.0
 37
0.0
 76
     0
330
1B
  0
LAYOUT
  5
22
102
{ACAD_REACTORS
330
1A
102
}
330
1A
100
AcDbPlotSettings
  1

  2
none_device
  4
Letter_(8.50_x_11.00_Inches)
  6

 40
6.35
 41
6.35
 42
6.35000508
 43
6.35000508
 44
215.9
 45
279.4
 46
0.0
 47
0.0
 48
0.0
 49
0.0
140
0.0
141
0.0
142
1.0
143
1.0
 70
  1712
 72
     1
 73
     0
 74
     0
  7

 75
     0
147
1.0
148
0.0
149
0.0
100
AcDbLayout
  1
Model
 70
     1
 71
     0
 10
0.0
 20
0.0
 11
3000.0
 21
4500.0
 12
0.0
 22
0.0
 32
0.0
 14
0.0
 24
0.0
 34
0.0
 15
3000.0
 25
4500.0
 35
0.0
146
0.0
 13
0.0
 23
0.0
 33
0.0
 16
1.0
 26
0.0
 36
0.0
 17
0.0
 27
1.0
 37
0.0
 76
     0
330
1F
331
29
  0
MATERIAL
  5
45
102
{ACAD_REACTORS
330
43
102
}
102
{ACAD_XDICTIONARY
360
219
102
}
330
43
100
AcDbMaterial
  1
ByBlock
  0
MATERIAL
  5
44
102
{ACAD_REACTORS
330
43
102
}
102
{ACAD_XDICTIONARY
360
217
102
}
330
43
100
AcDbMaterial
  1
ByLayer
  0
MATERIAL
  5
46
102
{ACAD_REACTORS
330
43
102
}
102
{ACAD_XDICTIONARY
360
21B
102
}
330
43
100
AcDbMaterial
  1
Global
  0
MLINESTYLE
  5
18
102
{ACAD_REACTORS
330
17
102
}
330
17
100
AcDbMlineStyle
  2
Standard
 70
     0
  3

 62
   256
 51
90.0
 52
90.0
 71
     2
 49
0.5
 62
   256
  6
BYLAYER
 49
-0.5
 62
   256
  6
BYLAYER
  0
ACDBPLACEHOLDER
  5
F
102
{ACAD_REACTORS
330
E
102
}
330
E
  0
SCALE
  5
48
102
{ACAD_REACTORS
330
47
102
}
330
47
100
AcDbScale
 70
     0
300
1:1
140
1.0
141
1.0
290
     1
  0
SCALE
  5
49
102
{ACAD_REACTORS
330
47
102
}
330
47
100
AcDbScale
 70
     0
300
1:2
140
1.0
141
2.0
290
     0
  0
SCALE
  5
4A
102
{ACAD_REACTORS
330
47
102
}
330
47
100
AcDbScale
 70
     0
300
1:4
140
1.0
141
4.0
290
     0
  0
SCALE
  5
4B
102
{ACAD_REACTORS
330
47
102
}
330
47
100
AcDbScale
 70
     0
300
1:5
140
1.0
141
5.0
290
     0
  0
SCALE
  5
4C
102
{ACAD_REACTORS
330
47
102
}
330
47
100
AcDbScale
 70
     0
300
1:8
140
1.0
141
8.0
290
     0
  0
SCALE
  5
4D
102
{ACAD_REACTORS
330
47
102
}
330
47
100
AcDbScale
 70
     0
300
1:10
140
1.0
141
10.0
290
     0
  0
SCALE
  5
4E
102
{ACAD_REACTORS
330
47
102
}
330
47
100
AcDbScale
 70
     0
300
1:16
140
1.0
141
16.0
290
     0
  0
SCALE
  5
4F
102
{ACAD_REACTORS
330
47
102
}
330
47
100
AcDbScale
 70
     0
300
1:20
140
1.0
141
20.0
290
     0
  0
SCALE
  5
50
102
{ACAD_REACTORS
330
47
102
}
330
47
100
AcDbScale
 70
     0
300
1:30
140
1.0
141
30.0
290
     0
  0
SCALE
  5
51
102
{ACAD_REACTORS
330
47
102
}
330
47
100
AcDbScale
 70
     0
300
1:40
140
1.0
141
40.0
290
     0
  0
SCALE
  5
52
102
{ACAD_REACTORS
330
47
102
}
330
47
100
AcDbScale
 70
     0
300
1:50
140
1.0
141
50.0
290
     0
  0
SCALE
  5
53
102
{ACAD_REACTORS
330
47
102
}
330
47
100
AcDbScale
 70
     0
300
1:100
140
1.0
141
100.0
290
     0
  0
SCALE
  5
54
102
{ACAD_REACTORS
330
47
102
}
330
47
100
AcDbScale
 70
     0
300
2:1
140
2.0
141
1.0
290
     0
  0
SCALE
  5
55
102
{ACAD_REACTORS
330
47
102
}
330
47
100
AcDbScale
 70
     0
300
4:1
140
4.0
141
1.0
290
     0
  0
SCALE
  5
56
102
{ACAD_REACTORS
330
47
102
}
330
47
100
AcDbScale
 70
     0
300
8:1
140
8.0
141
1.0
290
     0
  0
SCALE
  5
57
102
{ACAD_REACTORS
330
47
102
}
330
47
100
AcDbScale
 70
     0
300
10:1
140
10.0
141
1.0
290
     0
  0
SCALE
  5
58
102
{ACAD_REACTORS
330
47
102
}
330
47
100
AcDbScale
 70
     0
300
100:1
140
100.0
141
1.0
290
     0
  0
SCALE
  5
59
102
{ACAD_REACTORS
330
47
102
}
330
47
100
AcDbScale
 70
     0
300
1/128" = 1'-0"
140
0.0078125
141
12.0
290
     0
  0
SCALE
  5
5A
102
{ACAD_REACTORS
330
47
102
}
330
47
100
AcDbScale
 70
     0
300
1/64" = 1'-0"
140
0.015625
141
12.0
290
     0
  0
SCALE
  5
5B
102
{ACAD_REACTORS
330
47
102
}
330
47
100
AcDbScale
 70
     0
300
1/32" = 1'-0"
140
0.03125
141
12.0
290
     0
  0
SCALE
  5
5C
102
{ACAD_REACTORS
330
47
102
}
330
47
100
AcDbScale
 70
     0
300
1/16" = 1'-0"
140
0.0625
141
12.0
290
     0
  0
SCALE
  5
5D
102
{ACAD_REACTORS
330
47
102
}
330
47
100
AcDbScale
 70
     0
300
3/32" = 1'-0"
140
0.09375
141
12.0
290
     0
  0
SCALE
  5
5E
102
{ACAD_REACTORS
330
47
102
}
330
47
100
AcDbScale
 70
     0
300
1/8" = 1'-0"
140
0.125
141
12.0
290
     0
  0
SCALE
  5
5F
102
{ACAD_REACTORS
330
47
102
}
330
47
100
AcDbScale
 70
     0
300
3/16" = 1'-0"
140
0.1875
141
12.0
290
     0
  0
SCALE
  5
60
102
{ACAD_REACTORS
330
47
102
}
330
47
100
AcDbScale
 70
     0
300
1/4" = 1'-0"
140
0.25
141
12.0
290
     0
  0
SCALE
  5
61
102
{ACAD_REACTORS
330
47
102
}
330
47
100
AcDbScale
 70
     0
300
3/8" = 1'-0"
140
0.375
141
12.0
290
     0
  0
SCALE
  5
62
102
{ACAD_REACTORS
330
47
102
}
330
47
100
AcDbScale
 70
     0
300
1/2" = 1'-0"
140
0.5
141
12.0
290
     0
  0
SCALE
  5
63
102
{ACAD_REACTORS
330
47
102
}
330
47
100
AcDbScale
 70
     0
300
3/4" = 1'-0"
140
0.75
141
12.0
290
     0
  0
SCALE
  5
64
102
{ACAD_REACTORS
330
47
102
}
330
47
100
AcDbScale
 70
     0
300
1" = 1'-0"
140
1.0
141
12.0
290
     0
  0
SCALE
  5
65
102
{ACAD_REACTORS
330
47
102
}
330
47
100
AcDbScale
 70
     0
300
1-1/2" = 1'-0"
140
1.5
141
12.0
290
     0
  0
SCALE
  5
66
102
{ACAD_REACTORS
330
47
102
}
330
47
100
AcDbScale
 70
     0
300
3" = 1'-0"
140
3.0
141
12.0
290
     0
  0
SCALE
  5
67
102
{ACAD_REACTORS
330
47
102
}
330
47
100
AcDbScale
 70
     0
300
6" = 1'-0"
140
6.0
141
12.0
290
     0
  0
SCALE
  5
68
102
{ACAD_REACTORS
330
47
102
}
330
47
100
AcDbScale
 70
     0
300
1'-0" = 1'-0"
140
12.0
141
12.0
290
     0
  0
VISUALSTYLE
  5
2F
102
{ACAD_REACTORS
330
2A
102
}
102
{ACAD_XDICTIONARY
360
1EF
102
}
330
2A
100
AcDbVisualStyle
  2
2dWireframe
 70
     4
 71
     0
 72
     2
 73
     0
 90
        0
 40
0.6
 41
30.0
 62
     5
 63
     7
 74
     1
 91
        4
 64
     7
 65
   257
 75
     1
175
     1
 42
1.0
 92
        0
 66
   257
 43
1.0
 76
     1
 77
     6
 78
     2
 67
     7
 79
     5
170
     0
171
     0
290
     0
174
     0
 93
        1
 44
0.0
173
     0
291
     0
 45
0.0
1001
ACAD
1000
AcDbSavedByObjectVersion
1070
     0
  0
VISUALSTYLE
  5
32
102
{ACAD_REACTORS
330
2A
102
}
102
{ACAD_XDICTIONARY
360
1F5
102
}
330
2A
100
AcDbVisualStyle
  2
Basic
 70
     7
 71
     1
 72
     0
 73
     1
 90
        0
 40
0.6
 41
30.0
 62
     5
 63
     7
 74
     0
 91
        4
 64
     7
 65
   257
 75
     1
175
     1
 42
1.0
 92
        8
 66
     7
 43
1.0
 76
     1
 77
     6
 78
     2
 67
     7
 79
     5
170
     0
171
     0
290
     0
174
     0
 93
        1
 44
0.0
173
     0
291
     1
 45
0.0
1001
ACAD
1000
AcDbSavedByObjectVersion
1070
     0
  0
VISUALSTYLE
  5
36
102
{ACAD_REACTORS
330
2A
102
}
102
{ACAD_XDICTIONARY
360
1FD
102
}
330
2A
100
AcDbVisualStyle
  2
Brighten
 70
    12
 71
     2
 72
     2
 73
     0
 90
        0
 40
0.6
 41
30.0
 62
     5
 63
     7
 74
     1
 91
        4
 64
     7
 65
   257
 75
     1
175
     1
 42
1.0
 92
        8
 66
     7
 43
1.0
 76
     1
 77
     6
 78
     2
 67
     7
 79
     5
170
     0
171
     0
290
     0
174
     0
 93
        1
 44
50.0
173
     0
291
     1
 45
0.0
1001
ACAD
1000
AcDbSavedByObjectVersion
1070
     0
  0
VISUALSTYLE
  5
3A
102
{ACAD_REACTORS
330
2A
102
}
102
{ACAD_XDICTIONARY
360
205
102
}
330
2A
100
AcDbVisualStyle
  2
ColorChange
 70
    16
 71
     2
 72
     2
 73
     3
 90
        0
 40
0.6
 41
30.0
 62
     5
 63
     8
 74
     1
 91
        4
 64
     7
 65
   257
 75
     1
175
     1
 42
1.0
 92
        8
 66
     8
 43
1.0
 76
     1
 77
     6
 78
     2
 67
     7
 79
     5
170
     0
171
     0
290
     0
174
     0
 93
        1
 44
0.0
173
     0
291
     1
 45
0.0
1001
ACAD
1000
AcDbSavedByObjectVersion
1070
     0
  0
VISUALSTYLE
  5
34
102
{ACAD_REACTORS
330
2A
102
}
102
{ACAD_XDICTIONARY
360
1F9
102
}
330
2A
100
AcDbVisualStyle
  2
Conceptual
 70
     9
 71
     3
 72
     2
 73
     0
 90
        0
 40
0.6
 41
30.0
 62
     5
 63
     7
 74
     2
 91
        2
 64
     7
 65
   257
 75
     1
175
     1
 42
179.0
 92
        8
 66
     7
 43
1.0
 76
     1
 77
     6
 78
     2
 67
     7
 79
     3
170
     0
171
     0
290
     0
174
     0
 93
        1
 44
0.0
173
     0
291
     0
 45
0.0
1001
ACAD
1000
AcDbSavedByObjectVersion
1070
     0
  0
VISUALSTYLE
  5
35
102
{ACAD_REACTORS
330
2A
102
}
102
{ACAD_XDICTIONARY
360
1FB
102
}
330
2A
100
AcDbVisualStyle
  2
Dim
 70
    11
 71
     2
 72
     2
 73
     0
 90
        0
 40
0.6
 41
30.0
 62
     5
 63
     7
 74
     1
 91
        4
 64
     7
 65
   257
 75
     1
175
     1
 42
1.0
 92
        8
 66
     7
 43
1.0
 76
     1
 77
     6
 78
     2
 67
     7
 79
     5
170
     0
171
     0
290
     0
174
     0
 93
        1
 44
-50.0
173
     0
291
     1
 45
0.0
1001
ACAD
1000
AcDbSavedByObjectVersion
1070
     0
  0
VISUALSTYLE
  5
3D
102
{ACAD_REACTORS
330
2A
102
}
102
{ACAD_XDICTIONARY
360
20B
102
}
330
2A
100
AcDbVisualStyle
  2
EdgeColorOff
 70
    22
 71
     2
 72
     2
 73
     0
 90
        0
 40
0.6
 41
30.0
 62
     5
 63
     7
 74
     1
 91
        4
 64
     7
 65
   257
 75
     1
175
     1
 42
1.0
 92
        8
 66
     7
 43
1.0
 76
     1
 77
     6
 78
     2
 67
     7
 79
     5
170
     0
171
     0
290
     0
174
     0
 93
        1
 44
0.0
173
     0
291
     1
 45
0.0
1001
ACAD
1000
AcDbSavedByObjectVersion
1070
     0
  0
VISUALSTYLE
  5
39
102
{ACAD_REACTORS
330
2A
102
}
102
{ACAD_XDICTIONARY
360
203
102
}
330
2A
100
AcDbVisualStyle
  2
Facepattern
 70
    15
 71
     2
 72
     2
 73
     0
 90
        0
 40
0.6
 41
30.0
 62
     5
 63
     7
 74
     1
 91
        4
 64
     7
 65
   257
 75
     1
175
     1
 42
1.0
 92
        8
 66
     7
 43
1.0
 76
     1
 77
     6
 78
     2
 67
     7
 79
     5
170
     0
171
     0
290
     0
174
     0
 93
        1
 44
0.0
173
     0
291
     1
 45
0.0
1001
ACAD
1000
AcDbSavedByObjectVersion
1070
     0
  0
VISUALSTYLE
  5
2B
102
{ACAD_REACTORS
330
2A
102
}
102
{ACAD_XDICTIONARY
360
1E7
102
}
330
2A
100
AcDbVisualStyle
  2
Flat
 70
     0
 71
     2
 72
     1
 73
     1
 90
        2
 40
0.6
 41
30.0
 62
     5
 63
     7
 74
     0
 91
        0
 64
     7
 65
   257
 75
     1
175
     1
 42
1.0
 92
        8
 66
     7
 43
1.0
 76
     1
 77
     6
 78
     2
 67
     7
 79
     5
170
     0
171
     0
290
     0
174
     0
 93
       13
 44
0.0
173
     0
291
     1
 45
0.0
1001
ACAD
1000
AcDbSavedByObjectVersion
1070
     0
  0
VISUALSTYLE
  5
2C
102
{ACAD_REACTORS
330
2A
102
}
102
{ACAD_XDICTIONARY
360
1E9
102
}
330
2A
100
AcDbVisualStyle
  2
FlatWithEdges
 70
     1
 71
     2
 72
     1
 73
     1
 90
        2
 40
0.6
 41
30.0
 62
     5
 63
     7
 74
     1
 91
        0
 64
     7
 65
   257
 75
     1
175
     1
 42
1.0
 92
        0
 66
   257
 43
1.0
 76
     1
 77
     6
 78
     2
 67
     7
 79
     5
170
     0
171
     0
290
     0
174
     0
 93
       13
 44
0.0
173
     0
291
     1
 45
0.0
1001
ACAD
1000
AcDbSavedByObjectVersion
1070
     0
  0
VISUALSTYLE
  5
2D
102
{ACAD_REACTORS
330
2A
102
}
102
{ACAD_XDICTIONARY
360
1EB
102
}
330
2A
100
AcDbVisualStyle
  2
Gouraud
 70
     2
 71
     2
 72
     2
 73
     1
 90
        2
 40
0.6
 41
30.0
 62
     5
 63
     7
 74
     0
 91
        0
 64
     7
 65
   257
 75
     1
175
     1
 42
1.0
 92
        0
 66
     7
 43
1.0
 76
     1
 77
     6
 78
     2
 67
     7
 79
     5
170
     0
171
     0
290
     0
174
     0
 93
       13
 44
0.0
173
     0
291
     1
 45
0.0
1001
ACAD
1000
AcDbSavedByObjectVersion
1070
     0
  0
VISUALSTYLE
  5
2E
102
{ACAD_REACTORS
330
2A
102
}
102
{ACAD_XDICTIONARY
360
1ED
102
}
330
2A
100
AcDbVisualStyle
  2
GouraudWithEdges
 70
     3
 71
     2
 72
     2
 73
     1
 90
        2
 40
0.6
 41
30.0
 62
     5
 63
     7
 74
     1
 91
        0
 64
     7
 65
   257
 75
     1
175
     1
 42
1.0
 92
        0
 66
   257
 43
1.0
 76
     1
 77
     6
 78
     2
 67
     7
 79
     5
170
     0
171
     0
290
     0
174
     0
 93
       13
 44
0.0
173
     0
291
     1
 45
0.0
1001
ACAD
1000
AcDbSavedByObjectVersion
1070
     0
  0
VISUALSTYLE
  5
31
102
{ACAD_REACTORS
330
2A
102
}
102
{ACAD_XDICTIONARY
360
1F3
102
}
330
2A
100
AcDbVisualStyle
  2
Hidden
 70
     6
 71
     1
 72
     2
 73
     2
 90
        0
 40
0.6
 41
30.0
 62
     5
 63
     7
 74
     2
 91
        2
 64
     7
 65
   257
 75
     2
175
     1
 42
40.0
 92
        0
 66
   257
 43
1.0
 76
     1
 77
     6
 78
     2
 67
     7
 79
     3
170
     0
171
     0
290
     0
174
     0
 93
        1
 44
0.0
173
     0
291
     0
 45
0.0
1001
ACAD
1000
AcDbSavedByObjectVersion
1070
     0
  0
VISUALSTYLE
  5
3B
102
{ACAD_REACTORS
330
2A
102
}
102
{ACAD_XDICTIONARY
360
207
102
}
330
2A
100
AcDbVisualStyle
  2
JitterOff
 70
    20
 71
     2
 72
     2
 73
     0
 90
        0
 40
0.6
 41
30.0
 62
     5
 63
     7
 74
     1
 91
        4
 64
     7
 65
   257
 75
     1
175
     1
 42
1.0
 92
       10
 66
     7
 43
1.0
 76
     1
 77
     6
 78
     2
 67
     7
 79
     5
170
     0
171
     0
290
     0
174
     0
 93
        1
 44
0.0
173
     0
291
     1
 45
0.0
1001
ACAD
1000
AcDbSavedByObjectVersion
1070
     0
  0
VISUALSTYLE
  5
38
102
{ACAD_REACTORS
330
2A
102
}
102
{ACAD_XDICTIONARY
360
201
102
}
330
2A
100
AcDbVisualStyle
  2
Linepattern
 70
    14
 71
     2
 72
     2
 73
     0
 90
        0
 40
0.6
 41
30.0
 62
     5
 63
     7
 74
     1
 91
        4
 64
     7
 65
   257
 75
     7
175
     7
 42
1.0
 92
        8
 66
     7
 43
1.0
 76
     1
 77
     6
 78
     2
 67
     7
 79
     5
170
     0
171
     0
290
     0
174
     0
 93
        1
 44
0.0
173
     0
291
     1
 45
0.0
1001
ACAD
1000
AcDbSavedByObjectVersion
1070
     0
  0
VISUALSTYLE
  5
3C
102
{ACAD_REACTORS
330
2A
102
}
102
{ACAD_XDICTIONARY
360
209
102
}
330
2A
100
AcDbVisualStyle
  2
OverhangOff
 70
    21
 71
     2
 72
     2
 73
     0
 90
        0
 40
0.6
 41
30.0
 62
     5
 63
     7
 74
     1
 91
        4
 64
     7
 65
   257
 75
     1
175
     1
 42
1.0
 92
        9
 66
     7
 43
1.0
 76
     1
 77
     6
 78
     2
 67
     7
 79
     5
170
     0
171
     0
290
     0
174
     0
 93
        1
 44
0.0
173
     0
291
     1
 45
0.0
1001
ACAD
1000
AcDbSavedByObjectVersion
1070
     0
  0
VISUALSTYLE
  5
33
102
{ACAD_REACTORS
330
2A
102
}
102
{ACAD_XDICTIONARY
360
1F7
102
}
330
2A
100
AcDbVisualStyle
  2
Realistic
 70
     8
 71
     2
 72
     3
 73
     0
 90
        2
 40
0.6
 41
30.0
 62
     5
 63
     7
 74
     0
 91
        0
 64
     7
 65
   257
 75
     1
175
     1
 42
1.0
 92
        8
 66
   257
 43
1.0
 76
     1
 77
     6
 78
     2
 67
     7
 79
     3
170
     0
171
     0
290
     0
174
     0
 93
       13
 44
0.0
173
     0
291
     0
 45
0.0
1001
ACAD
1000
AcDbSavedByObjectVersion
1070
     0
  0
VISUALSTYLE
  5
42
102
{ACAD_REACTORS
330
2A
102
}
102
{ACAD_XDICTIONARY
360
215
102
}
330
2A
100
AcDbVisualStyle
  2
Shaded
 70
    27
 71
     2
 72
     2
 73
     1
 90
        2
 40
0.6
 41
30.0
 62
     5
 63
     7
 74
     0
 91
        4
 64
     7
 65
   257
 75
     1
175
     1
 42
1.0
 92
        8
 66
   257
 43
1.0
 76
     1
 77
     6
 78
     2
 67
     8
 79
     3
170
     0
171
     0
290
     0
174
     0
 93
        5
 44
0.0
173
     0
291
     0
 45
0.0
1001
ACAD
1000
AcDbSavedByObjectVersion
1070
     0
  0
VISUALSTYLE
  5
41
102
{ACAD_REACTORS
330
2A
102
}
102
{ACAD_XDICTIONARY
360
213
102
}
330
2A
100
AcDbVisualStyle
  2
Shaded with edges
 70
    26
 71
     2
 72
     2
 73
     1
 90
        2
 40
0.6
 41
30.0
 62
     5
 63
     7
 74
     1
 91
       10
 64
     7
 65
   257
 75
     2
175
     1
 42
1.0
 92
        8
 66
   257
 43
1.0
 76
     1
 77
     6
 78
     2
 67
     7
 79
     3
170
     0
171
     0
290
     0
174
     0
 93
        5
 44
0.0
173
     0
291
     0
 45
0.0
1001
ACAD
1000
AcDbSavedByObjectVersion
1070
     0
  0
VISUALSTYLE
  5
3E
102
{ACAD_REACTORS
330
2A
102
}
102
{ACAD_XDICTIONARY
360
20D
102
}
330
2A
100
AcDbVisualStyle
  2
Shades of Gray
 70
    23
 71
     2
 72
     2
 73
     3
 90
        0
 40
0.6
 41
30.0
 62
     5
 63
     7
 74
     2
 91
        2
 64
     7
 65
     7
 75
     1
175
     1
 42
40.0
 92
        8
 66
     7
 43
1.0
 76
     1
 77
     6
 78
     2
 67
     7
 79
     3
170
     0
171
     0
290
     0
174
     0
 93
        1
 44
0.0
173
     0
291
     0
 45
0.0
1001
ACAD
1000
AcDbSavedByObjectVersion
1070
     0
  0
VISUALSTYLE
  5
3F
102
{ACAD_REACTORS
330
2A
102
}
102
{ACAD_XDICTIONARY
360
20F
102
}
330
2A
100
AcDbVisualStyle
  2
Sketchy
 70
    24
 71
     1
 72
     2
 73
     2
 90
        0
 40
0.6
 41
30.0
 62
     5
 63
     7
 74
     2
 91
        2
 64
     7
 65
     7
 75
     1
175
     1
 42
40.0
 92
       11
 66
     7
 43
1.0
 76
     1
 77
     6
 78
     2
 67
     7
 79
     6
170
     0
171
     0
290
     0
174
     0
 93
        1
 44
0.0
173
     0
291
     0
 45
0.0
1001
ACAD
1000
AcDbSavedByObjectVersion
1070
     0
  0
VISUALSTYLE
  5
37
102
{ACAD_REACTORS
330
2A
102
}
102
{ACAD_XDICTIONARY
360
1FF
102
}
330
2A
100
AcDbVisualStyle
  2
Thicken
 70
    13
 71
     2
 72
     2
 73
     0
 90
        0
 40
0.6
 41
30.0
 62
     5
 63
     7
 74
     1
 91
        4
 64
     7
 65
   257
 75
     1
175
     1
 42
1.0
 92
       12
 66
     7
 43
1.0
 76
     1
 77
     6
 78
     2
 67
     7
 79
     5
170
     0
171
     0
290
     0
174
     0
 93
        1
 44
0.0
173
     0
291
     1
 45
0.0
1001
ACAD
1000
AcDbSavedByObjectVersion
1070
     0
  0
VISUALSTYLE
  5
30
102
{ACAD_REACTORS
330
2A
102
}
102
{ACAD_XDICTIONARY
360
1F1
102
}
330
2A
100
AcDbVisualStyle
  2
Wireframe
 70
     5
 71
     0
 72
     2
 73
     0
 90
        0
 40
0.6
 41
30.0
 62
     5
 63
     7
 74
     1
 91
        4
 64
     7
 65
   257
 75
     1
175
     1
 42
1.0
 92
        0
 66
   257
 43
1.0
 76
     1
 77
     6
 78
     2
 67
     7
 79
     3
170
     0
171
     0
290
     0
174
     0
 93
        1
 44
0.0
173
     0
291
     0
 45
0.0
1001
ACAD
1000
AcDbSavedByObjectVersion
1070
     0
  0
VISUALSTYLE
  5
40
102
{ACAD_REACTORS
330
2A
102
}
102
{ACAD_XDICTIONARY
360
211
102
}
330
2A
100
AcDbVisualStyle
  2
X-Ray
 70
    25
 71
     2
 72
     2
 73
     1
 90
        1
 40
0.5
 41
30.0
 62
     5
 63
     7
 74
     1
 91
        0
 64
     7
 65
   257
 75
     1
175
     1
 42
1.0
 92
        8
 66
     7
 43
1.0
 76
     1
 77
     6
 78
     2
 67
     7
 79
     3
170
     0
171
     0
290
     0
174
     0
 93
       13
 44
0.0
173
     0
291
     0
 45
0.0
1001
ACAD
1000
AcDbSavedByObjectVersion
1070
     0
  0
DICTIONARYVAR
  5
1E5
102
{ACAD_REACTORS
330
1DC
102
}
330
1DC
100
DictionaryVariables
280
     0
  1
1:1
  0
DICTIONARYVAR
  5
1E3
102
{ACAD_REACTORS
330
1DC
102
}
330
1DC
100
DictionaryVariables
280
     0
  1
2
  0
DICTIONARYVAR
  5
1E4
102
{ACAD_REACTORS
330
1DC
102
}
330
1DC
100
DictionaryVariables
280
     0
  1
1
  0
DICTIONARYVAR
  5
1E6
102
{ACAD_REACTORS
330
1DC
102
}
330
1DC
100
DictionaryVariables
280
     0
  1
1
  0
DICTIONARYVAR
  5
1E0
102
{ACAD_REACTORS
330
1DC
102
}
330
1DC
100
DictionaryVariables
280
     0
  1
80.000000
  0
DICTIONARYVAR
  5
1DF
102
{ACAD_REACTORS
330
1DC
102
}
330
1DC
100
DictionaryVariables
280
     0
  1
5.000000
  0
DICTIONARY
  5
219
330
45
100
AcDbDictionary
280
     1
281
     1
  3
ACAD_XREC_ROUNDTRIP
360
21A
  0
DICTIONARY
  5
217
330
44
100
AcDbDictionary
280
     1
281
     1
  3
ACAD_XREC_ROUNDTRIP
360
218
  0
DICTIONARY
  5
21B
330
46
100
AcDbDictionary
280
     1
281
     1
  3
ACAD_XREC_ROUNDTRIP
360
21C
  0
DICTIONARY
  5
1EF
330
2F
100
AcDbDictionary
280
     1
281
     1
  3
ACAD_XREC_ROUNDTRIP
360
1F0
  0
DICTIONARY
  5
1F5
330
32
100
AcDbDictionary
280
     1
281
     1
  3
ACAD_XREC_ROUNDTRIP
360
1F6
  0
DICTIONARY
  5
1FD
330
36
100
AcDbDictionary
280
     1
281
     1
  3
ACAD_XREC_ROUNDTRIP
360
1FE
  0
DICTIONARY
  5
205
330
3A
100
AcDbDictionary
280
     1
281
     1
  3
ACAD_XREC_ROUNDTRIP
360
206
  0
DICTIONARY
  5
1F9
330
34
100
AcDbDictionary
280
     1
281
     1
  3
ACAD_XREC_ROUNDTRIP
360
1FA
  0
DICTIONARY
  5
1FB
330
35
100
AcDbDictionary
280
     1
281
     1
  3
ACAD_XREC_ROUNDTRIP
360
1FC
  0
DICTIONARY
  5
20B
330
3D
100
AcDbDictionary
280
     1
281
     1
  3
ACAD_XREC_ROUNDTRIP
360
20C
  0
DICTIONARY
  5
203
330
39
100
AcDbDictionary
280
     1
281
     1
  3
ACAD_XREC_ROUNDTRIP
360
204
  0
DICTIONARY
  5
1E7
330
2B
100
AcDbDictionary
280
     1
281
     1
  3
ACAD_XREC_ROUNDTRIP
360
1E8
  0
DICTIONARY
  5
1E9
330
2C
100
AcDbDictionary
280
     1
281
     1
  3
ACAD_XREC_ROUNDTRIP
360
1EA
  0
DICTIONARY
  5
1EB
330
2D
100
AcDbDictionary
280
     1
281
     1
  3
ACAD_XREC_ROUNDTRIP
360
1EC
  0
DICTIONARY
  5
1ED
330
2E
100
AcDbDictionary
280
     1
281
     1
  3
ACAD_XREC_ROUNDTRIP
360
1EE
  0
DICTIONARY
  5
1F3
330
31
100
AcDbDictionary
280
     1
281
     1
  3
ACAD_XREC_ROUNDTRIP
360
1F4
  0
DICTIONARY
  5
207
330
3B
100
AcDbDictionary
280
     1
281
     1
  3
ACAD_XREC_ROUNDTRIP
360
208
  0
DICTIONARY
  5
201
330
38
100
AcDbDictionary
280
     1
281
     1
  3
ACAD_XREC_ROUNDTRIP
360
202
  0
DICTIONARY
  5
209
330
3C
100
AcDbDictionary
280
     1
281
     1
  3
ACAD_XREC_ROUNDTRIP
360
20A
  0
DICTIONARY
  5
1F7
330
33
100
AcDbDictionary
280
     1
281
     1
  3
ACAD_XREC_ROUNDTRIP
360
1F8
  0
DICTIONARY
  5
215
330
42
100
AcDbDictionary
280
     1
281
     1
  3
ACAD_XREC_ROUNDTRIP
360
216
  0
DICTIONARY
  5
213
330
41
100
AcDbDictionary
280
     1
281
     1
  3
ACAD_XREC_ROUNDTRIP
360
214
  0
DICTIONARY
  5
20D
330
3E
100
AcDbDictionary
280
     1
281
     1
  3
ACAD_XREC_ROUNDTRIP
360
20E
  0
DICTIONARY
  5
20F
330
3F
100
AcDbDictionary
280
     1
281
     1
  3
ACAD_XREC_ROUNDTRIP
360
210
  0
DICTIONARY
  5
1FF
330
37
100
AcDbDictionary
280
     1
281
     1
  3
ACAD_XREC_ROUNDTRIP
360
200
  0
DICTIONARY
  5
1F1
330
30
100
AcDbDictionary
280
     1
281
     1
  3
ACAD_XREC_ROUNDTRIP
360
1F2
  0
DICTIONARY
  5
211
330
40
100
AcDbDictionary
280
     1
281
     1
  3
ACAD_XREC_ROUNDTRIP
360
212
  0
XRECORD
  5
21A
102
{ACAD_REACTORS
330
219
102
}
330
219
100
AcDbXrecord
280
     1
102
MATERIAL
148
0.0
149
0.0
149
0.0
 93
        0
 94
      127
282
     0
 72
     1
 77
     1
171
     1
175
     1
179
     1
273
     0
  0
XRECORD
  5
218
102
{ACAD_REACTORS
330
217
102
}
330
217
100
AcDbXrecord
280
     1
102
MATERIAL
148
0.0
149
0.0
149
0.0
 93
        0
 94
      127
282
     0
 72
     1
 77
     1
171
     1
175
     1
179
     1
273
     0
  0
XRECORD
  5
21C
102
{ACAD_REACTORS
330
21B
102
}
330
21B
100
AcDbXrecord
280
     1
102
MATERIAL
148
0.0
149
0.0
149
0.0
 93
        0
 94
      127
282
     0
 72
     1
 77
     1
171
     1
175
     1
179
     1
273
     0
  0
XRECORD
  5
1F0
102
{ACAD_REACTORS
330
1EF
102
}
330
1EF
100
AcDbXrecord
280
     1
102
RTVSPropertyOp0
 70
     1
102
RTVSPropertyOp1
 70
     1
102
RTVSPropertyOp2
 70
     1
102
RTVSPropertyOp3
 70
     1
102
RTVSPropertyOp4
 70
     1
102
RTVSPropertyOp5
 70
     1
102
RTVSPropertyOp6
 70
     1
102
RTVSPropertyOp7
 70
     1
102
RTVSPropertyOp8
 70
     1
102
RTVSPropertyOp9
 70
     1
102
RTVSPropertyOp10
 70
     1
102
RTVSPropertyOp11
 70
     1
102
RTVSPropertyOp12
 70
     1
102
RTVSPropertyOp13
 70
     1
102
RTVSPropertyOp14
 70
     1
102
RTVSPropertyOp15
 70
     1
102
RTVSPropertyOp16
 70
     1
102
RTVSPropertyOp17
 70
     1
102
RTVSPropertyOp18
 70
     1
102
RTVSPropertyOp19
 70
     1
102
RTVSPropertyOp20
 70
     1
102
RTVSPropertyOp21
 70
     1
102
RTVSPropertyOp22
 70
     1
102
RTVSPropertyOp23
 70
     1
102
RTVSPropertyOp24
 70
     1
102
RTVSPropertyOp25
 70
     1
102
RTVSPropertyOp26
 70
     1
102
RTVSPropertyOp27
 70
     1
102
RTVSPropertyOp28
 70
     1
102
RTVSPropertyOp29
 70
     1
102
RTVSPropertyOp30
 70
     1
102
RTVSPropertyOp31
 70
     1
102
RTVSPropertyOp32
 70
     1
102
RTVSPropertyOp33
 70
     1
102
RTVSPropertyOp34
 70
     1
102
RTVSPropertyOp35
 70
     1
102
RTVSPropertyOp36
 70
     1
102
RTVSPropertyOp37
 70
     1
102
RTVSPropertyOp38
 70
     1
102
RTVSPropertyOp39
 70
     1
102
RTVSPropertyOp40
 70
     1
102
RTVSPropertyOp41
 70
     1
102
RTVSPropertyOp42
 70
     1
102
RTVSPropertyOp43
 70
     1
102
RTVSPropertyOp44
 70
     1
102
RTVSPropertyOp45
 70
     1
102
RTVSPropertyOp46
 70
     1
102
RTVSPropertyOp47
 70
     1
102
RTVSPropertyOp48
 70
     1
102
RTVSPropertyOp49
 70
     1
102
RTVSPropertyOp50
 70
     1
102
RTVSPropertyOp51
 70
     0
102
RTVSPropertyOp52
 70
     0
102
RTVSPropertyOp53
 70
     1
102
RTVSPropertyOp54
 70
     1
102
RTVSPropertyOp55
 70
     1
102
RTVSPropertyOp56
 70
     1
102
RTVSPropertyOp57
 70
     1
102
RTVSPost2010Prop28
280
     1
102
RTVSPost2010PropOp28
 70
     1
102
RTVSPost2010Prop29
280
     1
102
RTVSPost2010PropOp29
 70
     1
102
RTVSPost2010Prop30
280
     0
102
RTVSPost2010PropOp30
 70
     1
102
RTVSPost2010Prop31
280
     0
102
RTVSPost2010PropOp31
 70
     1
102
RTVSPost2010Prop32
280
     0
102
RTVSPost2010PropOp32
 70
     1
102
RTVSPost2010Prop33
280
     0
102
RTVSPost2010PropOp33
 70
     1
102
RTVSPost2010Prop34
280
     0
102
RTVSPost2010PropOp34
 70
     1
102
RTVSPost2010Prop35
280
     0
102
RTVSPost2010PropOp35
 70
     1
102
RTVSPost2010Prop36
280
     0
102
RTVSPost2010PropOp36
 70
     1
102
RTVSPost2010Prop37
 90
       50
102
RTVSPost2010PropOp37
 70
     1
102
RTVSPost2010Prop38
140
0.0
102
RTVSPost2010PropOp38
 70
     1
102
RTVSPost2010Prop39
140
1.0
102
RTVSPost2010PropOp39
 70
     1
102
RTVSPost2010Prop40
 90
        0
102
RTVSPost2010PropOp40
 70
     1
102
RTVSPost2010Prop41ColorIndex
 90
       18
102
RTVSPost2010Prop41ColorRGB
 90
        0
102
RTVSPost2010PropOp41
 70
     1
102
RTVSPost2010Prop42
 90
       50
102
RTVSPost2010PropOp42
 70
     1
102
RTVSPost2010Prop43
 90
        3
102
RTVSPost2010PropOp43
 70
     1
102
RTVSPost2010Prop44ColorIndex
 90
        5
102
RTVSPost2010Prop44ColorRGB
 90
      255
102
RTVSPost2010PropOp44
 70
     1
102
RTVSPost2010Prop45
280
     0
102
RTVSPost2010PropOp45
 70
     1
102
RTVSPost2010Prop46
 90
       50
102
RTVSPost2010PropOp46
 70
     1
102
RTVSPost2010Prop47
 90
       50
102
RTVSPost2010PropOp47
 70
     1
102
RTVSPost2010Prop48
 90
       50
102
RTVSPost2010PropOp48
 70
     1
102
RTVSPost2010Prop49
280
     0
102
RTVSPost2010PropOp49
 70
     1
102
RTVSPost2010Prop50
 90
       50
102
RTVSPost2010PropOp50
 70
     1
102
RTVSPost2010Prop51ColorIndex
 90
      256
102
RTVSPost2010Prop51ColorRGB
 90
-16777216
102
RTVSPost2010PropOp51
 70
     0
102
RTVSPost2010Prop52
140
1.0
102
RTVSPost2010PropOp52
 70
     0
102
RTVSPost2010Prop53
 90
        2
102
RTVSPost2010PropOp53
 70
     1
102
RTVSPost2010Prop54
  1
strokes_ogs.tif
102
RTVSPost2010PropOp54
 70
     1
102
RTVSPost2010Prop55
280
     0
102
RTVSPost2010PropOp55
 70
     1
102
RTVSPost2010Prop56
140
1.0
102
RTVSPost2010PropOp56
 70
     1
102
RTVSPost2010Prop57
140
1.0
102
RTVSPost2010PropOp57
 70
     1
  0
XRECORD
  5
1F6
102
{ACAD_REACTORS
330
1F5
102
}
330
1F5
100
AcDbXrecord
280
     1
102
RTVSPropertyOp0
 70
     1
102
RTVSPropertyOp1
 70
     1
102
RTVSPropertyOp2
 70
     1
102
RTVSPropertyOp3
 70
     1
102
RTVSPropertyOp4
 70
     1
102
RTVSPropertyOp5
 70
     1
102
RTVSPropertyOp6
 70
     1
102
RTVSPropertyOp7
 70
     1
102
RTVSPropertyOp8
 70
     1
102
RTVSPropertyOp9
 70
     1
102
RTVSPropertyOp10
 70
     1
102
RTVSPropertyOp11
 70
     1
102
RTVSPropertyOp12
 70
     1
102
RTVSPropertyOp13
 70
     1
102
RTVSPropertyOp14
 70
     1
102
RTVSPropertyOp15
 70
     1
102
RTVSPropertyOp16
 70
     1
102
RTVSPropertyOp17
 70
     1
102
RTVSPropertyOp18
 70
     1
102
RTVSPropertyOp19
 70
     1
102
RTVSPropertyOp20
 70
     1
102
RTVSPropertyOp21
 70
     1
102
RTVSPropertyOp22
 70
     1
102
RTVSPropertyOp23
 70
     1
102
RTVSPropertyOp24
 70
     1
102
RTVSPropertyOp25
 70
     1
102
RTVSPropertyOp26
 70
     1
102
RTVSPropertyOp27
 70
     1
102
RTVSPropertyOp28
 70
     1
102
RTVSPropertyOp29
 70
     1
102
RTVSPropertyOp30
 70
     1
102
RTVSPropertyOp31
 70
     1
102
RTVSPropertyOp32
 70
     1
102
RTVSPropertyOp33
 70
     1
102
RTVSPropertyOp34
 70
     1
102
RTVSPropertyOp35
 70
     1
102
RTVSPropertyOp36
 70
     1
102
RTVSPropertyOp37
 70
     1
102
RTVSPropertyOp38
 70
     1
102
RTVSPropertyOp39
 70
     1
102
RTVSPropertyOp40
 70
     1
102
RTVSPropertyOp41
 70
     1
102
RTVSPropertyOp42
 70
     1
102
RTVSPropertyOp43
 70
     1
102
RTVSPropertyOp44
 70
     1
102
RTVSPropertyOp45
 70
     1
102
RTVSPropertyOp46
 70
     1
102
RTVSPropertyOp47
 70
     1
102
RTVSPropertyOp48
 70
     1
102
RTVSPropertyOp49
 70
     1
102
RTVSPropertyOp50
 70
     1
102
RTVSPropertyOp51
 70
     0
102
RTVSPropertyOp52
 70
     0
102
RTVSPropertyOp53
 70
     1
102
RTVSPropertyOp54
 70
     1
102
RTVSPropertyOp55
 70
     1
102
RTVSPropertyOp56
 70
     1
102
RTVSPropertyOp57
 70
     1
102
RTVSPost2010Prop28
280
     0
102
RTVSPost2010PropOp28
 70
     1
102
RTVSPost2010Prop29
280
     1
102
RTVSPost2010PropOp29
 70
     1
102
RTVSPost2010Prop30
280
     1
102
RTVSPost2010PropOp30
 70
     1
102
RTVSPost2010Prop31
280
     0
102
RTVSPost2010PropOp31
 70
     1
102
RTVSPost2010Prop32
280
     0
102
RTVSPost2010PropOp32
 70
     1
102
RTVSPost2010Prop33
280
     0
102
RTVSPost2010PropOp33
 70
     1
102
RTVSPost2010Prop34
280
     0
102
RTVSPost2010PropOp34
 70
     1
102
RTVSPost2010Prop35
280
     0
102
RTVSPost2010PropOp35
 70
     1
102
RTVSPost2010Prop36
280
     0
102
RTVSPost2010PropOp36
 70
     1
102
RTVSPost2010Prop37
 90
       50
102
RTVSPost2010PropOp37
 70
     1
102
RTVSPost2010Prop38
140
0.0
102
RTVSPost2010PropOp38
 70
     1
102
RTVSPost2010Prop39
140
1.0
102
RTVSPost2010PropOp39
 70
     1
102
RTVSPost2010Prop40
 90
        0
102
RTVSPost2010PropOp40
 70
     1
102
RTVSPost2010Prop41ColorIndex
 90
       18
102
RTVSPost2010Prop41ColorRGB
 90
        0
102
RTVSPost2010PropOp41
 70
     1
102
RTVSPost2010Prop42
 90
       50
102
RTVSPost2010PropOp42
 70
     1
102
RTVSPost2010Prop43
 90
        3
102
RTVSPost2010PropOp43
 70
     1
102
RTVSPost2010Prop44ColorIndex
 90
        5
102
RTVSPost2010Prop44ColorRGB
 90
      255
102
RTVSPost2010PropOp44
 70
     1
102
RTVSPost2010Prop45
280
     0
102
RTVSPost2010PropOp45
 70
     1
102
RTVSPost2010Prop46
 90
       50
102
RTVSPost2010PropOp46
 70
     1
102
RTVSPost2010Prop47
 90
       50
102
RTVSPost2010PropOp47
 70
     1
102
RTVSPost2010Prop48
 90
       50
102
RTVSPost2010PropOp48
 70
     1
102
RTVSPost2010Prop49
280
     0
102
RTVSPost2010PropOp49
 70
     1
102
RTVSPost2010Prop50
 90
       50
102
RTVSPost2010PropOp50
 70
     1
102
RTVSPost2010Prop51ColorIndex
 90
      256
102
RTVSPost2010Prop51ColorRGB
 90
-16777216
102
RTVSPost2010PropOp51
 70
     0
102
RTVSPost2010Prop52
140
1.0
102
RTVSPost2010PropOp52
 70
     0
102
RTVSPost2010Prop53
 90
        2
102
RTVSPost2010PropOp53
 70
     1
102
RTVSPost2010Prop54
  1
strokes_ogs.tif
102
RTVSPost2010PropOp54
 70
     1
102
RTVSPost2010Prop55
280
     0
102
RTVSPost2010PropOp55
 70
     1
102
RTVSPost2010Prop56
140
1.0
102
RTVSPost2010PropOp56
 70
     1
102
RTVSPost2010Prop57
140
1.0
102
RTVSPost2010PropOp57
 70
     1
  0
XRECORD
  5
1FE
102
{ACAD_REACTORS
330
1FD
102
}
330
1FD
100
AcDbXrecord
280
     1
102
RTVSPropertyOp0
 70
     1
102
RTVSPropertyOp1
 70
     1
102
RTVSPropertyOp2
 70
     1
102
RTVSPropertyOp3
 70
     1
102
RTVSPropertyOp4
 70
     1
102
RTVSPropertyOp5
 70
     1
102
RTVSPropertyOp6
 70
     1
102
RTVSPropertyOp7
 70
     1
102
RTVSPropertyOp8
 70
     1
102
RTVSPropertyOp9
 70
     1
102
RTVSPropertyOp10
 70
     1
102
RTVSPropertyOp11
 70
     1
102
RTVSPropertyOp12
 70
     1
102
RTVSPropertyOp13
 70
     1
102
RTVSPropertyOp14
 70
     1
102
RTVSPropertyOp15
 70
     1
102
RTVSPropertyOp16
 70
     1
102
RTVSPropertyOp17
 70
     1
102
RTVSPropertyOp18
 70
     1
102
RTVSPropertyOp19
 70
     1
102
RTVSPropertyOp20
 70
     1
102
RTVSPropertyOp21
 70
     1
102
RTVSPropertyOp22
 70
     1
102
RTVSPropertyOp23
 70
     1
102
RTVSPropertyOp24
 70
     1
102
RTVSPropertyOp25
 70
     1
102
RTVSPropertyOp26
 70
     1
102
RTVSPropertyOp27
 70
     1
102
RTVSPropertyOp28
 70
     1
102
RTVSPropertyOp29
 70
     1
102
RTVSPropertyOp30
 70
     1
102
RTVSPropertyOp31
 70
     1
102
RTVSPropertyOp32
 70
     1
102
RTVSPropertyOp33
 70
     1
102
RTVSPropertyOp34
 70
     1
102
RTVSPropertyOp35
 70
     1
102
RTVSPropertyOp36
 70
     1
102
RTVSPropertyOp37
 70
     1
102
RTVSPropertyOp38
 70
     1
102
RTVSPropertyOp39
 70
     1
102
RTVSPropertyOp40
 70
     1
102
RTVSPropertyOp41
 70
     1
102
RTVSPropertyOp42
 70
     1
102
RTVSPropertyOp43
 70
     1
102
RTVSPropertyOp44
 70
     1
102
RTVSPropertyOp45
 70
     1
102
RTVSPropertyOp46
 70
     1
102
RTVSPropertyOp47
 70
     1
102
RTVSPropertyOp48
 70
     1
102
RTVSPropertyOp49
 70
     1
102
RTVSPropertyOp50
 70
     1
102
RTVSPropertyOp51
 70
     0
102
RTVSPropertyOp52
 70
     0
102
RTVSPropertyOp53
 70
     1
102
RTVSPropertyOp54
 70
     1
102
RTVSPropertyOp55
 70
     1
102
RTVSPropertyOp56
 70
     1
102
RTVSPropertyOp57
 70
     1
102
RTVSPost2010Prop28
280
     0
102
RTVSPost2010PropOp28
 70
     1
102
RTVSPost2010Prop29
280
     1
102
RTVSPost2010PropOp29
 70
     1
102
RTVSPost2010Prop30
280
     1
102
RTVSPost2010PropOp30
 70
     1
102
RTVSPost2010Prop31
280
     0
102
RTVSPost2010PropOp31
 70
     1
102
RTVSPost2010Prop32
280
     0
102
RTVSPost2010PropOp32
 70
     1
102
RTVSPost2010Prop33
280
     0
102
RTVSPost2010PropOp33
 70
     1
102
RTVSPost2010Prop34
280
     0
102
RTVSPost2010PropOp34
 70
     1
102
RTVSPost2010Prop35
280
     0
102
RTVSPost2010PropOp35
 70
     1
102
RTVSPost2010Prop36
280
     0
102
RTVSPost2010PropOp36
 70
     1
102
RTVSPost2010Prop37
 90
       50
102
RTVSPost2010PropOp37
 70
     1
102
RTVSPost2010Prop38
140
0.0
102
RTVSPost2010PropOp38
 70
     1
102
RTVSPost2010Prop39
140
1.0
102
RTVSPost2010PropOp39
 70
     1
102
RTVSPost2010Prop40
 90
        0
102
RTVSPost2010PropOp40
 70
     1
102
RTVSPost2010Prop41ColorIndex
 90
       18
102
RTVSPost2010Prop41ColorRGB
 90
        0
102
RTVSPost2010PropOp41
 70
     1
102
RTVSPost2010Prop42
 90
       50
102
RTVSPost2010PropOp42
 70
     1
102
RTVSPost2010Prop43
 90
        3
102
RTVSPost2010PropOp43
 70
     1
102
RTVSPost2010Prop44ColorIndex
 90
        5
102
RTVSPost2010Prop44ColorRGB
 90
      255
102
RTVSPost2010PropOp44
 70
     1
102
RTVSPost2010Prop45
280
     0
102
RTVSPost2010PropOp45
 70
     1
102
RTVSPost2010Prop46
 90
       50
102
RTVSPost2010PropOp46
 70
     1
102
RTVSPost2010Prop47
 90
       50
102
RTVSPost2010PropOp47
 70
     1
102
RTVSPost2010Prop48
 90
       50
102
RTVSPost2010PropOp48
 70
     1
102
RTVSPost2010Prop49
280
     0
102
RTVSPost2010PropOp49
 70
     1
102
RTVSPost2010Prop50
 90
       50
102
RTVSPost2010PropOp50
 70
     1
102
RTVSPost2010Prop51ColorIndex
 90
      256
102
RTVSPost2010Prop51ColorRGB
 90
-16777216
102
RTVSPost2010PropOp51
 70
     0
102
RTVSPost2010Prop52
140
1.0
102
RTVSPost2010PropOp52
 70
     0
102
RTVSPost2010Prop53
 90
        2
102
RTVSPost2010PropOp53
 70
     1
102
RTVSPost2010Prop54
  1
strokes_ogs.tif
102
RTVSPost2010PropOp54
 70
     1
102
RTVSPost2010Prop55
280
     0
102
RTVSPost2010PropOp55
 70
     1
102
RTVSPost2010Prop56
140
1.0
102
RTVSPost2010PropOp56
 70
     1
102
RTVSPost2010Prop57
140
1.0
102
RTVSPost2010PropOp57
 70
     1
  0
XRECORD
  5
206
102
{ACAD_REACTORS
330
205
102
}
330
205
100
AcDbXrecord
280
     1
102
RTVSPropertyOp0
 70
     1
102
RTVSPropertyOp1
 70
     1
102
RTVSPropertyOp2
 70
     1
102
RTVSPropertyOp3
 70
     1
102
RTVSPropertyOp4
 70
     1
102
RTVSPropertyOp5
 70
     1
102
RTVSPropertyOp6
 70
     1
102
RTVSPropertyOp7
 70
     1
102
RTVSPropertyOp8
 70
     1
102
RTVSPropertyOp9
 70
     1
102
RTVSPropertyOp10
 70
     1
102
RTVSPropertyOp11
 70
     1
102
RTVSPropertyOp12
 70
     1
102
RTVSPropertyOp13
 70
     1
102
RTVSPropertyOp14
 70
     1
102
RTVSPropertyOp15
 70
     1
102
RTVSPropertyOp16
 70
     1
102
RTVSPropertyOp17
 70
     1
102
RTVSPropertyOp18
 70
     1
102
RTVSPropertyOp19
 70
     1
102
RTVSPropertyOp20
 70
     1
102
RTVSPropertyOp21
 70
     1
102
RTVSPropertyOp22
 70
     1
102
RTVSPropertyOp23
 70
     1
102
RTVSPropertyOp24
 70
     1
102
RTVSPropertyOp25
 70
     1
102
RTVSPropertyOp26
 70
     1
102
RTVSPropertyOp27
 70
     1
102
RTVSPropertyOp28
 70
     1
102
RTVSPropertyOp29
 70
     1
102
RTVSPropertyOp30
 70
     1
102
RTVSPropertyOp31
 70
     1
102
RTVSPropertyOp32
 70
     1
102
RTVSPropertyOp33
 70
     1
102
RTVSPropertyOp34
 70
     1
102
RTVSPropertyOp35
 70
     1
102
RTVSPropertyOp36
 70
     1
102
RTVSPropertyOp37
 70
     1
102
RTVSPropertyOp38
 70
     1
102
RTVSPropertyOp39
 70
     1
102
RTVSPropertyOp40
 70
     1
102
RTVSPropertyOp41
 70
     1
102
RTVSPropertyOp42
 70
     1
102
RTVSPropertyOp43
 70
     1
102
RTVSPropertyOp44
 70
     1
102
RTVSPropertyOp45
 70
     1
102
RTVSPropertyOp46
 70
     1
102
RTVSPropertyOp47
 70
     1
102
RTVSPropertyOp48
 70
     1
102
RTVSPropertyOp49
 70
     1
102
RTVSPropertyOp50
 70
     1
102
RTVSPropertyOp51
 70
     0
102
RTVSPropertyOp52
 70
     0
102
RTVSPropertyOp53
 70
     1
102
RTVSPropertyOp54
 70
     1
102
RTVSPropertyOp55
 70
     1
102
RTVSPropertyOp56
 70
     1
102
RTVSPropertyOp57
 70
     1
102
RTVSPost2010Prop28
280
     0
102
RTVSPost2010PropOp28
 70
     1
102
RTVSPost2010Prop29
280
     1
102
RTVSPost2010PropOp29
 70
     1
102
RTVSPost2010Prop30
280
     1
102
RTVSPost2010PropOp30
 70
     1
102
RTVSPost2010Prop31
280
     0
102
RTVSPost2010PropOp31
 70
     1
102
RTVSPost2010Prop32
280
     0
102
RTVSPost2010PropOp32
 70
     1
102
RTVSPost2010Prop33
280
     0
102
RTVSPost2010PropOp33
 70
     1
102
RTVSPost2010Prop34
280
     0
102
RTVSPost2010PropOp34
 70
     1
102
RTVSPost2010Prop35
280
     0
102
RTVSPost2010PropOp35
 70
     1
102
RTVSPost2010Prop36
280
     0
102
RTVSPost2010PropOp36
 70
     1
102
RTVSPost2010Prop37
 90
       50
102
RTVSPost2010PropOp37
 70
     1
102
RTVSPost2010Prop38
140
0.0
102
RTVSPost2010PropOp38
 70
     1
102
RTVSPost2010Prop39
140
1.0
102
RTVSPost2010PropOp39
 70
     1
102
RTVSPost2010Prop40
 90
        0
102
RTVSPost2010PropOp40
 70
     1
102
RTVSPost2010Prop41ColorIndex
 90
       18
102
RTVSPost2010Prop41ColorRGB
 90
        0
102
RTVSPost2010PropOp41
 70
     1
102
RTVSPost2010Prop42
 90
       50
102
RTVSPost2010PropOp42
 70
     1
102
RTVSPost2010Prop43
 90
        3
102
RTVSPost2010PropOp43
 70
     1
102
RTVSPost2010Prop44ColorIndex
 90
        5
102
RTVSPost2010Prop44ColorRGB
 90
      255
102
RTVSPost2010PropOp44
 70
     1
102
RTVSPost2010Prop45
280
     0
102
RTVSPost2010PropOp45
 70
     1
102
RTVSPost2010Prop46
 90
       50
102
RTVSPost2010PropOp46
 70
     1
102
RTVSPost2010Prop47
 90
       50
102
RTVSPost2010PropOp47
 70
     1
102
RTVSPost2010Prop48
 90
       50
102
RTVSPost2010PropOp48
 70
     1
102
RTVSPost2010Prop49
280
     0
102
RTVSPost2010PropOp49
 70
     1
102
RTVSPost2010Prop50
 90
       50
102
RTVSPost2010PropOp50
 70
     1
102
RTVSPost2010Prop51ColorIndex
 90
      256
102
RTVSPost2010Prop51ColorRGB
 90
-16777216
102
RTVSPost2010PropOp51
 70
     0
102
RTVSPost2010Prop52
140
1.0
102
RTVSPost2010PropOp52
 70
     0
102
RTVSPost2010Prop53
 90
        2
102
RTVSPost2010PropOp53
 70
     1
102
RTVSPost2010Prop54
  1
strokes_ogs.tif
102
RTVSPost2010PropOp54
 70
     1
102
RTVSPost2010Prop55
280
     0
102
RTVSPost2010PropOp55
 70
     1
102
RTVSPost2010Prop56
140
1.0
102
RTVSPost2010PropOp56
 70
     1
102
RTVSPost2010Prop57
140
1.0
102
RTVSPost2010PropOp57
 70
     1
  0
XRECORD
  5
1FA
102
{ACAD_REACTORS
330
1F9
102
}
330
1F9
100
AcDbXrecord
280
     1
102
RTVSPropertyOp0
 70
     1
102
RTVSPropertyOp1
 70
     1
102
RTVSPropertyOp2
 70
     1
102
RTVSPropertyOp3
 70
     1
102
RTVSPropertyOp4
 70
     1
102
RTVSPropertyOp5
 70
     1
102
RTVSPropertyOp6
 70
     1
102
RTVSPropertyOp7
 70
     1
102
RTVSPropertyOp8
 70
     1
102
RTVSPropertyOp9
 70
     1
102
RTVSPropertyOp10
 70
     1
102
RTVSPropertyOp11
 70
     1
102
RTVSPropertyOp12
 70
     1
102
RTVSPropertyOp13
 70
     1
102
RTVSPropertyOp14
 70
     1
102
RTVSPropertyOp15
 70
     1
102
RTVSPropertyOp16
 70
     1
102
RTVSPropertyOp17
 70
     1
102
RTVSPropertyOp18
 70
     1
102
RTVSPropertyOp19
 70
     1
102
RTVSPropertyOp20
 70
     1
102
RTVSPropertyOp21
 70
     1
102
RTVSPropertyOp22
 70
     1
102
RTVSPropertyOp23
 70
     1
102
RTVSPropertyOp24
 70
     1
102
RTVSPropertyOp25
 70
     1
102
RTVSPropertyOp26
 70
     1
102
RTVSPropertyOp27
 70
     1
102
RTVSPropertyOp28
 70
     1
102
RTVSPropertyOp29
 70
     1
102
RTVSPropertyOp30
 70
     1
102
RTVSPropertyOp31
 70
     1
102
RTVSPropertyOp32
 70
     1
102
RTVSPropertyOp33
 70
     1
102
RTVSPropertyOp34
 70
     1
102
RTVSPropertyOp35
 70
     1
102
RTVSPropertyOp36
 70
     1
102
RTVSPropertyOp37
 70
     1
102
RTVSPropertyOp38
 70
     1
102
RTVSPropertyOp39
 70
     1
102
RTVSPropertyOp40
 70
     1
102
RTVSPropertyOp41
 70
     1
102
RTVSPropertyOp42
 70
     1
102
RTVSPropertyOp43
 70
     1
102
RTVSPropertyOp44
 70
     1
102
RTVSPropertyOp45
 70
     1
102
RTVSPropertyOp46
 70
     1
102
RTVSPropertyOp47
 70
     1
102
RTVSPropertyOp48
 70
     1
102
RTVSPropertyOp49
 70
     1
102
RTVSPropertyOp50
 70
     1
102
RTVSPropertyOp51
 70
     0
102
RTVSPropertyOp52
 70
     0
102
RTVSPropertyOp53
 70
     1
102
RTVSPropertyOp54
 70
     1
102
RTVSPropertyOp55
 70
     1
102
RTVSPropertyOp56
 70
     1
102
RTVSPropertyOp57
 70
     1
102
RTVSPost2010Prop28
280
     0
102
RTVSPost2010PropOp28
 70
     1
102
RTVSPost2010Prop29
280
     1
102
RTVSPost2010PropOp29
 70
     1
102
RTVSPost2010Prop30
280
     1
102
RTVSPost2010PropOp30
 70
     1
102
RTVSPost2010Prop31
280
     0
102
RTVSPost2010PropOp31
 70
     1
102
RTVSPost2010Prop32
280
     0
102
RTVSPost2010PropOp32
 70
     1
102
RTVSPost2010Prop33
280
     0
102
RTVSPost2010PropOp33
 70
     1
102
RTVSPost2010Prop34
280
     0
102
RTVSPost2010PropOp34
 70
     1
102
RTVSPost2010Prop35
280
     0
102
RTVSPost2010PropOp35
 70
     1
102
RTVSPost2010Prop36
280
     0
102
RTVSPost2010PropOp36
 70
     1
102
RTVSPost2010Prop37
 90
       50
102
RTVSPost2010PropOp37
 70
     1
102
RTVSPost2010Prop38
140
0.0
102
RTVSPost2010PropOp38
 70
     1
102
RTVSPost2010Prop39
140
1.0
102
RTVSPost2010PropOp39
 70
     1
102
RTVSPost2010Prop40
 90
        0
102
RTVSPost2010PropOp40
 70
     1
102
RTVSPost2010Prop41ColorIndex
 90
       18
102
RTVSPost2010Prop41ColorRGB
 90
        0
102
RTVSPost2010PropOp41
 70
     1
102
RTVSPost2010Prop42
 90
       50
102
RTVSPost2010PropOp42
 70
     1
102
RTVSPost2010Prop43
 90
        3
102
RTVSPost2010PropOp43
 70
     1
102
RTVSPost2010Prop44ColorIndex
 90
        5
102
RTVSPost2010Prop44ColorRGB
 90
      255
102
RTVSPost2010PropOp44
 70
     1
102
RTVSPost2010Prop45
280
     0
102
RTVSPost2010PropOp45
 70
     1
102
RTVSPost2010Prop46
 90
       50
102
RTVSPost2010PropOp46
 70
     1
102
RTVSPost2010Prop47
 90
       50
102
RTVSPost2010PropOp47
 70
     1
102
RTVSPost2010Prop48
 90
       50
102
RTVSPost2010PropOp48
 70
     1
102
RTVSPost2010Prop49
280
     0
102
RTVSPost2010PropOp49
 70
     1
102
RTVSPost2010Prop50
 90
       50
102
RTVSPost2010PropOp50
 70
     1
102
RTVSPost2010Prop51ColorIndex
 90
      256
102
RTVSPost2010Prop51ColorRGB
 90
-16777216
102
RTVSPost2010PropOp51
 70
     0
102
RTVSPost2010Prop52
140
1.0
102
RTVSPost2010PropOp52
 70
     0
102
RTVSPost2010Prop53
 90
        2
102
RTVSPost2010PropOp53
 70
     1
102
RTVSPost2010Prop54
  1
strokes_ogs.tif
102
RTVSPost2010PropOp54
 70
     1
102
RTVSPost2010Prop55
280
     0
102
RTVSPost2010PropOp55
 70
     1
102
RTVSPost2010Prop56
140
1.0
102
RTVSPost2010PropOp56
 70
     1
102
RTVSPost2010Prop57
140
1.0
102
RTVSPost2010PropOp57
 70
     1
  0
XRECORD
  5
1FC
102
{ACAD_REACTORS
330
1FB
102
}
330
1FB
100
AcDbXrecord
280
     1
102
RTVSPropertyOp0
 70
     1
102
RTVSPropertyOp1
 70
     1
102
RTVSPropertyOp2
 70
     1
102
RTVSPropertyOp3
 70
     1
102
RTVSPropertyOp4
 70
     1
102
RTVSPropertyOp5
 70
     1
102
RTVSPropertyOp6
 70
     1
102
RTVSPropertyOp7
 70
     1
102
RTVSPropertyOp8
 70
     1
102
RTVSPropertyOp9
 70
     1
102
RTVSPropertyOp10
 70
     1
102
RTVSPropertyOp11
 70
     1
102
RTVSPropertyOp12
 70
     1
102
RTVSPropertyOp13
 70
     1
102
RTVSPropertyOp14
 70
     1
102
RTVSPropertyOp15
 70
     1
102
RTVSPropertyOp16
 70
     1
102
RTVSPropertyOp17
 70
     1
102
RTVSPropertyOp18
 70
     1
102
RTVSPropertyOp19
 70
     1
102
RTVSPropertyOp20
 70
     1
102
RTVSPropertyOp21
 70
     1
102
RTVSPropertyOp22
 70
     1
102
RTVSPropertyOp23
 70
     1
102
RTVSPropertyOp24
 70
     1
102
RTVSPropertyOp25
 70
     1
102
RTVSPropertyOp26
 70
     1
102
RTVSPropertyOp27
 70
     1
102
RTVSPropertyOp28
 70
     1
102
RTVSPropertyOp29
 70
     1
102
RTVSPropertyOp30
 70
     1
102
RTVSPropertyOp31
 70
     1
102
RTVSPropertyOp32
 70
     1
102
RTVSPropertyOp33
 70
     1
102
RTVSPropertyOp34
 70
     1
102
RTVSPropertyOp35
 70
     1
102
RTVSPropertyOp36
 70
     1
102
RTVSPropertyOp37
 70
     1
102
RTVSPropertyOp38
 70
     1
102
RTVSPropertyOp39
 70
     1
102
RTVSPropertyOp40
 70
     1
102
RTVSPropertyOp41
 70
     1
102
RTVSPropertyOp42
 70
     1
102
RTVSPropertyOp43
 70
     1
102
RTVSPropertyOp44
 70
     1
102
RTVSPropertyOp45
 70
     1
102
RTVSPropertyOp46
 70
     1
102
RTVSPropertyOp47
 70
     1
102
RTVSPropertyOp48
 70
     1
102
RTVSPropertyOp49
 70
     1
102
RTVSPropertyOp50
 70
     1
102
RTVSPropertyOp51
 70
     0
102
RTVSPropertyOp52
 70
     0
102
RTVSPropertyOp53
 70
     1
102
RTVSPropertyOp54
 70
     1
102
RTVSPropertyOp55
 70
     1
102
RTVSPropertyOp56
 70
     1
102
RTVSPropertyOp57
 70
     1
102
RTVSPost2010Prop28
280
     0
102
RTVSPost2010PropOp28
 70
     1
102
RTVSPost2010Prop29
280
     1
102
RTVSPost2010PropOp29
 70
     1
102
RTVSPost2010Prop30
280
     1
102
RTVSPost2010PropOp30
 70
     1
102
RTVSPost2010Prop31
280
     0
102
RTVSPost2010PropOp31
 70
     1
102
RTVSPost2010Prop32
280
     0
102
RTVSPost2010PropOp32
 70
     1
102
RTVSPost2010Prop33
280
     0
102
RTVSPost2010PropOp33
 70
     1
102
RTVSPost2010Prop34
280
     0
102
RTVSPost2010PropOp34
 70
     1
102
RTVSPost2010Prop35
280
     0
102
RTVSPost2010PropOp35
 70
     1
102
RTVSPost2010Prop36
280
     0
102
RTVSPost2010PropOp36
 70
     1
102
RTVSPost2010Prop37
 90
       50
102
RTVSPost2010PropOp37
 70
     1
102
RTVSPost2010Prop38
140
0.0
102
RTVSPost2010PropOp38
 70
     1
102
RTVSPost2010Prop39
140
1.0
102
RTVSPost2010PropOp39
 70
     1
102
RTVSPost2010Prop40
 90
        0
102
RTVSPost2010PropOp40
 70
     1
102
RTVSPost2010Prop41ColorIndex
 90
       18
102
RTVSPost2010Prop41ColorRGB
 90
        0
102
RTVSPost2010PropOp41
 70
     1
102
RTVSPost2010Prop42
 90
       50
102
RTVSPost2010PropOp42
 70
     1
102
RTVSPost2010Prop43
 90
        3
102
RTVSPost2010PropOp43
 70
     1
102
RTVSPost2010Prop44ColorIndex
 90
        5
102
RTVSPost2010Prop44ColorRGB
 90
      255
102
RTVSPost2010PropOp44
 70
     1
102
RTVSPost2010Prop45
280
     0
102
RTVSPost2010PropOp45
 70
     1
102
RTVSPost2010Prop46
 90
       50
102
RTVSPost2010PropOp46
 70
     1
102
RTVSPost2010Prop47
 90
       50
102
RTVSPost2010PropOp47
 70
     1
102
RTVSPost2010Prop48
 90
       50
102
RTVSPost2010PropOp48
 70
     1
102
RTVSPost2010Prop49
280
     0
102
RTVSPost2010PropOp49
 70
     1
102
RTVSPost2010Prop50
 90
       50
102
RTVSPost2010PropOp50
 70
     1
102
RTVSPost2010Prop51ColorIndex
 90
      256
102
RTVSPost2010Prop51ColorRGB
 90
-16777216
102
RTVSPost2010PropOp51
 70
     0
102
RTVSPost2010Prop52
140
1.0
102
RTVSPost2010PropOp52
 70
     0
102
RTVSPost2010Prop53
 90
        2
102
RTVSPost2010PropOp53
 70
     1
102
RTVSPost2010Prop54
  1
strokes_ogs.tif
102
RTVSPost2010PropOp54
 70
     1
102
RTVSPost2010Prop55
280
     0
102
RTVSPost2010PropOp55
 70
     1
102
RTVSPost2010Prop56
140
1.0
102
RTVSPost2010PropOp56
 70
     1
102
RTVSPost2010Prop57
140
1.0
102
RTVSPost2010PropOp57
 70
     1
  0
XRECORD
  5
20C
102
{ACAD_REACTORS
330
20B
102
}
330
20B
100
AcDbXrecord
280
     1
102
RTVSPropertyOp0
 70
     0
102
RTVSPropertyOp1
 70
     0
102
RTVSPropertyOp2
 70
     0
102
RTVSPropertyOp3
 70
     0
102
RTVSPropertyOp4
 70
     0
102
RTVSPropertyOp5
 70
     0
102
RTVSPropertyOp6
 70
     0
102
RTVSPropertyOp7
 70
     0
102
RTVSPropertyOp8
 70
     0
102
RTVSPropertyOp9
 70
     0
102
RTVSPropertyOp10
 70
     0
102
RTVSPropertyOp11
 70
     0
102
RTVSPropertyOp12
 70
     0
102
RTVSPropertyOp13
 70
     0
102
RTVSPropertyOp14
 70
     2
102
RTVSPropertyOp15
 70
     0
102
RTVSPropertyOp16
 70
     0
102
RTVSPropertyOp17
 70
     0
102
RTVSPropertyOp18
 70
     0
102
RTVSPropertyOp19
 70
     0
102
RTVSPropertyOp20
 70
     0
102
RTVSPropertyOp21
 70
     0
102
RTVSPropertyOp22
 70
     0
102
RTVSPropertyOp23
 70
     0
102
RTVSPropertyOp24
 70
     0
102
RTVSPropertyOp25
 70
     0
102
RTVSPropertyOp26
 70
     0
102
RTVSPropertyOp27
 70
     0
102
RTVSPropertyOp28
 70
     0
102
RTVSPropertyOp29
 70
     0
102
RTVSPropertyOp30
 70
     0
102
RTVSPropertyOp31
 70
     0
102
RTVSPropertyOp32
 70
     0
102
RTVSPropertyOp33
 70
     0
102
RTVSPropertyOp34
 70
     0
102
RTVSPropertyOp35
 70
     0
102
RTVSPropertyOp36
 70
     0
102
RTVSPropertyOp37
 70
     0
102
RTVSPropertyOp38
 70
     0
102
RTVSPropertyOp39
 70
     0
102
RTVSPropertyOp40
 70
     0
102
RTVSPropertyOp41
 70
     0
102
RTVSPropertyOp42
 70
     0
102
RTVSPropertyOp43
 70
     0
102
RTVSPropertyOp44
 70
     0
102
RTVSPropertyOp45
 70
     0
102
RTVSPropertyOp46
 70
     0
102
RTVSPropertyOp47
 70
     0
102
RTVSPropertyOp48
 70
     0
102
RTVSPropertyOp49
 70
     0
102
RTVSPropertyOp50
 70
     0
102
RTVSPropertyOp51
 70
     0
102
RTVSPropertyOp52
 70
     0
102
RTVSPropertyOp53
 70
     0
102
RTVSPropertyOp54
 70
     0
102
RTVSPropertyOp55
 70
     0
102
RTVSPropertyOp56
 70
     0
102
RTVSPropertyOp57
 70
     0
102
RTVSPost2010Prop28
280
     0
102
RTVSPost2010PropOp28
 70
     0
102
RTVSPost2010Prop29
280
     1
102
RTVSPost2010PropOp29
 70
     0
102
RTVSPost2010Prop30
280
     1
102
RTVSPost2010PropOp30
 70
     0
102
RTVSPost2010Prop31
280
     0
102
RTVSPost2010PropOp31
 70
     0
102
RTVSPost2010Prop32
280
     0
102
RTVSPost2010PropOp32
 70
     0
102
RTVSPost2010Prop33
280
     0
102
RTVSPost2010PropOp33
 70
     0
102
RTVSPost2010Prop34
280
     0
102
RTVSPost2010PropOp34
 70
     0
102
RTVSPost2010Prop35
280
     0
102
RTVSPost2010PropOp35
 70
     0
102
RTVSPost2010Prop36
280
     0
102
RTVSPost2010PropOp36
 70
     0
102
RTVSPost2010Prop37
 90
       50
102
RTVSPost2010PropOp37
 70
     0
102
RTVSPost2010Prop38
140
0.0
102
RTVSPost2010PropOp38
 70
     0
102
RTVSPost2010Prop39
140
1.0
102
RTVSPost2010PropOp39
 70
     0
102
RTVSPost2010Prop40
 90
        0
102
RTVSPost2010PropOp40
 70
     0
102
RTVSPost2010Prop41ColorIndex
 90
       18
102
RTVSPost2010Prop41ColorRGB
 90
        0
102
RTVSPost2010PropOp41
 70
     0
102
RTVSPost2010Prop42
 90
       50
102
RTVSPost2010PropOp42
 70
     0
102
RTVSPost2010Prop43
 90
        3
102
RTVSPost2010PropOp43
 70
     0
102
RTVSPost2010Prop44ColorIndex
 90
        5
102
RTVSPost2010Prop44ColorRGB
 90
      255
102
RTVSPost2010PropOp44
 70
     0
102
RTVSPost2010Prop45
280
     0
102
RTVSPost2010PropOp45
 70
     0
102
RTVSPost2010Prop46
 90
       50
102
RTVSPost2010PropOp46
 70
     0
102
RTVSPost2010Prop47
 90
       50
102
RTVSPost2010PropOp47
 70
     0
102
RTVSPost2010Prop48
 90
       50
102
RTVSPost2010PropOp48
 70
     0
102
RTVSPost2010Prop49
280
     0
102
RTVSPost2010PropOp49
 70
     0
102
RTVSPost2010Prop50
 90
       50
102
RTVSPost2010PropOp50
 70
     0
102
RTVSPost2010Prop51ColorIndex
 90
      256
102
RTVSPost2010Prop51ColorRGB
 90
-16777216
102
RTVSPost2010PropOp51
 70
     0
102
RTVSPost2010Prop52
140
1.0
102
RTVSPost2010PropOp52
 70
     0
102
RTVSPost2010Prop53
 90
        2
102
RTVSPost2010PropOp53
 70
     0
102
RTVSPost2010Prop54
  1
strokes_ogs.tif
102
RTVSPost2010PropOp54
 70
     0
102
RTVSPost2010Prop55
280
     0
102
RTVSPost2010PropOp55
 70
     0
102
RTVSPost2010Prop56
140
1.0
102
RTVSPost2010PropOp56
 70
     0
102
RTVSPost2010Prop57
140
1.0
102
RTVSPost2010PropOp57
 70
     0
  0
XRECORD
  5
204
102
{ACAD_REACTORS
330
203
102
}
330
203
100
AcDbXrecord
280
     1
102
RTVSPropertyOp0
 70
     1
102
RTVSPropertyOp1
 70
     1
102
RTVSPropertyOp2
 70
     1
102
RTVSPropertyOp3
 70
     1
102
RTVSPropertyOp4
 70
     1
102
RTVSPropertyOp5
 70
     1
102
RTVSPropertyOp6
 70
     1
102
RTVSPropertyOp7
 70
     1
102
RTVSPropertyOp8
 70
     1
102
RTVSPropertyOp9
 70
     1
102
RTVSPropertyOp10
 70
     1
102
RTVSPropertyOp11
 70
     1
102
RTVSPropertyOp12
 70
     1
102
RTVSPropertyOp13
 70
     1
102
RTVSPropertyOp14
 70
     1
102
RTVSPropertyOp15
 70
     1
102
RTVSPropertyOp16
 70
     1
102
RTVSPropertyOp17
 70
     1
102
RTVSPropertyOp18
 70
     1
102
RTVSPropertyOp19
 70
     1
102
RTVSPropertyOp20
 70
     1
102
RTVSPropertyOp21
 70
     1
102
RTVSPropertyOp22
 70
     1
102
RTVSPropertyOp23
 70
     1
102
RTVSPropertyOp24
 70
     1
102
RTVSPropertyOp25
 70
     1
102
RTVSPropertyOp26
 70
     1
102
RTVSPropertyOp27
 70
     1
102
RTVSPropertyOp28
 70
     1
102
RTVSPropertyOp29
 70
     1
102
RTVSPropertyOp30
 70
     1
102
RTVSPropertyOp31
 70
     1
102
RTVSPropertyOp32
 70
     1
102
RTVSPropertyOp33
 70
     1
102
RTVSPropertyOp34
 70
     1
102
RTVSPropertyOp35
 70
     1
102
RTVSPropertyOp36
 70
     1
102
RTVSPropertyOp37
 70
     1
102
RTVSPropertyOp38
 70
     1
102
RTVSPropertyOp39
 70
     1
102
RTVSPropertyOp40
 70
     1
102
RTVSPropertyOp41
 70
     1
102
RTVSPropertyOp42
 70
     1
102
RTVSPropertyOp43
 70
     1
102
RTVSPropertyOp44
 70
     1
102
RTVSPropertyOp45
 70
     1
102
RTVSPropertyOp46
 70
     1
102
RTVSPropertyOp47
 70
     1
102
RTVSPropertyOp48
 70
     1
102
RTVSPropertyOp49
 70
     1
102
RTVSPropertyOp50
 70
     1
102
RTVSPropertyOp51
 70
     0
102
RTVSPropertyOp52
 70
     0
102
RTVSPropertyOp53
 70
     1
102
RTVSPropertyOp54
 70
     1
102
RTVSPropertyOp55
 70
     1
102
RTVSPropertyOp56
 70
     1
102
RTVSPropertyOp57
 70
     1
102
RTVSPost2010Prop28
280
     0
102
RTVSPost2010PropOp28
 70
     1
102
RTVSPost2010Prop29
280
     1
102
RTVSPost2010PropOp29
 70
     1
102
RTVSPost2010Prop30
280
     1
102
RTVSPost2010PropOp30
 70
     1
102
RTVSPost2010Prop31
280
     0
102
RTVSPost2010PropOp31
 70
     1
102
RTVSPost2010Prop32
280
     0
102
RTVSPost2010PropOp32
 70
     1
102
RTVSPost2010Prop33
280
     0
102
RTVSPost2010PropOp33
 70
     1
102
RTVSPost2010Prop34
280
     0
102
RTVSPost2010PropOp34
 70
     1
102
RTVSPost2010Prop35
280
     0
102
RTVSPost2010PropOp35
 70
     1
102
RTVSPost2010Prop36
280
     0
102
RTVSPost2010PropOp36
 70
     1
102
RTVSPost2010Prop37
 90
       50
102
RTVSPost2010PropOp37
 70
     1
102
RTVSPost2010Prop38
140
0.0
102
RTVSPost2010PropOp38
 70
     1
102
RTVSPost2010Prop39
140
1.0
102
RTVSPost2010PropOp39
 70
     1
102
RTVSPost2010Prop40
 90
        0
102
RTVSPost2010PropOp40
 70
     1
102
RTVSPost2010Prop41ColorIndex
 90
       18
102
RTVSPost2010Prop41ColorRGB
 90
        0
102
RTVSPost2010PropOp41
 70
     1
102
RTVSPost2010Prop42
 90
       50
102
RTVSPost2010PropOp42
 70
     1
102
RTVSPost2010Prop43
 90
        3
102
RTVSPost2010PropOp43
 70
     1
102
RTVSPost2010Prop44ColorIndex
 90
        5
102
RTVSPost2010Prop44ColorRGB
 90
      255
102
RTVSPost2010PropOp44
 70
     1
102
RTVSPost2010Prop45
280
     0
102
RTVSPost2010PropOp45
 70
     1
102
RTVSPost2010Prop46
 90
       50
102
RTVSPost2010PropOp46
 70
     1
102
RTVSPost2010Prop47
 90
       50
102
RTVSPost2010PropOp47
 70
     1
102
RTVSPost2010Prop48
 90
       50
102
RTVSPost2010PropOp48
 70
     1
102
RTVSPost2010Prop49
280
     0
102
RTVSPost2010PropOp49
 70
     1
102
RTVSPost2010Prop50
 90
       50
102
RTVSPost2010PropOp50
 70
     1
102
RTVSPost2010Prop51ColorIndex
 90
      256
102
RTVSPost2010Prop51ColorRGB
 90
-16777216
102
RTVSPost2010PropOp51
 70
     0
102
RTVSPost2010Prop52
140
1.0
102
RTVSPost2010PropOp52
 70
     0
102
RTVSPost2010Prop53
 90
        2
102
RTVSPost2010PropOp53
 70
     1
102
RTVSPost2010Prop54
  1
strokes_ogs.tif
102
RTVSPost2010PropOp54
 70
     1
102
RTVSPost2010Prop55
280
     0
102
RTVSPost2010PropOp55
 70
     1
102
RTVSPost2010Prop56
140
1.0
102
RTVSPost2010PropOp56
 70
     1
102
RTVSPost2010Prop57
140
1.0
102
RTVSPost2010PropOp57
 70
     1
  0
XRECORD
  5
1E8
102
{ACAD_REACTORS
330
1E7
102
}
330
1E7
100
AcDbXrecord
280
     1
102
RTVSPropertyOp0
 70
     1
102
RTVSPropertyOp1
 70
     1
102
RTVSPropertyOp2
 70
     1
102
RTVSPropertyOp3
 70
     1
102
RTVSPropertyOp4
 70
     1
102
RTVSPropertyOp5
 70
     1
102
RTVSPropertyOp6
 70
     1
102
RTVSPropertyOp7
 70
     1
102
RTVSPropertyOp8
 70
     1
102
RTVSPropertyOp9
 70
     1
102
RTVSPropertyOp10
 70
     1
102
RTVSPropertyOp11
 70
     1
102
RTVSPropertyOp12
 70
     1
102
RTVSPropertyOp13
 70
     1
102
RTVSPropertyOp14
 70
     1
102
RTVSPropertyOp15
 70
     1
102
RTVSPropertyOp16
 70
     1
102
RTVSPropertyOp17
 70
     1
102
RTVSPropertyOp18
 70
     1
102
RTVSPropertyOp19
 70
     1
102
RTVSPropertyOp20
 70
     1
102
RTVSPropertyOp21
 70
     1
102
RTVSPropertyOp22
 70
     1
102
RTVSPropertyOp23
 70
     1
102
RTVSPropertyOp24
 70
     1
102
RTVSPropertyOp25
 70
     1
102
RTVSPropertyOp26
 70
     1
102
RTVSPropertyOp27
 70
     1
102
RTVSPropertyOp28
 70
     1
102
RTVSPropertyOp29
 70
     1
102
RTVSPropertyOp30
 70
     1
102
RTVSPropertyOp31
 70
     1
102
RTVSPropertyOp32
 70
     1
102
RTVSPropertyOp33
 70
     1
102
RTVSPropertyOp34
 70
     1
102
RTVSPropertyOp35
 70
     1
102
RTVSPropertyOp36
 70
     1
102
RTVSPropertyOp37
 70
     1
102
RTVSPropertyOp38
 70
     1
102
RTVSPropertyOp39
 70
     1
102
RTVSPropertyOp40
 70
     1
102
RTVSPropertyOp41
 70
     1
102
RTVSPropertyOp42
 70
     1
102
RTVSPropertyOp43
 70
     1
102
RTVSPropertyOp44
 70
     1
102
RTVSPropertyOp45
 70
     1
102
RTVSPropertyOp46
 70
     1
102
RTVSPropertyOp47
 70
     1
102
RTVSPropertyOp48
 70
     1
102
RTVSPropertyOp49
 70
     1
102
RTVSPropertyOp50
 70
     1
102
RTVSPropertyOp51
 70
     0
102
RTVSPropertyOp52
 70
     0
102
RTVSPropertyOp53
 70
     1
102
RTVSPropertyOp54
 70
     1
102
RTVSPropertyOp55
 70
     1
102
RTVSPropertyOp56
 70
     1
102
RTVSPropertyOp57
 70
     1
102
RTVSPost2010Prop28
280
     0
102
RTVSPost2010PropOp28
 70
     1
102
RTVSPost2010Prop29
280
     1
102
RTVSPost2010PropOp29
 70
     1
102
RTVSPost2010Prop30
280
     1
102
RTVSPost2010PropOp30
 70
     1
102
RTVSPost2010Prop31
280
     0
102
RTVSPost2010PropOp31
 70
     1
102
RTVSPost2010Prop32
280
     0
102
RTVSPost2010PropOp32
 70
     1
102
RTVSPost2010Prop33
280
     0
102
RTVSPost2010PropOp33
 70
     1
102
RTVSPost2010Prop34
280
     0
102
RTVSPost2010PropOp34
 70
     1
102
RTVSPost2010Prop35
280
     0
102
RTVSPost2010PropOp35
 70
     1
102
RTVSPost2010Prop36
280
     0
102
RTVSPost2010PropOp36
 70
     1
102
RTVSPost2010Prop37
 90
       50
102
RTVSPost2010PropOp37
 70
     1
102
RTVSPost2010Prop38
140
0.0
102
RTVSPost2010PropOp38
 70
     1
102
RTVSPost2010Prop39
140
1.0
102
RTVSPost2010PropOp39
 70
     1
102
RTVSPost2010Prop40
 90
        0
102
RTVSPost2010PropOp40
 70
     1
102
RTVSPost2010Prop41ColorIndex
 90
       18
102
RTVSPost2010Prop41ColorRGB
 90
        0
102
RTVSPost2010PropOp41
 70
     1
102
RTVSPost2010Prop42
 90
       50
102
RTVSPost2010PropOp42
 70
     1
102
RTVSPost2010Prop43
 90
        3
102
RTVSPost2010PropOp43
 70
     1
102
RTVSPost2010Prop44ColorIndex
 90
        5
102
RTVSPost2010Prop44ColorRGB
 90
      255
102
RTVSPost2010PropOp44
 70
     1
102
RTVSPost2010Prop45
280
     0
102
RTVSPost2010PropOp45
 70
     1
102
RTVSPost2010Prop46
 90
       50
102
RTVSPost2010PropOp46
 70
     1
102
RTVSPost2010Prop47
 90
       50
102
RTVSPost2010PropOp47
 70
     1
102
RTVSPost2010Prop48
 90
       50
102
RTVSPost2010PropOp48
 70
     1
102
RTVSPost2010Prop49
280
     0
102
RTVSPost2010PropOp49
 70
     1
102
RTVSPost2010Prop50
 90
       50
102
RTVSPost2010PropOp50
 70
     1
102
RTVSPost2010Prop51ColorIndex
 90
      256
102
RTVSPost2010Prop51ColorRGB
 90
-16777216
102
RTVSPost2010PropOp51
 70
     0
102
RTVSPost2010Prop52
140
1.0
102
RTVSPost2010PropOp52
 70
     0
102
RTVSPost2010Prop53
 90
        2
102
RTVSPost2010PropOp53
 70
     1
102
RTVSPost2010Prop54
  1
strokes_ogs.tif
102
RTVSPost2010PropOp54
 70
     1
102
RTVSPost2010Prop55
280
     0
102
RTVSPost2010PropOp55
 70
     1
102
RTVSPost2010Prop56
140
1.0
102
RTVSPost2010PropOp56
 70
     1
102
RTVSPost2010Prop57
140
1.0
102
RTVSPost2010PropOp57
 70
     1
  0
XRECORD
  5
1EA
102
{ACAD_REACTORS
330
1E9
102
}
330
1E9
100
AcDbXrecord
280
     1
102
RTVSPropertyOp0
 70
     1
102
RTVSPropertyOp1
 70
     1
102
RTVSPropertyOp2
 70
     1
102
RTVSPropertyOp3
 70
     1
102
RTVSPropertyOp4
 70
     1
102
RTVSPropertyOp5
 70
     1
102
RTVSPropertyOp6
 70
     1
102
RTVSPropertyOp7
 70
     1
102
RTVSPropertyOp8
 70
     1
102
RTVSPropertyOp9
 70
     1
102
RTVSPropertyOp10
 70
     1
102
RTVSPropertyOp11
 70
     1
102
RTVSPropertyOp12
 70
     1
102
RTVSPropertyOp13
 70
     1
102
RTVSPropertyOp14
 70
     1
102
RTVSPropertyOp15
 70
     1
102
RTVSPropertyOp16
 70
     1
102
RTVSPropertyOp17
 70
     1
102
RTVSPropertyOp18
 70
     1
102
RTVSPropertyOp19
 70
     1
102
RTVSPropertyOp20
 70
     1
102
RTVSPropertyOp21
 70
     1
102
RTVSPropertyOp22
 70
     1
102
RTVSPropertyOp23
 70
     1
102
RTVSPropertyOp24
 70
     1
102
RTVSPropertyOp25
 70
     1
102
RTVSPropertyOp26
 70
     1
102
RTVSPropertyOp27
 70
     1
102
RTVSPropertyOp28
 70
     1
102
RTVSPropertyOp29
 70
     1
102
RTVSPropertyOp30
 70
     1
102
RTVSPropertyOp31
 70
     1
102
RTVSPropertyOp32
 70
     1
102
RTVSPropertyOp33
 70
     1
102
RTVSPropertyOp34
 70
     1
102
RTVSPropertyOp35
 70
     1
102
RTVSPropertyOp36
 70
     1
102
RTVSPropertyOp37
 70
     1
102
RTVSPropertyOp38
 70
     1
102
RTVSPropertyOp39
 70
     1
102
RTVSPropertyOp40
 70
     1
102
RTVSPropertyOp41
 70
     1
102
RTVSPropertyOp42
 70
     1
102
RTVSPropertyOp43
 70
     1
102
RTVSPropertyOp44
 70
     1
102
RTVSPropertyOp45
 70
     1
102
RTVSPropertyOp46
 70
     1
102
RTVSPropertyOp47
 70
     1
102
RTVSPropertyOp48
 70
     1
102
RTVSPropertyOp49
 70
     1
102
RTVSPropertyOp50
 70
     1
102
RTVSPropertyOp51
 70
     0
102
RTVSPropertyOp52
 70
     0
102
RTVSPropertyOp53
 70
     1
102
RTVSPropertyOp54
 70
     1
102
RTVSPropertyOp55
 70
     1
102
RTVSPropertyOp56
 70
     1
102
RTVSPropertyOp57
 70
     1
102
RTVSPost2010Prop28
280
     0
102
RTVSPost2010PropOp28
 70
     1
102
RTVSPost2010Prop29
280
     1
102
RTVSPost2010PropOp29
 70
     1
102
RTVSPost2010Prop30
280
     1
102
RTVSPost2010PropOp30
 70
     1
102
RTVSPost2010Prop31
280
     0
102
RTVSPost2010PropOp31
 70
     1
102
RTVSPost2010Prop32
280
     0
102
RTVSPost2010PropOp32
 70
     1
102
RTVSPost2010Prop33
280
     0
102
RTVSPost2010PropOp33
 70
     1
102
RTVSPost2010Prop34
280
     0
102
RTVSPost2010PropOp34
 70
     1
102
RTVSPost2010Prop35
280
     0
102
RTVSPost2010PropOp35
 70
     1
102
RTVSPost2010Prop36
280
     0
102
RTVSPost2010PropOp36
 70
     1
102
RTVSPost2010Prop37
 90
       50
102
RTVSPost2010PropOp37
 70
     1
102
RTVSPost2010Prop38
140
0.0
102
RTVSPost2010PropOp38
 70
     1
102
RTVSPost2010Prop39
140
1.0
102
RTVSPost2010PropOp39
 70
     1
102
RTVSPost2010Prop40
 90
        0
102
RTVSPost2010PropOp40
 70
     1
102
RTVSPost2010Prop41ColorIndex
 90
       18
102
RTVSPost2010Prop41ColorRGB
 90
        0
102
RTVSPost2010PropOp41
 70
     1
102
RTVSPost2010Prop42
 90
       50
102
RTVSPost2010PropOp42
 70
     1
102
RTVSPost2010Prop43
 90
        3
102
RTVSPost2010PropOp43
 70
     1
102
RTVSPost2010Prop44ColorIndex
 90
        5
102
RTVSPost2010Prop44ColorRGB
 90
      255
102
RTVSPost2010PropOp44
 70
     1
102
RTVSPost2010Prop45
280
     0
102
RTVSPost2010PropOp45
 70
     1
102
RTVSPost2010Prop46
 90
       50
102
RTVSPost2010PropOp46
 70
     1
102
RTVSPost2010Prop47
 90
       50
102
RTVSPost2010PropOp47
 70
     1
102
RTVSPost2010Prop48
 90
       50
102
RTVSPost2010PropOp48
 70
     1
102
RTVSPost2010Prop49
280
     0
102
RTVSPost2010PropOp49
 70
     1
102
RTVSPost2010Prop50
 90
       50
102
RTVSPost2010PropOp50
 70
     1
102
RTVSPost2010Prop51ColorIndex
 90
      256
102
RTVSPost2010Prop51ColorRGB
 90
-16777216
102
RTVSPost2010PropOp51
 70
     0
102
RTVSPost2010Prop52
140
1.0
102
RTVSPost2010PropOp52
 70
     0
102
RTVSPost2010Prop53
 90
        2
102
RTVSPost2010PropOp53
 70
     1
102
RTVSPost2010Prop54
  1
strokes_ogs.tif
102
RTVSPost2010PropOp54
 70
     1
102
RTVSPost2010Prop55
280
     0
102
RTVSPost2010PropOp55
 70
     1
102
RTVSPost2010Prop56
140
1.0
102
RTVSPost2010PropOp56
 70
     1
102
RTVSPost2010Prop57
140
1.0
102
RTVSPost2010PropOp57
 70
     1
  0
XRECORD
  5
1EC
102
{ACAD_REACTORS
330
1EB
102
}
330
1EB
100
AcDbXrecord
280
     1
102
RTVSPropertyOp0
 70
     1
102
RTVSPropertyOp1
 70
     1
102
RTVSPropertyOp2
 70
     1
102
RTVSPropertyOp3
 70
     1
102
RTVSPropertyOp4
 70
     1
102
RTVSPropertyOp5
 70
     1
102
RTVSPropertyOp6
 70
     1
102
RTVSPropertyOp7
 70
     1
102
RTVSPropertyOp8
 70
     1
102
RTVSPropertyOp9
 70
     1
102
RTVSPropertyOp10
 70
     1
102
RTVSPropertyOp11
 70
     1
102
RTVSPropertyOp12
 70
     1
102
RTVSPropertyOp13
 70
     1
102
RTVSPropertyOp14
 70
     1
102
RTVSPropertyOp15
 70
     1
102
RTVSPropertyOp16
 70
     1
102
RTVSPropertyOp17
 70
     1
102
RTVSPropertyOp18
 70
     1
102
RTVSPropertyOp19
 70
     1
102
RTVSPropertyOp20
 70
     1
102
RTVSPropertyOp21
 70
     1
102
RTVSPropertyOp22
 70
     1
102
RTVSPropertyOp23
 70
     1
102
RTVSPropertyOp24
 70
     1
102
RTVSPropertyOp25
 70
     1
102
RTVSPropertyOp26
 70
     1
102
RTVSPropertyOp27
 70
     1
102
RTVSPropertyOp28
 70
     1
102
RTVSPropertyOp29
 70
     1
102
RTVSPropertyOp30
 70
     1
102
RTVSPropertyOp31
 70
     1
102
RTVSPropertyOp32
 70
     1
102
RTVSPropertyOp33
 70
     1
102
RTVSPropertyOp34
 70
     1
102
RTVSPropertyOp35
 70
     1
102
RTVSPropertyOp36
 70
     1
102
RTVSPropertyOp37
 70
     1
102
RTVSPropertyOp38
 70
     1
102
RTVSPropertyOp39
 70
     1
102
RTVSPropertyOp40
 70
     1
102
RTVSPropertyOp41
 70
     1
102
RTVSPropertyOp42
 70
     1
102
RTVSPropertyOp43
 70
     1
102
RTVSPropertyOp44
 70
     1
102
RTVSPropertyOp45
 70
     1
102
RTVSPropertyOp46
 70
     1
102
RTVSPropertyOp47
 70
     1
102
RTVSPropertyOp48
 70
     1
102
RTVSPropertyOp49
 70
     1
102
RTVSPropertyOp50
 70
     1
102
RTVSPropertyOp51
 70
     0
102
RTVSPropertyOp52
 70
     0
102
RTVSPropertyOp53
 70
     1
102
RTVSPropertyOp54
 70
     1
102
RTVSPropertyOp55
 70
     1
102
RTVSPropertyOp56
 70
     1
102
RTVSPropertyOp57
 70
     1
102
RTVSPost2010Prop28
280
     0
102
RTVSPost2010PropOp28
 70
     1
102
RTVSPost2010Prop29
280
     1
102
RTVSPost2010PropOp29
 70
     1
102
RTVSPost2010Prop30
280
     1
102
RTVSPost2010PropOp30
 70
     1
102
RTVSPost2010Prop31
280
     0
102
RTVSPost2010PropOp31
 70
     1
102
RTVSPost2010Prop32
280
     0
102
RTVSPost2010PropOp32
 70
     1
102
RTVSPost2010Prop33
280
     0
102
RTVSPost2010PropOp33
 70
     1
102
RTVSPost2010Prop34
280
     0
102
RTVSPost2010PropOp34
 70
     1
102
RTVSPost2010Prop35
280
     0
102
RTVSPost2010PropOp35
 70
     1
102
RTVSPost2010Prop36
280
     0
102
RTVSPost2010PropOp36
 70
     1
102
RTVSPost2010Prop37
 90
       50
102
RTVSPost2010PropOp37
 70
     1
102
RTVSPost2010Prop38
140
0.0
102
RTVSPost2010PropOp38
 70
     1
102
RTVSPost2010Prop39
140
1.0
102
RTVSPost2010PropOp39
 70
     1
102
RTVSPost2010Prop40
 90
        0
102
RTVSPost2010PropOp40
 70
     1
102
RTVSPost2010Prop41ColorIndex
 90
       18
102
RTVSPost2010Prop41ColorRGB
 90
        0
102
RTVSPost2010PropOp41
 70
     1
102
RTVSPost2010Prop42
 90
       50
102
RTVSPost2010PropOp42
 70
     1
102
RTVSPost2010Prop43
 90
        3
102
RTVSPost2010PropOp43
 70
     1
102
RTVSPost2010Prop44ColorIndex
 90
        5
102
RTVSPost2010Prop44ColorRGB
 90
      255
102
RTVSPost2010PropOp44
 70
     1
102
RTVSPost2010Prop45
280
     0
102
RTVSPost2010PropOp45
 70
     1
102
RTVSPost2010Prop46
 90
       50
102
RTVSPost2010PropOp46
 70
     1
102
RTVSPost2010Prop47
 90
       50
102
RTVSPost2010PropOp47
 70
     1
102
RTVSPost2010Prop48
 90
       50
102
RTVSPost2010PropOp48
 70
     1
102
RTVSPost2010Prop49
280
     0
102
RTVSPost2010PropOp49
 70
     1
102
RTVSPost2010Prop50
 90
       50
102
RTVSPost2010PropOp50
 70
     1
102
RTVSPost2010Prop51ColorIndex
 90
      256
102
RTVSPost2010Prop51ColorRGB
 90
-16777216
102
RTVSPost2010PropOp51
 70
     0
102
RTVSPost2010Prop52
140
1.0
102
RTVSPost2010PropOp52
 70
     0
102
RTVSPost2010Prop53
 90
        2
102
RTVSPost2010PropOp53
 70
     1
102
RTVSPost2010Prop54
  1
strokes_ogs.tif
102
RTVSPost2010PropOp54
 70
     1
102
RTVSPost2010Prop55
280
     0
102
RTVSPost2010PropOp55
 70
     1
102
RTVSPost2010Prop56
140
1.0
102
RTVSPost2010PropOp56
 70
     1
102
RTVSPost2010Prop57
140
1.0
102
RTVSPost2010PropOp57
 70
     1
  0
XRECORD
  5
1EE
102
{ACAD_REACTORS
330
1ED
102
}
330
1ED
100
AcDbXrecord
280
     1
102
RTVSPropertyOp0
 70
     1
102
RTVSPropertyOp1
 70
     1
102
RTVSPropertyOp2
 70
     1
102
RTVSPropertyOp3
 70
     1
102
RTVSPropertyOp4
 70
     1
102
RTVSPropertyOp5
 70
     1
102
RTVSPropertyOp6
 70
     1
102
RTVSPropertyOp7
 70
     1
102
RTVSPropertyOp8
 70
     1
102
RTVSPropertyOp9
 70
     1
102
RTVSPropertyOp10
 70
     1
102
RTVSPropertyOp11
 70
     1
102
RTVSPropertyOp12
 70
     1
102
RTVSPropertyOp13
 70
     1
102
RTVSPropertyOp14
 70
     1
102
RTVSPropertyOp15
 70
     1
102
RTVSPropertyOp16
 70
     1
102
RTVSPropertyOp17
 70
     1
102
RTVSPropertyOp18
 70
     1
102
RTVSPropertyOp19
 70
     1
102
RTVSPropertyOp20
 70
     1
102
RTVSPropertyOp21
 70
     1
102
RTVSPropertyOp22
 70
     1
102
RTVSPropertyOp23
 70
     1
102
RTVSPropertyOp24
 70
     1
102
RTVSPropertyOp25
 70
     1
102
RTVSPropertyOp26
 70
     1
102
RTVSPropertyOp27
 70
     1
102
RTVSPropertyOp28
 70
     1
102
RTVSPropertyOp29
 70
     1
102
RTVSPropertyOp30
 70
     1
102
RTVSPropertyOp31
 70
     1
102
RTVSPropertyOp32
 70
     1
102
RTVSPropertyOp33
 70
     1
102
RTVSPropertyOp34
 70
     1
102
RTVSPropertyOp35
 70
     1
102
RTVSPropertyOp36
 70
     1
102
RTVSPropertyOp37
 70
     1
102
RTVSPropertyOp38
 70
     1
102
RTVSPropertyOp39
 70
     1
102
RTVSPropertyOp40
 70
     1
102
RTVSPropertyOp41
 70
     1
102
RTVSPropertyOp42
 70
     1
102
RTVSPropertyOp43
 70
     1
102
RTVSPropertyOp44
 70
     1
102
RTVSPropertyOp45
 70
     1
102
RTVSPropertyOp46
 70
     1
102
RTVSPropertyOp47
 70
     1
102
RTVSPropertyOp48
 70
     1
102
RTVSPropertyOp49
 70
     1
102
RTVSPropertyOp50
 70
     1
102
RTVSPropertyOp51
 70
     0
102
RTVSPropertyOp52
 70
     0
102
RTVSPropertyOp53
 70
     1
102
RTVSPropertyOp54
 70
     1
102
RTVSPropertyOp55
 70
     1
102
RTVSPropertyOp56
 70
     1
102
RTVSPropertyOp57
 70
     1
102
RTVSPost2010Prop28
280
     0
102
RTVSPost2010PropOp28
 70
     1
102
RTVSPost2010Prop29
280
     1
102
RTVSPost2010PropOp29
 70
     1
102
RTVSPost2010Prop30
280
     1
102
RTVSPost2010PropOp30
 70
     1
102
RTVSPost2010Prop31
280
     0
102
RTVSPost2010PropOp31
 70
     1
102
RTVSPost2010Prop32
280
     0
102
RTVSPost2010PropOp32
 70
     1
102
RTVSPost2010Prop33
280
     0
102
RTVSPost2010PropOp33
 70
     1
102
RTVSPost2010Prop34
280
     0
102
RTVSPost2010PropOp34
 70
     1
102
RTVSPost2010Prop35
280
     0
102
RTVSPost2010PropOp35
 70
     1
102
RTVSPost2010Prop36
280
     0
102
RTVSPost2010PropOp36
 70
     1
102
RTVSPost2010Prop37
 90
       50
102
RTVSPost2010PropOp37
 70
     1
102
RTVSPost2010Prop38
140
0.0
102
RTVSPost2010PropOp38
 70
     1
102
RTVSPost2010Prop39
140
1.0
102
RTVSPost2010PropOp39
 70
     1
102
RTVSPost2010Prop40
 90
        0
102
RTVSPost2010PropOp40
 70
     1
102
RTVSPost2010Prop41ColorIndex
 90
       18
102
RTVSPost2010Prop41ColorRGB
 90
        0
102
RTVSPost2010PropOp41
 70
     1
102
RTVSPost2010Prop42
 90
       50
102
RTVSPost2010PropOp42
 70
     1
102
RTVSPost2010Prop43
 90
        3
102
RTVSPost2010PropOp43
 70
     1
102
RTVSPost2010Prop44ColorIndex
 90
        5
102
RTVSPost2010Prop44ColorRGB
 90
      255
102
RTVSPost2010PropOp44
 70
     1
102
RTVSPost2010Prop45
280
     0
102
RTVSPost2010PropOp45
 70
     1
102
RTVSPost2010Prop46
 90
       50
102
RTVSPost2010PropOp46
 70
     1
102
RTVSPost2010Prop47
 90
       50
102
RTVSPost2010PropOp47
 70
     1
102
RTVSPost2010Prop48
 90
       50
102
RTVSPost2010PropOp48
 70
     1
102
RTVSPost2010Prop49
280
     0
102
RTVSPost2010PropOp49
 70
     1
102
RTVSPost2010Prop50
 90
       50
102
RTVSPost2010PropOp50
 70
     1
102
RTVSPost2010Prop51ColorIndex
 90
      256
102
RTVSPost2010Prop51ColorRGB
 90
-16777216
102
RTVSPost2010PropOp51
 70
     0
102
RTVSPost2010Prop52
140
1.0
102
RTVSPost2010PropOp52
 70
     0
102
RTVSPost2010Prop53
 90
        2
102
RTVSPost2010PropOp53
 70
     1
102
RTVSPost2010Prop54
  1
strokes_ogs.tif
102
RTVSPost2010PropOp54
 70
     1
102
RTVSPost2010Prop55
280
     0
102
RTVSPost2010PropOp55
 70
     1
102
RTVSPost2010Prop56
140
1.0
102
RTVSPost2010PropOp56
 70
     1
102
RTVSPost2010Prop57
140
1.0
102
RTVSPost2010PropOp57
 70
     1
  0
XRECORD
  5
1F4
102
{ACAD_REACTORS
330
1F3
102
}
330
1F3
100
AcDbXrecord
280
     1
102
RTVSPropertyOp0
 70
     1
102
RTVSPropertyOp1
 70
     1
102
RTVSPropertyOp2
 70
     1
102
RTVSPropertyOp3
 70
     1
102
RTVSPropertyOp4
 70
     1
102
RTVSPropertyOp5
 70
     1
102
RTVSPropertyOp6
 70
     1
102
RTVSPropertyOp7
 70
     1
102
RTVSPropertyOp8
 70
     1
102
RTVSPropertyOp9
 70
     1
102
RTVSPropertyOp10
 70
     1
102
RTVSPropertyOp11
 70
     1
102
RTVSPropertyOp12
 70
     1
102
RTVSPropertyOp13
 70
     1
102
RTVSPropertyOp14
 70
     1
102
RTVSPropertyOp15
 70
     1
102
RTVSPropertyOp16
 70
     1
102
RTVSPropertyOp17
 70
     1
102
RTVSPropertyOp18
 70
     1
102
RTVSPropertyOp19
 70
     1
102
RTVSPropertyOp20
 70
     1
102
RTVSPropertyOp21
 70
     1
102
RTVSPropertyOp22
 70
     1
102
RTVSPropertyOp23
 70
     1
102
RTVSPropertyOp24
 70
     1
102
RTVSPropertyOp25
 70
     1
102
RTVSPropertyOp26
 70
     1
102
RTVSPropertyOp27
 70
     1
102
RTVSPropertyOp28
 70
     1
102
RTVSPropertyOp29
 70
     1
102
RTVSPropertyOp30
 70
     1
102
RTVSPropertyOp31
 70
     1
102
RTVSPropertyOp32
 70
     1
102
RTVSPropertyOp33
 70
     1
102
RTVSPropertyOp34
 70
     1
102
RTVSPropertyOp35
 70
     1
102
RTVSPropertyOp36
 70
     1
102
RTVSPropertyOp37
 70
     1
102
RTVSPropertyOp38
 70
     1
102
RTVSPropertyOp39
 70
     1
102
RTVSPropertyOp40
 70
     1
102
RTVSPropertyOp41
 70
     1
102
RTVSPropertyOp42
 70
     1
102
RTVSPropertyOp43
 70
     1
102
RTVSPropertyOp44
 70
     1
102
RTVSPropertyOp45
 70
     1
102
RTVSPropertyOp46
 70
     1
102
RTVSPropertyOp47
 70
     1
102
RTVSPropertyOp48
 70
     1
102
RTVSPropertyOp49
 70
     1
102
RTVSPropertyOp50
 70
     1
102
RTVSPropertyOp51
 70
     0
102
RTVSPropertyOp52
 70
     0
102
RTVSPropertyOp53
 70
     1
102
RTVSPropertyOp54
 70
     1
102
RTVSPropertyOp55
 70
     1
102
RTVSPropertyOp56
 70
     1
102
RTVSPropertyOp57
 70
     1
102
RTVSPost2010Prop28
280
     0
102
RTVSPost2010PropOp28
 70
     1
102
RTVSPost2010Prop29
280
     1
102
RTVSPost2010PropOp29
 70
     1
102
RTVSPost2010Prop30
280
     1
102
RTVSPost2010PropOp30
 70
     1
102
RTVSPost2010Prop31
280
     0
102
RTVSPost2010PropOp31
 70
     1
102
RTVSPost2010Prop32
280
     0
102
RTVSPost2010PropOp32
 70
     1
102
RTVSPost2010Prop33
280
     0
102
RTVSPost2010PropOp33
 70
     1
102
RTVSPost2010Prop34
280
     0
102
RTVSPost2010PropOp34
 70
     1
102
RTVSPost2010Prop35
280
     0
102
RTVSPost2010PropOp35
 70
     1
102
RTVSPost2010Prop36
280
     0
102
RTVSPost2010PropOp36
 70
     1
102
RTVSPost2010Prop37
 90
       50
102
RTVSPost2010PropOp37
 70
     1
102
RTVSPost2010Prop38
140
0.0
102
RTVSPost2010PropOp38
 70
     1
102
RTVSPost2010Prop39
140
1.0
102
RTVSPost2010PropOp39
 70
     1
102
RTVSPost2010Prop40
 90
        0
102
RTVSPost2010PropOp40
 70
     1
102
RTVSPost2010Prop41ColorIndex
 90
       18
102
RTVSPost2010Prop41ColorRGB
 90
        0
102
RTVSPost2010PropOp41
 70
     1
102
RTVSPost2010Prop42
 90
       50
102
RTVSPost2010PropOp42
 70
     1
102
RTVSPost2010Prop43
 90
        3
102
RTVSPost2010PropOp43
 70
     1
102
RTVSPost2010Prop44ColorIndex
 90
        5
102
RTVSPost2010Prop44ColorRGB
 90
      255
102
RTVSPost2010PropOp44
 70
     1
102
RTVSPost2010Prop45
280
     0
102
RTVSPost2010PropOp45
 70
     1
102
RTVSPost2010Prop46
 90
       50
102
RTVSPost2010PropOp46
 70
     1
102
RTVSPost2010Prop47
 90
       50
102
RTVSPost2010PropOp47
 70
     1
102
RTVSPost2010Prop48
 90
       50
102
RTVSPost2010PropOp48
 70
     1
102
RTVSPost2010Prop49
280
     0
102
RTVSPost2010PropOp49
 70
     1
102
RTVSPost2010Prop50
 90
       50
102
RTVSPost2010PropOp50
 70
     1
102
RTVSPost2010Prop51ColorIndex
 90
      256
102
RTVSPost2010Prop51ColorRGB
 90
-16777216
102
RTVSPost2010PropOp51
 70
     0
102
RTVSPost2010Prop52
140
1.0
102
RTVSPost2010PropOp52
 70
     0
102
RTVSPost2010Prop53
 90
        2
102
RTVSPost2010PropOp53
 70
     1
102
RTVSPost2010Prop54
  1
strokes_ogs.tif
102
RTVSPost2010PropOp54
 70
     1
102
RTVSPost2010Prop55
280
     0
102
RTVSPost2010PropOp55
 70
     1
102
RTVSPost2010Prop56
140
1.0
102
RTVSPost2010PropOp56
 70
     1
102
RTVSPost2010Prop57
140
1.0
102
RTVSPost2010PropOp57
 70
     1
  0
XRECORD
  5
208
102
{ACAD_REACTORS
330
207
102
}
330
207
100
AcDbXrecord
280
     1
102
RTVSPropertyOp0
 70
     0
102
RTVSPropertyOp1
 70
     0
102
RTVSPropertyOp2
 70
     0
102
RTVSPropertyOp3
 70
     0
102
RTVSPropertyOp4
 70
     0
102
RTVSPropertyOp5
 70
     0
102
RTVSPropertyOp6
 70
     0
102
RTVSPropertyOp7
 70
     0
102
RTVSPropertyOp8
 70
     0
102
RTVSPropertyOp9
 70
     0
102
RTVSPropertyOp10
 70
     0
102
RTVSPropertyOp11
 70
     0
102
RTVSPropertyOp12
 70
     0
102
RTVSPropertyOp13
 70
     0
102
RTVSPropertyOp14
 70
     2
102
RTVSPropertyOp15
 70
     0
102
RTVSPropertyOp16
 70
     0
102
RTVSPropertyOp17
 70
     0
102
RTVSPropertyOp18
 70
     0
102
RTVSPropertyOp19
 70
     0
102
RTVSPropertyOp20
 70
     0
102
RTVSPropertyOp21
 70
     0
102
RTVSPropertyOp22
 70
     0
102
RTVSPropertyOp23
 70
     0
102
RTVSPropertyOp24
 70
     0
102
RTVSPropertyOp25
 70
     0
102
RTVSPropertyOp26
 70
     0
102
RTVSPropertyOp27
 70
     0
102
RTVSPropertyOp28
 70
     0
102
RTVSPropertyOp29
 70
     0
102
RTVSPropertyOp30
 70
     0
102
RTVSPropertyOp31
 70
     0
102
RTVSPropertyOp32
 70
     0
102
RTVSPropertyOp33
 70
     0
102
RTVSPropertyOp34
 70
     0
102
RTVSPropertyOp35
 70
     0
102
RTVSPropertyOp36
 70
     0
102
RTVSPropertyOp37
 70
     0
102
RTVSPropertyOp38
 70
     0
102
RTVSPropertyOp39
 70
     0
102
RTVSPropertyOp40
 70
     0
102
RTVSPropertyOp41
 70
     0
102
RTVSPropertyOp42
 70
     0
102
RTVSPropertyOp43
 70
     0
102
RTVSPropertyOp44
 70
     0
102
RTVSPropertyOp45
 70
     0
102
RTVSPropertyOp46
 70
     0
102
RTVSPropertyOp47
 70
     0
102
RTVSPropertyOp48
 70
     0
102
RTVSPropertyOp49
 70
     0
102
RTVSPropertyOp50
 70
     0
102
RTVSPropertyOp51
 70
     0
102
RTVSPropertyOp52
 70
     0
102
RTVSPropertyOp53
 70
     0
102
RTVSPropertyOp54
 70
     0
102
RTVSPropertyOp55
 70
     0
102
RTVSPropertyOp56
 70
     0
102
RTVSPropertyOp57
 70
     0
102
RTVSPost2010Prop28
280
     0
102
RTVSPost2010PropOp28
 70
     0
102
RTVSPost2010Prop29
280
     1
102
RTVSPost2010PropOp29
 70
     0
102
RTVSPost2010Prop30
280
     1
102
RTVSPost2010PropOp30
 70
     0
102
RTVSPost2010Prop31
280
     0
102
RTVSPost2010PropOp31
 70
     0
102
RTVSPost2010Prop32
280
     0
102
RTVSPost2010PropOp32
 70
     0
102
RTVSPost2010Prop33
280
     0
102
RTVSPost2010PropOp33
 70
     0
102
RTVSPost2010Prop34
280
     0
102
RTVSPost2010PropOp34
 70
     0
102
RTVSPost2010Prop35
280
     0
102
RTVSPost2010PropOp35
 70
     0
102
RTVSPost2010Prop36
280
     0
102
RTVSPost2010PropOp36
 70
     0
102
RTVSPost2010Prop37
 90
       50
102
RTVSPost2010PropOp37
 70
     0
102
RTVSPost2010Prop38
140
0.0
102
RTVSPost2010PropOp38
 70
     0
102
RTVSPost2010Prop39
140
1.0
102
RTVSPost2010PropOp39
 70
     0
102
RTVSPost2010Prop40
 90
        0
102
RTVSPost2010PropOp40
 70
     0
102
RTVSPost2010Prop41ColorIndex
 90
       18
102
RTVSPost2010Prop41ColorRGB
 90
        0
102
RTVSPost2010PropOp41
 70
     0
102
RTVSPost2010Prop42
 90
       50
102
RTVSPost2010PropOp42
 70
     0
102
RTVSPost2010Prop43
 90
        3
102
RTVSPost2010PropOp43
 70
     0
102
RTVSPost2010Prop44ColorIndex
 90
        5
102
RTVSPost2010Prop44ColorRGB
 90
      255
102
RTVSPost2010PropOp44
 70
     0
102
RTVSPost2010Prop45
280
     0
102
RTVSPost2010PropOp45
 70
     0
102
RTVSPost2010Prop46
 90
       50
102
RTVSPost2010PropOp46
 70
     0
102
RTVSPost2010Prop47
 90
       50
102
RTVSPost2010PropOp47
 70
     0
102
RTVSPost2010Prop48
 90
       50
102
RTVSPost2010PropOp48
 70
     0
102
RTVSPost2010Prop49
280
     0
102
RTVSPost2010PropOp49
 70
     0
102
RTVSPost2010Prop50
 90
       50
102
RTVSPost2010PropOp50
 70
     0
102
RTVSPost2010Prop51ColorIndex
 90
      256
102
RTVSPost2010Prop51ColorRGB
 90
-16777216
102
RTVSPost2010PropOp51
 70
     0
102
RTVSPost2010Prop52
140
1.0
102
RTVSPost2010PropOp52
 70
     0
102
RTVSPost2010Prop53
 90
        2
102
RTVSPost2010PropOp53
 70
     0
102
RTVSPost2010Prop54
  1
strokes_ogs.tif
102
RTVSPost2010PropOp54
 70
     0
102
RTVSPost2010Prop55
280
     0
102
RTVSPost2010PropOp55
 70
     0
102
RTVSPost2010Prop56
140
1.0
102
RTVSPost2010PropOp56
 70
     0
102
RTVSPost2010Prop57
140
1.0
102
RTVSPost2010PropOp57
 70
     0
  0
XRECORD
  5
202
102
{ACAD_REACTORS
330
201
102
}
330
201
100
AcDbXrecord
280
     1
102
RTVSPropertyOp0
 70
     1
102
RTVSPropertyOp1
 70
     1
102
RTVSPropertyOp2
 70
     1
102
RTVSPropertyOp3
 70
     1
102
RTVSPropertyOp4
 70
     1
102
RTVSPropertyOp5
 70
     1
102
RTVSPropertyOp6
 70
     1
102
RTVSPropertyOp7
 70
     1
102
RTVSPropertyOp8
 70
     1
102
RTVSPropertyOp9
 70
     1
102
RTVSPropertyOp10
 70
     1
102
RTVSPropertyOp11
 70
     1
102
RTVSPropertyOp12
 70
     1
102
RTVSPropertyOp13
 70
     1
102
RTVSPropertyOp14
 70
     1
102
RTVSPropertyOp15
 70
     1
102
RTVSPropertyOp16
 70
     1
102
RTVSPropertyOp17
 70
     1
102
RTVSPropertyOp18
 70
     1
102
RTVSPropertyOp19
 70
     1
102
RTVSPropertyOp20
 70
     1
102
RTVSPropertyOp21
 70
     1
102
RTVSPropertyOp22
 70
     1
102
RTVSPropertyOp23
 70
     1
102
RTVSPropertyOp24
 70
     1
102
RTVSPropertyOp25
 70
     1
102
RTVSPropertyOp26
 70
     1
102
RTVSPropertyOp27
 70
     1
102
RTVSPropertyOp28
 70
     1
102
RTVSPropertyOp29
 70
     1
102
RTVSPropertyOp30
 70
     1
102
RTVSPropertyOp31
 70
     1
102
RTVSPropertyOp32
 70
     1
102
RTVSPropertyOp33
 70
     1
102
RTVSPropertyOp34
 70
     1
102
RTVSPropertyOp35
 70
     1
102
RTVSPropertyOp36
 70
     1
102
RTVSPropertyOp37
 70
     1
102
RTVSPropertyOp38
 70
     1
102
RTVSPropertyOp39
 70
     1
102
RTVSPropertyOp40
 70
     1
102
RTVSPropertyOp41
 70
     1
102
RTVSPropertyOp42
 70
     1
102
RTVSPropertyOp43
 70
     1
102
RTVSPropertyOp44
 70
     1
102
RTVSPropertyOp45
 70
     1
102
RTVSPropertyOp46
 70
     1
102
RTVSPropertyOp47
 70
     1
102
RTVSPropertyOp48
 70
     1
102
RTVSPropertyOp49
 70
     1
102
RTVSPropertyOp50
 70
     1
102
RTVSPropertyOp51
 70
     0
102
RTVSPropertyOp52
 70
     0
102
RTVSPropertyOp53
 70
     1
102
RTVSPropertyOp54
 70
     1
102
RTVSPropertyOp55
 70
     1
102
RTVSPropertyOp56
 70
     1
102
RTVSPropertyOp57
 70
     1
102
RTVSPost2010Prop28
280
     0
102
RTVSPost2010PropOp28
 70
     1
102
RTVSPost2010Prop29
280
     1
102
RTVSPost2010PropOp29
 70
     1
102
RTVSPost2010Prop30
280
     1
102
RTVSPost2010PropOp30
 70
     1
102
RTVSPost2010Prop31
280
     0
102
RTVSPost2010PropOp31
 70
     1
102
RTVSPost2010Prop32
280
     0
102
RTVSPost2010PropOp32
 70
     1
102
RTVSPost2010Prop33
280
     0
102
RTVSPost2010PropOp33
 70
     1
102
RTVSPost2010Prop34
280
     0
102
RTVSPost2010PropOp34
 70
     1
102
RTVSPost2010Prop35
280
     0
102
RTVSPost2010PropOp35
 70
     1
102
RTVSPost2010Prop36
280
     0
102
RTVSPost2010PropOp36
 70
     1
102
RTVSPost2010Prop37
 90
       50
102
RTVSPost2010PropOp37
 70
     1
102
RTVSPost2010Prop38
140
0.0
102
RTVSPost2010PropOp38
 70
     1
102
RTVSPost2010Prop39
140
1.0
102
RTVSPost2010PropOp39
 70
     1
102
RTVSPost2010Prop40
 90
        0
102
RTVSPost2010PropOp40
 70
     1
102
RTVSPost2010Prop41ColorIndex
 90
       18
102
RTVSPost2010Prop41ColorRGB
 90
        0
102
RTVSPost2010PropOp41
 70
     1
102
RTVSPost2010Prop42
 90
       50
102
RTVSPost2010PropOp42
 70
     1
102
RTVSPost2010Prop43
 90
        3
102
RTVSPost2010PropOp43
 70
     1
102
RTVSPost2010Prop44ColorIndex
 90
        5
102
RTVSPost2010Prop44ColorRGB
 90
      255
102
RTVSPost2010PropOp44
 70
     1
102
RTVSPost2010Prop45
280
     0
102
RTVSPost2010PropOp45
 70
     1
102
RTVSPost2010Prop46
 90
       50
102
RTVSPost2010PropOp46
 70
     1
102
RTVSPost2010Prop47
 90
       50
102
RTVSPost2010PropOp47
 70
     1
102
RTVSPost2010Prop48
 90
       50
102
RTVSPost2010PropOp48
 70
     1
102
RTVSPost2010Prop49
280
     0
102
RTVSPost2010PropOp49
 70
     1
102
RTVSPost2010Prop50
 90
       50
102
RTVSPost2010PropOp50
 70
     1
102
RTVSPost2010Prop51ColorIndex
 90
      256
102
RTVSPost2010Prop51ColorRGB
 90
-16777216
102
RTVSPost2010PropOp51
 70
     0
102
RTVSPost2010Prop52
140
1.0
102
RTVSPost2010PropOp52
 70
     0
102
RTVSPost2010Prop53
 90
        2
102
RTVSPost2010PropOp53
 70
     1
102
RTVSPost2010Prop54
  1
strokes_ogs.tif
102
RTVSPost2010PropOp54
 70
     1
102
RTVSPost2010Prop55
280
     0
102
RTVSPost2010PropOp55
 70
     1
102
RTVSPost2010Prop56
140
1.0
102
RTVSPost2010PropOp56
 70
     1
102
RTVSPost2010Prop57
140
1.0
102
RTVSPost2010PropOp57
 70
     1
  0
XRECORD
  5
20A
102
{ACAD_REACTORS
330
209
102
}
330
209
100
AcDbXrecord
280
     1
102
RTVSPropertyOp0
 70
     0
102
RTVSPropertyOp1
 70
     0
102
RTVSPropertyOp2
 70
     0
102
RTVSPropertyOp3
 70
     0
102
RTVSPropertyOp4
 70
     0
102
RTVSPropertyOp5
 70
     0
102
RTVSPropertyOp6
 70
     0
102
RTVSPropertyOp7
 70
     0
102
RTVSPropertyOp8
 70
     0
102
RTVSPropertyOp9
 70
     0
102
RTVSPropertyOp10
 70
     0
102
RTVSPropertyOp11
 70
     0
102
RTVSPropertyOp12
 70
     0
102
RTVSPropertyOp13
 70
     0
102
RTVSPropertyOp14
 70
     2
102
RTVSPropertyOp15
 70
     0
102
RTVSPropertyOp16
 70
     0
102
RTVSPropertyOp17
 70
     0
102
RTVSPropertyOp18
 70
     0
102
RTVSPropertyOp19
 70
     0
102
RTVSPropertyOp20
 70
     0
102
RTVSPropertyOp21
 70
     0
102
RTVSPropertyOp22
 70
     0
102
RTVSPropertyOp23
 70
     0
102
RTVSPropertyOp24
 70
     0
102
RTVSPropertyOp25
 70
     0
102
RTVSPropertyOp26
 70
     0
102
RTVSPropertyOp27
 70
     0
102
RTVSPropertyOp28
 70
     0
102
RTVSPropertyOp29
 70
     0
102
RTVSPropertyOp30
 70
     0
102
RTVSPropertyOp31
 70
     0
102
RTVSPropertyOp32
 70
     0
102
RTVSPropertyOp33
 70
     0
102
RTVSPropertyOp34
 70
     0
102
RTVSPropertyOp35
 70
     0
102
RTVSPropertyOp36
 70
     0
102
RTVSPropertyOp37
 70
     0
102
RTVSPropertyOp38
 70
     0
102
RTVSPropertyOp39
 70
     0
102
RTVSPropertyOp40
 70
     0
102
RTVSPropertyOp41
 70
     0
102
RTVSPropertyOp42
 70
     0
102
RTVSPropertyOp43
 70
     0
102
RTVSPropertyOp44
 70
     0
102
RTVSPropertyOp45
 70
     0
102
RTVSPropertyOp46
 70
     0
102
RTVSPropertyOp47
 70
     0
102
RTVSPropertyOp48
 70
     0
102
RTVSPropertyOp49
 70
     0
102
RTVSPropertyOp50
 70
     0
102
RTVSPropertyOp51
 70
     0
102
RTVSPropertyOp52
 70
     0
102
RTVSPropertyOp53
 70
     0
102
RTVSPropertyOp54
 70
     0
102
RTVSPropertyOp55
 70
     0
102
RTVSPropertyOp56
 70
     0
102
RTVSPropertyOp57
 70
     0
102
RTVSPost2010Prop28
280
     0
102
RTVSPost2010PropOp28
 70
     0
102
RTVSPost2010Prop29
280
     1
102
RTVSPost2010PropOp29
 70
     0
102
RTVSPost2010Prop30
280
     1
102
RTVSPost2010PropOp30
 70
     0
102
RTVSPost2010Prop31
280
     0
102
RTVSPost2010PropOp31
 70
     0
102
RTVSPost2010Prop32
280
     0
102
RTVSPost2010PropOp32
 70
     0
102
RTVSPost2010Prop33
280
     0
102
RTVSPost2010PropOp33
 70
     0
102
RTVSPost2010Prop34
280
     0
102
RTVSPost2010PropOp34
 70
     0
102
RTVSPost2010Prop35
280
     0
102
RTVSPost2010PropOp35
 70
     0
102
RTVSPost2010Prop36
280
     0
102
RTVSPost2010PropOp36
 70
     0
102
RTVSPost2010Prop37
 90
       50
102
RTVSPost2010PropOp37
 70
     0
102
RTVSPost2010Prop38
140
0.0
102
RTVSPost2010PropOp38
 70
     0
102
RTVSPost2010Prop39
140
1.0
102
RTVSPost2010PropOp39
 70
     0
102
RTVSPost2010Prop40
 90
        0
102
RTVSPost2010PropOp40
 70
     0
102
RTVSPost2010Prop41ColorIndex
 90
       18
102
RTVSPost2010Prop41ColorRGB
 90
        0
102
RTVSPost2010PropOp41
 70
     0
102
RTVSPost2010Prop42
 90
       50
102
RTVSPost2010PropOp42
 70
     0
102
RTVSPost2010Prop43
 90
        3
102
RTVSPost2010PropOp43
 70
     0
102
RTVSPost2010Prop44ColorIndex
 90
        5
102
RTVSPost2010Prop44ColorRGB
 90
      255
102
RTVSPost2010PropOp44
 70
     0
102
RTVSPost2010Prop45
280
     0
102
RTVSPost2010PropOp45
 70
     0
102
RTVSPost2010Prop46
 90
       50
102
RTVSPost2010PropOp46
 70
     0
102
RTVSPost2010Prop47
 90
       50
102
RTVSPost2010PropOp47
 70
     0
102
RTVSPost2010Prop48
 90
       50
102
RTVSPost2010PropOp48
 70
     0
102
RTVSPost2010Prop49
280
     0
102
RTVSPost2010PropOp49
 70
     0
102
RTVSPost2010Prop50
 90
       50
102
RTVSPost2010PropOp50
 70
     0
102
RTVSPost2010Prop51ColorIndex
 90
      256
102
RTVSPost2010Prop51ColorRGB
 90
-16777216
102
RTVSPost2010PropOp51
 70
     0
102
RTVSPost2010Prop52
140
1.0
102
RTVSPost2010PropOp52
 70
     0
102
RTVSPost2010Prop53
 90
        2
102
RTVSPost2010PropOp53
 70
     0
102
RTVSPost2010Prop54
  1
strokes_ogs.tif
102
RTVSPost2010PropOp54
 70
     0
102
RTVSPost2010Prop55
280
     0
102
RTVSPost2010PropOp55
 70
     0
102
RTVSPost2010Prop56
140
1.0
102
RTVSPost2010PropOp56
 70
     0
102
RTVSPost2010Prop57
140
1.0
102
RTVSPost2010PropOp57
 70
     0
  0
XRECORD
  5
1F8
102
{ACAD_REACTORS
330
1F7
102
}
330
1F7
100
AcDbXrecord
280
     1
102
RTVSPropertyOp0
 70
     1
102
RTVSPropertyOp1
 70
     1
102
RTVSPropertyOp2
 70
     1
102
RTVSPropertyOp3
 70
     1
102
RTVSPropertyOp4
 70
     1
102
RTVSPropertyOp5
 70
     1
102
RTVSPropertyOp6
 70
     1
102
RTVSPropertyOp7
 70
     1
102
RTVSPropertyOp8
 70
     1
102
RTVSPropertyOp9
 70
     1
102
RTVSPropertyOp10
 70
     1
102
RTVSPropertyOp11
 70
     1
102
RTVSPropertyOp12
 70
     1
102
RTVSPropertyOp13
 70
     1
102
RTVSPropertyOp14
 70
     1
102
RTVSPropertyOp15
 70
     1
102
RTVSPropertyOp16
 70
     1
102
RTVSPropertyOp17
 70
     1
102
RTVSPropertyOp18
 70
     1
102
RTVSPropertyOp19
 70
     1
102
RTVSPropertyOp20
 70
     1
102
RTVSPropertyOp21
 70
     1
102
RTVSPropertyOp22
 70
     1
102
RTVSPropertyOp23
 70
     1
102
RTVSPropertyOp24
 70
     1
102
RTVSPropertyOp25
 70
     1
102
RTVSPropertyOp26
 70
     1
102
RTVSPropertyOp27
 70
     1
102
RTVSPropertyOp28
 70
     1
102
RTVSPropertyOp29
 70
     1
102
RTVSPropertyOp30
 70
     1
102
RTVSPropertyOp31
 70
     1
102
RTVSPropertyOp32
 70
     1
102
RTVSPropertyOp33
 70
     1
102
RTVSPropertyOp34
 70
     1
102
RTVSPropertyOp35
 70
     1
102
RTVSPropertyOp36
 70
     1
102
RTVSPropertyOp37
 70
     1
102
RTVSPropertyOp38
 70
     1
102
RTVSPropertyOp39
 70
     1
102
RTVSPropertyOp40
 70
     1
102
RTVSPropertyOp41
 70
     1
102
RTVSPropertyOp42
 70
     1
102
RTVSPropertyOp43
 70
     1
102
RTVSPropertyOp44
 70
     1
102
RTVSPropertyOp45
 70
     1
102
RTVSPropertyOp46
 70
     1
102
RTVSPropertyOp47
 70
     1
102
RTVSPropertyOp48
 70
     1
102
RTVSPropertyOp49
 70
     1
102
RTVSPropertyOp50
 70
     1
102
RTVSPropertyOp51
 70
     0
102
RTVSPropertyOp52
 70
     0
102
RTVSPropertyOp53
 70
     1
102
RTVSPropertyOp54
 70
     1
102
RTVSPropertyOp55
 70
     1
102
RTVSPropertyOp56
 70
     1
102
RTVSPropertyOp57
 70
     1
102
RTVSPost2010Prop28
280
     0
102
RTVSPost2010PropOp28
 70
     1
102
RTVSPost2010Prop29
280
     1
102
RTVSPost2010PropOp29
 70
     1
102
RTVSPost2010Prop30
280
     1
102
RTVSPost2010PropOp30
 70
     1
102
RTVSPost2010Prop31
280
     0
102
RTVSPost2010PropOp31
 70
     1
102
RTVSPost2010Prop32
280
     0
102
RTVSPost2010PropOp32
 70
     1
102
RTVSPost2010Prop33
280
     0
102
RTVSPost2010PropOp33
 70
     1
102
RTVSPost2010Prop34
280
     0
102
RTVSPost2010PropOp34
 70
     1
102
RTVSPost2010Prop35
280
     0
102
RTVSPost2010PropOp35
 70
     1
102
RTVSPost2010Prop36
280
     0
102
RTVSPost2010PropOp36
 70
     1
102
RTVSPost2010Prop37
 90
       50
102
RTVSPost2010PropOp37
 70
     1
102
RTVSPost2010Prop38
140
0.0
102
RTVSPost2010PropOp38
 70
     1
102
RTVSPost2010Prop39
140
1.0
102
RTVSPost2010PropOp39
 70
     1
102
RTVSPost2010Prop40
 90
        0
102
RTVSPost2010PropOp40
 70
     1
102
RTVSPost2010Prop41ColorIndex
 90
       18
102
RTVSPost2010Prop41ColorRGB
 90
        0
102
RTVSPost2010PropOp41
 70
     1
102
RTVSPost2010Prop42
 90
       50
102
RTVSPost2010PropOp42
 70
     1
102
RTVSPost2010Prop43
 90
        3
102
RTVSPost2010PropOp43
 70
     1
102
RTVSPost2010Prop44ColorIndex
 90
        5
102
RTVSPost2010Prop44ColorRGB
 90
      255
102
RTVSPost2010PropOp44
 70
     1
102
RTVSPost2010Prop45
280
     0
102
RTVSPost2010PropOp45
 70
     1
102
RTVSPost2010Prop46
 90
       50
102
RTVSPost2010PropOp46
 70
     1
102
RTVSPost2010Prop47
 90
       50
102
RTVSPost2010PropOp47
 70
     1
102
RTVSPost2010Prop48
 90
       50
102
RTVSPost2010PropOp48
 70
     1
102
RTVSPost2010Prop49
280
     0
102
RTVSPost2010PropOp49
 70
     1
102
RTVSPost2010Prop50
 90
       50
102
RTVSPost2010PropOp50
 70
     1
102
RTVSPost2010Prop51ColorIndex
 90
      256
102
RTVSPost2010Prop51ColorRGB
 90
-16777216
102
RTVSPost2010PropOp51
 70
     0
102
RTVSPost2010Prop52
140
1.0
102
RTVSPost2010PropOp52
 70
     0
102
RTVSPost2010Prop53
 90
        2
102
RTVSPost2010PropOp53
 70
     1
102
RTVSPost2010Prop54
  1
strokes_ogs.tif
102
RTVSPost2010PropOp54
 70
     1
102
RTVSPost2010Prop55
280
     0
102
RTVSPost2010PropOp55
 70
     1
102
RTVSPost2010Prop56
140
1.0
102
RTVSPost2010PropOp56
 70
     1
102
RTVSPost2010Prop57
140
1.0
102
RTVSPost2010PropOp57
 70
     1
  0
XRECORD
  5
216
102
{ACAD_REACTORS
330
215
102
}
330
215
100
AcDbXrecord
280
     1
102
RTVSPropertyOp0
 70
     1
102
RTVSPropertyOp1
 70
     1
102
RTVSPropertyOp2
 70
     1
102
RTVSPropertyOp3
 70
     1
102
RTVSPropertyOp4
 70
     1
102
RTVSPropertyOp5
 70
     1
102
RTVSPropertyOp6
 70
     1
102
RTVSPropertyOp7
 70
     1
102
RTVSPropertyOp8
 70
     1
102
RTVSPropertyOp9
 70
     1
102
RTVSPropertyOp10
 70
     1
102
RTVSPropertyOp11
 70
     1
102
RTVSPropertyOp12
 70
     1
102
RTVSPropertyOp13
 70
     1
102
RTVSPropertyOp14
 70
     1
102
RTVSPropertyOp15
 70
     1
102
RTVSPropertyOp16
 70
     1
102
RTVSPropertyOp17
 70
     1
102
RTVSPropertyOp18
 70
     1
102
RTVSPropertyOp19
 70
     1
102
RTVSPropertyOp20
 70
     1
102
RTVSPropertyOp21
 70
     1
102
RTVSPropertyOp22
 70
     1
102
RTVSPropertyOp23
 70
     1
102
RTVSPropertyOp24
 70
     1
102
RTVSPropertyOp25
 70
     1
102
RTVSPropertyOp26
 70
     1
102
RTVSPropertyOp27
 70
     1
102
RTVSPropertyOp28
 70
     1
102
RTVSPropertyOp29
 70
     1
102
RTVSPropertyOp30
 70
     1
102
RTVSPropertyOp31
 70
     1
102
RTVSPropertyOp32
 70
     1
102
RTVSPropertyOp33
 70
     1
102
RTVSPropertyOp34
 70
     1
102
RTVSPropertyOp35
 70
     1
102
RTVSPropertyOp36
 70
     1
102
RTVSPropertyOp37
 70
     1
102
RTVSPropertyOp38
 70
     1
102
RTVSPropertyOp39
 70
     1
102
RTVSPropertyOp40
 70
     1
102
RTVSPropertyOp41
 70
     1
102
RTVSPropertyOp42
 70
     1
102
RTVSPropertyOp43
 70
     1
102
RTVSPropertyOp44
 70
     1
102
RTVSPropertyOp45
 70
     1
102
RTVSPropertyOp46
 70
     1
102
RTVSPropertyOp47
 70
     1
102
RTVSPropertyOp48
 70
     1
102
RTVSPropertyOp49
 70
     1
102
RTVSPropertyOp50
 70
     1
102
RTVSPropertyOp51
 70
     0
102
RTVSPropertyOp52
 70
     0
102
RTVSPropertyOp53
 70
     1
102
RTVSPropertyOp54
 70
     1
102
RTVSPropertyOp55
 70
     1
102
RTVSPropertyOp56
 70
     1
102
RTVSPropertyOp57
 70
     1
102
RTVSPost2010Prop28
280
     0
102
RTVSPost2010PropOp28
 70
     1
102
RTVSPost2010Prop29
280
     1
102
RTVSPost2010PropOp29
 70
     1
102
RTVSPost2010Prop30
280
     1
102
RTVSPost2010PropOp30
 70
     1
102
RTVSPost2010Prop31
280
     0
102
RTVSPost2010PropOp31
 70
     1
102
RTVSPost2010Prop32
280
     0
102
RTVSPost2010PropOp32
 70
     1
102
RTVSPost2010Prop33
280
     0
102
RTVSPost2010PropOp33
 70
     1
102
RTVSPost2010Prop34
280
     0
102
RTVSPost2010PropOp34
 70
     1
102
RTVSPost2010Prop35
280
     0
102
RTVSPost2010PropOp35
 70
     1
102
RTVSPost2010Prop36
280
     0
102
RTVSPost2010PropOp36
 70
     1
102
RTVSPost2010Prop37
 90
       50
102
RTVSPost2010PropOp37
 70
     1
102
RTVSPost2010Prop38
140
0.0
102
RTVSPost2010PropOp38
 70
     1
102
RTVSPost2010Prop39
140
1.0
102
RTVSPost2010PropOp39
 70
     1
102
RTVSPost2010Prop40
 90
        0
102
RTVSPost2010PropOp40
 70
     1
102
RTVSPost2010Prop41ColorIndex
 90
       18
102
RTVSPost2010Prop41ColorRGB
 90
        0
102
RTVSPost2010PropOp41
 70
     1
102
RTVSPost2010Prop42
 90
       50
102
RTVSPost2010PropOp42
 70
     1
102
RTVSPost2010Prop43
 90
        3
102
RTVSPost2010PropOp43
 70
     1
102
RTVSPost2010Prop44ColorIndex
 90
        5
102
RTVSPost2010Prop44ColorRGB
 90
      255
102
RTVSPost2010PropOp44
 70
     1
102
RTVSPost2010Prop45
280
     0
102
RTVSPost2010PropOp45
 70
     1
102
RTVSPost2010Prop46
 90
       50
102
RTVSPost2010PropOp46
 70
     1
102
RTVSPost2010Prop47
 90
       50
102
RTVSPost2010PropOp47
 70
     1
102
RTVSPost2010Prop48
 90
       50
102
RTVSPost2010PropOp48
 70
     1
102
RTVSPost2010Prop49
280
     0
102
RTVSPost2010PropOp49
 70
     1
102
RTVSPost2010Prop50
 90
       50
102
RTVSPost2010PropOp50
 70
     1
102
RTVSPost2010Prop51ColorIndex
 90
      256
102
RTVSPost2010Prop51ColorRGB
 90
-16777216
102
RTVSPost2010PropOp51
 70
     0
102
RTVSPost2010Prop52
140
1.0
102
RTVSPost2010PropOp52
 70
     0
102
RTVSPost2010Prop53
 90
        2
102
RTVSPost2010PropOp53
 70
     1
102
RTVSPost2010Prop54
  1
strokes_ogs.tif
102
RTVSPost2010PropOp54
 70
     1
102
RTVSPost2010Prop55
280
     0
102
RTVSPost2010PropOp55
 70
     1
102
RTVSPost2010Prop56
140
1.0
102
RTVSPost2010PropOp56
 70
     1
102
RTVSPost2010Prop57
140
1.0
102
RTVSPost2010PropOp57
 70
     1
  0
XRECORD
  5
214
102
{ACAD_REACTORS
330
213
102
}
330
213
100
AcDbXrecord
280
     1
102
RTVSPropertyOp0
 70
     1
102
RTVSPropertyOp1
 70
     1
102
RTVSPropertyOp2
 70
     1
102
RTVSPropertyOp3
 70
     1
102
RTVSPropertyOp4
 70
     1
102
RTVSPropertyOp5
 70
     1
102
RTVSPropertyOp6
 70
     1
102
RTVSPropertyOp7
 70
     1
102
RTVSPropertyOp8
 70
     1
102
RTVSPropertyOp9
 70
     1
102
RTVSPropertyOp10
 70
     1
102
RTVSPropertyOp11
 70
     1
102
RTVSPropertyOp12
 70
     1
102
RTVSPropertyOp13
 70
     1
102
RTVSPropertyOp14
 70
     1
102
RTVSPropertyOp15
 70
     1
102
RTVSPropertyOp16
 70
     1
102
RTVSPropertyOp17
 70
     1
102
RTVSPropertyOp18
 70
     1
102
RTVSPropertyOp19
 70
     1
102
RTVSPropertyOp20
 70
     1
102
RTVSPropertyOp21
 70
     1
102
RTVSPropertyOp22
 70
     1
102
RTVSPropertyOp23
 70
     1
102
RTVSPropertyOp24
 70
     1
102
RTVSPropertyOp25
 70
     1
102
RTVSPropertyOp26
 70
     1
102
RTVSPropertyOp27
 70
     1
102
RTVSPropertyOp28
 70
     1
102
RTVSPropertyOp29
 70
     1
102
RTVSPropertyOp30
 70
     1
102
RTVSPropertyOp31
 70
     1
102
RTVSPropertyOp32
 70
     1
102
RTVSPropertyOp33
 70
     1
102
RTVSPropertyOp34
 70
     1
102
RTVSPropertyOp35
 70
     1
102
RTVSPropertyOp36
 70
     1
102
RTVSPropertyOp37
 70
     1
102
RTVSPropertyOp38
 70
     1
102
RTVSPropertyOp39
 70
     1
102
RTVSPropertyOp40
 70
     1
102
RTVSPropertyOp41
 70
     1
102
RTVSPropertyOp42
 70
     1
102
RTVSPropertyOp43
 70
     1
102
RTVSPropertyOp44
 70
     1
102
RTVSPropertyOp45
 70
     1
102
RTVSPropertyOp46
 70
     1
102
RTVSPropertyOp47
 70
     1
102
RTVSPropertyOp48
 70
     1
102
RTVSPropertyOp49
 70
     1
102
RTVSPropertyOp50
 70
     1
102
RTVSPropertyOp51
 70
     0
102
RTVSPropertyOp52
 70
     0
102
RTVSPropertyOp53
 70
     1
102
RTVSPropertyOp54
 70
     1
102
RTVSPropertyOp55
 70
     1
102
RTVSPropertyOp56
 70
     1
102
RTVSPropertyOp57
 70
     1
102
RTVSPost2010Prop28
280
     0
102
RTVSPost2010PropOp28
 70
     1
102
RTVSPost2010Prop29
280
     1
102
RTVSPost2010PropOp29
 70
     1
102
RTVSPost2010Prop30
280
     1
102
RTVSPost2010PropOp30
 70
     1
102
RTVSPost2010Prop31
280
     0
102
RTVSPost2010PropOp31
 70
     1
102
RTVSPost2010Prop32
280
     0
102
RTVSPost2010PropOp32
 70
     1
102
RTVSPost2010Prop33
280
     0
102
RTVSPost2010PropOp33
 70
     1
102
RTVSPost2010Prop34
280
     0
102
RTVSPost2010PropOp34
 70
     1
102
RTVSPost2010Prop35
280
     0
102
RTVSPost2010PropOp35
 70
     1
102
RTVSPost2010Prop36
280
     0
102
RTVSPost2010PropOp36
 70
     1
102
RTVSPost2010Prop37
 90
       50
102
RTVSPost2010PropOp37
 70
     1
102
RTVSPost2010Prop38
140
0.0
102
RTVSPost2010PropOp38
 70
     1
102
RTVSPost2010Prop39
140
1.0
102
RTVSPost2010PropOp39
 70
     1
102
RTVSPost2010Prop40
 90
        0
102
RTVSPost2010PropOp40
 70
     1
102
RTVSPost2010Prop41ColorIndex
 90
       18
102
RTVSPost2010Prop41ColorRGB
 90
        0
102
RTVSPost2010PropOp41
 70
     1
102
RTVSPost2010Prop42
 90
       50
102
RTVSPost2010PropOp42
 70
     1
102
RTVSPost2010Prop43
 90
        3
102
RTVSPost2010PropOp43
 70
     1
102
RTVSPost2010Prop44ColorIndex
 90
        5
102
RTVSPost2010Prop44ColorRGB
 90
      255
102
RTVSPost2010PropOp44
 70
     1
102
RTVSPost2010Prop45
280
     0
102
RTVSPost2010PropOp45
 70
     1
102
RTVSPost2010Prop46
 90
       50
102
RTVSPost2010PropOp46
 70
     1
102
RTVSPost2010Prop47
 90
       50
102
RTVSPost2010PropOp47
 70
     1
102
RTVSPost2010Prop48
 90
       50
102
RTVSPost2010PropOp48
 70
     1
102
RTVSPost2010Prop49
280
     0
102
RTVSPost2010PropOp49
 70
     1
102
RTVSPost2010Prop50
 90
       50
102
RTVSPost2010PropOp50
 70
     1
102
RTVSPost2010Prop51ColorIndex
 90
      256
102
RTVSPost2010Prop51ColorRGB
 90
-16777216
102
RTVSPost2010PropOp51
 70
     0
102
RTVSPost2010Prop52
140
1.0
102
RTVSPost2010PropOp52
 70
     0
102
RTVSPost2010Prop53
 90
        2
102
RTVSPost2010PropOp53
 70
     1
102
RTVSPost2010Prop54
  1
strokes_ogs.tif
102
RTVSPost2010PropOp54
 70
     1
102
RTVSPost2010Prop55
280
     0
102
RTVSPost2010PropOp55
 70
     1
102
RTVSPost2010Prop56
140
1.0
102
RTVSPost2010PropOp56
 70
     1
102
RTVSPost2010Prop57
140
1.0
102
RTVSPost2010PropOp57
 70
     1
  0
XRECORD
  5
20E
102
{ACAD_REACTORS
330
20D
102
}
330
20D
100
AcDbXrecord
280
     1
102
RTVSPropertyOp0
 70
     1
102
RTVSPropertyOp1
 70
     1
102
RTVSPropertyOp2
 70
     1
102
RTVSPropertyOp3
 70
     1
102
RTVSPropertyOp4
 70
     1
102
RTVSPropertyOp5
 70
     1
102
RTVSPropertyOp6
 70
     1
102
RTVSPropertyOp7
 70
     1
102
RTVSPropertyOp8
 70
     1
102
RTVSPropertyOp9
 70
     1
102
RTVSPropertyOp10
 70
     1
102
RTVSPropertyOp11
 70
     1
102
RTVSPropertyOp12
 70
     1
102
RTVSPropertyOp13
 70
     1
102
RTVSPropertyOp14
 70
     1
102
RTVSPropertyOp15
 70
     1
102
RTVSPropertyOp16
 70
     1
102
RTVSPropertyOp17
 70
     1
102
RTVSPropertyOp18
 70
     1
102
RTVSPropertyOp19
 70
     1
102
RTVSPropertyOp20
 70
     1
102
RTVSPropertyOp21
 70
     1
102
RTVSPropertyOp22
 70
     1
102
RTVSPropertyOp23
 70
     1
102
RTVSPropertyOp24
 70
     1
102
RTVSPropertyOp25
 70
     1
102
RTVSPropertyOp26
 70
     1
102
RTVSPropertyOp27
 70
     1
102
RTVSPropertyOp28
 70
     1
102
RTVSPropertyOp29
 70
     1
102
RTVSPropertyOp30
 70
     1
102
RTVSPropertyOp31
 70
     1
102
RTVSPropertyOp32
 70
     1
102
RTVSPropertyOp33
 70
     1
102
RTVSPropertyOp34
 70
     1
102
RTVSPropertyOp35
 70
     1
102
RTVSPropertyOp36
 70
     1
102
RTVSPropertyOp37
 70
     1
102
RTVSPropertyOp38
 70
     1
102
RTVSPropertyOp39
 70
     1
102
RTVSPropertyOp40
 70
     1
102
RTVSPropertyOp41
 70
     1
102
RTVSPropertyOp42
 70
     1
102
RTVSPropertyOp43
 70
     1
102
RTVSPropertyOp44
 70
     1
102
RTVSPropertyOp45
 70
     1
102
RTVSPropertyOp46
 70
     1
102
RTVSPropertyOp47
 70
     1
102
RTVSPropertyOp48
 70
     1
102
RTVSPropertyOp49
 70
     1
102
RTVSPropertyOp50
 70
     1
102
RTVSPropertyOp51
 70
     0
102
RTVSPropertyOp52
 70
     0
102
RTVSPropertyOp53
 70
     1
102
RTVSPropertyOp54
 70
     1
102
RTVSPropertyOp55
 70
     1
102
RTVSPropertyOp56
 70
     1
102
RTVSPropertyOp57
 70
     1
102
RTVSPost2010Prop28
280
     0
102
RTVSPost2010PropOp28
 70
     1
102
RTVSPost2010Prop29
280
     1
102
RTVSPost2010PropOp29
 70
     1
102
RTVSPost2010Prop30
280
     1
102
RTVSPost2010PropOp30
 70
     1
102
RTVSPost2010Prop31
280
     0
102
RTVSPost2010PropOp31
 70
     1
102
RTVSPost2010Prop32
280
     0
102
RTVSPost2010PropOp32
 70
     1
102
RTVSPost2010Prop33
280
     0
102
RTVSPost2010PropOp33
 70
     1
102
RTVSPost2010Prop34
280
     0
102
RTVSPost2010PropOp34
 70
     1
102
RTVSPost2010Prop35
280
     0
102
RTVSPost2010PropOp35
 70
     1
102
RTVSPost2010Prop36
280
     0
102
RTVSPost2010PropOp36
 70
     1
102
RTVSPost2010Prop37
 90
       50
102
RTVSPost2010PropOp37
 70
     1
102
RTVSPost2010Prop38
140
0.0
102
RTVSPost2010PropOp38
 70
     1
102
RTVSPost2010Prop39
140
1.0
102
RTVSPost2010PropOp39
 70
     1
102
RTVSPost2010Prop40
 90
        0
102
RTVSPost2010PropOp40
 70
     1
102
RTVSPost2010Prop41ColorIndex
 90
       18
102
RTVSPost2010Prop41ColorRGB
 90
        0
102
RTVSPost2010PropOp41
 70
     1
102
RTVSPost2010Prop42
 90
       50
102
RTVSPost2010PropOp42
 70
     1
102
RTVSPost2010Prop43
 90
        3
102
RTVSPost2010PropOp43
 70
     1
102
RTVSPost2010Prop44ColorIndex
 90
        5
102
RTVSPost2010Prop44ColorRGB
 90
      255
102
RTVSPost2010PropOp44
 70
     1
102
RTVSPost2010Prop45
280
     0
102
RTVSPost2010PropOp45
 70
     1
102
RTVSPost2010Prop46
 90
       50
102
RTVSPost2010PropOp46
 70
     1
102
RTVSPost2010Prop47
 90
       50
102
RTVSPost2010PropOp47
 70
     1
102
RTVSPost2010Prop48
 90
       50
102
RTVSPost2010PropOp48
 70
     1
102
RTVSPost2010Prop49
280
     0
102
RTVSPost2010PropOp49
 70
     1
102
RTVSPost2010Prop50
 90
       50
102
RTVSPost2010PropOp50
 70
     1
102
RTVSPost2010Prop51ColorIndex
 90
      256
102
RTVSPost2010Prop51ColorRGB
 90
-16777216
102
RTVSPost2010PropOp51
 70
     0
102
RTVSPost2010Prop52
140
1.0
102
RTVSPost2010PropOp52
 70
     0
102
RTVSPost2010Prop53
 90
        2
102
RTVSPost2010PropOp53
 70
     1
102
RTVSPost2010Prop54
  1
strokes_ogs.tif
102
RTVSPost2010PropOp54
 70
     1
102
RTVSPost2010Prop55
280
     0
102
RTVSPost2010PropOp55
 70
     1
102
RTVSPost2010Prop56
140
1.0
102
RTVSPost2010PropOp56
 70
     1
102
RTVSPost2010Prop57
140
1.0
102
RTVSPost2010PropOp57
 70
     1
  0
XRECORD
  5
210
102
{ACAD_REACTORS
330
20F
102
}
330
20F
100
AcDbXrecord
280
     1
102
RTVSPropertyOp0
 70
     1
102
RTVSPropertyOp1
 70
     1
102
RTVSPropertyOp2
 70
     1
102
RTVSPropertyOp3
 70
     1
102
RTVSPropertyOp4
 70
     1
102
RTVSPropertyOp5
 70
     1
102
RTVSPropertyOp6
 70
     1
102
RTVSPropertyOp7
 70
     1
102
RTVSPropertyOp8
 70
     1
102
RTVSPropertyOp9
 70
     1
102
RTVSPropertyOp10
 70
     1
102
RTVSPropertyOp11
 70
     1
102
RTVSPropertyOp12
 70
     1
102
RTVSPropertyOp13
 70
     1
102
RTVSPropertyOp14
 70
     1
102
RTVSPropertyOp15
 70
     1
102
RTVSPropertyOp16
 70
     1
102
RTVSPropertyOp17
 70
     1
102
RTVSPropertyOp18
 70
     1
102
RTVSPropertyOp19
 70
     1
102
RTVSPropertyOp20
 70
     1
102
RTVSPropertyOp21
 70
     1
102
RTVSPropertyOp22
 70
     1
102
RTVSPropertyOp23
 70
     1
102
RTVSPropertyOp24
 70
     1
102
RTVSPropertyOp25
 70
     1
102
RTVSPropertyOp26
 70
     1
102
RTVSPropertyOp27
 70
     1
102
RTVSPropertyOp28
 70
     1
102
RTVSPropertyOp29
 70
     1
102
RTVSPropertyOp30
 70
     1
102
RTVSPropertyOp31
 70
     1
102
RTVSPropertyOp32
 70
     1
102
RTVSPropertyOp33
 70
     1
102
RTVSPropertyOp34
 70
     1
102
RTVSPropertyOp35
 70
     1
102
RTVSPropertyOp36
 70
     1
102
RTVSPropertyOp37
 70
     1
102
RTVSPropertyOp38
 70
     1
102
RTVSPropertyOp39
 70
     1
102
RTVSPropertyOp40
 70
     1
102
RTVSPropertyOp41
 70
     1
102
RTVSPropertyOp42
 70
     1
102
RTVSPropertyOp43
 70
     1
102
RTVSPropertyOp44
 70
     1
102
RTVSPropertyOp45
 70
     1
102
RTVSPropertyOp46
 70
     1
102
RTVSPropertyOp47
 70
     1
102
RTVSPropertyOp48
 70
     1
102
RTVSPropertyOp49
 70
     1
102
RTVSPropertyOp50
 70
     1
102
RTVSPropertyOp51
 70
     0
102
RTVSPropertyOp52
 70
     0
102
RTVSPropertyOp53
 70
     1
102
RTVSPropertyOp54
 70
     1
102
RTVSPropertyOp55
 70
     1
102
RTVSPropertyOp56
 70
     1
102
RTVSPropertyOp57
 70
     1
102
RTVSPost2010Prop28
280
     0
102
RTVSPost2010PropOp28
 70
     1
102
RTVSPost2010Prop29
280
     1
102
RTVSPost2010PropOp29
 70
     1
102
RTVSPost2010Prop30
280
     1
102
RTVSPost2010PropOp30
 70
     1
102
RTVSPost2010Prop31
280
     0
102
RTVSPost2010PropOp31
 70
     1
102
RTVSPost2010Prop32
280
     0
102
RTVSPost2010PropOp32
 70
     1
102
RTVSPost2010Prop33
280
     0
102
RTVSPost2010PropOp33
 70
     1
102
RTVSPost2010Prop34
280
     0
102
RTVSPost2010PropOp34
 70
     1
102
RTVSPost2010Prop35
280
     0
102
RTVSPost2010PropOp35
 70
     1
102
RTVSPost2010Prop36
280
     0
102
RTVSPost2010PropOp36
 70
     1
102
RTVSPost2010Prop37
 90
       50
102
RTVSPost2010PropOp37
 70
     1
102
RTVSPost2010Prop38
140
0.0
102
RTVSPost2010PropOp38
 70
     1
102
RTVSPost2010Prop39
140
1.0
102
RTVSPost2010PropOp39
 70
     1
102
RTVSPost2010Prop40
 90
        0
102
RTVSPost2010PropOp40
 70
     1
102
RTVSPost2010Prop41ColorIndex
 90
       18
102
RTVSPost2010Prop41ColorRGB
 90
        0
102
RTVSPost2010PropOp41
 70
     1
102
RTVSPost2010Prop42
 90
       50
102
RTVSPost2010PropOp42
 70
     1
102
RTVSPost2010Prop43
 90
        3
102
RTVSPost2010PropOp43
 70
     1
102
RTVSPost2010Prop44ColorIndex
 90
        5
102
RTVSPost2010Prop44ColorRGB
 90
      255
102
RTVSPost2010PropOp44
 70
     1
102
RTVSPost2010Prop45
280
     0
102
RTVSPost2010PropOp45
 70
     1
102
RTVSPost2010Prop46
 90
       50
102
RTVSPost2010PropOp46
 70
     1
102
RTVSPost2010Prop47
 90
       50
102
RTVSPost2010PropOp47
 70
     1
102
RTVSPost2010Prop48
 90
       50
102
RTVSPost2010PropOp48
 70
     1
102
RTVSPost2010Prop49
280
     0
102
RTVSPost2010PropOp49
 70
     1
102
RTVSPost2010Prop50
 90
       50
102
RTVSPost2010PropOp50
 70
     1
102
RTVSPost2010Prop51ColorIndex
 90
      256
102
RTVSPost2010Prop51ColorRGB
 90
-16777216
102
RTVSPost2010PropOp51
 70
     0
102
RTVSPost2010Prop52
140
1.0
102
RTVSPost2010PropOp52
 70
     0
102
RTVSPost2010Prop53
 90
        2
102
RTVSPost2010PropOp53
 70
     1
102
RTVSPost2010Prop54
  1
strokes_ogs.tif
102
RTVSPost2010PropOp54
 70
     1
102
RTVSPost2010Prop55
280
     0
102
RTVSPost2010PropOp55
 70
     1
102
RTVSPost2010Prop56
140
1.0
102
RTVSPost2010PropOp56
 70
     1
102
RTVSPost2010Prop57
140
1.0
102
RTVSPost2010PropOp57
 70
     1
  0
XRECORD
  5
200
102
{ACAD_REACTORS
330
1FF
102
}
330
1FF
100
AcDbXrecord
280
     1
102
RTVSPropertyOp0
 70
     1
102
RTVSPropertyOp1
 70
     1
102
RTVSPropertyOp2
 70
     1
102
RTVSPropertyOp3
 70
     1
102
RTVSPropertyOp4
 70
     1
102
RTVSPropertyOp5
 70
     1
102
RTVSPropertyOp6
 70
     1
102
RTVSPropertyOp7
 70
     1
102
RTVSPropertyOp8
 70
     1
102
RTVSPropertyOp9
 70
     1
102
RTVSPropertyOp10
 70
     1
102
RTVSPropertyOp11
 70
     1
102
RTVSPropertyOp12
 70
     1
102
RTVSPropertyOp13
 70
     1
102
RTVSPropertyOp14
 70
     1
102
RTVSPropertyOp15
 70
     1
102
RTVSPropertyOp16
 70
     1
102
RTVSPropertyOp17
 70
     1
102
RTVSPropertyOp18
 70
     1
102
RTVSPropertyOp19
 70
     1
102
RTVSPropertyOp20
 70
     1
102
RTVSPropertyOp21
 70
     1
102
RTVSPropertyOp22
 70
     1
102
RTVSPropertyOp23
 70
     1
102
RTVSPropertyOp24
 70
     1
102
RTVSPropertyOp25
 70
     1
102
RTVSPropertyOp26
 70
     1
102
RTVSPropertyOp27
 70
     1
102
RTVSPropertyOp28
 70
     1
102
RTVSPropertyOp29
 70
     1
102
RTVSPropertyOp30
 70
     1
102
RTVSPropertyOp31
 70
     1
102
RTVSPropertyOp32
 70
     1
102
RTVSPropertyOp33
 70
     1
102
RTVSPropertyOp34
 70
     1
102
RTVSPropertyOp35
 70
     1
102
RTVSPropertyOp36
 70
     1
102
RTVSPropertyOp37
 70
     1
102
RTVSPropertyOp38
 70
     1
102
RTVSPropertyOp39
 70
     1
102
RTVSPropertyOp40
 70
     1
102
RTVSPropertyOp41
 70
     1
102
RTVSPropertyOp42
 70
     1
102
RTVSPropertyOp43
 70
     1
102
RTVSPropertyOp44
 70
     1
102
RTVSPropertyOp45
 70
     1
102
RTVSPropertyOp46
 70
     1
102
RTVSPropertyOp47
 70
     1
102
RTVSPropertyOp48
 70
     1
102
RTVSPropertyOp49
 70
     1
102
RTVSPropertyOp50
 70
     1
102
RTVSPropertyOp51
 70
     0
102
RTVSPropertyOp52
 70
     0
102
RTVSPropertyOp53
 70
     1
102
RTVSPropertyOp54
 70
     1
102
RTVSPropertyOp55
 70
     1
102
RTVSPropertyOp56
 70
     1
102
RTVSPropertyOp57
 70
     1
102
RTVSPost2010Prop28
280
     0
102
RTVSPost2010PropOp28
 70
     1
102
RTVSPost2010Prop29
280
     1
102
RTVSPost2010PropOp29
 70
     1
102
RTVSPost2010Prop30
280
     1
102
RTVSPost2010PropOp30
 70
     1
102
RTVSPost2010Prop31
280
     0
102
RTVSPost2010PropOp31
 70
     1
102
RTVSPost2010Prop32
280
     0
102
RTVSPost2010PropOp32
 70
     1
102
RTVSPost2010Prop33
280
     0
102
RTVSPost2010PropOp33
 70
     1
102
RTVSPost2010Prop34
280
     0
102
RTVSPost2010PropOp34
 70
     1
102
RTVSPost2010Prop35
280
     0
102
RTVSPost2010PropOp35
 70
     1
102
RTVSPost2010Prop36
280
     0
102
RTVSPost2010PropOp36
 70
     1
102
RTVSPost2010Prop37
 90
       50
102
RTVSPost2010PropOp37
 70
     1
102
RTVSPost2010Prop38
140
0.0
102
RTVSPost2010PropOp38
 70
     1
102
RTVSPost2010Prop39
140
1.0
102
RTVSPost2010PropOp39
 70
     1
102
RTVSPost2010Prop40
 90
        0
102
RTVSPost2010PropOp40
 70
     1
102
RTVSPost2010Prop41ColorIndex
 90
       18
102
RTVSPost2010Prop41ColorRGB
 90
        0
102
RTVSPost2010PropOp41
 70
     1
102
RTVSPost2010Prop42
 90
       50
102
RTVSPost2010PropOp42
 70
     1
102
RTVSPost2010Prop43
 90
        3
102
RTVSPost2010PropOp43
 70
     1
102
RTVSPost2010Prop44ColorIndex
 90
        5
102
RTVSPost2010Prop44ColorRGB
 90
      255
102
RTVSPost2010PropOp44
 70
     1
102
RTVSPost2010Prop45
280
     0
102
RTVSPost2010PropOp45
 70
     1
102
RTVSPost2010Prop46
 90
       50
102
RTVSPost2010PropOp46
 70
     1
102
RTVSPost2010Prop47
 90
       50
102
RTVSPost2010PropOp47
 70
     1
102
RTVSPost2010Prop48
 90
       50
102
RTVSPost2010PropOp48
 70
     1
102
RTVSPost2010Prop49
280
     0
102
RTVSPost2010PropOp49
 70
     1
102
RTVSPost2010Prop50
 90
       50
102
RTVSPost2010PropOp50
 70
     1
102
RTVSPost2010Prop51ColorIndex
 90
      256
102
RTVSPost2010Prop51ColorRGB
 90
-16777216
102
RTVSPost2010PropOp51
 70
     0
102
RTVSPost2010Prop52
140
1.0
102
RTVSPost2010PropOp52
 70
     0
102
RTVSPost2010Prop53
 90
        2
102
RTVSPost2010PropOp53
 70
     1
102
RTVSPost2010Prop54
  1
strokes_ogs.tif
102
RTVSPost2010PropOp54
 70
     1
102
RTVSPost2010Prop55
280
     0
102
RTVSPost2010PropOp55
 70
     1
102
RTVSPost2010Prop56
140
1.0
102
RTVSPost2010PropOp56
 70
     1
102
RTVSPost2010Prop57
140
1.0
102
RTVSPost2010PropOp57
 70
     1
  0
XRECORD
  5
1F2
102
{ACAD_REACTORS
330
1F1
102
}
330
1F1
100
AcDbXrecord
280
     1
102
RTVSPropertyOp0
 70
     1
102
RTVSPropertyOp1
 70
     1
102
RTVSPropertyOp2
 70
     1
102
RTVSPropertyOp3
 70
     1
102
RTVSPropertyOp4
 70
     1
102
RTVSPropertyOp5
 70
     1
102
RTVSPropertyOp6
 70
     1
102
RTVSPropertyOp7
 70
     1
102
RTVSPropertyOp8
 70
     1
102
RTVSPropertyOp9
 70
     1
102
RTVSPropertyOp10
 70
     1
102
RTVSPropertyOp11
 70
     1
102
RTVSPropertyOp12
 70
     1
102
RTVSPropertyOp13
 70
     1
102
RTVSPropertyOp14
 70
     1
102
RTVSPropertyOp15
 70
     1
102
RTVSPropertyOp16
 70
     1
102
RTVSPropertyOp17
 70
     1
102
RTVSPropertyOp18
 70
     1
102
RTVSPropertyOp19
 70
     1
102
RTVSPropertyOp20
 70
     1
102
RTVSPropertyOp21
 70
     1
102
RTVSPropertyOp22
 70
     1
102
RTVSPropertyOp23
 70
     1
102
RTVSPropertyOp24
 70
     1
102
RTVSPropertyOp25
 70
     1
102
RTVSPropertyOp26
 70
     1
102
RTVSPropertyOp27
 70
     1
102
RTVSPropertyOp28
 70
     1
102
RTVSPropertyOp29
 70
     1
102
RTVSPropertyOp30
 70
     1
102
RTVSPropertyOp31
 70
     1
102
RTVSPropertyOp32
 70
     1
102
RTVSPropertyOp33
 70
     1
102
RTVSPropertyOp34
 70
     1
102
RTVSPropertyOp35
 70
     1
102
RTVSPropertyOp36
 70
     1
102
RTVSPropertyOp37
 70
     1
102
RTVSPropertyOp38
 70
     1
102
RTVSPropertyOp39
 70
     1
102
RTVSPropertyOp40
 70
     1
102
RTVSPropertyOp41
 70
     1
102
RTVSPropertyOp42
 70
     1
102
RTVSPropertyOp43
 70
     1
102
RTVSPropertyOp44
 70
     1
102
RTVSPropertyOp45
 70
     1
102
RTVSPropertyOp46
 70
     1
102
RTVSPropertyOp47
 70
     1
102
RTVSPropertyOp48
 70
     1
102
RTVSPropertyOp49
 70
     1
102
RTVSPropertyOp50
 70
     1
102
RTVSPropertyOp51
 70
     0
102
RTVSPropertyOp52
 70
     0
102
RTVSPropertyOp53
 70
     1
102
RTVSPropertyOp54
 70
     1
102
RTVSPropertyOp55
 70
     1
102
RTVSPropertyOp56
 70
     1
102
RTVSPropertyOp57
 70
     1
102
RTVSPost2010Prop28
280
     0
102
RTVSPost2010PropOp28
 70
     1
102
RTVSPost2010Prop29
280
     1
102
RTVSPost2010PropOp29
 70
     1
102
RTVSPost2010Prop30
280
     1
102
RTVSPost2010PropOp30
 70
     1
102
RTVSPost2010Prop31
280
     0
102
RTVSPost2010PropOp31
 70
     1
102
RTVSPost2010Prop32
280
     0
102
RTVSPost2010PropOp32
 70
     1
102
RTVSPost2010Prop33
280
     0
102
RTVSPost2010PropOp33
 70
     1
102
RTVSPost2010Prop34
280
     0
102
RTVSPost2010PropOp34
 70
     1
102
RTVSPost2010Prop35
280
     0
102
RTVSPost2010PropOp35
 70
     1
102
RTVSPost2010Prop36
280
     0
102
RTVSPost2010PropOp36
 70
     1
102
RTVSPost2010Prop37
 90
       50
102
RTVSPost2010PropOp37
 70
     1
102
RTVSPost2010Prop38
140
0.0
102
RTVSPost2010PropOp38
 70
     1
102
RTVSPost2010Prop39
140
1.0
102
RTVSPost2010PropOp39
 70
     1
102
RTVSPost2010Prop40
 90
        0
102
RTVSPost2010PropOp40
 70
     1
102
RTVSPost2010Prop41ColorIndex
 90
       18
102
RTVSPost2010Prop41ColorRGB
 90
        0
102
RTVSPost2010PropOp41
 70
     1
102
RTVSPost2010Prop42
 90
       50
102
RTVSPost2010PropOp42
 70
     1
102
RTVSPost2010Prop43
 90
        3
102
RTVSPost2010PropOp43
 70
     1
102
RTVSPost2010Prop44ColorIndex
 90
        5
102
RTVSPost2010Prop44ColorRGB
 90
      255
102
RTVSPost2010PropOp44
 70
     1
102
RTVSPost2010Prop45
280
     0
102
RTVSPost2010PropOp45
 70
     1
102
RTVSPost2010Prop46
 90
       50
102
RTVSPost2010PropOp46
 70
     1
102
RTVSPost2010Prop47
 90
       50
102
RTVSPost2010PropOp47
 70
     1
102
RTVSPost2010Prop48
 90
       50
102
RTVSPost2010PropOp48
 70
     1
102
RTVSPost2010Prop49
280
     0
102
RTVSPost2010PropOp49
 70
     1
102
RTVSPost2010Prop50
 90
       50
102
RTVSPost2010PropOp50
 70
     1
102
RTVSPost2010Prop51ColorIndex
 90
      256
102
RTVSPost2010Prop51ColorRGB
 90
-16777216
102
RTVSPost2010PropOp51
 70
     0
102
RTVSPost2010Prop52
140
1.0
102
RTVSPost2010PropOp52
 70
     0
102
RTVSPost2010Prop53
 90
        2
102
RTVSPost2010PropOp53
 70
     1
102
RTVSPost2010Prop54
  1
strokes_ogs.tif
102
RTVSPost2010PropOp54
 70
     1
102
RTVSPost2010Prop55
280
     0
102
RTVSPost2010PropOp55
 70
     1
102
RTVSPost2010Prop56
140
1.0
102
RTVSPost2010PropOp56
 70
     1
102
RTVSPost2010Prop57
140
1.0
102
RTVSPost2010PropOp57
 70
     1
  0
XRECORD
  5
212
102
{ACAD_REACTORS
330
211
102
}
330
211
100
AcDbXrecord
280
     1
102
RTVSPropertyOp0
 70
     1
102
RTVSPropertyOp1
 70
     1
102
RTVSPropertyOp2
 70
     1
102
RTVSPropertyOp3
 70
     1
102
RTVSPropertyOp4
 70
     1
102
RTVSPropertyOp5
 70
     1
102
RTVSPropertyOp6
 70
     1
102
RTVSPropertyOp7
 70
     1
102
RTVSPropertyOp8
 70
     1
102
RTVSPropertyOp9
 70
     1
102
RTVSPropertyOp10
 70
     1
102
RTVSPropertyOp11
 70
     1
102
RTVSPropertyOp12
 70
     1
102
RTVSPropertyOp13
 70
     1
102
RTVSPropertyOp14
 70
     1
102
RTVSPropertyOp15
 70
     1
102
RTVSPropertyOp16
 70
     1
102
RTVSPropertyOp17
 70
     1
102
RTVSPropertyOp18
 70
     1
102
RTVSPropertyOp19
 70
     1
102
RTVSPropertyOp20
 70
     1
102
RTVSPropertyOp21
 70
     1
102
RTVSPropertyOp22
 70
     1
102
RTVSPropertyOp23
 70
     1
102
RTVSPropertyOp24
 70
     1
102
RTVSPropertyOp25
 70
     1
102
RTVSPropertyOp26
 70
     1
102
RTVSPropertyOp27
 70
     1
102
RTVSPropertyOp28
 70
     1
102
RTVSPropertyOp29
 70
     1
102
RTVSPropertyOp30
 70
     1
102
RTVSPropertyOp31
 70
     1
102
RTVSPropertyOp32
 70
     1
102
RTVSPropertyOp33
 70
     1
102
RTVSPropertyOp34
 70
     1
102
RTVSPropertyOp35
 70
     1
102
RTVSPropertyOp36
 70
     1
102
RTVSPropertyOp37
 70
     1
102
RTVSPropertyOp38
 70
     1
102
RTVSPropertyOp39
 70
     1
102
RTVSPropertyOp40
 70
     1
102
RTVSPropertyOp41
 70
     1
102
RTVSPropertyOp42
 70
     1
102
RTVSPropertyOp43
 70
     1
102
RTVSPropertyOp44
 70
     1
102
RTVSPropertyOp45
 70
     1
102
RTVSPropertyOp46
 70
     1
102
RTVSPropertyOp47
 70
     1
102
RTVSPropertyOp48
 70
     1
102
RTVSPropertyOp49
 70
     1
102
RTVSPropertyOp50
 70
     1
102
RTVSPropertyOp51
 70
     0
102
RTVSPropertyOp52
 70
     0
102
RTVSPropertyOp53
 70
     1
102
RTVSPropertyOp54
 70
     1
102
RTVSPropertyOp55
 70
     1
102
RTVSPropertyOp56
 70
     1
102
RTVSPropertyOp57
 70
     1
102
RTVSPost2010Prop28
280
     0
102
RTVSPost2010PropOp28
 70
     1
102
RTVSPost2010Prop29
280
     1
102
RTVSPost2010PropOp29
 70
     1
102
RTVSPost2010Prop30
280
     1
102
RTVSPost2010PropOp30
 70
     1
102
RTVSPost2010Prop31
280
     0
102
RTVSPost2010PropOp31
 70
     1
102
RTVSPost2010Prop32
280
     0
102
RTVSPost2010PropOp32
 70
     1
102
RTVSPost2010Prop33
280
     0
102
RTVSPost2010PropOp33
 70
     1
102
RTVSPost2010Prop34
280
     0
102
RTVSPost2010PropOp34
 70
     1
102
RTVSPost2010Prop35
280
     0
102
RTVSPost2010PropOp35
 70
     1
102
RTVSPost2010Prop36
280
     0
102
RTVSPost2010PropOp36
 70
     1
102
RTVSPost2010Prop37
 90
       50
102
RTVSPost2010PropOp37
 70
     1
102
RTVSPost2010Prop38
140
0.0
102
RTVSPost2010PropOp38
 70
     1
102
RTVSPost2010Prop39
140
1.0
102
RTVSPost2010PropOp39
 70
     1
102
RTVSPost2010Prop40
 90
        0
102
RTVSPost2010PropOp40
 70
     1
102
RTVSPost2010Prop41ColorIndex
 90
       18
102
RTVSPost2010Prop41ColorRGB
 90
        0
102
RTVSPost2010PropOp41
 70
     1
102
RTVSPost2010Prop42
 90
       50
102
RTVSPost2010PropOp42
 70
     1
102
RTVSPost2010Prop43
 90
        3
102
RTVSPost2010PropOp43
 70
     1
102
RTVSPost2010Prop44ColorIndex
 90
        5
102
RTVSPost2010Prop44ColorRGB
 90
      255
102
RTVSPost2010PropOp44
 70
     1
102
RTVSPost2010Prop45
280
     0
102
RTVSPost2010PropOp45
 70
     1
102
RTVSPost2010Prop46
 90
       50
102
RTVSPost2010PropOp46
 70
     1
102
RTVSPost2010Prop47
 90
       50
102
RTVSPost2010PropOp47
 70
     1
102
RTVSPost2010Prop48
 90
       50
102
RTVSPost2010PropOp48
 70
     1
102
RTVSPost2010Prop49
280
     0
102
RTVSPost2010PropOp49
 70
     1
102
RTVSPost2010Prop50
 90
       50
102
RTVSPost2010PropOp50
 70
     1
102
RTVSPost2010Prop51ColorIndex
 90
      256
102
RTVSPost2010Prop51ColorRGB
 90
-16777216
102
RTVSPost2010PropOp51
 70
     0
102
RTVSPost2010Prop52
140
1.0
102
RTVSPost2010PropOp52
 70
     0
102
RTVSPost2010Prop53
 90
        2
102
RTVSPost2010PropOp53
 70
     1
102
RTVSPost2010Prop54
  1
strokes_ogs.tif
102
RTVSPost2010PropOp54
 70
     1
102
RTVSPost2010Prop55
280
     0
102
RTVSPost2010PropOp55
 70
     1
102
RTVSPost2010Prop56
140
1.0
102
RTVSPost2010PropOp56
 70
     1
102
RTVSPost2010Prop57
140
1.0
102
RTVSPost2010PropOp57
 70
     1
  0
ENDSEC
  0
EOF
