  0
SECTION
  2
HEADER
  9
$ACADVER
  1
AC1015
  9
$ACADMAINTVER
 70
     6
  9
$DWGCODEPAGE
  3
ANSI_1252
  9
$INSBASE
 10
0.0
 20
0.0
 30
0.0
  9
$EXTMIN
 10
0.0
 20
0.0
 30
0.0
  9
$EXTMAX
 10
3000.0
 20
4500.0
 30
0.0
  9
$LIMMIN
 10
0.0
 20
0.0
  9
$LIMMAX
 10
3000.0
 20
4500.0
  9
$ORTHOMODE
 70
     0
  9
$REGENMODE
 70
     1
  9
$FILLMODE
 70
     1
  9
$QTEXTMODE
 70
     0
  9
$MIRRTEXT
 70
     1
  9
$LTSCALE
 40
1.0
  9
$ATTMODE
 70
     1
  9
$TEXTSIZE
 40
2.5
  9
$TRACEWID
 40
1.0
  9
$TEXTSTYLE
  7
Standard
  9
$CLAYER
  8
0
  9
$CELTYPE
  6
ByLayer
  9
$CECOLOR
 62
   256
  9
$CELTSCALE
 40
1.0
  9
$DISPSILH
 70
     0
  9
$DIMSCALE
 40
1.0
  9
$DIMASZ
 40
2.5
  9
$DIMEXO
 40
0.625
  9
$DIMDLI
 40
3.75
  9
$DIMRND
 40
0.0
  9
$DIMDLE
 40
0.0
  9
$DIMEXE
 40
1.25
  9
$DIMTP
 40
0.0
  9
$DIMTM
 40
0.0
  9
$DIMTXT
 40
2.5
  9
$DIMCEN
 40
2.5
  9
$DIMTSZ
 40
0.0
  9
$DIMTOL
 70
     0
  9
$DIMLIM
 70
     0
  9
$DIMTIH
 70
     0
  9
$DIMTOH
 70
     0
  9
$DIMSE1
 70
     0
  9
$DIMSE2
 70
     0
  9
$DIMTAD
 70
     1
  9
$DIMZIN
 70
     8
  9
$DIMBLK
  1

  9
$DIMASO
 70
     1
  9
$DIMSHO
 70
     1
  9
$DIMPOST
  1

  9
$DIMAPOST
  1

  9
$DIMALT
 70
     0
  9
$DIMALTD
 70
     3
  9
$DIMALTF
 40
0.0393700787
  9
$DIMLFAC
 40
1.0
  9
$DIMTOFL
 70
     1
  9
$DIMTVP
 40
0.0
  9
$DIMTIX
 70
     0
  9
$DIMSOXD
 70
     0
  9
$DIMSAH
 70
     0
  9
$DIMBLK1
  1

  9
$DIMBLK2
  1

  9
$DIMSTYLE
  2
ISO-25
  9
$DIMCLRD
 70
     0
  9
$DIMCLRE
 70
     0
  9
$DIMCLRT
 70
     0
  9
$DIMTFAC
 40
1.0
  9
$DIMGAP
 40
0.625
  9
$DIMJUST
 70
     0
  9
$DIMSD1
 70
     0
  9
$DIMSD2
 70
     0
  9
$DIMTOLJ
 70
     0
  9
$DIMTZIN
 70
     8
  9
$DIMALTZ
 70
     0
  9
$DIMALTTZ
 70
     0
  9
$DIMUPT
 70
     0
  9
$DIMDEC
 70
     2
  9
$DIMTDEC
 70
     2
  9
$DIMALTU
 70
     2
  9
$DIMALTTD
 70
     3
  9
$DIMTXSTY
  7
Standard
  9
$DIMAUNIT
 70
     0
  9
$DIMADEC
 70
     0
  9
$DIMALTRND
 40
0.0
  9
$DIMAZIN
 70
     0
  9
$DIMDSEP
 70
    44
  9
$DIMATFIT
 70
     3
  9
$DIMFRAC
 70
     0
  9
$DIMLDRBLK
  1

  9
$DIMLUNIT
 70
     2
  9
$DIMLWD
 70
    -2
  9
$DIMLWE
 70
    -2
  9
$DIMTMOVE
 70
     0
  9
$LUNITS
 70
     2
  9
$LUPREC
 70
     4
  9
$SKETCHINC
 40
1.0
  9
$FILLETRAD
 40
10.0
  9
$AUNITS
 70
     0
  9
$AUPREC
 70
     0
  9
$MENU
  1
.
  9
$ELEVATION
 40
0.0
  9
$PELEVATION
 40
0.0
  9
$THICKNESS
 40
0.0
  9
$LIMCHECK
 70
     0
  9
$CHAMFERA
 40
10.0
  9
$CHAMFERB
 40
10.0
  9
$CHAMFERC
 40
20.0
  9
$CHAMFERD
 40
0.0
  9
$SKPOLY
 70
     0
  9
$TDCREATE
 40
2456574.555375845
  9
$TDUCREATE
 40
2456574.472042512
  9
$TDUPDATE
 40
2456574.555375856
  9
$TDUUPDATE
 40
2456574.472042523
  9
$TDINDWG
 40
0.0000000116
  9
$TDUSRTIMER
 40
0.0000000116
  9
$USRTIMER
 70
     1
  9
$ANGBASE
 50
0.0
  9
$ANGDIR
 70
     0
  9
$PDMODE
 70
     0
  9
$PDSIZE
 40
0.0
  9
$PLINEWID
 40
0.0
  9
$SPLFRAME
 70
     0
  9
$SPLINETYPE
 70
     6
  9
$SPLINESEGS
 70
     8
  9
$HANDSEED
  5
342
  9
$SURFTAB1
 70
     6
  9
$SURFTAB2
 70
     6
  9
$SURFTYPE
 70
     6
  9
$SURFU
 70
     6
  9
$SURFV
 70
     6
  9
$UCSBASE
  2

  9
$UCSNAME
  2

  9
$UCSORG
 10
0.0
 20
0.0
 30
0.0
  9
$UCSXDIR
 10
1.0
 20
0.0
 30
0.0
  9
$UCSYDIR
 10
0.0
 20
1.0
 30
0.0
  9
$UCSORTHOREF
  2

  9
$UCSORTHOVIEW
 70
     0
  9
$UCSORGTOP
 10
0.0
 20
0.0
 30
0.0
  9
$UCSORGBOTTOM
 10
0.0
 20
0.0
 30
0.0
  9
$UCSORGLEFT
 10
0.0
 20
0.0
 30
0.0
  9
$UCSORGRIGHT
 10
0.0
 20
0.0
 30
0.0
  9
$UCSORGFRONT
 10
0.0
 20
0.0
 30
0.0
  9
$UCSORGBACK
 10
0.0
 20
0.0
 30
0.0
  9
$PUCSBASE
  2

  9
$PUCSNAME
  2

  9
$PUCSORG
 10
0.0
 20
0.0
 30
0.0
  9
$PUCSXDIR
 10
1.0
 20
0.0
 30
0.0
  9
$PUCSYDIR
 10
0.0
 20
1.0
 30
0.0
  9
$PUCSORTHOREF
  2

  9
$PUCSORTHOVIEW
 70
     0
  9
$PUCSORGTOP
 10
0.0
 20
0.0
 30
0.0
  9
$PUCSORGBOTTOM
 10
0.0
 20
0.0
 30
0.0
  9
$PUCSORGLEFT
 10
0.0
 20
0.0
 30
0.0
  9
$PUCSORGRIGHT
 10
0.0
 20
0.0
 30
0.0
  9
$PUCSORGFRONT
 10
0.0
 20
0.0
 30
0.0
  9
$PUCSORGBACK
 10
0.0
 20
0.0
 30
0.0
  9
$USERI1
 70
     0
  9
$USERI2
 70
     0
  9
$USERI3
 70
     0
  9
$USERI4
 70
     0
  9
$USERI5
 70
     0
  9
$USERR1
 40
0.0
  9
$USERR2
 40
0.0
  9
$USERR3
 40
0.0
  9
$USERR4
 40
0.0
  9
$USERR5
 40
0.0
  9
$WORLDVIEW
 70
     1
  9
$SHADEDGE
 70
     3
  9
$SHADEDIF
 70
    70
  9
$TILEMODE
 70
     1
  9
$MAXACTVP
 70
    64
  9
$PINSBASE
 10
0.0
 20
0.0
 30
0.0
  9
$PLIMCHECK
 70
     0
  9
$PEXTMIN
 10
0.0
 20
0.0
 30
0.0
  9
$PEXTMAX
 10
3000.0
 20
4500.0
 30
0.0
  9
$PLIMMIN
 10
0.0
 20
0.0
  9
$PLIMMAX
 10
3000.0
 20
4500.0
  9
$UNITMODE
 70
     0
  9
$VISRETAIN
 70
     1
  9
$PLINEGEN
 70
     0
  9
$PSLTSCALE
 70
     1
  9
$TREEDEPTH
 70
  3020
  9
$CMLSTYLE
  2
Standard
  9
$CMLJUST
 70
     0
  9
$CMLSCALE
 40
20.0
  9
$PROXYGRAPHICS
 70
     1
  9
$MEASUREMENT
 70
     1
  9
$CELWEIGHT
370
    -1
  9
$ENDCAPS
280
     0
  9
$JOINSTYLE
280
     0
  9
$LWDISPLAY
290
     0
  9
$INSUNITS
 70
     4
  9
$HYPERLINKBASE
  1

  9
$STYLESHEET
  1

  9
$XEDIT
290
     1
  9
$CEPSNTYPE
380
     0
  9
$PSTYLEMODE
290
     1
  9
$FINGERPRINTGUID
  2
{9BA5D66C-9F29-4409-88D6-4C349F4A0CC3}
  9
$VERSIONGUID
  2
{FAEB1C32-E019-11D5-929B-00C0DF256EC4}
  9
$EXTNAMES
290
     1
  9
$PSVPSCALE
 40
0.0
  9
$OLESTARTUP
290
     0
  0
ENDSEC
  0
SECTION
  2
CLASSES
  0
CLASS
  1
ACDBDICTIONARYWDFLT
  2
AcDbDictionaryWithDefault
  3
ObjectDBX Classes
 90
        0
280
     0
281
     0
  0
CLASS
  1
VISUALSTYLE
  2
AcDbVisualStyle
  3
ObjectDBX Classes
 90
     4095
280
     0
281
     0
  0
CLASS
  1
SCALE
  2
AcDbScale
  3
ObjectDBX Classes
 90
     1153
280
     0
281
     0
  0
CLASS
  1
DICTIONARYVAR
  2
AcDbDictionaryVar
  3
ObjectDBX Classes
 90
        0
280
     0
281
     0
  0
CLASS
  1
ACDBPLACEHOLDER
  2
AcDbPlaceHolder
  3
ObjectDBX Classes
 90
        0
280
     0
281
     0
  0
CLASS
  1
LAYOUT
  2
AcDbLayout
  3
ObjectDBX Classes
 90
        0
280
     0
281
     0
  0
ENDSEC
  0
SECTION
  2
TABLES
  0
TABLE
  2
VPORT
  5
8
330
0
100
AcDbSymbolTable
 70
     1
  0
VPORT
  5
29
330
8
100
AcDbSymbolTableRecord
100
AcDbViewportTableRecord
  2
*Active
 70
     0
 10
0.0
 20
0.0
 11
1.0
 21
1.0
 12
344.1869158879
 22
148.5
 13
0.0
 23
0.0
 14
10.0
 24
10.0
 15
10.0
 25
10.0
 16
0.0
 26
0.0
 36
1.0
 17
0.0
 27
0.0
 37
0.0
 40
297.0
 41
1.9729729729
 42
50.0
 43
0.0
 44
0.0
 50
0.0
 51
0.0
 71
     0
 72
   100
 73
     1
 74
     3
 75
     0
 76
     0
 77
     0
 78
     0
281
     0
 65
     1
110
0.0
120
0.0
130
0.0
111
1.0
121
0.0
131
0.0
112
0.0
122
1.0
132
0.0
 79
     0
146
0.0
  0
ENDTAB
  0
TABLE
  2
LTYPE
  5
5
330
0
100
AcDbSymbolTable
 70
     2
  0
LTYPE
  5
14
330
5
100
AcDbSymbolTableRecord
100
AcDbLinetypeTableRecord
  2
ByBlock
 70
     0
  3

 72
    65
 73
     0
 40
0.0
  0
LTYPE
  5
15
330
5
100
AcDbSymbolTableRecord
100
AcDbLinetypeTableRecord
  2
ByLayer
 70
     0
  3

 72
    65
 73
     0
 40
0.0
  0
LTYPE
  5
16
330
5
100
AcDbSymbolTableRecord
100
AcDbLinetypeTableRecord
  2
Continuous
 70
     0
  3
Solid line
 72
    65
 73
     0
 40
0.0
  0
LTYPE
  5
60
330
5
100
AcDbSymbolTableRecord
100
AcDbLinetypeTableRecord
  2
CENTER2
 70
     0
  3
Center (.5x) ___ _ ___ _ ___ _ ___ _ ___ _ ___
 72
    65
 73
     4
 40
28.575
 49
19.05
 74
     4
 75
     0
340
0
 46
0.0
 50
0.0
 44
0.0
 45
0.0
 49
-3.175
 74
     4
 75
     0
340
0
 46
0.0
 50
0.0
 44
0.0
 45
0.0
 49
3.175
 74
     4
 75
     0
340
0
 46
0.0
 50
0.0
 44
0.0
 45
0.0
 49
-3.175
 74
     4
 75
     0
340
0
 46
0.0
 50
0.0
 44
0.0
 45
0.0
  0
ENDTAB
  0
TABLE
  2
LAYER
  5
2
330
0
100
AcDbSymbolTable
 70
     5
  0
LAYER
  5
10
330
2
100
AcDbSymbolTableRecord
100
AcDbLayerTableRecord
  2
0
 70
     0
 62
     7
  6
Continuous
370
    -3
390
F
  0
LAYER
  5
5D
330
2
100
AcDbSymbolTableRecord
100
AcDbLayerTableRecord
  2
Default
 70
     0
 62
     7
  6
Continuous
370
    -3
390
F
  0
LAYER
  5
9E
330
2
100
AcDbSymbolTableRecord
100
AcDbLayerTableRecord
  2
DV1_Default
 70
     0
 62
     7
  6
Continuous
370
    -3
390
F
  0
LAYER
  5
1FB
330
2
100
AcDbSymbolTableRecord
100
AcDbLayerTableRecord
  2
DV2_Default
 70
     0
 62
     7
  6
Continuous
370
    -3
390
F
  0
LAYER
  5
28B
330
2
100
AcDbSymbolTableRecord
100
AcDbLayerTableRecord
  2
DV3_Default
 70
     0
 62
     7
  6
Continuous
370
    -3
390
F
  0
ENDTAB
  0
TABLE
  2
STYLE
  5
3
330
0
100
AcDbSymbolTable
 70
     2
  0
STYLE
  5
11
330
3
100
AcDbSymbolTableRecord
100
AcDbTextStyleTableRecord
  2
Standard
 70
     0
 40
0.0
 41
1.0
 50
0.0
 71
     0
 42
2.5
  3
txt
  4

  0
STYLE
  5
331
330
3
100
AcDbSymbolTableRecord
100
AcDbTextStyleTableRecord
  2
SEACAD_seiso_ttf
 70
     0
 40
0.0
 41
1.0
 50
0.0
 71
     0
 42
0.2
  3
seiso.ttf
  4

  0
ENDTAB
  0
TABLE
  2
VIEW
  5
6
330
0
100
AcDbSymbolTable
 70
     0
  0
ENDTAB
  0
TABLE
  2
UCS
  5
7
330
0
100
AcDbSymbolTable
 70
     0
  0
ENDTAB
  0
TABLE
  2
APPID
  5
9
330
0
100
AcDbSymbolTable
 70
     1
  0
APPID
  5
12
330
9
100
AcDbSymbolTableRecord
100
AcDbRegAppTableRecord
  2
ACAD
 70
     0
  0
ENDTAB
  0
TABLE
  2
DIMSTYLE
  5
A
330
0
100
AcDbSymbolTable
 70
     1
100
AcDbDimStyleTable
  0
DIMSTYLE
105
27
330
A
100
AcDbSymbolTableRecord
100
AcDbDimStyleTableRecord
  2
ISO-25
 70
     0
 41
2.5
 42
0.625
 43
3.75
 44
1.25
 73
     0
 74
     0
 77
     1
 78
     8
140
2.5
141
2.5
143
0.0393700787
147
0.625
171
     3
172
     1
271
     2
272
     2
274
     3
278
    44
283
     0
284
     8
340
11
  0
ENDTAB
  0
TABLE
  2
BLOCK_RECORD
  5
1
330
0
100
AcDbSymbolTable
 70
    14
  0
BLOCK_RECORD
  5
1F
330
1
100
AcDbSymbolTableRecord
100
AcDbBlockTableRecord
  2
*Model_Space
340
22
  0
BLOCK_RECORD
  5
1B
330
1
100
AcDbSymbolTableRecord
100
AcDbBlockTableRecord
  2
*Paper_Space
340
1E
  0
BLOCK_RECORD
  5
5E
330
1
100
AcDbSymbolTableRecord
100
AcDbBlockTableRecord
  2
SEANNOT_GROUP
340
0
102
{BLKREFS
331
5F
102
}
  0
BLOCK_RECORD
  5
65
330
1
100
AcDbSymbolTableRecord
100
AcDbBlockTableRecord
  2
SEANNOT_GROUP1
340
0
102
{BLKREFS
331
66
102
}
  0
BLOCK_RECORD
  5
6B
330
1
100
AcDbSymbolTableRecord
100
AcDbBlockTableRecord
  2
SEANNOT_GROUP2
340
0
102
{BLKREFS
331
6C
102
}
  0
BLOCK_RECORD
  5
71
330
1
100
AcDbSymbolTableRecord
100
AcDbBlockTableRecord
  2
SEANNOT_GROUP3
340
0
102
{BLKREFS
331
72
102
}
  0
BLOCK_RECORD
  5
77
330
1
100
AcDbSymbolTableRecord
100
AcDbBlockTableRecord
  2
SEANNOT_GROUP4
340
0
102
{BLKREFS
331
78
102
}
  0
BLOCK_RECORD
  5
7D
330
1
100
AcDbSymbolTableRecord
100
AcDbBlockTableRecord
  2
SEANNOT_GROUP5
340
0
102
{BLKREFS
331
7E
102
}
  0
BLOCK_RECORD
  5
83
330
1
100
AcDbSymbolTableRecord
100
AcDbBlockTableRecord
  2
SEANNOT_GROUP6
340
0
102
{BLKREFS
331
84
102
}
  0
BLOCK_RECORD
  5
89
330
1
100
AcDbSymbolTableRecord
100
AcDbBlockTableRecord
  2
SEANNOT_GROUP7
340
0
102
{BLKREFS
331
8A
102
}
  0
BLOCK_RECORD
  5
90
330
1
100
AcDbSymbolTableRecord
100
AcDbBlockTableRecord
  2
SEANNOT_GROUP8
340
0
102
{BLKREFS
331
91
102
}
  0
BLOCK_RECORD
  5
96
330
1
100
AcDbSymbolTableRecord
100
AcDbBlockTableRecord
  2
SEANNOT_GROUP9
340
0
102
{BLKREFS
331
97
102
}
  0
BLOCK_RECORD
  5
9C
330
1
100
AcDbSymbolTableRecord
100
AcDbBlockTableRecord
  2
SE
340
0
102
{BLKREFS
331
9D
102
}
  0
BLOCK_RECORD
  5
1F9
330
1
100
AcDbSymbolTableRecord
100
AcDbBlockTableRecord
  2
SE1
340
0
102
{BLKREFS
331
1FA
102
}
  0
BLOCK_RECORD
  5
289
330
1
100
AcDbSymbolTableRecord
100
AcDbBlockTableRecord
  2
SE2
340
0
102
{BLKREFS
331
28A
102
}
  0
ENDTAB
  0
ENDSEC
  0
SECTION
  2
BLOCKS
  0
BLOCK
  5
20
330
1F
100
AcDbEntity
  8
0
100
AcDbBlockBegin
  2
*Model_Space
 70
     0
 10
0.0
 20
0.0
 30
0.0
  3
*Model_Space
  1

  0
ENDBLK
  5
21
330
1F
100
AcDbEntity
  8
0
100
AcDbBlockEnd
  0
BLOCK
  5
1C
330
1B
100
AcDbEntity
 67
     1
  8
0
100
AcDbBlockBegin
  2
*Paper_Space
 70
     0
 10
0.0
 20
0.0
 30
0.0
  3
*Paper_Space
  1

  0
ENDBLK
  5
1D
330
1B
100
AcDbEntity
 67
     1
  8
0
100
AcDbBlockEnd
  0
BLOCK
  5
63
330
5E
100
AcDbEntity
  8
0
100
AcDbBlockBegin
  2
SEANNOT_GROUP
 70
     0
 10
0.0
 20
0.0
 30
0.0
  3
SEANNOT_GROUP
  1

  0
LINE
  5
61
330
5E
100
AcDbEntity
  8
Default
  6
CENTER2
 62
     7
100
AcDbLine
 10
209.3941639273
 20
641.0795314429
 30
0.0
 11
169.3941648214
 21
641.0795314429
 31
0.0
  0
LINE
  5
62
330
5E
100
AcDbEntity
  8
Default
  6
CENTER2
 62
     7
100
AcDbLine
 10
189.3941643744
 20
661.0795309959
 30
0.0
 11
189.3941643744
 21
621.07953189
 31
0.0
  0
ENDBLK
  5
64
330
5E
100
AcDbEntity
  8
0
100
AcDbBlockEnd
  0
BLOCK
  5
69
330
65
100
AcDbEntity
  8
0
100
AcDbBlockBegin
  2
SEANNOT_GROUP1
 70
     0
 10
0.0
 20
0.0
 30
0.0
  3
SEANNOT_GROUP1
  1

  0
LINE
  5
67
330
65
100
AcDbEntity
  8
Default
  6
CENTER2
 62
     7
100
AcDbLine
 10
309.3941639291
 20
641.0795314429
 30
0.0
 11
269.3941648232
 21
641.0795314429
 31
0.0
  0
LINE
  5
68
330
65
100
AcDbEntity
  8
Default
  6
CENTER2
 62
     7
100
AcDbLine
 10
289.3941643762
 20
661.0795309959
 30
0.0
 11
289.3941643762
 21
621.07953189
 31
0.0
  0
ENDBLK
  5
6A
330
65
100
AcDbEntity
  8
0
100
AcDbBlockEnd
  0
BLOCK
  5
6F
330
6B
100
AcDbEntity
  8
0
100
AcDbBlockBegin
  2
SEANNOT_GROUP2
 70
     0
 10
0.0
 20
0.0
 30
0.0
  3
SEANNOT_GROUP2
  1

  0
LINE
  5
6D
330
6B
100
AcDbEntity
  8
Default
  6
CENTER2
 62
     7
100
AcDbLine
 10
169.3941648209
 20
785.9958418822
 30
0.0
 11
209.3941639269
 21
785.9958418797
 31
0.0
  0
LINE
  5
6E
330
6B
100
AcDbEntity
  8
Default
  6
CENTER2
 62
     7
100
AcDbLine
 10
189.3941643726
 20
765.995842328
 30
0.0
 11
189.3941643752
 21
805.9958414339
 31
0.0
  0
ENDBLK
  5
70
330
6B
100
AcDbEntity
  8
0
100
AcDbBlockEnd
  0
BLOCK
  5
75
330
71
100
AcDbEntity
  8
0
100
AcDbBlockBegin
  2
SEANNOT_GROUP3
 70
     0
 10
0.0
 20
0.0
 30
0.0
  3
SEANNOT_GROUP3
  1

  0
LINE
  5
73
330
71
100
AcDbEntity
  8
Default
  6
CENTER2
 62
     7
100
AcDbLine
 10
555.4192796506
 20
641.0795314429
 30
0.0
 11
515.4192805447
 21
641.0795314429
 31
0.0
  0
LINE
  5
74
330
71
100
AcDbEntity
  8
Default
  6
CENTER2
 62
     7
100
AcDbLine
 10
535.4192800977
 20
661.0795309959
 30
0.0
 11
535.4192800977
 21
621.07953189
 31
0.0
  0
ENDBLK
  5
76
330
71
100
AcDbEntity
  8
0
100
AcDbBlockEnd
  0
BLOCK
  5
7B
330
77
100
AcDbEntity
  8
0
100
AcDbBlockBegin
  2
SEANNOT_GROUP4
 70
     0
 10
0.0
 20
0.0
 30
0.0
  3
SEANNOT_GROUP4
  1

  0
LINE
  5
79
330
77
100
AcDbEntity
  8
Default
  6
CENTER2
 62
     7
100
AcDbLine
 10
731.0130985608
 20
785.9985545437
 30
0.0
 11
691.0130994549
 21
785.9985545437
 31
0.0
  0
LINE
  5
7A
330
77
100
AcDbEntity
  8
Default
  6
CENTER2
 62
     7
100
AcDbLine
 10
711.0130990079
 20
805.9985540967
 30
0.0
 11
711.0130990079
 21
765.9985549908
 31
0.0
  0
ENDBLK
  5
7C
330
77
100
AcDbEntity
  8
0
100
AcDbBlockEnd
  0
BLOCK
  5
81
330
7D
100
AcDbEntity
  8
0
100
AcDbBlockBegin
  2
SEANNOT_GROUP5
 70
     0
 10
0.0
 20
0.0
 30
0.0
  3
SEANNOT_GROUP5
  1

  0
LINE
  5
7F
330
7D
100
AcDbEntity
  8
Default
  6
CENTER2
 62
     7
100
AcDbLine
 10
109.391888532
 20
307.9125659963
 30
0.0
 11
69.3918894261
 21
307.9125659963
 31
0.0
  0
LINE
  5
80
330
7D
100
AcDbEntity
  8
Default
  6
CENTER2
 62
     7
100
AcDbLine
 10
89.391888979
 20
327.9125655493
 30
0.0
 11
89.391888979
 21
287.9125664434
 31
0.0
  0
ENDBLK
  5
82
330
7D
100
AcDbEntity
  8
0
100
AcDbBlockEnd
  0
BLOCK
  5
87
330
83
100
AcDbEntity
  8
0
100
AcDbBlockBegin
  2
SEANNOT_GROUP6
 70
     0
 10
0.0
 20
0.0
 30
0.0
  3
SEANNOT_GROUP6
  1

  0
LINE
  5
85
330
83
100
AcDbEntity
  8
Default
  6
CENTER2
 62
     7
100
AcDbLine
 10
209.3941639273
 20
307.9125659939
 30
0.0
 11
169.3941648214
 21
307.9125659939
 31
0.0
  0
LINE
  5
86
330
83
100
AcDbEntity
  8
Default
  6
CENTER2
 62
     7
100
AcDbLine
 10
189.3941643744
 20
327.9125655468
 30
0.0
 11
189.3941643744
 21
287.9125664409
 31
0.0
  0
ENDBLK
  5
88
330
83
100
AcDbEntity
  8
0
100
AcDbBlockEnd
  0
BLOCK
  5
8D
330
89
100
AcDbEntity
  8
0
100
AcDbBlockBegin
  2
SEANNOT_GROUP7
 70
     0
 10
0.0
 20
0.0
 30
0.0
  3
SEANNOT_GROUP7
  1

  0
LINE
  5
8B
330
89
100
AcDbEntity
  8
Default
  6
CENTER2
 62
     7
100
AcDbLine
 10
309.3964393226
 20
307.9125659914
 30
0.0
 11
269.3964402167
 21
307.9125659914
 31
0.0
  0
LINE
  5
8C
330
89
100
AcDbEntity
  8
Default
  6
CENTER2
 62
     7
100
AcDbLine
 10
289.3964397697
 20
327.9125655443
 30
0.0
 11
289.3964397697
 21
287.9125664384
 31
0.0
  0
ENDBLK
  5
8E
330
89
100
AcDbEntity
  8
0
100
AcDbBlockEnd
  0
BLOCK
  5
94
330
90
100
AcDbEntity
  8
0
100
AcDbBlockBegin
  2
SEANNOT_GROUP8
 70
     0
 10
0.0
 20
0.0
 30
0.0
  3
SEANNOT_GROUP8
  1

  0
LINE
  5
92
330
90
100
AcDbEntity
  8
Default
  6
CENTER2
 62
     7
100
AcDbLine
 10
209.3969690613
 20
132.3186174298
 30
0.0
 11
169.3969699554
 21
132.3186174298
 31
0.0
  0
LINE
  5
93
330
90
100
AcDbEntity
  8
Default
  6
CENTER2
 62
     7
100
AcDbLine
 10
189.3969695084
 20
152.3186169827
 30
0.0
 11
189.3969695084
 21
112.3186178768
 31
0.0
  0
ENDBLK
  5
95
330
90
100
AcDbEntity
  8
0
100
AcDbBlockEnd
  0
BLOCK
  5
9A
330
96
100
AcDbEntity
  8
0
100
AcDbBlockBegin
  2
SEANNOT_GROUP9
 70
     0
 10
0.0
 20
0.0
 30
0.0
  3
SEANNOT_GROUP9
  1

  0
LINE
  5
98
330
96
100
AcDbEntity
  8
Default
  6
CENTER2
 62
     7
100
AcDbLine
 10
109.3941639273
 20
641.2920281396
 30
0.0
 11
69.3941648214
 21
641.2920281396
 31
0.0
  0
LINE
  5
99
330
96
100
AcDbEntity
  8
Default
  6
CENTER2
 62
     7
100
AcDbLine
 10
89.3941643743
 20
661.2920276926
 30
0.0
 11
89.3941643743
 21
621.2920285867
 31
0.0
  0
ENDBLK
  5
9B
330
96
100
AcDbEntity
  8
0
100
AcDbBlockEnd
  0
BLOCK
  5
1F7
330
9C
100
AcDbEntity
  8
0
100
AcDbBlockBegin
  2
SE
 70
     0
 10
0.0
 20
0.0
 30
0.0
  3
SE
  1

  0
SPLINE
  5
9F
330
9C
100
AcDbEntity
  8
DV1_Default
  6
Continuous
 62
     7
100
AcDbSpline
210
0.0
220
0.0
230
1.0
 70
    12
 71
     3
 72
    20
 73
    16
 74
     0
 42
0.0000000006248447
 43
0.0000000001
 40
0.0
 40
0.0
 40
0.0
 40
0.0
 40
0.079304337413136
 40
0.1586086748262721
 40
0.2379130122394081
 40
0.3172173496524918
 40
0.396521687065811
 40
0.4758260244788686
 40
0.555130361891926
 40
0.6344346993049836
 40
0.7137390367183029
 40
0.7930433741313603
 40
0.8723477115444178
 40
0.9516520489577371
 40
1.0
 40
1.0
 40
1.0
 40
1.0
 10
189.3941277634233
 20
797.5186313013177
 30
0.0
 41
1.0
 10
188.7084727590361
 20
797.5186279985176
 30
0.0
 41
1.0
 10
187.4174487399878
 20
797.4963745437176
 30
0.0
 41
1.0
 10
185.6966039049588
 20
797.4165390548176
 30
0.0
 41
1.0
 10
184.2646921824948
 20
797.3142381126174
 30
0.0
 41
1.0
 10
182.8514189199798
 20
797.1806218067176
 30
0.0
 41
1.0
 10
181.4156363000678
 20
797.0054509813176
 30
0.0
 41
1.0
 10
180.0707968566518
 20
796.8000953273175
 30
0.0
 41
1.0
 10
178.8196855717388
 20
796.5668341046176
 30
0.0
 41
1.0
 10
177.6554246747188
 20
796.3033921319176
 30
0.0
 41
1.0
 10
176.5963746433088
 20
796.0113567826176
 30
0.0
 41
1.0
 10
175.6531770787088
 20
795.6952872324175
 30
0.0
 41
1.0
 10
174.8295936003788
 20
795.3584656542175
 30
0.0
 41
1.0
 10
174.22115592292
 20
795.0502048702452
 30
0.0
 41
1.0
 10
173.9014505412761
 20
794.8538484454912
 30
0.0
 41
1.0
 10
173.7884997918693
 20
794.77869314193
 30
0.0
 41
1.0
  0
SPLINE
  5
A0
330
9C
100
AcDbEntity
  8
DV1_Default
  6
Continuous
 62
     7
100
AcDbSpline
210
0.0
220
0.0
230
1.0
 70
    12
 71
     3
 72
    20
 73
    16
 74
     0
 42
0.000000000624873
 43
0.0000000001
 40
0.0
 40
0.0
 40
0.0
 40
0.0
 40
0.048310844328371
 40
0.1276182739678479
 40
0.206925703607063
 40
0.2862331332462781
 40
0.365540562885755
 40
0.4448479925249704
 40
0.5241554221641855
 40
0.6034628518034006
 40
0.6827702814428775
 40
0.7620777110820927
 40
0.8413851407213081
 40
0.920692570360785
 40
1.0
 40
1.0
 40
1.0
 40
1.0
 10
204.9991689584103
 20
794.7791436620636
 30
0.0
 41
1.0
 10
204.886130916964
 20
794.854331771043
 30
0.0
 41
1.0
 10
204.5660238224376
 20
795.0508655099673
 30
0.0
 41
1.0
 10
203.9568547253188
 20
795.3593391314175
 30
0.0
 41
1.0
 10
203.1328346277888
 20
795.6961448537176
 30
0.0
 41
1.0
 10
202.1894990999588
 20
796.0121092312176
 30
0.0
 41
1.0
 10
201.1298899532088
 20
796.3041543744176
 30
0.0
 41
1.0
 10
199.9653637449888
 20
796.5675055911175
 30
0.0
 41
1.0
 10
198.7150090957578
 20
796.8005124641176
 30
0.0
 41
1.0
 10
197.3714196512058
 20
797.0056150264176
 30
0.0
 41
1.0
 10
195.9370817166498
 20
797.1805965497176
 30
0.0
 41
1.0
 10
194.5244850942728
 20
797.3141718436175
 30
0.0
 41
1.0
 10
193.0921314999298
 20
797.4165210871175
 30
0.0
 41
1.0
 10
191.3710960753798
 20
797.4963705460175
 30
0.0
 41
1.0
 10
190.0798773519441
 20
797.5186292781176
 30
0.0
 41
1.0
 10
189.3941277634233
 20
797.5186313013177
 30
0.0
 41
1.0
  0
SPLINE
  5
A1
330
9C
100
AcDbEntity
  8
DV1_Default
  6
Continuous
 62
     7
100
AcDbSpline
210
0.0
220
0.0
230
1.0
 70
     8
 71
     3
 72
     8
 73
     4
 74
     0
 42
0.0000000118411383
 43
0.0000000001
 40
0.0
 40
0.0
 40
0.0
 40
0.0
 40
1.0
 40
1.0
 40
1.0
 40
1.0
 10
172.7557272560342
 20
793.9109153102872
 30
0.0
 10
172.5498316911531
 20
793.6685467774247
 30
0.0
 10
172.4251968311537
 20
793.42195875868
 30
0.0
 10
172.3874601429632
 20
793.1746216739879
 30
0.0
  0
SPLINE
  5
A2
330
9C
100
AcDbEntity
  8
DV1_Default
  6
Continuous
 62
     7
100
AcDbSpline
210
0.0
220
0.0
230
1.0
 70
     8
 71
     3
 72
    11
 73
     7
 74
     0
 42
0.0000000004541697
 43
0.0000000001
 40
0.0
 40
0.0
 40
0.0
 40
0.0
 40
0.1986896755660387
 40
0.465793116992166
 40
0.7328965584182918
 40
1.0
 40
1.0
 40
1.0
 40
1.0
 10
210.1523214766571
 20
787.3025948697582
 30
0.0
 10
209.9517798145493
 20
787.8104638278769
 30
0.0
 10
208.7928345698447
 20
788.99664897694
 30
0.0
 10
204.5352813644016
 20
790.65809920719
 30
0.0
 10
197.4417019293402
 20
791.8253378950853
 30
0.0
 10
192.0766617233184
 20
792.1002545513225
 30
0.0
 10
189.3941599026713
 20
792.1002538221176
 30
0.0
  0
SPLINE
  5
A3
330
9C
100
AcDbEntity
  8
DV1_Default
  6
Continuous
 62
     7
100
AcDbSpline
210
0.0
220
0.0
230
1.0
 70
    12
 71
     3
 72
    14
 73
    10
 74
     0
 42
0.0000000003082685
 43
0.0000000001
 40
0.0
 40
0.0
 40
0.0
 40
0.0
 40
0.1562500001381249
 40
0.3125000001181248
 40
0.4687500000982497
 40
0.6250000000786247
 40
0.7812500000587496
 40
0.9375000000394994
 40
1.0
 40
1.0
 40
1.0
 40
1.0
 10
189.3941814885924
 20
791.1791650696176
 30
0.0
 41
1.0
 10
192.0131381677608
 20
791.1791650684175
 30
0.0
 41
1.0
 10
197.2510515174588
 20
790.9102947077175
 30
0.0
 41
1.0
 10
204.1811919228788
 20
789.7713754663176
 30
0.0
 41
1.0
 10
208.7225123828188
 20
787.9971534830175
 30
0.0
 41
1.0
 10
210.2917371912388
 20
785.9721965936175
 30
0.0
 41
1.0
 10
208.6951291708788
 20
784.0079879098176
 30
0.0
 41
1.0
 10
205.224849615261
 20
782.6158613131323
 30
0.0
 41
1.0
 10
202.3408182586748
 20
781.9864228986496
 30
0.0
 41
1.0
 10
201.4630730215638
 20
781.8237381092176
 30
0.0
 41
1.0
  0
SPLINE
  5
A4
330
9C
100
AcDbEntity
  8
DV1_Default
  6
Continuous
 62
     7
100
AcDbSpline
210
0.0
220
0.0
230
1.0
 70
    12
 71
     3
 72
     9
 73
     5
 74
     0
 42
0.0000000010915739
 43
0.0000000001
 40
0.0
 40
0.0
 40
0.0
 40
0.0
 40
0.4901260940315811
 40
1.0
 40
1.0
 40
1.0
 40
1.0
 10
201.4630730215638
 20
781.8237381092176
 30
0.0
 41
1.0
 10
200.1464551647984
 20
781.5797109248663
 30
0.0
 41
1.0
 10
197.2134864842066
 20
781.1605759667023
 30
0.0
 41
1.0
 10
194.0082298112802
 20
780.9336685322967
 30
0.0
 41
1.0
 10
192.3634589786035
 20
780.8701066345795
 30
0.0
 41
1.0
  0
SPLINE
  5
A5
330
9C
100
AcDbEntity
  8
DV1_Default
  6
Continuous
 62
     7
100
AcDbSpline
210
0.0
220
0.0
230
1.0
 70
    12
 71
     3
 72
     8
 73
     4
 74
     0
 42
0.0000000033667704
 43
0.0000000001
 40
0.0
 40
0.0
 40
0.0
 40
0.0
 40
1.0
 40
1.0
 40
1.0
 40
1.0
 10
192.3634589786035
 20
780.8701066345795
 30
0.0
 41
1.0
 10
191.3731171749367
 20
780.8318350388174
 30
0.0
 41
1.0
 10
190.3789708120438
 20
780.8124636329892
 30
0.0
 41
1.0
 10
189.3941814091242
 20
780.8124636288176
 30
0.0
 41
1.0
  0
LINE
  5
A6
330
9C
100
AcDbEntity
  8
DV1_Default
  6
Continuous
 62
     7
100
AcDbLine
 10
189.3941814088
 20
780.8124636288
 30
0.0
 11
189.3941814088
 21
780.7935819715
 31
0.0
  0
SPLINE
  5
A7
330
9C
100
AcDbEntity
  8
DV1_Default
  6
Continuous
 62
     7
100
AcDbSpline
210
0.0
220
0.0
230
1.0
 70
    12
 71
     3
 72
     8
 73
     4
 74
     0
 42
0.0000000030043346
 43
0.0000000001
 40
0.0
 40
0.0
 40
0.0
 40
0.0
 40
1.0
 40
1.0
 40
1.0
 40
1.0
 10
189.3941814091242
 20
780.8124636288176
 30
0.0
 41
1.0
 10
188.2906846262486
 20
780.8124636347976
 30
0.0
 41
1.0
 10
187.1754382840227
 20
780.8367937345647
 30
0.0
 41
1.0
 10
186.0669611279047
 20
780.8847862161044
 30
0.0
 41
1.0
  0
SPLINE
  5
A8
330
9C
100
AcDbEntity
  8
DV1_Default
  6
Continuous
 62
     7
100
AcDbSpline
210
0.0
220
0.0
230
1.0
 70
    12
 71
     3
 72
     9
 73
     5
 74
     0
 42
0.0000000009923155
 43
0.0000000001
 40
0.0
 40
0.0
 40
0.0
 40
0.0
 40
0.4211438421221429
 40
1.0
 40
1.0
 40
1.0
 40
1.0
 10
186.0669611279047
 20
780.8847862161044
 30
0.0
 41
1.0
 10
184.5433015066045
 20
780.9507543831925
 30
0.0
 41
1.0
 10
180.9557624907002
 20
781.2135522846362
 30
0.0
 41
1.0
 10
177.7114992922511
 20
781.7186423522928
 30
0.0
 41
1.0
 10
176.0779642745749
 20
782.0745443786045
 30
0.0
 41
1.0
  0
SPLINE
  5
A9
330
9C
100
AcDbEntity
  8
DV1_Default
  6
Continuous
 62
     7
100
AcDbSpline
210
0.0
220
0.0
230
1.0
 70
    12
 71
     3
 72
    10
 73
     6
 74
     0
 42
0.0000000011520287
 43
0.0000000001
 40
0.0
 40
0.0
 40
0.0
 40
0.0
 40
0.0923638696940206
 40
0.5443429059900358
 40
1.0
 40
1.0
 40
1.0
 40
1.0
 10
176.0779642745749
 20
782.0745443786045
 30
0.0
 41
1.0
 10
175.6584057310943
 20
782.1659545621422
 30
0.0
 41
1.0
 10
173.280780699975
 20
782.7293748915112
 30
0.0
 41
1.0
 10
170.0816302694388
 20
784.0127295791175
 30
0.0
 41
1.0
 10
169.0204755678688
 20
785.3281278050175
 30
0.0
 41
1.0
 10
169.0245298194488
 20
785.9985545437175
 30
0.0
 41
1.0
  0
SPLINE
  5
AA
330
9C
100
AcDbEntity
  8
DV1_Default
  6
Continuous
 62
     7
100
AcDbSpline
210
0.0
220
0.0
230
1.0
 70
    12
 71
     3
 72
    11
 73
     7
 74
     0
 42
0.0000000004522075
 43
0.0000000001
 40
0.0
 40
0.0
 40
0.0
 40
0.0
 40
0.2484710758522
 40
0.4989807173126
 40
0.7494903587733
 40
1.0
 40
1.0
 40
1.0
 40
1.0
 10
169.0245298194488
 20
785.9985545437175
 30
0.0
 41
1.0
 10
169.0285186459088
 20
786.6581476204175
 30
0.0
 41
1.0
 10
170.0787849940588
 20
788.0019098225175
 30
0.0
 41
1.0
 10
174.6075170689788
 20
789.7712956482176
 30
0.0
 41
1.0
 10
181.5375234681928
 20
790.9101061149175
 30
0.0
 41
1.0
 10
186.7752924692498
 20
791.1791650709175
 30
0.0
 41
1.0
 10
189.3941814885924
 20
791.1791650696176
 30
0.0
 41
1.0
  0
ELLIPSE
  5
AB
330
9C
100
AcDbEntity
  8
DV1_Default
  6
Continuous
 62
     7
100
AcDbEllipse
 10
189.3941643739
 20
785.9958418809
 30
0.0
 11
-12.09999999998462
 21
7.744915819785092E-10
 31
0.0
210
0.0
220
0.0
230
1.0
 40
0.2544641641
 41
1.570796326811198
 42
4.712388980400963
  0
ELLIPSE
  5
AC
330
9C
100
AcDbEntity
  8
DV1_Default
  6
Continuous
 62
     7
100
AcDbEllipse
 10
189.3941643739
 20
785.9958417884
 30
0.0
 11
12.10000000001979
 21
-7.014666625337895E-10
 31
0.0
210
0.0
220
0.0
230
1.0
 40
0.2544641641
 41
1.57079632680966
 42
4.712388980399432
  0
SPLINE
  5
AD
330
9C
100
AcDbEntity
  8
DV1_Default
  6
Continuous
 62
     7
100
AcDbSpline
210
0.0
220
0.0
230
1.0
 70
     8
 71
     3
 72
     8
 73
     4
 74
     0
 42
0.0000003043279283
 43
0.0000000001
 40
0.0
 40
0.0
 40
0.0
 40
0.0
 40
1.0
 40
1.0
 40
1.0
 40
1.0
 10
168.7362422519007
 20
787.5154189695743
 30
0.0
 10
168.7415568960512
 20
787.5249416976492
 30
0.0
 10
168.7469743571286
 20
787.5344610244615
 30
0.0
 10
168.7524944155524
 20
787.5439768148439
 30
0.0
  0
SPLINE
  5
AE
330
9C
100
AcDbEntity
  8
DV1_Default
  6
Continuous
 62
     7
100
AcDbSpline
210
0.0
220
0.0
230
1.0
 70
     8
 71
     3
 72
     9
 73
     5
 74
     0
 42
0.0000000004561309
 43
0.0000000001
 40
0.0
 40
0.0
 40
0.0
 40
0.0
 40
0.45014931468115
 40
1.0
 40
1.0
 40
1.0
 40
1.0
 10
168.7524944155524
 20
787.5439768148439
 30
0.0
 10
169.4046630750589
 20
788.6682222088692
 30
0.0
 10
174.0348003273239
 20
791.05605844619
 30
0.0
 10
183.9452514374733
 20
792.1002523081154
 30
0.0
 10
189.3941599026713
 20
792.1002538221176
 30
0.0
  0
ELLIPSE
  5
AF
330
9C
100
AcDbEntity
  8
DV1_Default
  6
Continuous
 62
     7
100
AcDbEllipse
 10
189.394164374
 20
787.1709736527
 30
0.0
 11
-12.10000000003265
 21
7.744915819785092E-10
 31
0.0
210
0.0
220
0.0
230
1.0
 40
0.254464168
 41
1.570796326813056
 42
2.94958597105123
  0
ELLIPSE
  5
B0
330
9C
100
AcDbEntity
  8
DV1_Default
  6
Continuous
 62
     7
100
AcDbEllipse
 10
189.394164374
 20
787.1709736532
 30
0.0
 11
12.1000000000089
 21
-7.014666625337895E-10
 31
0.0
210
0.0
220
0.0
230
1.0
 40
0.2544641679
 41
3.339686879899691
 42
4.712388980401875
  0
SPLINE
  5
B1
330
9C
100
AcDbEntity
  8
DV1_Default
  6
Continuous
 62
     7
100
AcDbSpline
210
0.0
220
0.0
230
1.0
 70
     8
 71
     3
 72
     8
 73
     4
 74
     0
 42
0.0000000096562156
 43
0.0000000001
 40
0.0
 40
0.0
 40
0.0
 40
0.0
 40
1.0
 40
1.0
 40
1.0
 40
1.0
 10
172.8458527097182
 20
794.0497200366116
 30
0.0
 10
172.7021564749226
 20
793.967608655239
 30
0.0
 10
172.5486772018031
 20
793.6711477019412
 30
0.0
 10
172.3854148903596
 20
793.1603371767183
 30
0.0
  0
ARC
  5
B2
330
9C
100
AcDbEntity
  8
DV1_Default
  6
Continuous
 62
     7
100
AcDbCircle
 10
174.8623926269
 20
792.493829793
 30
0.0
 40
2.547003668601811
100
AcDbArc
 50
118.8768962177
 51
142.3475037287
  0
ARC
  5
B3
330
9C
100
AcDbEntity
  8
DV1_Default
  6
Continuous
 62
     7
100
AcDbCircle
 10
164.1379737695
 20
794.1623142212
 30
0.0
 40
8.309331411367822
100
AcDbArc
 50
326.3927284279
 51
353.4022556487
  0
ARC
  5
B4
330
9C
100
AcDbEntity
  8
DV1_Default
  6
Continuous
 62
     7
100
AcDbCircle
 10
214.6455282851
 20
794.1609386279
 30
0.0
 40
8.304433019518088
100
AcDbArc
 50
186.5754445041
 51
213.6168710857
  0
ARC
  5
B5
330
9C
100
AcDbEntity
  8
DV1_Default
  6
Continuous
 62
     7
100
AcDbCircle
 10
203.9246593256
 20
792.4926144892
 30
0.0
 40
2.548770350003435
100
AcDbArc
 50
37.6575867522
 51
61.1293539955
  0
SPLINE
  5
B6
330
9C
100
AcDbEntity
  8
DV1_Default
  6
Continuous
 62
     7
100
AcDbSpline
210
0.0
220
0.0
230
1.0
 70
     8
 71
     3
 72
     8
 73
     4
 74
     0
 42
0.0000000096555536
 43
0.0000000001
 40
0.0
 40
0.0
 40
0.0
 40
0.0
 40
1.0
 40
1.0
 40
1.0
 40
1.0
 10
206.402948125515
 20
793.160331379996
 30
0.0
 10
206.239679409763
 20
793.6711568513418
 30
0.0
 10
206.0861832479439
 20
793.9676341333187
 30
0.0
 10
205.9424596400576
 20
794.0497632259265
 30
0.0
  0
SPLINE
  5
B7
330
9C
100
AcDbEntity
  8
DV1_Default
  6
Continuous
 62
     7
100
AcDbSpline
210
0.0
220
0.0
230
1.0
 70
     8
 71
     3
 72
     8
 73
     4
 74
     0
 42
0.0000000962407189
 43
0.0000000001
 40
0.0
 40
0.0
 40
0.0
 40
0.0
 40
1.0
 40
1.0
 40
1.0
 40
1.0
 10
209.9515075626391
 20
787.6496872416498
 30
0.0
 10
209.9317313243542
 20
787.678728973916
 30
0.0
 10
209.9122096545479
 20
787.7073054168435
 30
0.0
 10
209.892858087195
 20
787.7354583677786
 30
0.0
  0
SPLINE
  5
B8
330
9C
100
AcDbEntity
  8
DV1_Default
  6
Continuous
 62
     7
100
AcDbSpline
210
0.0
220
0.0
230
1.0
 70
     8
 71
     3
 72
    18
 73
    14
 74
     0
 42
0.0000000004649101
 43
0.0000000001
 40
0.0
 40
0.0
 40
0.0
 40
0.0
 40
0.0582581974035455
 40
0.1617413498512335
 40
0.2762596030904899
 40
0.4015509898394845
 40
0.4911412935657207
 40
0.5856990379570806
 40
0.6852776068676854
 40
0.7632408734016809
 40
0.8439300491657403
 40
0.9272976791585796
 40
1.0
 40
1.0
 40
1.0
 40
1.0
 10
209.8001907657664
 20
787.8685580378701
 30
0.0
 10
209.6647686904365
 20
788.0600278082424
 30
0.0
 10
209.2935628243505
 20
788.541501645057
 30
0.0
 10
208.2809183186174
 20
789.3248309480776
 30
0.0
 10
206.6819206007543
 20
790.1724693990433
 30
0.0
 10
204.7350240803319
 20
790.8810923246084
 30
0.0
 10
202.5996002370186
 20
791.4455755417655
 30
0.0
 10
200.4266856120267
 20
791.8822838387744
 30
0.0
 10
198.1716304725717
 20
792.2186878213271
 30
0.0
 10
195.9129672505527
 20
792.4656077987411
 30
0.0
 10
193.7369686491245
 20
792.6328051652519
 30
0.0
 10
191.4990542902849
 20
792.7383069550792
 30
0.0
 10
190.1416376584067
 20
792.7488027367193
 30
0.0
 10
189.3940060214255
 20
792.7531141528843
 30
0.0
  0
SPLINE
  5
B9
330
9C
100
AcDbEntity
  8
DV1_Default
  6
Continuous
 62
     7
100
AcDbSpline
210
0.0
220
0.0
230
1.0
 70
     8
 71
     3
 72
    20
 73
    16
 74
     0
 42
0.000000000875276
 43
0.0000000001
 40
0.0
 40
0.0
 40
0.0
 40
0.0
 40
0.044420186157263
 40
0.1218047652127723
 40
0.202007858788187
 40
0.2854623076158686
 40
0.4018738000265179
 40
0.518668413619208
 40
0.619028332197664
 40
0.6627748682564506
 40
0.7030269272672968
 40
0.753573607277827
 40
0.8197367400680234
 40
0.9017903935809395
 40
1.0
 40
1.0
 40
1.0
 40
1.0
 10
201.7337001064564
 20
781.8559267808513
 30
0.0
 10
202.0272407436451
 20
781.909536914458
 30
0.0
 10
202.7090896246195
 20
782.0351085444846
 30
0.0
 10
203.8440799283223
 20
782.2989516971295
 30
0.0
 10
205.065713725337
 20
782.6308789853807
 30
0.0
 10
206.3540517739407
 20
783.0555115848539
 30
0.0
 10
207.6092725517514
 20
783.5770598651815
 30
0.0
 10
208.6761333834748
 20
784.1698330575796
 30
0.0
 10
209.3328474779456
 20
784.6745692140265
 30
0.0
 10
209.7062424693253
 20
785.058206513141
 30
0.0
 10
209.9396895396546
 20
785.3541882607215
 30
0.0
 10
210.1566466806523
 20
785.7218915171444
 30
0.0
 10
210.3207706885268
 20
786.204884023867
 30
0.0
 10
210.3469523511453
 20
786.8383691399079
 30
0.0
 10
210.1669345217927
 20
787.2575914752952
 30
0.0
 10
210.0435292459614
 20
787.5287478693906
 30
0.0
  0
ARC
  5
BA
330
9C
100
AcDbEntity
  8
DV1_Default
  6
Continuous
 62
     7
100
AcDbCircle
 10
189.448692537
 20
848.1220777993
 30
0.0
 40
67.32478762353142
100
AcDbArc
 50
269.9536090935
 51
272.4933186862
  0
ARC
  5
BB
330
9C
100
AcDbEntity
  8
DV1_Default
  6
Continuous
 62
     7
100
AcDbCircle
 10
189.3237525126
 20
847.4746765646
 30
0.0
 40
66.67740308637124
100
AcDbArc
 50
267.1873838186
 51
270.0605194424
  0
SPLINE
  5
BC
330
9C
100
AcDbEntity
  8
DV1_Default
  6
Continuous
 62
     7
100
AcDbSpline
210
0.0
220
0.0
230
1.0
 70
     8
 71
     3
 72
    19
 73
    15
 74
     0
 42
0.000000000985146
 43
0.0000000001
 40
0.0
 40
0.0
 40
0.0
 40
0.0
 40
0.1143862856022942
 40
0.2070087330089315
 40
0.2782651046314163
 40
0.367760313982946
 40
0.4480597203781695
 40
0.5228100870154022
 40
0.5989461733229698
 40
0.6795695715274231
 40
0.7502212633935705
 40
0.8265946106721074
 40
0.9224565200952304
 40
1.0
 40
1.0
 40
1.0
 40
1.0
 10
168.7448364313877
 20
787.5287507382262
 30
0.0
 10
168.6140869266898
 20
787.2355389264542
 30
0.0
 10
168.426901484154
 20
786.7886441814687
 30
0.0
 10
168.4819208616276
 20
786.1274549872984
 30
0.0
 10
168.702984042219
 20
785.5605649067209
 30
0.0
 10
169.061693099092
 20
785.0577179607801
 30
0.0
 10
169.5613796206109
 20
784.5867397177084
 30
0.0
 10
170.1315705362407
 20
784.1758534631471
 30
0.0
 10
170.795889915492
 20
783.7872576112684
 30
0.0
 10
171.5449189879348
 20
783.4255044185426
 30
0.0
 10
172.3872917702776
 20
783.0821869932802
 30
0.0
 10
173.3759808194074
 20
782.7397419033086
 30
0.0
 10
174.52656583716
 20
782.3997555892507
 30
0.0
 10
175.3613595161394
 20
782.2140288262726
 30
0.0
 10
175.8045179406441
 20
782.1165401419902
 30
0.0
  0
SPLINE
  5
BD
330
9C
100
AcDbEntity
  8
DV1_Default
  6
Continuous
 62
     7
100
AcDbSpline
210
0.0
220
0.0
230
1.0
 70
     8
 71
     3
 72
    18
 73
    14
 74
     0
 42
0.0000000004559732
 43
0.0000000001
 40
0.0
 40
0.0
 40
0.0
 40
0.0
 40
0.0703139047090603
 40
0.1509427915911164
 40
0.2289812702016558
 40
0.3043834733901722
 40
0.4006910796694676
 40
0.4921429461994788
 40
0.5787906293550231
 40
0.6999667522502359
 40
0.8107233438981271
 40
0.910807019920496
 40
1.0
 40
1.0
 40
1.0
 40
1.0
 10
189.3942454034271
 20
792.7531231522746
 30
0.0
 10
188.6466195884481
 20
792.7488097210211
 30
0.0
 10
187.2892130462121
 20
792.7383103367142
 30
0.0
 10
185.0513168770507
 20
792.6328045296125
 30
0.0
 10
182.8753355278249
 20
792.4656045170549
 30
0.0
 10
180.6166921472212
 20
792.2186825589066
 30
0.0
 10
178.3616434590454
 20
791.882279390684
 30
0.0
 10
176.1887791230298
 20
791.4455670194219
 30
0.0
 10
174.0532213760899
 20
790.8811049653017
 30
0.0
 10
172.1070526437381
 20
790.1723885689872
 30
0.0
 10
170.5055028703884
 20
789.3250941921199
 30
0.0
 10
169.3765050144381
 20
788.4443695368212
 30
0.0
 10
168.9655675290624
 20
787.8584017393762
 30
0.0
 10
168.7447689957495
 20
787.5305394034248
 30
0.0
  0
LINE
  5
BE
330
9C
100
AcDbEntity
  8
DV1_Default
  6
Continuous
 62
     7
100
AcDbLine
 10
159.1350351958
 20
641.0795314429
 30
0.0
 11
219.653293553
 21
641.0795314429
 31
0.0
  0
LINE
  5
BF
330
9C
100
AcDbEntity
  8
DV1_Default
  6
Continuous
 62
     7
100
AcDbLine
 10
216.8930330186
 20
644.3496891956
 30
0.0
 11
161.8952957301
 21
644.3496891956
 31
0.0
  0
LINE
  5
C0
330
9C
100
AcDbEntity
  8
DV1_Default
  6
Continuous
 62
     7
100
AcDbLine
 10
216.6240496623
 20
644.4589381256
 30
0.0
 11
162.1642790864
 21
644.4589381256
 31
0.0
  0
LINE
  5
C1
330
9C
100
AcDbEntity
  8
DV1_Default
  6
Continuous
 62
     7
100
AcDbLine
 10
166.8941643743
 20
651.0795314429
 30
0.0
 11
211.8941643743
 21
651.0795314429
 31
0.0
  0
LINE
  5
C2
330
9C
100
AcDbEntity
  8
DV1_Default
  6
Continuous
 62
     7
100
AcDbLine
 10
167.5941643744
 20
653.0795314429
 30
0.0
 11
211.1941643743
 21
653.0795314429
 31
0.0
  0
ARC
  5
C3
330
9C
100
AcDbEntity
  8
DV1_Default
  6
Continuous
 62
     7
100
AcDbCircle
 10
159.1350351958
 20
641.2795314429
 30
0.0
 40
0.2000000000207451
100
AcDbArc
 50
167.6141863108
 51
270.0
  0
ARC
  5
C4
330
9C
100
AcDbEntity
  8
DV1_Default
  6
Continuous
 62
     7
100
AcDbCircle
 10
219.653293553
 20
641.2795314429
 30
0.0
 40
0.199999999981321
100
AcDbArc
 50
270.0
 51
12.3858136895
  0
ARC
  5
C5
330
9C
100
AcDbEntity
  8
DV1_Default
  6
Continuous
 62
     7
100
AcDbCircle
 10
162.8465917782
 20
640.4644561487
 30
0.0
 40
3.999999999997281
100
AcDbArc
 50
103.7581472979
 51
167.614186321
  0
ARC
  5
C6
330
9C
100
AcDbEntity
  8
DV1_Default
  6
Continuous
 62
     7
100
AcDbCircle
 10
215.9417369705
 20
640.4644561487
 30
0.0
 40
3.99999999999727
100
AcDbArc
 50
12.385813679
 51
76.2418527021
  0
ARC
  5
C7
330
9C
100
AcDbEntity
  8
DV1_Default
  6
Continuous
 62
     7
100
AcDbCircle
 10
161.6574717181
 20
645.3209974574
 30
0.0
 40
1.000000000008386
100
AcDbArc
 50
283.7581472984
 51
300.4514031614
  0
ARC
  5
C8
330
9C
100
AcDbEntity
  8
DV1_Default
  6
Continuous
 62
     7
100
AcDbCircle
 10
217.1308570306
 20
645.3209974574
 30
0.0
 40
1.000000000006668
100
AcDbArc
 50
239.5485968386
 51
256.2418527016
  0
ARC
  5
C9
330
9C
100
AcDbEntity
  8
DV1_Default
  6
Continuous
 62
     7
100
AcDbCircle
 10
157.0962054032
 20
653.0795314429
 30
0.0
 40
10.0000000000153
100
AcDbArc
 50
300.4514031617
 51
348.463040967
  0
ARC
  5
CA
330
9C
100
AcDbEntity
  8
DV1_Default
  6
Continuous
 62
     7
100
AcDbCircle
 10
221.6921233455
 20
653.0795314429
 30
0.0
 40
10.00000000002359
100
AcDbArc
 50
191.5369590329
 51
239.5485968383
  0
ARC
  5
CB
330
9C
100
AcDbEntity
  8
DV1_Default
  6
Continuous
 62
     7
100
AcDbCircle
 10
167.6662706635
 20
651.9317942417
 30
0.0
 40
1.149999999999681
100
AcDbArc
 50
93.5948677292
 51
227.825039831
  0
ARC
  5
CC
330
9C
100
AcDbEntity
  8
DV1_Default
  6
Continuous
 62
     7
100
AcDbCircle
 10
211.1220580852
 20
651.9317942417
 30
0.0
 40
1.149999999999676
100
AcDbArc
 50
312.174960169
 51
86.4051322708
  0
SPLINE
  5
CD
330
9C
100
AcDbEntity
  8
DV1_Default
  6
Continuous
 62
     7
100
AcDbSpline
210
0.0
220
0.0
230
1.0
 70
     8
 71
     3
 72
     8
 73
     4
 74
     0
 42
0.0000000263431302
 43
0.0000000001
 40
0.0
 40
0.0
 40
0.0
 40
0.0
 40
1.0
 40
1.0
 40
1.0
 40
1.0
 10
203.7888325368187
 20
791.2518870819467
 30
0.0
 10
203.6770430430259
 20
791.2004485482094
 30
0.0
 10
203.5611432401527
 20
791.149587277715
 30
0.0
 10
203.4412672639946
 20
791.099340351449
 30
0.0
  0
LINE
  5
CE
330
9C
100
AcDbEntity
  8
DV1_Default
  6
Continuous
 62
     7
100
AcDbLine
 10
189.3941687174
 20
653.0795314429
 30
0.0
 11
211.1273933124
 21
653.0795314429
 31
0.0
  0
LINE
  5
CF
330
9C
100
AcDbEntity
  8
DV1_Default
  6
Continuous
 62
     7
100
AcDbLine
 10
189.3941687174
 20
653.0795314429
 30
0.0
 11
167.849025355
 21
653.0795314429
 31
0.0
  0
SPLINE
  5
D0
330
9C
100
AcDbEntity
  8
DV1_Default
  6
Continuous
 62
     7
100
AcDbSpline
210
0.0
220
0.0
230
1.0
 70
     8
 71
     2
 72
     6
 73
     3
 74
     0
 42
0.0000001425195469
 43
0.0000000001
 40
0.0
 40
0.0
 40
0.0
 40
1.0
 40
1.0
 40
1.0
 10
175.1252673835573
 20
791.1951273058618
 30
0.0
 10
175.1571528804998
 20
791.1809637002807
 30
0.0
 10
175.1894825270333
 20
791.1668499950543
 30
0.0
  0
ELLIPSE
  5
D1
330
9C
100
AcDbEntity
  8
DV1_Default
  6
Continuous
 62
     7
100
AcDbEllipse
 10
189.3941643744
 20
788.0814815472
 30
0.0
 11
-11.45850000004132
 21
3.219646771412954E-11
 31
0.0
210
0.0
220
0.0
230
1.0
 40
0.2544641679
 41
0.2808666005106791
 42
2.860726072971193
  0
SPLINE
  5
D2
330
9C
100
AcDbEntity
  8
DV1_Default
  6
Continuous
 62
     7
100
AcDbSpline
210
0.0
220
0.0
230
1.0
 70
     8
 71
     3
 72
    37
 73
    33
 74
     0
 42
0.0000000002333471
 43
0.0000000001
 40
0.0
 40
0.0
 40
0.0
 40
0.0
 40
0.0142208489835771
 40
0.0609925866036048
 40
0.1019364243803019
 40
0.1366352372084752
 40
0.1647938727326725
 40
0.1862052886577789
 40
0.2024099436213843
 40
0.2200780960213139
 40
0.2470453795647287
 40
0.277981567292254
 40
0.3129769670251598
 40
0.3521413957128441
 40
0.3918724794549328
 40
0.4258330049867759
 40
0.4537643146501395
 40
0.4755180572611157
 40
0.490962401796903
 40
0.501586038468998
 40
0.5171924488967303
 40
0.537947913178412
 40
0.5639784867809537
 40
0.5954552911483451
 40
0.6326063602875872
 40
0.6757329217875186
 40
0.7252311562400492
 40
0.7697647052611502
 40
0.8190435128135015
 40
0.8734834902518928
 40
0.9335949445431009
 40
0.9999999999999999
 40
0.9999999999999999
 40
0.9999999999999999
 40
0.9999999999999999
 10
205.7632571791711
 20
794.2342935557202
 30
0.0
 10
205.7365840452333
 20
794.5587288851842
 30
0.0
 10
205.6303691304454
 20
795.8932229317877
 30
0.0
 10
205.4892054185929
 20
798.2701062992521
 30
0.0
 10
205.3542637649556
 20
800.9995503654397
 30
0.0
 10
205.2640736738194
 20
803.294555161445
 30
0.0
 10
205.2038644340378
 20
805.1258697979108
 30
0.0
 10
205.1638497613789
 20
806.5366027507363
 30
0.0
 10
205.134114481825
 20
807.708516429706
 30
0.0
 10
205.1047963533706
 20
808.9871500420435
 30
0.0
 10
205.0733428270005
 20
810.5542471383345
 30
0.0
 10
205.0410650767286
 20
812.4430025328908
 30
0.0
 10
205.0106140378469
 20
814.525495878538
 30
0.0
 10
204.9821566343655
 20
816.7086664906876
 30
0.0
 10
204.9555744117822
 20
818.7853151668456
 30
0.0
 10
204.9304499337737
 20
820.5751671929694
 30
0.0
 10
204.907533394931
 20
821.9900649827608
 30
0.0
 10
204.8875838279095
 20
823.0537240571252
 30
0.0
 10
204.8718547075702
 20
823.8165509905011
 30
0.0
 10
204.8575595049997
 20
824.4697535810699
 30
0.0
 10
204.841016158558
 20
825.1845472342504
 30
0.0
 10
204.8182137271467
 20
826.1027891665896
 30
0.0
 10
204.7885773772222
 20
827.2034021715066
 30
0.0
 10
204.7516937242567
 20
828.4591139597493
 30
0.0
 10
204.7075407912524
 20
829.8339802991561
 30
0.0
 10
204.6567160286942
 20
831.28287194292
 30
0.0
 10
204.6051761553703
 20
832.6330332095823
 30
0.0
 10
204.555398487986
 20
833.8512503930349
 30
0.0
 10
204.5093785512709
 20
834.9166349663515
 30
0.0
 10
204.4671647729711
 20
835.8526279102668
 30
0.0
 10
204.4309362402071
 20
836.6343987772898
 30
0.0
 10
204.4195088283672
 20
836.9033714303536
 30
0.0
 10
204.4127670908373
 20
837.0618166557256
 30
0.0
  0
SPLINE
  5
D3
330
9C
100
AcDbEntity
  8
DV1_Default
  6
Continuous
 62
     7
100
AcDbSpline
210
0.0
220
0.0
230
1.0
 70
     8
 71
     3
 72
    40
 73
    36
 74
     0
 42
0.0000000000770706
 43
0.0000000001
 40
0.0
 40
0.0
 40
0.0
 40
0.0
 40
0.0179392515672559
 40
0.0437734976588009
 40
0.0705831795262334
 40
0.0969960831712087
 40
0.1221966503135852
 40
0.1460719835956783
 40
0.1684793863934073
 40
0.192394704730492
 40
0.2133698277185845
 40
0.2308311141599109
 40
0.2454248796500372
 40
0.257363064052103
 40
0.2663705339192194
 40
0.2744197943370797
 40
0.2809628863367445
 40
0.2893330852458127
 40
0.2996282725445308
 40
0.3119600055664178
 40
0.3264518779865139
 40
0.3432366091321378
 40
0.3645135898388048
 40
0.3889203731030834
 40
0.4166423630425564
 40
0.4478568244163315
 40
0.4814041554644475
 40
0.5568302279443489
 40
0.6318964043223954
 40
0.7060962567661847
 40
0.7792992057151378
 40
0.8405504086953406
 40
0.9009259098162564
 40
0.9603177725932704
 40
1.0
 40
1.0
 40
1.0
 40
1.0
 10
211.6343174211163
 20
653.6247042034269
 30
0.0
 10
211.5599558160081
 20
654.5068207152054
 30
0.0
 10
211.4065319951825
 20
656.3292008695278
 30
0.0
 10
211.221774608144
 20
659.5623626292687
 30
0.0
 10
211.029955768794
 20
663.0807966542051
 30
0.0
 10
210.8429805982623
 20
666.5986600301285
 30
0.0
 10
210.6532512818991
 20
669.976547409092
 30
0.0
 10
210.4711169492531
 20
673.1761536283893
 30
0.0
 10
210.2931491419741
 20
676.3172046887105
 30
0.0
 10
210.1256792900438
 20
679.3283289052952
 30
0.0
 10
209.9747405207188
 20
682.1181028372226
 30
0.0
 10
209.8499628849151
 20
684.4915820808275
 30
0.0
 10
209.7492343847729
 20
686.4606137922916
 30
0.0
 10
209.669809946527
 20
688.0511434812394
 30
0.0
 10
209.6062864219802
 20
689.3486810974106
 30
0.0
 10
209.5554083285
 20
690.4052814368708
 30
0.0
 10
209.5066244156136
 20
691.4333601977455
 30
0.0
 10
209.4539072758539
 20
692.5613228542029
 30
0.0
 10
209.390300705669
 20
693.9478466359002
 30
0.0
 10
209.3158274551467
 20
695.6075406544294
 30
0.0
 10
209.2305910015903
 20
697.5565829808072
 30
0.0
 10
209.1309067530223
 20
699.9042242294732
 30
0.0
 10
209.0166217532397
 20
702.6928876708738
 30
0.0
 10
208.8879916415846
 20
705.966738474425
 30
0.0
 10
208.7489767361263
 20
709.6791209932054
 30
0.0
 10
208.6031753460397
 20
713.7916984326433
 30
0.0
 10
208.395836176778
 20
720.0114251291849
 30
0.0
 10
208.152132453441
 20
728.1395736740669
 30
0.0
 10
207.9033880815402
 20
737.9707972517563
 30
0.0
 10
207.6838639901598
 20
747.5689147362457
 30
0.0
 10
207.483447410746
 20
756.3959937534776
 30
0.0
 10
207.290538131174
 20
764.4478193383044
 30
0.0
 10
207.1010412004902
 20
771.7437331400674
 30
0.0
 10
206.9215099670741
 20
777.990662559232
 30
0.0
 10
206.8028368622477
 20
781.7732906800036
 30
0.0
 10
206.7544824478553
 20
783.2713542913402
 30
0.0
  0
SPLINE
  5
D4
330
9C
100
AcDbEntity
  8
DV1_Default
  6
Continuous
 62
     7
100
AcDbSpline
210
0.0
220
0.0
230
1.0
 70
     8
 71
     3
 72
    23
 73
    19
 74
     0
 42
0.0000000002280748
 43
0.0000000001
 40
0.0
 40
0.0
 40
0.0
 40
0.0
 40
0.000716958097196
 40
0.0565046284386819
 40
0.1159474373378082
 40
0.1789073848733187
 40
0.2416131881601971
 40
0.3071465132540179
 40
0.3753344536630255
 40
0.4460274880963977
 40
0.5191061787179007
 40
0.5943652245534687
 40
0.6714732388580846
 40
0.7499645740960699
 40
0.8292294786031662
 40
0.9085109678557056
 40
0.9869124634850397
 40
1.0
 40
1.0
 40
1.0
 40
1.0
 10
206.4144848745602
 20
793.2191295158411
 30
0.0
 10
206.4138310389621
 20
793.2372845917748
 30
0.0
 10
206.3622961583725
 20
794.6678693849665
 30
0.0
 10
206.2557366952441
 20
797.5635906311846
 30
0.0
 10
206.0906688333855
 20
801.8770256584354
 30
0.0
 10
205.9191630033498
 20
806.1909117246194
 30
0.0
 10
205.7436325391667
 20
810.4475283919427
 30
0.0
 10
205.5668376226391
 20
814.5841534208844
 30
0.0
 10
205.3889710517915
 20
818.5957315996
 30
0.0
 10
205.2140846341463
 20
822.388514818729
 30
0.0
 10
205.0469645836282
 20
825.8588060599689
 30
0.0
 10
204.8906410254
 20
828.9599676865886
 30
0.0
 10
204.7486783172443
 20
831.6401497417925
 30
0.0
 10
204.6250967944597
 20
833.8471492866541
 30
0.0
 10
204.5240260731715
 20
835.5330891705383
 30
0.0
 10
204.4513467081864
 20
836.6316871142161
 30
0.0
 10
204.4202133745607
 20
837.0063503675875
 30
0.0
 10
204.4149852902507
 20
837.0134472106381
 30
0.0
 10
204.4144377558115
 20
837.0110024030321
 30
0.0
  0
ARC
  5
D5
330
9C
100
AcDbEntity
  8
DV1_Default
  6
Continuous
 62
     7
100
AcDbCircle
 10
189.7320076688
 20
835.9697319748
 30
0.0
 40
14.71534303941131
100
AcDbArc
 50
3.6526146128
 51
91.3096377917
  0
LINE
  5
D6
330
9C
100
AcDbEntity
  8
DV1_Default
  6
Continuous
 62
     7
100
AcDbLine
 10
211.3098458247
 20
653.1186273271
 30
0.0
 11
211.3227299273
 21
653.1190321902
 31
0.0
  0
ARC
  5
D7
330
9C
100
AcDbEntity
  8
DV1_Default
  6
Continuous
 62
     7
100
AcDbCircle
 10
211.1279606488
 20
653.5795318508
 30
0.0
 40
0.5000003050866793
100
AcDbArc
 50
292.7393474822
 51
7.6279960966
  0
ARC
  5
D8
330
9C
100
AcDbEntity
  8
DV1_Default
  6
Continuous
 62
     7
100
AcDbCircle
 10
167.6603891951
 20
653.5795872514
 30
0.0
 40
0.5000019840509602
100
AcDbArc
 50
172.4123062606
 51
247.2591882365
  0
LINE
  5
D9
330
9C
100
AcDbEntity
  8
DV1_Default
  6
Continuous
 62
     7
100
AcDbLine
 10
167.4831936514
 20
653.112443124
 30
0.0
 11
167.5560012778
 21
653.1100236322
 31
0.0
  0
ARC
  5
DA
330
9C
100
AcDbEntity
  8
DV1_Default
  6
Continuous
 62
     7
100
AcDbCircle
 10
167.687879058
 20
654.6961225954
 30
0.0
 40
1.584707140055567
100
AcDbArc
 50
264.2253288178
 51
270.0187953041
  0
ARC
  5
DB
330
9C
100
AcDbEntity
  8
DV1_Default
  6
Continuous
 62
     7
100
AcDbCircle
 10
189.0415671158
 20
835.9863243308
 30
0.0
 40
14.69882169782629
100
AcDbArc
 50
88.6308816572
 51
176.5586326257
  0
SPLINE
  5
DC
330
9C
100
AcDbEntity
  8
DV1_Default
  6
Continuous
 62
     7
100
AcDbSpline
210
0.0
220
0.0
230
1.0
 70
     8
 71
     3
 72
    21
 73
    17
 74
     0
 42
0.0000000002275378
 43
0.0000000001
 40
0.0
 40
0.0
 40
0.0
 40
0.0
 40
0.0126743725817153
 40
0.0880554620359064
 40
0.1643135732145745
 40
0.2406344405059245
 40
0.3163234837414615
 40
0.3908135231766724
 40
0.4779977988162092
 40
0.5622866768536259
 40
0.6433680312054794
 40
0.7210493095617233
 40
0.7950818931643183
 40
0.873333446419101
 40
0.946333989041901
 40
1.0
 40
1.0
 40
1.0
 40
1.0
 10
174.374317781497
 20
837.0107620346224
 30
0.0
 10
174.37384064949
 20
837.0140384820753
 30
0.0
 10
174.3692050046423
 20
837.0140452256436
 30
0.0
 10
174.3405286812788
 20
836.6764494656633
 30
0.0
 10
174.2728377539298
 20
835.6642488959802
 30
0.0
 10
174.1781650373252
 20
834.0994320751249
 30
0.0
 10
174.0618889015036
 20
832.0420544585111
 30
0.0
 10
173.9191771558959
 20
829.3742053605043
 30
0.0
 10
173.7502452616628
 20
826.0452106863618
 30
0.0
 10
173.5562012743003
 20
822.0124331442439
 30
0.0
 10
173.3523026607988
 20
817.5578858473204
 30
0.0
 10
173.1460711050793
 20
812.8476696140407
 30
0.0
 10
172.9358159483676
 20
807.8396571048326
 30
0.0
 10
172.7265304966967
 20
802.6328685251327
 30
0.0
 10
172.5359130873009
 20
797.663171669448
 30
0.0
 10
172.4191807446557
 20
794.4844071885184
 30
0.0
 10
172.3700979620955
 20
793.120098732791
 30
0.0
  0
SPLINE
  5
DD
330
9C
100
AcDbEntity
  8
DV1_Default
  6
Continuous
 62
     7
100
AcDbSpline
210
0.0
220
0.0
230
1.0
 70
     8
 71
     3
 72
    40
 73
    36
 74
     0
 42
0.0000000000770864
 43
0.0000000001
 40
0.0
 40
0.0
 40
0.0
 40
0.0
 40
0.0087433792109608
 40
0.0682083216543417
 40
0.128801018848976
 40
0.1903411906752466
 40
0.2698825020351852
 40
0.3506571156594583
 40
0.4325087292302387
 40
0.4713730672848045
 40
0.5102271713711874
 40
0.5488718824173046
 40
0.5847389783279779
 40
0.6158166748173326
 40
0.6410952889285141
 40
0.6625962598764635
 40
0.6805724129369317
 40
0.6952639707309521
 40
0.7068895466765976
 40
0.7156382187923016
 40
0.7204053262378425
 40
0.7236424546395769
 40
0.7308844682862614
 40
0.7420190226511717
 40
0.7567237109197557
 40
0.7745910984965954
 40
0.795158901546971
 40
0.8179486449167526
 40
0.8425130728494243
 40
0.8684926003628523
 40
0.8956811272842987
 40
0.9240269696262841
 40
0.9528205134578555
 40
0.9805332299094462
 40
1.0
 40
1.0
 40
1.0
 40
1.0
 10
172.032860785461
 20
783.2447727272495
 30
0.0
 10
172.0222203196073
 20
782.9147577134154
 30
0.0
 10
171.9395330201289
 20
780.333871689755
 30
0.0
 10
171.7884453929584
 20
775.3673868300126
 30
0.0
 10
171.5917640344765
 20
768.1518962028404
 30
0.0
 10
171.3870578099414
 20
759.9185816943215
 30
0.0
 10
171.1729671453676
 20
750.6144324312146
 30
0.0
 10
170.9379671687162
 20
740.2178159060157
 30
0.0
 10
170.7220098485822
 20
731.4208218022958
 30
0.0
 10
170.5236955747565
 20
724.3999004562189
 30
0.0
 10
170.3664975106578
 20
719.2579600872771
 30
0.0
 10
170.2007126621438
 20
714.2311005337947
 30
0.0
 10
170.0345609615129
 20
709.5366710594803
 30
0.0
 10
169.8798234848175
 20
705.4287564118845
 30
0.0
 10
169.7420456675938
 20
701.9562397165715
 30
0.0
 10
169.6222860866722
 20
699.0654439476511
 30
0.0
 10
169.5182790772154
 20
696.6456426922591
 30
0.0
 10
169.4305150711104
 20
694.66599342239
 30
0.0
 10
169.3592078477691
 20
693.0979966439206
 30
0.0
 10
169.307025811754
 20
691.9734427449977
 30
0.0
 10
169.2717376921683
 20
691.2234065346537
 30
0.0
 10
169.2393845144598
 20
690.5412920565503
 30
0.0
 10
169.193112012669
 20
689.5753544834795
 30
0.0
 10
169.1210613874337
 20
688.0967333576772
 30
0.0
 10
169.0236346047611
 20
686.143291149297
 30
0.0
 10
168.9017883967606
 20
683.7678968017303
 30
0.0
 10
168.7569694029096
 20
681.0306158031545
 30
0.0
 10
168.5912575965119
 20
677.9931559809613
 30
0.0
 10
168.4074732230268
 20
674.7128705699856
 30
0.0
 10
168.2096845139143
 20
671.234161664389
 30
0.0
 10
168.0024571568076
 20
667.5869255660257
 30
0.0
 10
167.7983985766237
 20
663.8041302456832
 30
0.0
 10
167.5935062158496
 20
660.0271390174032
 30
0.0
 10
167.3978252359526
 20
656.5466598254541
 30
0.0
 10
167.2336424944713
 20
654.5821932844352
 30
0.0
 10
167.1535499179589
 20
653.6246960147092
 30
0.0
  0
SPLINE
  5
DE
330
9C
100
AcDbEntity
  8
DV1_Default
  6
Continuous
 62
     7
100
AcDbSpline
210
0.0
220
0.0
230
1.0
 70
     8
 71
     3
 72
    37
 73
    33
 74
     0
 42
0.000000000233476
 43
0.0000000001
 40
0.0
 40
0.0
 40
0.0
 40
0.0
 40
0.0663919373395082
 40
0.1264935897366352
 40
0.1809265141717718
 40
0.2302005032585429
 40
0.2747310132079988
 40
0.3242273553335609
 40
0.3673535392232817
 40
0.4045052160061503
 40
0.4359831879462149
 40
0.4620151538326505
 40
0.4827719804653235
 40
0.5008913751437003
 40
0.5129682322788218
 40
0.5282996791645344
 40
0.5487229367565292
 40
0.5741391750354933
 40
0.6081025147704022
 40
0.647836831254318
 40
0.6870043740756075
 40
0.7220024858359353
 40
0.7529410229762084
 40
0.7799103255299608
 40
0.7975797902734938
 40
0.8137856422739954
 40
0.8351986890354284
 40
0.8633595430034017
 40
0.8980611496037801
 40
0.939008326504537
 40
0.9857838941372106
 40
0.9999999999999999
 40
0.9999999999999999
 40
0.9999999999999999
 40
0.9999999999999999
 10
174.3749450505752
 20
837.0385303550906
 30
0.0
 10
174.3682366845616
 20
836.8812024405827
 30
0.0
 10
174.3568628344812
 20
836.614025724099
 30
0.0
 10
174.3207203334352
 20
835.8352159149365
 30
0.0
 10
174.2785834230052
 20
834.9019048071647
 30
0.0
 10
174.2326336246179
 20
833.8389951847125
 30
0.0
 10
174.1829231873261
 20
832.6231709318873
 30
0.0
 10
174.1314467739836
 20
831.2752831827119
 30
0.0
 10
174.0806804399044
 20
829.8284961040611
 30
0.0
 10
174.0365755103619
 20
828.455371288827
 30
0.0
 10
173.9997298425628
 20
827.2010464111459
 30
0.0
 10
173.9701219748679
 20
826.1014909274767
 30
0.0
 10
173.9464220291537
 20
825.1470315124583
 30
0.0
 10
173.9285423398286
 20
824.3706906913186
 30
0.0
 10
173.9130460619223
 20
823.6522952504411
 30
0.0
 10
173.8975550075901
 20
822.8865982640249
 30
0.0
 10
173.8790694328605
 20
821.8826771846644
 30
0.0
 10
173.8573061557931
 20
820.5307643350606
 30
0.0
 10
173.8328023088685
 20
818.7851097986608
 30
0.0
 10
173.8062249373218
 20
816.7084042560123
 30
0.0
 10
173.7777731348658
 20
814.5251668830134
 30
0.0
 10
173.7473307931201
 20
812.4426513014887
 30
0.0
 10
173.7150637593955
 20
810.5539035742826
 30
0.0
 10
173.6836218157112
 20
808.9868411309905
 30
0.0
 10
173.654315182602
 20
807.7082566480951
 30
0.0
 10
173.6245924398883
 20
806.5364156428847
 30
0.0
 10
173.5845938404686
 20
805.1257301007055
 30
0.0
 10
173.5244083179146
 20
803.2944552775783
 30
0.0
 10
173.4342531436829
 20
800.9994798315607
 30
0.0
 10
173.2993628605174
 20
798.2700556977799
 30
0.0
 10
173.1582601142294
 20
795.8933205311497
 30
0.0
 10
173.0520967093378
 20
794.5589484204725
 30
0.0
 10
173.0254461261942
 20
794.2346604825611
 30
0.0
  0
LINE
  5
DF
330
9C
100
AcDbEntity
  8
DV1_Default
  6
Continuous
 62
     7
100
AcDbLine
 10
203.3941643744
 20
791.2140249323
 30
0.0
 11
203.3941643744
 21
791.2684290436
 31
0.0
  0
LINE
  5
E0
330
9C
100
AcDbEntity
  8
DV1_Default
  6
Continuous
 62
     7
100
AcDbLine
 10
175.3941643744
 20
791.2683735231
 30
0.0
 11
175.3941643744
 21
791.2140142063
 31
0.0
  0
LINE
  5
E1
330
9C
100
AcDbEntity
  8
DV1_Default
  6
Continuous
 62
     7
100
AcDbLine
 10
74.0754636247
 20
691.8795218686
 30
0.0
 11
104.712454836
 21
691.8795218671
 31
0.0
  0
SPLINE
  5
E2
330
9C
100
AcDbEntity
  8
DV1_Default
  6
Continuous
 62
     7
100
AcDbSpline
210
0.0
220
0.0
230
1.0
 70
     8
 71
     3
 72
     8
 73
     4
 74
     0
 42
0.0000000106499071
 43
0.0000000001
 40
0.0
 40
0.0
 40
0.0
 40
0.0
 40
1.0
 40
1.0
 40
1.0
 40
1.0
 10
73.5824170525482
 20
692.4309399494963
 30
0.0
 10
73.54744067435374
 20
692.1363139375255
 30
0.0
 10
73.77883694341037
 20
691.8795410551113
 30
0.0
 10
74.07546362465881
 20
691.8795218685576
 30
0.0
  0
SPLINE
  5
E3
330
9C
100
AcDbEntity
  8
DV1_Default
  6
Continuous
 62
     7
100
AcDbSpline
210
0.0
220
0.0
230
1.0
 70
     8
 71
     3
 72
     8
 73
     4
 74
     0
 42
0.0000001287694594
 43
0.0000000001
 40
0.0
 40
0.0
 40
0.0
 40
0.0
 40
1.0
 40
1.0
 40
1.0
 40
1.0
 10
73.5824170525482
 20
692.4309399494963
 30
0.0
 10
73.58346204678622
 20
692.4308375699778
 30
0.0
 10
73.6094820084554
 20
692.4307605386585
 30
0.0
 10
73.66007006774464
 20
692.430702577971
 30
0.0
  0
SPLINE
  5
E4
330
9C
100
AcDbEntity
  8
DV1_Default
  6
Continuous
 62
     7
100
AcDbSpline
210
0.0
220
0.0
230
1.0
 70
     8
 71
     3
 72
     8
 73
     4
 74
     0
 42
0.0000000106600986
 43
0.0000000001
 40
0.0
 40
0.0
 40
0.0
 40
0.0
 40
1.0
 40
1.0
 40
1.0
 40
1.0
 10
104.7124548360188
 20
691.8795218671476
 30
0.0
 10
105.008552123236
 20
691.8795287332396
 30
0.0
 10
105.2395461497175
 20
692.1362614358317
 30
0.0
 10
105.2052928041079
 20
692.4309026340858
 30
0.0
  0
ARC
  5
E5
330
9C
100
AcDbEntity
  8
DV1_Default
  6
Continuous
 62
     7
100
AcDbCircle
 10
-263.4390020781
 20
727.7896909452
 30
0.0
 40
338.8754288557623
100
AcDbArc
 50
354.0106991041
 51
355.0503598512
  0
ARC
  5
E6
330
9C
100
AcDbEntity
  8
DV1_Default
  6
Continuous
 62
     7
100
AcDbCircle
 10
438.0187660737
 20
727.5172402834
 30
0.0
 40
334.6578238729575
100
AcDbArc
 50
182.8187187662
 51
186.0180880433
  0
ARC
  5
E7
330
9C
100
AcDbEntity
  8
DV1_Default
  6
Continuous
 62
     7
100
AcDbCircle
 10
-263.4329102113
 20
727.7890745784
 30
0.0
 40
338.8693069635638
100
AcDbArc
 50
356.8245838748
 51
357.1702401196
  0
SPLINE
  5
E8
330
9C
100
AcDbEntity
  8
DV1_Default
  6
Continuous
 62
     7
100
AcDbSpline
210
0.0
220
0.0
230
1.0
 70
    12
 71
     3
 72
     8
 73
     4
 74
     0
 42
0.0000000047784363
 43
0.0000000001
 40
0.0
 40
0.0
 40
0.0
 40
0.0
 40
1.0
 40
1.0
 40
1.0
 40
1.0
 10
73.09241870515878
 20
699.8494838663476
 30
0.0
 41
1.221807751074389
 10
73.77489441005655
 20
699.7836650762611
 30
0.0
 41
0.9627393756946155
 10
74.2339472747624
 20
699.2581471164807
 30
0.0
 41
0.9306122009609312
 10
74.17273761552678
 20
698.5514817009157
 30
0.0
 41
1.125426226873337
  0
SPLINE
  5
E9
330
9C
100
AcDbEntity
  8
DV1_Default
  6
Continuous
 62
     7
100
AcDbSpline
210
0.0
220
0.0
230
1.0
 70
    12
 71
     3
 72
     8
 73
     4
 74
     0
 42
0.0000000019993205
 43
0.0000000001
 40
0.0
 40
0.0
 40
0.0
 40
0.0
 40
1.0
 40
1.0
 40
1.0
 40
1.0
 10
69.54466496315881
 20
710.7212464754975
 30
0.0
 41
1.156758526833579
 10
70.5782922752683
 20
709.2429897708699
 30
0.0
 41
1.156758526833579
 10
71.87228473752738
 20
708.3093808119256
 30
0.0
 41
1.156758526833579
 10
73.42663956505879
 20
707.9204085843176
 30
0.0
 41
1.156758526833579
  0
ARC
  5
EA
330
9C
100
AcDbEntity
  8
DV1_Default
  6
Continuous
 62
     7
100
AcDbCircle
 10
72.4999306824
 20
693.2687540528
 30
0.0
 40
6.607347950251226
100
AcDbArc
 50
84.8553151806
 51
132.9816460116
  0
SPLINE
  5
EB
330
9C
100
AcDbEntity
  8
DV1_Default
  6
Continuous
 62
     7
100
AcDbSpline
210
0.0
220
0.0
230
1.0
 70
    12
 71
     3
 72
    21
 73
    17
 74
     0
 42
0.00000000120341
 43
0.0000000001
 40
0.0
 40
0.0
 40
0.0
 40
0.0
 40
0.0560090656170231
 40
0.1263848248101214
 40
0.2017491782502738
 40
0.2792669803980721
 40
0.3566149838562447
 40
0.4313498058857499
 40
0.5023324484417419
 40
0.5718778699909844
 40
0.6435577184862812
 40
0.7181694599214905
 40
0.7933415368700677
 40
0.8670506822159585
 40
0.938004642944071
 40
1.0
 40
1.0
 40
1.0
 40
1.0
 10
73.45825575886003
 20
707.8481287448088
 30
0.0
 41
1.221807751161152
 10
73.47702043586585
 20
707.8050014665989
 30
0.0
 41
1.221807751161152
 10
73.53741138465189
 20
707.6652026580884
 30
0.0
 41
1.221807751161152
 10
73.68502241561275
 20
707.3073201579786
 30
0.0
 41
1.221807751161152
 10
73.88349550110348
 20
706.7737186163106
 30
0.0
 41
1.221807751161152
 10
74.08919149893956
 20
706.1069647415403
 30
0.0
 41
1.221807751161152
 10
74.25796883851422
 20
705.34905856877
 30
0.0
 41
1.221807751161152
 10
74.3541343462338
 20
704.5473727243747
 30
0.0
 41
1.221807751161152
 10
74.36156345708191
 20
703.742401258553
 30
0.0
 41
1.221807751161152
 10
74.28053021074422
 20
702.9539507892958
 30
0.0
 41
1.221807751161152
 10
74.11774732088574
 20
702.1936618300763
 30
0.0
 41
1.221807751161152
 10
73.89158075595826
 20
701.4900171523273
 30
0.0
 41
1.221807751161152
 10
73.6384737279736
 20
700.882486397415
 30
0.0
 41
1.221807751161152
 10
73.40220928107277
 20
700.4027896640865
 30
0.0
 41
1.221807751161152
 10
73.22357548842945
 20
700.0758506531213
 30
0.0
 41
1.221807751161152
 10
73.15026784459752
 20
699.9487325583307
 30
0.0
 41
1.221807751161152
 10
73.12721483997373
 20
699.9090511233053
 30
0.0
 41
1.221807751161152
  0
LINE
  5
EC
330
9C
100
AcDbEntity
  8
DV1_Default
  6
Continuous
 62
     7
100
AcDbLine
 10
69.5446649632
 20
710.7212464756
 30
0.0
 11
67.9952784169
 21
698.1025056913
 31
0.0
  0
ARC
  5
ED
330
9C
100
AcDbEntity
  8
DV1_Default
  6
Continuous
 62
     7
100
AcDbCircle
 10
58.6947229376
 20
704.9104687084
 30
0.0
 40
16.73336947937535
100
AcDbArc
 50
13.8428345376
 51
14.209767025
  0
ARC
  5
EE
330
9C
100
AcDbEntity
  8
DV1_Default
  6
Continuous
 62
     7
100
AcDbCircle
 10
58.6947229376
 20
704.9104687084
 30
0.0
 40
16.73336947937535
100
AcDbArc
 50
343.1258942454
 51
13.8428345376
  0
ARC
  5
EF
330
9C
100
AcDbEntity
  8
DV1_Default
  6
Continuous
 62
     7
100
AcDbCircle
 10
58.6947229376
 20
704.9104687084
 30
0.0
 40
16.73336947937535
100
AcDbArc
 50
337.6651823696
 51
343.1258942454
  0
SPLINE
  5
F0
330
9C
100
AcDbEntity
  8
DV1_Default
  6
Continuous
 62
     7
100
AcDbSpline
210
0.0
220
0.0
230
1.0
 70
     8
 71
     3
 72
    22
 73
    18
 74
     0
 42
0.0000000003506362
 43
0.0000000001
 40
0.0
 40
0.0
 40
0.0
 40
0.0
 40
0.1324261154043045
 40
0.1324261154043045
 40
0.2648522308086091
 40
0.2648522308086091
 40
0.3972783462129136
 40
0.3972783462129136
 40
0.5297044616172182
 40
0.5297044616172182
 40
0.6621305770215227
 40
0.6621305770215227
 40
0.7945566924258273
 40
0.7945566924258273
 40
0.9269828078301319
 40
0.9269828078301319
 40
0.9999999999999999
 40
0.9999999999999999
 40
0.9999999999999999
 40
0.9999999999999999
 10
103.7658364633929
 20
711.0600799470424
 30
0.0
 10
103.7651047827613
 20
711.0603543641861
 30
0.0
 10
103.3910674095036
 20
711.0603532985835
 30
0.0
 10
101.9512954505764
 20
711.0603511673783
 30
0.0
 10
100.8861273539836
 20
711.0603501017756
 30
0.0
 10
98.22577593863745
 20
711.0603479705704
 30
0.0
 10
96.63163935526842
 20
711.0603469049679
 30
0.0
 10
93.15572300540565
 20
711.0603447737627
 30
0.0
 10
91.27531086457705
 20
711.0603437081601
 30
0.0
 10
87.51300652880472
 20
711.0603415769549
 30
0.0
 10
85.63259464112083
 20
711.0603405113523
 30
0.0
 10
82.15667927185255
 20
711.0603383801472
 30
0.0
 10
80.56254341567387
 20
711.0603373145445
 30
0.0
 10
77.90219383646196
 20
711.0603351833395
 30
0.0
 10
76.83702684832411
 20
711.0603341177367
 30
0.0
 10
75.72021160483891
 20
711.0603324645815
 30
0.0
 10
75.42842624113442
 20
711.060331877029
 30
0.0
 10
75.24630200434918
 20
711.0602169893847
 30
0.0
  0
ARC
  5
F1
330
9C
100
AcDbEntity
  8
DV1_Default
  6
Continuous
 62
     7
100
AcDbCircle
 10
79.8958383531
 20
3661.2944052671
 30
0.0
 40
2949.777540917039
100
AcDbArc
 50
269.9125151228
 51
270.0785296932
  0
ARC
  5
F2
330
9C
100
AcDbEntity
  8
DV1_Default
  6
Continuous
 62
     7
100
AcDbCircle
 10
94.6568349057
 20
12609.8854184139
 30
0.0
 40
11898.37061080298
100
AcDbArc
 50
269.9483880731
 51
270.0365032581
  0
ARC
  5
F3
330
9C
100
AcDbEntity
  8
DV1_Default
  6
Continuous
 62
     7
100
AcDbCircle
 10
102.7752148524
 20
615.3915028551
 30
0.0
 40
96.1272245257414
100
AcDbArc
 50
89.6295852669
 51
90.3206147327
  0
ARC
  5
F4
330
9C
100
AcDbEntity
  8
DV1_Default
  6
Continuous
 62
     7
100
AcDbCircle
 10
91.3352533055
 20
650.1309520923
 30
0.0
 40
63.42429595744188
100
AcDbArc
 50
103.1745898597
 51
104.5586355395
  0
ARC
  5
F5
330
9C
100
AcDbEntity
  8
DV1_Default
  6
Continuous
 62
     7
100
AcDbCircle
 10
87.4522978157
 20
650.1309533572
 30
0.0
 40
63.42429463761722
100
AcDbArc
 50
75.4397238962
 51
76.8253438431
  0
ARC
  5
F6
330
9C
100
AcDbEntity
  8
DV1_Default
  6
Continuous
 62
     7
100
AcDbCircle
 10
76.7624697326
 20
712.3791312797
 30
0.0
 40
0.5055440427065826
100
AcDbArc
 50
283.3651809458
 51
359.3875691785
  0
ARC
  5
F7
330
9C
100
AcDbEntity
  8
DV1_Default
  6
Continuous
 62
     7
100
AcDbCircle
 10
102.0179866116
 20
712.3708405187
 30
0.0
 40
0.4986326063431862
100
AcDbArc
 50
179.6694179259
 51
257.2172258261
  0
ARC
  5
F8
330
9C
100
AcDbEntity
  8
DV1_Default
  6
Continuous
 62
     7
100
AcDbCircle
 10
77.7667994582
 20
712.8831629556
 30
0.0
 40
0.4998984609924157
100
AcDbArc
 50
122.03738037
 51
180.2295715465
  0
ARC
  5
F9
330
9C
100
AcDbEntity
  8
DV1_Default
  6
Continuous
 62
     7
100
AcDbCircle
 10
101.020686267
 20
712.8809252447
 30
0.0
 40
0.4986382951812095
100
AcDbArc
 50
0.025036679
 51
58.1593294937
  0
LINE
  5
FA
330
9C
100
AcDbEntity
  8
DV1_Default
  6
Continuous
 62
     7
100
AcDbLine
 10
79.9756442972
 20
714.6821435819
 30
0.0
 11
77.5030413809
 21
713.3046332856
 31
0.0
  0
LINE
  5
FB
330
9C
100
AcDbEntity
  8
DV1_Default
  6
Continuous
 62
     7
100
AcDbLine
 10
101.2839939203
 20
713.3049281955
 30
0.0
 11
98.8123918183
 21
714.6818861885
 31
0.0
  0
ARC
  5
FC
330
9C
100
AcDbEntity
  8
DV1_Default
  6
Continuous
 62
     7
100
AcDbCircle
 10
86.9003069686
 20
7939.0229638204
 30
0.0
 40
7224.342363528416
100
AcDbArc
 50
270.0904390465
 51
270.0930646909
  0
ARC
  5
FD
330
9C
100
AcDbEntity
  8
DV1_Default
  6
Continuous
 62
     7
100
AcDbCircle
 10
80.0653118994
 20
714.4972831668
 30
0.0
 40
0.2048991749491698
100
AcDbArc
 50
65.5136771811
 51
115.8745285968
  0
ARC
  5
FE
330
9C
100
AcDbEntity
  8
DV1_Default
  6
Continuous
 62
     7
100
AcDbCircle
 10
98.7221277179
 20
714.5102596381
 30
0.0
 40
0.199993571364032
100
AcDbArc
 50
62.279264171
 51
115.9238318976
  0
SPLINE
  5
FF
330
9C
100
AcDbEntity
  8
DV1_Default
  6
Continuous
 62
     7
100
AcDbSpline
210
0.0
220
0.0
230
1.0
 70
     8
 71
     3
 72
    43
 73
    39
 74
     0
 42
0.0000000006801983
 43
0.0000000001
 40
0.0
 40
0.0
 40
0.0
 40
0.0
 40
0.0020443288855762
 40
0.0144089427229152
 40
0.0277596382817339
 40
0.0420965428572606
 40
0.0574197703673615
 40
0.0737294379794864
 40
0.0910257156523298
 40
0.1093088547104606
 40
0.1285789265628266
 40
0.1488357805885218
 40
0.1700791402111278
 40
0.1923087787657987
 40
0.2155247223219225
 40
0.2397268379441532
 40
0.2649147312941512
 40
0.291088126085907
 40
0.3182472543230812
 40
0.3463921373456166
 40
0.3755226462770326
 40
0.4056391423636539
 40
0.4367415674762938
 40
0.4688292671447989
 40
0.5019022942044095
 40
0.5359609282129971
 40
0.571004949706095
 40
0.6070348858989078
 40
0.644050248102235
 40
0.6820503450699474
 40
0.7210357008785893
 40
0.7610059722485775
 40
0.8019617867386903
 40
0.8439025967041085
 40
0.8868282188309767
 40
0.9307392297604035
 40
0.9756357423607516
 40
1.0
 40
1.0
 40
1.0
 40
1.0
 10
82.77721801047952
 20
714.7638320081076
 30
0.0
 10
82.78523341286242
 20
714.7638292151406
 30
0.0
 10
82.8418562031234
 20
714.7638097027933
 30
0.0
 10
82.95268987083243
 20
714.7637750073941
 30
0.0
 10
83.11695542871794
 20
714.7637292380022
 30
0.0
 10
83.29826290488218
 20
714.7636850115223
 30
0.0
 10
83.49749357473307
 20
714.7636425565017
 30
0.0
 10
83.7155364900762
 20
714.7636023601705
 30
0.0
 10
83.95327305792907
 20
714.7635648779685
 30
0.0
 10
84.21156114389902
 20
714.7635306208928
 30
0.0
 10
84.4911741899634
 20
714.7635001083441
 30
0.0
 10
84.79282563135204
 20
714.7634738943206
 30
0.0
 10
85.11714750417582
 20
714.7634525634936
 30
0.0
 10
85.46468363196563
 20
714.7634367391444
 30
0.0
 10
85.83582009341472
 20
714.7634270543997
 30
0.0
 10
86.23075339366085
 20
714.7634241378342
 30
0.0
 10
86.64951662787468
 20
714.7634286438227
 30
0.0
 10
87.09195235906978
 20
714.763441255331
 30
0.0
 10
87.55763088087537
 20
714.7634626319359
 30
0.0
 10
88.04583743754094
 20
714.7634933998781
 30
0.0
 10
88.55558615624572
 20
714.7635341992625
 30
0.0
 10
89.08555196231147
 20
714.7635856557
 30
0.0
 10
89.63403022661126
 20
714.7636482930959
 30
0.0
 10
90.1989527368649
 20
714.763722620623
 30
0.0
 10
90.77781790492645
 20
714.7638091096445
 30
0.0
 10
91.36772927241465
 20
714.7639080798984
 30
0.0
 10
91.96533308773841
 20
714.7640198089863
 30
0.0
 10
92.56677342409125
 20
714.7641444697249
 30
0.0
 10
93.16784162375957
 20
714.7642820523247
 30
0.0
 10
93.76372058140564
 20
714.7644324802051
 30
0.0
 10
94.3492562419363
 20
714.7645954703331
 30
0.0
 10
94.91886391910498
 20
714.764770589955
 30
0.0
 10
95.46641421689644
 20
714.7649572402345
 30
0.0
 10
95.98570239877007
 20
714.7651545987072
 30
0.0
 10
96.4698243012324
 20
714.7653616787009
 30
0.0
 10
96.91207551002643
 20
714.7655772608912
 30
0.0
 10
97.24236222953795
 20
714.7657643601458
 30
0.0
 10
97.41960517619874
 20
714.7658790799534
 30
0.0
 10
97.47881288772423
 20
714.7659194183267
 30
0.0
  0
SPLINE
  5
100
330
9C
100
AcDbEntity
  8
DV1_Default
  6
Continuous
 62
     7
100
AcDbSpline
210
0.0
220
0.0
230
1.0
 70
     8
 71
     3
 72
    10
 73
     6
 74
     0
 42
0.0000000125053356
 43
0.0000000001
 40
0.0
 40
0.0
 40
0.0
 40
0.0
 40
0.419011420245022
 40
0.8380859785296709
 40
1.0
 40
1.0
 40
1.0
 40
1.0
 10
98.2738517087694
 20
714.7669560877818
 30
0.0
 10
98.24639652054901
 20
714.7669206555613
 30
0.0
 10
98.19147982652122
 20
714.7668479539095
 30
0.0
 10
97.84145116268064
 20
714.7665968667714
 30
0.0
 10
97.55907860879657
 20
714.7664087670238
 30
0.0
 10
97.47419328239427
 20
714.7663528798407
 30
0.0
  0
SPLINE
  5
101
330
9C
100
AcDbEntity
  8
DV1_Default
  6
Continuous
 62
     7
100
AcDbSpline
210
0.0
220
0.0
230
1.0
 70
     8
 71
     3
 72
    45
 73
    41
 74
     0
 42
0.0000000006172132
 43
0.0000000001
 40
0.0
 40
0.0
 40
0.0
 40
0.0
 40
0.047828406186983
 40
0.1257825661788521
 40
0.1351905013415872
 40
0.1454700346708995
 40
0.1566212636268427
 40
0.168644295756076
 40
0.1815392281772716
 40
0.1953061570009374
 40
0.2099452120338472
 40
0.2254566019688164
 40
0.2418404344339287
 40
0.2590966154913923
 40
0.277224923511356
 40
0.2962251347923057
 40
0.3160972375152439
 40
0.3368411910799787
 40
0.3584567025524614
 40
0.3809434954506706
 40
0.4043017215392855
 40
0.4285314739267958
 40
0.4536326194444427
 40
0.4796053988125182
 40
0.5064499097000125
 40
0.5341656097561215
 40
0.5627523948235018
 40
0.5922105933113133
 40
0.6225399959045202
 40
0.6537410094525109
 40
0.6858134155256926
 40
0.7187565392856533
 40
0.7525708769825117
 40
0.7872562413658553
 40
0.8228131067383403
 40
0.8592408684265457
 40
0.8965389004540544
 40
0.9347079359662371
 40
0.9737483294216642
 40
1.0
 40
1.0
 40
1.0
 40
1.0
 10
97.47419328239427
 20
714.7663528798407
 30
0.0
 10
97.3393302574371
 20
714.7662640881156
 30
0.0
 10
96.94355537080924
 20
714.7660075676325
 30
0.0
 10
96.40035028126113
 20
714.765661245928
 30
0.0
 10
95.95921643743065
 20
714.7653944475039
 30
0.0
 10
95.81635004113348
 20
714.7653157270549
 30
0.0
 10
95.65731934027633
 20
714.7652335742961
 30
0.0
 10
95.48124803683467
 20
714.7651487276343
 30
0.0
 10
95.28725088611567
 20
714.765061178137
 30
0.0
 10
95.07442968262264
 20
714.7649711804657
 30
0.0
 10
94.84189019939099
 20
714.7648789546369
 30
0.0
 10
94.58875093055208
 20
714.7647847821064
 30
0.0
 10
94.3142060018757
 20
714.7646889762317
 30
0.0
 10
94.01751271294751
 20
714.7645918980498
 30
0.0
 10
93.69800343785755
 20
714.7644939599788
 30
0.0
 10
93.35509954294285
 20
714.7643956326834
 30
0.0
 10
92.98835654709688
 20
714.7642974451605
 30
0.0
 10
92.59753201368626
 20
714.7641999704512
 30
0.0
 10
92.18254532607645
 20
714.7641038491829
 30
0.0
 10
91.74350732791414
 20
714.7640097976358
 30
0.0
 10
91.28078358706578
 20
714.7639185954625
 30
0.0
 10
90.79504336739188
 20
714.7638310593119
 30
0.0
 10
90.28722781989912
 20
714.7637480877871
 30
0.0
 10
89.75861192874973
 20
714.7636706668347
 30
0.0
 10
89.2108626948237
 20
714.7635997862457
 30
0.0
 10
88.64601727853696
 20
714.763536503791
 30
0.0
 10
88.0665519686467
 20
714.763481970581
 30
0.0
 10
87.47536000850228
 20
714.7634372932162
 30
0.0
 10
86.87578445002717
 20
714.7634036353543
 30
0.0
 10
86.27170561763626
 20
714.7633822161233
 30
0.0
 10
85.66736572143469
 20
714.7633741372232
 30
0.0
 10
85.06761005513727
 20
714.7633805879653
 30
0.0
 10
84.47769214838891
 20
714.7634026496403
 30
0.0
 10
83.90324939332694
 20
714.76344131615
 30
0.0
 10
83.3505477888348
 20
714.7634975791425
 30
0.0
 10
82.82590449346667
 20
714.7635721624952
 30
0.0
 10
82.33636677382012
 20
714.7636658084258
 30
0.0
 10
81.88882247165242
 20
714.7637789257668
 30
0.0
 10
81.53714130167708
 20
714.7638963468999
 30
0.0
 10
81.34477882152605
 20
714.7639780433534
 30
0.0
 10
81.27233673486877
 20
714.7640120558291
 30
0.0
  0
SPLINE
  5
102
330
9C
100
AcDbEntity
  8
DV1_Default
  6
Continuous
 62
     7
100
AcDbSpline
210
0.0
220
0.0
230
1.0
 70
     8
 71
     3
 72
    12
 73
     8
 74
     0
 42
0.0000000130864439
 43
0.0000000001
 40
0.0
 40
0.0
 40
0.0
 40
0.0
 40
0.0750440566469638
 40
0.2990818866124764
 40
0.5279227987941566
 40
0.7616183037237713
 40
1.0
 40
1.0
 40
1.0
 40
1.0
 10
81.27233673486877
 20
714.7640120558291
 30
0.0
 10
81.23464423138583
 20
714.7640297529359
 30
0.0
 10
81.08971093323063
 20
714.7641015404549
 30
0.0
 10
80.87154645663813
 20
714.7642368527805
 30
0.0
 10
80.66643031185127
 20
714.7644284224842
 30
0.0
 10
80.53336971092074
 20
714.7646375275301
 30
0.0
 10
80.51664064213676
 20
714.7647887200553
 30
0.0
 10
80.5081885838686
 20
714.7648687718703
 30
0.0
  0
SPLINE
  5
103
330
9C
100
AcDbEntity
  8
DV1_Default
  6
Continuous
 62
     7
100
AcDbSpline
210
0.0
220
0.0
230
1.0
 70
     8
 71
     3
 72
    14
 73
    10
 74
     0
 42
0.000000000568528
 43
0.0000000001
 40
0.0
 40
0.0
 40
0.0
 40
0.0
 40
0.2499999999999999
 40
0.2499999999999999
 40
0.4999999999999999
 40
0.4999999999999999
 40
0.7499999999999999
 40
0.7499999999999999
 40
1.0
 40
1.0
 40
1.0
 40
1.0
 10
98.18638302613792
 20
714.8384387200958
 30
0.0
 10
98.18625029646927
 20
714.8381919898121
 30
0.0
 10
97.23845475889419
 20
714.8381919856154
 30
0.0
 10
93.98242828641528
 20
714.8381919772198
 30
0.0
 10
91.69424741758326
 20
714.838191973021
 30
0.0
 10
87.08953058914959
 20
714.8381919646184
 30
0.0
 10
84.80134970548734
 20
714.8381919604145
 30
0.0
 10
81.54532318871472
 20
714.8381919520014
 30
0.0
 10
80.59752762248561
 20
714.8381919477924
 30
0.0
 10
80.5973949675842
 20
714.8384387201063
 30
0.0
  0
ARC
  5
104
330
9C
100
AcDbEntity
  8
DV1_Default
  6
Continuous
 62
     7
100
AcDbCircle
 10
86.9100623607
 20
7910.7437794258
 30
0.0
 40
7196.063200683786
100
AcDbArc
 50
269.9461775877
 51
270.0933527443
  0
SPLINE
  5
105
330
9C
100
AcDbEntity
  8
DV1_Default
  6
Continuous
 62
     7
100
AcDbSpline
210
0.0
220
0.0
230
1.0
 70
     8
 71
     3
 72
    14
 73
    10
 74
     0
 42
0.000000000530756
 43
0.0000000001
 40
0.0
 40
0.0
 40
0.0
 40
0.0
 40
0.25
 40
0.25
 40
0.5
 40
0.5
 40
0.75
 40
0.75
 40
1.0
 40
1.0
 40
1.0
 40
1.0
 10
79.9758935228588
 20
714.6816415836075
 30
0.0
 10
79.97668599495611
 20
714.679025814924
 30
0.0
 10
80.99175589101732
 20
714.677347188137
 30
0.0
 10
84.47834318151448
 20
714.6757303342108
 30
0.0
 10
86.92841897890128
 20
714.6758002408915
 30
0.0
 10
91.85941370511081
 20
714.6775733884907
 30
0.0
 10
94.30999413468516
 20
714.6792638872741
 30
0.0
 10
97.79806712936373
 20
714.6832138106208
 30
0.0
 10
98.814088961217
 20
714.6854470750496
 30
0.0
 10
98.81374339392879
 20
714.6846084296976
 30
0.0
  0
SPLINE
  5
106
330
9C
100
AcDbEntity
  8
DV1_Default
  6
Continuous
 62
     7
100
AcDbSpline
210
0.0
220
0.0
230
1.0
 70
    12
 71
     3
 72
    11
 73
     7
 74
     0
 42
0.0000000004204303
 43
0.0000000001
 40
0.0
 40
0.0
 40
0.0
 40
0.0
 40
0.4999987173477138
 40
0.4999987173477138
 40
0.4999987173477138
 40
1.0
 40
1.0
 40
1.0
 40
1.0
 10
77.5023331149588
 20
713.3057838061676
 30
0.0
 41
1.15675613686649
 10
77.50259812825844
 20
713.3043335747626
 30
0.0
 41
0.9380308519040113
 10
82.46568842664698
 20
713.3043288015838
 30
0.0
 41
0.9481997169805145
 10
89.3937757413724
 20
713.3043221386027
 30
0.0
 41
1.187262732096
 10
96.32190756335618
 20
713.3043154755694
 30
0.0
 41
0.9481984904384766
 10
101.2850048484773
 20
713.3043107023838
 30
0.0
 41
0.9380307475648245
 10
101.2837473602188
 20
713.3045276651575
 30
0.0
 41
1.156759503475044
  0
LINE
  5
107
330
9C
100
AcDbEntity
  8
DV1_Default
  6
Continuous
 62
     7
100
AcDbLine
 10
101.5193245145
 20
712.8811431359
 30
0.0
 11
77.267958307
 21
712.8811575847
 31
0.0
  0
LINE
  5
108
330
9C
100
AcDbEntity
  8
DV1_Default
  6
Continuous
 62
     7
100
AcDbLine
 10
77.2679848955
 20
712.3737276555
 30
0.0
 11
101.5193623049
 21
712.3737174861
 31
0.0
  0
SPLINE
  5
109
330
9C
100
AcDbEntity
  8
DV1_Default
  6
Continuous
 62
     7
100
AcDbSpline
210
0.0
220
0.0
230
1.0
 70
     8
 71
     3
 72
    22
 73
    18
 74
     0
 42
0.0000000003995223
 43
0.0000000001
 40
0.0
 40
0.0
 40
0.0
 40
0.0
 40
0.125
 40
0.125
 40
0.25
 40
0.25
 40
0.3749999999999999
 40
0.3749999999999999
 40
0.4999999999999999
 40
0.4999999999999999
 40
0.6249999999999999
 40
0.6249999999999999
 40
0.7499999999999999
 40
0.7499999999999999
 40
0.875
 40
0.875
 40
1.0
 40
1.0
 40
1.0
 40
1.0
 10
76.87932962414662
 20
711.8872791221651
 30
0.0
 10
76.88024895590065
 20
711.8891670039379
 30
0.0
 10
77.20637925838409
 20
711.8894752012534
 30
0.0
 10
78.46060816760814
 20
711.8899006481969
 30
0.0
 10
79.38821373411776
 20
711.8900177304769
 30
0.0
 10
81.7046542427547
 20
711.8900429532356
 30
0.0
 10
83.09257858508649
 20
711.8899510836956
 30
0.0
 10
86.11873095621198
 20
711.8895722040262
 30
0.0
 10
87.7557693943623
 20
711.8892853427321
 30
0.0
 10
91.0311347127801
 20
711.888559975926
 30
0.0
 10
92.66817403522381
 20
711.8881217554549
 30
0.0
 10
95.69432974395065
 20
711.8871602428555
 30
0.0
 10
97.08225653691981
 20
711.8866373285981
 30
0.0
 10
99.39870295235364
 20
711.8855859466264
 30
0.0
 10
100.3263119701906
 20
711.885057892111
 30
0.0
 10
101.5805479751695
 20
711.8840765929324
 30
0.0
 10
101.9066819160111
 20
711.8836237339185
 30
0.0
 10
101.907661498926
 20
711.884566063695
 30
0.0
  0
SPLINE
  5
10A
330
9C
100
AcDbEntity
  8
DV1_Default
  6
Continuous
 62
     7
100
AcDbSpline
210
0.0
220
0.0
230
1.0
 70
     8
 71
     3
 72
    10
 73
     6
 74
     0
 42
0.0000000010887496
 43
0.0000000001
 40
0.0
 40
0.0
 40
0.0
 40
0.0
 40
0.5
 40
0.5
 40
1.0
 40
1.0
 40
1.0
 40
1.0
 10
98.18638302613792
 20
714.8384387200958
 30
0.0
 10
96.84165067541784
 20
715.5618016913942
 30
0.0
 10
95.40719232950809
 20
716.1180575456689
 30
0.0
 10
92.44569256109358
 20
716.8635472108526
 30
0.0
 10
90.9188332886626
 20
717.0527351696568
 30
0.0
 10
89.3918889790454
 20
717.0526635332858
 30
0.0
  0
SPLINE
  5
10B
330
9C
100
AcDbEntity
  8
DV1_Default
  6
Continuous
 62
     7
100
AcDbSpline
210
0.0
220
0.0
230
1.0
 70
     8
 71
     3
 72
    10
 73
     6
 74
     0
 42
0.0000000010887496
 43
0.0000000001
 40
0.0
 40
0.0
 40
0.0
 40
0.0
 40
0.5
 40
0.5
 40
1.0
 40
1.0
 40
1.0
 40
1.0
 10
80.5973949675842
 20
714.8384387201063
 30
0.0
 10
81.94212732153467
 20
715.561801692113
 30
0.0
 10
83.37658566002109
 20
716.11805754357
 30
0.0
 10
86.33808541288413
 20
716.8635472069292
 30
0.0
 10
87.86494467719133
 20
717.0527351667275
 30
0.0
 10
89.3918889790454
 20
717.0526635332858
 30
0.0
  0
LINE
  5
10C
330
9C
100
AcDbEntity
  8
DV1_Default
  6
Continuous
 62
     7
100
AcDbLine
 10
67.7496044281
 20
698.1935662582
 30
0.0
 11
68.0745198229
 21
700.8397897932
 31
0.0
  0
LINE
  5
10D
330
9C
100
AcDbEntity
  8
DV1_Default
  6
Continuous
 62
     7
100
AcDbLine
 10
68.0745223354
 20
700.8398102564
 30
0.0
 11
69.2842574565
 21
710.6923121679
 31
0.0
  0
ARC
  5
10E
330
9C
100
AcDbEntity
  8
DV1_Default
  6
Continuous
 62
     7
100
AcDbCircle
 10
69.3799461994
 20
710.6159735815
 30
0.0
 40
0.1937910346138053
100
AcDbArc
 50
82.8705825068
 51
115.5543458727
  0
ARC
  5
10F
330
9C
100
AcDbEntity
  8
DV1_Default
  6
Continuous
 62
     7
100
AcDbCircle
 10
69.3793620434
 20
710.6112388472
 30
0.0
 40
0.1985616618410683
100
AcDbArc
 50
33.6434133617
 51
82.8728888866
  0
ARC
  5
110
330
9C
100
AcDbEntity
  8
DV1_Default
  6
Continuous
 62
     7
100
AcDbCircle
 10
67.860897778
 20
698.2520955167
 30
0.0
 40
0.2010852355312139
100
AcDbArc
 50
263.2354465581
 51
311.934222056
  0
ARC
  5
111
330
9C
100
AcDbEntity
  8
DV1_Default
  6
Continuous
 62
     7
100
AcDbCircle
 10
67.8602254323
 20
698.2439799876
 30
0.0
 40
0.1929472221615554
100
AcDbArc
 50
230.5063032532
 51
263.1498475673
  0
ARC
  5
112
330
9C
100
AcDbEntity
  8
DV1_Default
  6
Continuous
 62
     7
100
AcDbCircle
 10
285.7754144075
 20
675.1641793522
 30
0.0
 40
220.5259677603633
100
AcDbArc
 50
172.3287838739
 51
173.6436541088
  0
ARC
  5
113
330
9C
100
AcDbEntity
  8
DV1_Default
  6
Continuous
 62
     7
100
AcDbCircle
 10
772.1849058977
 20
619.9228268224
 30
0.0
 40
710.029382221902
100
AcDbArc
 50
172.8571272631
 51
173.1505306151
  0
ARC
  5
114
330
9C
100
AcDbEntity
  8
DV1_Default
  6
Continuous
 62
     7
100
AcDbCircle
 10
145.6279140101
 20
699.414402448
 30
0.0
 40
78.45664045942912
100
AcDbArc
 50
172.5220766576
 51
173.5626513046
  0
ARC
  5
115
330
9C
100
AcDbEntity
  8
DV1_Default
  6
Continuous
 62
     7
100
AcDbCircle
 10
70.9209318291
 20
707.1164868516
 30
0.0
 40
4.017448595166424
100
AcDbArc
 50
113.8523558658
 51
139.871879286
  0
ARC
  5
116
330
9C
100
AcDbEntity
  8
DV1_Default
  6
Continuous
 62
     7
100
AcDbCircle
 10
70.1964208203
 20
701.2603591761
 30
0.0
 40
4.008141742496659
100
AcDbArc
 50
206.073551701
 51
232.158556133
  0
ARC
  5
117
330
9C
100
AcDbEntity
  8
DV1_Default
  6
Continuous
 62
     7
100
AcDbCircle
 10
67.4641828925
 20
710.0284139946
 30
0.0
 40
0.5023355253729935
100
AcDbArc
 50
263.7235398887
 51
320.0311725703
  0
ARC
  5
118
330
9C
100
AcDbEntity
  8
DV1_Default
  6
Continuous
 62
     7
100
AcDbCircle
 10
66.1466726711
 20
699.2802516603
 30
0.0
 40
0.4997736200849326
100
AcDbArc
 50
25.9163994534
 51
82.3663123542
  0
ARC
  5
119
330
9C
100
AcDbEntity
  8
DV1_Default
  6
Continuous
 62
     7
100
AcDbCircle
 10
-792.3617953748
 20
810.0243077786
 30
0.0
 40
865.6243783852484
100
AcDbArc
 50
352.6827504449
 51
352.6878631064
  0
ARC
  5
11A
330
9C
100
AcDbEntity
  8
DV1_Default
  6
Continuous
 62
     7
100
AcDbCircle
 10
-792.3617953748
 20
810.0243077786
 30
0.0
 40
865.6243783852484
100
AcDbArc
 50
352.6878631064
 51
353.328068073
  0
ARC
  5
11B
330
9C
100
AcDbEntity
  8
DV1_Default
  6
Continuous
 62
     7
100
AcDbCircle
 10
-792.3617953748
 20
810.0243077786
 30
0.0
 40
865.6243783852484
100
AcDbArc
 50
353.328068073
 51
353.3331759504
  0
SPLINE
  5
11C
330
9C
100
AcDbEntity
  8
DV1_Default
  6
Continuous
 62
     7
100
AcDbSpline
210
0.0
220
0.0
230
1.0
 70
     8
 71
     3
 72
    20
 73
    16
 74
     0
 42
0.0000000001739946
 43
0.0000000001
 40
0.0
 40
0.0
 40
0.0
 40
0.0
 40
0.1250000000000007
 40
0.1250000000000007
 40
0.2500000000000013
 40
0.2500000000000013
 40
0.5000000000000009
 40
0.5000000000000009
 40
0.6250000000000007
 40
0.6250000000000007
 40
0.7500000000000004
 40
0.7500000000000004
 40
0.8750000000000002
 40
0.8750000000000002
 40
1.0
 40
1.0
 40
1.0
 40
1.0
 10
11.76070395555881
 20
717.3434617119976
 30
0.0
 10
13.19439429394684
 20
718.3538330598302
 30
0.0
 10
14.8444261410845
 20
719.0256784425019
 30
0.0
 10
18.31626512739018
 20
719.7965354428919
 30
0.0
 10
20.13769638331386
 20
719.8954860476289
 30
0.0
 10
25.7601463160034
 20
719.5367880355566
 30
0.0
 10
29.69371918404551
 20
718.4226552555872
 30
0.0
 10
36.33972870825361
 20
716.3556539500069
 30
0.0
 10
38.68560757574402
 20
715.6009644722873
 30
0.0
 10
43.71626122316294
 20
714.1001227407431
 30
0.0
 10
46.40194086182137
 20
713.3542351661849
 30
0.0
 10
52.09455209744804
 20
711.9829055307721
 30
0.0
 10
55.10334379123155
 20
711.3579393956329
 30
0.0
 10
61.25742734292322
 20
710.2974736888478
 30
0.0
 10
64.40581711598459
 20
709.8627191050492
 30
0.0
 10
67.4092645917588
 20
709.5290894905876
 30
0.0
  0
SPLINE
  5
11D
330
9C
100
AcDbEntity
  8
DV1_Default
  6
Continuous
 62
     7
100
AcDbSpline
210
0.0
220
0.0
230
1.0
 70
    12
 71
     3
 72
    15
 73
    11
 74
     0
 42
0.0000000001738055
 43
0.0000000001
 40
0.0
 40
0.0
 40
0.0
 40
0.0
 40
0.1216202138747085
 40
0.247103034110767
 40
0.3725858543470298
 40
0.4980686745830883
 40
0.6235514948192489
 40
0.7490343150553074
 40
0.8745171352914681
 40
1.0
 40
1.0
 40
1.0
 40
1.0
 10
66.2130621803588
 20
699.7755960903676
 30
0.0
 41
1.156759137530683
 10
63.29890300691188
 20
700.1677322237485
 30
0.0
 41
1.156759137530683
 10
57.06063734453992
 20
700.8429528250165
 30
0.0
 41
1.156759137530683
 10
47.89344906208245
 20
701.220640164331
 30
0.0
 41
1.156759137530683
 10
39.48219772071032
 20
701.0067373112821
 30
0.0
 41
1.156759137530683
 10
32.06128393511162
 20
700.5108704896234
 30
0.0
 41
1.156759137530683
 10
25.50433891370663
 20
700.2021657893789
 30
0.0
 41
1.156759137530683
 10
19.62242676767051
 20
700.6078417986877
 30
0.0
 41
1.156759137530683
 10
14.36720912109038
 20
702.2157181091084
 30
0.0
 41
1.156759137530683
 10
11.47680737233214
 20
704.3238575007022
 30
0.0
 41
1.156759137530683
 10
10.3256866928588
 20
705.6562067643575
 30
0.0
 41
1.156759137530683
  0
ARC
  5
11E
330
9C
100
AcDbEntity
  8
DV1_Default
  6
Continuous
 62
     7
100
AcDbCircle
 10
7003.8324004859
 20
-147.1083906004
 30
0.0
 40
7045.306495418607
100
AcDbArc
 50
172.9528398535
 51
173.0461616269
  0
SPLINE
  5
11F
330
9C
100
AcDbEntity
  8
DV1_Default
  6
Continuous
 62
     7
100
AcDbSpline
210
0.0
220
0.0
230
1.0
 70
    12
 71
     3
 72
     8
 73
     4
 74
     0
 42
0.0000000028698394
 43
0.0000000001
 40
0.0
 40
0.0
 40
0.0
 40
0.0
 40
1.0
 40
1.0
 40
1.0
 40
1.0
 10
8.734191029458799
 20
715.7355141910175
 30
0.0
 41
1.156758897524996
 10
9.312276278171023
 20
715.7928330621013
 30
0.0
 41
1.156758897524996
 10
10.32110301146097
 20
716.3289249552059
 30
0.0
 41
1.156758897524996
 10
11.76070395555881
 20
717.3434617119976
 30
0.0
 41
1.156758897524996
  0
SPLINE
  5
120
330
9C
100
AcDbEntity
  8
DV1_Default
  6
Continuous
 62
     7
100
AcDbSpline
210
0.0
220
0.0
230
1.0
 70
    12
 71
     3
 72
     8
 73
     4
 74
     0
 42
0.0000000028696731
 43
0.0000000001
 40
0.0
 40
0.0
 40
0.0
 40
0.0
 40
1.0
 40
1.0
 40
1.0
 40
1.0
 10
10.3256866928588
 20
705.6562067643575
 30
0.0
 41
1.156758946351854
 10
9.174166248579752
 20
706.9890178531288
 30
0.0
 41
1.156758946351854
 10
8.32493996948591
 20
707.7532636930546
 30
0.0
 41
1.156758946351854
 10
7.777928099958809
 20
707.9487116877775
 30
0.0
 41
1.156758946351854
  0
SPLINE
  5
121
330
9C
100
AcDbEntity
  8
DV1_Default
  6
Continuous
 62
     7
100
AcDbSpline
210
0.0
220
0.0
230
1.0
 70
     8
 71
     3
 72
     8
 73
     4
 74
     0
 42
0.0000001645703357
 43
0.0000000001
 40
0.0
 40
0.0
 40
0.0
 40
0.0
 40
1.0
 40
1.0
 40
1.0
 40
1.0
 10
7.777928099958809
 20
707.9487116877775
 30
0.0
 10
7.777879281826438
 20
707.9486720530372
 30
0.0
 10
7.780357682441064
 20
707.9689720384273
 30
0.0
 10
7.785264443648465
 20
708.0089225319078
 30
0.0
  0
SPLINE
  5
122
330
9C
100
AcDbEntity
  8
DV1_Default
  6
Continuous
 62
     7
100
AcDbSpline
210
0.0
220
0.0
230
1.0
 70
     8
 71
     3
 72
    14
 73
    10
 74
     0
 42
0.0000000027001451
 43
0.0000000001
 40
0.0
 40
0.0
 40
0.0
 40
0.0
 40
0.152651257564354
 40
0.152651257564354
 40
0.435100838376236
 40
0.435100838376236
 40
0.717550419188118
 40
0.717550419188118
 40
1.0
 40
1.0
 40
1.0
 40
1.0
 10
7.785264443648465
 20
708.0089225319078
 30
0.0
 10
7.791035113485639
 20
708.0559069067251
 30
0.0
 10
7.800164518671437
 20
708.1300704642135
 30
0.0
 10
7.835301031832998
 20
708.4157319675295
 30
0.0
 10
7.869042401679488
 20
708.690252806467
 30
0.0
 10
7.953554287487952
 20
709.3781464310532
 30
0.0
 10
8.00429483159909
 20
709.7912754026363
 30
0.0
 10
8.115475781517334
 20
710.6967400811079
 30
0.0
 10
8.175876763970912
 20
711.1887548668429
 30
0.0
 10
8.236633610258782
 20
711.6848187127076
 30
0.0
  0
SPLINE
  5
123
330
9C
100
AcDbEntity
  8
DV1_Default
  6
Continuous
 62
     7
100
AcDbSpline
210
0.0
220
0.0
230
1.0
 70
     8
 71
     3
 72
    14
 73
    10
 74
     0
 42
0.0000000024878922
 43
0.0000000001
 40
0.0
 40
0.0
 40
0.0
 40
0.0
 40
0.2808717464251316
 40
0.2808717464251316
 40
0.5617434928502631
 40
0.5617434928502631
 40
0.8426152392753947
 40
0.8426152392753947
 40
1.0
 40
1.0
 40
1.0
 40
1.0
 10
8.236633610258782
 20
711.6848187127076
 30
0.0
 10
8.30091529239238
 20
712.2070801116355
 30
0.0
 10
8.365554757439025
 20
712.7334185372596
 30
0.0
 10
8.48557504859196
 20
713.7109201474909
 30
0.0
 10
8.540903679190526
 20
714.1616580289318
 30
0.0
 10
8.6334412163169
 20
714.9157349080576
 30
0.0
 10
8.67060988366744
 20
715.2187458031391
 30
0.0
 10
8.709818112373508
 20
715.53860437119
 30
0.0
 10
8.720110930939912
 20
715.6226381918502
 30
0.0
 10
8.726485573397502
 20
715.6743247410877
 30
0.0
  0
SPLINE
  5
124
330
9C
100
AcDbEntity
  8
DV1_Default
  6
Continuous
 62
     7
100
AcDbSpline
210
0.0
220
0.0
230
1.0
 70
     8
 71
     3
 72
     8
 73
     4
 74
     0
 42
0.0000001618697341
 43
0.0000000001
 40
0.0
 40
0.0
 40
0.0
 40
0.0
 40
1.0
 40
1.0
 40
1.0
 40
1.0
 10
8.726485573397502
 20
715.6743247410877
 30
0.0
 10
8.731487235428686
 20
715.7148789608051
 30
0.0
 10
8.734076765986865
 20
715.7355193560037
 30
0.0
 10
8.734191029458799
 20
715.7355141910175
 30
0.0
  0
SPLINE
  5
125
330
9C
100
AcDbEntity
  8
DV1_Default
  6
Continuous
 62
     7
100
AcDbSpline
210
0.0
220
0.0
230
1.0
 70
     8
 71
     3
 72
     8
 73
     4
 74
     0
 42
0.0000001639265581
 43
0.0000000001
 40
0.0
 40
0.0
 40
0.0
 40
0.0
 40
1.0
 40
1.0
 40
1.0
 40
1.0
 10
7.785325317016756
 20
708.0092008419556
 30
0.0
 10
7.78038712772608
 20
707.9690749924183
 30
0.0
 10
7.777889051043319
 20
707.9486954582668
 30
0.0
 10
7.777928099958809
 20
707.9487116877775
 30
0.0
  0
ARC
  5
126
330
9C
100
AcDbEntity
  8
DV1_Default
  6
Continuous
 62
     7
100
AcDbCircle
 10
8.7829529129
 20
715.239850867
 30
0.0
 40
0.4980560731990891
100
AcDbArc
 50
95.6185095113
 51
133.1396185074
  0
ARC
  5
127
330
9C
100
AcDbEntity
  8
DV1_Default
  6
Continuous
 62
     7
100
AcDbCircle
 10
7.9477858915
 20
708.4208868617
 30
0.0
 40
0.5017978320478191
100
AcDbArc
 50
213.0368443952
 51
250.2145817029
  0
SPLINE
  5
128
330
9C
100
AcDbEntity
  8
DV1_Default
  6
Continuous
 62
     7
100
AcDbSpline
210
0.0
220
0.0
230
1.0
 70
    12
 71
     3
 72
     8
 73
     4
 74
     0
 42
0.0000000023755128
 43
0.0000000001
 40
0.0
 40
0.0
 40
0.0
 40
0.0
 40
1.0
 40
1.0
 40
1.0
 40
1.0
 10
7.527070897669851
 20
708.1473914221174
 30
0.0
 41
1.156759324848884
 10
6.688833940117378
 20
709.4431143836291
 30
0.0
 41
1.156759324848884
 10
6.350003055256042
 20
710.745991193595
 30
0.0
 41
1.156759324848884
 10
6.510892405158786
 20
712.0563297956376
 30
0.0
 41
1.156759324848884
  0
SPLINE
  5
129
330
9C
100
AcDbEntity
  8
DV1_Default
  6
Continuous
 62
     7
100
AcDbSpline
210
0.0
220
0.0
230
1.0
 70
    12
 71
     3
 72
     8
 73
     4
 74
     0
 42
0.0000000100831169
 43
0.0000000001
 40
0.0
 40
0.0
 40
0.0
 40
0.0
 40
1.0
 40
1.0
 40
1.0
 40
1.0
 10
6.510892405158786
 20
712.0563297956376
 30
0.0
 41
1.156758468918037
 10
6.551402445807819
 20
712.386257600442
 30
0.0
 41
1.156758468918037
 10
6.622537898728659
 20
712.7080620928884
 30
0.0
 41
1.156758468918037
 10
6.724293281122451
 20
713.0217491351347
 30
0.0
 41
1.156758468918037
  0
ARC
  5
12A
330
9C
100
AcDbEntity
  8
DV1_Default
  6
Continuous
 62
     7
100
AcDbCircle
 10
74.1530785321
 20
692.3788620099
 30
0.0
 40
0.499695332012297
100
AcDbArc
 50
173.3512194318
 51
221.9525383033
  0
SPLINE
  5
12B
330
9C
100
AcDbEntity
  8
DV1_Default
  6
Continuous
 62
     7
100
AcDbSpline
210
0.0
220
0.0
230
1.0
 70
     8
 71
     3
 72
    14
 73
    10
 74
     0
 42
0.0000000073493742
 43
0.0000000001
 40
0.0
 40
0.0
 40
0.0
 40
0.0
 40
0.1702620321366145
 40
0.3362788587082606
 40
0.4946500161469159
 40
0.6475046819843177
 40
0.8025419903716916
 40
0.9698484350404886
 40
1.0
 40
1.0
 40
1.0
 40
1.0
 10
73.12185382948944
 20
699.9199588204215
 30
0.0
 10
73.2370109080837
 20
699.9009478640347
 30
0.0
 10
73.43086455443851
 20
699.8664160407258
 30
0.0
 10
73.71092937218604
 20
699.7302802112533
 30
0.0
 10
73.92702514807698
 20
699.5698515304384
 30
0.0
 10
74.08494145150662
 20
699.4176534383655
 30
0.0
 10
74.19508162571614
 20
699.3132039683302
 30
0.0
 10
74.25208968405397
 20
699.290040561292
 30
0.0
 10
74.28119596690982
 20
699.293939595403
 30
0.0
 10
74.28558068542876
 20
699.2949071003918
 30
0.0
  0
SPLINE
  5
12C
330
9C
100
AcDbEntity
  8
DV1_Default
  6
Continuous
 62
     7
100
AcDbSpline
210
0.0
220
0.0
230
1.0
 70
     8
 71
     3
 72
    14
 73
    10
 74
     0
 42
0.0000000073587389
 43
0.0000000001
 40
0.0
 40
0.0
 40
0.0
 40
0.0
 40
0.1705757039912013
 40
0.3369249213639041
 40
0.4956898262580204
 40
0.6490830936935182
 40
0.8049000598419702
 40
0.9732857306889882
 40
1.0
 40
1.0
 40
1.0
 40
1.0
 10
73.1223687437228
 20
699.9208364702096
 30
0.0
 10
73.23760816514566
 20
699.9017908572465
 30
0.0
 10
73.43162784995555
 20
699.867206784544
 30
0.0
 10
73.71191654973863
 20
699.7310079815513
 30
0.0
 10
73.92817823907147
 20
699.5706801859164
 30
0.0
 10
74.08623841758777
 20
699.4189394719233
 30
0.0
 10
74.1965893423956
 20
699.3154465182816
 30
0.0
 10
74.25324394061808
 20
699.2935540115312
 30
0.0
 10
74.28204003389963
 20
699.2976630283662
 30
0.0
 10
74.28593647916202
 20
699.2985164010032
 30
0.0
  0
ARC
  5
12D
330
9C
100
AcDbEntity
  8
DV1_Default
  6
Continuous
 62
     7
100
AcDbCircle
 10
73.7354827333
 20
709.0126411184
 30
0.0
 40
1.207602001189845
100
AcDbArc
 50
256.4582403141
 51
357.0082718887
  0
ARC
  5
12E
330
9C
100
AcDbEntity
  8
DV1_Default
  6
Continuous
 62
     7
100
AcDbCircle
 10
75.7435120353
 20
711.0405995402
 30
0.0
 40
0.5001518887105479
100
AcDbArc
 50
105.2024670665
 51
178.2251687004
  0
ARC
  5
12F
330
9C
100
AcDbEntity
  8
DV1_Default
  6
Continuous
 62
     7
100
AcDbCircle
 10
103.0441596034
 20
711.0339065566
 30
0.0
 40
0.5001518812201691
100
AcDbArc
 50
1.7467362967
 51
74.7694357952
  0
LINE
  5
130
330
9C
100
AcDbEntity
  8
DV1_Default
  6
Continuous
 62
     7
100
AcDbLine
 10
101.5185391887
 20
712.3349113464
 30
0.0
 11
101.5185391887
 21
712.9186269457
 31
0.0
  0
LINE
  5
131
330
9C
100
AcDbEntity
  8
DV1_Default
  6
Continuous
 62
     7
100
AcDbLine
 10
77.2690115472
 20
712.9186269457
 30
0.0
 11
77.2690115472
 21
712.3349113464
 31
0.0
  0
ARC
  5
132
330
9C
100
AcDbEntity
  8
DV1_Default
  6
Continuous
 62
     7
100
AcDbCircle
 10
98.0441643743
 20
714.5739731575
 30
0.0
 40
0.3000000000981489
100
AcDbArc
 50
40.0601167444
 51
61.7512267584
  0
ARC
  5
133
330
9C
100
AcDbEntity
  8
DV1_Default
  6
Continuous
 62
     7
100
AcDbCircle
 10
80.7396136194
 20
714.5739731575
 30
0.0
 40
0.3000000000981436
100
AcDbArc
 50
118.2363764745
 51
140.4501912575
  0
ARC
  5
134
330
9C
100
AcDbEntity
  8
DV1_Default
  6
Continuous
 62
     7
100
AcDbCircle
 10
80.9530582206
 20
720.7149553128
 30
0.0
 40
6.062438263323319
100
AcDbArc
 50
264.5042483068
 51
264.6462917368
  0
ARC
  5
135
330
9C
100
AcDbEntity
  8
DV1_Default
  6
Continuous
 62
     7
100
AcDbCircle
 10
12.1207858175
 20
711.1973059708
 30
0.0
 40
5.69653297251288
100
AcDbArc
 50
130.0494500961
 51
161.3318762707
  0
ARC
  5
136
330
9C
100
AcDbEntity
  8
DV1_Default
  6
Continuous
 62
     7
100
AcDbCircle
 10
12.1722966298
 20
711.5241336163
 30
0.0
 40
5.704665643993606
100
AcDbArc
 50
183.3413920733
 51
215.8978560699
  0
LINE
  5
137
330
9C
100
AcDbEntity
  8
DV1_Default
  6
Continuous
 62
     7
100
AcDbLine
 10
274.0758739127
 20
691.8795218671
 30
0.0
 11
304.7128651241
 21
691.8795218686
 31
0.0
  0
ARC
  5
138
330
9C
100
AcDbEntity
  8
DV1_Default
  6
Continuous
 62
     7
100
AcDbCircle
 10
304.7152218899
 20
692.373550674
 30
0.0
 40
0.494034426843065
100
AcDbArc
 50
269.7266723905
 51
6.6707977353
  0
SPLINE
  5
139
330
9C
100
AcDbEntity
  8
DV1_Default
  6
Continuous
 62
     7
100
AcDbSpline
210
0.0
220
0.0
230
1.0
 70
     8
 71
     3
 72
     8
 73
     4
 74
     0
 42
0.0000000106600986
 43
0.0000000001
 40
0.0
 40
0.0
 40
0.0
 40
0.0
 40
1.0
 40
1.0
 40
1.0
 40
1.0
 10
274.0758739126988
 20
691.8795218671476
 30
0.0
 10
273.7797766254812
 20
691.8795287332396
 30
0.0
 10
273.5487825989994
 20
692.1362614358324
 30
0.0
 10
273.5830359446097
 20
692.4309026340859
 30
0.0
  0
SPLINE
  5
13A
330
9C
100
AcDbEntity
  8
DV1_Default
  6
Continuous
 62
     7
100
AcDbSpline
210
0.0
220
0.0
230
1.0
 70
     8
 71
     3
 72
    22
 73
    18
 74
     0
 42
0.000000000316851
 43
0.0000000001
 40
0.0
 40
0.0
 40
0.0
 40
0.0
 40
0.1285555688520282
 40
0.1285555688520282
 40
0.2571111377040564
 40
0.2571111377040564
 40
0.3856667065560845
 40
0.3856667065560845
 40
0.5142222754081127
 40
0.5142222754081127
 40
0.6427778442601408
 40
0.6427778442601408
 40
0.7713334131121691
 40
0.7713334131121691
 40
0.8998889819641973
 40
0.8998889819641973
 40
1.0
 40
1.0
 40
1.0
 40
1.0
 10
273.5830359446097
 20
692.4309026340859
 30
0.0
 10
273.586643183472
 20
692.4305235599818
 30
0.0
 10
273.9980706530752
 20
692.43052366494
 30
0.0
 10
275.5817675216603
 20
692.4305238748561
 30
0.0
 10
276.7534138035399
 20
692.4305239798143
 30
0.0
 10
279.6797040244527
 20
692.4305241897305
 30
0.0
 10
281.4331965932555
 20
692.4305242946887
 30
0.0
 10
285.2565790097298
 20
692.4305245046047
 30
0.0
 10
287.3249645197222
 20
692.4305246095629
 30
0.0
 10
291.4633638247213
 20
692.430524819479
 30
0.0
 10
293.5317493363722
 20
692.4305249244372
 30
0.0
 10
297.3551317605209
 20
692.4305251343534
 30
0.0
 10
299.1086243353627
 20
692.4305252393115
 30
0.0
 10
302.0349145755221
 20
692.4305254492277
 30
0.0
 10
303.2065608706504
 20
692.4305255541858
 30
0.0
 10
304.6150512587212
 20
692.4305257408787
 30
0.0
 10
305.0009938268078
 20
692.4305258226134
 30
0.0
 10
305.143590093015
 20
692.4307214047103
 30
0.0
  0
ARC
  5
13B
330
9C
100
AcDbEntity
  8
DV1_Default
  6
Continuous
 62
     7
100
AcDbCircle
 10
320.0934643182
 20
704.9104586539
 30
0.0
 40
16.73323478374375
100
AcDbArc
 50
196.9139185022
 51
202.3349699334
  0
ARC
  5
13C
330
9C
100
AcDbEntity
  8
DV1_Default
  6
Continuous
 62
     7
100
AcDbCircle
 10
320.0934643182
 20
704.9104586539
 30
0.0
 40
16.73323478374375
100
AcDbArc
 50
165.7900806738
 51
196.9139185022
  0
ARC
  5
13D
330
9C
100
AcDbEntity
  8
DV1_Default
  6
Continuous
 62
     7
100
AcDbCircle
 10
642.2273308269
 20
727.7896909452
 30
0.0
 40
338.8754288557623
100
AcDbArc
 50
184.9496401506
 51
185.9893008959
  0
ARC
  5
13E
330
9C
100
AcDbEntity
  8
DV1_Default
  6
Continuous
 62
     7
100
AcDbCircle
 10
-59.2304373249
 20
727.5172402833
 30
0.0
 40
334.6578238729093
100
AcDbArc
 50
353.9819119567
 51
357.1812812338
  0
SPLINE
  5
13F
330
9C
100
AcDbEntity
  8
DV1_Default
  6
Continuous
 62
     7
100
AcDbSpline
210
0.0
220
0.0
230
1.0
 70
     8
 71
     3
 72
    14
 73
    10
 74
     0
 42
0.0000000004041374
 43
0.0000000001
 40
0.0
 40
0.0
 40
0.0
 40
0.0
 40
0.25
 40
0.25
 40
0.5
 40
0.5
 40
0.75
 40
0.75
 40
1.0
 40
1.0
 40
1.0
 40
1.0
 10
299.7665412696588
 20
711.0599533678975
 30
0.0
 10
297.79613788694
 20
711.059964790133
 30
0.0
 10
295.2018795409155
 20
711.0599646005699
 30
0.0
 10
289.6357928841186
 20
711.0599642214435
 30
0.0
 10
286.6753425353074
 20
711.0599640318803
 30
0.0
 10
281.3925931352367
 20
711.0599636527539
 30
0.0
 10
279.0810928598342
 20
711.0599634631906
 30
0.0
 10
275.8931420054819
 20
711.0599630840642
 30
0.0
 10
275.0232081027165
 20
711.059962894501
 30
0.0
 10
275.0224922853247
 20
711.0600799470424
 30
0.0
  0
SPLINE
  5
140
330
9C
100
AcDbEntity
  8
DV1_Default
  6
Continuous
 62
     7
100
AcDbSpline
210
0.0
220
0.0
230
1.0
 70
     8
 71
     3
 72
    10
 73
     6
 74
     0
 42
0.0000000025000507
 43
0.0000000001
 40
0.0
 40
0.0
 40
0.0
 40
0.0
 40
0.5
 40
0.5
 40
1.0
 40
1.0
 40
1.0
 40
1.0
 10
303.766354623084
 20
711.0596480005887
 30
0.0
 10
303.7651588889304
 20
711.0591353544083
 30
0.0
 10
303.4110167984107
 20
711.0594078966358
 30
0.0
 10
302.0451142746221
 20
711.0599529811232
 30
0.0
 10
301.0338364130623
 20
711.060225523383
 30
0.0
 10
299.7665412696588
 20
711.0599533678975
 30
0.0
  0
ARC
  5
141
330
9C
100
AcDbEntity
  8
DV1_Default
  6
Continuous
 62
     7
100
AcDbCircle
 10
642.2212389645
 20
727.7890745787
 30
0.0
 40
338.8693069679944
100
AcDbArc
 50
182.8297598803
 51
183.1754161252
  0
ARC
  5
142
330
9C
100
AcDbEntity
  8
DV1_Default
  6
Continuous
 62
     7
100
AcDbCircle
 10
312.5082563791
 20
704.1739688743
 30
0.0
 40
8.069029258847998
100
AcDbArc
 50
152.9205704974
 51
211.8963768073
  0
ARC
  5
143
330
9C
100
AcDbEntity
  8
DV1_Default
  6
Continuous
 62
     7
100
AcDbCircle
 10
312.5082563791
 20
704.1739688743
 30
0.0
 40
8.069029258847998
100
AcDbArc
 50
152.3351561259
 51
152.9205704974
  0
SPLINE
  5
144
330
9C
100
AcDbEntity
  8
DV1_Default
  6
Continuous
 62
     7
100
AcDbSpline
210
0.0
220
0.0
230
1.0
 70
    12
 71
     3
 72
     8
 73
     4
 74
     0
 42
0.0000000047784363
 43
0.0000000001
 40
0.0
 40
0.0
 40
0.0
 40
0.0
 40
1.0
 40
1.0
 40
1.0
 40
1.0
 10
305.6959100435588
 20
699.8494838663476
 30
0.0
 41
1.221807751074457
 10
305.0134343386612
 20
699.7836650762612
 30
0.0
 41
0.9627393756946262
 10
304.5543814739552
 20
699.2581471164807
 30
0.0
 41
0.9306122009609155
 10
304.615591134131
 20
698.5514816900586
 30
0.0
 41
1.125426226873325
  0
SPLINE
  5
145
330
9C
100
AcDbEntity
  8
DV1_Default
  6
Continuous
 62
     7
100
AcDbSpline
210
0.0
220
0.0
230
1.0
 70
    12
 71
     3
 72
     8
 73
     4
 74
     0
 42
0.0000000040964752
 43
0.0000000001
 40
0.0
 40
0.0
 40
0.0
 40
0.0
 40
1.0
 40
1.0
 40
1.0
 40
1.0
 10
305.3616891836588
 20
707.9204085843176
 30
0.0
 41
1.221813675880733
 10
304.5723296345025
 20
707.7228599660167
 30
0.0
 41
0.9260641763517196
 10
303.9172764899909
 20
708.2055943054278
 30
0.0
 41
0.9260621080541871
 10
303.87221855215
 20
709.0180530991237
 30
0.0
 41
1.221807470988135
  0
SPLINE
  5
146
330
9C
100
AcDbEntity
  8
DV1_Default
  6
Continuous
 62
     7
100
AcDbSpline
210
0.0
220
0.0
230
1.0
 70
    12
 71
     3
 72
     8
 73
     4
 74
     0
 42
0.0000000019993205
 43
0.0000000001
 40
0.0
 40
0.0
 40
0.0
 40
0.0
 40
1.0
 40
1.0
 40
1.0
 40
1.0
 10
309.2436637855588
 20
710.7212464754975
 30
0.0
 41
1.156758526833578
 10
308.2100364734492
 20
709.24298977087
 30
0.0
 41
1.156758526833578
 10
306.9160440111903
 20
708.3093808119256
 30
0.0
 41
1.156758526833578
 10
305.3616891836588
 20
707.9204085843176
 30
0.0
 41
1.156758526833578
  0
ARC
  5
147
330
9C
100
AcDbEntity
  8
DV1_Default
  6
Continuous
 62
     7
100
AcDbCircle
 10
2717.7060946311
 20
1000.0387577255
 30
0.0
 40
2425.777381193584
100
AcDbArc
 50
186.8521228537
 51
187.1479250819
  0
ARC
  5
148
330
9C
100
AcDbEntity
  8
DV1_Default
  6
Continuous
 62
     7
100
AcDbCircle
 10
306.2883980663
 20
693.2687540528
 30
0.0
 40
6.607347950251129
100
AcDbArc
 50
47.0183539884
 51
95.1446848194
  0
LINE
  5
149
330
9C
100
AcDbEntity
  8
DV1_Default
  6
Continuous
 62
     7
100
AcDbLine
 10
303.7675465398
 20
711.0601852957
 30
0.0
 11
303.7422181084
 21
711.1973530454
 31
0.0
  0
LINE
  5
14A
330
9C
100
AcDbEntity
  8
DV1_Default
  6
Continuous
 62
     7
100
AcDbLine
 10
303.6794648377
 20
711.3229222312
 30
0.0
 11
303.7422181084
 21
711.1973530454
 31
0.0
  0
ARC
  5
14B
330
9C
100
AcDbEntity
  8
DV1_Default
  6
Continuous
 62
     7
100
AcDbCircle
 10
303.2630033525
 20
711.0331731138
 30
0.0
 40
0.5072133181872162
100
AcDbArc
 50
34.8279734489
 51
60.6037448894
  0
LINE
  5
14C
330
9C
100
AcDbEntity
  8
DV1_Default
  6
Continuous
 62
     7
100
AcDbLine
 10
303.3977072432
 20
711.5216791523
 30
0.0
 11
303.5120426053
 21
711.4752156076
 31
0.0
  0
LINE
  5
14D
330
9C
100
AcDbEntity
  8
DV1_Default
  6
Continuous
 62
     7
100
AcDbLine
 10
275.234129555
 20
711.4415961832
 30
0.0
 11
275.3903000177
 21
711.5146573778
 31
0.0
  0
LINE
  5
14E
330
9C
100
AcDbEntity
  8
DV1_Default
  6
Continuous
 62
     7
100
AcDbLine
 10
275.104731369
 20
711.3091005444
 30
0.0
 11
275.234129555
 21
711.4415961832
 31
0.0
  0
ARC
  5
14F
330
9C
100
AcDbEntity
  8
DV1_Default
  6
Continuous
 62
     7
100
AcDbCircle
 10
275.5200735124
 20
711.0321221603
 30
0.0
 40
0.4990925669077401
100
AcDbArc
 50
146.3019066935
 51
174.5540231847
  0
LINE
  5
150
330
9C
100
AcDbEntity
  8
DV1_Default
  6
Continuous
 62
     7
100
AcDbLine
 10
275.023233183
 20
711.0794896792
 30
0.0
 11
275.0217719835
 21
711.0601760051
 31
0.0
  0
ARC
  5
151
330
9C
100
AcDbEntity
  8
DV1_Default
  6
Continuous
 62
     7
100
AcDbCircle
 10
291.5801944055
 20
-16097.4784266325
 30
0.0
 40
16809.00290744142
100
AcDbArc
 50
89.9597225344
 51
90.0551807533
  0
ARC
  5
152
330
9C
100
AcDbEntity
  8
DV1_Default
  6
Continuous
 62
     7
100
AcDbCircle
 10
289.2799387282
 20
1771.8028646689
 30
0.0
 40
1059.990821493905
100
AcDbArc
 50
269.3297657745
 51
270.6826558923
  0
ARC
  5
153
330
9C
100
AcDbEntity
  8
DV1_Default
  6
Continuous
 62
     7
100
AcDbCircle
 10
287.4530754432
 20
650.1309520923
 30
0.0
 40
63.42429595744863
100
AcDbArc
 50
75.4413644606
 51
76.8254101403
  0
ARC
  5
154
330
9C
100
AcDbEntity
  8
DV1_Default
  6
Continuous
 62
     7
100
AcDbCircle
 10
291.336030933
 20
650.1309533571
 30
0.0
 40
63.42429463762977
100
AcDbArc
 50
103.174656157
 51
104.5602761038
  0
LINE
  5
155
330
9C
100
AcDbEntity
  8
DV1_Default
  6
Continuous
 62
     7
100
AcDbLine
 10
277.2689664438
 20
712.3737174861
 30
0.0
 11
301.5203438532
 21
712.3737276555
 31
0.0
  0
ARC
  5
156
330
9C
100
AcDbEntity
  8
DV1_Default
  6
Continuous
 62
     7
100
AcDbCircle
 10
302.0258590161
 20
712.3791312797
 30
0.0
 40
0.5055440427070516
100
AcDbArc
 50
180.6124308215
 51
256.6348190542
  0
ARC
  5
157
330
9C
100
AcDbEntity
  8
DV1_Default
  6
Continuous
 62
     7
100
AcDbCircle
 10
276.7703421371
 20
712.3708405187
 30
0.0
 40
0.4986326063526695
100
AcDbArc
 50
282.7827741688
 51
0.3305820733
  0
LINE
  5
158
330
9C
100
AcDbEntity
  8
DV1_Default
  6
Continuous
 62
     7
100
AcDbLine
 10
301.5203704417
 20
712.8811575847
 30
0.0
 11
277.2690042342
 21
712.8811431359
 31
0.0
  0
SPLINE
  5
159
330
9C
100
AcDbEntity
  8
DV1_Default
  6
Continuous
 62
     7
100
AcDbSpline
210
0.0
220
0.0
230
1.0
 70
     8
 71
     3
 72
    22
 73
    18
 74
     0
 42
0.0000000004204708
 43
0.0000000001
 40
0.0
 40
0.0
 40
0.0
 40
0.0
 40
0.125
 40
0.125
 40
0.2500000000000001
 40
0.2500000000000001
 40
0.375
 40
0.375
 40
0.5
 40
0.5
 40
0.625
 40
0.625
 40
0.7499999999999999
 40
0.7499999999999999
 40
0.875
 40
0.875
 40
1.0
 40
1.0
 40
1.0
 40
1.0
 10
301.2859956337588
 20
713.3057838061676
 30
0.0
 10
301.2860676448785
 20
713.3070879628903
 30
0.0
 10
300.976045609487
 20
713.307200196489
 30
0.0
 10
299.7839946972881
 20
713.30730973789
 30
0.0
 10
298.9024346530412
 20
713.3073070446611
 30
0.0
 10
296.7010805019823
 20
713.3071951814413
 30
0.0
 10
295.382151918556
 20
713.3070860974076
 30
0.0
 10
292.5065127147016
 20
713.3067860956999
 30
0.0
 10
290.9509325867479
 20
713.3065953378876
 30
0.0
 10
287.8386163898056
 20
713.306169075247
 30
0.0
 10
286.2831037466028
 20
713.3059337798558
 30
0.0
 10
283.4077143031698
 20
713.3054623282609
 30
0.0
 10
282.0889676922385
 20
713.3052263991982
 30
0.0
 10
279.8880357442028
 20
713.3047976876908
 30
0.0
 10
279.0067153857215
 20
713.3046051155262
 30
0.0
 10
277.8151222311801
 20
713.3043005499582
 30
0.0
 10
277.505317592783
 20
713.3041887179775
 30
0.0
 10
277.5045813884988
 20
713.3045276651575
 30
0.0
  0
ARC
  5
15A
330
9C
100
AcDbEntity
  8
DV1_Default
  6
Continuous
 62
     7
100
AcDbCircle
 10
301.0215292905
 20
712.8831629556
 30
0.0
 40
0.4998984609924157
100
AcDbArc
 50
359.7704284535
 51
57.96261963
  0
ARC
  5
15B
330
9C
100
AcDbEntity
  8
DV1_Default
  6
Continuous
 62
     7
100
AcDbCircle
 10
277.7676424818
 20
712.8809252447
 30
0.0
 40
0.498638295181039
100
AcDbArc
 50
121.8406705063
 51
179.974963321
  0
SPLINE
  5
15C
330
9C
100
AcDbEntity
  8
DV1_Default
  6
Continuous
 62
     7
100
AcDbSpline
210
0.0
220
0.0
230
1.0
 70
     8
 71
     3
 72
    23
 73
    19
 74
     0
 42
0.0000000005308312
 43
0.0000000001
 40
0.0
 40
0.0
 40
0.0
 40
0.0
 40
0.0613206029055163
 40
0.1262283687336681
 40
0.1879971610607742
 40
0.2507935451091744
 40
0.3125410930378485
 40
0.3745088435100234
 40
0.4389960895062894
 40
0.4995781906620619
 40
0.5834050113726268
 40
0.6659318520165414
 40
0.7435551888512866
 40
0.8135398964952758
 40
0.8743370419228558
 40
0.9254625519938136
 40
0.9671511388333331
 40
1.0
 40
1.0
 40
1.0
 40
1.0
 10
298.8124352258587
 20
714.6816415836075
 30
0.0
 10
298.7747450902215
 20
714.684199233565
 30
0.0
 10
298.6966469859754
 20
714.6884308174625
 30
0.0
 10
298.1399828403409
 20
714.6856894060837
 30
0.0
 10
297.262597574017
 20
714.6819880820798
 30
0.0
 10
296.0877395978929
 20
714.6815161468352
 30
0.0
 10
294.6560363793155
 20
714.6831324051157
 30
0.0
 10
293.0091145449826
 20
714.6876133638108
 30
0.0
 10
291.2376730833266
 20
714.6821779154384
 30
0.0
 10
289.1790574819225
 20
714.6821116606905
 30
0.0
 10
286.9374858444657
 20
714.6824097698654
 30
0.0
 10
284.6935517808422
 20
714.6825206502971
 30
0.0
 10
282.8636099294214
 20
714.6826020153363
 30
0.0
 10
281.5396018899852
 20
714.6826051692932
 30
0.0
 10
280.6912267605277
 20
714.6825443590424
 30
0.0
 10
280.2248169568687
 20
714.6824064625071
 30
0.0
 10
280.0086515433139
 20
714.6822209219249
 30
0.0
 10
279.985944148877
 20
714.6819885728429
 30
0.0
 10
279.9745853547888
 20
714.6846084296976
 30
0.0
  0
LINE
  5
15D
330
9C
100
AcDbEntity
  8
DV1_Default
  6
Continuous
 62
     7
100
AcDbLine
 10
298.8126844515
 20
714.6821435819
 30
0.0
 11
301.2852873679
 21
713.3046332856
 31
0.0
  0
LINE
  5
15E
330
9C
100
AcDbEntity
  8
DV1_Default
  6
Continuous
 62
     7
100
AcDbLine
 10
277.5043348284
 20
713.3049281955
 30
0.0
 11
279.9759369305
 21
714.6818861885
 31
0.0
  0
ARC
  5
15F
330
9C
100
AcDbEntity
  8
DV1_Default
  6
Continuous
 62
     7
100
AcDbCircle
 10
291.9274531221
 20
8053.3275634805
 30
0.0
 40
7338.646877908123
100
AcDbArc
 50
269.9094285125
 51
270.0523926674
  0
ARC
  5
160
330
9C
100
AcDbEntity
  8
DV1_Default
  6
Continuous
 62
     7
100
AcDbCircle
 10
298.7230168493
 20
714.4972831668
 30
0.0
 40
0.2048991749490708
100
AcDbArc
 50
64.1254714032
 51
114.4863228189
  0
ARC
  5
161
330
9C
100
AcDbEntity
  8
DV1_Default
  6
Continuous
 62
     7
100
AcDbCircle
 10
280.0662010309
 20
714.5102596381
 30
0.0
 40
0.1999935713640255
100
AcDbArc
 50
64.0761681024
 51
117.720735829
  0
SPLINE
  5
162
330
9C
100
AcDbEntity
  8
DV1_Default
  6
Continuous
 62
     7
100
AcDbSpline
210
0.0
220
0.0
230
1.0
 70
     8
 71
     3
 72
    10
 73
     6
 74
     0
 42
0.0000000089229969
 43
0.0000000001
 40
0.0
 40
0.0
 40
0.0
 40
0.0
 40
0.3506889818048666
 40
0.7014296476509022
 40
1.0
 40
1.0
 40
1.0
 40
1.0
 10
298.280140164849
 20
714.7648687718703
 30
0.0
 10
298.252996278274
 20
714.7648335470226
 30
0.0
 10
298.1987022964894
 20
714.7647612711702
 30
0.0
 10
297.785108684153
 20
714.7645490061118
 30
0.0
 10
297.3771282597092
 20
714.7643728343693
 30
0.0
 10
297.1594406395363
 20
714.7642821144077
 30
0.0
  0
SPLINE
  5
163
330
9C
100
AcDbEntity
  8
DV1_Default
  6
Continuous
 62
     7
100
AcDbSpline
210
0.0
220
0.0
230
1.0
 70
     8
 71
     3
 72
    45
 73
    41
 74
     0
 42
0.0000000006305584
 43
0.0000000001
 40
0.0
 40
0.0
 40
0.0
 40
0.0
 40
0.0119908602845075
 40
0.0925382551611261
 40
0.1027558632234008
 40
0.1138588307474648
 40
0.125847265078323
 40
0.1387212805224983
 40
0.1524809793741753
 40
0.1671264668454659
 40
0.1826578955527961
 40
0.1990754911766815
 40
0.2163793178411805
 40
0.2345692402951907
 40
0.2536450101834548
 40
0.2736064239681439
 40
0.2944535050579094
 40
0.3161861340833907
 40
0.3388039569434304
 40
0.3623067255408495
 40
0.3866946482052369
 40
0.411967744101236
 40
0.438125897501179
 40
0.4651694327896336
 40
0.4930982977731644
 40
0.521911904760725
 40
0.5516103011915282
 40
0.5821937381018161
 40
0.6136620184190882
 40
0.6460156155627932
 40
0.6792540907126818
 40
0.7133768231496478
 40
0.7483842834761224
 40
0.7842761634398242
 40
0.8210530265642694
 40
0.8587143810883424
 40
0.8972600623974812
 40
0.9366905882977556
 40
0.9770060601393887
 40
1.0
 40
1.0
 40
1.0
 40
1.0
 10
297.1594406395363
 20
714.7642821144077
 30
0.0
 10
297.1213539962841
 20
714.764266242036
 30
0.0
 10
296.820316383049
 20
714.7641414543773
 30
0.0
 10
296.4249146521119
 20
714.7639826598173
 30
0.0
 10
295.983741121265
 20
714.7638213693197
 30
0.0
 10
295.8356392394401
 20
714.7637750074292
 30
0.0
 10
295.6713738649228
 20
714.7637292380496
 30
0.0
 10
295.4900665721115
 20
714.7636850115772
 30
0.0
 10
295.2908360851905
 20
714.7636425565594
 30
0.0
 10
295.072793351762
 20
714.7636023602258
 30
0.0
 10
294.8350569640888
 20
714.7635648780168
 30
0.0
 10
294.5767690554541
 20
714.7635306209291
 30
0.0
 10
294.2971561825847
 20
714.7635001083638
 30
0.0
 10
293.9955049089612
 20
714.7634738943191
 30
0.0
 10
293.6711831970084
 20
714.7634525634666
 30
0.0
 10
293.3236472216997
 20
714.7634367390876
 30
0.0
 10
292.9525109021902
 20
714.7634270543099
 30
0.0
 10
292.5575777316263
 20
714.763424137708
 30
0.0
 10
292.1388146130352
 20
714.7634286436573
 30
0.0
 10
291.696378981613
 20
714.7634412551242
 30
0.0
 10
291.2307005415068
 20
714.7634626316866
 30
0.0
 10
290.7424940468683
 20
714.7634933995853
 30
0.0
 10
290.2327453689329
 20
714.7635341989263
 30
0.0
 10
289.7027795806838
 20
714.7635856553213
 30
0.0
 10
289.1543013100928
 20
714.7636482926766
 30
0.0
 10
288.5893787684772
 20
714.7637226201657
 30
0.0
 10
288.0105135433522
 20
714.7638091091532
 30
0.0
 10
287.420602093198
 20
714.7639080793776
 30
0.0
 10
286.8229981695566
 20
714.764019808441
 30
0.0
 10
286.2215577005066
 20
714.764144469162
 30
0.0
 10
285.6204893452445
 20
714.7642820517514
 30
0.0
 10
285.0246102107212
 20
714.764432479629
 30
0.0
 10
284.4390743559172
 20
714.764595469763
 30
0.0
 10
283.8694664694793
 20
714.7647705893995
 30
0.0
 10
283.3219159527191
 20
714.7649572397025
 30
0.0
 10
282.8026275465288
 20
714.7651545982083
 30
0.0
 10
282.318505420121
 20
714.7653616782435
 30
0.0
 10
281.8762539943812
 20
714.7655772604835
 30
0.0
 10
281.5423409815763
 20
714.7657664138944
 30
0.0
 10
281.3623728928755
 20
714.7658831956481
 30
0.0
 10
281.3004827670505
 20
714.7659255891576
 30
0.0
  0
SPLINE
  5
164
330
9C
100
AcDbEntity
  8
DV1_Default
  6
Continuous
 62
     7
100
AcDbSpline
210
0.0
220
0.0
230
1.0
 70
     8
 71
     3
 72
    12
 73
     8
 74
     0
 42
0.0000000127225287
 43
0.0000000001
 40
0.0
 40
0.0
 40
0.0
 40
0.0
 40
0.0948925245961747
 40
0.3142294143939304
 40
0.5381965223643211
 40
0.7668423297560749
 40
1.0
 40
1.0
 40
1.0
 40
1.0
 10
281.3004827670505
 20
714.7659255891576
 30
0.0
 10
281.2514819783274
 20
714.7659591537266
 30
0.0
 10
281.0964311456135
 20
714.766070255519
 30
0.0
 10
280.8724383122708
 20
714.7662598157441
 30
0.0
 10
280.6703114766008
 20
714.76649302956
 30
0.0
 10
280.5392713220452
 20
714.7667262531456
 30
0.0
 10
280.52279841544
 20
714.7668764934576
 30
0.0
 10
280.5144770399482
 20
714.7669560877818
 30
0.0
  0
ARC
  5
165
330
9C
100
AcDbEntity
  8
DV1_Default
  6
Continuous
 62
     7
100
AcDbCircle
 10
298.5115638164
 20
714.9557589501
 30
0.0
 40
0.2999932776600192
100
AcDbArc
 50
219.5175729726
 51
248.9729667167
  0
ARC
  5
166
330
9C
100
AcDbEntity
  8
DV1_Default
  6
Continuous
 62
     7
100
AcDbCircle
 10
289.396439755
 20
-4496.7113094551
 30
0.0
 40
5211.557168527514
100
AcDbArc
 50
89.9033134218
 51
90.0966865783
  0
ARC
  5
167
330
9C
100
AcDbEntity
  8
DV1_Default
  6
Continuous
 62
     7
100
AcDbCircle
 10
291.7866039714
 20
7645.0303822426
 30
0.0
 40
6930.350015245599
100
AcDbArc
 50
270.0551035251
 51
270.0566437996
  0
SPLINE
  5
168
330
9C
100
AcDbEntity
  8
DV1_Default
  6
Continuous
 62
     7
100
AcDbSpline
210
0.0
220
0.0
230
1.0
 70
     8
 71
     3
 72
    10
 73
     6
 74
     0
 42
0.0000000010887496
 43
0.0000000001
 40
0.0
 40
0.0
 40
0.0
 40
0.0
 40
0.5
 40
0.5
 40
1.0
 40
1.0
 40
1.0
 40
1.0
 10
280.6019457225796
 20
714.8384387200958
 30
0.0
 10
281.9466780732998
 20
715.5618016913943
 30
0.0
 10
283.3811364192095
 20
716.1180575456689
 30
0.0
 10
286.3426361876241
 20
716.8635472108526
 30
0.0
 10
287.869495460055
 20
717.0527351696568
 30
0.0
 10
289.3964397696722
 20
717.0526635332858
 30
0.0
  0
SPLINE
  5
169
330
9C
100
AcDbEntity
  8
DV1_Default
  6
Continuous
 62
     7
100
AcDbSpline
210
0.0
220
0.0
230
1.0
 70
     8
 71
     3
 72
    10
 73
     6
 74
     0
 42
0.0000000010887496
 43
0.0000000001
 40
0.0
 40
0.0
 40
0.0
 40
0.0
 40
0.5
 40
0.5
 40
1.0
 40
1.0
 40
1.0
 40
1.0
 10
298.1909337811334
 20
714.8384387201063
 30
0.0
 10
296.8462014271829
 20
715.561801692113
 30
0.0
 10
295.4117430886965
 20
716.11805754357
 30
0.0
 10
292.4502433358335
 20
716.8635472069292
 30
0.0
 10
290.9233840715263
 20
717.0527351667275
 30
0.0
 10
289.3964397696722
 20
717.0526635332858
 30
0.0
  0
ARC
  5
16A
330
9C
100
AcDbEntity
  8
DV1_Default
  6
Continuous
 62
     7
100
AcDbCircle
 10
309.4083825493
 20
710.6159735815
 30
0.0
 40
0.1937910346146208
100
AcDbArc
 50
64.4456541275
 51
97.1294174933
  0
ARC
  5
16B
330
9C
100
AcDbEntity
  8
DV1_Default
  6
Continuous
 62
     7
100
AcDbCircle
 10
309.4089667053
 20
710.6112388472
 30
0.0
 40
0.1985616618396316
100
AcDbArc
 50
97.1271111131
 51
146.3565866384
  0
ARC
  5
16C
330
9C
100
AcDbEntity
  8
DV1_Default
  6
Continuous
 62
     7
100
AcDbCircle
 10
310.9274309707
 20
698.2520955167
 30
0.0
 40
0.2010852355329348
100
AcDbArc
 50
228.0657779442
 51
276.7645534417
  0
ARC
  5
16D
330
9C
100
AcDbEntity
  8
DV1_Default
  6
Continuous
 62
     7
100
AcDbCircle
 10
310.9281033164
 20
698.2439799876
 30
0.0
 40
0.1929472221639638
100
AcDbArc
 50
276.8501524329
 51
309.4936967465
  0
ARC
  5
16E
330
9C
100
AcDbEntity
  8
DV1_Default
  6
Continuous
 62
     7
100
AcDbCircle
 10
307.8673969196
 20
707.1164868516
 30
0.0
 40
4.017448595166424
100
AcDbArc
 50
40.128120714
 51
66.1476441342
  0
ARC
  5
16F
330
9C
100
AcDbEntity
  8
DV1_Default
  6
Continuous
 62
     7
100
AcDbCircle
 10
308.5919079284
 20
701.2603591761
 30
0.0
 40
4.008141742497509
100
AcDbArc
 50
307.841443867
 51
333.926448299
  0
ARC
  5
170
330
9C
100
AcDbEntity
  8
DV1_Default
  6
Continuous
 62
     7
100
AcDbCircle
 10
311.3241458563
 20
710.0284139946
 30
0.0
 40
0.5023355253729309
100
AcDbArc
 50
219.9688274297
 51
276.2764601113
  0
ARC
  5
171
330
9C
100
AcDbEntity
  8
DV1_Default
  6
Continuous
 62
     7
100
AcDbCircle
 10
312.6416560776
 20
699.2802516603
 30
0.0
 40
0.4997736200848749
100
AcDbArc
 50
97.6336876458
 51
154.0836005466
  0
SPLINE
  5
172
330
9C
100
AcDbEntity
  8
DV1_Default
  6
Continuous
 62
     7
100
AcDbSpline
210
0.0
220
0.0
230
1.0
 70
     8
 71
     3
 72
     8
 73
     4
 74
     0
 42
0.0000001308587085
 43
0.0000000001
 40
0.0
 40
0.0
 40
0.0
 40
0.0
 40
1.0
 40
1.0
 40
1.0
 40
1.0
 10
311.3883746839534
 20
709.4532413983129
 30
0.0
 10
311.3822036932947
 20
709.503427536056
 30
0.0
 10
311.379062995205
 20
709.5289887915519
 30
0.0
 10
311.3790641569588
 20
709.5290894905876
 30
0.0
  0
SPLINE
  5
173
330
9C
100
AcDbEntity
  8
DV1_Default
  6
Continuous
 62
     7
100
AcDbSpline
210
0.0
220
0.0
230
1.0
 70
     8
 71
     3
 72
     8
 73
     4
 74
     0
 42
0.0000001292019862
 43
0.0000000001
 40
0.0
 40
0.0
 40
0.0
 40
0.0
 40
0.9999999999999999
 40
0.9999999999999999
 40
0.9999999999999999
 40
0.9999999999999999
 10
312.5659276687224
 20
699.8524285295812
 30
0.0
 10
312.5722565209811
 20
699.8005932388762
 30
0.0
 10
312.5751668434411
 20
699.7766062119535
 30
0.0
 10
312.5752665683588
 20
699.7755960903676
 30
0.0
  0
SPLINE
  5
174
330
9C
100
AcDbEntity
  8
DV1_Default
  6
Continuous
 62
     7
100
AcDbSpline
210
0.0
220
0.0
230
1.0
 70
     8
 71
     3
 72
    22
 73
    18
 74
     0
 42
0.0000000009877031
 43
0.0000000001
 40
0.0
 40
0.0
 40
0.0
 40
0.0
 40
0.0777938439777427
 40
0.0777938439777427
 40
0.2185293880513048
 40
0.2185293880513048
 40
0.3592649321248668
 40
0.3592649321248668
 40
0.5000004761984289
 40
0.5000004761984289
 40
0.640736020271991
 40
0.640736020271991
 40
0.7814715643455529
 40
0.7814715643455529
 40
0.9222071084191149
 40
0.9222071084191149
 40
1.0
 40
1.0
 40
1.0
 40
1.0
 10
310.9492773588685
 20
709.6268668556562
 30
0.0
 10
310.9573100396685
 20
709.5622292507771
 30
0.0
 10
310.9700810698248
 20
709.4583308239312
 30
0.0
 10
311.018876708354
 20
709.0611057344428
 30
0.0
 10
311.0653305801841
 20
708.6827306473463
 30
0.0
 10
311.1813000915292
 20
707.7378824830398
 30
0.0
 10
311.2507701525138
 20
707.1717809233398
 30
0.0
 10
311.4022176554269
 20
705.9375191127192
 30
0.0
 10
311.4841355773669
 20
705.2698441076188
 30
0.0
 10
311.6480216803185
 20
703.9340008090652
 30
0.0
 10
311.729925457691
 20
703.2663576445755
 30
0.0
 10
311.8813191023726
 20
702.0322136116224
 30
0.0
 10
311.9507494829077
 20
701.466197844644
 30
0.0
 10
312.0666217866394
 20
700.5215485136112
 30
0.0
 10
312.1130181917741
 20
700.1432862077506
 30
0.0
 10
312.1617192957893
 20
699.7462296886312
 30
0.0
 10
312.1744556706398
 20
699.6423897388463
 30
0.0
 10
312.1823953979824
 20
699.5777413453436
 30
0.0
  0
SPLINE
  5
175
330
9C
100
AcDbEntity
  8
DV1_Default
  6
Continuous
 62
     7
100
AcDbSpline
210
0.0
220
0.0
230
1.0
 70
     8
 71
     3
 72
    20
 73
    16
 74
     0
 42
0.0000000001739946
 43
0.0000000001
 40
0.0
 40
0.0
 40
0.0
 40
0.0
 40
0.1250000000000003
 40
0.1250000000000003
 40
0.2500000000000007
 40
0.2500000000000007
 40
0.5000000000000012
 40
0.5000000000000012
 40
0.6250000000000009
 40
0.6250000000000009
 40
0.7500000000000007
 40
0.7500000000000007
 40
0.8750000000000003
 40
0.8750000000000003
 40
1.0
 40
1.0
 40
1.0
 40
1.0
 10
367.0276247931587
 20
717.3434617119976
 30
0.0
 10
365.5939344547707
 20
718.3538330598301
 30
0.0
 10
363.9439026076331
 20
719.0256784425019
 30
0.0
 10
360.4720636213275
 20
719.7965354428919
 30
0.0
 10
358.6506323654036
 20
719.8954860476289
 30
0.0
 10
353.0281824327143
 20
719.5367880355566
 30
0.0
 10
349.0946095646721
 20
718.4226552555871
 30
0.0
 10
342.448600040464
 20
716.355653950007
 30
0.0
 10
340.1027211729737
 20
715.6009644722873
 30
0.0
 10
335.0720675255548
 20
714.1001227407431
 30
0.0
 10
332.3863878868963
 20
713.3542351661849
 30
0.0
 10
326.6937766512695
 20
711.9829055307721
 30
0.0
 10
323.6849849574861
 20
711.3579393956329
 30
0.0
 10
317.5309014057945
 20
710.2974736888478
 30
0.0
 10
314.3825116327331
 20
709.8627191050493
 30
0.0
 10
311.3790641569588
 20
709.5290894905876
 30
0.0
  0
LINE
  5
176
330
9C
100
AcDbEntity
  8
DV1_Default
  6
Continuous
 62
     7
100
AcDbLine
 10
367.0388486202
 20
717.2520511545
 30
0.0
 11
368.451420304
 21
705.7476004211
 31
0.0
  0
SPLINE
  5
177
330
9C
100
AcDbEntity
  8
DV1_Default
  6
Continuous
 62
     7
100
AcDbSpline
210
0.0
220
0.0
230
1.0
 70
    12
 71
     3
 72
    15
 73
    11
 74
     0
 42
0.0000000001738055
 43
0.0000000001
 40
0.0
 40
0.0
 40
0.0
 40
0.0
 40
0.1216202138747095
 40
0.2471030341107684
 40
0.3725858543470316
 40
0.4980686745830905
 40
0.6235514948192514
 40
0.7490343150553103
 40
0.8745171352914713
 40
1.0
 40
1.0
 40
1.0
 40
1.0
 10
312.5752665683588
 20
699.7755960903676
 30
0.0
 41
1.156759137530682
 10
315.4894257418057
 20
700.1677322237485
 30
0.0
 41
1.156759137530682
 10
321.7276914041777
 20
700.8429528250165
 30
0.0
 41
1.156759137530682
 10
330.8948796866352
 20
701.220640164331
 30
0.0
 41
1.156759137530682
 10
339.3061310280073
 20
701.0067373112821
 30
0.0
 41
1.156759137530682
 10
346.727044813606
 20
700.5108704896234
 30
0.0
 41
1.156759137530682
 10
353.2839898350111
 20
700.2021657893789
 30
0.0
 41
1.156759137530682
 10
359.1659019810471
 20
700.6078417986877
 30
0.0
 41
1.156759137530682
 10
364.4211196276273
 20
702.2157181091084
 30
0.0
 41
1.156759137530682
 10
367.3115213763855
 20
704.3238575007022
 30
0.0
 41
1.156759137530682
 10
368.4626420558588
 20
705.6562067643575
 30
0.0
 41
1.156759137530682
  0
SPLINE
  5
178
330
9C
100
AcDbEntity
  8
DV1_Default
  6
Continuous
 62
     7
100
AcDbSpline
210
0.0
220
0.0
230
1.0
 70
    12
 71
     3
 72
     8
 73
     4
 74
     0
 42
0.0000000028698394
 43
0.0000000001
 40
0.0
 40
0.0
 40
0.0
 40
0.0
 40
1.0
 40
1.0
 40
1.0
 40
1.0
 10
370.0541377192588
 20
715.7355141910175
 30
0.0
 41
1.156758897524999
 10
369.4760524705465
 20
715.7928330621014
 30
0.0
 41
1.156758897524999
 10
368.4672257372566
 20
716.3289249552059
 30
0.0
 41
1.156758897524999
 10
367.0276247931587
 20
717.3434617119976
 30
0.0
 41
1.156758897524999
  0
SPLINE
  5
179
330
9C
100
AcDbEntity
  8
DV1_Default
  6
Continuous
 62
     7
100
AcDbSpline
210
0.0
220
0.0
230
1.0
 70
    12
 71
     3
 72
     8
 73
     4
 74
     0
 42
0.0000000028696731
 43
0.0000000001
 40
0.0
 40
0.0
 40
0.0
 40
0.0
 40
1.0
 40
1.0
 40
1.0
 40
1.0
 10
368.4626420558588
 20
705.6562067643575
 30
0.0
 41
1.156758946351854
 10
369.6141625001378
 20
706.9890178531286
 30
0.0
 41
1.156758946351854
 10
370.4633887792316
 20
707.7532636930546
 30
0.0
 41
1.156758946351854
 10
371.0104006487588
 20
707.9487116877775
 30
0.0
 41
1.156758946351854
  0
SPLINE
  5
17A
330
9C
100
AcDbEntity
  8
DV1_Default
  6
Continuous
 62
     7
100
AcDbSpline
210
0.0
220
0.0
230
1.0
 70
     8
 71
     3
 72
     8
 73
     4
 74
     0
 42
0.0000001618697341
 43
0.0000000001
 40
0.0
 40
0.0
 40
0.0
 40
0.0
 40
0.9999999999999999
 40
0.9999999999999999
 40
0.9999999999999999
 40
0.9999999999999999
 10
370.06184317532
 20
715.6743247410877
 30
0.0
 10
370.0568415132888
 20
715.7148789608051
 30
0.0
 10
370.0542519827306
 20
715.7355193560037
 30
0.0
 10
370.0541377192588
 20
715.7355141910175
 30
0.0
  0
SPLINE
  5
17B
330
9C
100
AcDbEntity
  8
DV1_Default
  6
Continuous
 62
     7
100
AcDbSpline
210
0.0
220
0.0
230
1.0
 70
     8
 71
     3
 72
    14
 73
    10
 74
     0
 42
0.0000000022496906
 43
0.0000000001
 40
0.0
 40
0.0
 40
0.0
 40
0.0
 40
0.1639248931633379
 40
0.1639248931633379
 40
0.4426165954422253
 40
0.4426165954422253
 40
0.7213082977211126
 40
0.7213082977211126
 40
1.0
 40
1.0
 40
1.0
 40
1.0
 10
370.061851190316
 20
715.6744180618888
 30
0.0
 10
370.0690001092861
 20
715.6164810229551
 30
0.0
 10
370.0810661641292
 20
715.5178812270165
 30
0.0
 10
370.1263628727444
 20
715.1481326729701
 30
0.0
 10
370.1684647218821
 20
714.8047724109407
 30
0.0
 10
370.2722645823826
 20
713.9587212889276
 30
0.0
 10
370.3339040323505
 20
713.4565081664985
 30
0.0
 10
370.4655818594269
 20
712.3840492483969
 30
0.0
 10
370.5355459366227
 20
711.8144090088034
 30
0.0
 10
370.6035492501588
 20
711.2624930266875
 30
0.0
  0
SPLINE
  5
17C
330
9C
100
AcDbEntity
  8
DV1_Default
  6
Continuous
 62
     7
100
AcDbSpline
210
0.0
220
0.0
230
1.0
 70
     8
 71
     3
 72
    14
 73
    10
 74
     0
 42
0.0000000030508976
 43
0.0000000001
 40
0.0
 40
0.0
 40
0.0
 40
0.0
 40
0.2853781078683613
 40
0.2853781078683613
 40
0.5707562157367226
 40
0.5707562157367226
 40
0.856134323605084
 40
0.856134323605084
 40
1.0
 40
1.0
 40
1.0
 40
1.0
 10
370.6035492501588
 20
711.2624930266875
 30
0.0
 10
370.6592983482182
 20
710.806643116366
 30
0.0
 10
370.7137400018207
 20
710.3631313343989
 30
0.0
 10
370.8128554256529
 20
709.5559196869355
 30
0.0
 10
370.8575030224321
 20
709.1924328426363
 30
0.0
 10
370.9314436031871
 20
708.5907211209354
 30
0.0
 10
370.9607170566114
 20
708.3526550393364
 30
0.0
 10
370.9904408745599
 20
708.111195574722
 30
0.0
 10
370.9979831240494
 20
708.0499939540839
 30
0.0
 10
371.0030034317007
 20
708.0092008419558
 30
0.0
  0
ARC
  5
17D
330
9C
100
AcDbEntity
  8
DV1_Default
  6
Continuous
 62
     7
100
AcDbCircle
 10
370.0053758359
 20
715.239850867
 30
0.0
 40
0.4980560732014374
100
AcDbArc
 50
46.8603814926
 51
84.3814904886
  0
ARC
  5
17E
330
9C
100
AcDbEntity
  8
DV1_Default
  6
Continuous
 62
     7
100
AcDbCircle
 10
-984.0432719424
 20
545.5578195
 30
0.0
 40
1365.022191735124
100
AcDbArc
 50
6.8431436638
 51
7.156120939
  0
ARC
  5
17F
330
9C
100
AcDbEntity
  8
DV1_Default
  6
Continuous
 62
     7
100
AcDbCircle
 10
-984.0432719424
 20
545.5578195
 30
0.0
 40
1365.022191735124
100
AcDbArc
 50
6.8408130194
 51
6.8431436638
  0
ARC
  5
180
330
9C
100
AcDbEntity
  8
DV1_Default
  6
Continuous
 62
     7
100
AcDbCircle
 10
370.8405428572
 20
708.4208868617
 30
0.0
 40
0.5017978320522207
100
AcDbArc
 50
289.7854182973
 51
326.9631556046
  0
ARC
  5
181
330
9C
100
AcDbEntity
  8
DV1_Default
  6
Continuous
 62
     7
100
AcDbCircle
 10
287.0201096262
 20
704.8532172229
 30
0.0
 40
84.01640976096444
100
AcDbArc
 50
7.307828591
 51
7.3512569424
  0
SPLINE
  5
182
330
9C
100
AcDbEntity
  8
DV1_Default
  6
Continuous
 62
     7
100
AcDbSpline
210
0.0
220
0.0
230
1.0
 70
    12
 71
     3
 72
     8
 73
     4
 74
     0
 42
0.0000000107641329
 43
0.0000000001
 40
0.0
 40
0.0
 40
0.0
 40
0.0
 40
1.0
 40
1.0
 40
1.0
 40
1.0
 10
372.3078791766208
 20
711.1303116263639
 30
0.0
 41
1.156759324848883
 10
372.3255336371836
 20
711.438571864019
 30
0.0
 41
1.156759324848883
 10
372.3153874005916
 20
711.7472432398865
 30
0.0
 41
1.156759324848883
 10
372.2774363435588
 20
712.0563297956376
 30
0.0
 41
1.156759324848883
  0
SPLINE
  5
183
330
9C
100
AcDbEntity
  8
DV1_Default
  6
Continuous
 62
     7
100
AcDbSpline
210
0.0
220
0.0
230
1.0
 70
    12
 71
     3
 72
     8
 73
     4
 74
     0
 42
0.000000002375593
 43
0.0000000001
 40
0.0
 40
0.0
 40
0.0
 40
0.0
 40
1.0
 40
1.0
 40
1.0
 40
1.0
 10
372.2774363435588
 20
712.0563297956376
 30
0.0
 41
1.156758468918043
 10
372.1165487934487
 20
713.366653739474
 30
0.0
 41
1.156758468918043
 10
371.4726008140183
 20
714.5488471386357
 30
0.0
 41
1.156758468918043
 10
370.3459358695588
 20
715.6032772219876
 30
0.0
 41
1.156758468918043
  0
LINE
  5
184
330
9C
100
AcDbEntity
  8
DV1_Default
  6
Continuous
 62
     7
100
AcDbLine
 10
310.713824552
 20
700.8396631815
 30
0.0
 11
311.0387261418
 21
698.1935514491
 31
0.0
  0
LINE
  5
185
330
9C
100
AcDbEntity
  8
DV1_Default
  6
Continuous
 62
     7
100
AcDbLine
 10
309.5040701845
 20
710.6923211962
 30
0.0
 11
310.7138220394
 21
700.839683645
 31
0.0
  0
SPLINE
  5
186
330
9C
100
AcDbEntity
  8
DV1_Default
  6
Continuous
 62
     7
100
AcDbSpline
210
0.0
220
0.0
230
1.0
 70
     8
 71
     3
 72
     8
 73
     4
 74
     0
 42
0.0000000625127562
 43
0.0000000001
 40
0.0
 40
0.0
 40
0.0
 40
0.0
 40
1.0
 40
1.0
 40
1.0
 40
1.0
 10
304.9379917520538
 20
691.9460257297231
 30
0.0
 10
305.0018686217047
 20
691.9704608396178
 30
0.0
 10
305.0321218194991
 20
692.0053241592523
 30
0.0
 10
305.0287513454372
 20
692.050615688627
 30
0.0
  0
SPLINE
  5
187
330
9C
100
AcDbEntity
  8
DV1_Default
  6
Continuous
 62
     7
100
AcDbSpline
210
0.0
220
0.0
230
1.0
 70
     8
 71
     3
 72
     8
 73
     4
 74
     0
 42
0.0000000246218834
 43
0.0000000001
 40
0.0
 40
0.0
 40
0.0
 40
0.0
 40
1.0
 40
1.0
 40
1.0
 40
1.0
 10
304.9379913499255
 20
691.9460255160678
 30
0.0
 10
305.0630735528547
 20
691.9938736741663
 30
0.0
 10
305.059227381775
 20
692.0817083485877
 30
0.0
 10
304.9264528366863
 20
692.2095295393324
 30
0.0
  0
SPLINE
  5
188
330
9C
100
AcDbEntity
  8
DV1_Default
  6
Continuous
 62
     7
100
AcDbSpline
210
0.0
220
0.0
230
1.0
 70
     8
 71
     3
 72
     8
 73
     4
 74
     0
 42
0.0000000398157915
 43
0.0000000001
 40
0.0
 40
0.0
 40
0.0
 40
0.0
 40
1.0
 40
1.0
 40
1.0
 40
1.0
 10
304.4765154960468
 20
692.0447934810321
 30
0.0
 10
304.6001026762191
 20
691.9720960074071
 30
0.0
 10
304.6657922747254
 20
691.9233567528563
 30
0.0
 10
304.6735842915658
 20
691.8985757173793
 30
0.0
  0
ARC
  5
189
330
9C
100
AcDbEntity
  8
DV1_Default
  6
Continuous
 62
     7
100
AcDbCircle
 10
304.6466917333
 20
692.3861814525
 30
0.0
 40
0.5030720242004166
100
AcDbArc
 50
317.2674199608
 51
5.7656448788
  0
ARC
  5
18A
330
9C
100
AcDbEntity
  8
DV1_Default
  6
Continuous
 62
     7
100
AcDbCircle
 10
275.7441691453
 20
711.0339065566
 30
0.0
 40
0.5001518812696023
100
AcDbArc
 50
105.2305642048
 51
178.2532641825
  0
ARC
  5
18B
330
9C
100
AcDbEntity
  8
DV1_Default
  6
Continuous
 62
     7
100
AcDbCircle
 10
303.0448167134
 20
711.0405995401
 30
0.0
 40
0.5001518887534153
100
AcDbArc
 50
1.7748308198
 51
74.7975329339
  0
LINE
  5
18C
330
9C
100
AcDbEntity
  8
DV1_Default
  6
Continuous
 62
     7
100
AcDbLine
 10
301.5193172015
 20
712.3349113464
 30
0.0
 11
301.5193172015
 21
712.9186269457
 31
0.0
  0
LINE
  5
18D
330
9C
100
AcDbEntity
  8
DV1_Default
  6
Continuous
 62
     7
100
AcDbLine
 10
277.26978956
 20
712.9186269457
 30
0.0
 11
277.26978956
 21
712.3349113464
 31
0.0
  0
ARC
  5
18E
330
9C
100
AcDbEntity
  8
DV1_Default
  6
Continuous
 62
     7
100
AcDbCircle
 10
280.9583703906
 20
720.8472727251
 30
0.0
 40
6.190797172114419
100
AcDbArc
 50
264.1557273488
 51
264.5504510324
  0
ARC
  5
18F
330
9C
100
AcDbEntity
  8
DV1_Default
  6
Continuous
 62
     7
100
AcDbCircle
 10
298.0487151293
 20
714.5739731575
 30
0.0
 40
0.3000000000981525
100
AcDbArc
 50
39.5466203675
 51
61.7512267208
  0
ARC
  5
190
330
9C
100
AcDbEntity
  8
DV1_Default
  6
Continuous
 62
     7
100
AcDbCircle
 10
280.7441643744
 20
714.5739731575
 30
0.0
 40
0.3000000000981476
100
AcDbArc
 50
118.2363765068
 51
139.9321635891
  0
SPLINE
  5
191
330
9C
100
AcDbEntity
  8
DV1_Default
  6
Continuous
 62
     7
100
AcDbSpline
210
0.0
220
0.0
230
1.0
 70
     8
 71
     3
 72
    10
 73
     6
 74
     0
 42
0.0000000028792304
 43
0.0000000001
 40
0.0
 40
0.0
 40
0.0
 40
0.0
 40
0.6305965810764381
 40
0.8463301351451482
 40
1.0
 40
1.0
 40
1.0
 40
1.0
 10
368.4307335739799
 20
705.722919085118
 30
0.0
 10
368.9575409754696
 20
706.3241274336978
 30
0.0
 10
369.5587622413923
 20
706.9674067938134
 30
0.0
 10
370.4683998966372
 20
707.7462126733489
 30
0.0
 10
370.8271402518338
 20
707.9230892356427
 30
0.0
 10
371.0029977131957
 20
708.0092463640917
 30
0.0
  0
SPLINE
  5
192
330
9C
100
AcDbEntity
  8
DV1_Default
  6
Continuous
 62
     7
100
AcDbSpline
210
0.0
220
0.0
230
1.0
 70
     8
 71
     3
 72
    10
 73
     6
 74
     0
 42
0.0000000028792305
 43
0.0000000001
 40
0.0
 40
0.0
 40
0.0
 40
0.0
 40
0.1536698648589256
 40
0.3694034189257929
 40
1.0
 40
1.0
 40
1.0
 40
1.0
 10
370.061775932476
 20
715.6748826117678
 30
0.0
 10
369.8702988941324
 20
715.7159367292684
 30
0.0
 10
369.4794243488184
 20
715.8007721434332
 30
0.0
 10
368.4083966318465
 20
716.3363828366654
 30
0.0
 10
367.6694108507978
 20
716.815105413247
 30
0.0
 10
367.0128064228922
 20
717.2710090131454
 30
0.0
  0
ARC
  5
193
330
9C
100
AcDbEntity
  8
DV1_Default
  6
Continuous
 62
     7
100
AcDbCircle
 10
366.6675429312
 20
711.1973059708
 30
0.0
 40
5.696532972510264
100
AcDbArc
 50
18.6681237292
 51
49.9505499039
  0
ARC
  5
194
330
9C
100
AcDbEntity
  8
DV1_Default
  6
Continuous
 62
     7
100
AcDbCircle
 10
366.6160321189
 20
711.5241336163
 30
0.0
 40
5.704665644046644
100
AcDbArc
 50
324.1021439294
 51
356.6586079265
  0
ARC
  5
195
330
9C
100
AcDbEntity
  8
DV1_Default
  6
Continuous
 62
     7
100
AcDbCircle
 10
307.9210535038
 20
707.0372388923
 30
0.0
 40
3.983488950303337
100
AcDbArc
 50
40.3429882033
 51
66.7498637952
  0
ARC
  5
196
330
9C
100
AcDbEntity
  8
DV1_Default
  6
Continuous
 62
     7
100
AcDbCircle
 10
308.6184849073
 20
701.3571133239
 30
0.0
 40
3.983489158461489
100
AcDbArc
 50
307.2501397522
 51
333.6570155653
  0
ARC
  5
197
330
9C
100
AcDbEntity
  8
DV1_Default
  6
Continuous
 62
     7
100
AcDbCircle
 10
110.3531050642
 20
651.3185591976
 30
0.0
 40
1.574134508880162
100
AcDbArc
 50
359.0187237019
 51
70.8250932454
  0
SPLINE
  5
198
330
9C
100
AcDbEntity
  8
DV1_Default
  6
Continuous
 62
     7
100
AcDbSpline
210
0.0
220
0.0
230
1.0
 70
    12
 71
     3
 72
     8
 73
     4
 74
     0
 42
0.0000000047665508
 43
0.0000000001
 40
0.0
 40
0.0
 40
0.0
 40
0.0
 40
1.0
 40
1.0
 40
1.0
 40
1.0
 10
67.9177599732588
 20
652.8050705734286
 30
0.0
 41
1.0
 10
67.1580041751588
 20
652.5250987134385
 30
0.0
 41
1.0
 10
66.90371105065879
 20
651.9464582309789
 30
0.0
 41
1.0
 10
66.86172328865881
 20
651.2916013016736
 30
0.0
 41
1.0
  0
ARC
  5
199
330
9C
100
AcDbEntity
  8
DV1_Default
  6
Continuous
 62
     7
100
AcDbCircle
 10
89.3943731981
 20
7084.4303776534
 30
0.0
 40
6431.382321139004
100
AcDbArc
 50
269.8112456642
 51
270.1880418143
  0
ARC
  5
19A
330
9C
100
AcDbEntity
  8
DV1_Default
  6
Continuous
 62
     7
100
AcDbCircle
 10
111.0409160466
 20
653.2710057289
 30
0.0
 40
0.4959750234275344
100
AcDbArc
 50
202.2810275311
 51
249.858769014
  0
ARC
  5
19B
330
9C
100
AcDbEntity
  8
DV1_Default
  6
Continuous
 62
     7
100
AcDbCircle
 10
67.7449667366
 20
653.2743369011
 30
0.0
 40
0.5000683842820568
100
AcDbArc
 50
290.2147148843
 51
337.4984209632
  0
SPLINE
  5
19C
330
9C
100
AcDbEntity
  8
DV1_Default
  6
Continuous
 62
     7
100
AcDbSpline
210
0.0
220
0.0
230
1.0
 70
     8
 71
     3
 72
    15
 73
    11
 74
     0
 42
0.000000000307148
 43
0.0000000001
 40
0.0
 40
0.0
 40
0.0
 40
0.0
 40
0.1285852079196472
 40
0.2571704158392944
 40
0.3857556237589416
 40
0.5143408316785888
 40
0.642926039598236
 40
0.7715112475178831
 40
0.9000964554375304
 40
1.0
 40
1.0
 40
1.0
 40
1.0
 10
73.08430505275881
 20
688.0870973945375
 30
0.0
 10
73.08430437106821
 20
688.0870956608217
 30
0.0
 10
73.94727640286797
 20
688.0874380392672
 30
0.0
 10
77.66899218394127
 20
688.0869219312934
 30
0.0
 10
83.14230988999843
 20
688.087431423615
 30
0.0
 10
89.3213997772081
 20
688.086907300475
 30
0.0
 10
95.69017892869613
 20
688.0874161747677
 30
0.0
 10
101.269622716693
 20
688.0869030650337
 30
0.0
 10
104.5924884652481
 20
688.0873681205552
 30
0.0
 10
105.496641390677
 20
688.0871291099941
 30
0.0
 10
105.6418946426707
 20
688.0871008448477
 30
0.0
  0
ARC
  5
19D
330
9C
100
AcDbEntity
  8
DV1_Default
  6
Continuous
 62
     7
100
AcDbCircle
 10
300.4727243819
 20
697.3826706416
 30
0.0
 40
194.9896462826661
100
AcDbArc
 50
182.7324472829
 51
193.131696365
  0
SPLINE
  5
19E
330
9C
100
AcDbEntity
  8
DV1_Default
  6
Continuous
 62
     7
100
AcDbSpline
210
0.0
220
0.0
230
1.0
 70
    12
 71
     3
 72
     8
 73
     4
 74
     0
 42
0.0000000002815112
 43
0.0000000001
 40
0.0
 40
0.0
 40
0.0
 40
0.0
 40
1.0
 40
1.0
 40
1.0
 40
1.0
 10
73.08430505275881
 20
688.0870973945375
 30
0.0
 41
1.0
 10
71.48630141525881
 20
672.3742039640675
 30
0.0
 41
1.0
 10
70.0627284254588
 20
657.5634822927325
 30
0.0
 41
1.0
 10
68.2069644075588
 20
653.0829562829865
 30
0.0
 41
1.0
  0
SPLINE
  5
19F
330
9C
100
AcDbEntity
  8
DV1_Default
  6
Continuous
 62
     7
100
AcDbSpline
210
0.0
220
0.0
230
1.0
 70
     8
 71
     3
 72
    15
 73
    11
 74
     0
 42
0.0000000003003981
 43
0.0000000001
 40
0.0
 40
0.0
 40
0.0
 40
0.0
 40
0.099893994802298
 40
0.2284805669733699
 40
0.3570671391444415
 40
0.4856537113155131
 40
0.6142402834867836
 40
0.7428268556578553
 40
0.8714134278288872
 40
0.9999999999999999
 40
0.9999999999999999
 40
0.9999999999999999
 40
0.9999999999999999
 10
106.0061192038421
 20
688.6212927155664
 30
0.0
 10
105.8581043360461
 20
688.6213073929188
 30
0.0
 10
104.9354566066422
 20
688.6213826595334
 30
0.0
 10
101.5349476693014
 20
688.6212326272462
 30
0.0
 10
95.83243269475547
 20
688.6213947057053
 30
0.0
 10
89.3196805542919
 20
688.6212305484377
 30
0.0
 10
83.00108257934995
 20
688.6213961492748
 30
0.0
 10
77.4068282758254
 20
688.6212317861243
 30
0.0
 10
73.59876535015603
 20
688.6213948411322
 30
0.0
 10
72.71796100007738
 20
688.6212843816305
 30
0.0
 10
72.71822250215881
 20
688.6222478619276
 30
0.0
  0
ARC
  5
1A0
330
9C
100
AcDbEntity
  8
DV1_Default
  6
Continuous
 62
     7
100
AcDbCircle
 10
106.2025175974
 20
688.1394710003
 30
0.0
 40
0.5004912643271167
100
AcDbArc
 50
105.3688408892
 51
186.0064270656
  0
SPLINE
  5
1A1
330
9C
100
AcDbEntity
  8
DV1_Default
  6
Continuous
 62
     7
100
AcDbSpline
210
0.0
220
0.0
230
1.0
 70
     8
 71
     3
 72
     8
 73
     4
 74
     0
 42
0.0000000130809844
 43
0.0000000001
 40
0.0
 40
0.0
 40
0.0
 40
0.0
 40
1.0
 40
1.0
 40
1.0
 40
1.0
 10
73.08430505275881
 20
688.0870973945375
 30
0.0
 10
73.10962043216857
 20
688.3309391683939
 30
0.0
 10
72.95445046516275
 20
688.557091041304
 30
0.0
 10
72.71822250215881
 20
688.6222478619276
 30
0.0
  0
LINE
  5
1A2
330
9C
100
AcDbEntity
  8
DV1_Default
  6
Continuous
 62
     7
100
AcDbLine
 10
89.3947383199
 20
691.0795265247
 30
0.0
 11
73.413881001
 21
691.0795249655
 31
0.0
  0
LINE
  5
1A3
330
9C
100
AcDbEntity
  8
DV1_Default
  6
Continuous
 62
     7
100
AcDbLine
 10
105.3755956362
 20
691.0795249655
 30
0.0
 11
89.3947383199
 21
691.0795265247
 31
0.0
  0
SPLINE
  5
1A4
330
9C
100
AcDbEntity
  8
DV1_Default
  6
Continuous
 62
     7
100
AcDbSpline
210
0.0
220
0.0
230
1.0
 70
    12
 71
     3
 72
     8
 73
     4
 74
     0
 42
0.0000000018412601
 43
0.0000000001
 40
0.0
 40
0.0
 40
0.0
 40
0.0
 40
1.0
 40
1.0
 40
1.0
 40
1.0
 10
105.3755956361988
 20
691.0795249654775
 30
0.0
 41
1.156759498134475
 10
107.3435005398891
 20
691.0744311708878
 30
0.0
 41
1.156759498134475
 10
107.3973812312581
 20
688.9893597892651
 30
0.0
 41
1.156759498134475
 10
106.0698715092088
 20
688.6220645362175
 30
0.0
 41
1.156759498134475
  0
SPLINE
  5
1A5
330
9C
100
AcDbEntity
  8
DV1_Default
  6
Continuous
 62
     7
100
AcDbSpline
210
0.0
220
0.0
230
1.0
 70
    12
 71
     3
 72
     8
 73
     4
 74
     0
 42
0.0000000018423037
 43
0.0000000001
 40
0.0
 40
0.0
 40
0.0
 40
0.0
 40
1.0
 40
1.0
 40
1.0
 40
1.0
 10
72.71822250215881
 20
688.6222478619276
 30
0.0
 41
1.156759205426804
 10
71.3921316337136
 20
688.9907531266133
 30
0.0
 41
1.156759205426804
 10
71.4466337324981
 20
691.0744328720772
 30
0.0
 41
1.156759205426804
 10
73.41388100095881
 20
691.0795249654775
 30
0.0
 41
1.156759205426803
  0
LINE
  5
1A6
330
9C
100
AcDbEntity
  8
DV1_Default
  6
Continuous
 62
     7
100
AcDbLine
 10
89.3941643744
 20
691.0795312045
 30
0.0
 11
86.5477015588
 21
691.0795312045
 31
0.0
  0
LINE
  5
1A7
330
9C
100
AcDbEntity
  8
DV1_Default
  6
Continuous
 62
     7
100
AcDbLine
 10
84.7127060121
 20
691.0795312045
 30
0.0
 11
81.9174552924
 21
691.0795312045
 31
0.0
  0
LINE
  5
1A8
330
9C
100
AcDbEntity
  8
DV1_Default
  6
Continuous
 62
     7
100
AcDbLine
 10
79.6573313725
 20
691.0795312045
 30
0.0
 11
77.9441643744
 21
691.0795312045
 31
0.0
  0
LINE
  5
1A9
330
9C
100
AcDbEntity
  8
DV1_Default
  6
Continuous
 62
     7
100
AcDbLine
 10
89.3941643744
 20
691.0795312045
 30
0.0
 11
93.9383586706
 21
691.0795312045
 31
0.0
  0
LINE
  5
1AA
330
9C
100
AcDbEntity
  8
DV1_Default
  6
Continuous
 62
     7
100
AcDbLine
 10
100.6934453017
 20
691.0795312045
 30
0.0
 11
100.8441643744
 21
691.0795312045
 31
0.0
  0
SPLINE
  5
1AB
330
9C
100
AcDbEntity
  8
DV1_Default
  6
Continuous
 62
     7
100
AcDbSpline
210
0.0
220
0.0
230
1.0
 70
    12
 71
     3
 72
     8
 73
     4
 74
     0
 42
0.0000000274921942
 43
0.0000000001
 40
0.0
 40
0.0
 40
0.0
 40
0.0
 40
1.0
 40
1.0
 40
1.0
 40
1.0
 10
67.0613596083588
 20
651.0795314429176
 30
0.0
 41
1.0
 10
66.94610514295879
 20
651.0795312554187
 30
0.0
 41
1.0
 10
66.8547594449588
 20
651.1766644375938
 30
0.0
 41
1.0
 10
66.86172328865881
 20
651.2916013016736
 30
0.0
 41
1.0
  0
ARC
  5
1AC
330
9C
100
AcDbEntity
  8
DV1_Default
  6
Continuous
 62
     7
100
AcDbCircle
 10
111.7265731696
 20
651.2802857444
 30
0.0
 40
0.200754692295825
100
AcDbArc
 50
270.1130528417
 51
3.2311360921
  0
LINE
  5
1AD
330
9C
100
AcDbEntity
  8
DV1_Default
  6
Continuous
 62
     7
100
AcDbLine
 10
67.086815564
 20
651.0795314429
 30
0.0
 11
111.7190093363
 21
651.0795314429
 31
0.0
  0
ARC
  5
1AE
330
9C
100
AcDbEntity
  8
DV1_Default
  6
Continuous
 62
     7
100
AcDbCircle
 10
110.9611367325
 20
653.2726381577
 30
0.0
 40
0.498726466905508
100
AcDbArc
 50
201.966569546
 51
249.9316934077
  0
ARC
  5
1AF
330
9C
100
AcDbEntity
  8
DV1_Default
  6
Continuous
 62
     7
100
AcDbCircle
 10
106.138657227
 20
688.1394016858
 30
0.0
 40
0.4997762568887398
100
AcDbArc
 50
104.8741297342
 51
186.515679957
  0
SPLINE
  5
1B0
330
9C
100
AcDbEntity
  8
DV1_Default
  6
Continuous
 62
     7
100
AcDbSpline
210
0.0
220
0.0
230
1.0
 70
     8
 71
     3
 72
     8
 73
     4
 74
     0
 42
0.0000000265999371
 43
0.0000000001
 40
0.0
 40
0.0
 40
0.0
 40
0.0
 40
1.0
 40
1.0
 40
1.0
 40
1.0
 10
106.0127571505304
 20
690.8977063183738
 30
0.0
 10
106.0325251252992
 20
690.9724048346615
 30
0.0
 10
105.9443676585032
 20
691.0218829296639
 30
0.0
 10
105.7482847501423
 20
691.0461406033813
 30
0.0
  0
ARC
  5
1B1
330
9C
100
AcDbEntity
  8
DV1_Default
  6
Continuous
 62
     7
100
AcDbCircle
 10
111.7243631606
 20
651.2803329669
 30
0.0
 40
0.2000136707307329
100
AcDbArc
 50
323.7269482117
 51
332.5396678182
  0
LINE
  5
1B2
330
9C
100
AcDbEntity
  8
DV1_Default
  6
Continuous
 62
     7
100
AcDbLine
 10
111.8380558673
 20
651.1315246854
 30
0.0
 11
111.8943154879
 21
651.1886184301
 31
0.0
  0
ARC
  5
1B3
330
9C
100
AcDbEntity
  8
DV1_Default
  6
Continuous
 62
     7
100
AcDbCircle
 10
111.7243630602
 20
651.2803329824
 30
0.0
 40
0.2000136815974732
100
AcDbArc
 50
316.4262275554
 51
3.823781869
  0
LINE
  5
1B4
330
9C
100
AcDbEntity
  8
DV1_Default
  6
Continuous
 62
     7
100
AcDbLine
 10
111.8383640185
 20
651.1424656788
 30
0.0
 11
111.7227163216
 21
651.0795419518
 31
0.0
  0
ARC
  5
1B5
330
9C
100
AcDbEntity
  8
DV1_Default
  6
Continuous
 62
     7
100
AcDbCircle
 10
310.3531050642
 20
651.3185591976
 30
0.0
 40
1.5741345089313
100
AcDbArc
 50
359.0187237027
 51
70.8250932426
  0
SPLINE
  5
1B6
330
9C
100
AcDbEntity
  8
DV1_Default
  6
Continuous
 62
     7
100
AcDbSpline
210
0.0
220
0.0
230
1.0
 70
    12
 71
     3
 72
     8
 73
     4
 74
     0
 42
0.0000000047665508
 43
0.0000000001
 40
0.0
 40
0.0
 40
0.0
 40
0.0
 40
1.0
 40
1.0
 40
1.0
 40
1.0
 10
267.9177599732689
 20
652.8050705734286
 30
0.0
 41
1.0
 10
267.1580041751688
 20
652.5250987134385
 30
0.0
 41
1.0
 10
266.9037110506388
 20
651.9464582309789
 30
0.0
 41
1.0
 10
266.8617232886988
 20
651.2916013016736
 30
0.0
 41
1.0
  0
ARC
  5
1B7
330
9C
100
AcDbEntity
  8
DV1_Default
  6
Continuous
 62
     7
100
AcDbCircle
 10
289.3943731981
 20
7084.429871428
 30
0.0
 40
6431.381814916297
100
AcDbArc
 50
269.8112456493
 51
270.1880418291
  0
ARC
  5
1B8
330
9C
100
AcDbEntity
  8
DV1_Default
  6
Continuous
 62
     7
100
AcDbCircle
 10
311.0409160465
 20
653.2710057288
 30
0.0
 40
0.4959750233352267
100
AcDbArc
 50
202.2810275274
 51
249.8587690216
  0
ARC
  5
1B9
330
9C
100
AcDbEntity
  8
DV1_Default
  6
Continuous
 62
     7
100
AcDbCircle
 10
267.7449667367
 20
653.2743369011
 30
0.0
 40
0.5000683841899037
100
AcDbArc
 50
290.2147148854
 51
337.49842097
  0
SPLINE
  5
1BA
330
9C
100
AcDbEntity
  8
DV1_Default
  6
Continuous
 62
     7
100
AcDbSpline
210
0.0
220
0.0
230
1.0
 70
     8
 71
     3
 72
    15
 73
    11
 74
     0
 42
0.000000000307148
 43
0.0000000001
 40
0.0
 40
0.0
 40
0.0
 40
0.0
 40
0.1285852079187373
 40
0.2571704158374747
 40
0.385755623756212
 40
0.5143408316749494
 40
0.6429260395936867
 40
0.7715112475124241
 40
0.9000964554311615
 40
0.9999999999999999
 40
0.9999999999999999
 40
0.9999999999999999
 40
0.9999999999999999
 10
273.0843050527988
 20
688.0870973945375
 30
0.0
 10
273.0843043711054
 20
688.0870956608245
 30
0.0
 10
273.9472764028379
 20
688.0874380392695
 30
0.0
 10
277.6689921839723
 20
688.086921931295
 30
0.0
 10
283.1423098900269
 20
688.087431423616
 30
0.0
 10
289.3213997772005
 20
688.0869073004752
 30
0.0
 10
295.690178928709
 20
688.0874161747672
 30
0.0
 10
301.2696227166595
 20
688.0869030650324
 30
0.0
 10
304.5924884653194
 20
688.0873681205533
 30
0.0
 10
305.4966413907409
 20
688.0871291099917
 30
0.0
 10
305.6418946427012
 20
688.0871008448465
 30
0.0
  0
ARC
  5
1BB
330
9C
100
AcDbEntity
  8
DV1_Default
  6
Continuous
 62
     7
100
AcDbCircle
 10
500.4727243857
 20
697.3826706423
 30
0.0
 40
194.9896462865728
100
AcDbArc
 50
182.732447283
 51
193.131696365
  0
SPLINE
  5
1BC
330
9C
100
AcDbEntity
  8
DV1_Default
  6
Continuous
 62
     7
100
AcDbSpline
210
0.0
220
0.0
230
1.0
 70
    12
 71
     3
 72
     8
 73
     4
 74
     0
 42
0.0000000002815112
 43
0.0000000001
 40
0.0
 40
0.0
 40
0.0
 40
0.0
 40
1.0
 40
1.0
 40
1.0
 40
1.0
 10
273.0843050527988
 20
688.0870973945375
 30
0.0
 41
1.0
 10
271.4863014152688
 20
672.3742039640675
 30
0.0
 41
1.0
 10
270.0627284254288
 20
657.5634822927325
 30
0.0
 41
1.0
 10
268.2069644075288
 20
653.0829562829865
 30
0.0
 41
1.0
  0
SPLINE
  5
1BD
330
9C
100
AcDbEntity
  8
DV1_Default
  6
Continuous
 62
     7
100
AcDbSpline
210
0.0
220
0.0
230
1.0
 70
     8
 71
     3
 72
    15
 73
    11
 74
     0
 42
0.0000000003008684
 43
0.0000000001
 40
0.0
 40
0.0
 40
0.0
 40
0.0
 40
0.1041137194172644
 40
0.2360455508214237
 40
0.367977382225583
 40
0.4999092136297422
 40
0.6318410450341053
 40
0.7637728764382646
 40
0.8957047078423831
 40
0.9999999999999999
 40
0.9999999999999999
 40
0.9999999999999999
 40
0.9999999999999999
 10
306.0129500746305
 20
688.6212920330813
 30
0.0
 10
305.8708036452527
 20
688.6213063438742
 30
0.0
 10
304.9505019391241
 20
688.6213833233419
 30
0.0
 10
301.5349476692704
 20
688.6212326272465
 30
0.0
 10
295.8324326947574
 20
688.6213947057056
 30
0.0
 10
289.3196805543217
 20
688.621230548438
 30
0.0
 10
283.0010825793098
 20
688.6213961492751
 30
0.0
 10
277.4068282758507
 20
688.6212317861247
 30
0.0
 10
273.8646644875361
 20
688.6213834557676
 30
0.0
 10
272.9206555581289
 20
688.6213051160097
 30
0.0
 10
272.7758266236506
 20
688.621766620235
 30
0.0
  0
ARC
  5
1BE
330
9C
100
AcDbEntity
  8
DV1_Default
  6
Continuous
 62
     7
100
AcDbCircle
 10
306.2025175974
 20
688.1394710003
 30
0.0
 40
0.5004912643060736
100
AcDbArc
 50
105.3688408918
 51
186.0064270689
  0
SPLINE
  5
1BF
330
9C
100
AcDbEntity
  8
DV1_Default
  6
Continuous
 62
     7
100
AcDbSpline
210
0.0
220
0.0
230
1.0
 70
     8
 71
     3
 72
     8
 73
     4
 74
     0
 42
0.0000000130809844
 43
0.0000000001
 40
0.0
 40
0.0
 40
0.0
 40
0.0
 40
1.0
 40
1.0
 40
1.0
 40
1.0
 10
273.0843050527988
 20
688.0870973945375
 30
0.0
 10
273.1096204321569
 20
688.3309391683889
 30
0.0
 10
272.9544504651412
 20
688.5570910412914
 30
0.0
 10
272.7182225021588
 20
688.6222478619276
 30
0.0
  0
LINE
  5
1C0
330
9C
100
AcDbEntity
  8
DV1_Default
  6
Continuous
 62
     7
100
AcDbLine
 10
289.3947383199
 20
691.0795265247
 30
0.0
 11
273.5140714241
 21
691.0795249753
 31
0.0
  0
LINE
  5
1C1
330
9C
100
AcDbEntity
  8
DV1_Default
  6
Continuous
 62
     7
100
AcDbLine
 10
305.2767435006
 20
691.0795249751
 30
0.0
 11
289.3947383199
 21
691.0795265247
 31
0.0
  0
SPLINE
  5
1C2
330
9C
100
AcDbEntity
  8
DV1_Default
  6
Continuous
 62
     7
100
AcDbSpline
210
0.0
220
0.0
230
1.0
 70
    12
 71
     3
 72
     8
 73
     4
 74
     0
 42
0.0000000268780254
 43
0.0000000001
 40
0.0
 40
0.0
 40
0.0
 40
0.0
 40
1.0
 40
1.0
 40
1.0
 40
1.0
 10
305.3755956361588
 20
691.0795249654775
 30
0.0
 41
1.156759498134475
 10
305.5075793787695
 20
691.079183334094
 30
0.0
 41
1.156759498134475
 10
305.6309535785658
 20
691.0694856789079
 30
0.0
 41
1.156759498134475
 10
305.7458789214278
 20
691.0515777127894
 30
0.0
 41
1.156759498134475
  0
SPLINE
  5
1C3
330
9C
100
AcDbEntity
  8
DV1_Default
  6
Continuous
 62
     7
100
AcDbSpline
210
0.0
220
0.0
230
1.0
 70
    12
 71
     3
 72
     8
 73
     4
 74
     0
 42
0.0000000268779239
 43
0.0000000001
 40
0.0
 40
0.0
 40
0.0
 40
0.0
 40
1.0
 40
1.0
 40
1.0
 40
1.0
 10
273.043596340658
 20
691.0515774446601
 30
0.0
 41
1.156759205426803
 10
273.1585220857334
 20
691.0694856022653
 30
0.0
 41
1.156759205426803
 10
273.2818967379709
 20
691.0791833326767
 30
0.0
 41
1.156759205426803
 10
273.4138810009188
 20
691.0795249654775
 30
0.0
 41
1.156759205426803
  0
SPLINE
  5
1C4
330
9C
100
AcDbEntity
  8
DV1_Default
  6
Continuous
 62
     7
100
AcDbSpline
210
0.0
220
0.0
230
1.0
 70
    12
 71
     3
 72
     8
 73
     4
 74
     0
 42
0.0000000274921942
 43
0.0000000001
 40
0.0
 40
0.0
 40
0.0
 40
0.0
 40
1.0
 40
1.0
 40
1.0
 40
1.0
 10
267.0613596083888
 20
651.0795314429176
 30
0.0
 41
1.0
 10
266.9461051429688
 20
651.0795312554187
 30
0.0
 41
1.0
 10
266.8547594449888
 20
651.1766644375937
 30
0.0
 41
1.0
 10
266.8617232886988
 20
651.2916013016736
 30
0.0
 41
1.0
  0
ARC
  5
1C5
330
9C
100
AcDbEntity
  8
DV1_Default
  6
Continuous
 62
     7
100
AcDbCircle
 10
311.7265731696
 20
651.2802857444
 30
0.0
 40
0.200754692289523
100
AcDbArc
 50
270.1130528369
 51
3.2311360941
  0
LINE
  5
1C6
330
9C
100
AcDbEntity
  8
DV1_Default
  6
Continuous
 62
     7
100
AcDbLine
 10
267.0868155641
 20
651.0795314429
 30
0.0
 11
311.7190093363
 21
651.0795314429
 31
0.0
  0
ARC
  5
1C7
330
9C
100
AcDbEntity
  8
DV1_Default
  6
Continuous
 62
     7
100
AcDbCircle
 10
310.9611367326
 20
653.2726381577
 30
0.0
 40
0.4987264669368009
100
AcDbArc
 50
201.9665695433
 51
249.9316934114
  0
ARC
  5
1C8
330
9C
100
AcDbEntity
  8
DV1_Default
  6
Continuous
 62
     7
100
AcDbCircle
 10
306.1386572269
 20
688.1394016858
 30
0.0
 40
0.4997762568623557
100
AcDbArc
 50
104.8741297437
 51
186.5156799608
  0
SPLINE
  5
1C9
330
9C
100
AcDbEntity
  8
DV1_Default
  6
Continuous
 62
     7
100
AcDbSpline
210
0.0
220
0.0
230
1.0
 70
     8
 71
     3
 72
    17
 73
    13
 74
     0
 42
0.0000000030006735
 43
0.0000000001
 40
0.0
 40
0.0
 40
0.0
 40
0.0
 40
0.0944632714586216
 40
0.1753668705505639
 40
0.3081103493437644
 40
0.4115535011510182
 40
0.4887629159671563
 40
0.56882594657381
 40
0.6745017217678345
 40
0.8117691440872813
 40
0.8976101329077327
 40
1.0
 40
1.0
 40
1.0
 40
1.0
 10
305.9717076040891
 20
688.6117603860653
 30
0.0
 10
306.0806818792544
 20
688.6445077144514
 30
0.0
 10
306.2514781127688
 20
688.6993995221176
 30
0.0
 10
306.5407085152422
 20
688.8899655113163
 30
0.0
 10
306.7668534395597
 20
689.162797474995
 30
0.0
 10
306.8908914492737
 20
689.4891014870361
 30
0.0
 10
306.9253948188035
 20
689.7753941221467
 30
0.0
 10
306.8974307232305
 20
690.0650477265705
 30
0.0
 10
306.7723112386087
 20
690.4025941188247
 30
0.0
 10
306.5368028730354
 20
690.684991084736
 30
0.0
 10
306.2328317679224
 20
690.8889331709462
 30
0.0
 10
306.0516762309161
 20
690.9547655184739
 30
0.0
 10
305.9346322689842
 20
690.994840975761
 30
0.0
  0
SPLINE
  5
1CA
330
9C
100
AcDbEntity
  8
DV1_Default
  6
Continuous
 62
     7
100
AcDbSpline
210
0.0
220
0.0
230
1.0
 70
     8
 71
     3
 72
     8
 73
     4
 74
     0
 42
0.0000001769734972
 43
0.0000000001
 40
0.0
 40
0.0
 40
0.0
 40
0.0
 40
1.0
 40
1.0
 40
1.0
 40
1.0
 10
305.4656787959395
 20
691.0353782792536
 30
0.0
 10
305.4632224792599
 20
691.0240538909252
 30
0.0
 10
305.4511399470488
 20
691.0105414564276
 30
0.0
 10
305.4294311993063
 20
690.994840975761
 30
0.0
  0
SPLINE
  5
1CB
330
9C
100
AcDbEntity
  8
DV1_Default
  6
Continuous
 62
     7
100
AcDbSpline
210
0.0
220
0.0
230
1.0
 70
     8
 71
     3
 72
     8
 73
     4
 74
     0
 42
0.0000000266741957
 43
0.0000000001
 40
0.0
 40
0.0
 40
0.0
 40
0.0
 40
1.0
 40
1.0
 40
1.0
 40
1.0
 10
273.0446255376382
 20
691.0467127610816
 30
0.0
 10
272.8487639113761
 20
691.022763618901
 30
0.0
 10
272.7606939372988
 20
690.9736982431174
 30
0.0
 10
272.7804156154064
 20
690.899516633731
 30
0.0
  0
SPLINE
  5
1CC
330
9C
100
AcDbEntity
  8
DV1_Default
  6
Continuous
 62
     7
100
AcDbSpline
210
0.0
220
0.0
230
1.0
 70
     8
 71
     3
 72
    29
 73
    25
 74
     0
 42
0.0000000003107768
 43
0.0000000001
 40
0.0
 40
0.0
 40
0.0
 40
0.0
 40
0.0497049945826616
 40
0.0964092304636507
 40
0.1394188377203016
 40
0.1782236245966628
 40
0.2228538116402114
 40
0.2590382137022077
 40
0.2907373668790679
 40
0.3389402112143556
 40
0.3875216195757816
 40
0.4356663270456452
 40
0.4820856980168877
 40
0.5273219156310288
 40
0.5733217453960368
 40
0.6180089454081109
 40
0.6608217228971417
 40
0.6944206975546786
 40
0.7377199311926623
 40
0.7907379942886377
 40
0.8366554536903931
 40
0.8873604840327995
 40
0.9421378086914299
 40
1.0
 40
1.0
 40
1.0
 40
1.0
 10
305.4834556775361
 20
691.0559610995695
 30
0.0
 10
305.3132320098524
 20
691.0561860320811
 30
0.0
 10
305.0213567453149
 20
691.0565521086933
 30
0.0
 10
304.2180931080782
 20
691.0570533145344
 30
0.0
 10
303.2808735072144
 20
691.0574492556601
 30
0.0
 10
302.1657454465767
 20
691.0577782570817
 30
0.0
 10
300.9450146154771
 20
691.0580198298753
 30
0.0
 10
299.6612469719025
 20
691.058114422592
 30
0.0
 10
298.2324290200732
 20
691.0580920476435
 30
0.0
 10
296.5280471876622
 20
691.058100512092
 30
0.0
 10
294.4749320030669
 20
691.0580979477023
 30
0.0
 10
292.3550457748453
 20
691.0580985852837
 30
0.0
 10
290.2341066187297
 20
691.0580985635931
 30
0.0
 10
288.1322531227693
 20
691.0580980528619
 30
0.0
 10
286.0770121037714
 20
691.0581001196217
 30
0.0
 10
284.1114331287039
 20
691.0580926554421
 30
0.0
 10
282.4020676359492
 20
691.0581173495118
 30
0.0
 10
280.7978998720719
 20
691.058035303854
 30
0.0
 10
279.1664154865165
 20
691.057843179799
 30
0.0
 10
277.5608762178622
 20
691.0575772197872
 30
0.0
 10
276.10057911351
 20
691.0572526999454
 30
0.0
 10
274.8842907981373
 20
691.056891900682
 30
0.0
 10
273.8612177583817
 20
691.0564563798172
 30
0.0
 10
273.5090902506615
 20
691.0561486347223
 30
0.0
 10
273.3060180967239
 20
691.0559610817947
 30
0.0
  0
SPLINE
  5
1CD
330
9C
100
AcDbEntity
  8
DV1_Default
  6
Continuous
 62
     7
100
AcDbSpline
210
0.0
220
0.0
230
1.0
 70
     8
 71
     3
 72
     8
 73
     4
 74
     0
 42
0.0000000266741531
 43
0.0000000001
 40
0.0
 40
0.0
 40
0.0
 40
0.0
 40
1.0
 40
1.0
 40
1.0
 40
1.0
 10
306.0090592202773
 20
690.8995161317879
 30
0.0
 10
306.0287819196085
 20
690.9736980167332
 30
0.0
 10
305.9407123200024
 20
691.0227636132114
 30
0.0
 10
305.744850421459
 20
691.0467129212224
 30
0.0
  0
SPLINE
  5
1CE
330
9C
100
AcDbEntity
  8
DV1_Default
  6
Continuous
 62
     7
100
AcDbSpline
210
0.0
220
0.0
230
1.0
 70
     8
 71
     3
 72
    17
 73
    13
 74
     0
 42
0.0000000030006732
 43
0.0000000001
 40
0.0
 40
0.0
 40
0.0
 40
0.0
 40
0.1023898856460701
 40
0.1882308929918938
 40
0.3254983432667443
 40
0.4311741272360007
 40
0.5112371510237689
 40
0.5884465552569631
 40
0.6918896928850967
 40
0.8246331534834632
 40
0.9055367414867989
 40
1.0
 40
1.0
 40
1.0
 40
1.0
 10
272.8548439798317
 20
690.994840975761
 30
0.0
 10
272.7377999780593
 20
690.954765517499
 30
0.0
 10
272.5566443770601
 20
690.8889331684013
 30
0.0
 10
272.2526731623853
 20
690.6849910851329
 30
0.0
 10
272.0171646980794
 20
690.4025941388952
 30
0.0
 10
271.8920451211225
 20
690.0650477548892
 30
0.0
 10
271.8640809884048
 20
689.7753941281597
 30
0.0
 10
271.8985843676159
 20
689.4891014865096
 30
0.0
 10
272.0226223801624
 20
689.1627974752048
 30
0.0
 10
272.2487673158645
 20
688.8899655112791
 30
0.0
 10
272.537997731577
 20
688.6993995221259
 30
0.0
 10
272.7087939730751
 20
688.6445077144509
 30
0.0
 10
272.8177682533125
 20
688.6117603860653
 30
0.0
  0
SPLINE
  5
1CF
330
9C
100
AcDbEntity
  8
DV1_Default
  6
Continuous
 62
     7
100
AcDbSpline
210
0.0
220
0.0
230
1.0
 70
     8
 71
     3
 72
     8
 73
     4
 74
     0
 42
0.0000001769786819
 43
0.0000000001
 40
0.0
 40
0.0
 40
0.0
 40
0.0
 40
1.0
 40
1.0
 40
1.0
 40
1.0
 10
273.3600409858268
 20
690.994840975761
 30
0.0
 10
273.3383331957143
 20
691.010541102214
 30
0.0
 10
273.3262511505773
 20
691.0240532812264
 30
0.0
 10
273.3237948504156
 20
691.0353775127979
 30
0.0
  0
ARC
  5
1D0
330
9C
100
AcDbEntity
  8
DV1_Default
  6
Continuous
 62
     7
100
AcDbCircle
 10
311.7243631606
 20
651.2803329669
 30
0.0
 40
0.2000136707267201
100
AcDbArc
 50
323.7269482114
 51
332.539667818
  0
LINE
  5
1D1
330
9C
100
AcDbEntity
  8
DV1_Default
  6
Continuous
 62
     7
100
AcDbLine
 10
311.8380558673
 20
651.1315246854
 30
0.0
 11
311.894315488
 21
651.1886184301
 31
0.0
  0
ARC
  5
1D2
330
9C
100
AcDbEntity
  8
DV1_Default
  6
Continuous
 62
     7
100
AcDbCircle
 10
311.7243630603
 20
651.2803329824
 30
0.0
 40
0.2000136815501393
100
AcDbArc
 50
316.4262275543
 51
3.8237818797
  0
LINE
  5
1D3
330
9C
100
AcDbEntity
  8
DV1_Default
  6
Continuous
 62
     7
100
AcDbLine
 10
311.8383640185
 20
651.1424656788
 30
0.0
 11
311.7227163216
 21
651.0795419518
 31
0.0
  0
LINE
  5
1D4
330
9C
100
AcDbEntity
  8
DV1_Default
  6
Continuous
 62
     7
100
AcDbLine
 10
89.3941642033
 20
641.0795314429
 30
0.0
 11
119.6879099154
 21
641.0795314429
 31
0.0
  0
LINE
  5
1D5
330
9C
100
AcDbEntity
  8
DV1_Default
  6
Continuous
 62
     7
100
AcDbLine
 10
66.0918904721
 20
641.0795314396
 30
0.0
 11
89.3941643744
 21
641.0795314396
 31
0.0
  0
LINE
  5
1D6
330
9C
100
AcDbEntity
  8
DV1_Default
  6
Continuous
 62
     7
100
AcDbLine
 10
59.1004188333
 20
641.0795314396
 30
0.0
 11
66.0918904721
 21
641.0795314396
 31
0.0
  0
LINE
  5
1D7
330
9C
100
AcDbEntity
  8
DV1_Default
  6
Continuous
 62
     7
100
AcDbLine
 10
116.3427227657
 20
644.6188224221
 30
0.0
 11
62.445605983
 21
644.6188224221
 31
0.0
  0
LINE
  5
1D8
330
9C
100
AcDbEntity
  8
DV1_Default
  6
Continuous
 62
     7
100
AcDbLine
 10
89.3941643744
 20
651.0795314429
 30
0.0
 11
67.2948510585
 21
651.0795314429
 31
0.0
  0
LINE
  5
1D9
330
9C
100
AcDbEntity
  8
DV1_Default
  6
Continuous
 62
     7
100
AcDbLine
 10
89.3941643744
 20
651.0795314429
 30
0.0
 11
111.4935280517
 21
651.0795314429
 31
0.0
  0
ARC
  5
1DA
330
9C
100
AcDbEntity
  8
DV1_Default
  6
Continuous
 62
     7
100
AcDbCircle
 10
59.1004188333
 20
641.2795314429
 30
0.0
 40
0.2000000000219404
100
AcDbArc
 50
176.4176264791
 51
270.0
  0
ARC
  5
1DB
330
9C
100
AcDbEntity
  8
DV1_Default
  6
Continuous
 62
     7
100
AcDbCircle
 10
119.6879099154
 20
641.2795314429
 30
0.0
 40
0.2000000000026442
100
AcDbArc
 50
270.0
 51
3.5823735212
  0
ARC
  5
1DC
330
9C
100
AcDbEntity
  8
DV1_Default
  6
Continuous
 62
     7
100
AcDbCircle
 10
62.295010239
 20
641.0795314429
 30
0.0
 40
3.400845864663452
100
AcDbArc
 50
95.0138669062
 51
176.4176264765
  0
ARC
  5
1DD
330
9C
100
AcDbEntity
  8
DV1_Default
  6
Continuous
 62
     7
100
AcDbCircle
 10
116.4933185097
 20
641.0795314429
 30
0.0
 40
3.400845864663439
100
AcDbArc
 50
3.5823735235
 51
84.9861330938
  0
ARC
  5
1DE
330
9C
100
AcDbEntity
  8
DV1_Default
  6
Continuous
 62
     7
100
AcDbCircle
 10
61.9103902066
 20
645.4635378019
 30
0.0
 40
1.000000000027468
100
AcDbArc
 50
275.0138669045
 51
302.3585460158
  0
ARC
  5
1DF
330
9C
100
AcDbEntity
  8
DV1_Default
  6
Continuous
 62
     7
100
AcDbCircle
 10
116.8779385421
 20
645.4635378019
 30
0.0
 40
1.000000000029958
100
AcDbArc
 50
237.6414539842
 51
264.9861330937
  0
ARC
  5
1E0
330
9C
100
AcDbEntity
  8
DV1_Default
  6
Continuous
 62
     7
100
AcDbCircle
 10
57.0934482194
 20
653.0659762194
 30
0.0
 40
10.00000000008173
100
AcDbArc
 50
302.3585460164
 51
346.3019981151
  0
ARC
  5
1E1
330
9C
100
AcDbEntity
  8
DV1_Default
  6
Continuous
 62
     7
100
AcDbCircle
 10
121.6948805293
 20
653.0659762194
 30
0.0
 40
10.00000000002237
100
AcDbArc
 50
193.698001885
 51
237.6414539836
  0
ARC
  5
1E2
330
9C
100
AcDbEntity
  8
DV1_Default
  6
Continuous
 62
     7
100
AcDbCircle
 10
67.2948006972
 20
650.5795314429
 30
0.0
 40
0.500000000006398
100
AcDbArc
 50
90.0
 51
112.9566819091
  0
ARC
  5
1E3
330
9C
100
AcDbEntity
  8
DV1_Default
  6
Continuous
 62
     7
100
AcDbCircle
 10
67.2948006972
 20
650.5795314429
 30
0.0
 40
0.500000000006398
100
AcDbArc
 50
114.4651533425
 51
166.3019981141
  0
ARC
  5
1E4
330
9C
100
AcDbEntity
  8
DV1_Default
  6
Continuous
 62
     7
100
AcDbCircle
 10
111.4935280516
 20
650.5795314429
 30
0.0
 40
0.5000000000064154
100
AcDbArc
 50
13.6980018859
 51
60.9087273957
  0
ARC
  5
1E5
330
9C
100
AcDbEntity
  8
DV1_Default
  6
Continuous
 62
     7
100
AcDbCircle
 10
111.4935280516
 20
650.5795314429
 30
0.0
 40
0.5000000000064154
100
AcDbArc
 50
66.4141694388
 51
90.0
  0
LINE
  5
1E6
330
9C
100
AcDbEntity
  8
DV1_Default
  6
Continuous
 62
     7
100
AcDbLine
 10
319.6879099154
 20
641.0795314429
 30
0.0
 11
289.3941643762
 21
641.0795314429
 31
0.0
  0
LINE
  5
1E7
330
9C
100
AcDbEntity
  8
DV1_Default
  6
Continuous
 62
     7
100
AcDbLine
 10
316.7905416997
 20
644.4673642266
 30
0.0
 11
261.997787049
 21
644.4673642266
 31
0.0
  0
LINE
  5
1E8
330
9C
100
AcDbEntity
  8
DV1_Default
  6
Continuous
 62
     7
100
AcDbLine
 10
267.2948510585
 20
651.0795314429
 30
0.0
 11
289.3941643744
 21
651.0795314429
 31
0.0
  0
LINE
  5
1E9
330
9C
100
AcDbEntity
  8
DV1_Default
  6
Continuous
 62
     7
100
AcDbLine
 10
311.4935280517
 20
651.0795314429
 30
0.0
 11
289.3941643744
 21
651.0795314429
 31
0.0
  0
ARC
  5
1EA
330
9C
100
AcDbEntity
  8
DV1_Default
  6
Continuous
 62
     7
100
AcDbCircle
 10
259.1004188333
 20
641.2795314429
 30
0.0
 40
0.1999999999932571
100
AcDbArc
 50
176.4176264779
 51
270.0
  0
ARC
  5
1EB
330
9C
100
AcDbEntity
  8
DV1_Default
  6
Continuous
 62
     7
100
AcDbCircle
 10
319.6879099154
 20
641.2795314429
 30
0.0
 40
0.2000000000033312
100
AcDbArc
 50
270.0
 51
3.5823735223
  0
LINE
  5
1EC
330
9C
100
AcDbEntity
  8
DV1_Default
  6
Continuous
 62
     7
100
AcDbLine
 10
259.1004188333
 20
641.0795314429
 30
0.0
 11
289.3941650249
 21
641.0795314429
 31
0.0
  0
ARC
  5
1ED
330
9C
100
AcDbEntity
  8
DV1_Default
  6
Continuous
 62
     7
100
AcDbCircle
 10
262.295010239
 20
641.0795314429
 30
0.0
 40
3.400845864657105
100
AcDbArc
 50
95.0138669061
 51
176.4176264765
  0
ARC
  5
1EE
330
9C
100
AcDbEntity
  8
DV1_Default
  6
Continuous
 62
     7
100
AcDbCircle
 10
316.4933185097
 20
641.0795314429
 30
0.0
 40
3.40084586465711
100
AcDbArc
 50
3.5823735235
 51
84.9861330939
  0
ARC
  5
1EF
330
9C
100
AcDbEntity
  8
DV1_Default
  6
Continuous
 62
     7
100
AcDbCircle
 10
261.9103902066
 20
645.4635378019
 30
0.0
 40
1.000000000016713
100
AcDbArc
 50
275.0138669058
 51
302.3585460146
  0
ARC
  5
1F0
330
9C
100
AcDbEntity
  8
DV1_Default
  6
Continuous
 62
     7
100
AcDbCircle
 10
316.8779385421
 20
645.4635378019
 30
0.0
 40
1.000000000015689
100
AcDbArc
 50
237.6414539854
 51
264.9861330933
  0
ARC
  5
1F1
330
9C
100
AcDbEntity
  8
DV1_Default
  6
Continuous
 62
     7
100
AcDbCircle
 10
257.0934482194
 20
653.0659762193
 30
0.0
 40
10.00000000001719
100
AcDbArc
 50
302.3585460163
 51
346.3019981151
  0
ARC
  5
1F2
330
9C
100
AcDbEntity
  8
DV1_Default
  6
Continuous
 62
     7
100
AcDbCircle
 10
321.6948805294
 20
653.0659762193
 30
0.0
 40
10.00000000001127
100
AcDbArc
 50
193.6980018849
 51
237.6414539837
  0
ARC
  5
1F3
330
9C
100
AcDbEntity
  8
DV1_Default
  6
Continuous
 62
     7
100
AcDbCircle
 10
267.2948006971
 20
650.5795314429
 30
0.0
 40
0.500000000009075
100
AcDbArc
 50
90.0
 51
112.9566819091
  0
ARC
  5
1F4
330
9C
100
AcDbEntity
  8
DV1_Default
  6
Continuous
 62
     7
100
AcDbCircle
 10
267.2948006971
 20
650.5795314429
 30
0.0
 40
0.500000000009075
100
AcDbArc
 50
114.4651533381
 51
166.3019981141
  0
ARC
  5
1F5
330
9C
100
AcDbEntity
  8
DV1_Default
  6
Continuous
 62
     7
100
AcDbCircle
 10
311.4935280517
 20
650.5795314429
 30
0.0
 40
0.5000000000090712
100
AcDbArc
 50
13.6980018859
 51
60.9087274156
  0
ARC
  5
1F6
330
9C
100
AcDbEntity
  8
DV1_Default
  6
Continuous
 62
     7
100
AcDbCircle
 10
311.4935280517
 20
650.5795314429
 30
0.0
 40
0.5000000000090712
100
AcDbArc
 50
66.4141694564
 51
90.0
  0
ENDBLK
  5
1F8
330
9C
100
AcDbEntity
  8
0
100
AcDbBlockEnd
  0
BLOCK
  5
287
330
1F9
100
AcDbEntity
  8
0
100
AcDbBlockBegin
  2
SE1
 70
     0
 10
0.0
 20
0.0
 30
0.0
  3
SE1
  1

  0
LINE
  5
1FC
330
1F9
100
AcDbEntity
  8
DV2_Default
  6
Continuous
 62
     7
100
AcDbLine
 10
725.2615884755
 20
797.5186313013
 30
0.0
 11
692.9187420693
 21
789.0083976589
 31
0.0
  0
SPLINE
  5
1FD
330
1F9
100
AcDbEntity
  8
DV2_Default
  6
Continuous
 62
     7
100
AcDbSpline
210
0.0
220
0.0
230
1.0
 70
    12
 71
     3
 72
     8
 73
     4
 74
     0
 42
0.0000000212905796
 43
0.0000000001
 40
0.0
 40
0.0
 40
0.0
 40
0.0
 40
1.0
 40
1.0
 40
1.0
 40
1.0
 10
692.6970767023842
 20
788.6837334573175
 30
0.0
 41
1.139266828346585
 10
692.6790514792079
 20
788.8392581802606
 30
0.0
 41
0.9535529753971697
 10
692.7673341394516
 20
788.9685577739396
 30
0.0
 41
0.953577727183063
 10
692.9187420692841
 20
789.0083976589175
 30
0.0
 41
1.139341083704263
  0
SPLINE
  5
1FE
330
1F9
100
AcDbEntity
  8
DV2_Default
  6
Continuous
 62
     7
100
AcDbSpline
210
0.0
220
0.0
230
1.0
 70
    12
 71
     3
 72
     8
 73
     4
 74
     0
 42
0.0000000212910783
 43
0.0000000001
 40
0.0
 40
0.0
 40
0.0
 40
0.0
 40
1.0
 40
1.0
 40
1.0
 40
1.0
 10
725.6143357627841
 20
797.3451185144175
 30
0.0
 41
1.139255095881308
 10
725.5534785003421
 20
797.4893689652963
 30
0.0
 41
0.9535530294010333
 10
725.4129928175811
 20
797.5584691656155
 30
0.0
 41
0.9535816391133667
 10
725.2615884754841
 20
797.5186313013177
 30
0.0
 41
1.139340925018309
  0
ARC
  5
1FF
330
1F9
100
AcDbEntity
  8
DV2_Default
  6
Continuous
 62
     7
100
AcDbCircle
 10
737.865516807
 20
802.5132117849
 30
0.0
 40
13.29663961426188
100
AcDbArc
 50
202.8721813989
 51
203.7983757819
  0
ARC
  5
200
330
1F9
100
AcDbEntity
  8
DV2_Default
  6
Continuous
 62
     7
100
AcDbCircle
 10
735.3716660519
 20
801.2304835172
 30
0.0
 40
10.49856630280351
100
AcDbArc
 50
202.8850691305
 51
232.4769292147
  0
ARC
  5
201
330
1F9
100
AcDbEntity
  8
DV2_Default
  6
Continuous
 62
     7
100
AcDbCircle
 10
537.1568690546
 20
1446.6956968092
 30
0.0
 40
681.3505985640081
100
AcDbArc
 50
283.1396595867
 51
286.3455382109
  0
SPLINE
  5
202
330
1F9
100
AcDbEntity
  8
DV2_Default
  6
Continuous
 62
     7
100
AcDbSpline
210
0.0
220
0.0
230
1.0
 70
    12
 71
     3
 72
     8
 73
     4
 74
     0
 42
0.0000000018244112
 43
0.0000000001
 40
0.0
 40
0.0
 40
0.0
 40
0.0
 40
1.0
 40
1.0
 40
1.0
 40
1.0
 10
692.7201055486842
 20
788.4700267003175
 30
0.0
 41
1.0
 10
692.9122360242841
 20
786.5404208529176
 30
0.0
 41
1.0
 10
692.6576125406841
 20
784.7714510110176
 30
0.0
 41
1.0
 10
691.9561625701841
 20
783.1628665057175
 30
0.0
 41
1.0
  0
ARC
  5
203
330
1F9
100
AcDbEntity
  8
DV2_Default
  6
Continuous
 62
     7
100
AcDbCircle
 10
679.4783730035
 20
787.1512037739
 30
0.0
 40
13.30724519612226
100
AcDbArc
 50
5.6876710474
 51
6.61314551
  0
ARC
  5
204
330
1F9
100
AcDbEntity
  8
DV2_Default
  6
Continuous
 62
     7
100
AcDbCircle
 10
729.3127256005
 20
793.3496934968
 30
0.0
 40
0.5578887250198663
100
AcDbArc
 50
233.0270988356
 51
272.9489903667
  0
SPLINE
  5
205
330
1F9
100
AcDbEntity
  8
DV2_Default
  6
Continuous
 62
     7
100
AcDbSpline
210
0.0
220
0.0
230
1.0
 70
     8
 71
     3
 72
     8
 73
     4
 74
     0
 42
0.0000001289118036
 43
0.0000000001
 40
0.0
 40
0.0
 40
0.0
 40
0.0
 40
1.0
 40
1.0
 40
1.0
 40
1.0
 10
730.7945773655902
 20
792.0548662892573
 30
0.0
 10
730.8230971261816
 20
792.0623762904726
 30
0.0
 10
730.8481103730755
 20
792.0689632803353
 30
0.0
 10
730.86959235165
 20
792.0746205679461
 30
0.0
  0
SPLINE
  5
206
330
1F9
100
AcDbEntity
  8
DV2_Default
  6
Continuous
 62
     7
100
AcDbSpline
210
0.0
220
0.0
230
1.0
 70
     8
 71
     3
 72
     8
 73
     4
 74
     0
 42
0.0000000993574645
 43
0.0000000001
 40
0.0
 40
0.0
 40
0.0
 40
0.0
 40
1.0
 40
1.0
 40
1.0
 40
1.0
 10
730.86959235165
 20
792.0746205679461
 30
0.0
 10
730.9342522076456
 20
792.0916487667672
 30
0.0
 10
730.9669193096803
 20
792.1002540045697
 30
0.0
 10
730.9669186050841
 20
792.1002538221176
 30
0.0
  0
ARC
  5
207
330
1F9
100
AcDbEntity
  8
DV2_Default
  6
Continuous
 62
     7
100
AcDbCircle
 10
729.4298102754
 20
790.7456003813
 30
0.0
 40
2.04885040009681
100
AcDbArc
 50
41.3897247315
 51
92.4723852107
  0
ARC
  5
208
330
1F9
100
AcDbEntity
  8
DV2_Default
  6
Continuous
 62
     7
100
AcDbCircle
 10
730.5609120365
 20
791.7184118736
 30
0.0
 40
0.5573550102286858
100
AcDbArc
 50
284.6450984308
 51
43.243194231
  0
SPLINE
  5
209
330
1F9
100
AcDbEntity
  8
DV2_Default
  6
Continuous
 62
     7
100
AcDbSpline
210
0.0
220
0.0
230
1.0
 70
     8
 71
     3
 72
     8
 73
     4
 74
     0
 42
0.0000000072937312
 43
0.0000000001
 40
0.0
 40
0.0
 40
0.0
 40
0.0
 40
1.0
 40
1.0
 40
1.0
 40
1.0
 10
690.6194461388842
 20
781.4838013724176
 30
0.0
 10
690.5194166716462
 20
781.0731453463874
 30
0.0
 10
690.8948288002249
 20
780.7050276636329
 30
0.0
 10
691.3035408915841
 20
780.8124636288176
 30
0.0
  0
LINE
  5
20A
330
1F9
100
AcDbEntity
  8
DV2_Default
  6
Continuous
 62
     7
100
AcDbLine
 10
691.3035408916
 20
780.8124636288
 30
0.0
 11
711.0130990079
 21
785.9985545437
 31
0.0
  0
LINE
  5
20B
330
1F9
100
AcDbEntity
  8
DV2_Default
  6
Continuous
 62
     7
100
AcDbLine
 10
711.0130990079
 20
785.9985545437
 30
0.0
 11
730.7018286497
 21
791.1791650696
 31
0.0
  0
LINE
  5
20C
330
1F9
100
AcDbEntity
  8
DV2_Default
  6
Continuous
 62
     7
100
AcDbLine
 10
690.6194461389
 20
781.4838013724
 30
0.0
 11
690.7189177429
 21
781.5099748968
 31
0.0
  0
LINE
  5
20D
330
1F9
100
AcDbEntity
  8
DV2_Default
  6
Continuous
 62
     7
100
AcDbLine
 10
690.7189177429
 20
781.5099748968
 30
0.0
 11
730.6056268267
 21
792.0051887102
 31
0.0
  0
LINE
  5
20E
330
1F9
100
AcDbEntity
  8
DV2_Default
  6
Continuous
 62
     7
100
AcDbLine
 10
730.6056268267
 20
792.0051887102
 30
0.0
 11
730.9669186051
 21
792.1002538221
 31
0.0
  0
LINE
  5
20F
330
1F9
100
AcDbEntity
  8
DV2_Default
  6
Continuous
 62
     7
100
AcDbLine
 10
692.0705871468
 20
782.9856289065
 30
0.0
 11
691.7876484475
 21
782.9111804725
 31
0.0
  0
ARC
  5
210
330
1F9
100
AcDbEntity
  8
DV2_Default
  6
Continuous
 62
     7
100
AcDbCircle
 10
730.4607711689
 20
791.6923715863
 30
0.0
 40
0.5598317667574974
100
AcDbArc
 50
314.9369498004
 51
43.0681385285
  0
ARC
  5
211
330
1F9
100
AcDbEntity
  8
DV2_Default
  6
Continuous
 62
     7
100
AcDbCircle
 10
692.9950684071
 20
781.201103396
 30
0.0
 40
2.009659232735723
100
AcDbArc
 50
117.0837751526
 51
168.8392699626
  0
ARC
  5
212
330
1F9
100
AcDbEntity
  8
DV2_Default
  6
Continuous
 62
     7
100
AcDbCircle
 10
729.2419673798
 20
793.3312937554
 30
0.0
 40
0.5584520929198726
100
AcDbArc
 50
232.5884563118
 51
273.0208580655
  0
ARC
  5
213
330
1F9
100
AcDbEntity
  8
DV2_Default
  6
Continuous
 62
     7
100
AcDbCircle
 10
691.5368390292
 20
783.4096530846
 30
0.0
 40
0.5580149346019755
100
AcDbArc
 50
296.468178761
 51
336.9176980158
  0
LINE
  5
214
330
1F9
100
AcDbEntity
  8
DV2_Default
  6
Continuous
 62
     7
100
AcDbLine
 10
557.2192800977
 20
653.0795314429
 30
0.0
 11
556.6795587686
 21
653.0795314429
 31
0.0
  0
LINE
  5
215
330
1F9
100
AcDbEntity
  8
DV2_Default
  6
Continuous
 62
     7
100
AcDbLine
 10
514.1367527435
 20
653.0795314429
 30
0.0
 11
513.6192800977
 21
653.0795314429
 31
0.0
  0
ARC
  5
216
330
1F9
100
AcDbEntity
  8
DV2_Default
  6
Continuous
 62
     7
100
AcDbCircle
 10
503.1213211265
 20
653.0795314429
 30
0.0
 40
10.00000000002046
100
AcDbArc
 50
301.4469467293
 51
348.463040967
  0
ARC
  5
217
330
1F9
100
AcDbEntity
  8
DV2_Default
  6
Continuous
 62
     7
100
AcDbCircle
 10
567.7172390688
 20
653.0795314429
 30
0.0
 40
10.00000000002368
100
AcDbArc
 50
191.536959033
 51
238.5530532713
  0
ARC
  5
218
330
1F9
100
AcDbEntity
  8
DV2_Default
  6
Continuous
 62
     7
100
AcDbCircle
 10
513.6913863869
 20
651.9317942417
 30
0.0
 40
1.149999999999681
100
AcDbArc
 50
93.5948677292
 51
227.825039831
  0
ARC
  5
219
330
1F9
100
AcDbEntity
  8
DV2_Default
  6
Continuous
 62
     7
100
AcDbCircle
 10
557.1471738085
 20
651.9317942417
 30
0.0
 40
1.149999999999676
100
AcDbArc
 50
312.174960169
 51
86.4051322708
  0
ARC
  5
21A
330
1F9
100
AcDbEntity
  8
DV2_Default
  6
Continuous
 62
     7
100
AcDbCircle
 10
493.3020109551
 20
661.17305898
 30
0.0
 40
20.99183560297355
100
AcDbArc
 50
343.1252301383
 51
2.4749241573
  0
SPLINE
  5
21B
330
1F9
100
AcDbEntity
  8
DV2_Default
  6
Continuous
 62
     7
100
AcDbSpline
210
0.0
220
0.0
230
1.0
 70
    12
 71
     3
 72
     8
 73
     4
 74
     0
 42
0.0000000058811913
 43
0.0000000001
 40
0.0
 40
0.0
 40
0.0
 40
0.0
 40
1.0
 40
1.0
 40
1.0
 40
1.0
 10
693.0834754965841
 20
789.2559510586176
 30
0.0
 41
1.0
 10
692.9317699957404
 20
789.804456307462
 30
0.0
 41
1.0
 10
692.7802719510005
 20
790.3506404088325
 30
0.0
 41
1.0
 10
692.628364340019
 20
790.8942464954619
 30
0.0
 41
1.0
  0
SPLINE
  5
21C
330
1F9
100
AcDbEntity
  8
DV2_Default
  6
Continuous
 62
     7
100
AcDbSpline
210
0.0
220
0.0
230
1.0
 70
    12
 71
     3
 72
     8
 73
     4
 74
     0
 42
0.0000000018110545
 43
0.0000000001
 40
0.0
 40
0.0
 40
0.0
 40
0.0
 40
0.9999999999999999
 40
0.9999999999999999
 40
0.9999999999999999
 40
0.9999999999999999
 10
692.628364340019
 20
790.8942464954619
 30
0.0
 41
1.0
 10
692.1258181780865
 20
792.6926234870655
 30
0.0
 41
1.0
 10
691.6187895501301
 20
794.4627855959129
 30
0.0
 41
1.0
 10
691.0849380958688
 20
796.1954324986935
 30
0.0
 41
1.0
  0
SPLINE
  5
21D
330
1F9
100
AcDbEntity
  8
DV2_Default
  6
Continuous
 62
     7
100
AcDbSpline
210
0.0
220
0.0
230
1.0
 70
    12
 71
     3
 72
     8
 73
     4
 74
     0
 42
0.0000000070330271
 43
0.0000000001
 40
0.0
 40
0.0
 40
0.0
 40
0.0
 40
1.0
 40
1.0
 40
1.0
 40
1.0
 10
691.0849380958688
 20
796.1954324986935
 30
0.0
 41
1.0
 10
690.9448132971869
 20
796.6502159342368
 30
0.0
 41
1.0
 10
690.8028405337656
 20
797.1024147510968
 30
0.0
 41
1.0
 10
690.6586158125607
 20
797.5518607664026
 30
0.0
 41
1.0
  0
SPLINE
  5
21E
330
1F9
100
AcDbEntity
  8
DV2_Default
  6
Continuous
 62
     7
100
AcDbSpline
210
0.0
220
0.0
230
1.0
 70
    12
 71
     3
 72
    14
 73
    10
 74
     0
 42
0.0000000000399982
 43
0.0000000001
 40
0.0
 40
0.0
 40
0.0
 40
0.0
 40
0.1054681993126351
 40
0.2610282662761397
 40
0.4165883332396444
 40
0.5721484002031489
 40
0.7277084671666537
 40
0.8832685341301584
 40
1.0
 40
1.0
 40
1.0
 40
1.0
 10
675.4553458727054
 20
820.307870340032
 30
0.0
 41
1.0
 10
669.910531002189
 20
823.9586270255685
 30
0.0
 41
1.0
 10
652.0307613280711
 20
829.5709080763152
 30
0.0
 41
1.0
 10
604.5439015024642
 20
817.2630808580176
 30
0.0
 41
1.0
 10
570.8623079657741
 20
766.1600322926175
 30
0.0
 41
1.0
 10
558.2796117828342
 20
722.4660603460576
 30
0.0
 41
1.0
 10
556.7402124363941
 20
684.5567494105576
 30
0.0
 41
1.0
 10
556.9507240688541
 20
663.4692599126175
 30
0.0
 41
1.0
 10
557.4515688155741
 20
656.3135047037786
 30
0.0
 41
1.0
 10
557.6917879081942
 20
653.6240131549425
 30
0.0
 41
1.0
  0
LINE
  5
21F
330
1F9
100
AcDbEntity
  8
DV2_Default
  6
Continuous
 62
     7
100
AcDbLine
 10
693.0834754966
 20
789.2559510586
 30
0.0
 11
693.1361085146
 21
789.0655923539
 31
0.0
  0
ARC
  5
220
330
1F9
100
AcDbEntity
  8
DV2_Default
  6
Continuous
 62
     7
100
AcDbCircle
 10
651.6677921273
 20
778.903815228
 30
0.0
 40
75.77296392547395
100
AcDbArc
 50
14.1936746323
 51
14.343857787
  0
SPLINE
  5
221
330
1F9
100
AcDbEntity
  8
DV2_Default
  6
Continuous
 62
     7
100
AcDbSpline
210
0.0
220
0.0
230
1.0
 70
    12
 71
     3
 72
    13
 73
     9
 74
     0
 42
0.0000000000316366
 43
0.0000000001
 40
0.0
 40
0.0
 40
0.0
 40
0.0
 40
0.1759192227819113
 40
0.3565418712552641
 40
0.5371645197284876
 40
0.7177871682017111
 40
0.8984098166750639
 40
1.0
 40
1.0
 40
1.0
 40
1.0
 10
725.078638392084
 20
797.6758612736176
 30
0.0
 41
1.0
 10
721.5330607941842
 20
811.5413604523176
 30
0.0
 41
1.0
 10
706.314388601084
 20
837.8805600860176
 30
0.0
 41
1.0
 10
659.6605162164841
 20
856.5133207807177
 30
0.0
 41
1.0
 10
589.6829360227441
 20
840.2913336913176
 30
0.0
 41
1.0
 10
543.3571291302432
 20
786.4187771418175
 30
0.0
 41
1.0
 10
527.8681034516763
 20
742.5752732381777
 30
0.0
 41
1.0
 10
522.7739322217888
 20
719.293757022442
 30
0.0
 41
1.0
 10
521.3109186764411
 20
711.5258096778742
 30
0.0
 41
1.0
  0
SPLINE
  5
222
330
1F9
100
AcDbEntity
  8
DV2_Default
  6
Continuous
 62
     7
100
AcDbSpline
210
0.0
220
0.0
230
1.0
 70
    12
 71
     3
 72
    10
 73
     6
 74
     0
 42
0.0000000002100506
 43
0.0000000001
 40
0.0
 40
0.0
 40
0.0
 40
0.0
 40
0.2440409553063652
 40
0.8841332426171935
 40
1.0
 40
1.0
 40
1.0
 40
1.0
 10
520.8825573872734
 20
709.2118476777197
 30
0.0
 41
1.0
 10
519.9398404084499
 20
704.030549128921
 30
0.0
 41
1.0
 10
517.1095563815078
 20
686.3071065455094
 30
0.0
 41
1.0
 10
515.4136312399942
 20
671.3201324262775
 30
0.0
 41
1.0
 10
514.4188505521341
 20
663.2412029565376
 30
0.0
 41
1.0
 10
514.2742657136669
 20
662.0795314422535
 30
0.0
 41
1.0
  0
ARC
  5
223
330
1F9
100
AcDbEntity
  8
DV2_Default
  6
Continuous
 62
     7
100
AcDbCircle
 10
1173.2121079418
 20
571.5578486841
 30
0.0
 40
665.0873068127844
100
AcDbArc
 50
172.785747097
 51
172.9106319922
  0
SPLINE
  5
224
330
1F9
100
AcDbEntity
  8
DV2_Default
  6
Continuous
 62
     7
100
AcDbSpline
210
0.0
220
0.0
230
1.0
 70
    12
 71
     3
 72
     8
 73
     4
 74
     0
 42
0.0000000103379148
 43
0.0000000001
 40
0.0
 40
0.0
 40
0.0
 40
0.0
 40
1.0
 40
1.0
 40
1.0
 40
1.0
 10
513.2094889001041
 20
653.6411511369125
 30
0.0
 41
1.203294926514775
 10
513.1697524456131
 20
653.3211714129861
 30
0.0
 41
0.9322354637226107
 10
513.3832390544318
 20
653.0795321572454
 30
0.0
 41
0.9322350244957536
 10
513.7056768247741
 20
653.0795314429186
 30
0.0
 41
1.203293608834203
  0
SPLINE
  5
225
330
1F9
100
AcDbEntity
  8
DV2_Default
  6
Continuous
 62
     7
100
AcDbSpline
210
0.0
220
0.0
230
1.0
 70
    12
 71
     3
 72
     8
 73
     4
 74
     0
 42
0.0000000106151202
 43
0.0000000001
 40
0.0
 40
0.0
 40
0.0
 40
0.0
 40
1.0
 40
1.0
 40
1.0
 40
1.0
 10
557.6917879081942
 20
653.6240131549425
 30
0.0
 41
1.185158231613377
 10
557.7198136082666
 20
653.3102316916949
 30
0.0
 41
0.9323765861463509
 10
557.5067720719958
 20
653.0795320104238
 30
0.0
 41
0.9384217818961778
 10
557.1937709345242
 20
653.0795314429186
 30
0.0
 41
1.203293818862859
  0
LINE
  5
226
330
1F9
100
AcDbEntity
  8
DV2_Default
  6
Continuous
 62
     7
100
AcDbLine
 10
556.6735849261
 20
653.0795314429
 30
0.0
 11
557.1937709345
 21
653.0795314429
 31
0.0
  0
LINE
  5
227
330
1F9
100
AcDbEntity
  8
DV2_Default
  6
Continuous
 62
     7
100
AcDbLine
 10
557.2909762967
 20
653.0940376096
 30
0.0
 11
557.2962856841
 21
653.0986567298
 31
0.0
  0
ARC
  5
228
330
1F9
100
AcDbEntity
  8
DV2_Default
  6
Continuous
 62
     7
100
AcDbCircle
 10
557.1004126415
 20
653.5910276126
 30
0.0
 40
0.5106648467007509
100
AcDbArc
 50
292.2525273012
 51
6.168756878
  0
SPLINE
  5
229
330
1F9
100
AcDbEntity
  8
DV2_Default
  6
Continuous
 62
     7
100
AcDbSpline
210
0.0
220
0.0
230
1.0
 70
     8
 71
     3
 72
    18
 73
    14
 74
     0
 42
0.0000000003388773
 43
0.0000000001
 40
0.0
 40
0.0
 40
0.0
 40
0.0
 40
0.0389694893997274
 40
0.0794739518264931
 40
0.1223432621631175
 40
0.1682340731115193
 40
0.2349420979196204
 40
0.3087875818579896
 40
0.3892110506334411
 40
0.5190786399701813
 40
0.6623617938898414
 40
0.8218241659429141
 40
1.0
 40
1.0
 40
1.0
 40
1.0
 10
675.4530352525044
 20
820.3093915266057
 30
0.0
 10
675.7087604220217
 20
820.1435403783591
 30
0.0
 10
676.154033278698
 20
819.8527028493799
 30
0.0
 10
677.0426869485909
 20
819.2635176923665
 30
0.0
 10
678.0095582200165
 20
818.5744632997331
 30
0.0
 10
679.2018841622554
 20
817.6441748589846
 30
0.0
 10
680.6028462218374
 20
816.4022875956213
 30
0.0
 10
682.1583319087008
 20
814.7749894334368
 30
0.0
 10
683.9689989686985
 20
812.516584956486
 30
0.0
 10
685.9138725164742
 20
809.4832333936355
 30
0.0
 10
687.8294961356421
 20
805.5797487763881
 30
0.0
 10
689.575285012507
 20
800.9968574542479
 30
0.0
 10
690.5125689592171
 20
798.0476676789609
 30
0.0
 10
691.084930543396
 20
796.1954570128536
 30
0.0
  0
LINE
  5
22A
330
1F9
100
AcDbEntity
  8
DV2_Default
  6
Continuous
 62
     7
100
AcDbLine
 10
535.4192800977
 20
691.8795218686
 30
0.0
 11
550.737906749
 21
691.879521867
 31
0.0
  0
LINE
  5
22B
330
1F9
100
AcDbEntity
  8
DV2_Default
  6
Continuous
 62
     7
100
AcDbLine
 10
535.4192800977
 20
691.8795218671
 30
0.0
 11
520.1015849305
 21
691.8795218669
 31
0.0
  0
SPLINE
  5
22C
330
1F9
100
AcDbEntity
  8
DV2_Default
  6
Continuous
 62
     7
100
AcDbSpline
210
0.0
220
0.0
230
1.0
 70
     8
 71
     3
 72
    10
 73
     6
 74
     0
 42
0.0000000022611349
 43
0.0000000001
 40
0.0
 40
0.0
 40
0.0
 40
0.0
 40
0.7370309156733837
 40
0.7370309156733837
 40
1.0
 40
1.0
 40
1.0
 40
1.0
 10
525.4725120176881
 20
711.0599533678975
 30
0.0
 10
523.417798787169
 20
711.0599647901346
 30
0.0
 10
521.9694044798993
 20
711.0599646005711
 30
0.0
 10
521.1564509238051
 20
711.0599643433725
 30
0.0
 10
521.0510895081405
 20
711.0599642757372
 30
0.0
 10
521.0522249507782
 20
711.0599642081019
 30
0.0
  0
SPLINE
  5
22D
330
1F9
100
AcDbEntity
  8
DV2_Default
  6
Continuous
 62
     7
100
AcDbSpline
210
0.0
220
0.0
230
1.0
 70
     8
 71
     3
 72
     8
 73
     4
 74
     0
 42
0.0000000253654804
 43
0.0000000001
 40
0.0
 40
0.0
 40
0.0
 40
0.0
 40
1.0
 40
1.0
 40
1.0
 40
1.0
 10
525.8667485818265
 20
711.0600180458042
 30
0.0
 10
525.7330710729254
 20
711.0600013469756
 30
0.0
 10
525.6016240915172
 20
711.0599799569876
 30
0.0
 10
525.4725120176881
 20
711.0599533678975
 30
0.0
  0
SPLINE
  5
22E
330
1F9
100
AcDbEntity
  8
DV2_Default
  6
Continuous
 62
     7
100
AcDbSpline
210
0.0
220
0.0
230
1.0
 70
     8
 71
     3
 72
    12
 73
     8
 74
     0
 42
0.0000000020837157
 43
0.0000000001
 40
0.0
 40
0.0
 40
0.0
 40
0.0
 40
0.4664559222406022
 40
0.4664559222406022
 40
0.9329118444812043
 40
0.9329118444812043
 40
1.0
 40
1.0
 40
1.0
 40
1.0
 10
549.7902212468337
 20
711.0603426425574
 30
0.0
 10
549.790220556296
 20
711.0603415769549
 30
0.0
 10
549.4161825849628
 20
711.0603405113523
 30
0.0
 10
547.9764094875884
 20
711.0603383801472
 30
0.0
 10
546.9112408510716
 20
711.0603373145445
 30
0.0
 10
545.3897517068676
 20
711.0603360956815
 30
0.0
 10
545.1929785229835
 20
711.0603359424208
 30
0.0
 10
544.9911025517042
 20
711.0603357891601
 30
0.0
  0
ARC
  5
22F
330
1F9
100
AcDbEntity
  8
DV2_Default
  6
Continuous
 62
     7
100
AcDbCircle
 10
542.3948799261
 20
10519.585385213
 30
0.0
 40
9808.067538240659
100
AcDbArc
 50
270.0146343901
 51
270.0345965734
  0
ARC
  5
230
330
1F9
100
AcDbEntity
  8
DV2_Default
  6
Continuous
 62
     7
100
AcDbCircle
 10
545.474628327
 20
-1644.5444485848
 30
0.0
 40
2356.065923317958
100
AcDbArc
 50
89.9039805547
 51
89.9308724901
  0
ARC
  5
231
330
1F9
100
AcDbEntity
  8
DV2_Default
  6
Continuous
 62
     7
100
AcDbCircle
 10
528.3222869002
 20
470.0184455861
 30
0.0
 40
241.6024981923991
100
AcDbArc
 50
90.57269002
 51
91.6361398256
  0
LINE
  5
232
330
1F9
100
AcDbEntity
  8
DV2_Default
  6
Continuous
 62
     7
100
AcDbLine
 10
526.0767267483
 20
712.3737225024
 30
0.0
 11
523.294516277
 21
712.3737239962
 31
0.0
  0
ARC
  5
233
330
1F9
100
AcDbEntity
  8
DV2_Default
  6
Continuous
 62
     7
100
AcDbCircle
 10
529.4432483757
 20
62.5100785912
 30
0.0
 40
650.8231429014785
100
AcDbArc
 50
90.2749199976
 51
90.5203470644
  0
ARC
  5
234
330
1F9
100
AcDbEntity
  8
DV2_Default
  6
Continuous
 62
     7
100
AcDbCircle
 10
530.706825271
 20
652.8945823837
 30
0.0
 40
61.96650500300117
100
AcDbArc
 50
93.4815735725
 51
94.3551290388
  0
SPLINE
  5
235
330
1F9
100
AcDbEntity
  8
DV2_Default
  6
Continuous
 62
     7
100
AcDbSpline
210
0.0
220
0.0
230
1.0
 70
     8
 71
     3
 72
    11
 73
     7
 74
     0
 42
0.000000012525196
 43
0.0000000001
 40
0.0
 40
0.0
 40
0.0
 40
0.0
 40
0.0846207769077254
 40
0.3423501104162088
 40
0.8314524300134725
 40
1.0
 40
1.0
 40
1.0
 40
1.0
 10
526.9756093135779
 20
714.6799831055039
 30
0.0
 10
526.9312134706978
 20
714.6799893177928
 30
0.0
 10
526.7587551900963
 20
714.6800206113331
 30
0.0
 10
526.4113644265174
 20
714.6801569499173
 30
0.0
 10
526.2068281099628
 20
714.6804512661384
 30
0.0
 10
526.1773927979949
 20
714.6807474002187
 30
0.0
 10
526.1775449305323
 20
714.6808286113271
 30
0.0
  0
SPLINE
  5
236
330
1F9
100
AcDbEntity
  8
DV2_Default
  6
Continuous
 62
     7
100
AcDbSpline
210
0.0
220
0.0
230
1.0
 70
     8
 71
     3
 72
    14
 73
    10
 74
     0
 42
0.0000000208175511
 43
0.0000000001
 40
0.0
 40
0.0
 40
0.0
 40
0.0
 40
0.0487081985195729
 40
0.2058602927603647
 40
0.3689309954408795
 40
0.5379204346918679
 40
0.7128278367043154
 40
0.8936553704982094
 40
1.0
 40
1.0
 40
1.0
 40
1.0
 10
527.0149205688058
 20
714.7634275652765
 30
0.0
 10
526.9994570545301
 20
714.7634281908324
 30
0.0
 10
526.9356362030388
 20
714.7634313864147
 30
0.0
 10
526.8329581099774
 20
714.763441255331
 30
0.0
 10
526.7213047468459
 20
714.7634626319359
 30
0.0
 10
526.6321864603105
 20
714.7634933998781
 30
0.0
 10
526.5687779024825
 20
714.7635341992625
 30
0.0
 10
526.5394747779833
 20
714.7635780292093
 30
0.0
 10
526.5345729436107
 20
714.7636090716802
 30
0.0
 10
526.5345837031808
 20
714.7636210767895
 30
0.0
  0
ARC
  5
237
330
1F9
100
AcDbEntity
  8
DV2_Default
  6
Continuous
 62
     7
100
AcDbCircle
 10
531.0212679323
 20
583.7864234431
 30
0.0
 40
131.1257915865602
100
AcDbArc
 50
91.753690007
 51
91.9214269633
  0
ARC
  5
238
330
1F9
100
AcDbEntity
  8
DV2_Default
  6
Continuous
 62
     7
100
AcDbCircle
 10
539.7856785478
 20
172.8342741546
 30
0.0
 40
541.9481846243718
100
AcDbArc
 50
89.52646224
 51
89.5647057402
  0
SPLINE
  5
239
330
1F9
100
AcDbEntity
  8
DV2_Default
  6
Continuous
 62
     7
100
AcDbSpline
210
0.0
220
0.0
230
1.0
 70
     8
 71
     3
 72
    10
 73
     6
 74
     0
 42
0.0000000257044035
 43
0.0000000001
 40
0.0
 40
0.0
 40
0.0
 40
0.0
 40
0.0053005655404856
 40
0.0053005655404856
 40
1.0
 40
1.0
 40
1.0
 40
1.0
 10
544.2136299836526
 20
714.838191968845
 30
0.0
 10
544.2136376167172
 20
714.8381919688366
 30
0.0
 10
544.2136414343405
 20
714.8381919688281
 30
0.0
 10
544.2136414379451
 20
714.8381919672374
 30
0.0
 10
544.0792009077895
 20
714.8381919656547
 30
0.0
 10
543.8246144931123
 20
714.8381919640716
 30
0.0
  0
ARC
  5
23A
330
1F9
100
AcDbEntity
  8
DV2_Default
  6
Continuous
 62
     7
100
AcDbCircle
 10
540.0223515781
 20
663.0691409808
 30
0.0
 40
51.81946186442816
100
AcDbArc
 50
84.8647596297
 51
85.7176279605
  0
ARC
  5
23B
330
1F9
100
AcDbEntity
  8
DV2_Default
  6
Continuous
 62
     7
100
AcDbCircle
 10
540.0334125169
 20
535.97724821
 30
0.0
 40
178.7639521776917
100
AcDbArc
 50
88.4606539349
 51
88.7642501536
  0
SPLINE
  5
23C
330
1F9
100
AcDbEntity
  8
DV2_Default
  6
Continuous
 62
     7
100
AcDbSpline
210
0.0
220
0.0
230
1.0
 70
    12
 71
     3
 72
     8
 73
     4
 74
     0
 42
0.0000000035575186
 43
0.0000000001
 40
0.0
 40
0.0
 40
0.0
 40
0.0
 40
1.0
 40
1.0
 40
1.0
 40
1.0
 10
544.4995526674979
 20
713.3044847529437
 30
0.0
 41
1.003308141921592
 10
546.3858504400156
 20
713.304327452536
 30
0.0
 41
1.01768869200958
 10
547.3096433586479
 20
713.3043247922965
 30
0.0
 41
1.078953616862409
 10
547.3105007474646
 20
713.3043221421611
 30
0.0
 41
1.187102916480078
  0
LINE
  5
23D
330
1F9
100
AcDbEntity
  8
DV2_Default
  6
Continuous
 62
     7
100
AcDbLine
 10
544.7785478988
 20
712.3737242865
 30
0.0
 11
547.5440439183
 21
712.373723291
 31
0.0
  0
ARC
  5
23E
330
1F9
100
AcDbEntity
  8
DV2_Default
  6
Continuous
 62
     7
100
AcDbCircle
 10
535.4570520239
 20
704.5190417716
 30
0.0
 40
6.424069017899441
100
AcDbArc
 50
269.6633143548
 51
324.8617445629
  0
SPLINE
  5
23F
330
1F9
100
AcDbEntity
  8
DV2_Default
  6
Continuous
 62
     7
100
AcDbSpline
210
0.0
220
0.0
230
1.0
 70
    12
 71
     3
 72
     8
 73
     4
 74
     0
 42
0.0000000050852071
 43
0.0000000001
 40
0.0
 40
0.0
 40
0.0
 40
0.0
 40
1.0
 40
1.0
 40
1.0
 40
1.0
 10
540.6846893674133
 20
700.8398102564389
 30
0.0
 41
1.011451132605605
 10
541.0625803349033
 20
701.3838360644942
 30
0.0
 41
1.022844987981191
 10
541.347416277059
 20
701.9742135646499
 30
0.0
 41
1.042741491836436
 10
541.5375996719612
 20
702.5943006595073
 30
0.0
 41
1.07114064417134
  0
ARC
  5
240
330
1F9
100
AcDbEntity
  8
DV2_Default
  6
Continuous
 62
     7
100
AcDbCircle
 10
535.4337582497
 20
704.6259740401
 30
0.0
 40
5.127312024137358
100
AcDbArc
 50
269.8386691235
 51
316.9921889284
  0
ARC
  5
241
330
1F9
100
AcDbEntity
  8
DV2_Default
  6
Continuous
 62
     7
100
AcDbCircle
 10
535.3870461617
 20
704.6022053266
 30
0.0
 40
5.103625037421889
100
AcDbArc
 50
222.7210262787
 51
270.362335625
  0
SPLINE
  5
242
330
1F9
100
AcDbEntity
  8
DV2_Default
  6
Continuous
 62
     7
100
AcDbSpline
210
0.0
220
0.0
230
1.0
 70
    12
 71
     3
 72
    11
 73
     7
 74
     0
 42
0.0000000004850617
 43
0.0000000001
 40
0.0
 40
0.0
 40
0.0
 40
0.0
 40
0.5000001433157863
 40
0.5000001433157863
 40
0.5000001433157863
 40
1.0
 40
1.0
 40
1.0
 40
1.0
 10
535.4192799321643
 20
717.3434617119976
 30
0.0
 41
1.156759079589389
 10
531.9518844814679
 20
717.3434595550913
 30
0.0
 41
0.9380307275154859
 10
529.5317676793799
 20
714.9044757902851
 30
0.0
 41
0.9481986479553561
 10
529.5317690880576
 20
711.4998307599523
 30
0.0
 41
1.187262840909
 10
529.5317704967342
 20
708.0951881734616
 30
0.0
 41
0.948198785002008
 10
531.951886512285
 20
705.656206764391
 30
0.0
 41
0.9380307391733457
 10
535.4192800976841
 20
705.6562067643575
 30
0.0
 41
1.156758703423013
  0
SPLINE
  5
243
330
1F9
100
AcDbEntity
  8
DV2_Default
  6
Continuous
 62
     7
100
AcDbSpline
210
0.0
220
0.0
230
1.0
 70
     8
 71
     3
 72
    21
 73
    17
 74
     0
 42
0.0000000005330348
 43
0.0000000001
 40
0.0
 40
0.0
 40
0.0
 40
0.0
 40
0.2163478536401126
 40
0.2937200415009038
 40
0.4559248082972028
 40
0.6078702041297215
 40
0.7758253825673129
 40
0.7826773524573982
 40
0.7943618980798535
 40
0.8108435233783231
 40
0.8320455213421398
 40
0.8578246018840672
 40
0.8879421005826549
 40
0.9220366454514279
 40
0.9596051686331337
 40
1.0
 40
1.0
 40
1.0
 40
1.0
 10
535.4192800976841
 20
705.6562067643575
 30
0.0
 10
536.7691789356982
 20
705.9223543826957
 30
0.0
 10
538.6018401102314
 20
706.2836840107918
 30
0.0
 10
540.5358523295048
 20
708.3467350727697
 30
0.0
 10
541.4876465341347
 20
710.6309692180922
 30
0.0
 10
541.1669504657837
 20
713.645518223347
 30
0.0
 10
539.9617899557473
 20
715.359182186084
 30
0.0
 10
539.081898505645
 20
716.0758697587455
 30
0.0
 10
538.912742461204
 20
716.2057410939866
 30
0.0
 10
538.6663762296683
 20
716.3782710512694
 30
0.0
 10
538.3370108854641
 20
716.5813350765342
 30
0.0
 10
537.9196477939159
 20
716.7983642984809
 30
0.0
 10
537.4119548606379
 20
717.009110501189
 30
0.0
 10
536.8164380592654
 20
717.1881188287813
 30
0.0
 10
536.1423570317555
 20
717.3175192804546
 30
0.0
 10
535.6660612610754
 20
717.334606318518
 30
0.0
 10
535.4192799321643
 20
717.3434617119976
 30
0.0
  0
ARC
  5
244
330
1F9
100
AcDbEntity
  8
DV2_Default
  6
Continuous
 62
     7
100
AcDbCircle
 10
535.4319901957
 20
711.8589918084
 30
0.0
 40
3.910300766680223
100
AcDbArc
 50
269.8138123282
 51
357.4470797297
  0
ARC
  5
245
330
1F9
100
AcDbEntity
  8
DV2_Default
  6
Continuous
 62
     7
100
AcDbCircle
 10
535.4333985138
 20
711.827907528
 30
0.0
 40
3.90763217919474
100
AcDbArc
 50
357.9014866059
 51
90.2070563979
  0
ARC
  5
246
330
1F9
100
AcDbEntity
  8
DV2_Default
  6
Continuous
 62
     7
100
AcDbCircle
 10
535.4030949278
 20
711.8314326359
 30
0.0
 40
3.904115091973689
100
AcDbArc
 50
89.7625142364
 51
188.379449077
  0
ARC
  5
247
330
1F9
100
AcDbEntity
  8
DV2_Default
  6
Continuous
 62
     7
100
AcDbCircle
 10
535.4093467086
 20
711.8638468539
 30
0.0
 40
3.915147775780283
100
AcDbArc
 50
188.8354192471
 51
270.145416821
  0
SPLINE
  5
248
330
1F9
100
AcDbEntity
  8
DV2_Default
  6
Continuous
 62
     7
100
AcDbSpline
210
0.0
220
0.0
230
1.0
 70
    12
 71
     3
 72
     8
 73
     4
 74
     0
 42
0.0000000015562484
 43
0.0000000001
 40
0.0
 40
0.0
 40
0.0
 40
0.0
 40
1.0
 40
1.0
 40
1.0
 40
1.0
 10
530.1539730580101
 20
700.8396631815176
 30
0.0
 41
1.011448295880035
 10
531.4016444404652
 20
699.0435775231473
 30
0.0
 41
0.9755740089292068
 10
533.3252631199448
 20
698.0950763933606
 30
0.0
 41
1.024011252557699
 10
535.4193026574974
 20
698.0950836668476
 30
0.0
 41
1.156760026765512
  0
SPLINE
  5
249
330
1F9
100
AcDbEntity
  8
DV2_Default
  6
Continuous
 62
     7
100
AcDbSpline
210
0.0
220
0.0
230
1.0
 70
    12
 71
     3
 72
     8
 73
     4
 74
     0
 42
0.0000000050866846
 43
0.0000000001
 40
0.0
 40
0.0
 40
0.0
 40
0.0
 40
0.9999999999999999
 40
0.9999999999999999
 40
0.9999999999999999
 40
0.9999999999999999
 10
529.3011712966623
 20
702.593613754962
 30
0.0
 41
1.071108884352959
 10
529.491370931435
 20
701.9737254103985
 30
0.0
 41
1.042724652941706
 10
529.7761662010321
 20
701.3835396963126
 30
0.0
 41
1.022837931371926
 10
530.1539588428501
 20
700.8396836450405
 30
0.0
 41
1.011448719643619
  0
ARC
  5
24A
330
1F9
100
AcDbEntity
  8
DV2_Default
  6
Continuous
 62
     7
100
AcDbCircle
 10
550.7385735201
 20
692.3789168415
 30
0.0
 40
0.4987042385209133
100
AcDbArc
 50
317.9370116998
 51
6.6566616359
  0
ARC
  5
24B
330
1F9
100
AcDbEntity
  8
DV2_Default
  6
Continuous
 62
     7
100
AcDbCircle
 10
520.0999506447
 20
692.3767236642
 30
0.0
 40
0.4972107623993449
100
AcDbArc
 50
221.8782278506
 51
270.6973274935
  0
ARC
  5
24C
330
1F9
100
AcDbEntity
  8
DV2_Default
  6
Continuous
 62
     7
100
AcDbCircle
 10
520.0999866843
 20
692.3789168432
 30
0.0
 40
0.4987042474128661
100
AcDbArc
 50
173.3433342525
 51
222.0630743209
  0
ARC
  5
24D
330
1F9
100
AcDbEntity
  8
DV2_Default
  6
Continuous
 62
     7
100
AcDbCircle
 10
182.5929694992
 20
727.7890344901
 30
0.0
 40
338.8685419287456
100
AcDbArc
 50
354.0107258829
 51
357.1707841663
  0
ARC
  5
24E
330
1F9
100
AcDbEntity
  8
DV2_Default
  6
Continuous
 62
     7
100
AcDbCircle
 10
888.2448404064
 20
727.7890344901
 30
0.0
 40
338.8677889108905
100
AcDbArc
 50
182.8296090687
 51
185.989292284
  0
ARC
  5
24F
330
1F9
100
AcDbEntity
  8
DV2_Default
  6
Continuous
 62
     7
100
AcDbCircle
 10
549.2865939721
 20
711.0379712041
 30
0.0
 40
0.5011006355304425
100
AcDbArc
 50
2.0095667476
 51
75.3217826559
  0
ARC
  5
250
330
1F9
100
AcDbEntity
  8
DV2_Default
  6
Continuous
 62
     7
100
AcDbCircle
 10
521.5096345283
 20
711.0674118865
 30
0.0
 40
0.4510592581124355
100
AcDbArc
 50
123.6059121905
 51
180.5198531225
  0
ARC
  5
251
330
1F9
100
AcDbEntity
  8
DV2_Default
  6
Continuous
 62
     7
100
AcDbCircle
 10
537.3602103849
 20
650.1331702676
 30
0.0
 40
63.422011343749
100
AcDbArc
 50
103.1753596412
 51
104.5517798363
  0
ARC
  5
252
330
1F9
100
AcDbEntity
  8
DV2_Default
  6
Continuous
 62
     7
100
AcDbCircle
 10
522.8276226335
 20
712.3565194076
 30
0.0
 40
0.4643367122941258
100
AcDbArc
 50
301.5785943565
 51
2.6405880431
  0
LINE
  5
253
330
1F9
100
AcDbEntity
  8
DV2_Default
  6
Continuous
 62
     7
100
AcDbLine
 10
547.5440439185
 20
712.3349113464
 30
0.0
 11
547.5440439185
 21
712.9186269457
 31
0.0
  0
LINE
  5
254
330
1F9
100
AcDbEntity
  8
DV2_Default
  6
Continuous
 62
     7
100
AcDbLine
 10
523.294516277
 20
712.9186269457
 30
0.0
 11
523.294516277
 21
712.3349113464
 31
0.0
  0
ARC
  5
255
330
1F9
100
AcDbEntity
  8
DV2_Default
  6
Continuous
 62
     7
100
AcDbCircle
 10
523.7379374386
 20
712.9144990831
 30
0.0
 40
0.434132268246574
100
AcDbArc
 50
117.5213610414
 51
184.3675927853
  0
ARC
  5
256
330
1F9
100
AcDbEntity
  8
DV2_Default
  6
Continuous
 62
     7
100
AcDbCircle
 10
539.9552136877
 20
686.720599463
 30
0.0
 40
31.24985084376132
100
AcDbArc
 50
116.3857848243
 51
121.8341133791
  0
ARC
  5
257
330
1F9
100
AcDbEntity
  8
DV2_Default
  6
Continuous
 62
     7
100
AcDbCircle
 10
544.0715554751
 20
714.5739731575
 30
0.0
 40
0.3000000000981473
100
AcDbArc
 50
49.9789805154
 51
61.7512165124
  0
ARC
  5
258
330
1F9
100
AcDbEntity
  8
DV2_Default
  6
Continuous
 62
     7
100
AcDbCircle
 10
526.7670047202
 20
714.5739731575
 30
0.0
 40
0.300000000098151
100
AcDbArc
 50
118.2363661139
 51
139.3465108102
  0
ARC
  5
259
330
1F9
100
AcDbEntity
  8
DV2_Default
  6
Continuous
 62
     7
100
AcDbCircle
 10
530.8479792806
 20
686.6572671805
 30
0.0
 40
31.32231260105311
100
AcDbArc
 50
58.1710864968
 51
63.6007643744
  0
ARC
  5
25A
330
1F9
100
AcDbEntity
  8
DV2_Default
  6
Continuous
 62
     7
100
AcDbCircle
 10
547.0718554784
 20
712.9025873803
 30
0.0
 40
0.4640803092131661
100
AcDbArc
 50
357.2245138218
 51
59.8557743981
  0
SPLINE
  5
25B
330
1F9
100
AcDbEntity
  8
DV2_Default
  6
Continuous
 62
     7
100
AcDbSpline
210
0.0
220
0.0
230
1.0
 70
     8
 71
     3
 72
    11
 73
     7
 74
     0
 42
0.0000000202630091
 43
0.0000000001
 40
0.0
 40
0.0
 40
0.0
 40
0.0
 40
0.2273920323246344
 40
0.5873385659375456
 40
0.958435908553464
 40
1.0
 40
1.0
 40
1.0
 40
1.0
 10
547.7634677100523
 20
711.9655201972325
 30
0.0
 10
547.7303404791071
 20
711.9884247778606
 30
0.0
 10
547.6572478630349
 20
712.0406699315372
 30
0.0
 10
547.575548311921
 20
712.1763137835499
 30
0.0
 10
547.5333047702891
 20
712.3041014939364
 30
0.0
 10
547.5437159166171
 20
712.3663279110732
 30
0.0
 10
547.544949337078
 20
712.3735863506574
 30
0.0
  0
ARC
  5
25C
330
1F9
100
AcDbEntity
  8
DV2_Default
  6
Continuous
 62
     7
100
AcDbCircle
 10
533.4782920291
 20
650.1329300538
 30
0.0
 40
63.4222583959744
100
AcDbArc
 50
75.4510146542
 51
76.8304495903
  0
ARC
  5
25D
330
1F9
100
AcDbEntity
  8
DV2_Default
  6
Continuous
 62
     7
100
AcDbCircle
 10
535.4194010539
 20
698.480494146
 30
0.0
 40
18.57216940815115
100
AcDbArc
 50
61.7362184293
 51
63.4186507668
  0
ARC
  5
25E
330
1F9
100
AcDbEntity
  8
DV2_Default
  6
Continuous
 62
     7
100
AcDbCircle
 10
535.4191591414
 20
698.480494146
 30
0.0
 40
18.57216940813521
100
AcDbArc
 50
116.504290472
 51
118.2602973824
  0
ARC
  5
25F
330
1F9
100
AcDbEntity
  8
DV2_Default
  6
Continuous
 62
     7
100
AcDbCircle
 10
535.5804042565
 20
710.0854897014
 30
0.0
 40
9.736674413529842
100
AcDbArc
 50
89.9974743145
 51
269.9604732922
  0
ARC
  5
260
330
1F9
100
AcDbEntity
  8
DV2_Default
  6
Continuous
 62
     7
100
AcDbCircle
 10
535.245104067
 20
710.0846782332
 30
0.0
 40
9.737554033789195
100
AcDbArc
 50
270.1158252358
 51
89.9256824745
  0
SPLINE
  5
261
330
1F9
100
AcDbEntity
  8
DV2_Default
  6
Continuous
 62
     7
100
AcDbSpline
210
0.0
220
0.0
230
1.0
 70
     8
 71
     3
 72
     8
 73
     4
 74
     0
 42
0.0000004917480296
 43
0.0000000001
 40
0.0
 40
0.0
 40
0.0
 40
0.0
 40
1.0
 40
1.0
 40
1.0
 40
1.0
 10
521.0686743047796
 20
711.0603430736439
 30
0.0
 10
521.0551403499693
 20
711.0603429299485
 30
0.0
 10
521.0483388572088
 20
711.0603427862532
 30
0.0
 10
521.0483389485346
 20
711.0603426425578
 30
0.0
  0
ARC
  5
262
330
1F9
100
AcDbEntity
  8
DV2_Default
  6
Continuous
 62
     7
100
AcDbCircle
 10
546.0452490746
 20
3608.0566861096
 30
0.0
 40
2954.992835047475
100
AcDbArc
 50
269.7939675249
 51
270.2047804554
  0
SPLINE
  5
263
330
1F9
100
AcDbEntity
  8
DV2_Default
  6
Continuous
 62
     7
100
AcDbSpline
210
0.0
220
0.0
230
1.0
 70
     8
 71
     3
 72
    12
 73
     8
 74
     0
 42
0.0000000006131174
 43
0.0000000001
 40
0.0
 40
0.0
 40
0.0
 40
0.0
 40
0.2495892552355607
 40
0.4991785104711213
 40
0.748767765706682
 40
0.9983570209422427
 40
1.0
 40
1.0
 40
1.0
 40
1.0
 10
535.4192800976841
 20
688.0870973945375
 30
0.0
 10
537.52040988698
 20
688.0870956608217
 30
0.0
 10
541.8232189491838
 20
688.0874380392672
 30
0.0
 10
547.4041244972085
 20
688.0869219312934
 30
0.0
 10
550.8759205751289
 20
688.087431423615
 30
0.0
 10
551.7285477154352
 20
688.0870808581343
 30
0.0
 10
551.7293561632815
 20
688.0870794407144
 30
0.0
 10
551.7293431996595
 20
688.0870794388077
 30
0.0
  0
SPLINE
  5
264
330
1F9
100
AcDbEntity
  8
DV2_Default
  6
Continuous
 62
     7
100
AcDbSpline
210
0.0
220
0.0
230
1.0
 70
     8
 71
     3
 72
    12
 73
     8
 74
     0
 42
0.0000000005996677
 43
0.0000000001
 40
0.0
 40
0.0
 40
0.0
 40
0.0
 40
0.0016799719950122
 40
0.251259978996548
 40
0.5008399859976981
 40
0.7504199929987705
 40
1.0
 40
1.0
 40
1.0
 40
1.0
 10
552.0951547946147
 20
688.6212855107004
 30
0.0
 10
552.0951685421917
 20
688.621285507373
 30
0.0
 10
552.0943133261042
 20
688.6212853771528
 30
0.0
 10
551.2243596970568
 20
688.6213961492748
 30
0.0
 10
547.6732474060858
 20
688.6212317861243
 30
0.0
 10
541.9655205886363
 20
688.6213948411322
 30
0.0
 10
537.5702780294085
 20
688.6212843816305
 30
0.0
 10
535.4192800976841
 20
688.6222478619276
 30
0.0
  0
LINE
  5
265
330
1F9
100
AcDbEntity
  8
DV2_Default
  6
Continuous
 62
     7
100
AcDbLine
 10
551.4001391861
 20
691.0795265247
 30
0.0
 11
535.4192952387
 21
691.0795249655
 31
0.0
  0
LINE
  5
266
330
1F9
100
AcDbEntity
  8
DV2_Default
  6
Continuous
 62
     7
100
AcDbLine
 10
535.4192952387
 20
691.0795249655
 30
0.0
 11
519.4384295043
 21
691.0795218669
 31
0.0
  0
LINE
  5
267
330
1F9
100
AcDbEntity
  8
DV2_Default
  6
Continuous
 62
     7
100
AcDbLine
 10
535.600637383
 20
691.0795312045
 30
0.0
 11
539.9554799207
 21
691.0795312045
 31
0.0
  0
LINE
  5
268
330
1F9
100
AcDbEntity
  8
DV2_Default
  6
Continuous
 62
     7
100
AcDbLine
 10
545.0083137154
 20
691.0795312045
 30
0.0
 11
546.8692800977
 21
691.0795312045
 31
0.0
  0
SPLINE
  5
269
330
1F9
100
AcDbEntity
  8
DV2_Default
  6
Continuous
 62
     7
100
AcDbSpline
210
0.0
220
0.0
230
1.0
 70
     8
 71
     3
 72
    12
 73
     8
 74
     0
 42
0.0000000005996676
 43
0.0000000001
 40
0.0
 40
0.0
 40
0.0
 40
0.0
 40
0.2495847268487624
 40
0.4991694536989521
 40
0.7487541805491431
 40
0.9983389073993332
 40
1.0
 40
1.0
 40
1.0
 40
1.0
 10
535.4192800976841
 20
688.6222478619276
 30
0.0
 10
533.2682039183686
 20
688.6212849233723
 30
0.0
 10
528.8729043808331
 20
688.6213953825722
 30
0.0
 10
523.1652083866655
 20
688.6212323283415
 30
0.0
 10
519.6141370310032
 20
688.6213966914905
 30
0.0
 10
518.7442570853786
 20
688.6212859230753
 30
0.0
 10
518.7433898788028
 20
688.6212860492055
 30
0.0
 10
518.7434031753643
 20
688.6212860524416
 30
0.0
  0
LINE
  5
26A
330
1F9
100
AcDbEntity
  8
DV2_Default
  6
Continuous
 62
     7
100
AcDbLine
 10
519.1088495909
 20
688.0871184283
 30
0.0
 11
535.4192800977
 21
688.0870995836
 31
0.0
  0
ARC
  5
26B
330
1F9
100
AcDbEntity
  8
DV2_Default
  6
Continuous
 62
     7
100
AcDbCircle
 10
524.7908590543
 20
3385.3533330362
 30
0.0
 40
2732.291048281692
100
AcDbArc
 50
269.7785794234
 51
270.2228780627
  0
LINE
  5
26C
330
1F9
100
AcDbEntity
  8
DV2_Default
  6
Continuous
 62
     7
100
AcDbLine
 10
535.4192802105
 20
651.0795314429
 30
0.0
 11
513.0864506498
 21
651.0795314429
 31
0.0
  0
LINE
  5
26D
330
1F9
100
AcDbEntity
  8
DV2_Default
  6
Continuous
 62
     7
100
AcDbLine
 10
535.4192800977
 20
651.0795314429
 30
0.0
 11
557.7521095446
 21
651.0795314429
 31
0.0
  0
ARC
  5
26E
330
1F9
100
AcDbEntity
  8
DV2_Default
  6
Continuous
 62
     7
100
AcDbCircle
 10
556.3793199047
 20
651.3185249344
 30
0.0
 40
1.574181959920444
100
AcDbArc
 50
358.5903091023
 51
71.4156097053
  0
ARC
  5
26F
330
1F9
100
AcDbEntity
  8
DV2_Default
  6
Continuous
 62
     7
100
AcDbCircle
 10
557.0683126461
 20
653.2738423796
 30
0.0
 40
0.4996712693619136
100
AcDbArc
 50
202.0725693206
 51
250.0348608485
  0
SPLINE
  5
270
330
1F9
100
AcDbEntity
  8
DV2_Default
  6
Continuous
 62
     7
100
AcDbSpline
210
0.0
220
0.0
230
1.0
 70
     8
 71
     3
 72
    16
 73
    12
 74
     0
 42
0.0000000002817107
 43
0.0000000001
 40
0.0
 40
0.0
 40
0.0
 40
0.0
 40
0.0484700422911594
 40
0.1124979811442792
 40
0.1908032790565736
 40
0.281903923222606
 40
0.3842389838017785
 40
0.5255200924209951
 40
0.6786982577527165
 40
0.8405914631485799
 40
1.0
 40
1.0
 40
1.0
 40
1.0
 10
556.6444153856418
 20
652.9942867520573
 30
0.0
 10
556.4299508193953
 20
653.5874705144531
 30
0.0
 10
556.0104349428367
 20
654.7545905399356
 30
0.0
 10
555.51075327721
 20
657.009415585567
 30
0.0
 10
555.0111201764622
 20
659.7068879690968
 30
0.0
 10
554.5270035386569
 20
662.892040597007
 30
0.0
 10
554.0052005429288
 20
666.81409902604
 30
0.0
 10
553.4553994158099
 20
671.483541063308
 30
0.0
 10
552.8783227163713
 20
676.8228780194057
 30
0.0
 10
552.2942566394503
 20
682.5182427963409
 30
0.0
 10
551.9383132025857
 20
686.0235882778562
 30
0.0
 10
551.7296196045044
 20
688.087521059411
 30
0.0
  0
ARC
  5
271
330
1F9
100
AcDbEntity
  8
DV2_Default
  6
Continuous
 62
     7
100
AcDbCircle
 10
552.2264931296
 20
688.1389951409
 30
0.0
 40
0.4998502488698169
100
AcDbArc
 50
104.7271142515
 51
186.4704438587
  0
SPLINE
  5
272
330
1F9
100
AcDbEntity
  8
DV2_Default
  6
Continuous
 62
     7
100
AcDbSpline
210
0.0
220
0.0
230
1.0
 70
     8
 71
     3
 72
    14
 73
    10
 74
     0
 42
0.0000000024574179
 43
0.0000000001
 40
0.0
 40
0.0
 40
0.0
 40
0.0
 40
0.12787859412947
 40
0.2439815530489126
 40
0.4638711680760734
 40
0.577785279409358
 40
0.699763085616575
 40
0.8346288954959554
 40
1.0
 40
1.0
 40
1.0
 40
1.0
 10
552.0175382456682
 20
688.6039490988676
 30
0.0
 10
552.1940588973439
 20
688.658289459358
 30
0.0
 10
552.4819045742445
 20
688.7579307984975
 30
0.0
 10
552.9278440271704
 20
689.2114291485051
 30
0.0
 10
553.062422385392
 20
689.845501719152
 30
0.0
 10
552.8556821863107
 20
690.4214368082024
 30
0.0
 10
552.5213964737669
 20
690.7905581625806
 30
0.0
 10
552.0002195149602
 20
691.0383593727609
 30
0.0
 10
551.6314925896667
 20
691.0684115903872
 30
0.0
 10
551.3929055501222
 20
691.079531204499
 30
0.0
  0
SPLINE
  5
273
330
1F9
100
AcDbEntity
  8
DV2_Default
  6
Continuous
 62
     7
100
AcDbSpline
210
0.0
220
0.0
230
1.0
 70
     8
 71
     3
 72
    17
 73
    13
 74
     0
 42
0.000000003007135
 43
0.0000000001
 40
0.0
 40
0.0
 40
0.0
 40
0.0
 40
0.1020660687972925
 40
0.1876289065257821
 40
0.3245286138938732
 40
0.4301057200226165
 40
0.5102560067464218
 40
0.5876374485804169
 40
0.6912953758893683
 40
0.8243031590067151
 40
0.9053628454901671
 40
1.0
 40
1.0
 40
1.0
 40
1.0
 10
518.8086614240103
 20
690.9934798528727
 30
0.0
 10
518.6925072038719
 20
690.9531934220647
 30
0.0
 10
518.5127480730404
 20
690.8870364813476
 30
0.0
 10
518.211655958588
 20
690.6826074908367
 30
0.0
 10
517.9791763431625
 20
690.3998153071102
 30
0.0
 10
517.8569699783894
 20
690.0623984934432
 30
0.0
 10
517.8304206108702
 20
689.773328124699
 30
0.0
 10
517.8652009333676
 20
689.487482034619
 30
0.0
 10
517.9900235082758
 20
689.1616694666199
 30
0.0
 10
518.2168965048471
 20
688.8893703305031
 30
0.0
 10
518.5068646235776
 20
688.699200031224
 30
0.0
 10
518.6780293271546
 20
688.6444115447011
 30
0.0
 10
518.78723636311
 20
688.6117247799802
 30
0.0
  0
ARC
  5
274
330
1F9
100
AcDbEntity
  8
DV2_Default
  6
Continuous
 62
     7
100
AcDbCircle
 10
518.6120671421
 20
688.138995143
 30
0.0
 40
0.4998502484251752
100
AcDbArc
 50
353.5295559359
 51
75.2728850551
  0
SPLINE
  5
275
330
1F9
100
AcDbEntity
  8
DV2_Default
  6
Continuous
 62
     7
100
AcDbSpline
210
0.0
220
0.0
230
1.0
 70
     8
 71
     3
 72
    16
 73
    12
 74
     0
 42
0.0000000002817133
 43
0.0000000001
 40
0.0
 40
0.0
 40
0.0
 40
0.0
 40
0.159399331548451
 40
0.3212948619383538
 40
0.4744751450023036
 40
0.6157580838102575
 40
0.7180943481751542
 40
0.8091959216497714
 40
0.8875018366978014
 40
0.9515300477556201
 40
1.0
 40
1.0
 40
1.0
 40
1.0
 10
519.1088992132737
 20
688.0871136245967
 30
0.0
 10
518.9002196086692
 20
686.0233194609929
 30
0.0
 10
518.5442868101585
 20
682.5180786565519
 30
0.0
 10
517.960231549816
 20
676.8228209709895
 30
0.0
 10
517.3831519850166
 20
671.4834618728817
 30
0.0
 10
516.8333478768355
 20
666.8140030650943
 30
0.0
 10
516.3115418430546
 20
662.8919354185098
 30
0.0
 10
515.8274224937834
 20
659.7067808129456
 30
0.0
 10
515.3277861038836
 20
657.0093137184919
 30
0.0
 10
514.8281023023605
 20
654.7545011152968
 30
0.0
 10
514.4085813888424
 20
653.5873929091432
 30
0.0
 10
514.1941150509001
 20
652.9942173481353
 30
0.0
  0
ARC
  5
276
330
1F9
100
AcDbEntity
  8
DV2_Default
  6
Continuous
 62
     7
100
AcDbCircle
 10
513.7702334724
 20
653.2738573861
 30
0.0
 40
0.4996902969102583
100
AcDbArc
 50
289.9663298723
 51
338.1017099878
  0
ARC
  5
277
330
1F9
100
AcDbEntity
  8
DV2_Default
  6
Continuous
 62
     7
100
AcDbCircle
 10
514.4593020126
 20
651.3185090717
 30
0.0
 40
1.574243789451664
100
AcDbArc
 50
108.5400586256
 51
181.4092802427
  0
ARC
  5
278
330
1F9
100
AcDbEntity
  8
DV2_Default
  6
Continuous
 62
     7
100
AcDbCircle
 10
513.0862353484
 20
651.2792819532
 30
0.0
 40
0.1995220426707752
100
AcDbArc
 50
175.8641908348
 51
223.2921319156
  0
ARC
  5
279
330
1F9
100
AcDbEntity
  8
DV2_Default
  6
Continuous
 62
     7
100
AcDbCircle
 10
557.7523600688
 20
651.2784662378
 30
0.0
 40
0.1989378701859321
100
AcDbArc
 50
269.3304251311
 51
316.8719121483
  0
ARC
  5
27A
330
1F9
100
AcDbEntity
  8
DV2_Default
  6
Continuous
 62
     7
100
AcDbCircle
 10
557.752324847
 20
651.2792819532
 30
0.0
 40
0.1995220426798424
100
AcDbArc
 50
316.7078680845
 51
4.1358091628
  0
ARC
  5
27B
330
1F9
100
AcDbEntity
  8
DV2_Default
  6
Continuous
 62
     7
100
AcDbCircle
 10
557.0683126461
 20
653.2738423796
 30
0.0
 40
0.4996712693619124
100
AcDbArc
 50
202.0725693168
 51
211.2512911562
  0
LINE
  5
27C
330
1F9
100
AcDbEntity
  8
DV2_Default
  6
Continuous
 62
     7
100
AcDbLine
 10
505.1255345567
 20
641.0795314429
 30
0.0
 11
565.7130256387
 21
641.0795314429
 31
0.0
  0
LINE
  5
27D
330
1F9
100
AcDbEntity
  8
DV2_Default
  6
Continuous
 62
     7
100
AcDbLine
 10
508.0229027723
 20
644.4673642266
 30
0.0
 11
562.8156574231
 21
644.4673642266
 31
0.0
  0
LINE
  5
27E
330
1F9
100
AcDbEntity
  8
DV2_Default
  6
Continuous
 62
     7
100
AcDbLine
 10
513.3199164204
 20
651.0795314429
 30
0.0
 11
557.518643775
 21
651.0795314429
 31
0.0
  0
ARC
  5
27F
330
1F9
100
AcDbEntity
  8
DV2_Default
  6
Continuous
 62
     7
100
AcDbCircle
 10
505.1255345567
 20
641.2795314429
 30
0.0
 40
0.2000000000015676
100
AcDbArc
 50
176.4176264793
 51
270.0000000003
  0
ARC
  5
280
330
1F9
100
AcDbEntity
  8
DV2_Default
  6
Continuous
 62
     7
100
AcDbCircle
 10
565.7130256387
 20
641.2795314429
 30
0.0
 40
0.2000000000020197
100
AcDbArc
 50
270.0000000001
 51
3.5823735214
  0
ARC
  5
281
330
1F9
100
AcDbEntity
  8
DV2_Default
  6
Continuous
 62
     7
100
AcDbCircle
 10
508.3201259623
 20
641.0795314429
 30
0.0
 40
3.400845864663454
100
AcDbArc
 50
95.0138669062
 51
176.4176264765
  0
ARC
  5
282
330
1F9
100
AcDbEntity
  8
DV2_Default
  6
Continuous
 62
     7
100
AcDbCircle
 10
562.518434233
 20
641.0795314429
 30
0.0
 40
3.400845864663447
100
AcDbArc
 50
3.5823735235
 51
84.9861330938
  0
ARC
  5
283
330
1F9
100
AcDbEntity
  8
DV2_Default
  6
Continuous
 62
     7
100
AcDbCircle
 10
507.9355059299
 20
645.4635378019
 30
0.0
 40
1.000000000027464
100
AcDbArc
 50
275.0138669054
 51
302.3585460158
  0
ARC
  5
284
330
1F9
100
AcDbEntity
  8
DV2_Default
  6
Continuous
 62
     7
100
AcDbCircle
 10
562.9030542654
 20
645.4635378019
 30
0.0
 40
1.000000000028528
100
AcDbArc
 50
237.6414539842
 51
264.9861330946
  0
ARC
  5
285
330
1F9
100
AcDbEntity
  8
DV2_Default
  6
Continuous
 62
     7
100
AcDbCircle
 10
513.3199164204
 20
650.5795314429
 30
0.0
 40
0.5000000000072828
100
AcDbArc
 50
90.0
 51
166.3019981141
  0
ARC
  5
286
330
1F9
100
AcDbEntity
  8
DV2_Default
  6
Continuous
 62
     7
100
AcDbCircle
 10
557.5186437748
 20
650.5795314429
 30
0.0
 40
0.5000000000064088
100
AcDbArc
 50
13.6980018859
 51
90.0
  0
ENDBLK
  5
288
330
1F9
100
AcDbEntity
  8
0
100
AcDbBlockEnd
  0
BLOCK
  5
32F
330
289
100
AcDbEntity
  8
0
100
AcDbBlockBegin
  2
SE2
 70
     0
 10
0.0
 20
0.0
 30
0.0
  3
SE2
  1

  0
ARC
  5
28C
330
289
100
AcDbEntity
  8
DV3_Default
  6
Continuous
 62
     7
100
AcDbCircle
 10
188.9041030586
 20
134.1761406719
 30
0.0
 40
16.46592347977777
100
AcDbArc
 50
157.6486969158
 51
271.7053667476
  0
ARC
  5
28D
330
289
100
AcDbEntity
  8
DV3_Default
  6
Continuous
 62
     7
100
AcDbCircle
 10
188.7639289594
 20
132.8651709071
 30
0.0
 40
18.52123903501966
100
AcDbArc
 50
144.582467641
 51
271.9498233118
  0
ARC
  5
28E
330
289
100
AcDbEntity
  8
DV3_Default
  6
Continuous
 62
     7
100
AcDbCircle
 10
189.8842561354
 20
134.1761390459
 30
0.0
 40
16.46592499717668
100
AcDbArc
 50
268.2942658377
 51
22.3479074159
  0
SPLINE
  5
28F
330
289
100
AcDbEntity
  8
DV3_Default
  6
Continuous
 62
     7
100
AcDbSpline
210
0.0
220
0.0
230
1.0
 70
     8
 71
     3
 72
    21
 73
    17
 74
     0
 42
0.0000000002431334
 43
0.0000000001
 40
0.0
 40
0.0
 40
0.0
 40
0.0
 40
0.0422736548802364
 40
0.0890948060065437
 40
0.1429051400941354
 40
0.1792063181348555
 40
0.2692126354006946
 40
0.3591213558414577
 40
0.4492984303153754
 40
0.5393031498930175
 40
0.6296782853374295
 40
0.7204301852700019
 40
0.8110453480934139
 40
0.9010520576667027
 40
0.9905721453001196
 40
1.0
 40
1.0
 40
1.0
 40
1.0
 10
189.3941005692308
 20
114.3546555405555
 30
0.0
 10
189.9824788376154
 20
114.3700652587636
 30
0.0
 10
191.2225288836476
 20
114.402542364208
 30
0.0
 10
193.1927571217617
 20
114.6938377208543
 30
0.0
 10
195.0406387207839
 20
115.1565496438079
 30
0.0
 10
197.3945444116843
 20
115.9927888228159
 30
0.0
 10
200.0712896775993
 20
117.3647975932756
 30
0.0
 10
203.0052115856203
 20
119.6763052488225
 30
0.0
 10
205.3990352926534
 20
122.5067103328999
 30
0.0
 10
207.1785737671127
 20
125.7385693085325
 30
0.0
 10
208.2864914609346
 20
129.2512490460406
 30
0.0
 10
208.6647695788241
 20
132.9168413725626
 30
0.0
 10
208.2656497635543
 20
136.5701889445281
 30
0.0
 10
207.144425965263
 20
140.0613891990398
 30
0.0
 10
205.8922202599294
 20
142.3159585182277
 30
0.0
 10
205.1127140401993
 20
143.4168350888542
 30
0.0
 10
205.0373322928087
 20
143.520977979884
 30
0.0
  0
ARC
  5
290
330
289
100
AcDbEntity
  8
DV3_Default
  6
Continuous
 62
     7
100
AcDbCircle
 10
190.0462276067
 20
132.538663372
 30
0.0
 40
20.1842713980605
100
AcDbArc
 50
268.1486956666
 51
41.7971429116
  0
ARC
  5
291
330
289
100
AcDbEntity
  8
DV3_Default
  6
Continuous
 62
     7
100
AcDbCircle
 10
188.793660502
 20
132.5386640396
 30
0.0
 40
20.18267192537092
100
AcDbArc
 50
138.3088909933
 51
271.704985334
  0
ARC
  5
292
330
289
100
AcDbEntity
  8
DV3_Default
  6
Continuous
 62
     7
100
AcDbCircle
 10
189.3941643744
 20
307.9125659939
 30
0.0
 40
30.4544742619221
100
AcDbArc
 50
0.0
 51
234.6065873415
  0
ARC
  5
293
330
289
100
AcDbEntity
  8
DV3_Default
  6
Continuous
 62
     7
100
AcDbCircle
 10
189.3941643744
 20
307.9125659939
 30
0.0
 40
30.4544742619221
100
AcDbArc
 50
305.2875735115
 51
0.0
  0
ARC
  5
294
330
289
100
AcDbEntity
  8
DV3_Default
  6
Continuous
 62
     7
100
AcDbCircle
 10
189.3941643744
 20
307.9125659939
 30
0.0
 40
27.4988686442609
100
AcDbArc
 50
310.4585021119
 51
0.0
  0
ARC
  5
295
330
289
100
AcDbEntity
  8
DV3_Default
  6
Continuous
 62
     7
100
AcDbCircle
 10
189.3941643744
 20
307.9125659939
 30
0.0
 40
27.4988686442609
100
AcDbArc
 50
0.0
 51
229.5367459811
  0
ARC
  5
296
330
289
100
AcDbEntity
  8
DV3_Default
  6
Continuous
 62
     7
100
AcDbCircle
 10
189.3941643744
 20
307.9125659939
 30
0.0
 40
30.45912917860731
100
AcDbArc
 50
0.0
 51
234.614392948
  0
ARC
  5
297
330
289
100
AcDbEntity
  8
DV3_Default
  6
Continuous
 62
     7
100
AcDbCircle
 10
189.3941643744
 20
307.9125659939
 30
0.0
 40
30.45912917860731
100
AcDbArc
 50
305.2809187029
 51
0.0
  0
ARC
  5
298
330
289
100
AcDbEntity
  8
DV3_Default
  6
Continuous
 62
     7
100
AcDbCircle
 10
189.3941643743
 20
307.9125659939
 30
0.0
 40
22.87789371080553
100
AcDbArc
 50
0.0
 51
217.277535206
  0
ARC
  5
299
330
289
100
AcDbEntity
  8
DV3_Default
  6
Continuous
 62
     7
100
AcDbCircle
 10
189.3941643743
 20
307.9125659939
 30
0.0
 40
22.87789371080553
100
AcDbArc
 50
322.7745347744
 51
0.0
  0
SPLINE
  5
29A
330
289
100
AcDbEntity
  8
DV3_Default
  6
Continuous
 62
     7
100
AcDbSpline
210
0.0
220
0.0
230
1.0
 70
     8
 71
     3
 72
    25
 73
    21
 74
     0
 42
0.0000000013819015
 43
0.0000000001
 40
0.0
 40
0.0
 40
0.0
 40
0.0
 40
0.032606177419575
 40
0.0650587669207139
 40
0.1301859914872757
 40
0.1937521939449875
 40
0.2557029421131393
 40
0.3164042397851446
 40
0.3762990872454274
 40
0.4372397513770057
 40
0.500582296884521
 40
0.5651342077026393
 40
0.6298884146742892
 40
0.6960496275318676
 40
0.7619342205266777
 40
0.825661484755672
 40
0.88734314864532
 40
0.9461864496476828
 40
0.9730975018038261
 40
1.0
 40
1.0
 40
1.0
 40
1.0
 10
189.3942172466667
 20
329.0575803778728
 30
0.0
 10
189.2741277641502
 20
329.0573892635416
 30
0.0
 10
189.0345144678065
 20
329.0570079350683
 30
0.0
 10
188.5603218239438
 20
329.0532946863927
 30
0.0
 10
187.9907703304688
 20
329.0453777372465
 30
0.0
 10
187.3747122949852
 20
329.0354878910455
 30
0.0
 10
186.8518614172217
 20
329.0323747795609
 30
0.0
 10
186.433208171624
 20
329.0420440186131
 30
0.0
 10
186.1253600690116
 20
329.0702766577814
 30
0.0
 10
185.9333944998876
 20
329.1215801976517
 30
0.0
 10
185.8708821944196
 20
329.1994979354943
 30
0.0
 10
185.9484715633514
 20
329.3029557518186
 30
0.0
 10
186.1678013626012
 20
329.4261157039015
 30
0.0
 10
186.5212256338409
 20
329.558931470981
 30
0.0
 10
186.9922595275492
 20
329.6881419156369
 30
0.0
 10
187.550036340743
 20
329.7995328328429
 30
0.0
 10
188.1594031920208
 20
329.882687949489
 30
0.0
 10
188.6855117945805
 20
329.9236416409126
 30
0.0
 10
189.0969810034634
 20
329.9397126606912
 30
0.0
 10
189.2951505765093
 20
329.941155264024
 30
0.0
 10
189.3942196129601
 20
329.9418764510179
 30
0.0
  0
SPLINE
  5
29B
330
289
100
AcDbEntity
  8
DV3_Default
  6
Continuous
 62
     7
100
AcDbSpline
210
0.0
220
0.0
230
1.0
 70
     8
 71
     3
 72
    25
 73
    21
 74
     0
 42
0.0000000013819314
 43
0.0000000001
 40
0.0
 40
0.0
 40
0.0
 40
0.0
 40
0.0265141407647717
 40
0.0530409606299682
 40
0.1115101278925072
 40
0.1731567856755493
 40
0.2368259608809963
 40
0.302772235038716
 40
0.369224879998766
 40
0.4341287901869949
 40
0.4987270207022347
 40
0.5622097368670056
 40
0.6232814505193047
 40
0.6831734519904814
 40
0.7439247471753763
 40
0.806000073647649
 40
0.8695975268691727
 40
0.9347913941144405
 40
0.9673214727163101
 40
1.0
 40
1.0
 40
1.0
 40
1.0
 10
189.3942196129601
 20
329.9418764510179
 30
0.0
 10
189.4918551454447
 20
329.941175197984
 30
0.0
 10
189.6871728998667
 20
329.9397723565511
 30
0.0
 10
190.0945352116541
 20
329.9240897738281
 30
0.0
 10
190.6181942592937
 20
329.8837927926745
 30
0.0
 10
191.2271570316674
 20
329.8013914420946
 30
0.0
 10
191.7864570672654
 20
329.6904080920037
 30
0.0
 10
192.260232407807
 20
329.5611719231588
 30
0.0
 10
192.6165226973682
 20
329.4279590282247
 30
0.0
 10
192.8381568937671
 20
329.3043108796477
 30
0.0
 10
192.9174282794684
 20
329.2004365600535
 30
0.0
 10
192.8561583697639
 20
329.1221424488956
 30
0.0
 10
192.6649490803199
 20
329.0705667301776
 30
0.0
 10
192.357579259851
 20
329.0421671138307
 30
0.0
 10
191.9392339827232
 20
329.0323791615529
 30
0.0
 10
191.416217352453
 20
329.0354577287246
 30
0.0
 10
190.7997506177789
 20
329.0453365810133
 30
0.0
 10
190.2296728401323
 20
329.0532794068417
 30
0.0
 10
189.7547314627008
 20
329.0570042733841
 30
0.0
 10
189.5145708954394
 20
329.0573880518272
 30
0.0
 10
189.3942172466667
 20
329.0575803778728
 30
0.0
  0
ARC
  5
29C
330
289
100
AcDbEntity
  8
DV3_Default
  6
Continuous
 62
     7
100
AcDbCircle
 10
189.3855321559
 20
307.8812077084
 30
0.0
 40
22.24115120190281
100
AcDbArc
 50
325.0022148819
 51
89.9774741559
  0
ARC
  5
29D
330
289
100
AcDbEntity
  8
DV3_Default
  6
Continuous
 62
     7
100
AcDbCircle
 10
189.8497385336
 20
134.1999974389
 30
0.0
 40
16.00222125820168
100
AcDbArc
 50
268.3695608793
 51
19.0184737711
  0
LINE
  5
29E
330
289
100
AcDbEntity
  8
DV3_Default
  6
Continuous
 62
     7
100
AcDbLine
 10
189.394219613
 20
329.941876451
 30
0.0
 11
189.3942762675
 21
330.1223571914
 31
0.0
  0
ARC
  5
29F
330
289
100
AcDbEntity
  8
DV3_Default
  6
Continuous
 62
     7
100
AcDbCircle
 10
189.4078171935
 20
307.8812076545
 30
0.0
 40
22.24115365893634
100
AcDbArc
 50
90.0348829908
 51
214.914768103
  0
ARC
  5
2A0
330
289
100
AcDbEntity
  8
DV3_Default
  6
Continuous
 62
     7
100
AcDbCircle
 10
188.9434065135
 20
134.1999949859
 30
0.0
 40
16.00209758715668
100
AcDbArc
 50
160.9980817778
 51
271.6151192534
  0
SPLINE
  5
2A1
330
289
100
AcDbEntity
  8
DV3_Default
  6
Continuous
 62
     7
100
AcDbSpline
210
0.0
220
0.0
230
1.0
 70
     8
 71
     3
 72
    56
 73
    52
 74
     0
 42
0.0000000000621188
 43
0.0000000001
 40
0.0
 40
0.0
 40
0.0
 40
0.0
 40
0.0026776897489884
 40
0.0093417559239168
 40
0.0206507564351543
 40
0.0310887477016885
 40
0.0401104274087428
 40
0.047653023859198
 40
0.0571419729371772
 40
0.0668660721759489
 40
0.0774378839986982
 40
0.0888846457724491
 40
0.1012422732211877
 40
0.1180433272405214
 40
0.1362995930217316
 40
0.1548304687096132
 40
0.1734024803195314
 40
0.1982857914337548
 40
0.2233872281035659
 40
0.2487741093242164
 40
0.2744933616036691
 40
0.3005404210169677
 40
0.3270581943830713
 40
0.3544258149555454
 40
0.3824765475313702
 40
0.4110441563258095
 40
0.4399783404747243
 40
0.4691501272270015
 40
0.4984569554746285
 40
0.5278283133315577
 40
0.5572294142142341
 40
0.5864393296488196
 40
0.6206883097876498
 40
0.6538820742771332
 40
0.685829959474166
 40
0.7163487127229209
 40
0.7452732539411037
 40
0.7725223542042817
 40
0.7998026230534124
 40
0.8278878437816692
 40
0.8567057960364105
 40
0.8861883424562728
 40
0.9040163121072881
 40
0.9206034018694751
 40
0.9360139588763544
 40
0.9503320788787085
 40
0.9594338111461719
 40
0.970310554242998
 40
0.9829087739945008
 40
0.9961177486845403
 40
1.0
 40
1.0
 40
1.0
 40
1.0
 10
205.2284302742239
 20
138.5415928293069
 30
0.0
 10
205.2293824150239
 20
138.5420540438943
 30
0.0
 10
205.2289479449427
 20
138.5659314657021
 30
0.0
 10
205.2086926708711
 20
138.774309240526
 30
0.0
 10
205.1618661537023
 20
139.3641346445752
 30
0.0
 10
205.1215992070403
 20
140.1185267258971
 30
0.0
 10
205.08888781646
 20
140.9123741774699
 30
0.0
 10
205.0599652641027
 20
141.7873201616303
 30
0.0
 10
205.0311367287767
 20
142.8689947259415
 30
0.0
 10
205.0040799730951
 20
144.1711527370248
 30
0.0
 10
204.9783405314897
 20
145.6682590706848
 30
0.0
 10
204.9515008085433
 20
147.4123874412059
 30
0.0
 10
204.917764552325
 20
149.6232531410755
 30
0.0
 10
204.8689740459018
 20
152.4112678685727
 30
0.0
 10
204.8025066299158
 20
155.8143468972971
 30
0.0
 10
204.7286865895516
 20
159.5605811874626
 30
0.0
 10
204.6458492780466
 20
163.9780913258006
 30
0.0
 10
204.5607665603547
 20
169.1042062903376
 30
0.0
 10
204.4845155039083
 20
174.9578592092516
 30
0.0
 10
204.4316508649555
 20
181.0221456711079
 30
0.0
 10
204.4071243538774
 20
187.2419511442908
 30
0.0
 10
204.4149358475647
 20
193.5772368002639
 30
0.0
 10
204.451603869057
 20
200.0257245033776
 30
0.0
 10
204.514239703581
 20
206.5816344788053
 30
0.0
 10
204.6012534752004
 20
213.2146721836129
 30
0.0
 10
204.7107558994169
 20
219.8518238396264
 30
0.0
 10
204.8409202945654
 20
226.421636561736
 30
0.0
 10
204.9899863389557
 20
232.8544614427713
 30
0.0
 10
205.1561463404065
 20
239.0846055291275
 30
0.0
 10
205.338014473912
 20
245.04211656916
 30
0.0
 10
205.531991958646
 20
250.6745629357286
 30
0.0
 10
205.7452113628675
 20
256.2952560937454
 30
0.0
 10
205.9729227835921
 20
261.7980299497722
 30
0.0
 10
206.2085532395652
 20
267.092067440064
 30
0.0
 10
206.4327495626705
 20
271.8631467281178
 30
0.0
 10
206.6410085413546
 20
276.1340539090443
 30
0.0
 10
206.8300062632698
 20
279.9287578954029
 30
0.0
 10
207.0006478822078
 20
283.3534490052298
 30
0.0
 10
207.1563235908678
 20
286.4938656508081
 30
0.0
 10
207.3044337023664
 20
289.4202598020184
 30
0.0
 10
207.4485668778908
 20
292.1259522383745
 30
0.0
 10
207.5739211451705
 20
294.2561645246262
 30
0.0
 10
207.6786816443985
 20
295.8363797446615
 30
0.0
 10
207.7589216393286
 20
296.925827231659
 30
0.0
 10
207.830998100119
 20
297.801082512552
 30
0.0
 10
207.8923303349975
 20
298.4520136411633
 30
0.0
 10
207.9357157462887
 20
298.8681583773771
 30
0.0
 10
207.9664119962129
 20
299.1415452264533
 30
0.0
 10
207.9905940642024
 20
299.3406675763583
 30
0.0
 10
208.0010820482716
 20
299.4218910320951
 30
0.0
 10
208.0014011247149
 20
299.4319739431553
 30
0.0
 10
208.0011175816141
 20
299.4321991929517
 30
0.0
  0
SPLINE
  5
2A2
330
289
100
AcDbEntity
  8
DV3_Default
  6
Continuous
 62
     7
100
AcDbSpline
210
0.0
220
0.0
230
1.0
 70
     8
 71
     3
 72
    54
 73
    50
 74
     0
 42
0.0000000000621186
 43
0.0000000001
 40
0.0
 40
0.0
 40
0.0
 40
0.0
 40
0.0111759080890811
 40
0.0265456542523645
 40
0.0396428470977115
 40
0.0503113155183302
 40
0.0697635833014595
 40
0.0912539736353323
 40
0.1149350950793606
 40
0.1445121753545167
 40
0.1734102449646495
 40
0.2015668500658424
 40
0.2289082683210809
 40
0.2563804946989275
 40
0.285687748512097
 40
0.3167265373893721
 40
0.3493295286327467
 40
0.3833066045990304
 40
0.418457256257674
 40
0.4484842011654711
 40
0.4785866371626323
 40
0.5085307153235942
 40
0.5382759559583152
 40
0.5677429097392714
 40
0.596822366326293
 40
0.6253818114024308
 40
0.6532715409468607
 40
0.6803308405949596
 40
0.7063049535345943
 40
0.730764538132112
 40
0.7537216424664746
 40
0.7753464040995153
 40
0.7957979889619675
 40
0.8152566755019006
 40
0.8304559027481403
 40
0.8468322236400515
 40
0.8643223203152195
 40
0.8828751506684188
 40
0.8979029233014606
 40
0.9120317396449843
 40
0.9252948681767081
 40
0.9377323514281368
 40
0.9497948063174921
 40
0.9584895222728708
 40
0.9682739708946564
 40
0.9790953774029799
 40
0.9904966476832898
 40
0.9972045103232093
 40
1.0
 40
1.0
 40
1.0
 40
1.0
 10
170.7873329027739
 20
299.4317898186965
 30
0.0
 10
170.7866570942769
 20
299.4305241540574
 30
0.0
 10
170.7913836430936
 20
299.3892793515631
 30
0.0
 10
170.8137855150391
 20
299.2116056923463
 30
0.0
 10
170.8482517589243
 20
298.9098728292563
 30
0.0
 10
170.9033303880878
 20
298.3834310867473
 30
0.0
 10
170.9859963646983
 20
297.481513273323
 30
0.0
 10
171.0877661967248
 20
296.1604096370946
 30
0.0
 10
171.2107082379648
 20
294.3259431894016
 30
0.0
 10
171.3457855101728
 20
292.0172973939403
 30
0.0
 10
171.4906240636955
 20
289.2901452876225
 30
0.0
 10
171.6395272967012
 20
286.3431272008469
 30
0.0
 10
171.7965029942339
 20
283.1752694114321
 30
0.0
 10
171.9692542190126
 20
279.7103024101487
 30
0.0
 10
172.1613369457934
 20
275.850495986317
 30
0.0
 10
172.3737164306303
 20
271.4857331319366
 30
0.0
 10
172.6029058355796
 20
266.5882996630979
 30
0.0
 10
172.84415713126
 20
261.1305597001877
 30
0.0
 10
173.0772623018021
 20
255.4359160927823
 30
0.0
 10
173.2947472352862
 20
249.6094720445166
 30
0.0
 10
173.4911546578343
 20
243.776857467453
 30
0.0
 10
173.6731109017272
 20
237.6311612567218
 30
0.0
 10
173.8377784994122
 20
231.2457894913918
 30
0.0
 10
173.9838003845628
 20
224.6940943111657
 30
0.0
 10
174.1095524472074
 20
218.046641567225
 30
0.0
 10
174.213453620257
 20
211.3756289195175
 30
0.0
 10
174.2939103856805
 20
204.7536620163349
 30
0.0
 10
174.3491890189562
 20
198.2612695859898
 30
0.0
 10
174.3778164601454
 20
192.0012217786373
 30
0.0
 10
174.3780827570028
 20
186.0638454865145
 30
0.0
 10
174.3520788913454
 20
180.507216710604
 30
0.0
 10
174.3065884908102
 20
175.337672968542
 30
0.0
 10
174.2471089351412
 20
170.5430036005303
 30
0.0
 10
174.1828217593242
 20
166.3681408557594
 30
0.0
 10
174.1173730380523
 20
162.6262012197213
 30
0.0
 10
174.0517004293776
 20
159.1559204189268
 30
0.0
 10
173.9820253325723
 20
155.6213872735294
 30
0.0
 10
173.9189455703619
 20
152.384036316928
 30
0.0
 10
173.869679849724
 20
149.5687053780366
 30
0.0
 10
173.8344924963961
 20
147.2544290369393
 30
0.0
 10
173.8034871138197
 20
145.2548582679791
 30
0.0
 10
173.772169268928
 20
143.5247498620585
 30
0.0
 10
173.7389633124018
 20
142.138071746224
 30
0.0
 10
173.705726946584
 20
141.0708919940697
 30
0.0
 10
173.6703048903459
 20
140.185043070321
 30
0.0
 10
173.6281567967422
 20
139.3861651039982
 30
0.0
 10
173.5804977055822
 20
138.7819590118136
 30
0.0
 10
173.5596438877577
 20
138.5669539076849
 30
0.0
 10
173.5589793369226
 20
138.5413113004358
 30
0.0
 10
173.5599671341841
 20
138.5407707012949
 30
0.0
  0
ARC
  5
2A3
330
289
100
AcDbEntity
  8
DV3_Default
  6
Continuous
 62
     7
100
AcDbCircle
 10
89.3938549283
 20
307.9162317886
 30
0.0
 40
15.81143830070997
100
AcDbArc
 50
194.8568667139
 51
359.9867164552
  0
ARC
  5
2A4
330
289
100
AcDbEntity
  8
DV3_Default
  6
Continuous
 62
     7
100
AcDbCircle
 10
89.3938549283
 20
307.9088938329
 30
0.0
 40
15.81143830222129
100
AcDbArc
 50
0.0133069452
 51
165.1424581214
  0
SPLINE
  5
2A5
330
289
100
AcDbEntity
  8
DV3_Default
  6
Continuous
 62
     7
100
AcDbSpline
210
0.0
220
0.0
230
1.0
 70
     8
 71
     3
 72
    19
 73
    15
 74
     0
 42
0.0000000018262967
 43
0.0000000001
 40
0.0
 40
0.0
 40
0.0
 40
0.0
 40
0.0225807497789861
 40
0.1217735460283083
 40
0.2185462018917569
 40
0.3171683209450732
 40
0.4206854841116743
 40
0.5270150365885541
 40
0.6323797301323218
 40
0.7339809635129799
 40
0.8284267565839082
 40
0.9162975853969004
 40
0.9581971263880942
 40
1.0
 40
1.0
 40
1.0
 40
1.0
 10
75.07507839224769
 20
312.3075230041328
 30
0.0
 10
75.08994669492128
 20
312.337591131614
 30
0.0
 10
75.16845302362896
 20
312.4916402422717
 30
0.0
 10
75.29060063354397
 20
312.6882467045329
 30
0.0
 10
75.39663504005661
 20
312.7714294804112
 30
0.0
 10
75.43712054627535
 20
312.6715937919352
 30
0.0
 10
75.41106636306114
 20
312.3806986902952
 30
0.0
 10
75.32799935914794
 20
311.8996661922914
 30
0.0
 10
75.21142852400598
 20
311.2530882419635
 30
0.0
 10
75.09120804786629
 20
310.4854339086832
 30
0.0
 10
74.99237358652816
 20
309.6469822462475
 30
0.0
 10
74.94024561350857
 20
308.9172663094412
 30
0.0
 10
74.91905970169144
 20
308.339929031487
 30
0.0
 10
74.91708901492322
 20
308.0549106177596
 30
0.0
 10
74.91611019656757
 20
307.912565805297
 30
0.0
  0
ARC
  5
2A6
330
289
100
AcDbEntity
  8
DV3_Default
  6
Continuous
 62
     7
100
AcDbCircle
 10
89.3942767164
 20
307.9118119125
 30
0.0
 40
14.37155976674963
100
AcDbArc
 50
0.0030024057
 51
136.1980933677
  0
ARC
  5
2A7
330
289
100
AcDbEntity
  8
DV3_Default
  6
Continuous
 62
     7
100
AcDbCircle
 10
89.4013078265
 20
307.9079112215
 30
0.0
 40
14.37933445714259
100
AcDbArc
 50
136.206267479
 51
179.9814106138
  0
SPLINE
  5
2A8
330
289
100
AcDbEntity
  8
DV3_Default
  6
Continuous
 62
     7
100
AcDbSpline
210
0.0
220
0.0
230
1.0
 70
     8
 71
     3
 72
    12
 73
     8
 74
     0
 42
0.0000000023691553
 43
0.0000000001
 40
0.0
 40
0.0
 40
0.0
 40
0.0
 40
0.0113050474603348
 40
0.0113050474603348
 40
0.5056525237301674
 40
0.5056525237301674
 40
1.0
 40
1.0
 40
1.0
 40
1.0
 10
74.34441366948919
 20
311.9351497069071
 30
0.0
 10
74.34572283814217
 20
311.9352431292273
 30
0.0
 10
74.34689674169122
 20
311.9351027017363
 30
0.0
 10
74.39321255928292
 20
311.9182835802931
 30
0.0
 10
74.17708410510177
 20
311.4702369112575
 30
0.0
 10
73.6780092244902
 20
310.0297307305239
 30
0.0
 10
73.42682684371523
 20
308.9938104814436
 30
0.0
 10
73.42663956505879
 20
307.9125663084268
 30
0.0
  0
SPLINE
  5
2A9
330
289
100
AcDbEntity
  8
DV3_Default
  6
Continuous
 62
     7
100
AcDbSpline
210
0.0
220
0.0
230
1.0
 70
     8
 71
     3
 72
    18
 73
    14
 74
     0
 42
0.0000000015269601
 43
0.0000000001
 40
0.0
 40
0.0
 40
0.0
 40
0.0
 40
0.0831825272275722
 40
0.1663650746265127
 40
0.2495476406428467
 40
0.3327302237226361
 40
0.415912822311977
 40
0.4990954348570006
 40
0.5822780598038657
 40
0.700305921483636
 40
0.7805018032067986
 40
0.9849484925981825
 40
1.0
 40
1.0
 40
1.0
 40
1.0
 10
69.54466496315881
 20
307.9125932382623
 30
0.0
 10
69.54347283457355
 20
308.1934219438327
 30
0.0
 10
69.54083839899572
 20
308.7550783740799
 30
0.0
 10
69.51972430823756
 20
309.5827407884818
 30
0.0
 10
69.48643571445345
 20
310.3810823977233
 30
0.0
 10
69.44031683653462
 20
311.136106709488
 30
0.0
 10
69.38251606612414
 20
311.8345604400974
 30
0.0
 10
69.31392691384974
 20
312.4642590826716
 30
0.0
 10
69.22499529218571
 20
313.0906848548777
 30
0.0
 10
69.12538184710615
 20
313.589415939357
 30
0.0
 10
68.97461677816408
 20
314.1052852370855
 30
0.0
 10
68.8476255510359
 20
314.2766456226071
 30
0.0
 10
68.75758717856054
 20
314.2675940875591
 30
0.0
 10
68.75142587623884
 20
314.2663463362793
 30
0.0
  0
SPLINE
  5
2AA
330
289
100
AcDbEntity
  8
DV3_Default
  6
Continuous
 62
     7
100
AcDbSpline
210
0.0
220
0.0
230
1.0
 70
    12
 71
     3
 72
    16
 73
    12
 74
     0
 42
0.0000000023949566
 43
0.0000000001
 40
0.0
 40
0.0
 40
0.0
 40
0.0
 40
0.0919356110238231
 40
0.2077327608435069
 40
0.3315630680414371
 40
0.4641711016210264
 40
0.6005682554610607
 40
0.7366666384723434
 40
0.8681669743323628
 40
0.9930651286714407
 40
1.0
 40
1.0
 40
1.0
 40
1.0
 10
73.42663956505879
 20
307.9125663084268
 30
0.0
 41
1.221807751161152
 10
73.42667750556076
 20
307.7115109618958
 30
0.0
 41
1.221807751161152
 10
73.44390865070588
 20
307.2565052281738
 30
0.0
 41
1.221807751161152
 10
73.5302402352995
 20
306.5578286770763
 30
0.0
 41
1.221807751161152
 10
73.68502241561275
 20
305.841217005172
 30
0.0
 41
1.221807751161152
 10
73.88349550110348
 20
305.1842597771019
 30
0.0
 41
1.221807751161152
 10
74.08919149893956
 20
304.6279219494324
 30
0.0
 41
1.221807751161152
 10
74.25796883851422
 20
304.209612801543
 30
0.0
 41
1.221807751161152
 10
74.3541343462338
 20
303.9529445654028
 30
0.0
 41
1.221807751161152
 10
74.35929933885372
 20
303.8906817577518
 30
0.0
 41
1.221807751161152
 10
74.34525263053527
 20
303.8899027587229
 30
0.0
 41
1.221807751161152
 10
74.34446798856739
 20
303.8899458183249
 30
0.0
 41
1.221807751161152
  0
SPLINE
  5
2AB
330
289
100
AcDbEntity
  8
DV3_Default
  6
Continuous
 62
     7
100
AcDbSpline
210
0.0
220
0.0
230
1.0
 70
    12
 71
     3
 72
     8
 73
     4
 74
     0
 42
0.0000000015454368
 43
0.0000000001
 40
0.0
 40
0.0
 40
0.0
 40
0.0
 40
1.0
 40
1.0
 40
1.0
 40
1.0
 10
69.54466496315881
 20
307.9125932382623
 30
0.0
 41
1.156760862117426
 10
69.5446666987821
 20
304.5896281559086
 30
0.0
 41
0.9583999607798992
 10
69.27877247259379
 20
302.0596396963093
 30
0.0
 41
0.948289398117437
 10
68.87313221408294
 20
301.6124256611898
 30
0.0
 41
1.12642917413004
  0
SPLINE
  5
2AC
330
289
100
AcDbEntity
  8
DV3_Default
  6
Continuous
 62
     7
100
AcDbSpline
210
0.0
220
0.0
230
1.0
 70
     8
 71
     3
 72
    19
 73
    15
 74
     0
 42
0.000000001826493
 43
0.0000000001
 40
0.0
 40
0.0
 40
0.0
 40
0.0
 40
0.0418379459002899
 40
0.0837827426855568
 40
0.1717120501901532
 40
0.2662690720939214
 40
0.3679529229518642
 40
0.4732067992579174
 40
0.5791416985007167
 40
0.6824089683949397
 40
0.7811281906596921
 40
0.8779392206692703
 40
0.9771948068239442
 40
1.0
 40
1.0
 40
1.0
 40
1.0
 10
74.91611019656757
 20
307.912565805297
 30
0.0
 10
74.91708638819838
 20
307.7701236539513
 30
0.0
 10
74.9190598103845
 20
307.4848755649959
 30
0.0
 10
74.94027640432849
 20
306.9071673275339
 30
0.0
 10
74.99247850201455
 20
306.1769130863518
 30
0.0
 10
75.09143150500091
 20
305.3380120173232
 30
0.0
 10
75.21167996417763
 20
304.5705862743441
 30
0.0
 10
75.32802381348434
 20
303.9253104765546
 30
0.0
 10
75.41088114375832
 20
303.4454291141107
 30
0.0
 10
75.43711829866903
 20
303.1543985627124
 30
0.0
 10
75.39699003426287
 20
303.0537104165098
 30
0.0
 10
75.2911850885008
 20
303.1361229647689
 30
0.0
 10
75.16902713243643
 20
303.3324516124356
 30
0.0
 10
75.09038834455176
 20
303.4866491496209
 30
0.0
 10
75.07537879015436
 20
303.5169907578572
 30
0.0
  0
ARC
  5
2AD
330
289
100
AcDbEntity
  8
DV3_Default
  6
Continuous
 62
     7
100
AcDbCircle
 10
89.3939052952
 20
307.9134940917
 30
0.0
 40
14.37193119825126
100
AcDbArc
 50
180.0036579567
 51
359.9962960778
  0
ARC
  5
2AE
330
289
100
AcDbEntity
  8
DV3_Default
  6
Continuous
 62
     7
100
AcDbCircle
 10
89.391666874
 20
307.9088647457
 30
0.0
 40
13.99983058269237
100
AcDbArc
 50
179.9848569327
 51
247.0769388948
  0
ARC
  5
2AF
330
289
100
AcDbEntity
  8
DV3_Default
  6
Continuous
 62
     7
100
AcDbCircle
 10
89.393410993
 20
307.9112904136
 30
0.0
 40
14.0027440331907
100
AcDbArc
 50
247.074231795
 51
336.526099579
  0
ARC
  5
2B0
330
289
100
AcDbEntity
  8
DV3_Default
  6
Continuous
 62
     7
100
AcDbCircle
 10
89.4402584536
 20
307.9027836747
 30
0.0
 40
13.95638931613944
100
AcDbArc
 50
336.4815234442
 51
0.0401559702
  0
ARC
  5
2B1
330
289
100
AcDbEntity
  8
DV3_Default
  6
Continuous
 62
     7
100
AcDbCircle
 10
89.3942405612
 20
307.9055421147
 30
0.0
 40
14.00240554205081
100
AcDbArc
 50
0.0287368737
 51
179.9712639999
  0
ARC
  5
2B2
330
289
100
AcDbEntity
  8
DV3_Default
  6
Continuous
 62
     7
100
AcDbCircle
 10
89.3934955617
 20
307.9129019565
 30
0.0
 40
12.51416594200914
100
AcDbArc
 50
359.9984230066
 51
180.001536332
  0
ARC
  5
2B3
330
289
100
AcDbEntity
  8
DV3_Default
  6
Continuous
 62
     7
100
AcDbCircle
 10
89.3930402465
 20
307.9084195411
 30
0.0
 40
11.89070784132054
100
AcDbArc
 50
0.0200441574
 51
179.9802035139
  0
ARC
  5
2B4
330
289
100
AcDbEntity
  8
DV3_Default
  6
Continuous
 62
     7
100
AcDbCircle
 10
89.394818458
 20
307.9123787384
 30
0.0
 40
9.418924937410981
100
AcDbArc
 50
0.0010253644
 51
179.9987494017
  0
ARC
  5
2B5
330
289
100
AcDbEntity
  8
DV3_Default
  6
Continuous
 62
     7
100
AcDbCircle
 10
89.3910201463
 20
307.9145152422
 30
0.0
 40
8.882831776321877
100
AcDbArc
 50
359.9874270284
 51
180.0125729955
  0
ARC
  5
2B6
330
289
100
AcDbEntity
  8
DV3_Default
  6
Continuous
 62
     7
100
AcDbCircle
 10
89.3910201463
 20
307.9106174747
 30
0.0
 40
8.882831776161941
100
AcDbArc
 50
179.9874317305
 51
0.0125682934
  0
ARC
  5
2B7
330
289
100
AcDbEntity
  8
DV3_Default
  6
Continuous
 62
     7
100
AcDbCircle
 10
89.3948184633
 20
307.9150499786
 30
0.0
 40
9.418925263142626
100
AcDbArc
 50
180.0149986855
 51
359.9847760805
  0
SPLINE
  5
2B8
330
289
100
AcDbEntity
  8
DV3_Default
  6
Continuous
 62
     7
100
AcDbSpline
210
0.0
220
0.0
230
1.0
 70
    12
 71
     3
 72
    11
 73
     7
 74
     0
 42
0.0000000002392653
 43
0.0000000001
 40
0.0
 40
0.0
 40
0.0
 40
0.0
 40
0.4999987173477138
 40
0.4999987173477138
 40
0.4999987173477138
 40
1.0
 40
1.0
 40
1.0
 40
1.0
 10
77.5023331149588
 20
307.9125279454508
 30
0.0
 41
1.15675613686649
 10
77.50259812825844
 20
300.9092996807589
 30
0.0
 41
0.9380308519040113
 10
82.46568842664698
 20
296.0213447787862
 30
0.0
 41
0.9481997169805145
 10
89.3937757413724
 20
296.0213447684523
 30
0.0
 41
1.187262732096
 10
96.32190756335618
 20
296.021344758118
 30
0.0
 41
0.9481984904384766
 10
101.2850048484773
 20
300.9093503456306
 30
0.0
 41
0.9380307475648245
 10
101.2837473602188
 20
307.9125793451782
 30
0.0
 41
1.156759503475044
  0
ARC
  5
2B9
330
289
100
AcDbEntity
  8
DV3_Default
  6
Continuous
 62
     7
100
AcDbCircle
 10
89.3934955632
 20
307.9172270357
 30
0.0
 40
12.51416680692208
100
AcDbArc
 50
180.0213385922
 51
359.9786207465
  0
SPLINE
  5
2BA
330
289
100
AcDbEntity
  8
DV3_Default
  6
Continuous
 62
     7
100
AcDbSpline
210
0.0
220
0.0
230
1.0
 70
    12
 71
     3
 72
    11
 73
     7
 74
     0
 42
0.0000000014430135
 43
0.0000000001
 40
0.0
 40
0.0
 40
0.0
 40
0.0
 40
0.0485901513208491
 40
0.0485901513208491
 40
0.0485901513208491
 40
1.0
 40
1.0
 40
1.0
 40
1.0
 10
68.46056860721725
 20
301.5337769869901
 30
0.0
 41
1.152425469062514
 10
68.47942062341805
 20
301.5225613088622
 30
0.0
 41
1.16344081552804
 10
68.49821735351175
 20
301.5170327713413
 30
0.0
 41
1.175053197343869
 10
68.51693206295245
 20
301.5170328403802
 30
0.0
 41
1.18726261451
 10
68.97104170990242
 20
301.5170345155972
 30
0.0
 41
0.9481985362406069
 10
69.29635162093074
 20
304.1459818856453
 30
0.0
 41
0.9380307876056349
 10
69.29635113865878
 20
307.9125727132251
 30
0.0
 41
1.156759368605084
  0
SPLINE
  5
2BB
330
289
100
AcDbEntity
  8
DV3_Default
  6
Continuous
 62
     7
100
AcDbSpline
210
0.0
220
0.0
230
1.0
 70
     8
 71
     3
 72
     8
 73
     4
 74
     0
 42
0.0000000647068549
 43
0.0000000001
 40
0.0
 40
0.0
 40
0.0
 40
0.0
 40
1.0
 40
1.0
 40
1.0
 40
1.0
 10
67.10668240383386
 20
302.8680744569163
 30
0.0
 10
67.14503051451511
 20
302.8169911126519
 30
0.0
 10
67.18409279303259
 20
302.7939396180435
 30
0.0
 10
67.2230689902588
 20
302.7708327045875
 30
0.0
  0
SPLINE
  5
2BC
330
289
100
AcDbEntity
  8
DV3_Default
  6
Continuous
 62
     7
100
AcDbSpline
210
0.0
220
0.0
230
1.0
 70
     8
 71
     3
 72
    24
 73
    20
 74
     0
 42
0.0000000062016595
 43
0.0000000001
 40
0.0
 40
0.0
 40
0.0
 40
0.0
 40
0.0589919052586167
 40
0.1179571519288466
 40
0.1768968726721709
 40
0.235812195931309
 40
0.2947042464110388
 40
0.3535741455631934
 40
0.4124230120748861
 40
0.4712519623591198
 40
0.5300621110468647
 40
0.5888545714797472
 40
0.6476304562024825
 40
0.7063908774541687
 40
0.7651369476575683
 40
0.8238697799055437
 40
0.8825904884437208
 40
0.9413001891485725
 40
1.0
 40
1.0
 40
1.0
 40
1.0
 10
67.2230689902588
 20
302.7708327045875
 30
0.0
 10
67.23271816897459
 20
302.7722615309272
 30
0.0
 10
67.25169787486834
 20
302.7749161983893
 30
0.0
 10
67.28017098196973
 20
302.7927344741098
 30
0.0
 10
67.30856250950417
 20
302.8206272690846
 30
0.0
 10
67.33681811552198
 20
302.8595177311182
 30
0.0
 10
67.3648775145687
 20
302.9090468565605
 30
0.0
 10
67.39268269250121
 20
302.9691713473931
 30
0.0
 10
67.42017585521614
 20
303.0397360872973
 30
0.0
 10
67.44730012813366
 20
303.1205889982916
 30
0.0
 10
67.47399950157984
 20
303.2115508380488
 30
0.0
 10
67.50021903068098
 20
303.3124234050234
 30
0.0
 10
67.52590475701581
 20
303.4229893398928
 30
0.0
 10
67.55100447317048
 20
303.5430073960013
 30
0.0
 10
67.57546537839978
 20
303.6722344559614
 30
0.0
 10
67.5992433051836
 20
303.8103453569543
 30
0.0
 10
67.62226876543038
 20
303.9572348352828
 30
0.0
 10
67.64457408113789
 20
304.1118938022157
 30
0.0
 10
67.65873879089823
 20
304.2217098233587
 30
0.0
 10
67.66593904815879
 20
304.2766704156785
 30
0.0
  0
ARC
  5
2BD
330
289
100
AcDbEntity
  8
DV3_Default
  6
Continuous
 62
     7
100
AcDbCircle
 10
33.903909052
 20
307.800670145
 30
0.0
 40
33.94544510765697
100
AcDbArc
 50
354.0411812329
 51
0.1888088762
  0
SPLINE
  5
2BE
330
289
100
AcDbEntity
  8
DV3_Default
  6
Continuous
 62
     7
100
AcDbSpline
210
0.0
220
0.0
230
1.0
 70
     8
 71
     3
 72
    16
 73
    12
 74
     0
 42
0.0000000019815728
 43
0.0000000001
 40
0.0
 40
0.0
 40
0.0
 40
0.0
 40
0.0007764299320606
 40
0.0007764299320606
 40
0.2505823224490455
 40
0.2505823224490455
 40
0.5003882149660304
 40
0.5003882149660304
 40
0.7501941074830152
 40
0.7501941074830152
 40
1.0
 40
1.0
 40
1.0
 40
1.0
 10
66.8105237279079
 20
303.0003462267156
 30
0.0
 10
66.81074010757418
 20
303.0003442231907
 30
0.0
 10
66.81095643274453
 20
303.0003432120108
 30
0.0
 10
66.88075481076122
 20
303.0003368420093
 30
0.0
 10
66.95600082537379
 20
303.1029556424029
 30
0.0
 10
67.10241422158137
 20
303.5735555784705
 30
0.0
 10
67.17314810658657
 20
303.9433880281978
 30
0.0
 10
67.29055229109233
 20
304.8972879877422
 30
0.0
 10
67.33679804609932
 20
305.4783651932041
 30
0.0
 10
67.3960401339464
 20
306.6946450877609
 30
0.0
 10
67.40920417455825
 20
307.3259104542713
 30
0.0
 10
67.4092645917588
 20
307.9124030554807
 30
0.0
  0
SPLINE
  5
2BF
330
289
100
AcDbEntity
  8
DV3_Default
  6
Continuous
 62
     7
100
AcDbSpline
210
0.0
220
0.0
230
1.0
 70
     8
 71
     3
 72
    14
 73
    10
 74
     0
 42
0.0000000019965027
 43
0.0000000001
 40
0.0
 40
0.0
 40
0.0
 40
0.0
 40
0.25
 40
0.25
 40
0.5
 40
0.5
 40
0.75
 40
0.75
 40
1.0
 40
1.0
 40
1.0
 40
1.0
 10
66.83889584495881
 20
312.8186283305825
 30
0.0
 10
66.9144459975686
 20
312.7895035535029
 30
0.0
 10
66.98964246389477
 20
312.6402763806306
 30
0.0
 10
67.12795067288668
 20
312.1228030405847
 30
0.0
 10
67.19101423358309
 20
311.7547372383932
 30
0.0
 10
67.29600898392607
 20
310.852221161619
 30
0.0
 10
67.33790360300823
 20
310.3180854593884
 30
0.0
 10
67.39454252259847
 20
309.1599183291138
 30
0.0
 10
67.40926710699796
 20
308.5362905812793
 30
0.0
 10
67.4092645917588
 20
307.9124030554807
 30
0.0
  0
SPLINE
  5
2C0
330
289
100
AcDbEntity
  8
DV3_Default
  6
Continuous
 62
     7
100
AcDbSpline
210
0.0
220
0.0
230
1.0
 70
     8
 71
     3
 72
     8
 73
     4
 74
     0
 42
0.0000003383329221
 43
0.0000000001
 40
0.0
 40
0.0
 40
0.0
 40
0.0
 40
1.0
 40
1.0
 40
1.0
 40
1.0
 10
66.83889584495881
 20
312.8186283305825
 30
0.0
 10
66.82930458570205
 20
312.8227296049729
 30
0.0
 10
66.8198481743966
 20
312.8247285861457
 30
0.0
 10
66.8103882185691
 20
312.824744769156
 30
0.0
  0
SPLINE
  5
2C1
330
289
100
AcDbEntity
  8
DV3_Default
  6
Continuous
 62
     7
100
AcDbSpline
210
0.0
220
0.0
230
1.0
 70
     8
 71
     3
 72
    12
 73
     8
 74
     0
 42
0.0000000018153895
 43
0.0000000001
 40
0.0
 40
0.0
 40
0.0
 40
0.0
 40
0.4459343106265456
 40
0.4459343106265456
 40
0.8918686212530913
 40
0.8918686212530913
 40
1.0
 40
1.0
 40
1.0
 40
1.0
 10
67.8491698488588
 20
307.9125316084125
 30
0.0
 10
67.84858759749979
 20
309.2585199302112
 30
0.0
 10
67.78098292420579
 20
310.5959603001426
 30
0.0
 10
67.54904390151556
 20
312.4989297498401
 30
0.0
 10
67.38613622282624
 20
313.0527538705618
 30
0.0
 10
67.182510566655
 20
313.0526504629337
 30
0.0
 10
67.14283201645874
 20
313.0200619966035
 30
0.0
 10
67.10386944036651
 20
312.9571347845786
 30
0.0
  0
SPLINE
  5
2C2
330
289
100
AcDbEntity
  8
DV3_Default
  6
Continuous
 62
     7
100
AcDbSpline
210
0.0
220
0.0
230
1.0
 70
    12
 71
     3
 72
    11
 73
     7
 74
     0
 42
0.0000000015596132
 43
0.0000000001
 40
0.0
 40
0.0
 40
0.0
 40
0.0
 40
0.930017834216088
 40
0.930017834216088
 40
0.930017834216088
 40
1.0
 40
1.0
 40
1.0
 40
1.0
 10
11.76070395555881
 20
307.9125661593753
 30
0.0
 41
1.156759079589389
 10
11.76070089490627
 20
311.3799616100717
 30
0.0
 41
0.9380307275154859
 10
11.46123134433144
 20
313.8000784121598
 30
0.0
 41
0.9481986479553561
 10
11.04319349925709
 20
313.8000770034821
 30
0.0
 41
1.187262840909
 10
11.01768441572631
 20
313.8000769175232
 30
0.0
 41
1.169273691272551
 10
10.99202458468898
 20
313.7889242737265
 30
0.0
 41
1.152580618996158
 10
10.96629510304029
 20
313.7661660693545
 30
0.0
 41
1.13718362407982
  0
SPLINE
  5
2C3
330
289
100
AcDbEntity
  8
DV3_Default
  6
Continuous
 62
     7
100
AcDbSpline
210
0.0
220
0.0
230
1.0
 70
     8
 71
     3
 72
    18
 73
    14
 74
     0
 42
0.0000000016058963
 43
0.0000000001
 40
0.0
 40
0.0
 40
0.0
 40
0.0
 40
0.2697304507394767
 40
0.5825160481240877
 40
0.5952765805189139
 40
0.6170368954832152
 40
0.6477308881472562
 40
0.687215705826301
 40
0.7352244971142035
 40
0.7913127934668425
 40
0.8548076060920943
 40
0.9247720637263306
 40
1.0
 40
1.0
 40
1.0
 40
1.0
 10
10.96218600686608
 20
302.0623104923141
 30
0.0
 10
11.0697018144692
 20
301.962033950116
 30
0.0
 10
11.30909720002044
 20
302.1911170587717
 30
0.0
 10
11.51627980766004
 20
303.3700561357923
 30
0.0
 10
11.60485957848328
 20
304.2499475858947
 30
0.0
 10
11.62084358227849
 20
304.4191036303358
 30
0.0
 10
11.64207429226385
 20
304.6654698618712
 30
0.0
 10
11.66704222626774
 20
304.9948352060755
 30
0.0
 10
11.69372062811361
 20
305.4121982976237
 30
0.0
 10
11.71962011247316
 20
305.9198912309016
 30
0.0
 10
11.74161606043045
 20
306.5154080322743
 30
0.0
 10
11.75751442210535
 20
307.1894890597841
 30
0.0
 10
11.759613373795
 20
307.6657848304643
 30
0.0
 10
11.76070395555881
 20
307.9125661593753
 30
0.0
  0
SPLINE
  5
2C4
330
289
100
AcDbEntity
  8
DV3_Default
  6
Continuous
 62
     7
100
AcDbSpline
210
0.0
220
0.0
230
1.0
 70
     8
 71
     3
 72
    20
 73
    16
 74
     0
 42
0.0000000025311648
 43
0.0000000001
 40
0.0
 40
0.0
 40
0.0
 40
0.0
 40
0.0550103648607907
 40
0.1118659172909161
 40
0.1703741106961021
 40
0.2302979960579953
 40
0.2913593473055381
 40
0.3532445186514282
 40
0.4156128941149476
 40
0.4781074587554231
 40
0.5403667222899409
 40
0.7045000747870488
 40
0.8586262058423139
 40
0.9689809590071513
 40
1.0
 40
1.0
 40
1.0
 40
1.0
 10
8.442392879158822
 20
307.9125751677994
 30
0.0
 10
8.442827340866515
 20
308.0308451317156
 30
0.0
 10
8.442568976233828
 20
308.2713518493238
 30
0.0
 10
8.436485776001646
 20
308.6344094157421
 30
0.0
 10
8.425881115196681
 20
309.0008145409302
 30
0.0
 10
8.410141996111815
 20
309.3646656752539
 30
0.0
 10
8.389338399064833
 20
309.7195556578136
 30
0.0
 10
8.363557757446378
 20
310.0589043354825
 30
0.0
 10
8.333096507144228
 20
310.3762937074416
 30
0.0
 10
8.298422671000116
 20
310.6659342492572
 30
0.0
 10
8.239011706433597
 20
311.0637955278367
 30
0.0
 10
8.149004822155497
 20
311.4617991599825
 30
0.0
 10
8.039713520782865
 20
311.6732150935703
 30
0.0
 10
7.962080489084728
 20
311.6734449194682
 30
0.0
 10
7.924792482030568
 20
311.6359461977024
 30
0.0
 10
7.916639597170233
 20
311.6259553953136
 30
0.0
  0
SPLINE
  5
2C5
330
289
100
AcDbEntity
  8
DV3_Default
  6
Continuous
 62
     7
100
AcDbSpline
210
0.0
220
0.0
230
1.0
 70
     8
 71
     3
 72
     8
 73
     4
 74
     0
 42
0.0000002718314181
 43
0.0000000001
 40
0.0
 40
0.0
 40
0.0
 40
0.0
 40
0.9999999999999999
 40
0.9999999999999999
 40
0.9999999999999999
 40
0.9999999999999999
 10
7.916639597170233
 20
311.6259553953136
 30
0.0
 10
7.90955231739196
 20
311.6172704190196
 30
0.0
 10
7.902486600082859
 20
311.6072530695484
 30
0.0
 10
7.895465826312481
 20
311.595934474342
 30
0.0
  0
ARC
  5
2C6
330
289
100
AcDbEntity
  8
DV3_Default
  6
Continuous
 62
     7
100
AcDbCircle
 10
-16.2521079986
 20
307.8242224268
 30
0.0
 40
24.69465893281323
100
AcDbArc
 50
354.03289547
 51
0.2049937188
  0
SPLINE
  5
2C7
330
289
100
AcDbEntity
  8
DV3_Default
  6
Continuous
 62
     7
100
AcDbSpline
210
0.0
220
0.0
230
1.0
 70
     8
 71
     3
 72
     8
 73
     4
 74
     0
 42
0.0000005487676665
 43
0.0000000001
 40
0.0
 40
0.0
 40
0.0
 40
0.0
 40
1.0
 40
1.0
 40
1.0
 40
1.0
 10
7.907536556142874
 20
304.211343732122
 30
0.0
 10
7.911227059576559
 20
304.2061275180099
 30
0.0
 10
7.914910373275158
 20
304.2013025127149
 30
0.0
 10
7.918584690829844
 20
304.1968631300857
 30
0.0
  0
SPLINE
  5
2C8
330
289
100
AcDbEntity
  8
DV3_Default
  6
Continuous
 62
     7
100
AcDbSpline
210
0.0
220
0.0
230
1.0
 70
     8
 71
     3
 72
    16
 73
    12
 74
     0
 42
0.0000000079032052
 43
0.0000000001
 40
0.0
 40
0.0
 40
0.0
 40
0.0
 40
0.0676950904523579
 40
0.0676950904523579
 40
0.2230792420436286
 40
0.2230792420436286
 40
0.3784633936348996
 40
0.3784633936348996
 40
0.6892316968174473
 40
0.6892316968174473
 40
1.0
 40
1.0
 40
1.0
 40
1.0
 10
7.918584690829872
 20
304.1968631300857
 30
0.0
 10
7.927716470145868
 20
304.1858299349779
 30
0.0
 10
7.936792682860516
 20
304.1771786204975
 30
0.0
 10
7.966427518467157
 20
304.1562360346094
 30
0.0
 10
7.986271889984408
 20
304.1532593396161
 30
0.0
 10
8.027035915889408
 20
304.1690762177105
 30
0.0
 10
8.047912288386778
 20
304.1884245118302
 30
0.0
 10
8.111186036845158
 20
304.2853463376966
 30
0.0
 10
8.154270018879695
 20
304.4027222035643
 30
0.0
 10
8.236248312113531
 20
304.7506799469368
 30
0.0
 10
8.275046304732719
 20
304.9814108874908
 30
0.0
 10
8.30874897065878
 20
305.2570284831885
 30
0.0
  0
SPLINE
  5
2C9
330
289
100
AcDbEntity
  8
DV3_Default
  6
Continuous
 62
     7
100
AcDbSpline
210
0.0
220
0.0
230
1.0
 70
    12
 71
     3
 72
    11
 73
     7
 74
     0
 42
0.0000000014429781
 43
0.0000000001
 40
0.0
 40
0.0
 40
0.0
 40
0.0
 40
0.9512891002731092
 40
0.9512891002731092
 40
0.9512891002731092
 40
1.0
 40
1.0
 40
1.0
 40
1.0
 10
69.29635113865878
 20
307.9125727132251
 30
0.0
 41
1.15675864249687
 10
69.29635057140204
 20
311.6791616213586
 30
0.0
 41
0.9380306986196703
 10
68.9710402680776
 20
314.3081019968727
 30
0.0
 41
0.9481988111450468
 10
68.51693102726142
 20
314.3080990986232
 30
0.0
 41
1.187262980073
 10
68.49816693744776
 20
314.3080989788657
 30
0.0
 41
1.175021663781666
 10
68.4793204347168
 20
314.3025410496774
 30
0.0
 41
1.163380505451956
 10
68.46041846814948
 20
314.2912655568265
 30
0.0
 41
1.152339505083871
  0
SPLINE
  5
2CA
330
289
100
AcDbEntity
  8
DV3_Default
  6
Continuous
 62
     7
100
AcDbSpline
210
0.0
220
0.0
230
1.0
 70
     8
 71
     3
 72
    11
 73
     7
 74
     0
 42
0.0000000115339338
 43
0.0000000001
 40
0.0
 40
0.0
 40
0.0
 40
0.0
 40
0.0932101568982836
 40
0.2803873890102797
 40
0.496688307847191
 40
1.0
 40
1.0
 40
1.0
 40
1.0
 10
75.09107553936573
 20
312.291182805607
 30
0.0
 10
75.09069290213472
 20
312.2910765162028
 30
0.0
 10
75.08222933158518
 20
312.2798156840205
 30
0.0
 10
75.02685102521248
 20
312.2161415846875
 30
0.0
 10
74.82396960198012
 20
312.0456781201472
 30
0.0
 10
74.55704460490486
 20
311.9857237072233
 30
0.0
 10
74.33329333515066
 20
311.9343528847686
 30
0.0
  0
ARC
  5
2CB
330
289
100
AcDbEntity
  8
DV3_Default
  6
Continuous
 62
     7
100
AcDbCircle
 10
73.7729105335
 20
318.2750181497
 30
0.0
 40
6.366200209090656
100
AcDbArc
 50
219.2592346398
 51
275.6732481911
  0
ARC
  5
2CC
330
289
100
AcDbEntity
  8
DV3_Default
  6
Continuous
 62
     7
100
AcDbCircle
 10
73.771281453
 20
297.5581418108
 30
0.0
 40
6.358373081604487
100
AcDbArc
 50
84.3049776921
 51
140.3820736369
  0
SPLINE
  5
2CD
330
289
100
AcDbEntity
  8
DV3_Default
  6
Continuous
 62
     7
100
AcDbSpline
210
0.0
220
0.0
230
1.0
 70
     8
 71
     3
 72
    11
 73
     7
 74
     0
 42
0.000000011537836
 43
0.0000000001
 40
0.0
 40
0.0
 40
0.0
 40
0.0
 40
0.4979309504511427
 40
0.7128367718732636
 40
0.8997958947274269
 40
1.0
 40
1.0
 40
1.0
 40
1.0
 10
74.33327166896436
 20
303.8907800518529
 30
0.0
 10
74.55491838205131
 20
303.8400878901925
 30
0.0
 10
74.82013564479246
 20
303.7803166371435
 30
0.0
 10
75.02403822080022
 20
303.6107695957755
 30
0.0
 10
75.0830045934571
 20
303.5433496108619
 30
0.0
 10
75.09063736804997
 20
303.5337306966699
 30
0.0
 10
75.09107131944714
 20
303.5336397102909
 30
0.0
  0
LINE
  5
2CE
330
289
100
AcDbEntity
  8
DV3_Default
  6
Continuous
 62
     7
100
AcDbLine
 10
68.4594273974
 20
301.5453034809
 30
0.0
 11
68.5784050405
 21
301.5067004755
 31
0.0
  0
ARC
  5
2CF
330
289
100
AcDbEntity
  8
DV3_Default
  6
Continuous
 62
     7
100
AcDbCircle
 10
70.6182082258
 20
305.0904584769
 30
0.0
 40
4.159973408455886
100
AcDbArc
 50
212.1361648355
 51
238.7595366983
  0
SPLINE
  5
2D0
330
289
100
AcDbEntity
  8
DV3_Default
  6
Continuous
 62
     7
100
AcDbSpline
210
0.0
220
0.0
230
1.0
 70
     8
 71
     3
 72
    10
 73
     6
 74
     0
 42
0.0000000293996119
 43
0.0000000001
 40
0.0
 40
0.0
 40
0.0
 40
0.0
 40
0.2430614146685006
 40
0.6943922775725022
 40
1.0
 40
1.0
 40
1.0
 40
1.0
 10
66.80792534578936
 20
302.9794642023727
 30
0.0
 10
66.85788869800227
 20
302.9827438273428
 30
0.0
 10
66.97652057379469
 20
302.9949672020471
 30
0.0
 10
67.09183836712523
 20
302.881463417409
 30
0.0
 10
67.09586133365971
 20
302.8791459146909
 30
0.0
 10
67.09607533838636
 20
302.8747905564084
 30
0.0
  0
SPLINE
  5
2D1
330
289
100
AcDbEntity
  8
DV3_Default
  6
Continuous
 62
     7
100
AcDbSpline
210
0.0
220
0.0
230
1.0
 70
     8
 71
     3
 72
    10
 73
     6
 74
     0
 42
0.0000000288162464
 43
0.0000000001
 40
0.0
 40
0.0
 40
0.0
 40
0.0
 40
0.3650188728051927
 40
0.7683528848378796
 40
1.0
 40
1.0
 40
1.0
 40
1.0
 10
67.09926390661552
 20
312.9538550022595
 30
0.0
 10
67.1008718065737
 20
312.9496951537577
 30
0.0
 10
67.09866199928955
 20
312.9506369009914
 30
0.0
 10
66.97811467445302
 20
312.8320875185101
 30
0.0
 10
66.85948629702365
 20
312.8427651277346
 30
0.0
 10
66.80758509652388
 20
312.8456946387955
 30
0.0
  0
SPLINE
  5
2D2
330
289
100
AcDbEntity
  8
DV3_Default
  6
Continuous
 62
     7
100
AcDbSpline
210
0.0
220
0.0
230
1.0
 70
     8
 71
     3
 72
    25
 73
    21
 74
     0
 42
0.000000000175193
 43
0.0000000001
 40
0.0
 40
0.0
 40
0.0
 40
0.0
 40
0.0934055478257575
 40
0.18827033541088
 40
0.2796900660495998
 40
0.3745510007162178
 40
0.4789340849030806
 40
0.5469742995352532
 40
0.611066232819834
 40
0.6681993899370955
 40
0.7193053076459323
 40
0.7644848219770787
 40
0.8021164779771401
 40
0.8172530799873008
 40
0.8398701221198419
 40
0.8696399258936208
 40
0.8964885470353801
 40
0.9271767066749564
 40
0.9616647238768258
 40
1.0
 40
1.0
 40
1.0
 40
1.0
 10
66.81031887421607
 20
312.8318827940956
 30
0.0
 10
64.8599100745194
 20
312.8217162522144
 30
0.0
 10
61.54642783403194
 20
312.8137497431086
 30
0.0
 10
56.13512224227335
 20
313.0338894798768
 30
0.0
 10
50.84174720203821
 20
313.4481784309915
 30
0.0
 10
45.35393678190825
 20
314.0972034113173
 30
0.0
 10
40.34379716272796
 20
314.8959182378956
 30
0.0
 10
35.92647129648879
 20
315.707531468549
 30
0.0
 10
32.3932311802069
 20
316.3699422069295
 30
0.0
 10
29.16482312737767
 20
316.9243799964188
 30
0.0
 10
26.27153905467644
 20
317.3120309060321
 30
0.0
 10
23.72771938290344
 20
317.5070197204982
 30
0.0
 10
21.85902697180428
 20
317.5184546973468
 30
0.0
 10
20.42101021018764
 20
317.4434433418613
 30
0.0
 10
19.1358118624074
 20
317.3175350239586
 30
0.0
 10
17.64129383809424
 20
317.0632924144647
 30
0.0
 10
16.02316139515805
 20
316.6383300347627
 30
0.0
 10
14.38145063636664
 20
316.0245469956789
 30
0.0
 10
12.58532781452756
 20
315.0924258804272
 30
0.0
 10
11.58386494831959
 20
314.2785852979265
 30
0.0
 10
10.96571284286041
 20
313.765649076803
 30
0.0
  0
SPLINE
  5
2D3
330
289
100
AcDbEntity
  8
DV3_Default
  6
Continuous
 62
     7
100
AcDbSpline
210
0.0
220
0.0
230
1.0
 70
     8
 71
     3
 72
    28
 73
    24
 74
     0
 42
0.0000000001751108
 43
0.0000000001
 40
0.0
 40
0.0
 40
0.0
 40
0.0
 40
0.0341319127794566
 40
0.0691458316670006
 40
0.1011305550770731
 40
0.1300694077202669
 40
0.1639482248869386
 40
0.1922571757336171
 40
0.2146893131484652
 40
0.2361139603997746
 40
0.2519689678969622
 40
0.2695859528181114
 40
0.28905948101684
 40
0.3103026946351917
 40
0.3323893399403893
 40
0.3552210303739645
 40
0.4222068048068319
 40
0.4956902223770781
 40
0.5908679220842026
 40
0.691559259285065
 40
0.7963401649765086
 40
0.9031394770488052
 40
1.0
 40
1.0
 40
1.0
 40
1.0
 10
10.95822533115248
 20
302.0924411883773
 30
0.0
 10
11.49922514059334
 20
301.6249584137931
 30
0.0
 10
12.43509962957506
 20
300.8316959746113
 30
0.0
 10
14.17838240321456
 20
299.8918404953453
 30
0.0
 10
15.88096392879379
 20
299.2293253640202
 30
0.0
 10
17.6365587925936
 20
298.7576559197081
 30
0.0
 10
19.35776646432863
 20
298.4722341042779
 30
0.0
 10
20.97178853124254
 20
298.3402090460355
 30
0.0
 10
22.35136149138295
 20
298.3079719803772
 30
0.0
 10
23.4920517572782
 20
298.3311126044832
 30
0.0
 10
24.53687754652739
 20
298.3855657234324
 30
0.0
 10
25.54291033350092
 20
298.4634995269007
 30
0.0
 10
26.64833360149391
 20
298.5761491511917
 30
0.0
 10
27.83503837399906
 20
298.7240546331146
 30
0.0
 10
29.08133727038775
 20
298.9037879171373
 30
0.0
 10
31.18337956432468
 20
299.2402655924352
 30
0.0
 10
34.2369759500891
 20
299.7979696524013
 30
0.0
 10
38.63523986907355
 20
300.6247103692939
 30
0.0
 10
43.67666612017104
 20
301.4807154249593
 30
0.0
 10
49.34618685318523
 20
302.2299765378363
 30
0.0
 10
55.22251176264556
 20
302.7440911508802
 30
0.0
 10
61.19672286948472
 20
303.0100375581164
 30
0.0
 10
64.78675112085864
 20
303.0030454460702
 30
0.0
 10
66.81025777829194
 20
302.9929781913315
 30
0.0
  0
SPLINE
  5
2D4
330
289
100
AcDbEntity
  8
DV3_Default
  6
Continuous
 62
     7
100
AcDbSpline
210
0.0
220
0.0
230
1.0
 70
     8
 71
     3
 72
    10
 73
     6
 74
     0
 42
0.0000000029403277
 43
0.0000000001
 40
0.0
 40
0.0
 40
0.0
 40
0.0
 40
0.1544821286025949
 40
0.3703512754006075
 40
1.0
 40
1.0
 40
1.0
 40
1.0
 10
8.243438233492217
 20
303.9915771651599
 30
0.0
 10
8.422931101587372
 20
303.9276607420707
 30
0.0
 10
8.788083503663502
 20
303.796577680163
 30
0.0
 10
9.758759433425968
 20
303.1331725525737
 30
0.0
 10
10.41147609360471
 20
302.5696577877839
 30
0.0
 10
10.98864072695427
 20
302.0384007590681
 30
0.0
  0
SPLINE
  5
2D5
330
289
100
AcDbEntity
  8
DV3_Default
  6
Continuous
 62
     7
100
AcDbSpline
210
0.0
220
0.0
230
1.0
 70
     8
 71
     3
 72
    10
 73
     6
 74
     0
 42
0.0000000029403286
 43
0.0000000001
 40
0.0
 40
0.0
 40
0.0
 40
0.0
 40
0.6296486267907332
 40
0.8455178028716723
 40
1.0
 40
1.0
 40
1.0
 40
1.0
 10
10.98864070374403
 20
313.786731207589
 30
0.0
 10
10.41147630957789
 20
313.2554744268614
 30
0.0
 10
9.758759893458729
 20
312.6919598308531
 30
0.0
 10
8.788084314756833
 20
312.0285548181931
 30
0.0
 10
8.422931982675074
 20
311.8974715569431
 30
0.0
 10
8.24343911184125
 20
311.8335550226142
 30
0.0
  0
ARC
  5
2D6
330
289
100
AcDbEntity
  8
DV3_Default
  6
Continuous
 62
     7
100
AcDbCircle
 10
8.3356557993
 20
311.3063105708
 30
0.0
 40
0.5262075017795306
100
AcDbArc
 50
100.8874787214
 51
152.841879172
  0
SPLINE
  5
2D7
330
289
100
AcDbEntity
  8
DV3_Default
  6
Continuous
 62
     7
100
AcDbSpline
210
0.0
220
0.0
230
1.0
 70
     8
 71
     3
 72
    10
 73
     6
 74
     0
 42
0.0000000226205357
 43
0.0000000001
 40
0.0
 40
0.0
 40
0.0
 40
0.0
 40
0.4651171596985928
 40
0.9859089790683545
 40
1.0
 40
1.0
 40
1.0
 40
1.0
 10
7.903790383633424
 20
304.2361323200473
 30
0.0
 10
7.935110914318283
 20
304.185722277836
 30
0.0
 10
7.994676594812733
 20
304.1072739191658
 30
0.0
 10
8.152772960253628
 20
303.9939799076739
 30
0.0
 10
8.239841515780277
 20
303.9940459314055
 30
0.0
 10
8.242502261406631
 20
303.994046074213
 30
0.0
  0
ARC
  5
2D8
330
289
100
AcDbEntity
  8
DV3_Default
  6
Continuous
 62
     7
100
AcDbCircle
 10
12.2923070156
 20
308.0374045849
 30
0.0
 40
5.821602901371304
100
AcDbArc
 50
181.228750821
 51
221.5742956496
  0
ARC
  5
2D9
330
289
100
AcDbEntity
  8
DV3_Default
  6
Continuous
 62
     7
100
AcDbCircle
 10
12.270336577
 20
307.7968233364
 30
0.0
 40
5.799231858809427
100
AcDbArc
 50
138.3227935518
 51
178.9630696123
  0
ARC
  5
2DA
330
289
100
AcDbEntity
  8
DV3_Default
  6
Continuous
 62
     7
100
AcDbCircle
 10
70.6204545372
 20
310.7326368746
 30
0.0
 40
4.162970027319776
100
AcDbArc
 50
121.0897736397
 51
147.8263343669
  0
LINE
  5
2DB
330
289
100
AcDbEntity
  8
DV3_Default
  6
Continuous
 62
     7
100
AcDbLine
 10
68.5860149666
 20
314.3264524915
 30
0.0
 11
68.4859077574
 21
314.2857626355
 31
0.0
  0
ARC
  5
2DC
330
289
100
AcDbEntity
  8
DV3_Default
  6
Continuous
 62
     7
100
AcDbCircle
 10
289.3944738204
 20
307.9162381548
 30
0.0
 40
15.81143830224217
100
AcDbArc
 50
180.0133069417
 51
345.1424581311
  0
SPLINE
  5
2DD
330
289
100
AcDbEntity
  8
DV3_Default
  6
Continuous
 62
     7
100
AcDbSpline
210
0.0
220
0.0
230
1.0
 70
     8
 71
     3
 72
    19
 73
    15
 74
     0
 42
0.0000000018262967
 43
0.0000000001
 40
0.0
 40
0.0
 40
0.0
 40
0.0
 40
0.022580751149578
 40
0.1217735539145774
 40
0.2185462161347362
 40
0.3171683416662477
 40
0.4206855116325858
 40
0.5270150710939401
 40
0.6323797715588074
 40
0.7339810116133458
 40
0.8284268108881467
 40
0.9162976454731165
 40
0.9581958637438612
 40
1.0
 40
1.0
 40
1.0
 40
1.0
 10
303.7132503563478
 20
303.5176089829724
 30
0.0
 10
303.6983820537148
 20
303.4875408557133
 30
0.0
 10
303.6198757248894
 20
303.3334917455493
 30
0.0
 10
303.4977281152232
 20
303.1368852830896
 30
0.0
 10
303.3916937086586
 20
303.0537025073463
 30
0.0
 10
303.3512082024002
 20
303.1535381956753
 30
0.0
 10
303.3772623858389
 20
303.4444332977925
 30
0.0
 10
303.4603293888678
 20
303.9254657939855
 30
0.0
 10
303.5769002272639
 20
304.5720437509589
 30
0.0
 10
303.6971206919733
 20
305.3396980609008
 30
0.0
 10
303.7959551918788
 20
306.1781498020825
 30
0.0
 10
303.8480827470456
 20
306.9078612011413
 30
0.0
 10
303.8692690534141
 20
307.4851984969695
 30
0.0
 10
303.8712397156251
 20
307.7702165963747
 30
0.0
 10
303.87221855215
 20
307.9125660310099
 30
0.0
  0
ARC
  5
2DE
330
289
100
AcDbEntity
  8
DV3_Default
  6
Continuous
 62
     7
100
AcDbCircle
 10
289.3940520323
 20
307.9133200752
 30
0.0
 40
14.37155976675029
100
AcDbArc
 50
180.0030024057
 51
316.1980933677
  0
ARC
  5
2DF
330
289
100
AcDbEntity
  8
DV3_Default
  6
Continuous
 62
     7
100
AcDbCircle
 10
289.3870209187
 20
307.9172207685
 30
0.0
 40
14.37933446124625
100
AcDbArc
 50
316.2062674822
 51
359.9814104269
  0
SPLINE
  5
2E0
330
289
100
AcDbEntity
  8
DV3_Default
  6
Continuous
 62
     7
100
AcDbSpline
210
0.0
220
0.0
230
1.0
 70
     8
 71
     3
 72
    12
 73
     8
 74
     0
 42
0.0000000023691553
 43
0.0000000001
 40
0.0
 40
0.0
 40
0.0
 40
0.0
 40
0.011305047460506
 40
0.011305047460506
 40
0.5056525237302529
 40
0.5056525237302529
 40
1.0
 40
1.0
 40
1.0
 40
1.0
 10
304.4439150792285
 20
303.889982280804
 30
0.0
 10
304.4426059105755
 20
303.8898888584838
 30
0.0
 10
304.4414320070264
 20
303.8900292859748
 30
0.0
 10
304.3951161894348
 20
303.906848407418
 30
0.0
 10
304.6112446436159
 20
304.3548950764535
 30
0.0
 10
305.1103195242274
 20
305.7954012571872
 30
0.0
 10
305.361501905002
 20
306.8313215062677
 30
0.0
 10
305.3616891836588
 20
307.9125656792842
 30
0.0
  0
SPLINE
  5
2E1
330
289
100
AcDbEntity
  8
DV3_Default
  6
Continuous
 62
     7
100
AcDbSpline
210
0.0
220
0.0
230
1.0
 70
     8
 71
     3
 72
    18
 73
    14
 74
     0
 42
0.0000000015269601
 43
0.0000000001
 40
0.0
 40
0.0
 40
0.0
 40
0.0
 40
0.0831825273824269
 40
0.1663650749358091
 40
0.2495476411063343
 40
0.3327302243402281
 40
0.4159128230837542
 40
0.4990954357832053
 40
0.5822780608849057
 40
0.7003059223747482
 40
0.7805018046588639
 40
0.9849484941404429
 40
0.9999999999999999
 40
0.9999999999999999
 40
0.9999999999999999
 40
0.9999999999999999
 10
309.2436637855588
 20
307.9125387494487
 30
0.0
 10
309.2448559141342
 20
307.6317100438799
 30
0.0
 10
309.2474903496918
 20
307.070053613637
 30
0.0
 10
309.2686044404311
 20
306.2423911992468
 30
0.0
 10
309.3018930342051
 20
305.4440495900179
 30
0.0
 10
309.3480119121234
 20
304.6890252782622
 30
0.0
 10
309.4058126825429
 20
303.9905715476532
 30
0.0
 10
309.474401834836
 20
303.3608729050679
 30
0.0
 10
309.5633334564077
 20
302.7344471337323
 30
0.0
 10
309.6629469015026
 20
302.2357160489651
 30
0.0
 10
309.8137119702376
 20
301.7198467512693
 30
0.0
 10
309.9407031967608
 20
301.5484863663238
 30
0.0
 10
310.0307415685074
 20
301.5575378999717
 30
0.0
 10
310.0369028701899
 20
301.5587856509658
 30
0.0
  0
SPLINE
  5
2E2
330
289
100
AcDbEntity
  8
DV3_Default
  6
Continuous
 62
     7
100
AcDbSpline
210
0.0
220
0.0
230
1.0
 70
    12
 71
     3
 72
    16
 73
    12
 74
     0
 42
0.0000000023949566
 43
0.0000000001
 40
0.0
 40
0.0
 40
0.0
 40
0.0
 40
0.0919356110238292
 40
0.2077327608435191
 40
0.3315630680414558
 40
0.4641711016210521
 40
0.6005682554610936
 40
0.7366666384723832
 40
0.8681669743324097
 40
0.9930651286714941
 40
1.0
 40
1.0
 40
1.0
 40
1.0
 10
305.3616891836588
 20
307.9125656792842
 30
0.0
 41
1.221807751161145
 10
305.3616512431569
 20
308.1136210258152
 30
0.0
 41
1.221807751161145
 10
305.3444200980117
 20
308.5686267595372
 30
0.0
 41
1.221807751161145
 10
305.258088513418
 20
309.2673033106348
 30
0.0
 41
1.221807751161145
 10
305.1033063331049
 20
309.9839149825391
 30
0.0
 41
1.221807751161145
 10
304.9048332476141
 20
310.6408722106091
 30
0.0
 41
1.221807751161145
 10
304.6991372497781
 20
311.1972100382786
 30
0.0
 41
1.221807751161145
 10
304.5303599102034
 20
311.6155191861682
 30
0.0
 41
1.221807751161145
 10
304.4341944024837
 20
311.8721874223083
 30
0.0
 41
1.221807751161145
 10
304.4290294098639
 20
311.9344502299592
 30
0.0
 41
1.221807751161145
 10
304.4430761181823
 20
311.9352292289881
 30
0.0
 41
1.221807751161145
 10
304.4438607601502
 20
311.9351861693862
 30
0.0
 41
1.221807751161145
  0
SPLINE
  5
2E3
330
289
100
AcDbEntity
  8
DV3_Default
  6
Continuous
 62
     7
100
AcDbSpline
210
0.0
220
0.0
230
1.0
 70
    12
 71
     3
 72
     8
 73
     4
 74
     0
 42
0.0000000015454368
 43
0.0000000001
 40
0.0
 40
0.0
 40
0.0
 40
0.0
 40
1.0
 40
1.0
 40
1.0
 40
1.0
 10
309.2436637855588
 20
307.9125387494487
 30
0.0
 41
1.15676086211743
 10
309.2436620499356
 20
311.2355038318024
 30
0.0
 41
0.9583999607799004
 10
309.5095562761238
 20
313.7654922914017
 30
0.0
 41
0.9482893981174362
 10
309.9151965346347
 20
314.2127063265212
 30
0.0
 41
1.126429174130037
  0
SPLINE
  5
2E4
330
289
100
AcDbEntity
  8
DV3_Default
  6
Continuous
 62
     7
100
AcDbSpline
210
0.0
220
0.0
230
1.0
 70
     8
 71
     3
 72
    19
 73
    15
 74
     0
 42
0.000000001826493
 43
0.0000000001
 40
0.0
 40
0.0
 40
0.0
 40
0.0
 40
0.0418386071060453
 40
0.083782736609459
 40
0.1717120447871043
 40
0.2662690719358435
 40
0.3679529138712738
 40
0.4732067936779802
 40
0.5791416945690241
 40
0.6824089661075388
 40
0.7811281897355935
 40
0.877939220823945
 40
0.9771948079564454
 40
1.0
 40
1.0
 40
1.0
 40
1.0
 10
303.87221855215
 20
307.9125660310099
 30
0.0
 10
303.8712423538402
 20
308.0550104112655
 30
0.0
 10
303.8692689496172
 20
308.3402584359462
 30
0.0
 10
303.8480521552665
 20
308.9179667880278
 30
0.0
 10
303.795850271784
 20
309.6482187749352
 30
0.0
 10
303.6968972510795
 20
310.4871198925296
 30
0.0
 10
303.5766487979005
 20
311.2545456412004
 30
0.0
 10
303.4603049446608
 20
311.8998214582018
 30
0.0
 10
303.3774476086289
 20
312.3797028478197
 30
0.0
 10
303.3512104492571
 20
312.6707334169029
 30
0.0
 10
303.3913387119631
 20
312.7714215721317
 30
0.0
 10
303.4971436586843
 20
312.6890090256203
 30
0.0
 10
303.619301616192
 20
312.4926803753474
 30
0.0
 10
303.6979404047452
 20
312.3384828370342
 30
0.0
 10
303.7129499585298
 20
312.3081412301095
 30
0.0
  0
ARC
  5
2E5
330
289
100
AcDbEntity
  8
DV3_Default
  6
Continuous
 62
     7
100
AcDbCircle
 10
289.3944234538
 20
307.9116378958
 30
0.0
 40
14.37193119853845
100
AcDbArc
 50
0.0036577798
 51
179.9962960767
  0
ARC
  5
2E6
330
289
100
AcDbEntity
  8
DV3_Default
  6
Continuous
 62
     7
100
AcDbCircle
 10
289.3966618748
 20
307.9162672421
 30
0.0
 40
13.99983058256534
100
AcDbArc
 50
359.9848569323
 51
67.0769388927
  0
ARC
  5
2E7
330
289
100
AcDbEntity
  8
DV3_Default
  6
Continuous
 62
     7
100
AcDbCircle
 10
289.3949177558
 20
307.9138415741
 30
0.0
 40
14.00274403319072
100
AcDbArc
 50
67.0742317928
 51
156.526099579
  0
ARC
  5
2E8
330
289
100
AcDbEntity
  8
DV3_Default
  6
Continuous
 62
     7
100
AcDbCircle
 10
289.3480702944
 20
307.9223483132
 30
0.0
 40
13.95638931535163
100
AcDbArc
 50
156.4815234439
 51
180.0401559712
  0
ARC
  5
2E9
330
289
100
AcDbEntity
  8
DV3_Default
  6
Continuous
 62
     7
100
AcDbCircle
 10
289.3940881875
 20
307.919589873
 30
0.0
 40
14.00240554201525
100
AcDbArc
 50
180.0287368735
 51
359.971264
  0
ARC
  5
2EA
330
289
100
AcDbEntity
  8
DV3_Default
  6
Continuous
 62
     7
100
AcDbCircle
 10
289.394833187
 20
307.9122300313
 30
0.0
 40
12.51416594203439
100
AcDbArc
 50
179.998423007
 51
0.0015363317
  0
ARC
  5
2EB
330
289
100
AcDbEntity
  8
DV3_Default
  6
Continuous
 62
     7
100
AcDbCircle
 10
289.3952885022
 20
307.9167124466
 30
0.0
 40
11.89070784132054
100
AcDbArc
 50
180.0200441574
 51
359.9802035139
  0
ARC
  5
2EC
330
289
100
AcDbEntity
  8
DV3_Default
  6
Continuous
 62
     7
100
AcDbCircle
 10
289.3935102907
 20
307.9127532493
 30
0.0
 40
9.418924937410981
100
AcDbArc
 50
180.0010253644
 51
359.9987494017
  0
ARC
  5
2ED
330
289
100
AcDbEntity
  8
DV3_Default
  6
Continuous
 62
     7
100
AcDbCircle
 10
289.3973086024
 20
307.9106167453
 30
0.0
 40
8.882831776321922
100
AcDbArc
 50
179.987427027
 51
0.0125729968
  0
ARC
  5
2EE
330
289
100
AcDbEntity
  8
DV3_Default
  6
Continuous
 62
     7
100
AcDbCircle
 10
289.3973086024
 20
307.914514513
 30
0.0
 40
8.882831776161936
100
AcDbArc
 50
359.9874317305
 51
180.0125682933
  0
ARC
  5
2EF
330
289
100
AcDbEntity
  8
DV3_Default
  6
Continuous
 62
     7
100
AcDbCircle
 10
289.3935102854
 20
307.9100820092
 30
0.0
 40
9.418925263142626
100
AcDbArc
 50
0.0149986855
 51
179.9847760805
  0
SPLINE
  5
2F0
330
289
100
AcDbEntity
  8
DV3_Default
  6
Continuous
 62
     7
100
AcDbSpline
210
0.0
220
0.0
230
1.0
 70
    12
 71
     3
 72
    11
 73
     7
 74
     0
 42
0.0000000002392653
 43
0.0000000001
 40
0.0
 40
0.0
 40
0.0
 40
0.0
 40
0.4999987173477123
 40
0.4999987173477123
 40
0.4999987173477123
 40
1.0
 40
1.0
 40
1.0
 40
1.0
 10
301.2859956337588
 20
307.9126040422603
 30
0.0
 41
1.156756136866487
 10
301.2857306204591
 20
314.9158323069522
 30
0.0
 41
0.9380308519040116
 10
296.3226403220706
 20
319.8037872089249
 30
0.0
 41
0.948199716980516
 10
289.3945530073452
 20
319.8037872192588
 30
0.0
 41
1.187262732096
 10
282.4664211853614
 20
319.8037872295927
 30
0.0
 41
0.9481984904384766
 10
277.5033239002403
 20
314.9157816420804
 30
0.0
 41
0.9380307475648247
 10
277.5045813884988
 20
307.9125526425328
 30
0.0
 41
1.156759503475044
  0
ARC
  5
2F1
330
289
100
AcDbEntity
  8
DV3_Default
  6
Continuous
 62
     7
100
AcDbCircle
 10
289.3948331855
 20
307.907904952
 30
0.0
 40
12.51416680694734
100
AcDbArc
 50
0.0213385923
 51
179.9786207464
  0
SPLINE
  5
2F2
330
289
100
AcDbEntity
  8
DV3_Default
  6
Continuous
 62
     7
100
AcDbSpline
210
0.0
220
0.0
230
1.0
 70
    12
 71
     3
 72
    11
 73
     7
 74
     0
 42
0.0000000014430135
 43
0.0000000001
 40
0.0
 40
0.0
 40
0.0
 40
0.0
 40
0.0485901513208338
 40
0.0485901513208338
 40
0.0485901513208338
 40
1.0
 40
1.0
 40
1.0
 40
1.0
 10
310.3277601415003
 20
314.2913550007209
 30
0.0
 41
1.152425469062524
 10
310.3089081252995
 20
314.3025706788488
 30
0.0
 41
1.163440815528048
 10
310.2901113952058
 20
314.3080992163697
 30
0.0
 41
1.175053197343873
 10
310.2713966857651
 20
314.3080991473309
 30
0.0
 41
1.18726261451
 10
309.8172870388152
 20
314.3080974721138
 30
0.0
 41
0.9481985362406068
 10
309.4919771277869
 20
311.6791501020658
 30
0.0
 41
0.9380307876056346
 10
309.4919776100588
 20
307.9125592744859
 30
0.0
 41
1.156759368605083
  0
SPLINE
  5
2F3
330
289
100
AcDbEntity
  8
DV3_Default
  6
Continuous
 62
     7
100
AcDbSpline
210
0.0
220
0.0
230
1.0
 70
     8
 71
     3
 72
     8
 73
     4
 74
     0
 42
0.0000000647068548
 43
0.0000000001
 40
0.0
 40
0.0
 40
0.0
 40
0.0
 40
1.0
 40
1.0
 40
1.0
 40
1.0
 10
311.6816463448569
 20
312.9570575300466
 30
0.0
 10
311.6432982341779
 20
313.0081408742064
 30
0.0
 10
311.6042359556748
 20
313.0311923692426
 30
0.0
 10
311.5652597584588
 20
313.0542992831236
 30
0.0
  0
SPLINE
  5
2F4
330
289
100
AcDbEntity
  8
DV3_Default
  6
Continuous
 62
     7
100
AcDbSpline
210
0.0
220
0.0
230
1.0
 70
     8
 71
     3
 72
    24
 73
    20
 74
     0
 42
0.0000000062016595
 43
0.0000000001
 40
0.0
 40
0.0
 40
0.0
 40
0.0
 40
0.0589919045232535
 40
0.1179571505501123
 40
0.1768968707420293
 40
0.2358121935416973
 40
0.294704243653867
 40
0.3535741425303547
 40
0.4124230088582632
 40
0.4712519590505895
 40
0.5300621077382976
 40
0.5888545682630205
 40
0.6476304531694814
 40
0.7063908746967861
 40
0.7651369452677249
 40
0.8238697779751737
 40
0.8825904870647951
 40
0.9413001884130882
 40
1.0
 40
1.0
 40
1.0
 40
1.0
 10
311.5652597584588
 20
313.0542992831236
 30
0.0
 10
311.555610579864
 20
313.0528704568093
 30
0.0
 10
311.5366308741975
 20
313.0502157893961
 30
0.0
 10
311.5081577674113
 20
313.0323975140656
 30
0.0
 10
311.4797662401429
 20
313.00450471965
 30
0.0
 10
311.4515106343411
 20
312.9656142583133
 30
0.0
 10
311.4234512354598
 20
312.9160851336469
 30
0.0
 10
311.3956460576425
 20
312.8559606436168
 30
0.0
 10
311.3681528949933
 20
312.7853959044887
 30
0.0
 10
311.3410286220932
 20
312.7045429941927
 30
0.0
 10
311.3143292486184
 20
312.6135811550055
 30
0.0
 10
311.2881097194448
 20
312.5127085884241
 30
0.0
 10
311.2624239929964
 20
312.4021426537242
 30
0.0
 10
311.2373242766912
 20
312.2821245975172
 30
0.0
 10
311.2128633712779
 20
312.1528975371491
 30
0.0
 10
311.189085444281
 20
312.0147866354004
 30
0.0
 10
311.1660599837975
 20
311.8678971559292
 30
0.0
 10
311.1437546678328
 20
311.7132381874503
 30
0.0
 10
311.1295899579077
 20
311.6034221650321
 30
0.0
 10
311.1223897005588
 20
311.5484615720316
 30
0.0
  0
ARC
  5
2F5
330
289
100
AcDbEntity
  8
DV3_Default
  6
Continuous
 62
     7
100
AcDbCircle
 10
344.8844197317
 20
308.024461841
 30
0.0
 40
33.94544514253852
100
AcDbArc
 50
174.0411812361
 51
180.1888088731
  0
SPLINE
  5
2F6
330
289
100
AcDbEntity
  8
DV3_Default
  6
Continuous
 62
     7
100
AcDbSpline
210
0.0
220
0.0
230
1.0
 70
     8
 71
     3
 72
    16
 73
    12
 74
     0
 42
0.0000000019815728
 43
0.0000000001
 40
0.0
 40
0.0
 40
0.0
 40
0.0
 40
0.0007764299320611
 40
0.0007764299320611
 40
0.2505823224490458
 40
0.2505823224490458
 40
0.5003882149660306
 40
0.5003882149660306
 40
0.7501941074830153
 40
0.7501941074830153
 40
1.0
 40
1.0
 40
1.0
 40
1.0
 10
311.9778050208096
 20
312.8247857609954
 30
0.0
 10
311.9775886411433
 20
312.8247877645204
 30
0.0
 10
311.977372315973
 20
312.8247887757003
 30
0.0
 10
311.9075739379563
 20
312.8247951457018
 30
0.0
 10
311.8323279233438
 20
312.7221763453081
 30
0.0
 10
311.6859145271363
 20
312.2515764092405
 30
0.0
 10
311.615180642131
 20
311.8817439595132
 30
0.0
 10
311.4977764576253
 20
310.9278439999688
 30
0.0
 10
311.4515307026183
 20
310.3467667945069
 30
0.0
 10
311.3922886147712
 20
309.1304868999501
 30
0.0
 10
311.3791245741593
 20
308.4992215334398
 30
0.0
 10
311.3790641569588
 20
307.9127289322304
 30
0.0
  0
SPLINE
  5
2F7
330
289
100
AcDbEntity
  8
DV3_Default
  6
Continuous
 62
     7
100
AcDbSpline
210
0.0
220
0.0
230
1.0
 70
     8
 71
     3
 72
    14
 73
    10
 74
     0
 42
0.0000000019965027
 43
0.0000000001
 40
0.0
 40
0.0
 40
0.0
 40
0.0
 40
0.25
 40
0.25
 40
0.5
 40
0.5
 40
0.75
 40
0.75
 40
1.0
 40
1.0
 40
1.0
 40
1.0
 10
311.9494329037587
 20
303.0065036571286
 30
0.0
 10
311.8738827511488
 20
303.0356284342081
 30
0.0
 10
311.7986862848226
 20
303.1848556070805
 30
0.0
 10
311.6603780758307
 20
303.7023289471263
 30
0.0
 10
311.5973145151343
 20
304.0703947493179
 30
0.0
 10
311.4923197647913
 20
304.972910826092
 30
0.0
 10
311.4504251457092
 20
305.5070465283226
 30
0.0
 10
311.393786226119
 20
306.6652136585973
 30
0.0
 10
311.3790616417195
 20
307.2888414064317
 30
0.0
 10
311.3790641569588
 20
307.9127289322304
 30
0.0
  0
SPLINE
  5
2F8
330
289
100
AcDbEntity
  8
DV3_Default
  6
Continuous
 62
     7
100
AcDbSpline
210
0.0
220
0.0
230
1.0
 70
     8
 71
     3
 72
     8
 73
     4
 74
     0
 42
0.0000003383329221
 43
0.0000000001
 40
0.0
 40
0.0
 40
0.0
 40
0.0
 40
1.0
 40
1.0
 40
1.0
 40
1.0
 10
311.9494329037587
 20
303.0065036571286
 30
0.0
 10
311.9590241630156
 20
303.0024023827382
 30
0.0
 10
311.968480574321
 20
303.0004034015653
 30
0.0
 10
311.9779405301485
 20
303.000387218555
 30
0.0
  0
SPLINE
  5
2F9
330
289
100
AcDbEntity
  8
DV3_Default
  6
Continuous
 62
     7
100
AcDbSpline
210
0.0
220
0.0
230
1.0
 70
     8
 71
     3
 72
    12
 73
     8
 74
     0
 42
0.0000000018153895
 43
0.0000000001
 40
0.0
 40
0.0
 40
0.0
 40
0.0
 40
0.4459343106395315
 40
0.4459343106395315
 40
0.891868621279063
 40
0.891868621279063
 40
1.0
 40
1.0
 40
1.0
 40
1.0
 10
310.9391588998588
 20
307.9126003792986
 30
0.0
 10
310.9397411512176
 20
306.5666120574999
 30
0.0
 10
311.0073458245116
 20
305.2291716875685
 30
0.0
 10
311.2392848472018
 20
303.3262022378709
 30
0.0
 10
311.4021925258911
 20
302.7723781171491
 30
0.0
 10
311.6058181820517
 20
302.7724815247773
 30
0.0
 10
311.6454967322373
 20
302.80506999109
 30
0.0
 10
311.6844593083194
 20
302.8679972030816
 30
0.0
  0
SPLINE
  5
2FA
330
289
100
AcDbEntity
  8
DV3_Default
  6
Continuous
 62
     7
100
AcDbSpline
210
0.0
220
0.0
230
1.0
 70
    12
 71
     3
 72
    11
 73
     7
 74
     0
 42
0.0000000015596132
 43
0.0000000001
 40
0.0
 40
0.0
 40
0.0
 40
0.0
 40
0.930017834215333
 40
0.930017834215333
 40
0.930017834215333
 40
1.0
 40
1.0
 40
1.0
 40
1.0
 10
367.0276247931587
 20
307.9125658283357
 30
0.0
 41
1.156759079589396
 10
367.0276278538113
 20
304.4451703776393
 30
0.0
 41
0.9380307275154857
 10
367.327097404386
 20
302.0250535755512
 30
0.0
 41
0.9481986479553537
 10
367.7451352494605
 20
302.0250549842288
 30
0.0
 41
1.187262840909
 10
367.7706443329914
 20
302.0250550701877
 30
0.0
 41
1.169273691272343
 10
367.7963041640291
 20
302.0362077139847
 30
0.0
 41
1.152580618995771
 10
367.8220336456782
 20
302.0589659183572
 30
0.0
 41
1.137183624079284
  0
SPLINE
  5
2FB
330
289
100
AcDbEntity
  8
DV3_Default
  6
Continuous
 62
     7
100
AcDbSpline
210
0.0
220
0.0
230
1.0
 70
     8
 71
     3
 72
    18
 73
    14
 74
     0
 42
0.0000000016058963
 43
0.0000000001
 40
0.0
 40
0.0
 40
0.0
 40
0.0
 40
0.2697304507367345
 40
0.5825160481212952
 40
0.5952765797056967
 40
0.6170368940648757
 40
0.6477308863313626
 40
0.6872157038226414
 40
0.735224495132996
 40
0.7913127917142515
 40
0.85480760476262
 40
0.9247720629923696
 40
1.0
 40
1.0
 40
1.0
 40
1.0
 10
367.8261427420358
 20
313.7628214952283
 30
0.0
 10
367.7186269344745
 20
313.8630980373938
 30
0.0
 10
367.4792315489233
 20
313.6340149287585
 30
0.0
 10
367.2720489413677
 20
312.4550758534843
 30
0.0
 10
367.1834691707923
 20
311.5751844074919
 30
0.0
 10
367.1674851674041
 20
311.4060283680014
 30
0.0
 10
367.1462544576121
 20
311.1596621401317
 30
0.0
 10
367.1212865235996
 20
310.830296798155
 30
0.0
 10
367.0946081215731
 20
310.4129337071558
 30
0.0
 10
367.0687086369164
 20
309.9052407724978
 30
0.0
 10
367.0467126886286
 20
309.309723967667
 30
0.0
 10
367.0308143266729
 20
308.6356429346958
 30
0.0
 10
367.0287153749437
 20
308.1593471596544
 30
0.0
 10
367.0276247931587
 20
307.9125658283357
 30
0.0
  0
SPLINE
  5
2FC
330
289
100
AcDbEntity
  8
DV3_Default
  6
Continuous
 62
     7
100
AcDbSpline
210
0.0
220
0.0
230
1.0
 70
     8
 71
     3
 72
    14
 73
    10
 74
     0
 42
0.0000000024618899
 43
0.0000000001
 40
0.0
 40
0.0
 40
0.0
 40
0.0
 40
0.2499999999999977
 40
0.2499999999999977
 40
0.4999999999999984
 40
0.4999999999999984
 40
0.7499999999999992
 40
0.7499999999999992
 40
1.0
 40
1.0
 40
1.0
 40
1.0
 10
370.5516951384588
 20
311.8316959130075
 30
0.0
 10
370.4874134563251
 20
311.8524102250937
 30
0.0
 10
370.4227739912785
 20
311.7663080766604
 30
0.0
 10
370.3027537001255
 20
311.3929880114821
 30
0.0
 10
370.247425069527
 20
311.1059324988137
 30
0.0
 10
370.1548875324006
 20
310.3764822270643
 30
0.0
 10
370.1177188650499
 20
309.9344048222858
 30
0.0
 10
370.0674629829752
 20
308.9655444602939
 30
0.0
 10
370.0543976120784
 20
308.4391830273986
 30
0.0
 10
370.0541377192588
 20
307.9125629774852
 30
0.0
  0
SPLINE
  5
2FD
330
289
100
AcDbEntity
  8
DV3_Default
  6
Continuous
 62
     7
100
AcDbSpline
210
0.0
220
0.0
230
1.0
 70
     8
 71
     3
 72
    14
 73
    10
 74
     0
 42
0.0000000024733789
 43
0.0000000001
 40
0.0
 40
0.0
 40
0.0
 40
0.0
 40
0.2687568165955225
 40
0.2687568165955225
 40
0.5375136331910448
 40
0.5375136331910448
 40
0.8062704497865673
 40
0.8062704497865673
 40
1.0
 40
1.0
 40
1.0
 40
1.0
 10
370.0541377192588
 20
307.9125629774852
 30
0.0
 10
370.0544133455796
 20
307.3503140507033
 30
0.0
 10
370.0693211035853
 20
306.7884296468472
 30
0.0
 10
370.1263628727444
 20
305.7664621067595
 30
0.0
 10
370.1684647218821
 20
305.3069559800873
 30
0.0
 10
370.2722645823826
 20
304.5735542954334
 30
0.0
 10
370.3339040323505
 20
304.3000727998469
 30
0.0
 10
370.4472019955525
 20
304.0321965161737
 30
0.0
 10
370.496804498126
 20
303.9812951721579
 30
0.0
 10
370.5462709729743
 20
303.9926625815474
 30
0.0
  0
SPLINE
  5
2FE
330
289
100
AcDbEntity
  8
DV3_Default
  6
Continuous
 62
     7
100
AcDbSpline
210
0.0
220
0.0
230
1.0
 70
     8
 71
     3
 72
    20
 73
    16
 74
     0
 42
0.0000000025311648
 43
0.0000000001
 40
0.0
 40
0.0
 40
0.0
 40
0.0
 40
0.0550103648602292
 40
0.1118659172901363
 40
0.1703741106953637
 40
0.2302979960574626
 40
0.2913593473052709
 40
0.3532445186513733
 40
0.415612894114936
 40
0.4781074587551715
 40
0.5403667222890454
 40
0.7045000747828963
 40
0.8586262058351136
 40
0.9689809589983808
 40
1.0
 40
1.0
 40
1.0
 40
1.0
 10
370.3459358695588
 20
307.9125568199116
 30
0.0
 10
370.3455014078417
 20
307.7942868559948
 30
0.0
 10
370.3457597724553
 20
307.5537801383842
 30
0.0
 10
370.3518429726683
 20
307.1907225719589
 30
0.0
 10
370.3624476334599
 20
306.8243174467622
 30
0.0
 10
370.3781867525387
 20
306.4604663124296
 30
0.0
 10
370.3989903495863
 20
306.1055763298634
 30
0.0
 10
370.4247709912117
 20
305.7662276521921
 30
0.0
 10
370.4552322415273
 20
305.448838280237
 30
0.0
 10
370.4899060776903
 20
305.1591977384323
 30
0.0
 10
370.5493170423001
 20
304.7613364598892
 30
0.0
 10
370.639323926611
 20
304.3633328277823
 30
0.0
 10
370.7486152279562
 20
304.1519168941629
 30
0.0
 10
370.8262482595769
 20
304.1516870681804
 30
0.0
 10
370.8635362667262
 20
304.1891857900504
 30
0.0
 10
370.8716891516069
 20
304.1991765924624
 30
0.0
  0
SPLINE
  5
2FF
330
289
100
AcDbEntity
  8
DV3_Default
  6
Continuous
 62
     7
100
AcDbSpline
210
0.0
220
0.0
230
1.0
 70
     8
 71
     3
 72
     8
 73
     4
 74
     0
 42
0.0000002632192599
 43
0.0000000001
 40
0.0
 40
0.0
 40
0.0
 40
0.0
 40
1.0
 40
1.0
 40
1.0
 40
1.0
 10
370.8716891516069
 20
304.1991765924624
 30
0.0
 10
370.8789890174473
 20
304.208122078424
 30
0.0
 10
370.8862660078649
 20
304.2184810665601
 30
0.0
 10
370.8934945740673
 20
304.2302195435199
 30
0.0
  0
ARC
  5
300
330
289
100
AcDbEntity
  8
DV3_Default
  6
Continuous
 62
     7
100
AcDbCircle
 10
395.0404367436
 20
308.0009095611
 30
0.0
 40
24.69465892907222
100
AcDbArc
 50
174.0328954695
 51
180.2049937192
  0
SPLINE
  5
301
330
289
100
AcDbEntity
  8
DV3_Default
  6
Continuous
 62
     7
100
AcDbSpline
210
0.0
220
0.0
230
1.0
 70
     8
 71
     3
 72
     8
 73
     4
 74
     0
 42
0.0000005487676666
 43
0.0000000001
 40
0.0
 40
0.0
 40
0.0
 40
0.0
 40
1.0
 40
1.0
 40
1.0
 40
1.0
 10
370.8807921925746
 20
311.6137882555891
 30
0.0
 10
370.877101689141
 20
311.6190044697012
 30
0.0
 10
370.8734183754424
 20
311.623829474996
 30
0.0
 10
370.8697440578879
 20
311.6282688576251
 30
0.0
  0
SPLINE
  5
302
330
289
100
AcDbEntity
  8
DV3_Default
  6
Continuous
 62
     7
100
AcDbSpline
210
0.0
220
0.0
230
1.0
 70
     8
 71
     3
 72
    16
 73
    12
 74
     0
 42
0.0000000079032052
 43
0.0000000001
 40
0.0
 40
0.0
 40
0.0
 40
0.0
 40
0.0676950904528466
 40
0.0676950904528466
 40
0.2230792420440368
 40
0.2230792420440368
 40
0.3784633936352272
 40
0.3784633936352272
 40
0.6892316968176111
 40
0.6892316968176111
 40
1.0
 40
1.0
 40
1.0
 40
1.0
 10
370.8697440578879
 20
311.6282688576251
 30
0.0
 10
370.8606122785718
 20
311.6393020527331
 30
0.0
 10
370.8515360658571
 20
311.6479533672135
 30
0.0
 10
370.8219012302504
 20
311.6688959531016
 30
0.0
 10
370.802056858733
 20
311.671872648095
 30
0.0
 10
370.7612928328281
 20
311.6560557700005
 30
0.0
 10
370.7404164603308
 20
311.6367074758808
 30
0.0
 10
370.6771427118725
 20
311.5397856500144
 30
0.0
 10
370.634058729838
 20
311.4224097841467
 30
0.0
 10
370.5520804366042
 20
311.0744520407742
 30
0.0
 10
370.513282443985
 20
310.8437211002204
 30
0.0
 10
370.4795797780588
 20
310.5681035045225
 30
0.0
  0
SPLINE
  5
303
330
289
100
AcDbEntity
  8
DV3_Default
  6
Continuous
 62
     7
100
AcDbSpline
210
0.0
220
0.0
230
1.0
 70
    12
 71
     3
 72
    11
 73
     7
 74
     0
 42
0.0000000014429781
 43
0.0000000001
 40
0.0
 40
0.0
 40
0.0
 40
0.0
 40
0.9512891002737186
 40
0.9512891002737186
 40
0.9512891002737186
 40
1.0
 40
1.0
 40
1.0
 40
1.0
 10
309.4919776100588
 20
307.9125592744859
 30
0.0
 41
1.156758642496869
 10
309.4919781773156
 20
304.1459703663524
 30
0.0
 41
0.93803069861967
 10
309.81728848064
 20
301.5170299908384
 30
0.0
 41
0.948198811145047
 10
310.2713977214562
 20
301.5170328890877
 30
0.0
 41
1.187262980073
 10
310.2901618112696
 20
301.5170330088453
 30
0.0
 41
1.175021663781827
 10
310.3090083140003
 20
301.5225909380335
 30
0.0
 41
1.163380505452262
 10
310.3279102805673
 20
301.5338664308841
 30
0.0
 41
1.152339505084306
  0
ARC
  5
304
330
289
100
AcDbEntity
  8
DV3_Default
  6
Continuous
 62
     7
100
AcDbCircle
 10
289.3835554468
 20
307.9159355262
 30
0.0
 40
15.77377400253055
100
AcDbArc
 50
14.9594015028
 51
180.0122394641
  0
SPLINE
  5
305
330
289
100
AcDbEntity
  8
DV3_Default
  6
Continuous
 62
     7
100
AcDbSpline
210
0.0
220
0.0
230
1.0
 70
     8
 71
     3
 72
    11
 73
     7
 74
     0
 42
0.0000000115339338
 43
0.0000000001
 40
0.0
 40
0.0
 40
0.0
 40
0.0
 40
0.0932101568982155
 40
0.2803873890102335
 40
0.4966883078471457
 40
1.0
 40
1.0
 40
1.0
 40
1.0
 10
303.6972532093518
 20
303.5339491821039
 30
0.0
 10
303.6976358465828
 20
303.5340554715081
 30
0.0
 10
303.7060994171322
 20
303.5453163036904
 30
0.0
 10
303.7614777235051
 20
303.6089904030235
 30
0.0
 10
303.9643591467374
 20
303.7794538675638
 30
0.0
 10
304.2312841438127
 20
303.8394082804878
 30
0.0
 10
304.4550354135669
 20
303.8907791029424
 30
0.0
  0
ARC
  5
306
330
289
100
AcDbEntity
  8
DV3_Default
  6
Continuous
 62
     7
100
AcDbCircle
 10
305.0154182152
 20
297.550113838
 30
0.0
 40
6.366200209083828
100
AcDbArc
 50
39.2592346401
 51
95.6732481909
  0
ARC
  5
307
330
289
100
AcDbEntity
  8
DV3_Default
  6
Continuous
 62
     7
100
AcDbCircle
 10
305.0170472957
 20
318.2669901769
 30
0.0
 40
6.358373081604737
100
AcDbArc
 50
264.304977692
 51
320.3820736369
  0
SPLINE
  5
308
330
289
100
AcDbEntity
  8
DV3_Default
  6
Continuous
 62
     7
100
AcDbSpline
210
0.0
220
0.0
230
1.0
 70
     8
 71
     3
 72
    11
 73
     7
 74
     0
 42
0.000000011537836
 43
0.0000000001
 40
0.0
 40
0.0
 40
0.0
 40
0.0
 40
0.4979309507669256
 40
0.7128367728403205
 40
0.899795896808179
 40
1.0
 40
1.0
 40
1.0
 40
1.0
 10
304.4550570797646
 20
311.9343519358573
 30
0.0
 10
304.2334103661744
 20
311.9850440978338
 30
0.0
 10
303.9681931025618
 20
312.0448153512483
 30
0.0
 10
303.7642905269267
 20
312.2143623929053
 30
0.0
 10
303.7053241551587
 20
312.2817823770089
 30
0.0
 10
303.6976913808614
 20
312.2914012906868
 30
0.0
 10
303.6972574295156
 20
312.2914922769893
 30
0.0
  0
LINE
  5
309
330
289
100
AcDbEntity
  8
DV3_Default
  6
Continuous
 62
     7
100
AcDbLine
 10
310.3285023622
 20
314.2799579612
 30
0.0
 11
310.2095618044
 21
314.3185489341
 31
0.0
  0
ARC
  5
30A
330
289
100
AcDbEntity
  8
DV3_Default
  6
Continuous
 62
     7
100
AcDbCircle
 10
308.1701205229
 20
310.7346735108
 30
0.0
 40
4.159973408451115
100
AcDbArc
 50
32.1361648356
 51
58.7595366983
  0
SPLINE
  5
30B
330
289
100
AcDbEntity
  8
DV3_Default
  6
Continuous
 62
     7
100
AcDbSpline
210
0.0
220
0.0
230
1.0
 70
     8
 71
     3
 72
    10
 73
     6
 74
     0
 42
0.000000029399612
 43
0.0000000001
 40
0.0
 40
0.0
 40
0.0
 40
0.0
 40
0.2430614166002258
 40
0.6943922830909213
 40
1.0
 40
1.0
 40
1.0
 40
1.0
 10
311.9804034029283
 20
312.8456677853383
 30
0.0
 10
311.9304400507153
 20
312.8423881603683
 30
0.0
 10
311.8118081749779
 20
312.8301647856148
 30
0.0
 10
311.6964903821906
 20
312.9436685696848
 30
0.0
 10
311.6924674155896
 20
312.9459860725713
 30
0.0
 10
311.6922534107742
 20
312.9503414307864
 30
0.0
  0
SPLINE
  5
30C
330
289
100
AcDbEntity
  8
DV3_Default
  6
Continuous
 62
     7
100
AcDbSpline
210
0.0
220
0.0
230
1.0
 70
     8
 71
     3
 72
    10
 73
     6
 74
     0
 42
0.0000000288162464
 43
0.0000000001
 40
0.0
 40
0.0
 40
0.0
 40
0.0
 40
0.3650188728055579
 40
0.7683528848381483
 40
1.0
 40
1.0
 40
1.0
 40
1.0
 10
311.6890648421019
 20
302.8712769854516
 30
0.0
 10
311.6874569421437
 20
302.8754368339534
 30
0.0
 10
311.689666749428
 20
302.8744950867198
 30
0.0
 10
311.8102140742646
 20
302.993044469201
 30
0.0
 10
311.9288424516938
 20
302.9823668599765
 30
0.0
 10
311.9807436521936
 20
302.9794373489156
 30
0.0
  0
SPLINE
  5
30D
330
289
100
AcDbEntity
  8
DV3_Default
  6
Continuous
 62
     7
100
AcDbSpline
210
0.0
220
0.0
230
1.0
 70
     8
 71
     3
 72
    25
 73
    21
 74
     0
 42
0.000000000175193
 43
0.0000000001
 40
0.0
 40
0.0
 40
0.0
 40
0.0
 40
0.0934055478257592
 40
0.1882703354108823
 40
0.2796900660496022
 40
0.3745510007162197
 40
0.478934084903081
 40
0.5469742995352541
 40
0.6110662328198342
 40
0.6681993899370975
 40
0.7193053076459326
 40
0.7644848219770812
 40
0.8021164779771429
 40
0.8172530799873022
 40
0.8398701221198434
 40
0.8696399258936222
 40
0.8964885470353833
 40
0.9271767066749628
 40
0.9616647238768292
 40
1.0
 40
1.0
 40
1.0
 40
1.0
 10
311.9780098745014
 20
302.9932491936155
 30
0.0
 10
313.9284186741981
 20
303.0034157354967
 30
0.0
 10
317.2419009146856
 20
303.0113822446024
 30
0.0
 10
322.6532065064442
 20
302.7912425078342
 30
0.0
 10
327.9465815466793
 20
302.3769535567196
 30
0.0
 10
333.4343919668092
 20
301.7279285763938
 30
0.0
 10
338.4445315859895
 20
300.9292137498155
 30
0.0
 10
342.8618574522284
 20
300.1176005191621
 30
0.0
 10
346.3950975685106
 20
299.4551897807816
 30
0.0
 10
349.6235056213394
 20
298.9007519912922
 30
0.0
 10
352.5167896940409
 20
298.5131010816789
 30
0.0
 10
355.0606093658137
 20
298.3181122672128
 30
0.0
 10
356.9293017769133
 20
298.3066772903642
 30
0.0
 10
358.3673185385296
 20
298.3816886458497
 30
0.0
 10
359.65251688631
 20
298.5075969637525
 30
0.0
 10
361.1470349106233
 20
298.7618395732462
 30
0.0
 10
362.7651673535591
 20
299.1868019529483
 30
0.0
 10
364.4068781123508
 20
299.800584992032
 30
0.0
 10
366.2030009341898
 20
300.7327061072839
 30
0.0
 10
367.2044638003981
 20
301.5465466897845
 30
0.0
 10
367.8226159058573
 20
302.0594829109081
 30
0.0
  0
SPLINE
  5
30E
330
289
100
AcDbEntity
  8
DV3_Default
  6
Continuous
 62
     7
100
AcDbSpline
210
0.0
220
0.0
230
1.0
 70
     8
 71
     3
 72
    28
 73
    24
 74
     0
 42
0.0000000001751108
 43
0.0000000001
 40
0.0
 40
0.0
 40
0.0
 40
0.0
 40
0.0341319127847729
 40
0.0691458316721094
 40
0.1011305550819935
 40
0.1300694077250251
 40
0.1639482248915146
 40
0.1922571757380433
 40
0.2146893131527806
 40
0.236113960403991
 40
0.2519689679011016
 40
0.2695859528221754
 40
0.2890594810208266
 40
0.3103026946391004
 40
0.3323893399442058
 40
0.3552210303776556
 40
0.4222068048099205
 40
0.4956902223792687
 40
0.5908679220859872
 40
0.6915592592869579
 40
0.796340164977961
 40
0.9031394770495247
 40
1.0
 40
1.0
 40
1.0
 40
1.0
 10
367.8301034177569
 20
313.7326907991886
 30
0.0
 10
367.2891036082279
 20
314.2001735738459
 30
0.0
 10
366.3532291191714
 20
314.9934360130842
 30
0.0
 10
364.6099463454415
 20
315.9332914923955
 30
0.0
 10
362.907364819861
 20
316.5958066237111
 30
0.0
 10
361.151769956062
 20
317.0674760680162
 30
0.0
 10
359.4305622843281
 20
317.3528978834404
 30
0.0
 10
357.8165402174157
 20
317.4849229416786
 30
0.0
 10
356.4369672572763
 20
317.5171600073338
 30
0.0
 10
355.2962769913819
 20
317.4940193832257
 30
0.0
 10
354.2514512021331
 20
317.439566264275
 30
0.0
 10
353.2454184151602
 20
317.3616324608052
 30
0.0
 10
352.1399951471663
 20
317.2489828365129
 30
0.0
 10
350.9532903746615
 20
317.1010773545887
 30
0.0
 10
349.7069914782731
 20
316.921344070565
 30
0.0
 10
347.6049491843426
 20
316.5848663952663
 30
0.0
 10
344.551352798597
 20
316.0271623353
 30
0.0
 10
340.1530888796311
 20
315.2004216184021
 30
0.0
 10
335.1116626285341
 20
314.3444165627411
 30
0.0
 10
329.4421418955079
 20
313.595155449872
 30
0.0
 10
323.5658169860434
 20
313.0810408368291
 30
0.0
 10
317.5916058792159
 20
312.8150944295944
 30
0.0
 10
314.0015776278524
 20
312.8220865416408
 30
0.0
 10
311.9780709704257
 20
312.8321537963795
 30
0.0
  0
SPLINE
  5
30F
330
289
100
AcDbEntity
  8
DV3_Default
  6
Continuous
 62
     7
100
AcDbSpline
210
0.0
220
0.0
230
1.0
 70
     8
 71
     3
 72
    10
 73
     6
 74
     0
 42
0.0000000029403277
 43
0.0000000001
 40
0.0
 40
0.0
 40
0.0
 40
0.0
 40
0.1544821286025785
 40
0.3703512754006038
 40
1.0
 40
1.0
 40
1.0
 40
1.0
 10
370.5448905152254
 20
311.8335548225512
 30
0.0
 10
370.3653976471303
 20
311.8974712456404
 30
0.0
 10
370.0002452450543
 20
312.0285543075481
 30
0.0
 10
369.0295693152916
 20
312.6919594351374
 30
0.0
 10
368.3768526551129
 20
313.2554741999272
 30
0.0
 10
367.7996880217633
 20
313.786731228643
 30
0.0
  0
SPLINE
  5
310
330
289
100
AcDbEntity
  8
DV3_Default
  6
Continuous
 62
     7
100
AcDbSpline
210
0.0
220
0.0
230
1.0
 70
     8
 71
     3
 72
    10
 73
     6
 74
     0
 42
0.0000000029403286
 43
0.0000000001
 40
0.0
 40
0.0
 40
0.0
 40
0.0
 40
0.6296486267907201
 40
0.8455178028716289
 40
1.0
 40
1.0
 40
1.0
 40
1.0
 10
367.7996880449735
 20
302.0384007801221
 30
0.0
 10
368.3768524391397
 20
302.5696575608496
 30
0.0
 10
369.0295688552586
 20
303.1331721568579
 30
0.0
 10
370.0002444339609
 20
303.7965771695181
 30
0.0
 10
370.3653967660426
 20
303.927660430768
 30
0.0
 10
370.5448896368765
 20
303.9915769650968
 30
0.0
  0
ARC
  5
311
330
289
100
AcDbEntity
  8
DV3_Default
  6
Continuous
 62
     7
100
AcDbCircle
 10
370.424197225
 20
304.5457511669
 30
0.0
 40
0.5644421386406763
100
AcDbArc
 50
283.4448891617
 51
332.037780572
  0
SPLINE
  5
312
330
289
100
AcDbEntity
  8
DV3_Default
  6
Continuous
 62
     7
100
AcDbSpline
210
0.0
220
0.0
230
1.0
 70
     8
 71
     3
 72
    10
 73
     6
 74
     0
 42
0.0000000226205357
 43
0.0000000001
 40
0.0
 40
0.0
 40
0.0
 40
0.0
 40
0.4651171596991063
 40
0.9859089790690309
 40
1.0
 40
1.0
 40
1.0
 40
1.0
 10
370.884538365084
 20
311.5889996676638
 30
0.0
 10
370.8532178343992
 20
311.6394097098752
 30
0.0
 10
370.7936521539047
 20
311.7178580685454
 30
0.0
 10
370.6355557884634
 20
311.8311520800373
 30
0.0
 10
370.5484872329372
 20
311.8310860563055
 30
0.0
 10
370.5458264873109
 20
311.8310859134981
 30
0.0
  0
ARC
  5
313
330
289
100
AcDbEntity
  8
DV3_Default
  6
Continuous
 62
     7
100
AcDbCircle
 10
366.4960217331
 20
307.7877274028
 30
0.0
 40
5.821602901371003
100
AcDbArc
 50
1.228750821
 51
41.5742956496
  0
ARC
  5
314
330
289
100
AcDbEntity
  8
DV3_Default
  6
Continuous
 62
     7
100
AcDbCircle
 10
366.5179921717
 20
308.0283086514
 30
0.0
 40
5.799231858845499
100
AcDbArc
 50
318.322793551
 51
358.9630696122
  0
ARC
  5
315
330
289
100
AcDbEntity
  8
DV3_Default
  6
Continuous
 62
     7
100
AcDbCircle
 10
308.1678742114
 20
305.0924951133
 30
0.0
 40
4.162970027556767
100
AcDbArc
 50
301.0897736403
 51
327.8263343321
  0
LINE
  5
316
330
289
100
AcDbEntity
  8
DV3_Default
  6
Continuous
 62
     7
100
AcDbLine
 10
310.2023137823
 20
301.4986794963
 30
0.0
 11
310.3024209913
 21
301.5393693522
 31
0.0
  0
ARC
  5
317
330
289
100
AcDbEntity
  8
DV3_Default
  6
Continuous
 62
     7
100
AcDbCircle
 10
89.3943660035
 20
307.912136054
 30
0.0
 40
22.53264271889863
100
AcDbArc
 50
194.6942884746
 51
0.0010640291
  0
ARC
  5
318
330
289
100
AcDbEntity
  8
DV3_Default
  6
Continuous
 62
     7
100
AcDbCircle
 10
89.394468629
 20
307.9172257115
 30
0.0
 40
21.18750473382617
100
AcDbArc
 50
196.6792726701
 51
359.987279612
  0
ARC
  5
319
330
289
100
AcDbEntity
  8
DV3_Default
  6
Continuous
 62
     7
100
AcDbCircle
 10
89.3944686208
 20
307.9093705545
 30
0.0
 40
21.1875044542003
100
AcDbArc
 50
0.0085217239
 51
163.3090123472
  0
ARC
  5
31A
330
289
100
AcDbEntity
  8
DV3_Default
  6
Continuous
 62
     7
100
AcDbCircle
 10
89.3943660037
 20
307.9129957178
 30
0.0
 40
22.5326427191137
100
AcDbArc
 50
359.9988780846
 51
165.3027027672
  0
ARC
  5
31B
330
289
100
AcDbEntity
  8
DV3_Default
  6
Continuous
 62
     7
100
AcDbCircle
 10
89.3947383199
 20
307.9125659939
 30
0.0
 40
17.57976054611014
100
AcDbArc
 50
193.8301193885
 51
359.9997174823
  0
ARC
  5
31C
330
289
100
AcDbEntity
  8
DV3_Default
  6
Continuous
 62
     7
100
AcDbCircle
 10
89.3965751088
 20
307.924570418
 30
0.0
 40
17.55680627151531
100
AcDbArc
 50
359.9602977555
 51
166.2176135684
  0
ARC
  5
31D
330
289
100
AcDbEntity
  8
DV3_Default
  6
Continuous
 62
     7
100
AcDbCircle
 10
289.3943660035
 20
307.9121362105
 30
0.0
 40
22.53264271887068
100
AcDbArc
 50
179.9989071512
 51
345.3060118013
  0
ARC
  5
31E
330
289
100
AcDbEntity
  8
DV3_Default
  6
Continuous
 62
     7
100
AcDbCircle
 10
289.394468629
 20
307.9172257115
 30
0.0
 40
21.18750473384616
100
AcDbArc
 50
180.0126009249
 51
343.3350632825
  0
ARC
  5
31F
330
289
100
AcDbEntity
  8
DV3_Default
  6
Continuous
 62
     7
100
AcDbCircle
 10
289.3944686208
 20
307.9093705544
 30
0.0
 40
21.18750445422031
100
AcDbArc
 50
16.6489508113
 51
179.9913588126
  0
ARC
  5
320
330
289
100
AcDbEntity
  8
DV3_Default
  6
Continuous
 62
     7
100
AcDbCircle
 10
289.3943660037
 20
307.9129957178
 30
0.0
 40
22.5326427190887
100
AcDbArc
 50
14.6909623153
 51
180.0010926978
  0
ARC
  5
321
330
289
100
AcDbEntity
  8
DV3_Default
  6
Continuous
 62
     7
100
AcDbCircle
 10
289.3929018659
 20
307.9005616186
 30
0.0
 40
17.55680628490529
100
AcDbArc
 50
179.9603883193
 51
346.2166188433
  0
ARC
  5
322
330
289
100
AcDbEntity
  8
DV3_Default
  6
Continuous
 62
     7
100
AcDbCircle
 10
289.3947383199
 20
307.9125659938
 30
0.0
 40
17.57976054605353
100
AcDbArc
 50
13.8157005606
 51
180.0
  0
ARC
  5
323
330
289
100
AcDbEntity
  8
DV3_Default
  6
Continuous
 62
     7
100
AcDbCircle
 10
89.3941643743
 20
307.9125659939
 30
0.0
 40
30.49335474064815
100
AcDbArc
 50
0.0
 51
170.4893194885
  0
ARC
  5
324
330
289
100
AcDbEntity
  8
DV3_Default
  6
Continuous
 62
     7
100
AcDbCircle
 10
89.3941643743
 20
307.9125659939
 30
0.0
 40
30.49335474064815
100
AcDbArc
 50
189.5136984623
 51
0.0
  0
ARC
  5
325
330
289
100
AcDbEntity
  8
DV3_Default
  6
Continuous
 62
     7
100
AcDbCircle
 10
89.3941643743
 20
307.9125659939
 30
0.0
 40
27.39637732536985
100
AcDbArc
 50
190.4206300846
 51
0.0
  0
ARC
  5
326
330
289
100
AcDbEntity
  8
DV3_Default
  6
Continuous
 62
     7
100
AcDbCircle
 10
89.3941643743
 20
307.9125659939
 30
0.0
 40
27.39637732536985
100
AcDbArc
 50
0.0
 51
169.60045452
  0
ARC
  5
327
330
289
100
AcDbEntity
  8
DV3_Default
  6
Continuous
 62
     7
100
AcDbCircle
 10
89.3941643743
 20
307.9125659939
 30
0.0
 40
26.94855839139895
100
AcDbArc
 50
190.5900201076
 51
0.0
  0
ARC
  5
328
330
289
100
AcDbEntity
  8
DV3_Default
  6
Continuous
 62
     7
100
AcDbCircle
 10
89.3941643743
 20
307.9125659939
 30
0.0
 40
26.94855839139895
100
AcDbArc
 50
0.0
 51
169.4239053825
  0
ARC
  5
329
330
289
100
AcDbEntity
  8
DV3_Default
  6
Continuous
 62
     7
100
AcDbCircle
 10
89.3941643744
 20
307.9125659939
 30
0.0
 40
30.49374554103376
100
AcDbArc
 50
0.0
 51
170.4894088012
  0
ARC
  5
32A
330
289
100
AcDbEntity
  8
DV3_Default
  6
Continuous
 62
     7
100
AcDbCircle
 10
89.3941643744
 20
307.9125659939
 30
0.0
 40
30.49374554103376
100
AcDbArc
 50
189.5136010607
 51
0.0
  0
ARC
  5
32B
330
289
100
AcDbEntity
  8
DV3_Default
  6
Continuous
 62
     7
100
AcDbCircle
 10
289.3941643744
 20
307.9125659939
 30
0.0
 40
30.49335474064505
100
AcDbArc
 50
9.5164699455
 51
350.5047093649
  0
ARC
  5
32C
330
289
100
AcDbEntity
  8
DV3_Default
  6
Continuous
 62
     7
100
AcDbCircle
 10
289.3941643744
 20
307.9125659939
 30
0.0
 40
27.39637732537035
100
AcDbArc
 50
10.4062436063
 51
349.6065028004
  0
ARC
  5
32D
330
289
100
AcDbEntity
  8
DV3_Default
  6
Continuous
 62
     7
100
AcDbCircle
 10
289.3941643744
 20
307.9125659939
 30
0.0
 40
26.94855839140595
100
AcDbArc
 50
10.5918794603
 51
349.436397728
  0
ARC
  5
32E
330
289
100
AcDbEntity
  8
DV3_Default
  6
Continuous
 62
     7
100
AcDbCircle
 10
289.3941643744
 20
307.9125659939
 30
0.0
 40
30.4937455410525
100
AcDbArc
 50
9.5163817467
 51
350.5047984614
  0
ENDBLK
  5
330
330
289
100
AcDbEntity
  8
0
100
AcDbBlockEnd
  0
ENDSEC
  0
SECTION
  2
ENTITIES
  0
INSERT
  5
5F
330
1F
100
AcDbEntity
  8
Default
100
AcDbBlockReference
  2
SEANNOT_GROUP
 10
0.0
 20
0.0
 30
0.0
  0
INSERT
  5
66
330
1F
100
AcDbEntity
  8
Default
100
AcDbBlockReference
  2
SEANNOT_GROUP1
 10
0.0
 20
0.0
 30
0.0
  0
INSERT
  5
6C
330
1F
100
AcDbEntity
  8
Default
100
AcDbBlockReference
  2
SEANNOT_GROUP2
 10
0.0
 20
0.0
 30
0.0
  0
INSERT
  5
72
330
1F
100
AcDbEntity
  8
Default
100
AcDbBlockReference
  2
SEANNOT_GROUP3
 10
0.0
 20
0.0
 30
0.0
  0
INSERT
  5
78
330
1F
100
AcDbEntity
  8
Default
100
AcDbBlockReference
  2
SEANNOT_GROUP4
 10
0.0
 20
0.0
 30
0.0
  0
INSERT
  5
7E
330
1F
100
AcDbEntity
  8
Default
100
AcDbBlockReference
  2
SEANNOT_GROUP5
 10
0.0
 20
0.0
 30
0.0
  0
INSERT
  5
84
330
1F
100
AcDbEntity
  8
Default
100
AcDbBlockReference
  2
SEANNOT_GROUP6
 10
0.0
 20
0.0
 30
0.0
  0
INSERT
  5
8A
330
1F
100
AcDbEntity
  8
Default
100
AcDbBlockReference
  2
SEANNOT_GROUP7
 10
0.0
 20
0.0
 30
0.0
  0
POINT
  5
8F
330
1F
100
AcDbEntity
  8
Default
  6
Continuous
 62
     7
100
AcDbPoint
 10
189.3969695084
 20
132.3186174298
 30
0.0
  0
INSERT
  5
91
330
1F
100
AcDbEntity
  8
Default
100
AcDbBlockReference
  2
SEANNOT_GROUP8
 10
0.0
 20
0.0
 30
0.0
  0
INSERT
  5
97
330
1F
100
AcDbEntity
  8
Default
100
AcDbBlockReference
  2
SEANNOT_GROUP9
 10
0.0
 20
0.0
 30
0.0
  0
INSERT
  5
9D
330
1F
100
AcDbEntity
  8
Default
100
AcDbBlockReference
  2
SE
 10
0.0
 20
0.0
 30
0.0
  0
INSERT
  5
1FA
330
1F
100
AcDbEntity
  8
Default
100
AcDbBlockReference
  2
SE1
 10
0.0
 20
0.0
 30
0.0
  0
INSERT
  5
28A
330
1F
100
AcDbEntity
  8
Default
100
AcDbBlockReference
  2
SE2
 10
0.0
 20
0.0
 30
0.0
  0
TEXT
  5
332
330
1F
100
AcDbEntity
  8
Default
  6
Continuous
 62
     7
100
AcDbText
 10
5.9362635081
 20
53.4225120485
 30
0.0
 40
10.0
  1
Grohe AG^J
  7
SEACAD_seiso_ttf
 11
5.9362635081
 21
63.4225120485
 31
0.0
100
AcDbText
 73
     3
  0
TEXT
  5
333
330
1F
100
AcDbEntity
  8
Default
  6
Continuous
 62
     7
100
AcDbText
 10
5.9362635081
 20
37.0588756849
 30
0.0
 40
10.0
  1
 
  7
SEACAD_seiso_ttf
 11
5.9362635081
 21
47.0588756849
 31
0.0
100
AcDbText
 73
     3
  0
TEXT
  5
334
330
1F
100
AcDbEntity
  8
Default
  6
Continuous
 62
     7
100
AcDbText
 10
5.9362635081
 20
20.6952393213
 30
0.0
 40
10.0
  1
ecn:
  7
SEACAD_seiso_ttf
 11
5.9362635081
 21
30.6952393213
 31
0.0
100
AcDbText
 73
     3
  0
TEXT
  5
335
330
1F
100
AcDbEntity
  8
Default
  6
Continuous
 62
     7
100
AcDbText
 10
5.9362635081
 20
4.3316029576
 30
0.0
 40
10.0
  1
unit: mm
  7
SEACAD_seiso_ttf
 11
5.9362635081
 21
14.3316029576
 31
0.0
100
AcDbText
 73
     3
  0
LINE
  5
336
330
1F
100
AcDbEntity
  8
Default
  6
Continuous
 62
     7
100
AcDbLine
 10
0.0
 20
0.0
 30
0.0
 11
100.0
 21
0.0
 31
0.0
  0
LINE
  5
337
330
1F
100
AcDbEntity
  8
Default
  6
Continuous
 62
     7
100
AcDbLine
 10
0.0
 20
0.0
 30
0.0
 11
0.0
 21
100.0
 31
0.0
  0
TEXT
  5
338
330
1F
100
AcDbEntity
  8
Default
  6
Continuous
 62
     7
100
AcDbText
 10
24.3923665681
 20
-18.2375342018
 30
0.0
 40
10.0
  1
100 mm
  7
SEACAD_seiso_ttf
 11
24.3923665681
 21
-8.2375342018
 31
0.0
100
AcDbText
 73
     3
  0
TEXT
  5
339
330
1F
100
AcDbEntity
  8
Default
  6
Continuous
 62
     7
100
AcDbText
 10
-7.6150308803
 20
24.6231930421
 30
0.0
 40
10.0
  1
100 mm
 50
90.0
  7
SEACAD_seiso_ttf
 11
-17.6150308803
 21
24.6231930421
 31
0.0
100
AcDbText
 73
     3
  0
TEXT
  5
33A
330
1F
100
AcDbEntity
  8
Default
  6
Continuous
 62
     7
100
AcDbText
 10
28.4878128572
 20
20.0907663715
 30
0.0
 40
10.0
  1
228824
  7
SEACAD_seiso_ttf
 11
28.4878128572
 21
30.0907663715
 31
0.0
100
AcDbText
 73
     3
  0
TEXT
  5
33B
330
1F
100
AcDbEntity
  8
Default
  6
Continuous
 62
     7
100
AcDbText
 10
5.9012241913
 20
36.7242780188
 30
0.0
 40
10.0
  1
25160000
  7
SEACAD_seiso_ttf
 11
5.9012241913
 21
46.7242780188
 31
0.0
100
AcDbText
 73
     3
  0
ENDSEC
  0
SECTION
  2
OBJECTS
  0
DICTIONARY
  5
C
330
0
100
AcDbDictionary
281
     1
  3
ACAD_GROUP
350
D
  3
ACAD_LAYOUT
350
1A
  3
ACAD_MLEADERSTYLE
350
33F
  3
ACAD_MLINESTYLE
350
17
  3
ACAD_PLOTSETTINGS
350
19
  3
ACAD_PLOTSTYLENAME
350
E
  3
ACAD_SCALELIST
350
3B
  3
ACAD_TABLESTYLE
350
33E
  3
ACAD_VISUALSTYLE
350
2A
  3
AcDbVariableDictionary
350
33C
  0
DICTIONARY
  5
D
102
{ACAD_REACTORS
330
C
102
}
330
C
100
AcDbDictionary
281
     1
  0
DICTIONARY
  5
1A
102
{ACAD_REACTORS
330
C
102
}
330
C
100
AcDbDictionary
281
     1
  3
Layout1
350
1E
  3
Model
350
22
  0
DICTIONARY
  5
33F
102
{ACAD_REACTORS
330
C
102
}
330
C
100
AcDbDictionary
281
     1
  0
DICTIONARY
  5
17
102
{ACAD_REACTORS
330
C
102
}
330
C
100
AcDbDictionary
281
     1
  3
Standard
350
18
  0
DICTIONARY
  5
19
102
{ACAD_REACTORS
330
C
102
}
330
C
100
AcDbDictionary
281
     1
  0
ACDBDICTIONARYWDFLT
  5
E
102
{ACAD_REACTORS
330
C
102
}
330
C
100
AcDbDictionary
281
     1
  3
Normal
350
F
100
AcDbDictionaryWithDefault
340
F
  0
DICTIONARY
  5
3B
102
{ACAD_REACTORS
330
C
102
}
330
C
100
AcDbDictionary
281
     1
  3
A0
350
3C
  3
A1
350
3D
  3
A2
350
3E
  3
A3
350
3F
  3
A4
350
40
  3
A5
350
41
  3
A6
350
42
  3
A7
350
43
  3
A8
350
44
  3
A9
350
45
  3
B0
350
46
  3
B1
350
47
  3
B2
350
48
  3
B3
350
49
  3
B4
350
4A
  3
B5
350
4B
  3
B6
350
4C
  3
B7
350
4D
  3
B8
350
4E
  3
B9
350
4F
  3
C0
350
50
  3
C1
350
51
  3
C2
350
52
  3
C3
350
53
  3
C4
350
54
  3
C5
350
55
  3
C6
350
56
  3
C7
350
57
  3
C8
350
58
  3
C9
350
59
  3
D0
350
5A
  3
D1
350
5B
  3
D2
350
5C
  0
DICTIONARY
  5
33E
102
{ACAD_REACTORS
330
C
102
}
330
C
100
AcDbDictionary
281
     1
  0
DICTIONARY
  5
2A
102
{ACAD_REACTORS
330
C
102
}
330
C
100
AcDbDictionary
281
     1
  3
2dWireframe
350
2F
  3
3D Hidden
350
31
  3
3dWireframe
350
30
  3
Basic
350
32
  3
Brighten
350
36
  3
ColorChange
350
3A
  3
Conceptual
350
34
  3
Dim
350
35
  3
Facepattern
350
39
  3
Flat
350
2B
  3
FlatWithEdges
350
2C
  3
Gouraud
350
2D
  3
GouraudWithEdges
350
2E
  3
Linepattern
350
38
  3
Realistic
350
33
  3
Thicken
350
37
  0
DICTIONARY
  5
33C
102
{ACAD_REACTORS
330
C
102
}
330
C
100
AcDbDictionary
281
     1
  3
CANNOSCALE
350
33D
  3
PSOLHEIGHT
350
341
  3
PSOLWIDTH
350
340
  0
LAYOUT
  5
1E
102
{ACAD_REACTORS
330
1A
102
}
330
1A
100
AcDbPlotSettings
  1

  2
none_device
  4

  6

 40
0.0
 41
0.0
 42
0.0
 43
0.0
 44
0.0
 45
0.0
 46
0.0
 47
0.0
 48
0.0
 49
0.0
140
0.0
141
0.0
142
1.0
143
1.0
 70
   688
 72
     0
 73
     0
 74
     5
  7

 75
    16
147
1.0
148
0.0
149
0.0
100
AcDbLayout
  1
Layout1
 70
     1
 71
     1
 10
0.0
 20
0.0
 11
3000.0
 21
4500.0
 12
0.0
 22
0.0
 32
0.0
 14
0.0
 24
0.0
 34
0.0
 15
3000.0
 25
4500.0
 35
0.0
146
0.0
 13
0.0
 23
0.0
 33
0.0
 16
1.0
 26
0.0
 36
0.0
 17
0.0
 27
1.0
 37
0.0
 76
     0
330
1B
  0
LAYOUT
  5
22
102
{ACAD_REACTORS
330
1A
102
}
330
1A
100
AcDbPlotSettings
  1

  2
none_device
  4

  6

 40
0.0
 41
0.0
 42
0.0
 43
0.0
 44
0.0
 45
0.0
 46
0.0
 47
0.0
 48
0.0
 49
0.0
140
0.0
141
0.0
142
1.0
143
1.0
 70
  1712
 72
     0
 73
     0
 74
     0
  7

 75
     0
147
1.0
148
0.0
149
0.0
100
AcDbLayout
  1
Model
 70
     1
 71
     0
 10
0.0
 20
0.0
 11
3000.0
 21
4500.0
 12
0.0
 22
0.0
 32
0.0
 14
0.0
 24
0.0
 34
0.0
 15
3000.0
 25
4500.0
 35
0.0
146
0.0
 13
0.0
 23
0.0
 33
0.0
 16
1.0
 26
0.0
 36
0.0
 17
0.0
 27
1.0
 37
0.0
 76
     0
330
1F
331
29
  0
MLINESTYLE
  5
18
102
{ACAD_REACTORS
330
17
102
}
330
17
100
AcDbMlineStyle
  2
Standard
 70
     0
  3

 62
   256
 51
90.0
 52
90.0
 71
     2
 49
0.5
 62
   256
  6
BYLAYER
 49
-0.5
 62
   256
  6
BYLAYER
  0
ACDBPLACEHOLDER
  5
F
102
{ACAD_REACTORS
330
E
102
}
330
E
  0
SCALE
  5
3C
102
{ACAD_REACTORS
330
3B
102
}
330
3B
100
AcDbScale
 70
     0
300
1:1
140
1.0
141
1.0
290
     1
  0
SCALE
  5
3D
102
{ACAD_REACTORS
330
3B
102
}
330
3B
100
AcDbScale
 70
     0
300
1:2
140
1.0
141
2.0
290
     0
  0
SCALE
  5
3E
102
{ACAD_REACTORS
330
3B
102
}
330
3B
100
AcDbScale
 70
     0
300
1:4
140
1.0
141
4.0
290
     0
  0
SCALE
  5
3F
102
{ACAD_REACTORS
330
3B
102
}
330
3B
100
AcDbScale
 70
     0
300
1:5
140
1.0
141
5.0
290
     0
  0
SCALE
  5
40
102
{ACAD_REACTORS
330
3B
102
}
330
3B
100
AcDbScale
 70
     0
300
1:8
140
1.0
141
8.0
290
     0
  0
SCALE
  5
41
102
{ACAD_REACTORS
330
3B
102
}
330
3B
100
AcDbScale
 70
     0
300
1:10
140
1.0
141
10.0
290
     0
  0
SCALE
  5
42
102
{ACAD_REACTORS
330
3B
102
}
330
3B
100
AcDbScale
 70
     0
300
1:16
140
1.0
141
16.0
290
     0
  0
SCALE
  5
43
102
{ACAD_REACTORS
330
3B
102
}
330
3B
100
AcDbScale
 70
     0
300
1:20
140
1.0
141
20.0
290
     0
  0
SCALE
  5
44
102
{ACAD_REACTORS
330
3B
102
}
330
3B
100
AcDbScale
 70
     0
300
1:30
140
1.0
141
30.0
290
     0
  0
SCALE
  5
45
102
{ACAD_REACTORS
330
3B
102
}
330
3B
100
AcDbScale
 70
     0
300
1:40
140
1.0
141
40.0
290
     0
  0
SCALE
  5
46
102
{ACAD_REACTORS
330
3B
102
}
330
3B
100
AcDbScale
 70
     0
300
1:50
140
1.0
141
50.0
290
     0
  0
SCALE
  5
47
102
{ACAD_REACTORS
330
3B
102
}
330
3B
100
AcDbScale
 70
     0
300
1:100
140
1.0
141
100.0
290
     0
  0
SCALE
  5
48
102
{ACAD_REACTORS
330
3B
102
}
330
3B
100
AcDbScale
 70
     0
300
2:1
140
2.0
141
1.0
290
     0
  0
SCALE
  5
49
102
{ACAD_REACTORS
330
3B
102
}
330
3B
100
AcDbScale
 70
     0
300
4:1
140
4.0
141
1.0
290
     0
  0
SCALE
  5
4A
102
{ACAD_REACTORS
330
3B
102
}
330
3B
100
AcDbScale
 70
     0
300
8:1
140
8.0
141
1.0
290
     0
  0
SCALE
  5
4B
102
{ACAD_REACTORS
330
3B
102
}
330
3B
100
AcDbScale
 70
     0
300
10:1
140
10.0
141
1.0
290
     0
  0
SCALE
  5
4C
102
{ACAD_REACTORS
330
3B
102
}
330
3B
100
AcDbScale
 70
     0
300
100:1
140
100.0
141
1.0
290
     0
  0
SCALE
  5
4D
102
{ACAD_REACTORS
330
3B
102
}
330
3B
100
AcDbScale
 70
     0
300
1/128" = 1'-0"
140
0.0078125
141
12.0
290
     0
  0
SCALE
  5
4E
102
{ACAD_REACTORS
330
3B
102
}
330
3B
100
AcDbScale
 70
     0
300
1/64" = 1'-0"
140
0.015625
141
12.0
290
     0
  0
SCALE
  5
4F
102
{ACAD_REACTORS
330
3B
102
}
330
3B
100
AcDbScale
 70
     0
300
1/32" = 1'-0"
140
0.03125
141
12.0
290
     0
  0
SCALE
  5
50
102
{ACAD_REACTORS
330
3B
102
}
330
3B
100
AcDbScale
 70
     0
300
1/16" = 1'-0"
140
0.0625
141
12.0
290
     0
  0
SCALE
  5
51
102
{ACAD_REACTORS
330
3B
102
}
330
3B
100
AcDbScale
 70
     0
300
3/32" = 1'-0"
140
0.09375
141
12.0
290
     0
  0
SCALE
  5
52
102
{ACAD_REACTORS
330
3B
102
}
330
3B
100
AcDbScale
 70
     0
300
1/8" = 1'-0"
140
0.125
141
12.0
290
     0
  0
SCALE
  5
53
102
{ACAD_REACTORS
330
3B
102
}
330
3B
100
AcDbScale
 70
     0
300
3/16" = 1'-0"
140
0.1875
141
12.0
290
     0
  0
SCALE
  5
54
102
{ACAD_REACTORS
330
3B
102
}
330
3B
100
AcDbScale
 70
     0
300
1/4" = 1'-0"
140
0.25
141
12.0
290
     0
  0
SCALE
  5
55
102
{ACAD_REACTORS
330
3B
102
}
330
3B
100
AcDbScale
 70
     0
300
3/8" = 1'-0"
140
0.375
141
12.0
290
     0
  0
SCALE
  5
56
102
{ACAD_REACTORS
330
3B
102
}
330
3B
100
AcDbScale
 70
     0
300
1/2" = 1'-0"
140
0.5
141
12.0
290
     0
  0
SCALE
  5
57
102
{ACAD_REACTORS
330
3B
102
}
330
3B
100
AcDbScale
 70
     0
300
3/4" = 1'-0"
140
0.75
141
12.0
290
     0
  0
SCALE
  5
58
102
{ACAD_REACTORS
330
3B
102
}
330
3B
100
AcDbScale
 70
     0
300
1" = 1'-0"
140
1.0
141
12.0
290
     0
  0
SCALE
  5
59
102
{ACAD_REACTORS
330
3B
102
}
330
3B
100
AcDbScale
 70
     0
300
1-1/2" = 1'-0"
140
1.5
141
12.0
290
     0
  0
SCALE
  5
5A
102
{ACAD_REACTORS
330
3B
102
}
330
3B
100
AcDbScale
 70
     0
300
3" = 1'-0"
140
3.0
141
12.0
290
     0
  0
SCALE
  5
5B
102
{ACAD_REACTORS
330
3B
102
}
330
3B
100
AcDbScale
 70
     0
300
6" = 1'-0"
140
6.0
141
12.0
290
     0
  0
SCALE
  5
5C
102
{ACAD_REACTORS
330
3B
102
}
330
3B
100
AcDbScale
 70
     0
300
1'-0" = 1'-0"
140
12.0
141
12.0
290
     0
  0
VISUALSTYLE
  5
2F
102
{ACAD_REACTORS
330
2A
102
}
330
2A
100
AcDbVisualStyle
  2
2dWireframe
 70
     4
 71
     0
 72
     2
 73
     0
 90
        0
 40
-0.6
 41
-30.0
 62
     5
 63
     7
 74
     1
 91
        4
 64
     7
 65
   257
 75
     1
175
     1
 42
1.0
 92
        0
 66
   257
 43
1.0
 76
     1
 77
     6
 78
     2
 67
     7
 79
     5
170
     0
171
     0
290
     0
174
     0
 93
        1
 44
0.0
173
     0
291
     0
 45
0.0
1001
ACAD
1000
AcDbSavedByObjectVersion
1070
     0
  0
VISUALSTYLE
  5
31
102
{ACAD_REACTORS
330
2A
102
}
330
2A
100
AcDbVisualStyle
  2
3D Hidden
 70
     6
 71
     1
 72
     2
 73
     2
 90
        0
 40
-0.6
 41
-30.0
 62
     5
 63
     7
 74
     2
 91
        2
 64
     7
 65
   257
 75
     2
175
     1
 42
40.0
 92
        0
 66
   257
 43
1.0
 76
     1
 77
     6
 78
     2
 67
     7
 79
     3
170
     0
171
     0
290
     0
174
     0
 93
        1
 44
0.0
173
     0
291
     0
 45
0.0
1001
ACAD
1000
AcDbSavedByObjectVersion
1070
     0
  0
VISUALSTYLE
  5
30
102
{ACAD_REACTORS
330
2A
102
}
330
2A
100
AcDbVisualStyle
  2
3dWireframe
 70
     5
 71
     0
 72
     2
 73
     0
 90
        0
 40
-0.6
 41
-30.0
 62
     5
 63
     7
 74
     1
 91
        4
 64
     7
 65
   257
 75
     1
175
     1
 42
1.0
 92
        0
 66
   257
 43
1.0
 76
     1
 77
     6
 78
     2
 67
     7
 79
     5
170
     0
171
     0
290
     0
174
     0
 93
        1
 44
0.0
173
     0
291
     0
 45
0.0
1001
ACAD
1000
AcDbSavedByObjectVersion
1070
     0
  0
VISUALSTYLE
  5
32
102
{ACAD_REACTORS
330
2A
102
}
330
2A
100
AcDbVisualStyle
  2
Basic
 70
     7
 71
     1
 72
     0
 73
     1
 90
        0
 40
-0.6
 41
-30.0
 62
     5
 63
     7
 74
     0
 91
        4
 64
     7
 65
   257
 75
     1
175
     1
 42
1.0
 92
        8
 66
     7
 43
1.0
 76
     1
 77
     6
 78
     2
 67
     7
 79
     5
170
     0
171
     0
290
     0
174
     0
 93
        1
 44
0.0
173
     0
291
     1
 45
0.0
1001
ACAD
1000
AcDbSavedByObjectVersion
1070
     0
  0
VISUALSTYLE
  5
36
102
{ACAD_REACTORS
330
2A
102
}
330
2A
100
AcDbVisualStyle
  2
Brighten
 70
    12
 71
     2
 72
     2
 73
     0
 90
        0
 40
-0.6
 41
-30.0
 62
     5
 63
     7
 74
     1
 91
        4
 64
     7
 65
   257
 75
     1
175
     1
 42
1.0
 92
        8
 66
     7
 43
1.0
 76
     1
 77
     6
 78
     2
 67
     7
 79
     5
170
     0
171
     0
290
     0
174
     0
 93
        1
 44
50.0
173
     0
291
     1
 45
0.0
1001
ACAD
1000
AcDbSavedByObjectVersion
1070
     0
  0
VISUALSTYLE
  5
3A
102
{ACAD_REACTORS
330
2A
102
}
330
2A
100
AcDbVisualStyle
  2
ColorChange
 70
    16
 71
     2
 72
     2
 73
     3
 90
        0
 40
-0.6
 41
-30.0
 62
     5
 63
     8
 74
     1
 91
        4
 64
     7
 65
   257
 75
     1
175
     1
 42
1.0
 92
        8
 66
     8
 43
1.0
 76
     1
 77
     6
 78
     2
 67
     7
 79
     5
170
     0
171
     0
290
     0
174
     0
 93
        1
 44
0.0
173
     0
291
     1
 45
0.0
1001
ACAD
1000
AcDbSavedByObjectVersion
1070
     0
  0
VISUALSTYLE
  5
34
102
{ACAD_REACTORS
330
2A
102
}
330
2A
100
AcDbVisualStyle
  2
Conceptual
 70
     9
 71
     3
 72
     2
 73
     0
 90
        0
 40
-0.6
 41
-30.0
 62
     5
 63
     7
 74
     2
 91
        2
 64
     7
 65
   257
 75
     1
175
     1
 42
40.0
 92
        8
 66
     7
 43
1.0
 76
     1
 77
     6
 78
     2
 67
     7
 79
     3
170
     0
171
     0
290
     0
174
     0
 93
        1
 44
0.0
173
     0
291
     0
 45
0.0
1001
ACAD
1000
AcDbSavedByObjectVersion
1070
     0
  0
VISUALSTYLE
  5
35
102
{ACAD_REACTORS
330
2A
102
}
330
2A
100
AcDbVisualStyle
  2
Dim
 70
    11
 71
     2
 72
     2
 73
     0
 90
        0
 40
-0.6
 41
-30.0
 62
     5
 63
     7
 74
     1
 91
        4
 64
     7
 65
   257
 75
     1
175
     1
 42
1.0
 92
        8
 66
     7
 43
1.0
 76
     1
 77
     6
 78
     2
 67
     7
 79
     5
170
     0
171
     0
290
     0
174
     0
 93
        1
 44
-50.0
173
     0
291
     1
 45
0.0
1001
ACAD
1000
AcDbSavedByObjectVersion
1070
     0
  0
VISUALSTYLE
  5
39
102
{ACAD_REACTORS
330
2A
102
}
330
2A
100
AcDbVisualStyle
  2
Facepattern
 70
    15
 71
     2
 72
     2
 73
     0
 90
        0
 40
-0.6
 41
-30.0
 62
     5
 63
     7
 74
     1
 91
        4
 64
     7
 65
   257
 75
     1
175
     1
 42
1.0
 92
        8
 66
     7
 43
1.0
 76
     1
 77
     6
 78
     2
 67
     7
 79
     5
170
     0
171
     0
290
     0
174
     0
 93
        1
 44
0.0
173
     0
291
     1
 45
0.0
1001
ACAD
1000
AcDbSavedByObjectVersion
1070
     0
  0
VISUALSTYLE
  5
2B
102
{ACAD_REACTORS
330
2A
102
}
330
2A
100
AcDbVisualStyle
  2
Flat
 70
     0
 71
     2
 72
     1
 73
     1
 90
        2
 40
-0.6
 41
30.0
 62
     5
 63
     7
 74
     0
 91
        4
 64
     7
 65
   257
 75
     1
175
     1
 42
1.0
 92
        8
 66
     7
 43
1.0
 76
     1
 77
     6
 78
     2
 67
     7
 79
     5
170
     0
171
     0
290
     0
174
     0
 93
       13
 44
0.0
173
     0
291
     1
 45
0.0
1001
ACAD
1000
AcDbSavedByObjectVersion
1070
     0
  0
VISUALSTYLE
  5
2C
102
{ACAD_REACTORS
330
2A
102
}
330
2A
100
AcDbVisualStyle
  2
FlatWithEdges
 70
     1
 71
     2
 72
     1
 73
     1
 90
        2
 40
-0.6
 41
30.0
 62
     5
 63
     7
 74
     1
 91
        4
 64
     7
 65
   257
 75
     1
175
     1
 42
1.0
 92
        0
 66
   257
 43
1.0
 76
     1
 77
     6
 78
     2
 67
     7
 79
     5
170
     0
171
     0
290
     0
174
     0
 93
       13
 44
0.0
173
     0
291
     1
 45
0.0
1001
ACAD
1000
AcDbSavedByObjectVersion
1070
     0
  0
VISUALSTYLE
  5
2D
102
{ACAD_REACTORS
330
2A
102
}
330
2A
100
AcDbVisualStyle
  2
Gouraud
 70
     2
 71
     2
 72
     2
 73
     1
 90
        2
 40
-0.6
 41
30.0
 62
     5
 63
     7
 74
     0
 91
        4
 64
     7
 65
   257
 75
     1
175
     1
 42
1.0
 92
        0
 66
     7
 43
1.0
 76
     1
 77
     6
 78
     2
 67
     7
 79
     5
170
     0
171
     0
290
     0
174
     0
 93
       13
 44
0.0
173
     0
291
     1
 45
0.0
1001
ACAD
1000
AcDbSavedByObjectVersion
1070
     0
  0
VISUALSTYLE
  5
2E
102
{ACAD_REACTORS
330
2A
102
}
330
2A
100
AcDbVisualStyle
  2
GouraudWithEdges
 70
     3
 71
     2
 72
     2
 73
     1
 90
        2
 40
-0.6
 41
30.0
 62
     5
 63
     7
 74
     1
 91
        4
 64
     7
 65
   257
 75
     1
175
     1
 42
1.0
 92
        0
 66
   257
 43
1.0
 76
     1
 77
     6
 78
     2
 67
     7
 79
     5
170
     0
171
     0
290
     0
174
     0
 93
       13
 44
0.0
173
     0
291
     1
 45
0.0
1001
ACAD
1000
AcDbSavedByObjectVersion
1070
     0
  0
VISUALSTYLE
  5
38
102
{ACAD_REACTORS
330
2A
102
}
330
2A
100
AcDbVisualStyle
  2
Linepattern
 70
    14
 71
     2
 72
     2
 73
     0
 90
        0
 40
-0.6
 41
-30.0
 62
     5
 63
     7
 74
     1
 91
        4
 64
     7
 65
   257
 75
     7
175
     7
 42
1.0
 92
        8
 66
     7
 43
1.0
 76
     1
 77
     6
 78
     2
 67
     7
 79
     5
170
     0
171
     0
290
     0
174
     0
 93
        1
 44
0.0
173
     0
291
     1
 45
0.0
1001
ACAD
1000
AcDbSavedByObjectVersion
1070
     0
  0
VISUALSTYLE
  5
33
102
{ACAD_REACTORS
330
2A
102
}
330
2A
100
AcDbVisualStyle
  2
Realistic
 70
     8
 71
     2
 72
     2
 73
     0
 90
        0
 40
-0.6
 41
-30.0
 62
     5
 63
     7
 74
     1
 91
        0
 64
     7
 65
   257
 75
     1
175
     1
 42
1.0
 92
        8
 66
     8
 43
1.0
 76
     1
 77
     6
 78
     2
 67
     7
 79
     5
170
     0
171
     0
290
     0
174
     0
 93
       13
 44
0.0
173
     0
291
     0
 45
0.0
1001
ACAD
1000
AcDbSavedByObjectVersion
1070
     0
  0
VISUALSTYLE
  5
37
102
{ACAD_REACTORS
330
2A
102
}
330
2A
100
AcDbVisualStyle
  2
Thicken
 70
    13
 71
     2
 72
     2
 73
     0
 90
        0
 40
-0.6
 41
-30.0
 62
     5
 63
     7
 74
     1
 91
        4
 64
     7
 65
   257
 75
     1
175
     1
 42
1.0
 92
       12
 66
     7
 43
1.0
 76
     1
 77
     6
 78
     2
 67
     7
 79
     5
170
     0
171
     0
290
     0
174
     0
 93
        1
 44
0.0
173
     0
291
     1
 45
0.0
1001
ACAD
1000
AcDbSavedByObjectVersion
1070
     0
  0
DICTIONARYVAR
  5
33D
102
{ACAD_REACTORS
330
33C
102
}
330
33C
100
DictionaryVariables
280
     0
  1
1:1
  0
DICTIONARYVAR
  5
341
102
{ACAD_REACTORS
330
33C
102
}
330
33C
100
DictionaryVariables
280
     0
  1
80.000000
  0
DICTIONARYVAR
  5
340
102
{ACAD_REACTORS
330
33C
102
}
330
33C
100
DictionaryVariables
280
     0
  1
5.000000
  0
ENDSEC
  0
EOF
