  0
SECTION
  2
HEADER
  9
$ACADVER
  1
AC1015
  9
$ACADMAINTVER
 70
     6
  9
$DWGCODEPAGE
  3
ANSI_1252
  9
$INSBASE
 10
0.0
 20
0.0
 30
0.0
  9
$EXTMIN
 10
0.0
 20
0.0
 30
0.0
  9
$EXTMAX
 10
1682.0
 20
2378.0
 30
0.0
  9
$LIMMIN
 10
0.0
 20
0.0
  9
$LIMMAX
 10
1682.0
 20
2378.0
  9
$ORTHOMODE
 70
     0
  9
$REGENMODE
 70
     1
  9
$FILLMODE
 70
     1
  9
$QTEXTMODE
 70
     0
  9
$MIRRTEXT
 70
     1
  9
$LTSCALE
 40
1.0
  9
$ATTMODE
 70
     1
  9
$TEXTSIZE
 40
2.5
  9
$TRACEWID
 40
1.0
  9
$TEXTSTYLE
  7
Standard
  9
$CLAYER
  8
0
  9
$CELTYPE
  6
ByLayer
  9
$CECOLOR
 62
   256
  9
$CELTSCALE
 40
1.0
  9
$DISPSILH
 70
     0
  9
$DIMSCALE
 40
1.0
  9
$DIMASZ
 40
2.5
  9
$DIMEXO
 40
0.625
  9
$DIMDLI
 40
3.75
  9
$DIMRND
 40
0.0
  9
$DIMDLE
 40
0.0
  9
$DIMEXE
 40
1.25
  9
$DIMTP
 40
0.0
  9
$DIMTM
 40
0.0
  9
$DIMTXT
 40
2.5
  9
$DIMCEN
 40
2.5
  9
$DIMTSZ
 40
0.0
  9
$DIMTOL
 70
     0
  9
$DIMLIM
 70
     0
  9
$DIMTIH
 70
     0
  9
$DIMTOH
 70
     0
  9
$DIMSE1
 70
     0
  9
$DIMSE2
 70
     0
  9
$DIMTAD
 70
     1
  9
$DIMZIN
 70
     8
  9
$DIMBLK
  1

  9
$DIMASO
 70
     1
  9
$DIMSHO
 70
     1
  9
$DIMPOST
  1

  9
$DIMAPOST
  1

  9
$DIMALT
 70
     0
  9
$DIMALTD
 70
     3
  9
$DIMALTF
 40
0.0393700787
  9
$DIMLFAC
 40
1.0
  9
$DIMTOFL
 70
     1
  9
$DIMTVP
 40
0.0
  9
$DIMTIX
 70
     0
  9
$DIMSOXD
 70
     0
  9
$DIMSAH
 70
     0
  9
$DIMBLK1
  1

  9
$DIMBLK2
  1

  9
$DIMSTYLE
  2
ISO-25
  9
$DIMCLRD
 70
     0
  9
$DIMCLRE
 70
     0
  9
$DIMCLRT
 70
     0
  9
$DIMTFAC
 40
1.0
  9
$DIMGAP
 40
0.625
  9
$DIMJUST
 70
     0
  9
$DIMSD1
 70
     0
  9
$DIMSD2
 70
     0
  9
$DIMTOLJ
 70
     0
  9
$DIMTZIN
 70
     8
  9
$DIMALTZ
 70
     0
  9
$DIMALTTZ
 70
     0
  9
$DIMUPT
 70
     0
  9
$DIMDEC
 70
     2
  9
$DIMTDEC
 70
     2
  9
$DIMALTU
 70
     2
  9
$DIMALTTD
 70
     3
  9
$DIMTXSTY
  7
Standard
  9
$DIMAUNIT
 70
     0
  9
$DIMADEC
 70
     0
  9
$DIMALTRND
 40
0.0
  9
$DIMAZIN
 70
     0
  9
$DIMDSEP
 70
    44
  9
$DIMATFIT
 70
     3
  9
$DIMFRAC
 70
     0
  9
$DIMLDRBLK
  1

  9
$DIMLUNIT
 70
     2
  9
$DIMLWD
 70
    -2
  9
$DIMLWE
 70
    -2
  9
$DIMTMOVE
 70
     0
  9
$LUNITS
 70
     2
  9
$LUPREC
 70
     4
  9
$SKETCHINC
 40
1.0
  9
$FILLETRAD
 40
10.0
  9
$AUNITS
 70
     0
  9
$AUPREC
 70
     0
  9
$MENU
  1
.
  9
$ELEVATION
 40
0.0
  9
$PELEVATION
 40
0.0
  9
$THICKNESS
 40
0.0
  9
$LIMCHECK
 70
     0
  9
$CHAMFERA
 40
10.0
  9
$CHAMFERB
 40
10.0
  9
$CHAMFERC
 40
20.0
  9
$CHAMFERD
 40
0.0
  9
$SKPOLY
 70
     0
  9
$TDCREATE
 40
2455566.553405405
  9
$TDUCREATE
 40
2455566.511738739
  9
$TDUPDATE
 40
2455566.553405417
  9
$TDUUPDATE
 40
2455566.51173875
  9
$TDINDWG
 40
0.0000000116
  9
$TDUSRTIMER
 40
0.0000000116
  9
$USRTIMER
 70
     1
  9
$ANGBASE
 50
0.0
  9
$ANGDIR
 70
     0
  9
$PDMODE
 70
     0
  9
$PDSIZE
 40
0.0
  9
$PLINEWID
 40
0.0
  9
$SPLFRAME
 70
     0
  9
$SPLINETYPE
 70
     6
  9
$SPLINESEGS
 70
     8
  9
$HANDSEED
  5
1FF
  9
$SURFTAB1
 70
     6
  9
$SURFTAB2
 70
     6
  9
$SURFTYPE
 70
     6
  9
$SURFU
 70
     6
  9
$SURFV
 70
     6
  9
$UCSBASE
  2

  9
$UCSNAME
  2

  9
$UCSORG
 10
0.0
 20
0.0
 30
0.0
  9
$UCSXDIR
 10
1.0
 20
0.0
 30
0.0
  9
$UCSYDIR
 10
0.0
 20
1.0
 30
0.0
  9
$UCSORTHOREF
  2

  9
$UCSORTHOVIEW
 70
     0
  9
$UCSORGTOP
 10
0.0
 20
0.0
 30
0.0
  9
$UCSORGBOTTOM
 10
0.0
 20
0.0
 30
0.0
  9
$UCSORGLEFT
 10
0.0
 20
0.0
 30
0.0
  9
$UCSORGRIGHT
 10
0.0
 20
0.0
 30
0.0
  9
$UCSORGFRONT
 10
0.0
 20
0.0
 30
0.0
  9
$UCSORGBACK
 10
0.0
 20
0.0
 30
0.0
  9
$PUCSBASE
  2

  9
$PUCSNAME
  2

  9
$PUCSORG
 10
0.0
 20
0.0
 30
0.0
  9
$PUCSXDIR
 10
1.0
 20
0.0
 30
0.0
  9
$PUCSYDIR
 10
0.0
 20
1.0
 30
0.0
  9
$PUCSORTHOREF
  2

  9
$PUCSORTHOVIEW
 70
     0
  9
$PUCSORGTOP
 10
0.0
 20
0.0
 30
0.0
  9
$PUCSORGBOTTOM
 10
0.0
 20
0.0
 30
0.0
  9
$PUCSORGLEFT
 10
0.0
 20
0.0
 30
0.0
  9
$PUCSORGRIGHT
 10
0.0
 20
0.0
 30
0.0
  9
$PUCSORGFRONT
 10
0.0
 20
0.0
 30
0.0
  9
$PUCSORGBACK
 10
0.0
 20
0.0
 30
0.0
  9
$USERI1
 70
     0
  9
$USERI2
 70
     0
  9
$USERI3
 70
     0
  9
$USERI4
 70
     0
  9
$USERI5
 70
     0
  9
$USERR1
 40
0.0
  9
$USERR2
 40
0.0
  9
$USERR3
 40
0.0
  9
$USERR4
 40
0.0
  9
$USERR5
 40
0.0
  9
$WORLDVIEW
 70
     1
  9
$SHADEDGE
 70
     3
  9
$SHADEDIF
 70
    70
  9
$TILEMODE
 70
     1
  9
$MAXACTVP
 70
    64
  9
$PINSBASE
 10
0.0
 20
0.0
 30
0.0
  9
$PLIMCHECK
 70
     0
  9
$PEXTMIN
 10
0.0
 20
0.0
 30
0.0
  9
$PEXTMAX
 10
1682.0
 20
2378.0
 30
0.0
  9
$PLIMMIN
 10
0.0
 20
0.0
  9
$PLIMMAX
 10
1682.0
 20
2378.0
  9
$UNITMODE
 70
     0
  9
$VISRETAIN
 70
     1
  9
$PLINEGEN
 70
     0
  9
$PSLTSCALE
 70
     1
  9
$TREEDEPTH
 70
  3020
  9
$CMLSTYLE
  2
Standard
  9
$CMLJUST
 70
     0
  9
$CMLSCALE
 40
20.0
  9
$PROXYGRAPHICS
 70
     1
  9
$MEASUREMENT
 70
     1
  9
$CELWEIGHT
370
    -1
  9
$ENDCAPS
280
     0
  9
$JOINSTYLE
280
     0
  9
$LWDISPLAY
290
     0
  9
$INSUNITS
 70
     4
  9
$HYPERLINKBASE
  1

  9
$STYLESHEET
  1

  9
$XEDIT
290
     1
  9
$CEPSNTYPE
380
     0
  9
$PSTYLEMODE
290
     1
  9
$FINGERPRINTGUID
  2
{8F77CBD6-8A00-4BDF-8E00-3DE5BB915490}
  9
$VERSIONGUID
  2
{FAEB1C32-E019-11D5-929B-00C0DF256EC4}
  9
$EXTNAMES
290
     1
  9
$PSVPSCALE
 40
0.0
  9
$OLESTARTUP
290
     0
  0
ENDSEC
  0
SECTION
  2
CLASSES
  0
CLASS
  1
ACDBDICTIONARYWDFLT
  2
AcDbDictionaryWithDefault
  3
ObjectDBX Classes
 90
        0
280
     0
281
     0
  0
CLASS
  1
VISUALSTYLE
  2
AcDbVisualStyle
  3
ObjectDBX Classes
 90
     4095
280
     0
281
     0
  0
CLASS
  1
SCALE
  2
AcDbScale
  3
ObjectDBX Classes
 90
     1153
280
     0
281
     0
  0
CLASS
  1
DICTIONARYVAR
  2
AcDbDictionaryVar
  3
ObjectDBX Classes
 90
        0
280
     0
281
     0
  0
CLASS
  1
ACDBPLACEHOLDER
  2
AcDbPlaceHolder
  3
ObjectDBX Classes
 90
        0
280
     0
281
     0
  0
CLASS
  1
LAYOUT
  2
AcDbLayout
  3
ObjectDBX Classes
 90
        0
280
     0
281
     0
  0
ENDSEC
  0
SECTION
  2
TABLES
  0
TABLE
  2
VPORT
  5
8
330
0
100
AcDbSymbolTable
 70
     1
  0
VPORT
  5
29
330
8
100
AcDbSymbolTableRecord
100
AcDbViewportTableRecord
  2
*Active
 70
     0
 10
0.0
 20
0.0
 11
1.0
 21
1.0
 12
344.1869158879
 22
148.5
 13
0.0
 23
0.0
 14
10.0
 24
10.0
 15
10.0
 25
10.0
 16
0.0
 26
0.0
 36
1.0
 17
0.0
 27
0.0
 37
0.0
 40
297.0
 41
1.9729729729
 42
50.0
 43
0.0
 44
0.0
 50
0.0
 51
0.0
 71
     0
 72
   100
 73
     1
 74
     3
 75
     0
 76
     0
 77
     0
 78
     0
281
     0
 65
     1
110
0.0
120
0.0
130
0.0
111
1.0
121
0.0
131
0.0
112
0.0
122
1.0
132
0.0
 79
     0
146
0.0
  0
ENDTAB
  0
TABLE
  2
LTYPE
  5
5
330
0
100
AcDbSymbolTable
 70
     2
  0
LTYPE
  5
14
330
5
100
AcDbSymbolTableRecord
100
AcDbLinetypeTableRecord
  2
ByBlock
 70
     0
  3

 72
    65
 73
     0
 40
0.0
  0
LTYPE
  5
15
330
5
100
AcDbSymbolTableRecord
100
AcDbLinetypeTableRecord
  2
ByLayer
 70
     0
  3

 72
    65
 73
     0
 40
0.0
  0
LTYPE
  5
16
330
5
100
AcDbSymbolTableRecord
100
AcDbLinetypeTableRecord
  2
Continuous
 70
     0
  3
Solid line
 72
    65
 73
     0
 40
0.0
  0
LTYPE
  5
60
330
5
100
AcDbSymbolTableRecord
100
AcDbLinetypeTableRecord
  2
CENTER2
 70
     0
  3
Center (.5x) ___ _ ___ _ ___ _ ___ _ ___ _ ___
 72
    65
 73
     4
 40
28.575
 49
19.05
 74
     4
 75
     0
340
0
 46
0.0
 50
0.0
 44
0.0
 45
0.0
 49
-3.175
 74
     4
 75
     0
340
0
 46
0.0
 50
0.0
 44
0.0
 45
0.0
 49
3.175
 74
     4
 75
     0
340
0
 46
0.0
 50
0.0
 44
0.0
 45
0.0
 49
-3.175
 74
     4
 75
     0
340
0
 46
0.0
 50
0.0
 44
0.0
 45
0.0
  0
ENDTAB
  0
TABLE
  2
LAYER
  5
2
330
0
100
AcDbSymbolTable
 70
     5
  0
LAYER
  5
10
330
2
100
AcDbSymbolTableRecord
100
AcDbLayerTableRecord
  2
0
 70
     0
 62
     7
  6
Continuous
370
    -3
390
F
  0
LAYER
  5
5D
330
2
100
AcDbSymbolTableRecord
100
AcDbLayerTableRecord
  2
Default
 70
     0
 62
     7
  6
Continuous
370
    -3
390
F
  0
LAYER
  5
77
330
2
100
AcDbSymbolTableRecord
100
AcDbLayerTableRecord
  2
DV1_Standard
 70
     0
 62
     7
  6
Continuous
370
    -3
390
F
  0
LAYER
  5
121
330
2
100
AcDbSymbolTableRecord
100
AcDbLayerTableRecord
  2
DV2_Standard
 70
     0
 62
     7
  6
Continuous
370
    -3
390
F
  0
LAYER
  5
1E5
330
2
100
AcDbSymbolTableRecord
100
AcDbLayerTableRecord
  2
DV3_Standard
 70
     0
 62
     7
  6
Continuous
370
    -3
390
F
  0
ENDTAB
  0
TABLE
  2
STYLE
  5
3
330
0
100
AcDbSymbolTable
 70
     2
  0
STYLE
  5
11
330
3
100
AcDbSymbolTableRecord
100
AcDbTextStyleTableRecord
  2
Standard
 70
     0
 40
0.0
 41
1.0
 50
0.0
 71
     0
 42
2.5
  3
txt
  4

  0
STYLE
  5
1EE
330
3
100
AcDbSymbolTableRecord
100
AcDbTextStyleTableRecord
  2
SEACAD_seiso_ttf
 70
     0
 40
0.0
 41
1.0
 50
0.0
 71
     0
 42
0.2
  3
seiso.ttf
  4

  0
ENDTAB
  0
TABLE
  2
VIEW
  5
6
330
0
100
AcDbSymbolTable
 70
     0
  0
ENDTAB
  0
TABLE
  2
UCS
  5
7
330
0
100
AcDbSymbolTable
 70
     0
  0
ENDTAB
  0
TABLE
  2
APPID
  5
9
330
0
100
AcDbSymbolTable
 70
     1
  0
APPID
  5
12
330
9
100
AcDbSymbolTableRecord
100
AcDbRegAppTableRecord
  2
ACAD
 70
     0
  0
ENDTAB
  0
TABLE
  2
DIMSTYLE
  5
A
330
0
100
AcDbSymbolTable
 70
     1
100
AcDbDimStyleTable
  0
DIMSTYLE
105
27
330
A
100
AcDbSymbolTableRecord
100
AcDbDimStyleTableRecord
  2
ISO-25
 70
     0
 41
2.5
 42
0.625
 43
3.75
 44
1.25
 73
     0
 74
     0
 77
     1
 78
     8
140
2.5
141
2.5
143
0.0393700787
147
0.625
171
     3
172
     1
271
     2
272
     2
274
     3
278
    44
283
     0
284
     8
340
11
  0
ENDTAB
  0
TABLE
  2
BLOCK_RECORD
  5
1
330
0
100
AcDbSymbolTable
 70
     7
  0
BLOCK_RECORD
  5
1F
330
1
100
AcDbSymbolTableRecord
100
AcDbBlockTableRecord
  2
*Model_Space
340
22
  0
BLOCK_RECORD
  5
1B
330
1
100
AcDbSymbolTableRecord
100
AcDbBlockTableRecord
  2
*Paper_Space
340
1E
  0
BLOCK_RECORD
  5
5E
330
1
100
AcDbSymbolTableRecord
100
AcDbBlockTableRecord
  2
SEANNOT_GROUP
340
0
102
{BLKREFS
331
5F
102
}
  0
BLOCK_RECORD
  5
69
330
1
100
AcDbSymbolTableRecord
100
AcDbBlockTableRecord
  2
SEANNOT_GROUP1
340
0
102
{BLKREFS
331
6A
102
}
  0
BLOCK_RECORD
  5
6F
330
1
100
AcDbSymbolTableRecord
100
AcDbBlockTableRecord
  2
SEANNOT_GROUP2
340
0
102
{BLKREFS
331
70
102
}
  0
BLOCK_RECORD
  5
75
330
1
100
AcDbSymbolTableRecord
100
AcDbBlockTableRecord
  2
SE
340
0
102
{BLKREFS
331
76
102
}
  0
BLOCK_RECORD
  5
11F
330
1
100
AcDbSymbolTableRecord
100
AcDbBlockTableRecord
  2
SE1
340
0
102
{BLKREFS
331
120
102
}
  0
BLOCK_RECORD
  5
1E3
330
1
100
AcDbSymbolTableRecord
100
AcDbBlockTableRecord
  2
SE2
340
0
102
{BLKREFS
331
1E4
102
}
  0
ENDTAB
  0
ENDSEC
  0
SECTION
  2
BLOCKS
  0
BLOCK
  5
20
330
1F
100
AcDbEntity
  8
0
100
AcDbBlockBegin
  2
*Model_Space
 70
     0
 10
0.0
 20
0.0
 30
0.0
  3
*Model_Space
  1

  0
ENDBLK
  5
21
330
1F
100
AcDbEntity
  8
0
100
AcDbBlockEnd
  0
BLOCK
  5
1C
330
1B
100
AcDbEntity
 67
     1
  8
0
100
AcDbBlockBegin
  2
*Paper_Space
 70
     0
 10
0.0
 20
0.0
 30
0.0
  3
*Paper_Space
  1

  0
ENDBLK
  5
1D
330
1B
100
AcDbEntity
 67
     1
  8
0
100
AcDbBlockEnd
  0
BLOCK
  5
67
330
5E
100
AcDbEntity
  8
0
100
AcDbBlockBegin
  2
SEANNOT_GROUP
 70
     0
 10
0.0
 20
0.0
 30
0.0
  3
SEANNOT_GROUP
  1

  0
LINE
  5
61
330
5E
100
AcDbEntity
  8
Default
  6
CENTER2
 62
     7
100
AcDbLine
 10
109.8975814347
 20
189.8975818817
 30
0.0
 11
69.8975823288
 21
189.8975818817
 31
0.0
  0
LINE
  5
62
330
5E
100
AcDbEntity
  8
Default
  6
CENTER2
 62
     7
100
AcDbLine
 10
89.8975818817
 20
209.8975814347
 30
0.0
 11
89.8975818817
 21
169.8975823288
 31
0.0
  0
LINE
  5
63
330
5E
100
AcDbEntity
  8
Default
  6
CENTER2
 62
     7
100
AcDbLine
 10
114.8975813229
 20
189.8975818817
 30
0.0
 11
105.0898395136
 21
189.8975818817
 31
0.0
  0
LINE
  5
64
330
5E
100
AcDbEntity
  8
Default
  6
CENTER2
 62
     7
100
AcDbLine
 10
89.8975818817
 20
214.8975813229
 30
0.0
 11
89.8975818817
 21
205.0898395136
 31
0.0
  0
LINE
  5
65
330
5E
100
AcDbEntity
  8
Default
  6
CENTER2
 62
     7
100
AcDbLine
 10
64.8975824405
 20
189.8975818817
 30
0.0
 11
74.7053242498
 21
189.8975818817
 31
0.0
  0
LINE
  5
66
330
5E
100
AcDbEntity
  8
Default
  6
CENTER2
 62
     7
100
AcDbLine
 10
89.8975818817
 20
164.8975824405
 30
0.0
 11
89.8975818817
 21
174.7053242498
 31
0.0
  0
ENDBLK
  5
68
330
5E
100
AcDbEntity
  8
0
100
AcDbBlockEnd
  0
BLOCK
  5
6D
330
69
100
AcDbEntity
  8
0
100
AcDbBlockBegin
  2
SEANNOT_GROUP1
 70
     0
 10
0.0
 20
0.0
 30
0.0
  3
SEANNOT_GROUP1
  1

  0
LINE
  5
6B
330
69
100
AcDbEntity
  8
Default
  6
CENTER2
 62
     7
100
AcDbLine
 10
109.8975814347
 20
434.8463769233
 30
0.0
 11
69.8975823288
 21
434.8463769233
 31
0.0
  0
LINE
  5
6C
330
69
100
AcDbEntity
  8
Default
  6
CENTER2
 62
     7
100
AcDbLine
 10
89.8975818817
 20
454.8463764763
 30
0.0
 11
89.8975818817
 21
414.8463773704
 31
0.0
  0
ENDBLK
  5
6E
330
69
100
AcDbEntity
  8
0
100
AcDbBlockEnd
  0
BLOCK
  5
73
330
6F
100
AcDbEntity
  8
0
100
AcDbBlockBegin
  2
SEANNOT_GROUP2
 70
     0
 10
0.0
 20
0.0
 30
0.0
  3
SEANNOT_GROUP2
  1

  0
LINE
  5
71
330
6F
100
AcDbEntity
  8
Default
  6
CENTER2
 62
     7
100
AcDbLine
 10
339.6927451981
 20
434.8463769233
 30
0.0
 11
299.6927460922
 21
434.8463769233
 31
0.0
  0
LINE
  5
72
330
6F
100
AcDbEntity
  8
Default
  6
CENTER2
 62
     7
100
AcDbLine
 10
319.6927456451
 20
454.8463764763
 30
0.0
 11
319.6927456451
 21
414.8463773704
 31
0.0
  0
ENDBLK
  5
74
330
6F
100
AcDbEntity
  8
0
100
AcDbBlockEnd
  0
BLOCK
  5
11D
330
75
100
AcDbEntity
  8
0
100
AcDbBlockBegin
  2
SE
 70
     0
 10
0.0
 20
0.0
 30
0.0
  3
SE
  1

  0
LINE
  5
78
330
75
100
AcDbEntity
  8
DV1_Standard
  6
Continuous
 62
     7
100
AcDbLine
 10
70.4950607833
 20
337.8236253442
 30
0.0
 11
109.3001029802
 21
337.8236253442
 31
0.0
  0
SPLINE
  5
79
330
75
100
AcDbEntity
  8
DV1_Standard
  6
Continuous
 62
     7
100
AcDbSpline
210
0.0
220
0.0
230
1.0
 70
     8
 71
     3
 72
    14
 73
    10
 74
     0
 42
0.0000000241729337
 43
0.0000000001
 40
0.0
 40
0.0
 40
0.0
 40
0.0
 40
0.4730204505597342
 40
0.4730204505597342
 40
0.4730204505597342
 40
0.9458542770320518
 40
0.9458542770320518
 40
0.9458542770320518
 40
1.0
 40
1.0
 40
1.0
 40
1.0
 10
88.62362548753111
 20
337.3579543516944
 30
0.0
 10
88.51247282348078
 20
337.3405149312115
 30
0.0
 10
88.42215771018512
 20
337.320017669828
 30
0.0
 10
88.35997516758326
 20
337.2980548302245
 30
0.0
 10
88.29780760683137
 20
337.2760972822022
 30
0.0
 10
88.26202234559821
 20
337.2520663580256
 30
0.0
 10
88.25540396879964
 20
337.2278520860441
 30
0.0
 10
88.25464616154561
 20
337.2250795405216
 30
0.0
 10
88.25426835506727
 20
337.2222958608182
 30
0.0
 10
88.25426783130047
 20
337.2195041255881
 30
0.0
  0
SPLINE
  5
7A
330
75
100
AcDbEntity
  8
DV1_Standard
  6
Continuous
 62
     7
100
AcDbSpline
210
0.0
220
0.0
230
1.0
 70
     8
 71
     3
 72
    29
 73
    25
 74
     0
 42
0.000000003730594
 43
0.0000000001
 40
0.0
 40
0.0
 40
0.0
 40
0.0
 40
0.0808012120968827
 40
0.0808012120968827
 40
0.0808012120968827
 40
0.2223503102988188
 40
0.2223503102988188
 40
0.2223503102988188
 40
0.3632480938149097
 40
0.3632480938149097
 40
0.3632480938149097
 40
0.5029175616646986
 40
0.5029175616646986
 40
0.5029175616646986
 40
0.6413151117650575
 40
0.6413151117650575
 40
0.6413151117650575
 40
0.7788824642424986
 40
0.7788824642424986
 40
0.7788824642424986
 40
0.9163458847909128
 40
0.9163458847909128
 40
0.9163458847909128
 40
1.0
 40
1.0
 40
1.0
 40
1.0
 10
91.2540991804845
 20
337.215187326058
 30
0.0
 10
91.25410206833176
 20
337.229294358301
 30
0.0
 10
91.24472361799754
 20
337.243330224448
 30
0.0
 10
91.22601904532326
 20
337.2569129811936
 30
0.0
 10
91.1932568777227
 20
337.280703984641
 30
0.0
 10
91.13095209465342
 20
337.3037691641335
 30
0.0
 10
91.0441208403944
 20
337.324280787491
 30
0.0
 10
90.95769233060594
 20
337.344697272952
 30
0.0
 10
90.84453082542737
 20
337.363158277028
 30
0.0
 10
90.71397014366038
 20
337.3782206398209
 30
0.0
 10
90.58453758508955
 20
337.393152854696
 30
0.0
 10
90.43437952207091
 20
337.4051656761249
 30
0.0
 10
90.27604724229717
 20
337.4133288141737
 30
0.0
 10
90.11913309034937
 20
337.4214188377999
 30
0.0
 10
89.94982664299765
 20
337.4259553594516
 30
0.0
 10
89.78229432185755
 20
337.42659050991
 30
0.0
 10
89.61574004390074
 20
337.4272219523998
 30
0.0
 10
89.4463435675261
 20
337.4240161252786
 30
0.0
 10
89.28813754986653
 20
337.4172162255409
 30
0.0
 10
89.130033141355
 20
337.4104206930962
 30
0.0
 10
88.97876950425903
 20
337.3998490864204
 30
0.0
 10
88.8466625028312
 20
337.3862968946021
 30
0.0
 10
88.76555016410954
 20
337.3779759883571
 30
0.0
 10
88.69044392057529
 20
337.3684379038417
 30
0.0
 10
88.62362548753111
 20
337.3579543516944
 30
0.0
  0
SPLINE
  5
7B
330
75
100
AcDbEntity
  8
DV1_Standard
  6
Continuous
 62
     7
100
AcDbSpline
210
0.0
220
0.0
230
1.0
 70
     8
 71
     3
 72
    14
 73
    10
 74
     0
 42
0.0000000230480165
 43
0.0000000001
 40
0.0
 40
0.0
 40
0.0
 40
0.0
 40
0.4615111047531833
 40
0.4615111047531833
 40
0.4615111047531833
 40
0.9231087602077779
 40
0.9231087602077779
 40
0.9231087602077779
 40
1.0
 40
1.0
 40
1.0
 40
1.0
 10
98.4958000726556
 20
337.2282571664306
 30
0.0
 10
98.38161116474221
 20
337.2038750496653
 30
0.0
 10
98.28770987497529
 20
337.1786233883495
 30
0.0
 10
98.22187998451048
 20
337.154597096465
 30
0.0
 10
98.15604363530738
 20
337.1305684472997
 30
0.0
 10
98.11646951515691
 20
337.1071006123081
 30
0.0
 10
98.10665874663893
 20
337.0862767045595
 30
0.0
 10
98.10502467010178
 20
337.0828082852403
 30
0.0
 10
98.1042094786503
 20
337.0793972725619
 30
0.0
 10
98.10420689687284
 20
337.0760520267051
 30
0.0
  0
SPLINE
  5
7C
330
75
100
AcDbEntity
  8
DV1_Standard
  6
Continuous
 62
     7
100
AcDbSpline
210
0.0
220
0.0
230
1.0
 70
     8
 71
     3
 72
    29
 73
    25
 74
     0
 42
0.0000000037853996
 43
0.0000000001
 40
0.0
 40
0.0
 40
0.0
 40
0.0
 40
0.0738169733964742
 40
0.0738169733964742
 40
0.0738169733964742
 40
0.214825069276672
 40
0.214825069276672
 40
0.214825069276672
 40
0.3545480592999979
 40
0.3545480592999979
 40
0.3545480592999979
 40
0.4934299603510058
 40
0.4934299603510058
 40
0.4934299603510058
 40
0.6322032132303205
 40
0.6322032132303205
 40
0.6322032132303205
 40
0.7716261404111827
 40
0.7716261404111827
 40
0.7716261404111827
 40
0.9122306144367638
 40
0.9122306144367638
 40
0.9122306144367638
 40
0.9999999999999999
 40
0.9999999999999999
 40
0.9999999999999999
 40
0.9999999999999999
 10
101.1040010905831
 20
337.3519704399835
 30
0.0
 10
101.1040138253995
 20
337.3614291219184
 30
0.0
 10
101.0962806556185
 20
337.3701753762948
 30
0.0
 10
101.0807748763156
 20
337.3780072244447
 30
0.0
 10
101.0511528327471
 20
337.3929690875402
 30
0.0
 10
100.992319966369
 20
337.4050153586168
 30
0.0
 10
100.9090239351499
 20
337.4132131169643
 30
0.0
 10
100.8264745641887
 20
337.421337391134
 30
0.0
 10
100.7175994144908
 20
337.4259103334278
 30
0.0
 10
100.5914460690819
 20
337.4265812643079
 30
0.0
 10
100.4660318416588
 20
337.4272482642809
 30
0.0
 10
100.3200856856376
 20
337.4240785135421
 30
0.0
 10
100.1657414532309
 20
337.4173124840003
 30
0.0
 10
100.0115004360517
 20
337.4105509791322
 30
0.0
 10
99.84465471688414
 20
337.4000123224102
 30
0.0
 10
99.67893524356158
 20
337.3864895416332
 30
0.0
 10
99.51243519962763
 20
337.3729030659563
 30
0.0
 10
99.34253585876354
 20
337.3559314565348
 30
0.0
 10
99.18305004425302
 20
337.3368528958086
 30
0.0
 10
99.02222327736715
 20
337.3176139230644
 30
0.0
 10
98.86760114525336
 20
337.2957040759076
 30
0.0
 10
98.73167274373299
 20
337.2728022105919
 30
0.0
 10
98.64609524438279
 20
337.2583837053917
 30
0.0
 10
98.56662172099925
 20
337.2433793156041
 30
0.0
 10
98.4958000726556
 20
337.2282571664306
 30
0.0
  0
SPLINE
  5
7D
330
75
100
AcDbEntity
  8
DV1_Standard
  6
Continuous
 62
     7
100
AcDbSpline
210
0.0
220
0.0
230
1.0
 70
     8
 71
     3
 72
    14
 73
    10
 74
     0
 42
0.0000000246622436
 43
0.0000000001
 40
0.0
 40
0.0
 40
0.0
 40
0.0
 40
0.4549650665597118
 40
0.4549650665597118
 40
0.4549650665597118
 40
0.9101888664119479
 40
0.9101888664119479
 40
0.9101888664119479
 40
1.0
 40
1.0
 40
1.0
 40
1.0
 10
103.8060804932313
 20
337.0836463694194
 30
0.0
 10
103.6932324844634
 20
337.063371497701
 30
0.0
 10
103.599796338967
 20
337.045158556941
 30
0.0
 10
103.5336993818628
 20
337.0307106885718
 30
0.0
 10
103.4675799830087
 20
337.0162579147507
 30
0.0
 10
103.4270230356997
 20
337.0051871733998
 30
0.0
 10
103.4156741367291
 20
336.9986118973387
 30
0.0
 10
103.4134348584256
 20
336.9973145139483
 30
0.0
 10
103.4123207257753
 20
336.99618527972
 30
0.0
 10
103.4123208315464
 20
336.995226031701
 30
0.0
  0
SPLINE
  5
7E
330
75
100
AcDbEntity
  8
DV1_Standard
  6
Continuous
 62
     7
100
AcDbSpline
210
0.0
220
0.0
230
1.0
 70
     8
 71
     3
 72
    29
 73
    25
 74
     0
 42
0.0000000037995518
 43
0.0000000001
 40
0.0
 40
0.0
 40
0.0
 40
0.0
 40
0.0674532905283291
 40
0.0674532905283291
 40
0.0674532905283291
 40
0.2061814655514395
 40
0.2061814655514395
 40
0.2061814655514395
 40
0.3448210761782575
 40
0.3448210761782575
 40
0.3448210761782575
 40
0.4841269053986912
 40
0.4841269053986912
 40
0.4841269053986912
 40
0.6246216992022502
 40
0.6246216992022502
 40
0.6246216992022502
 40
0.7664023275337928
 40
0.7664023275337928
 40
0.7664023275337928
 40
0.9090499102132927
 40
0.9090499102132927
 40
0.9090499102132927
 40
0.9999999999999999
 40
0.9999999999999999
 40
0.9999999999999999
 40
0.9999999999999999
 10
106.4121030183124
 20
337.4232358926189
 30
0.0
 10
106.4121071422905
 20
337.4252511199065
 30
0.0
 10
106.4055590135301
 20
337.4263934363269
 30
0.0
 10
106.3924389623657
 20
337.4266249438945
 30
0.0
 10
106.3654511878941
 20
337.4271011519476
 30
0.0
 10
106.3099197659009
 20
337.4237379147684
 30
0.0
 10
106.230513367493
 20
337.4167903165837
 30
0.0
 10
106.1511487862778
 20
337.4098463771602
 30
0.0
 10
106.0457763858371
 20
337.3991311548527
 30
0.0
 10
105.9231984666488
 20
337.385450866951
 30
0.0
 10
105.8000282955067
 20
337.3717044808703
 30
0.0
 10
105.6561436539249
 20
337.3545870933727
 30
0.0
 10
105.5034090999862
 20
337.3353881284034
 30
0.0
 10
105.3493814876252
 20
337.3160266240303
 30
0.0
 10
105.1821651551984
 20
337.2940164079941
 30
0.0
 10
105.01542619565
 20
337.2710452249942
 30
0.0
 10
104.8471854533514
 20
337.2478671453789
 30
0.0
 10
104.674827589362
 20
337.2230719257954
 30
0.0
 10
104.5124587169971
 20
337.1986389075438
 30
0.0
 10
104.3491255866981
 20
337.1740607892409
 30
0.0
 10
104.1913938278134
 20
337.1491692583936
 30
0.0
 10
104.0523685002907
 20
337.1260802136557
 30
0.0
 10
103.9629795627139
 20
337.1112346799997
 30
0.0
 10
103.8799003195591
 20
337.0969092309037
 30
0.0
 10
103.8060804932313
 20
337.0836463694194
 30
0.0
  0
SPLINE
  5
7F
330
75
100
AcDbEntity
  8
DV1_Standard
  6
Continuous
 62
     7
100
AcDbSpline
210
0.0
220
0.0
230
1.0
 70
     8
 71
     3
 72
    14
 73
    10
 74
     0
 42
0.0000000260920491
 43
0.0000000001
 40
0.0
 40
0.0
 40
0.0
 40
0.0
 40
0.472812028910521
 40
0.472812028910521
 40
0.472812028910521
 40
0.9454629669710939
 40
0.9454629669710939
 40
0.9454629669710939
 40
1.0
 40
1.0
 40
1.0
 40
1.0
 10
78.833149276405
 20
337.4242734690324
 30
0.0
 10
78.72431364149779
 20
337.4208111782327
 30
0.0
 10
78.63583352638835
 20
337.4134677321229
 30
0.0
 10
78.57493613101373
 20
337.4028021856047
 30
0.0
 10
78.51405063078693
 20
337.3921387223982
 30
0.0
 10
78.47904426677029
 20
337.3778607724322
 30
0.0
 10
78.47254498649312
 20
337.3610453548638
 30
0.0
 10
78.47179504377665
 20
337.3591050477233
 30
0.0
 10
78.471422018053
 20
337.3571248415346
 30
0.0
 10
78.4714228113281
 20
337.3551070227343
 30
0.0
  0
SPLINE
  5
80
330
75
100
AcDbEntity
  8
DV1_Standard
  6
Continuous
 62
     7
100
AcDbSpline
210
0.0
220
0.0
230
1.0
 70
     8
 71
     3
 72
    29
 73
    25
 74
     0
 42
0.0000000037141117
 43
0.0000000001
 40
0.0
 40
0.0
 40
0.0
 40
0.0
 40
0.0782249383264706
 40
0.0782249383264706
 40
0.0782249383264706
 40
0.2174836171413184
 40
0.2174836171413184
 40
0.2174836171413184
 40
0.3579689411393727
 40
0.3579689411393727
 40
0.3579689411393727
 40
0.4988071201454435
 40
0.4988071201454435
 40
0.4988071201454435
 40
0.6390576239148963
 40
0.6390576239148963
 40
0.6390576239148963
 40
0.778111166644117
 40
0.778111166644117
 40
0.778111166644117
 40
0.915884229924418
 40
0.915884229924418
 40
0.915884229924418
 40
1.0
 40
1.0
 40
1.0
 40
1.0
 10
81.47126012574499
 20
337.0725657537566
 30
0.0
 10
81.47124653126025
 20
337.0836076711226
 30
0.0
 10
81.4622790437227
 20
337.0954696631766
 30
0.0
 10
81.44446622736723
 20
337.1078183372697
 30
0.0
 10
81.41276029234784
 20
337.1297983684204
 30
0.0
 10
81.35217536329279
 20
337.1539135884371
 30
0.0
 10
81.26778020258797
 20
337.1781165096051
 30
0.0
 10
81.18265902190805
 20
337.2025276394438
 30
0.0
 10
81.07096821281789
 20
337.2276993292076
 30
0.0
 10
80.94189013521668
 20
337.2515822455771
 30
0.0
 10
80.81250789423495
 20
337.2755214403535
 30
0.0
 10
80.66205229962944
 20
337.2988336634155
 30
0.0
 10
80.5030005764435
 20
337.3196690916958
 30
0.0
 10
80.34461982974437
 20
337.3404166235221
 30
0.0
 10
80.17328565258211
 20
337.3592917708571
 30
0.0
 10
80.00339185586371
 20
337.3748178413482
 30
0.0
 10
79.83493616499489
 20
337.3902124877778
 30
0.0
 10
79.66319071453428
 20
337.4027483408281
 30
0.0
 10
79.50268029781759
 20
337.4114539473459
 30
0.0
 10
79.34362441499366
 20
337.4200806642814
 30
0.0
 10
79.1911789338664
 20
337.4251888915451
 30
0.0
 10
79.05817373744497
 20
337.4263866141511
 30
0.0
 10
78.97623198729272
 20
337.4271245062724
 30
0.0
 10
78.90040836658847
 20
337.4264131223669
 30
0.0
 10
78.833149276405
 20
337.4242734690324
 30
0.0
  0
SPLINE
  5
81
330
75
100
AcDbEntity
  8
DV1_Standard
  6
Continuous
 62
     7
100
AcDbSpline
210
0.0
220
0.0
230
1.0
 70
     8
 71
     3
 72
    14
 73
    10
 74
     0
 42
0.0000000270794472
 43
0.0000000001
 40
0.0
 40
0.0
 40
0.0
 40
0.0
 40
0.4693516645246645
 40
0.4693516645246645
 40
0.4693516645246645
 40
0.9387982006321014
 40
0.9387982006321014
 40
0.9387982006321014
 40
1.0
 40
1.0
 40
1.0
 40
1.0
 10
73.69980583311467
 20
337.3967634751924
 30
0.0
 10
73.59080523160152
 20
337.4085954409225
 30
0.0
 10
73.5016594673174
 20
337.4172361737876
 30
0.0
 10
73.43988102576427
 20
337.4220313679619
 30
0.0
 10
73.37809456827819
 20
337.4268271843267
 30
0.0
 10
73.34199188109811
 20
337.4279089490819
 30
0.0
 10
73.33459920549022
 20
337.4251943057155
 30
0.0
 10
73.33363531483042
 20
337.4248403581701
 30
0.0
 10
73.33315585391412
 20
337.4244206045907
 30
0.0
 10
73.33315666362311
 20
337.4239361514642
 30
0.0
  0
SPLINE
  5
82
330
75
100
AcDbEntity
  8
DV1_Standard
  6
Continuous
 62
     7
100
AcDbSpline
210
0.0
220
0.0
230
1.0
 70
     8
 71
     3
 72
    29
 73
    25
 74
     0
 42
0.00000000374907
 43
0.0000000001
 40
0.0
 40
0.0
 40
0.0
 40
0.0
 40
0.0761133421588635
 40
0.0761133421588635
 40
0.0761133421588635
 40
0.2127340677194703
 40
0.2127340677194703
 40
0.2127340677194703
 40
0.3504440899505154
 40
0.3504440899505154
 40
0.3504440899505154
 40
0.4897365873436097
 40
0.4897365873436097
 40
0.4897365873436097
 40
0.6303266344634322
 40
0.6303266344634322
 40
0.6303266344634322
 40
0.771373602709829
 40
0.771373602709829
 40
0.771373602709829
 40
0.9119213057772708
 40
0.9119213057772708
 40
0.9119213057772708
 40
1.0
 40
1.0
 40
1.0
 40
1.0
 10
76.33297853441482
 20
336.9944221397281
 30
0.0
 10
76.3329720360081
 20
336.9968327505966
 30
0.0
 10
76.32441166060907
 20
337.0005674091481
 30
0.0
 10
76.30736402929381
 20
337.0055399143844
 30
0.0
 10
76.27675945915432
 20
337.0144667489961
 30
0.0
 10
76.21799451869191
 20
337.027614802739
 30
0.0
 10
76.13609844934362
 20
337.0437194450781
 30
0.0
 10
76.05355008076812
 20
337.0599523603103
 30
0.0
 10
75.94528089686507
 20
337.0796178668699
 30
0.0
 10
75.82025816137069
 20
337.1009372923129
 30
0.0
 10
75.69381753013808
 20
337.1224985035588
 30
0.0
 10
75.54680319387852
 20
337.1463321042763
 30
0.0
 10
75.39124832765926
 20
337.1704035883095
 30
0.0
 10
75.23427644708319
 20
337.1946943495618
 30
0.0
 10
75.06429246825748
 20
337.2198941689132
 30
0.0
 10
74.89528904332782
 20
337.2439439796138
 30
0.0
 10
74.72576410638528
 20
337.2680680033973
 30
0.0
 10
74.5525241018656
 20
337.2917071168355
 30
0.0
 10
74.39006017333243
 20
337.3129817132778
 30
0.0
 10
74.22818084936227
 20
337.3341797559504
 30
0.0
 10
74.07249003038555
 20
337.3536261709884
 30
0.0
 10
73.93623230018727
 20
337.3697978090079
 30
0.0
 10
73.85009164838593
 20
337.3800213422905
 30
0.0
 10
73.77034712041541
 20
337.3891062505321
 30
0.0
 10
73.69980583311467
 20
337.3967634751924
 30
0.0
  0
LINE
  5
83
330
75
100
AcDbEntity
  8
DV1_Standard
  6
Continuous
 62
     7
100
AcDbLine
 10
103.4122573477
 20
336.1451637634
 30
0.0
 11
101.6948236033
 21
336.1451637634
 31
0.0
  0
LINE
  5
84
330
75
100
AcDbEntity
  8
DV1_Standard
  6
Continuous
 62
     7
100
AcDbLine
 10
96.7554626749
 20
336.1451637634
 30
0.0
 11
93.7554626749
 21
336.1451637634
 31
0.0
  0
LINE
  5
85
330
75
100
AcDbEntity
  8
DV1_Standard
  6
Continuous
 62
     7
100
AcDbLine
 10
103.4122573477
 20
336.1451637634
 30
0.0
 11
106.4122573477
 21
336.1451637634
 31
0.0
  0
LINE
  5
86
330
75
100
AcDbEntity
  8
DV1_Standard
  6
Continuous
 62
     7
100
AcDbLine
 10
98.1041575721
 20
336.1451637634
 30
0.0
 11
101.1041575721
 21
336.1451637634
 31
0.0
  0
LINE
  5
87
330
75
100
AcDbEntity
  8
DV1_Standard
  6
Continuous
 62
     7
100
AcDbLine
 10
86.3090897772
 20
336.1451637634
 30
0.0
 11
83.3090897772
 21
336.1451637634
 31
0.0
  0
LINE
  5
88
330
75
100
AcDbEntity
  8
DV1_Standard
  6
Continuous
 62
     7
100
AcDbLine
 10
78.2436788875
 20
336.1451637634
 30
0.0
 11
76.3331253981
 21
336.1451637634
 31
0.0
  0
LINE
  5
89
330
75
100
AcDbEntity
  8
DV1_Standard
  6
Continuous
 62
     7
100
AcDbLine
 10
76.3331253981
 20
336.1451637634
 30
0.0
 11
73.3331253981
 21
336.1451637634
 31
0.0
  0
LINE
  5
8A
330
75
100
AcDbEntity
  8
DV1_Standard
  6
Continuous
 62
     7
100
AcDbLine
 10
78.4713985202
 20
336.1451637634
 30
0.0
 11
81.4713985202
 21
336.1451637634
 31
0.0
  0
LINE
  5
8B
330
75
100
AcDbEntity
  8
DV1_Standard
  6
Continuous
 62
     7
100
AcDbLine
 10
88.2542431544
 20
336.1451637634
 30
0.0
 11
91.2542431544
 21
336.1451637634
 31
0.0
  0
ARC
  5
8C
330
75
100
AcDbEntity
  8
DV1_Standard
  6
Continuous
 62
     7
100
AcDbCircle
 10
32.6191729428
 20
837.0082390116
 30
0.0
 40
505.039843530782
100
AcDbArc
 50
277.7934975329
 51
278.0578725333
  0
ARC
  5
8D
330
75
100
AcDbEntity
  8
DV1_Standard
  6
Continuous
 62
     7
100
AcDbCircle
 10
32.6191729428
 20
837.0082390116
 30
0.0
 40
505.039843530782
100
AcDbArc
 50
278.4017585399
 51
278.7330765101
  0
ARC
  5
8E
330
75
100
AcDbEntity
  8
DV1_Standard
  6
Continuous
 62
     7
100
AcDbCircle
 10
147.1759908206
 20
837.0082390116
 30
0.0
 40
505.039843530782
100
AcDbArc
 50
261.2669234899
 51
261.5925325913
  0
ARC
  5
8F
330
75
100
AcDbEntity
  8
DV1_Standard
  6
Continuous
 62
     7
100
AcDbCircle
 10
147.1759908206
 20
837.0082390116
 30
0.0
 40
505.039843530782
100
AcDbArc
 50
261.9364235533
 51
262.1813553808
  0
LINE
  5
90
330
75
100
AcDbEntity
  8
DV1_Standard
  6
Continuous
 62
     7
100
AcDbLine
 10
69.4772585192
 20
339.2400743177
 30
0.0
 11
69.4772585192
 21
339.0097130244
 31
0.0
  0
LINE
  5
91
330
75
100
AcDbEntity
  8
DV1_Standard
  6
Continuous
 62
     7
100
AcDbLine
 10
110.3179052442
 20
339.0097130244
 30
0.0
 11
110.3179052442
 21
339.2400743177
 31
0.0
  0
LINE
  5
92
330
75
100
AcDbEntity
  8
DV1_Standard
  6
Continuous
 62
     7
100
AcDbLine
 10
101.6948236033
 20
336.7145272387
 30
0.0
 11
101.6948236033
 21
336.1451637634
 31
0.0
  0
LINE
  5
93
330
75
100
AcDbEntity
  8
DV1_Standard
  6
Continuous
 62
     7
100
AcDbLine
 10
93.7554626749
 20
336.5416991394
 30
0.0
 11
93.7554626749
 21
336.1451637634
 31
0.0
  0
LINE
  5
94
330
75
100
AcDbEntity
  8
DV1_Standard
  6
Continuous
 62
     7
100
AcDbLine
 10
96.7554626749
 20
336.1451637634
 30
0.0
 11
96.7554626749
 21
336.5416991394
 31
0.0
  0
LINE
  5
95
330
75
100
AcDbEntity
  8
DV1_Standard
  6
Continuous
 62
     7
100
AcDbLine
 10
103.4122573477
 20
336.9972932792
 30
0.0
 11
103.4122573477
 21
336.1451637634
 31
0.0
  0
LINE
  5
96
330
75
100
AcDbEntity
  8
DV1_Standard
  6
Continuous
 62
     7
100
AcDbLine
 10
106.4122573477
 20
336.1451637634
 30
0.0
 11
106.4122573477
 21
337.4204381739
 31
0.0
  0
LINE
  5
97
330
75
100
AcDbEntity
  8
DV1_Standard
  6
Continuous
 62
     7
100
AcDbLine
 10
98.1041575721
 20
337.0771288704
 30
0.0
 11
98.1041575721
 21
336.1451637634
 31
0.0
  0
LINE
  5
98
330
75
100
AcDbEntity
  8
DV1_Standard
  6
Continuous
 62
     7
100
AcDbLine
 10
101.1041575721
 20
336.1451637634
 30
0.0
 11
101.1041575721
 21
337.3499835638
 31
0.0
  0
LINE
  5
99
330
75
100
AcDbEntity
  8
DV1_Standard
  6
Continuous
 62
     7
100
AcDbLine
 10
83.3090897772
 20
336.5416991394
 30
0.0
 11
83.3090897772
 21
336.1451637634
 31
0.0
  0
LINE
  5
9A
330
75
100
AcDbEntity
  8
DV1_Standard
  6
Continuous
 62
     7
100
AcDbLine
 10
86.3090897772
 20
336.1451637634
 30
0.0
 11
86.3090897772
 21
336.5416991394
 31
0.0
  0
LINE
  5
9B
330
75
100
AcDbEntity
  8
DV1_Standard
  6
Continuous
 62
     7
100
AcDbLine
 10
78.2436788875
 20
336.1451637634
 30
0.0
 11
78.2436788875
 21
336.6947573572
 31
0.0
  0
LINE
  5
9C
330
75
100
AcDbEntity
  8
DV1_Standard
  6
Continuous
 62
     7
100
AcDbLine
 10
73.3331253981
 20
337.4226641975
 30
0.0
 11
73.3331253981
 21
336.1451637634
 31
0.0
  0
LINE
  5
9D
330
75
100
AcDbEntity
  8
DV1_Standard
  6
Continuous
 62
     7
100
AcDbLine
 10
76.3331253981
 20
336.1451637634
 30
0.0
 11
76.3331253981
 21
336.9975710396
 31
0.0
  0
LINE
  5
9E
330
75
100
AcDbEntity
  8
DV1_Standard
  6
Continuous
 62
     7
100
AcDbLine
 10
78.4713985202
 20
337.3542918316
 30
0.0
 11
78.4713985202
 21
336.1451637634
 31
0.0
  0
LINE
  5
9F
330
75
100
AcDbEntity
  8
DV1_Standard
  6
Continuous
 62
     7
100
AcDbLine
 10
81.4713985202
 20
336.1451637634
 30
0.0
 11
81.4713985202
 21
337.0744001564
 31
0.0
  0
LINE
  5
A0
330
75
100
AcDbEntity
  8
DV1_Standard
  6
Continuous
 62
     7
100
AcDbLine
 10
88.2542431544
 20
337.219397856
 30
0.0
 11
88.2542431544
 21
336.1451637634
 31
0.0
  0
LINE
  5
A1
330
75
100
AcDbEntity
  8
DV1_Standard
  6
Continuous
 62
     7
100
AcDbLine
 10
91.2542431544
 20
336.1451637634
 30
0.0
 11
91.2542431544
 21
337.2149914184
 31
0.0
  0
LINE
  5
A2
330
75
100
AcDbEntity
  8
DV1_Standard
  6
Continuous
 62
     7
100
AcDbLine
 10
81.4713985202
 20
336.5416991394
 30
0.0
 11
88.2542431544
 21
336.5416991394
 31
0.0
  0
LINE
  5
A3
330
75
100
AcDbEntity
  8
DV1_Standard
  6
Continuous
 62
     7
100
AcDbLine
 10
91.2542431544
 20
336.5416991394
 30
0.0
 11
98.1041575721
 21
336.5416991394
 31
0.0
  0
ARC
  5
A4
330
75
100
AcDbEntity
  8
DV1_Standard
  6
Continuous
 62
     7
100
AcDbCircle
 10
109.1179052442
 20
339.0097130244
 30
0.0
 40
1.199999999999938
100
AcDbArc
 50
278.7330765101
 51
0.0
  0
ARC
  5
A5
330
75
100
AcDbEntity
  8
DV1_Standard
  6
Continuous
 62
     7
100
AcDbCircle
 10
70.6772585192
 20
339.0097130244
 30
0.0
 40
1.199999999999979
100
AcDbArc
 50
180.0
 51
261.2669234899
  0
LINE
  5
A6
330
75
100
AcDbEntity
  8
DV1_Standard
  6
Continuous
 62
     7
100
AcDbLine
 10
119.6081992729
 20
341.3759485609
 30
0.0
 11
60.1869644905
 21
341.3759485609
 31
0.0
  0
LINE
  5
A7
330
75
100
AcDbEntity
  8
DV1_Standard
  6
Continuous
 62
     7
100
AcDbLine
 10
110.4675818817
 20
339.2744855509
 30
0.0
 11
69.3275818817
 21
339.2744855509
 31
0.0
  0
LINE
  5
A8
330
75
100
AcDbEntity
  8
DV1_Standard
  6
Continuous
 62
     7
100
AcDbLine
 10
60.1869644905
 20
341.3759485609
 30
0.0
 11
69.3275818817
 21
339.2744855509
 31
0.0
  0
LINE
  5
A9
330
75
100
AcDbEntity
  8
DV1_Standard
  6
Continuous
 62
     7
100
AcDbLine
 10
110.4675818817
 20
339.2744855509
 30
0.0
 11
119.6081992729
 21
341.3759485609
 31
0.0
  0
SPLINE
  5
AA
330
75
100
AcDbEntity
  8
DV1_Standard
  6
Continuous
 62
     7
100
AcDbSpline
210
0.0
220
0.0
230
1.0
 70
    11
 71
     3
 72
    22
 73
    18
 74
     0
 42
0.0000000007388054
 43
0.0000000001
 40
0.0
 40
0.0
 40
0.0
 40
0.0
 40
0.125
 40
0.125
 40
0.25
 40
0.25
 40
0.375
 40
0.375
 40
0.5
 40
0.5
 40
0.625
 40
0.625
 40
0.75
 40
0.75
 40
0.875
 40
0.875
 40
1.0
 40
1.0
 40
1.0
 40
1.0
 10
70.82793033214202
 20
340.0655201652172
 30
0.0
 10
71.42110693714474
 20
339.8750259905507
 30
0.0
 10
71.76722179321563
 20
339.6976999664214
 30
0.0
 10
71.77983018742617
 20
339.4753734834599
 30
0.0
 10
71.43206909314759
 20
339.4424167970755
 30
0.0
 10
70.23961738808586
 20
339.5566790523974
 30
0.0
 10
69.40221212916828
 20
339.7011748374352
 30
0.0
 10
67.74137945340689
 20
340.0521101221222
 30
0.0
 10
66.91340448512815
 20
340.2580070266159
 30
0.0
 10
65.73583905057683
 20
340.6115670306738
 30
0.0
 10
65.37835400872284
 20
340.7631594669899
 30
0.0
 10
65.36316006454096
 20
340.9395517162687
 30
0.0
 10
65.704854308426
 20
340.9652048678332
 30
0.0
 10
66.91045777346454
 20
340.8754679343051
 30
0.0
 10
67.75067603987972
 20
340.7614661607369
 30
0.0
 10
69.41331870269943
 20
340.4520770092755
 30
0.0
 10
70.23475372713929
 20
340.2560143398834
 30
0.0
 10
70.82793033214202
 20
340.0655201652172
 30
0.0
  0
SPLINE
  5
AB
330
75
100
AcDbEntity
  8
DV1_Standard
  6
Continuous
 62
     7
100
AcDbSpline
210
0.0
220
0.0
230
1.0
 70
    11
 71
     3
 72
    22
 73
    18
 74
     0
 42
0.0000000007391389
 43
0.0000000001
 40
0.0
 40
0.0
 40
0.0
 40
0.0
 40
0.125
 40
0.125
 40
0.25
 40
0.25
 40
0.375
 40
0.375
 40
0.5
 40
0.5
 40
0.625
 40
0.625
 40
0.75
 40
0.75
 40
0.875
 40
0.875
 40
1.0
 40
1.0
 40
1.0
 40
1.0
 10
113.4532341041899
 20
340.9177325237171
 30
0.0
 10
114.0667962264243
 20
340.9652783366515
 30
0.0
 10
114.420101983806
 20
340.9430425794407
 30
0.0
 10
114.4288873027309
 20
340.7690823251232
 30
0.0
 10
114.0816412707496
 20
340.6197122497973
 30
0.0
 10
112.9185573793768
 20
340.2676819049061
 30
0.0
 10
112.0993361853983
 20
340.0629697989428
 30
0.0
 10
110.4449933144347
 20
339.7110075605735
 30
0.0
 10
109.5961907369303
 20
339.5627878065579
 30
0.0
 10
108.3861738931578
 20
339.4425285426375
 30
0.0
 10
108.0274423671705
 20
339.4731395780922
 30
0.0
 10
108.0158100508357
 20
339.6880482517196
 30
0.0
 10
108.3536323479594
 20
339.8661497158454
 30
0.0
 10
109.5185225578621
 20
340.2447596847374
 30
0.0
 10
110.3333082467394
 20
340.4414014642081
 30
0.0
 10
111.995396475402
 20
340.7538810885852
 30
0.0
 10
112.8396719819555
 20
340.8701867107827
 30
0.0
 10
113.4532341041899
 20
340.9177325237171
 30
0.0
  0
SPLINE
  5
AC
330
75
100
AcDbEntity
  8
DV1_Standard
  6
Continuous
 62
     7
100
AcDbSpline
210
0.0
220
0.0
230
1.0
 70
    11
 71
     3
 72
    22
 73
    18
 74
     0
 42
0.0000000007206154
 43
0.0000000001
 40
0.0
 40
0.0
 40
0.0
 40
0.0
 40
0.1250000000000001
 40
0.1250000000000001
 40
0.2500000000000002
 40
0.2500000000000002
 40
0.3750000000000002
 40
0.3750000000000002
 40
0.5000000000000002
 40
0.5000000000000002
 40
0.6250000000000002
 40
0.6250000000000002
 40
0.7500000000000001
 40
0.7500000000000001
 40
0.8750000000000001
 40
0.8750000000000001
 40
1.0
 40
1.0
 40
1.0
 40
1.0
 10
100.6335650590568
 20
340.8748959655421
 30
0.0
 10
101.2242882184023
 20
340.797362714608
 30
0.0
 10
101.5424922589784
 20
340.6572638729231
 30
0.0
 10
101.5050245087646
 20
340.3096151046861
 30
0.0
 10
101.1489921473703
 20
340.1073861821493
 30
0.0
 10
99.95961996846489
 20
339.7467225291934
 30
0.0
 10
99.12219282830138
 20
339.590713267764
 30
0.0
 10
97.43953223148795
 20
339.4455988589136
 30
0.0
 10
96.58731138366399
 20
339.4610093208537
 30
0.0
 10
95.42300317803608
 20
339.6540303468734
 30
0.0
 10
95.09987805446232
 20
339.8265012032704
 30
0.0
 10
95.12974973902688
 20
340.1983697862083
 30
0.0
 10
95.47677568993201
 20
340.3977818267881
 30
0.0
 10
96.67331636534338
 20
340.7243360594059
 30
0.0
 10
97.51003373918088
 20
340.848508074084
 30
0.0
 10
99.20485067710143
 20
340.9629332329793
 30
0.0
 10
100.0428418997114
 20
340.9524292164762
 30
0.0
 10
100.6335650590568
 20
340.8748959655421
 30
0.0
  0
SPLINE
  5
AD
330
75
100
AcDbEntity
  8
DV1_Standard
  6
Continuous
 62
     7
100
AcDbSpline
210
0.0
220
0.0
230
1.0
 70
    11
 71
     3
 72
    22
 73
    18
 74
     0
 42
0.0000000007208231
 43
0.0000000001
 40
0.0
 40
0.0
 40
0.0
 40
0.0
 40
0.125
 40
0.125
 40
0.25
 40
0.25
 40
0.375
 40
0.375
 40
0.5
 40
0.5
 40
0.625
 40
0.625
 40
0.75
 40
0.75
 40
0.875
 40
0.875
 40
1.0
 40
1.0
 40
1.0
 40
1.0
 10
83.8033331980579
 20
340.5376772971973
 30
0.0
 10
84.38177643848277
 20
340.3702986246906
 30
0.0
 10
84.6966413536852
 20
340.1713627818399
 30
0.0
 10
84.66386781487499
 20
339.7994180441284
 30
0.0
 10
84.31010613259457
 20
339.6332992110534
 30
0.0
 10
83.09477682805053
 20
339.4543613048971
 30
0.0
 10
82.23805843340436
 20
339.4488112427065
 30
0.0
 10
80.55429720921066
 20
339.608921412195
 30
0.0
 10
79.72371664078959
 20
339.7721096913508
 30
0.0
 10
78.58358411814422
 20
340.1362712122096
 30
0.0
 10
78.25809082107101
 20
340.3395846247206
 30
0.0
 10
78.28389598654326
 20
340.6772412302129
 30
0.0
 10
78.63537327934282
 20
340.8140915539519
 30
0.0
 10
79.85515208295426
 20
340.9564202729715
 30
0.0
 10
80.70984399006555
 20
340.9604863209513
 30
0.0
 10
82.4008668214323
 20
340.8342308117042
 30
0.0
 10
83.22488995763302
 20
340.7050559697039
 30
0.0
 10
83.8033331980579
 20
340.5376772971973
 30
0.0
  0
LINE
  5
AE
330
75
100
AcDbEntity
  8
DV1_Standard
  6
Continuous
 62
     7
100
AcDbLine
 10
69.4870939825
 20
339.2378131069
 30
0.0
 11
110.3080697809
 21
339.2378131069
 31
0.0
  0
ARC
  5
AF
330
75
100
AcDbEntity
  8
DV1_Standard
  6
Continuous
 62
     7
100
AcDbCircle
 10
119.3393288541
 20
342.5454393466
 30
0.0
 40
1.200000000000346
100
AcDbArc
 50
282.9475314855
 51
356.9805709559
  0
ARC
  5
B0
330
75
100
AcDbEntity
  8
DV1_Standard
  6
Continuous
 62
     7
100
AcDbCircle
 10
60.4558349094
 20
342.5454393466
 30
0.0
 40
1.2
100
AcDbArc
 50
183.0194290441
 51
257.0524685145
  0
LINE
  5
B1
330
75
100
AcDbEntity
  8
DV1_Standard
  6
Continuous
 62
     7
100
AcDbLine
 10
60.1869644905
 20
341.3759485609
 30
0.0
 11
69.4772585192
 21
339.2400743177
 31
0.0
  0
LINE
  5
B2
330
75
100
AcDbEntity
  8
DV1_Standard
  6
Continuous
 62
     7
100
AcDbLine
 10
110.3179052442
 20
339.2400743177
 30
0.0
 11
119.6081992729
 21
341.3759485609
 31
0.0
  0
SPLINE
  5
B3
330
75
100
AcDbEntity
  8
DV1_Standard
  6
Continuous
 62
     7
100
AcDbSpline
210
0.0
220
0.0
230
1.0
 70
     8
 71
     3
 72
    10
 73
     6
 74
     0
 42
0.0000000464041448
 43
0.0000000001
 40
0.0
 40
0.0
 40
0.0
 40
0.0
 40
0.298195796869756
 40
0.706825489160924
 40
0.9999999999999999
 40
0.9999999999999999
 40
0.9999999999999999
 40
0.9999999999999999
 10
114.0475334565632
 20
340.934739690889
 30
0.0
 10
114.0883201205869
 20
340.9334828332508
 30
0.0
 10
114.1684966281059
 20
340.9310953722648
 30
0.0
 10
114.2409702805921
 20
340.9189747045762
 30
0.0
 10
114.2606555220072
 20
340.9127846999635
 30
0.0
 10
114.2608062684454
 20
340.9124531749671
 30
0.0
  0
ARC
  5
B4
330
75
100
AcDbEntity
  8
DV1_Standard
  6
Continuous
 62
     7
100
AcDbCircle
 10
113.9302908677
 20
335.4833640272
 30
0.0
 40
5.452636284536528
100
AcDbArc
 50
88.7679311619
 51
95.4930884088
  0
LINE
  5
B5
330
75
100
AcDbEntity
  8
DV1_Standard
  6
Continuous
 62
     7
100
AcDbLine
 10
9.5973190208
 20
361.2615922231
 30
0.0
 11
170.1978447427
 21
361.2615922231
 31
0.0
  0
LINE
  5
B6
330
75
100
AcDbEntity
  8
DV1_Standard
  6
Continuous
 62
     7
100
AcDbLine
 10
6.5060119934
 20
352.188997938
 30
0.0
 11
173.28915177
 21
352.188997938
 31
0.0
  0
LINE
  5
B7
330
75
100
AcDbEntity
  8
DV1_Standard
  6
Continuous
 62
     7
100
AcDbLine
 10
10.7150757102
 20
349.312888077
 30
0.0
 11
169.0800880532
 21
349.312888077
 31
0.0
  0
LINE
  5
B8
330
75
100
AcDbEntity
  8
DV1_Standard
  6
Continuous
 62
     7
100
AcDbLine
 10
6.8140938641
 20
350.6494528218
 30
0.0
 11
172.9810698993
 21
350.6494528218
 31
0.0
  0
LINE
  5
B9
330
75
100
AcDbEntity
  8
DV1_Standard
  6
Continuous
 62
     7
100
AcDbLine
 10
76.1475818817
 20
411.572789052
 30
0.0
 11
103.6475818817
 21
411.572789052
 31
0.0
  0
LINE
  5
BA
330
75
100
AcDbEntity
  8
DV1_Standard
  6
Continuous
 62
     7
100
AcDbLine
 10
12.7840561262
 20
379.2444020896
 30
0.0
 11
167.0111076373
 21
379.2444020896
 31
0.0
  0
LINE
  5
BB
330
75
100
AcDbEntity
  8
DV1_Standard
  6
Continuous
 62
     7
100
AcDbLine
 10
65.7243805464
 20
391.8718351844
 30
0.0
 11
114.070783217
 21
391.8718351844
 31
0.0
  0
LINE
  5
BC
330
75
100
AcDbEntity
  8
DV1_Standard
  6
Continuous
 62
     7
100
AcDbLine
 10
17.3017197259
 20
384.1581809731
 30
0.0
 11
162.4934440375
 21
384.1581809731
 31
0.0
  0
LINE
  5
BD
330
75
100
AcDbEntity
  8
DV1_Standard
  6
Continuous
 62
     7
100
AcDbLine
 10
170.5316457567
 20
361.1237109108
 30
0.0
 11
170.1978447427
 21
361.2615922231
 31
0.0
  0
LINE
  5
BE
330
75
100
AcDbEntity
  8
DV1_Standard
  6
Continuous
 62
     7
100
AcDbLine
 10
9.5973190208
 20
361.2615922231
 30
0.0
 11
9.2635180067
 21
361.1237109108
 31
0.0
  0
ARC
  5
BF
330
75
100
AcDbEntity
  8
DV1_Standard
  6
Continuous
 62
     7
100
AcDbCircle
 10
189.809239517
 20
361.5518055391
 30
0.0
 40
18.98882474887595
100
AcDbArc
 50
182.6181011141
 51
209.5425219091
  0
ARC
  5
C0
330
75
100
AcDbEntity
  8
DV1_Standard
  6
Continuous
 62
     7
100
AcDbCircle
 10
-10.0140757535
 20
361.5518055391
 30
0.0
 40
18.98882474887585
100
AcDbArc
 50
330.4574780909
 51
357.3818988859
  0
ARC
  5
C1
330
75
100
AcDbEntity
  8
DV1_Standard
  6
Continuous
 62
     7
100
AcDbCircle
 10
169.0800880532
 20
355.6739958149
 30
0.0
 40
6.361107737885355
100
AcDbArc
 50
270.0
 51
307.8252428369
  0
ARC
  5
C2
330
75
100
AcDbEntity
  8
DV1_Standard
  6
Continuous
 62
     7
100
AcDbCircle
 10
10.7150757102
 20
355.6739958149
 30
0.0
 40
6.361107737885762
100
AcDbArc
 50
232.1747571631
 51
270.0
  0
ARC
  5
C3
330
75
100
AcDbEntity
  8
DV1_Standard
  6
Continuous
 62
     7
100
AcDbCircle
 10
172.2451637634
 20
351.5973147101
 30
0.0
 40
1.200000000000388
100
AcDbArc
 50
307.8252428369
 51
29.5425219091
  0
ARC
  5
C4
330
75
100
AcDbEntity
  8
DV1_Standard
  6
Continuous
 62
     7
100
AcDbCircle
 10
7.55
 20
351.5973147101
 30
0.0
 40
1.199999999999954
100
AcDbArc
 50
150.4574780909
 51
232.1747571631
  0
LINE
  5
C5
330
75
100
AcDbEntity
  8
DV1_Standard
  6
Continuous
 62
     7
100
AcDbLine
 10
108.656763014
 20
411.349097189
 30
0.0
 11
103.6475818817
 21
411.572789052
 31
0.0
  0
LINE
  5
C6
330
75
100
AcDbEntity
  8
DV1_Standard
  6
Continuous
 62
     7
100
AcDbLine
 10
76.1475818817
 20
411.572789052
 30
0.0
 11
71.1384007494
 21
411.349097189
 31
0.0
  0
ARC
  5
C7
330
75
100
AcDbEntity
  8
DV1_Standard
  6
Continuous
 62
     7
100
AcDbCircle
 10
1162.7351149159
 20
533.3665816129
 30
0.0
 40
1007.58123488486
100
AcDbArc
 50
188.7986490121
 51
189.8131679413
  0
ARC
  5
C8
330
75
100
AcDbEntity
  8
DV1_Standard
  6
Continuous
 62
     7
100
AcDbCircle
 10
-982.9399511525
 20
533.3665816129
 30
0.0
 40
1007.58123488486
100
AcDbArc
 50
350.1868320587
 51
351.2013509879
  0
ARC
  5
C9
330
75
100
AcDbEntity
  8
DV1_Standard
  6
Continuous
 62
     7
100
AcDbCircle
 10
9.406430688
 20
361.7237195264
 30
0.0
 40
0.499999999999947
100
AcDbArc
 50
292.4437769054
 51
350.1868320587
  0
ARC
  5
CA
330
75
100
AcDbEntity
  8
DV1_Standard
  6
Continuous
 62
     7
100
AcDbCircle
 10
170.3887330754
 20
361.7237195264
 30
0.0
 40
0.500000000000067
100
AcDbArc
 50
189.8131679413
 51
247.5562230946
  0
ARC
  5
CB
330
75
100
AcDbEntity
  8
DV1_Standard
  6
Continuous
 62
     7
100
AcDbCircle
 10
170.340757424
 20
360.6615836075
 30
0.0
 40
0.5000000000000326
100
AcDbArc
 50
2.6181011141
 51
67.5562230945
  0
ARC
  5
CC
330
75
100
AcDbEntity
  8
DV1_Standard
  6
Continuous
 62
     7
100
AcDbCircle
 10
9.4544063395
 20
360.6615836075
 30
0.0
 40
0.4999999999999669
100
AcDbArc
 50
112.4437769055
 51
177.3818988859
  0
ARC
  5
CD
330
75
100
AcDbEntity
  8
DV1_Standard
  6
Continuous
 62
     7
100
AcDbCircle
 10
71.2276245758
 20
409.3510884031
 30
0.0
 40
2.000000000000008
100
AcDbArc
 50
92.556922961
 51
174.6239621136
  0
ARC
  5
CE
330
75
100
AcDbEntity
  8
DV1_Standard
  6
Continuous
 62
     7
100
AcDbCircle
 10
108.5675391876
 20
409.3510884031
 30
0.0
 40
1.999999999999976
100
AcDbArc
 50
5.3760378864
 51
87.443077039
  0
ARC
  5
CF
330
75
100
AcDbEntity
  8
DV1_Standard
  6
Continuous
 62
     7
100
AcDbCircle
 10
800.0155011931
 20
474.4204163774
 30
0.0
 40
692.5029169157403
100
AcDbArc
 50
185.3760378864
 51
186.6994356041
  0
ARC
  5
D0
330
75
100
AcDbEntity
  8
DV1_Standard
  6
Continuous
 62
     7
100
AcDbCircle
 10
-620.2203374296
 20
474.4204163774
 30
0.0
 40
692.50291691574
100
AcDbArc
 50
353.3005643959
 51
354.6239621136
  0
ARC
  5
D1
330
75
100
AcDbEntity
  8
DV1_Standard
  6
Continuous
 62
     7
100
AcDbCircle
 10
114.2274771486
 20
393.8656874888
 30
0.0
 40
1.999999999999954
100
AcDbArc
 50
186.6994356041
 51
265.5064444094
  0
ARC
  5
D2
330
75
100
AcDbEntity
  8
DV1_Standard
  6
Continuous
 62
     7
100
AcDbCircle
 10
65.5676866149
 20
393.8656874888
 30
0.0
 40
1.999999999999678
100
AcDbArc
 50
274.4935555906
 51
353.3005643959
  0
ARC
  5
D3
330
75
100
AcDbEntity
  8
DV1_Standard
  6
Continuous
 62
     7
100
AcDbCircle
 10
89.8975818817
 20
84.2798774245
 30
0.0
 40
308.5403638770369
100
AcDbArc
 50
94.4935555906
 51
103.6086032423
  0
ARC
  5
D4
330
75
100
AcDbEntity
  8
DV1_Standard
  6
Continuous
 62
     7
100
AcDbCircle
 10
89.8975818817
 20
84.2798774245
 30
0.0
 40
308.5403638770368
100
AcDbArc
 50
76.3913967577
 51
85.5064444094
  0
ARC
  5
D5
330
75
100
AcDbEntity
  8
DV1_Standard
  6
Continuous
 62
     7
100
AcDbCircle
 10
161.0817157066
 20
378.3266268818
 30
0.0
 40
5.999999999999978
100
AcDbArc
 50
8.7986490121
 51
76.3913967577
  0
ARC
  5
D6
330
75
100
AcDbEntity
  8
DV1_Standard
  6
Continuous
 62
     7
100
AcDbCircle
 10
18.7134480569
 20
378.3266268818
 30
0.0
 40
6.000000000000018
100
AcDbArc
 50
103.6086032423
 51
171.2013509879
  0
LINE
  5
D7
330
75
100
AcDbEntity
  8
DV1_Standard
  6
Continuous
 62
     7
100
AcDbLine
 10
78.2053242498
 20
434.8463769233
 30
0.0
 11
101.5898395136
 21
434.8463769233
 31
0.0
  0
LINE
  5
D8
330
75
100
AcDbEntity
  8
DV1_Standard
  6
Continuous
 62
     7
100
AcDbLine
 10
75.1675778879
 20
416.9389535157
 30
0.0
 11
104.6275858755
 21
416.9389535157
 31
0.0
  0
LINE
  5
D9
330
75
100
AcDbEntity
  8
DV1_Standard
  6
Continuous
 62
     7
100
AcDbLine
 10
105.176322299
 20
434.2139832425
 30
0.0
 11
101.5898395136
 21
434.8463769233
 31
0.0
  0
LINE
  5
DA
330
75
100
AcDbEntity
  8
DV1_Standard
  6
Continuous
 62
     7
100
AcDbLine
 10
78.2053242498
 20
434.8463769233
 30
0.0
 11
74.6188414645
 21
434.2139832425
 31
0.0
  0
LINE
  5
DB
330
75
100
AcDbEntity
  8
DV1_Standard
  6
Continuous
 62
     7
100
AcDbLine
 10
74.4811727938
 20
417.0599852535
 30
0.0
 11
75.1675778879
 21
416.9389535157
 31
0.0
  0
LINE
  5
DC
330
75
100
AcDbEntity
  8
DV1_Standard
  6
Continuous
 62
     7
100
AcDbLine
 10
104.6275858755
 20
416.9389535157
 30
0.0
 11
105.3139909696
 21
417.0599852535
 31
0.0
  0
LINE
  5
DD
330
75
100
AcDbEntity
  8
DV1_Standard
  6
Continuous
 62
     7
100
AcDbLine
 10
105.8924105914
 20
417.7554592555
 30
0.0
 11
105.7547419207
 21
433.5307263902
 31
0.0
  0
LINE
  5
DE
330
75
100
AcDbEntity
  8
DV1_Standard
  6
Continuous
 62
     7
100
AcDbLine
 10
74.0404218427
 20
433.5307263902
 30
0.0
 11
73.902753172
 21
417.7554592555
 31
0.0
  0
ARC
  5
DF
330
75
100
AcDbEntity
  8
DV1_Standard
  6
Continuous
 62
     7
100
AcDbCircle
 10
74.6027265182
 20
417.7493506806
 30
0.0
 40
0.6999999999999922
100
AcDbArc
 50
179.5
 51
260.0
  0
ARC
  5
E0
330
75
100
AcDbEntity
  8
DV1_Standard
  6
Continuous
 62
     7
100
AcDbCircle
 10
105.1924372452
 20
417.7493506806
 30
0.0
 40
0.7000000000000023
100
AcDbArc
 50
280.0
 51
0.5
  0
ARC
  5
E1
330
75
100
AcDbEntity
  8
DV1_Standard
  6
Continuous
 62
     7
100
AcDbCircle
 10
74.7403951888
 20
433.5246178153
 30
0.0
 40
0.7000000000000005
100
AcDbArc
 50
100.0
 51
179.5
  0
ARC
  5
E2
330
75
100
AcDbEntity
  8
DV1_Standard
  6
Continuous
 62
     7
100
AcDbCircle
 10
105.0547685746
 20
433.5246178153
 30
0.0
 40
0.7000000000000182
100
AcDbArc
 50
0.5
 51
80.0
  0
LINE
  5
E3
330
75
100
AcDbEntity
  8
DV1_Standard
  6
Continuous
 62
     7
100
AcDbLine
 10
80.6475818817
 20
413.902888077
 30
0.0
 11
99.1475818817
 21
413.902888077
 31
0.0
  0
LINE
  5
E4
330
75
100
AcDbEntity
  8
DV1_Standard
  6
Continuous
 62
     7
100
AcDbLine
 10
78.6661793223
 20
411.9214855176
 30
0.0
 11
101.1289844411
 21
411.9214855176
 31
0.0
  0
LINE
  5
E5
330
75
100
AcDbEntity
  8
DV1_Standard
  6
Continuous
 62
     7
100
AcDbLine
 10
99.1475818817
 20
413.902888077
 30
0.0
 11
99.1475818817
 21
415.5625767697
 31
0.0
  0
LINE
  5
E6
330
75
100
AcDbEntity
  8
DV1_Standard
  6
Continuous
 62
     7
100
AcDbLine
 10
80.6475818817
 20
415.5625767697
 30
0.0
 11
80.6475818817
 21
413.902888077
 31
0.0
  0
ARC
  5
E7
330
75
100
AcDbEntity
  8
DV1_Standard
  6
Continuous
 62
     7
100
AcDbCircle
 10
89.8975818817
 20
404.612888077
 30
0.0
 40
13.4
100
AcDbArc
 50
146.946786261
 51
148.7082820567
  0
ARC
  5
E8
330
75
100
AcDbEntity
  8
DV1_Standard
  6
Continuous
 62
     7
100
AcDbCircle
 10
89.8975818817
 20
404.612888077
 30
0.0
 40
13.4
100
AcDbArc
 50
31.2917179433
 51
33.053213739
  0
ARC
  5
E9
330
75
100
AcDbEntity
  8
DV1_Standard
  6
Continuous
 62
     7
100
AcDbCircle
 10
100.6475818817
 20
415.5625767697
 30
0.0
 40
1.5
100
AcDbArc
 50
113.4245319589
 51
180.0
  0
ARC
  5
EA
330
75
100
AcDbEntity
  8
DV1_Standard
  6
Continuous
 62
     7
100
AcDbCircle
 10
79.1475818817
 20
415.5625767697
 30
0.0
 40
1.499999999999994
100
AcDbArc
 50
0.0
 51
66.5754680411
  0
LINE
  5
EB
330
75
100
AcDbEntity
  8
DV1_Standard
  6
Continuous
 62
     7
100
AcDbLine
 10
101.1289844411
 20
411.9214855176
 30
0.0
 11
99.1475818817
 21
413.902888077
 31
0.0
  0
LINE
  5
EC
330
75
100
AcDbEntity
  8
DV1_Standard
  6
Continuous
 62
     7
100
AcDbLine
 10
80.6475818817
 20
413.902888077
 30
0.0
 11
78.6661793223
 21
411.9214855176
 31
0.0
  0
LINE
  5
ED
330
75
100
AcDbEntity
  8
DV1_Standard
  6
Continuous
 62
     7
100
AcDbLine
 10
11.7437055219
 20
348.5486559941
 30
0.0
 11
11.6092371045
 21
349.3128880956
 31
0.0
  0
LINE
  5
EE
330
75
100
AcDbEntity
  8
DV1_Standard
  6
Continuous
 62
     7
100
AcDbLine
 10
12.1104163459
 20
347.8747699445
 30
0.0
 11
167.7063679201
 21
347.8747699446
 31
0.0
  0
ARC
  5
EF
330
75
100
AcDbEntity
  8
DV1_Standard
  6
Continuous
 62
     7
100
AcDbCircle
 10
12.92995551
 20
348.75782007
 30
0.0
 40
1.204549145922515
100
AcDbArc
 50
189.9998218632
 51
199.4898967303
  0
LINE
  5
F0
330
75
100
AcDbEntity
  8
DV1_Standard
  6
Continuous
 62
     7
100
AcDbLine
 10
11.9222309859
 20
348.0984142115
 30
0.0
 11
11.7944266225
 21
348.3559335304
 31
0.0
  0
LINE
  5
F1
330
75
100
AcDbEntity
  8
DV1_Standard
  6
Continuous
 62
     7
100
AcDbLine
 10
11.9208042054
 20
348.0984142115
 30
0.0
 11
11.9222309859
 21
348.0984142115
 31
0.0
  0
LINE
  5
F2
330
75
100
AcDbEntity
  8
DV1_Standard
  6
Continuous
 62
     7
100
AcDbLine
 10
11.9321822993
 20
339.834991913
 30
0.0
 11
11.8233458704
 21
339.8375141994
 31
0.0
  0
ARC
  5
F3
330
75
100
AcDbEntity
  8
DV1_Standard
  6
Continuous
 62
     7
100
AcDbCircle
 10
72.5724240797
 20
349.4124208917
 30
0.0
 40
64.03482959314897
100
AcDbArc
 50
181.1758026418
 51
186.1848683289
  0
ARC
  5
F4
330
75
100
AcDbEntity
  8
DV1_Standard
  6
Continuous
 62
     7
100
AcDbCircle
 10
11.8928522676
 20
342.8367089013
 30
0.0
 40
2.999999999898516
100
AcDbArc
 50
186.1845837901
 51
268.672406806
  0
ARC
  5
F5
330
75
100
AcDbEntity
  8
DV1_Standard
  6
Continuous
 62
     7
100
AcDbCircle
 10
12.0711950937
 20
345.833381317
 30
0.0
 40
5.999999999999559
100
AcDbArc
 50
268.6724068052
 51
309.5145655858
  0
ARC
  5
F6
330
75
100
AcDbEntity
  8
DV1_Standard
  6
Continuous
 62
     7
100
AcDbCircle
 10
30.8525772789
 20
323.0615400277
 30
0.0
 40
23.51774165641506
100
AcDbArc
 50
103.4649264911
 51
129.5145655858
  0
LINE
  5
F7
330
75
100
AcDbEntity
  8
DV1_Standard
  6
Continuous
 62
     7
100
AcDbLine
 10
11.2598339208
 20
348.0984142116
 30
0.0
 11
11.2944266225
 21
348.0984142116
 31
0.0
  0
SPLINE
  5
F8
330
75
100
AcDbEntity
  8
DV1_Standard
  6
Continuous
 62
     7
100
AcDbSpline
210
0.0
220
0.0
230
1.0
 70
     8
 71
     2
 72
    12
 73
     9
 74
     0
 42
0.0000000119502387
 43
0.0000000001
 40
0.0
 40
0.0
 40
0.0
 40
0.125
 40
0.125
 40
0.25
 40
0.25
 40
0.5
 40
0.5
 40
1.0
 40
1.0
 40
1.0
 10
11.25983392082862
 20
348.0984142115568
 30
0.0
 10
11.24249228849872
 20
348.0981561933867
 30
0.0
 10
11.19646163288289
 20
348.0865166434106
 30
0.0
 10
11.13781226482834
 20
348.0716862604535
 30
0.0
 10
11.07936477481281
 20
348.056079744368
 30
0.0
 10
10.97612383985644
 20
348.0285125843128
 30
0.0
 10
10.85239398260131
 20
348.0151379982607
 30
0.0
 10
10.640832675771
 20
347.9922692666038
 30
0.0
 10
10.43961440575163
 20
348.0403691619283
 30
0.0
  0
LINE
  5
F9
330
75
100
AcDbEntity
  8
DV1_Standard
  6
Continuous
 62
     7
100
AcDbLine
 10
10.4396144058
 20
348.0403691619
 30
0.0
 11
10.0855977372
 21
348.0984142116
 31
0.0
  0
LINE
  5
FA
330
75
100
AcDbEntity
  8
DV1_Standard
  6
Continuous
 62
     7
100
AcDbLine
 10
9.2509711238
 20
348.0984142116
 30
0.0
 11
10.0855977372
 21
348.0984142116
 31
0.0
  0
LINE
  5
FB
330
75
100
AcDbEntity
  8
DV1_Standard
  6
Continuous
 62
     7
100
AcDbLine
 10
9.2508491768
 20
348.0984142116
 30
0.0
 11
9.2509711238
 21
348.0984142116
 31
0.0
  0
LINE
  5
FC
330
75
100
AcDbEntity
  8
DV1_Standard
  6
Continuous
 62
     7
100
AcDbLine
 10
11.8395640298
 20
340.5190024327
 30
0.0
 11
11.9484004586
 21
340.5164801463
 31
0.0
  0
LINE
  5
FD
330
75
100
AcDbEntity
  8
DV1_Standard
  6
Continuous
 62
     7
100
AcDbLine
 10
25.37646912
 20
345.9328410849
 30
0.0
 11
24.941836539
 21
345.9835379771
 31
0.0
  0
ELLIPSE
  5
FE
330
75
100
AcDbEntity
  8
DV1_Standard
  6
Continuous
 62
     7
100
AcDbEllipse
 10
11.9484004586
 20
340.5348040101
 30
0.0
 11
-0.01621815934611803
 21
-0.6998120971428018
 31
0.0
210
0.0
220
0.0
230
1.0
 40
0.0006066962
 41
0.0
 42
1.544623417170574
  0
ELLIPSE
  5
FF
330
75
100
AcDbEntity
  8
DV1_Standard
  6
Continuous
 62
     7
100
AcDbEllipse
 10
11.8395640298
 20
340.5373262965
 30
0.0
 11
-0.01621815934611803
 21
-0.6998120971428018
 31
0.0
210
0.0
220
0.0
230
1.0
 40
0.0006066962
 41
0.0000000000009862
 42
1.544623417170574
  0
ARC
  5
100
330
75
100
AcDbEntity
  8
DV1_Standard
  6
Continuous
 62
     7
100
AcDbCircle
 10
8.9009631725
 20
420.4813892312
 30
0.0
 40
72.38382065699909
100
AcDbArc
 50
269.723045335
 51
270.2769551157
  0
LINE
  5
101
330
75
100
AcDbEntity
  8
DV1_Standard
  6
Continuous
 62
     7
100
AcDbLine
 10
9.2538686386
 20
348.2644127204
 30
0.0
 11
9.2509711238
 21
348.0984142116
 31
0.0
  0
SPLINE
  5
102
330
75
100
AcDbEntity
  8
DV1_Standard
  6
Continuous
 62
     7
100
AcDbSpline
210
0.0
220
0.0
230
1.0
 70
     8
 71
     3
 72
    17
 73
    13
 74
     0
 42
0.0000000131924021
 43
0.0000000001
 40
0.0
 40
0.0
 40
0.0
 40
0.0
 40
0.0226118206305048
 40
0.0632065743894904
 40
0.1641325476010776
 40
0.4421050425136939
 40
0.5694693001446239
 40
0.7296820112652851
 40
0.8153790349564275
 40
0.8675868707484515
 40
0.9382746378429111
 40
1.0
 40
1.0
 40
1.0
 40
1.0
 10
9.253868638586932
 20
348.264412720415
 30
0.0
 10
9.245449030316975
 20
348.2646466226003
 30
0.0
 10
9.221913791596508
 20
348.2653004468154
 30
0.0
 10
9.161072949639443
 20
348.2702979129805
 30
0.0
 10
9.007211397621118
 20
348.2798911435411
 30
0.0
 10
8.832842722330646
 20
348.265166247963
 30
0.0
 10
8.69032766171475
 20
348.214513646063
 30
0.0
 10
8.620548858455729
 20
348.1711933949134
 30
0.0
 10
8.583184643873823
 20
348.1348832285935
 30
0.0
 10
8.56440344514213
 20
348.1116674850837
 30
0.0
 10
8.553152722577881
 20
348.0973784147885
 30
0.0
 10
8.551737468884449
 20
348.0980848861059
 30
0.0
 10
8.551077737556229
 20
348.0984142088046
 30
0.0
  0
ARC
  5
103
330
75
100
AcDbEntity
  8
DV1_Standard
  6
Continuous
 62
     7
100
AcDbCircle
 10
10.7944266225
 20
349.1705593296
 30
0.0
 40
1.000000000000213
100
AcDbArc
 50
252.6259135572
 51
295.269497421
  0
ARC
  5
104
330
75
100
AcDbEntity
  8
DV1_Standard
  6
Continuous
 62
     7
100
AcDbCircle
 10
10.7944267823
 20
349.1705590886
 30
0.0
 40
0.9999997138311575
100
AcDbArc
 50
295.2694950358
 51
336.0273774306
  0
ARC
  5
105
330
75
100
AcDbEntity
  8
DV1_Standard
  6
Continuous
 62
     7
100
AcDbCircle
 10
10.621403683
 20
349.0416040877
 30
0.0
 40
1.145772503332841
100
AcDbArc
 50
305.972483992
 51
343.1370503294
  0
LINE
  5
106
330
75
100
AcDbEntity
  8
DV1_Standard
  6
Continuous
 62
     7
100
AcDbLine
 10
11.2944266225
 20
348.0984142116
 30
0.0
 11
11.2944266225
 21
348.1143310614
 31
0.0
  0
LINE
  5
107
330
75
100
AcDbEntity
  8
DV1_Standard
  6
Continuous
 62
     7
100
AcDbLine
 10
11.7944266225
 20
348.0984142115
 30
0.0
 11
11.3620674638
 21
348.098434111
 31
0.0
  0
LINE
  5
108
330
75
100
AcDbEntity
  8
DV1_Standard
  6
Continuous
 62
     7
100
AcDbLine
 10
11.7944266225
 20
348.3559335304
 30
0.0
 11
11.7944266225
 21
348.0984142115
 31
0.0
  0
ARC
  5
109
330
75
100
AcDbEntity
  8
DV1_Standard
  6
Continuous
 62
     7
100
AcDbCircle
 10
10.6322247257
 20
349.0343658983
 30
0.0
 40
1.133567328707327
100
AcDbArc
 50
305.744741522
 51
323.3209075484
  0
ARC
  5
10A
330
75
100
AcDbEntity
  8
DV1_Standard
  6
Continuous
 62
     7
100
AcDbCircle
 10
13.1566793809
 20
348.80136177
 30
0.0
 40
1.397594511074894
100
AcDbArc
 50
221.5285321383
 51
253.6588104292
  0
LINE
  5
10B
330
75
100
AcDbEntity
  8
DV1_Standard
  6
Continuous
 62
     7
100
AcDbLine
 10
11.8471682796
 20
348.0984168341
 30
0.0
 11
11.9208042054
 21
348.0984142115
 31
0.0
  0
ARC
  5
10C
330
75
100
AcDbEntity
  8
DV1_Standard
  6
Continuous
 62
     7
100
AcDbCircle
 10
191.8634928087
 20
1793.3379257274
 30
0.0
 40
1456.947188083087
100
AcDbArc
 50
262.9479575747
 51
263.3375996203
  0
LINE
  5
10D
330
75
100
AcDbEntity
  8
DV1_Standard
  6
Continuous
 62
     7
100
AcDbLine
 10
12.7634568932
 20
347.4602255008
 30
0.0
 11
12.9928710507
 21
347.4124748361
 31
0.0
  0
SPLINE
  5
10E
330
75
100
AcDbEntity
  8
DV1_Standard
  6
Continuous
 62
     7
100
AcDbSpline
210
0.0
220
0.0
230
1.0
 70
     8
 71
     3
 72
    12
 73
     8
 74
     0
 42
0.0000000047034217
 43
0.0000000001
 40
0.0
 40
0.0
 40
0.0
 40
0.0
 40
0.5
 40
0.5
 40
0.75
 40
0.75
 40
1.0
 40
1.0
 40
1.0
 40
1.0
 10
22.83000033496732
 20
346.2295029457964
 30
0.0
 10
23.19165610831962
 20
346.1872620856558
 30
0.0
 10
23.55140250017521
 20
346.1452979820522
 30
0.0
 10
24.08434274842203
 20
346.0832280244265
 30
0.0
 10
24.25981591419131
 20
346.0628074026376
 30
0.0
 10
24.60549371740212
 20
346.0226094599578
 30
0.0
 10
24.77582433077506
 20
346.0028180158463
 30
0.0
 10
24.94183653896591
 20
345.9835379771025
 30
0.0
  0
ARC
  5
10F
330
75
100
AcDbEntity
  8
DV1_Standard
  6
Continuous
 62
     7
100
AcDbCircle
 10
9.2758155088
 20
347.7596588968
 30
0.0
 40
0.7999999990065126
100
AcDbArc
 50
92.5157342978
 51
154.9477777492
  0
LINE
  5
110
330
75
100
AcDbEntity
  8
DV1_Standard
  6
Continuous
 62
     7
100
AcDbLine
 10
9.2407005171
 20
348.5588878601
 30
0.0
 11
9.5147028524
 21
348.5231592799
 31
0.0
  0
ELLIPSE
  5
111
330
75
100
AcDbEntity
  8
DV1_Standard
  6
Continuous
 62
     7
100
AcDbEllipse
 10
10.4296363414
 20
348.004664501
 30
0.0
 11
-0.06618110030374991
 21
-0.2115193484785033
 31
0.0
210
0.0
220
0.0
230
0.9999999999999999
 40
0.0052121718
 41
3.141592653597562
 42
4.544407007353254
  0
LINE
  5
112
330
75
100
AcDbEntity
  8
DV1_Standard
  6
Continuous
 62
     7
100
AcDbLine
 10
9.5147028524
 20
348.5231592799
 30
0.0
 11
10.4958174417
 21
348.2161838495
 31
0.0
  0
ELLIPSE
  5
113
330
75
100
AcDbEntity
  8
DV1_Standard
  6
Continuous
 62
     7
100
AcDbEllipse
 10
9.4298350227
 20
348.2519158589
 30
0.0
 11
-0.08486782973175788
 21
-0.2712434209955483
 31
0.0
210
0.0
220
0.0
230
0.9999999999999999
 40
0.0052121718
 41
3.141592653589793
 42
4.695732061370297
  0
LINE
  5
114
330
75
100
AcDbEntity
  8
DV1_Standard
  6
Continuous
 62
     7
100
AcDbLine
 10
10.0855977372
 20
348.0984142116
 30
0.0
 11
9.4298350227
 21
348.256876014
 31
0.0
  0
LINE
  5
115
330
75
100
AcDbEntity
  8
DV1_Standard
  6
Continuous
 62
     7
100
AcDbLine
 10
9.4298350215
 20
348.2568760102
 30
0.0
 11
10.0855976669
 21
348.0984142116
 31
0.0
  0
LINE
  5
116
330
75
100
AcDbEntity
  8
DV1_Standard
  6
Continuous
 62
     7
100
AcDbLine
 10
58.8887856651
 20
342.4822298394
 30
0.0
 11
120.9063780984
 21
342.4822298394
 31
0.0
  0
LINE
  5
117
330
75
100
AcDbEntity
  8
DV1_Standard
  6
Continuous
 62
     7
100
AcDbLine
 10
11.3618580009
 20
348.0985337613
 30
0.0
 11
11.2944266225
 21
348.0984142115
 31
0.0
  0
LINE
  5
118
330
75
100
AcDbEntity
  8
DV1_Standard
  6
Continuous
 62
     7
100
AcDbLine
 10
168.0747428074
 20
348.5486559941
 30
0.0
 11
168.2094975432
 21
349.312888077
 31
0.0
  0
ARC
  5
119
330
75
100
AcDbEntity
  8
DV1_Standard
  6
Continuous
 62
     7
100
AcDbCircle
 10
166.8929735038
 20
348.7570338073
 30
0.0
 40
1.200000000020657
100
AcDbArc
 50
312.6742005798
 51
350.0
  0
ARC
  5
11A
330
75
100
AcDbEntity
  8
DV1_Standard
  6
Continuous
 62
     7
100
AcDbCircle
 10
166.6404206087
 20
348.8388608926
 30
0.0
 40
1.437259554435512
100
AcDbArc
 50
277.0522686774
 51
317.8723841942
  0
SPLINE
  5
11B
330
75
100
AcDbEntity
  8
DV1_Standard
  6
Continuous
 62
     7
100
AcDbSpline
210
0.0
220
0.0
230
1.0
 70
     8
 71
     3
 72
    11
 73
     7
 74
     0
 42
0.0000000002968185
 43
0.0000000001
 40
0.0
 40
0.0
 40
0.0
 40
0.0
 40
0.016572942516149
 40
0.4010881509055897
 40
0.7013519951074949
 40
1.0
 40
1.0
 40
1.0
 40
1.0
 10
25.37671364584915
 20
345.9348929080472
 30
0.0
 10
25.57999746983525
 20
345.9106280959768
 30
0.0
 10
29.82140132238342
 20
345.4044756034738
 30
0.0
 10
37.88299757956794
 20
344.5397990003005
 30
0.0
 10
48.98837828964025
 20
343.4009623841608
 30
0.0
 10
55.21527424079862
 20
342.8223429095761
 30
0.0
 10
58.88878566506433
 20
342.4822298394382
 30
0.0
  0
SPLINE
  5
11C
330
75
100
AcDbEntity
  8
DV1_Standard
  6
Continuous
 62
     7
100
AcDbSpline
210
0.0
220
0.0
230
1.0
 70
     8
 71
     3
 72
    11
 73
     7
 74
     0
 42
0.0000000002165587
 43
0.0000000001
 40
0.0
 40
0.0
 40
0.0
 40
0.0
 40
0.2775222659476647
 40
0.5569592663523266
 40
0.7778757608251444
 40
1.0
 40
1.0
 40
1.0
 40
1.0
 10
120.9063780983676
 20
342.4822298394382
 30
0.0
 10
125.5849693857812
 20
342.9178073058212
 30
0.0
 10
133.5113790658676
 20
343.6611004426288
 30
0.0
 10
145.5902496037823
 20
344.9296648065265
 30
0.0
 10
156.7979342327799
 20
346.1940699483736
 30
0.0
 10
163.0836757562281
 20
346.9572141179767
 30
0.0
 10
166.8168797958295
 20
347.4124748360932
 30
0.0
  0
ENDBLK
  5
11E
330
75
100
AcDbEntity
  8
0
100
AcDbBlockEnd
  0
BLOCK
  5
1E1
330
11F
100
AcDbEntity
  8
0
100
AcDbBlockBegin
  2
SE1
 70
     0
 10
0.0
 20
0.0
 30
0.0
  3
SE1
  1

  0
LINE
  5
122
330
11F
100
AcDbEntity
  8
DV2_Standard
  6
Continuous
 62
     7
100
AcDbLine
 10
317.7797754018
 20
348.8388608926
 30
0.0
 11
321.6057158885
 21
348.8388608926
 31
0.0
  0
LINE
  5
123
330
11F
100
AcDbEntity
  8
DV2_Standard
  6
Continuous
 62
     7
100
AcDbLine
 10
339.0952667436
 20
337.8236253442
 30
0.0
 11
300.2902245467
 21
337.8236253442
 31
0.0
  0
SPLINE
  5
124
330
11F
100
AcDbEntity
  8
DV2_Standard
  6
Continuous
 62
     7
100
AcDbSpline
210
0.0
220
0.0
230
1.0
 70
     8
 71
     3
 72
    26
 73
    22
 74
     0
 42
0.0000000039796506
 43
0.0000000001
 40
0.0
 40
0.0
 40
0.0
 40
0.0
 40
0.1483414317611299
 40
0.1483414317611299
 40
0.1483414317611299
 40
0.2966243373331791
 40
0.2966243373331791
 40
0.2966243373331791
 40
0.4457421495023947
 40
0.4457421495023947
 40
0.4457421495023947
 40
0.5952682208990988
 40
0.5952682208990988
 40
0.5952682208990988
 40
0.7441697908583084
 40
0.7441697908583084
 40
0.7441697908583084
 40
0.8915785513768041
 40
0.8915785513768041
 40
0.8915785513768041
 40
1.0
 40
1.0
 40
1.0
 40
1.0
 10
335.9500714861946
 20
337.3579543516944
 30
0.0
 10
335.822583659645
 20
337.3405149312115
 30
0.0
 10
335.6742353853092
 20
337.320017669828
 30
0.0
 10
335.5175090023906
 20
337.2980548302245
 30
0.0
 10
335.3608203800887
 20
337.2760972822022
 30
0.0
 10
335.1914532670398
 20
337.2520663580256
 30
0.0
 10
335.0233219790389
 20
337.2278520860441
 30
0.0
 10
334.8542628502502
 20
337.203504186411
 30
0.0
 10
334.6817995992855
 20
337.1782976214905
 30
0.0
 10
334.5201472241094
 20
337.1543174069811
 30
0.0
 10
334.3580784876512
 20
337.1302754276331
 30
0.0
 10
334.2023805527143
 20
337.1068007310957
 30
0.0
 10
334.0661427237625
 20
337.085981165598
 30
0.0
 10
333.9304841991861
 20
337.0652501281212
 30
0.0
 10
333.8103402952732
 20
337.0465812697617
 30
0.0
 10
333.7160709739861
 20
337.0317633571017
 30
0.0
 10
333.6227401142114
 20
337.0170929584
 30
0.0
 10
333.5521766704687
 20
337.0057993912143
 30
0.0
 10
333.5105778989708
 20
336.9990246148015
 30
0.0
 10
333.4799750677888
 20
336.9940406373572
 30
0.0
 10
333.4644174947674
 20
336.9914029398261
 30
0.0
 10
333.4644115873616
 20
336.9912156153072
 30
0.0
  0
SPLINE
  5
125
330
11F
100
AcDbEntity
  8
DV2_Standard
  6
Continuous
 62
     7
100
AcDbSpline
210
0.0
220
0.0
230
1.0
 70
     8
 71
     3
 72
    14
 73
    10
 74
     0
 42
0.0000000192663614
 43
0.0000000001
 40
0.0
 40
0.0
 40
0.0
 40
0.0
 40
0.3703017029505827
 40
0.3703017029505827
 40
0.3703017029505827
 40
0.7617698944234417
 40
0.7617698944234417
 40
0.7617698944234417
 40
0.9999999999999999
 40
0.9999999999999999
 40
0.9999999999999999
 40
0.9999999999999999
 10
336.4643145667362
 20
337.4266597785882
 30
0.0
 10
336.4643133208594
 20
337.426859908492
 30
0.0
 10
336.438952416322
 20
337.4236435985725
 30
0.0
 10
336.3900650310831
 20
337.4172162255409
 30
0.0
 10
336.3383773803277
 20
337.4104206930962
 30
0.0
 10
336.2589916861072
 20
337.3998490864204
 30
0.0
 10
336.1585980868927
 20
337.3862968946021
 30
0.0
 10
336.0969574506132
 20
337.3779759883571
 30
0.0
 10
336.0267096565437
 20
337.3684379038417
 30
0.0
 10
335.9500714861946
 20
337.3579543516944
 30
0.0
  0
SPLINE
  5
126
330
11F
100
AcDbEntity
  8
DV2_Standard
  6
Continuous
 62
     7
100
AcDbSpline
210
0.0
220
0.0
230
1.0
 70
     8
 71
     3
 72
    26
 73
    22
 74
     0
 42
0.0000000039529404
 43
0.0000000001
 40
0.0
 40
0.0
 40
0.0
 40
0.0
 40
0.1462869186073227
 40
0.1462869186073227
 40
0.1462869186073227
 40
0.2925239960883335
 40
0.2925239960883335
 40
0.2925239960883335
 40
0.4395250620579519
 40
0.4395250620579519
 40
0.4395250620579519
 40
0.5878955971798259
 40
0.5878955971798259
 40
0.5878955971798259
 40
0.7374516439718959
 40
0.7374516439718959
 40
0.7374516439718959
 40
0.8874855485432401
 40
0.8874855485432401
 40
0.8874855485432401
 40
0.9999999999999999
 40
0.9999999999999999
 40
0.9999999999999999
 40
0.9999999999999999
 10
332.2762430285001
 20
337.4242734690324
 30
0.0
 10
332.1494352627845
 20
337.4208111782327
 30
0.0
 10
332.0022300587964
 20
337.4134677321229
 30
0.0
 10
331.8469395385349
 20
337.4028021856047
 30
0.0
 10
331.6916793513227
 20
337.3921387223982
 30
0.0
 10
331.5240869677904
 20
337.3778607724322
 30
0.0
 10
331.3579500350918
 20
337.3610453548638
 30
0.0
 10
331.1909405968592
 20
337.3441416273414
 30
0.0
 10
331.0208520846841
 20
337.3242096859842
 30
0.0
 10
330.8614924706542
 20
337.3027613338015
 30
0.0
 10
330.7006663697604
 20
337.2811156058475
 30
0.0
 10
330.5463757533665
 20
337.2573300044936
 30
0.0
 10
330.411138819399
 20
337.2332620875487
 30
0.0
 10
330.2748441709663
 20
337.2090059307262
 30
0.0
 10
330.154157585163
 20
337.1837930408196
 30
0.0
 10
330.0590240020848
 20
337.1596990337507
 30
0.0
 10
329.9636021687231
 20
337.1355320229732
 30
0.0
 10
329.8912542160737
 20
337.1118217797175
 30
0.0
 10
329.8481931922018
 20
337.0906651205965
 30
0.0
 10
329.8159033163703
 20
337.0748005211374
 30
0.0
 10
329.7994166551529
 20
337.0600429776495
 30
0.0
 10
329.799402043458
 20
337.0471698493787
 30
0.0
  0
SPLINE
  5
127
330
11F
100
AcDbEntity
  8
DV2_Standard
  6
Continuous
 62
     7
100
AcDbSpline
210
0.0
220
0.0
230
1.0
 70
     8
 71
     3
 72
    14
 73
    10
 74
     0
 42
0.0000000184759402
 43
0.0000000001
 40
0.0
 40
0.0
 40
0.0
 40
0.0
 40
0.3702913090872324
 40
0.3702913090872324
 40
0.3702913090872324
 40
0.7612839246648381
 40
0.7612839246648381
 40
0.7612839246648381
 40
1.0
 40
1.0
 40
1.0
 40
1.0
 10
332.7993062685164
 20
337.377633001648
 30
0.0
 10
332.7993107914714
 20
337.391744006703
 30
0.0
 10
332.7737460334533
 20
337.4032851851332
 30
0.0
 10
332.7242019466233
 20
337.4114539473459
 30
0.0
 10
332.6718803339019
 20
337.4200806642814
 30
0.0
 10
332.5913546005511
 20
337.4251888915451
 30
0.0
 10
332.4892814481103
 20
337.4263866141511
 30
0.0
 10
332.4263962903901
 20
337.4271245062724
 30
0.0
 10
332.3546086755376
 20
337.4264131223669
 30
0.0
 10
332.2762430285001
 20
337.4242734690324
 30
0.0
  0
SPLINE
  5
128
330
11F
100
AcDbEntity
  8
DV2_Standard
  6
Continuous
 62
     7
100
AcDbSpline
210
0.0
220
0.0
230
1.0
 70
     8
 71
     3
 72
    26
 73
    22
 74
     0
 42
0.0000000039431059
 43
0.0000000001
 40
0.0
 40
0.0
 40
0.0
 40
0.0
 40
0.1460048237112793
 40
0.1460048237112793
 40
0.1460048237112793
 40
0.29203915985378
 40
0.29203915985378
 40
0.29203915985378
 40
0.4376982990268206
 40
0.4376982990268206
 40
0.4376982990268206
 40
0.5836144301375474
 40
0.5836144301375474
 40
0.5836144301375474
 40
0.7305070000078713
 40
0.7305070000078713
 40
0.7305070000078713
 40
0.8787555717934556
 40
0.8787555717934556
 40
0.8787555717934556
 40
1.0
 40
1.0
 40
1.0
 40
1.0
 10
323.1861085592944
 20
337.3967634751924
 30
0.0
 10
323.0603939850349
 20
337.4085954409225
 30
0.0
 10
322.9140998709511
 20
337.4172361737876
 30
0.0
 10
322.7592266615294
 20
337.4220313679619
 30
0.0
 10
322.604333356857
 20
337.4268271843267
 30
0.0
 10
322.4365880297302
 20
337.4279089490819
 30
0.0
 10
322.2699432546115
 20
337.4251943057155
 30
0.0
 10
322.1037082307197
 20
337.4224863371965
 30
0.0
 10
321.9340005160549
 20
337.4159264675604
 30
0.0
 10
321.7748035990619
 20
337.4060102158762
 30
0.0
 10
321.6153133101982
 20
337.3960756902872
 30
0.0
 10
321.4620107244379
 20
337.3824996297608
 30
0.0
 10
321.3273209822731
 20
337.3663024240785
 30
0.0
 10
321.1917318854914
 20
337.3499970659008
 30
0.0
 10
321.0713018309366
 20
337.3305880104551
 30
0.0
 10
320.9756479633537
 20
337.3095447786715
 30
0.0
 10
320.8791211515926
 20
337.2883095048185
 30
0.0
 10
320.8051814387933
 20
337.26482617375
 30
0.0
 10
320.7597000531457
 20
337.2409210888489
 30
0.0
 10
320.722509412585
 20
337.2213736320714
 30
0.0
 10
320.7035190013323
 20
337.2011064166086
 30
0.0
 10
320.7035221901975
 20
337.1812189054389
 30
0.0
  0
SPLINE
  5
129
330
11F
100
AcDbEntity
  8
DV2_Standard
  6
Continuous
 62
     7
100
AcDbSpline
210
0.0
220
0.0
230
1.0
 70
     8
 71
     3
 72
    14
 73
    10
 74
     0
 42
0.0000000178618559
 43
0.0000000001
 40
0.0
 40
0.0
 40
0.0
 40
0.0
 40
0.3519914953470338
 40
0.3519914953470338
 40
0.3519914953470338
 40
0.7503536616438194
 40
0.7503536616438194
 40
0.7503536616438194
 40
1.0
 40
1.0
 40
1.0
 40
1.0
 10
323.703438164875
 20
337.2525706891764
 30
0.0
 10
323.7034465900925
 20
337.2736854325706
 30
0.0
 10
323.6807623771633
 20
337.2942500900998
 30
0.0
 10
323.6365370643111
 20
337.3129817132778
 30
0.0
 10
323.5864885415461
 20
337.3341797559504
 30
0.0
 10
323.5074333919588
 20
337.3536261709884
 30
0.0
 10
323.4057897189726
 20
337.3697978090079
 30
0.0
 10
323.3415316968423
 20
337.3800213422905
 30
0.0
 10
323.2674665314304
 20
337.3891062505321
 30
0.0
 10
323.1861085592944
 20
337.3967634751924
 30
0.0
  0
SPLINE
  5
12A
330
11F
100
AcDbEntity
  8
DV2_Standard
  6
Continuous
 62
     7
100
AcDbSpline
210
0.0
220
0.0
230
1.0
 70
     8
 71
     3
 72
    26
 73
    22
 74
     0
 42
0.000000003992983
 43
0.0000000001
 40
0.0
 40
0.0
 40
0.0
 40
0.0
 40
0.1493430660211733
 40
0.1493430660211733
 40
0.1493430660211733
 40
0.2987553468396548
 40
0.2987553468396548
 40
0.2987553468396548
 40
0.4471466660734955
 40
0.4471466660734955
 40
0.4471466660734955
 40
0.5943322702005174
 40
0.5943322702005174
 40
0.5943322702005174
 40
0.7409442148816131
 40
0.7409442148816131
 40
0.7409442148816131
 40
0.8878032040774203
 40
0.8878032040774203
 40
0.8878032040774203
 40
0.9999999999999999
 40
0.9999999999999999
 40
0.9999999999999999
 40
0.9999999999999999
 10
312.9013157104052
 20
337.2879394351761
 30
0.0
 10
312.7730190338211
 20
337.3103274606332
 30
0.0
 10
312.6240458461045
 20
337.331441338267
 30
0.0
 10
312.4665601205485
 20
337.3496502110268
 30
0.0
 10
312.3090313559371
 20
337.3678640600642
 30
0.0
 10
312.1386072373817
 20
337.383679225927
 30
0.0
 10
311.969555039938
 20
337.395870554892
 30
0.0
 10
311.8016507108181
 20
337.4079791044518
 30
0.0
 10
311.6304224334869
 20
337.4168529566779
 30
0.0
 10
311.4703060604041
 20
337.421807708216
 30
0.0
 10
311.3114647140461
 20
337.4267230044473
 30
0.0
 10
311.1591563496027
 20
337.4279196760825
 30
0.0
 10
311.0260978804382
 20
337.4253063855456
 30
0.0
 10
310.8935385208122
 20
337.4227028976033
 30
0.0
 10
310.7764319532246
 20
337.4162469324712
 30
0.0
 10
310.6843448350614
 20
337.4064262210234
 30
0.0
 10
310.5920952083977
 20
337.3965881787141
 30
0.0
 10
310.5224173022151
 20
337.3831033777859
 30
0.0
 10
310.4807898063699
 20
337.3669853516942
 30
0.0
 10
310.4489878006133
 20
337.3546717222494
 30
0.0
 10
310.4328890004016
 20
337.3405647849762
 30
0.0
 10
310.4329016019574
 20
337.325304442275
 30
0.0
  0
SPLINE
  5
12B
330
11F
100
AcDbEntity
  8
DV2_Standard
  6
Continuous
 62
     7
100
AcDbSpline
210
0.0
220
0.0
230
1.0
 70
     8
 71
     3
 72
    14
 73
    10
 74
     0
 42
0.0000000171911875
 43
0.0000000001
 40
0.0
 40
0.0
 40
0.0
 40
0.0
 40
0.3598981942858082
 40
0.3598981942858082
 40
0.3598981942858082
 40
0.7515049838579109
 40
0.7515049838579109
 40
0.7515049838579109
 40
1.0
 40
1.0
 40
1.0
 40
1.0
 10
313.4328123013607
 20
337.104737381988
 30
0.0
 10
313.4328114741841
 20
337.124982628352
 30
0.0
 10
313.4080740555026
 20
337.1470723080725
 30
0.0
 10
313.3603379349002
 20
337.1693838573902
 30
0.0
 10
313.3084066448473
 20
337.193656201362
 30
0.0
 10
313.2278243153014
 20
337.2188572780777
 30
0.0
 10
313.1252119285567
 20
337.2429268995125
 30
0.0
 10
313.0595485437527
 20
337.2583294533806
 30
0.0
 10
312.9840634236176
 20
337.2734997944992
 30
0.0
 10
312.9013157104052
 20
337.2879394351761
 30
0.0
  0
SPLINE
  5
12C
330
11F
100
AcDbEntity
  8
DV2_Standard
  6
Continuous
 62
     7
100
AcDbSpline
210
0.0
220
0.0
230
1.0
 70
     8
 71
     3
 72
    26
 73
    22
 74
     0
 42
0.0000000040469811
 43
0.0000000001
 40
0.0
 40
0.0
 40
0.0
 40
0.0
 40
0.151924246918673
 40
0.151924246918673
 40
0.151924246918673
 40
0.3038541863385084
 40
0.3038541863385084
 40
0.3038541863385084
 40
0.4556266636581785
 40
0.4556266636581785
 40
0.4556266636581785
 40
0.6063570973481596
 40
0.6063570973481596
 40
0.6063570973481596
 40
0.7556749405807907
 40
0.7556749405807907
 40
0.7556749405807907
 40
0.9037858652978501
 40
0.9037858652978501
 40
0.9037858652978501
 40
1.0
 40
1.0
 40
1.0
 40
1.0
 10
306.2400660977764
 20
337.1432726178562
 30
0.0
 10
306.1084929807721
 20
337.1669974722662
 30
0.0
 10
305.9565581632995
 20
337.1921760443597
 30
0.0
 10
305.796865738871
 20
337.2166986470304
 30
0.0
 10
305.6371718813598
 20
337.2412214697674
 30
0.0
 10
305.4652932734631
 20
337.2657701676845
 30
0.0
 10
305.2954876073681
 20
337.2883767744941
 30
0.0
 10
305.1258757395678
 20
337.3109575805047
 30
0.0
 10
304.9536078564607
 20
337.3322338755302
 30
0.0
 10
304.7932072343184
 20
337.3505315057606
 30
0.0
 10
304.6339051637119
 20
337.368703819209
 30
0.0
 10
304.4818640583737
 20
337.3844501162028
 30
0.0
 10
304.3500512591015
 20
337.3965448312985
 30
0.0
 10
304.2194583640807
 20
337.4085276119353
 30
0.0
 10
304.1050870696208
 20
337.4172634939566
 30
0.0
 10
304.0166934670679
 20
337.4220788198291
 30
0.0
 10
303.9289999537277
 20
337.4268560076735
 30
0.0
 10
303.8644432149572
 20
337.4279089366011
 30
0.0
 10
303.8284279834448
 20
337.425157256613
 30
0.0
 10
303.8050287580805
 20
337.4233694802343
 30
0.0
 10
303.7932525108238
 20
337.4199438886532
 30
0.0
 10
303.7932578465969
 20
337.4150185745961
 30
0.0
  0
SPLINE
  5
12D
330
11F
100
AcDbEntity
  8
DV2_Standard
  6
Continuous
 62
     7
100
AcDbSpline
210
0.0
220
0.0
230
1.0
 70
     8
 71
     3
 72
    17
 73
    13
 74
     0
 42
0.0000000173370281
 43
0.0000000001
 40
0.0
 40
0.0
 40
0.0
 40
0.0
 40
0.0138162058032275
 40
0.0138162058032275
 40
0.0138162058032275
 40
0.3882799963825766
 40
0.3882799963825766
 40
0.3882799963825766
 40
0.7657399638042969
 40
0.7657399638042969
 40
0.7657399638042969
 40
1.0
 40
1.0
 40
1.0
 40
1.0
 10
306.7931309790353
 20
337.004685602709
 30
0.0
 10
306.7931309404827
 20
337.0050053786775
 30
0.0
 10
306.7930925312487
 20
337.0053306044143
 30
0.0
 10
306.7930156483534
 20
337.0056612546803
 30
0.0
 10
306.7909315561095
 20
337.0146243101489
 30
0.0
 10
306.7605481185095
 20
337.0278061004138
 30
0.0
 10
306.7045966345412
 20
337.0439390822174
 30
0.0
 10
306.6481979688195
 20
337.0602010038556
 30
0.0
 10
306.5643133729994
 20
337.0798909983397
 30
0.0
 10
306.4599660234784
 20
337.1012286763234
 30
0.0
 10
306.3946488328548
 20
337.1145851936353
 30
0.0
 10
306.3205573865476
 20
337.1287586795164
 30
0.0
 10
306.2400660977764
 20
337.1432726178562
 30
0.0
  0
LINE
  5
12E
330
11F
100
AcDbEntity
  8
DV2_Standard
  6
Continuous
 62
     7
100
AcDbLine
 10
313.6810928634
 20
336.1451637634
 30
0.0
 11
313.4328229049
 21
336.1451637634
 31
0.0
  0
LINE
  5
12F
330
11F
100
AcDbEntity
  8
DV2_Standard
  6
Continuous
 62
     7
100
AcDbLine
 10
306.8911835514
 20
336.1451637634
 30
0.0
 11
306.7931340872
 21
336.1451637634
 31
0.0
  0
LINE
  5
130
330
11F
100
AcDbEntity
  8
DV2_Standard
  6
Continuous
 62
     7
100
AcDbLine
 10
323.9857879947
 20
336.1451637634
 30
0.0
 11
323.7034658147
 21
336.1451637634
 31
0.0
  0
LINE
  5
131
330
11F
100
AcDbEntity
  8
DV2_Standard
  6
Continuous
 62
     7
100
AcDbLine
 10
332.9835875694
 20
336.1451637634
 30
0.0
 11
332.7993148535
 21
336.1451637634
 31
0.0
  0
LINE
  5
132
330
11F
100
AcDbEntity
  8
DV2_Standard
  6
Continuous
 62
     7
100
AcDbLine
 10
303.7931340872
 20
336.1451637634
 30
0.0
 11
306.7931340872
 21
336.1451637634
 31
0.0
  0
LINE
  5
133
330
11F
100
AcDbEntity
  8
DV2_Standard
  6
Continuous
 62
     7
100
AcDbLine
 10
310.4328229049
 20
336.1451637634
 30
0.0
 11
313.4328229049
 21
336.1451637634
 31
0.0
  0
LINE
  5
134
330
11F
100
AcDbEntity
  8
DV2_Standard
  6
Continuous
 62
     7
100
AcDbLine
 10
320.7034658147
 20
336.1451637634
 30
0.0
 11
323.7034658147
 21
336.1451637634
 31
0.0
  0
LINE
  5
135
330
11F
100
AcDbEntity
  8
DV2_Standard
  6
Continuous
 62
     7
100
AcDbLine
 10
329.7993148535
 20
336.1451637634
 30
0.0
 11
332.7993148535
 21
336.1451637634
 31
0.0
  0
LINE
  5
136
330
11F
100
AcDbEntity
  8
DV2_Standard
  6
Continuous
 62
     7
100
AcDbLine
 10
333.4643211672
 20
336.1451637634
 30
0.0
 11
336.4643211672
 21
336.1451637634
 31
0.0
  0
ARC
  5
137
330
11F
100
AcDbEntity
  8
DV2_Standard
  6
Continuous
 62
     7
100
AcDbCircle
 10
262.4143367062
 20
837.0082390116
 30
0.0
 40
505.039843530782
100
AcDbArc
 50
278.428685253
 51
278.7330765101
  0
ARC
  5
138
330
11F
100
AcDbEntity
  8
DV2_Standard
  6
Continuous
 62
     7
100
AcDbCircle
 10
262.4143367062
 20
837.0082390116
 30
0.0
 40
505.039843530782
100
AcDbArc
 50
278.0111147077
 51
278.0883499998
  0
ARC
  5
139
330
11F
100
AcDbEntity
  8
DV2_Standard
  6
Continuous
 62
     7
100
AcDbCircle
 10
376.9711545841
 20
837.0082390116
 30
0.0
 40
505.039843530782
100
AcDbArc
 50
261.2669234899
 51
261.6687698503
  0
ARC
  5
13A
330
11F
100
AcDbEntity
  8
DV2_Standard
  6
Continuous
 62
     7
100
AcDbCircle
 10
376.9711545841
 20
837.0082390116
 30
0.0
 40
505.039843530782
100
AcDbArc
 50
262.0125949299
 51
262.2797118492
  0
LINE
  5
13B
330
11F
100
AcDbEntity
  8
DV2_Standard
  6
Continuous
 62
     7
100
AcDbLine
 10
299.2724222826
 20
339.2400743177
 30
0.0
 11
299.2724222826
 21
339.0097130244
 31
0.0
  0
LINE
  5
13C
330
11F
100
AcDbEntity
  8
DV2_Standard
  6
Continuous
 62
     7
100
AcDbLine
 10
340.1130690077
 20
339.0097130244
 30
0.0
 11
340.1130690077
 21
339.2400743177
 31
0.0
  0
LINE
  5
13D
330
11F
100
AcDbEntity
  8
DV2_Standard
  6
Continuous
 62
     7
100
AcDbLine
 10
313.6810928634
 20
336.1451637634
 30
0.0
 11
313.6810928634
 21
336.5416991394
 31
0.0
  0
LINE
  5
13E
330
11F
100
AcDbEntity
  8
DV2_Standard
  6
Continuous
 62
     7
100
AcDbLine
 10
306.8911835514
 20
336.1451637634
 30
0.0
 11
306.8911835514
 21
336.8542215193
 31
0.0
  0
LINE
  5
13F
330
11F
100
AcDbEntity
  8
DV2_Standard
  6
Continuous
 62
     7
100
AcDbLine
 10
323.9857879947
 20
336.1451637634
 30
0.0
 11
323.9857879947
 21
336.5416991394
 31
0.0
  0
LINE
  5
140
330
11F
100
AcDbEntity
  8
DV2_Standard
  6
Continuous
 62
     7
100
AcDbLine
 10
332.9835875694
 20
336.1451637634
 30
0.0
 11
332.9835875694
 21
336.9230218873
 31
0.0
  0
LINE
  5
141
330
11F
100
AcDbEntity
  8
DV2_Standard
  6
Continuous
 62
     7
100
AcDbLine
 10
303.7931340872
 20
337.4126022048
 30
0.0
 11
303.7931340872
 21
336.1451637634
 31
0.0
  0
LINE
  5
142
330
11F
100
AcDbEntity
  8
DV2_Standard
  6
Continuous
 62
     7
100
AcDbLine
 10
306.7931340872
 20
336.1451637634
 30
0.0
 11
306.7931340872
 21
337.0051220955
 31
0.0
  0
LINE
  5
143
330
11F
100
AcDbEntity
  8
DV2_Standard
  6
Continuous
 62
     7
100
AcDbLine
 10
310.4328229049
 20
337.3241404482
 30
0.0
 11
310.4328229049
 21
336.1451637634
 31
0.0
  0
LINE
  5
144
330
11F
100
AcDbEntity
  8
DV2_Standard
  6
Continuous
 62
     7
100
AcDbLine
 10
313.4328229049
 20
336.1451637634
 30
0.0
 11
313.4328229049
 21
337.1051079232
 31
0.0
  0
LINE
  5
145
330
11F
100
AcDbEntity
  8
DV2_Standard
  6
Continuous
 62
     7
100
AcDbLine
 10
320.7034658147
 20
337.1813853674
 30
0.0
 11
320.7034658147
 21
336.1451637634
 31
0.0
  0
LINE
  5
146
330
11F
100
AcDbEntity
  8
DV2_Standard
  6
Continuous
 62
     7
100
AcDbLine
 10
323.7034658147
 20
336.1451637634
 30
0.0
 11
323.7034658147
 21
337.2522749204
 31
0.0
  0
LINE
  5
147
330
11F
100
AcDbEntity
  8
DV2_Standard
  6
Continuous
 62
     7
100
AcDbLine
 10
329.7993148535
 20
337.0489297639
 30
0.0
 11
329.7993148535
 21
336.1451637634
 31
0.0
  0
LINE
  5
148
330
11F
100
AcDbEntity
  8
DV2_Standard
  6
Continuous
 62
     7
100
AcDbLine
 10
332.7993148535
 20
336.1451637634
 30
0.0
 11
332.7993148535
 21
337.3771040229
 31
0.0
  0
LINE
  5
149
330
11F
100
AcDbEntity
  8
DV2_Standard
  6
Continuous
 62
     7
100
AcDbLine
 10
333.4643211672
 20
336.9937307447
 30
0.0
 11
333.4643211672
 21
336.1451637634
 31
0.0
  0
LINE
  5
14A
330
11F
100
AcDbEntity
  8
DV2_Standard
  6
Continuous
 62
     7
100
AcDbLine
 10
336.4643211672
 20
336.1451637634
 30
0.0
 11
336.4643211672
 21
337.4260707702
 31
0.0
  0
ARC
  5
14B
330
11F
100
AcDbEntity
  8
DV2_Standard
  6
Continuous
 62
     7
100
AcDbCircle
 10
309.1927456451
 20
337.0416991394
 30
0.0
 40
0.4999999999999903
100
AcDbArc
 50
262.2797118492
 51
270.0
  0
LINE
  5
14C
330
11F
100
AcDbEntity
  8
DV2_Standard
  6
Continuous
 62
     7
100
AcDbLine
 10
309.1927456451
 20
336.5416991394
 30
0.0
 11
310.4328229049
 21
336.5416991394
 31
0.0
  0
LINE
  5
14D
330
11F
100
AcDbEntity
  8
DV2_Standard
  6
Continuous
 62
     7
100
AcDbLine
 10
313.4328229049
 20
336.5416991394
 30
0.0
 11
320.7034658147
 21
336.5416991394
 31
0.0
  0
LINE
  5
14E
330
11F
100
AcDbEntity
  8
DV2_Standard
  6
Continuous
 62
     7
100
AcDbLine
 10
323.7034658147
 20
336.5416991394
 30
0.0
 11
329.7993148535
 21
336.5416991394
 31
0.0
  0
ARC
  5
14F
330
11F
100
AcDbEntity
  8
DV2_Standard
  6
Continuous
 62
     7
100
AcDbCircle
 10
338.9130690077
 20
339.0097130244
 30
0.0
 40
1.199999999999938
100
AcDbArc
 50
278.7330765101
 51
0.0
  0
ARC
  5
150
330
11F
100
AcDbEntity
  8
DV2_Standard
  6
Continuous
 62
     7
100
AcDbCircle
 10
300.4724222826
 20
339.0097130244
 30
0.0
 40
1.199999999999979
100
AcDbArc
 50
180.0
 51
261.2669234899
  0
LINE
  5
151
330
11F
100
AcDbEntity
  8
DV2_Standard
  6
Continuous
 62
     7
100
AcDbLine
 10
349.4033630364
 20
341.3759485609
 30
0.0
 11
320.8756610133
 21
341.3759485609
 31
0.0
  0
LINE
  5
152
330
11F
100
AcDbEntity
  8
DV2_Standard
  6
Continuous
 62
     7
100
AcDbLine
 10
318.5095580328
 20
341.3759485609
 30
0.0
 11
289.9821282539
 21
341.3759485609
 31
0.0
  0
LINE
  5
153
330
11F
100
AcDbEntity
  8
DV2_Standard
  6
Continuous
 62
     7
100
AcDbLine
 10
340.2627456451
 20
339.2744855509
 30
0.0
 11
299.1227456451
 21
339.2744855509
 31
0.0
  0
LINE
  5
154
330
11F
100
AcDbEntity
  8
DV2_Standard
  6
Continuous
 62
     7
100
AcDbLine
 10
289.9821282539
 20
341.3759485609
 30
0.0
 11
299.1227456451
 21
339.2744855509
 31
0.0
  0
LINE
  5
155
330
11F
100
AcDbEntity
  8
DV2_Standard
  6
Continuous
 62
     7
100
AcDbLine
 10
340.2627456451
 20
339.2744855509
 30
0.0
 11
349.4033630364
 21
341.3759485609
 31
0.0
  0
ARC
  5
156
330
11F
100
AcDbEntity
  8
DV2_Standard
  6
Continuous
 62
     7
100
AcDbCircle
 10
269.2733159315
 20
228.0092243923
 30
0.0
 40
115.1712548807302
100
AcDbArc
 50
75.4187873679
 51
78.6861607275
  0
SPLINE
  5
157
330
11F
100
AcDbEntity
  8
DV2_Standard
  6
Continuous
 62
     7
100
AcDbSpline
210
0.0
220
0.0
230
1.0
 70
    11
 71
     3
 72
    22
 73
    18
 74
     0
 42
0.0000000007330587
 43
0.0000000001
 40
0.0
 40
0.0
 40
0.0
 40
0.0
 40
0.125
 40
0.125
 40
0.2499999999999999
 40
0.2499999999999999
 40
0.3749999999999999
 40
0.3749999999999999
 40
0.4999999999999999
 40
0.4999999999999999
 40
0.6249999999999999
 40
0.6249999999999999
 40
0.7499999999999998
 40
0.7499999999999998
 40
0.8749999999999998
 40
0.8749999999999998
 40
1.0
 40
1.0
 40
1.0
 40
1.0
 10
303.0802705084747
 20
339.4745989112921
 30
0.0
 10
302.4713095984883
 20
339.4953939940199
 30
0.0
 10
301.636545744017
 20
339.6085505493062
 30
0.0
 10
299.9547434655273
 20
339.9319061703029
 30
0.0
 10
299.142443203234
 20
340.13326114002
 30
0.0
 10
297.9767223284005
 20
340.5041049361268
 30
0.0
 10
297.6288098825948
 20
340.6744838503317
 30
0.0
 10
297.6251214760262
 20
340.8994333610956
 30
0.0
 10
297.9774476877372
 20
340.9555686302048
 30
0.0
 10
299.182034212621
 20
340.9235871784611
 30
0.0
 10
300.0305603181943
 20
340.8363637068378
 30
0.0
 10
301.7025372611494
 20
340.5632996285028
 30
0.0
 10
302.5198215500145
 20
340.3785391137826
 30
0.0
 10
303.6946518425207
 20
339.9949242515606
 30
0.0
 10
304.0313426537369
 20
339.8027090139366
 30
0.0
 10
304.032376883558
 20
339.5291135169791
 30
0.0
 10
303.6892314184609
 20
339.4538038285642
 30
0.0
 10
303.0802705084747
 20
339.4745989112921
 30
0.0
  0
SPLINE
  5
158
330
11F
100
AcDbEntity
  8
DV2_Standard
  6
Continuous
 62
     7
100
AcDbSpline
210
0.0
220
0.0
230
1.0
 70
    11
 71
     3
 72
    22
 73
    18
 74
     0
 42
0.0000000007189345
 43
0.0000000001
 40
0.0
 40
0.0
 40
0.0
 40
0.0
 40
0.125
 40
0.125
 40
0.25
 40
0.25
 40
0.375
 40
0.375
 40
0.5
 40
0.5
 40
0.625
 40
0.625
 40
0.75
 40
0.75
 40
0.875
 40
0.875
 40
1.0
 40
1.0
 40
1.0
 40
1.0
 10
317.7362281434162
 20
339.632991745252
 30
0.0
 10
317.1506303644625
 20
339.5045629126313
 30
0.0
 10
316.3197484575057
 20
339.4462231754391
 30
0.0
 10
314.6158078078831
 20
339.5169100037418
 30
0.0
 10
313.7760075705806
 20
339.6440965779364
 30
0.0
 10
312.5861252643255
 20
339.9764402610933
 30
0.0
 10
312.2307065251248
 20
340.1801779888009
 30
0.0
 10
312.193432443625
 20
340.5468437612146
 30
0.0
 10
312.5174599583527
 20
340.710957345936
 30
0.0
 10
313.6759693374859
 20
340.9174011533847
 30
0.0
 10
314.5144917366894
 20
340.9614303649042
 30
0.0
 10
316.21261339174
 20
340.9071984736065
 30
0.0
 10
317.0583004909886
 20
340.8094618994019
 30
0.0
 10
318.256923293482
 20
340.5203291321787
 30
0.0
 10
318.6066661704345
 20
340.3291849689846
 30
0.0
 10
318.6372290599845
 20
339.9507108053909
 30
0.0
 10
318.32182592237
 20
339.7614205778727
 30
0.0
 10
317.7362281434162
 20
339.632991745252
 30
0.0
  0
SPLINE
  5
159
330
11F
100
AcDbEntity
  8
DV2_Standard
  6
Continuous
 62
     7
100
AcDbSpline
210
0.0
220
0.0
230
1.0
 70
    11
 71
     3
 72
    22
 73
    18
 74
     0
 42
0.0000000007238389
 43
0.0000000001
 40
0.0
 40
0.0
 40
0.0
 40
0.0
 40
0.125
 40
0.125
 40
0.25
 40
0.25
 40
0.375
 40
0.375
 40
0.5
 40
0.5
 40
0.625
 40
0.625
 40
0.75
 40
0.75
 40
0.875
 40
0.875
 40
1.0
 40
1.0
 40
1.0
 40
1.0
 10
334.2825722577655
 20
340.0655201652172
 30
0.0
 10
333.694273411914
 20
339.8750259905507
 30
0.0
 10
332.8845547796128
 20
339.6976999664214
 30
0.0
 10
331.1849878506977
 20
339.4753734834599
 30
0.0
 10
330.3409844741135
 20
339.4424167970755
 30
0.0
 10
329.1449539293155
 20
339.5566790523974
 30
0.0
 10
328.8015322196474
 20
339.7011748374352
 30
0.0
 10
328.7991605966645
 20
340.0521101221222
 30
0.0
 10
329.1395049295095
 20
340.2580070266159
 30
0.0
 10
330.3000206911136
 20
340.6115670306738
 30
0.0
 10
331.1300482607639
 20
340.7631594669899
 30
0.0
 10
332.8135593794362
 20
340.9395517162687
 30
0.0
 10
333.6624934605839
 20
340.9652048678332
 30
0.0
 10
334.8712691267287
 20
340.8754679343051
 30
0.0
 10
335.2103986445397
 20
340.7614661607369
 30
0.0
 10
335.2078202155953
 20
340.4520770092755
 30
0.0
 10
334.870871103617
 20
340.2560143398834
 30
0.0
 10
334.2825722577655
 20
340.0655201652172
 30
0.0
  0
SPLINE
  5
15A
330
11F
100
AcDbEntity
  8
DV2_Standard
  6
Continuous
 62
     7
100
AcDbSpline
210
0.0
220
0.0
230
1.0
 70
    11
 71
     3
 72
    22
 73
    18
 74
     0
 42
0.0000000007448425
 43
0.0000000001
 40
0.0
 40
0.0
 40
0.0
 40
0.0
 40
0.125
 40
0.125
 40
0.25
 40
0.25
 40
0.375
 40
0.375
 40
0.5
 40
0.5
 40
0.625
 40
0.625
 40
0.75
 40
0.75
 40
0.875
 40
0.875
 40
1.0
 40
1.0
 40
1.0
 40
1.0
 10
345.0347052779862
 20
340.5376772971973
 30
0.0
 10
344.42501620479
 20
340.3702986246906
 30
0.0
 10
343.6056016718491
 20
340.1713627818399
 30
0.0
 10
341.9395441284913
 20
339.7994180441284
 30
0.0
 10
341.1196089267203
 20
339.6332992110534
 30
0.0
 10
339.9463524078218
 20
339.4543613048971
 30
0.0
 10
339.6129376670727
 20
339.4488112427065
 30
0.0
 10
339.6521377144484
 20
339.608921412195
 30
0.0
 10
340.0250914785258
 20
339.7721096913508
 30
0.0
 10
341.2203067642156
 20
340.1362712122096
 30
0.0
 10
342.0500698777267
 20
340.3395846247206
 30
0.0
 10
343.7060140102758
 20
340.6772412302129
 30
0.0
 10
344.5375268618804
 20
340.8140915539519
 30
0.0
 10
345.7195377973844
 20
340.9564202729715
 30
0.0
 10
346.0523914339722
 20
340.9604863209513
 30
0.0
 10
346.011920320813
 20
340.8342308117042
 30
0.0
 10
345.6443943511824
 20
340.7050559697039
 30
0.0
 10
345.0347052779862
 20
340.5376772971973
 30
0.0
  0
LINE
  5
15B
330
11F
100
AcDbEntity
  8
DV2_Standard
  6
Continuous
 62
     7
100
AcDbLine
 10
340.1032335443
 20
339.2378131069
 30
0.0
 11
299.282257746
 21
339.2378131069
 31
0.0
  0
ARC
  5
15C
330
11F
100
AcDbEntity
  8
DV2_Standard
  6
Continuous
 62
     7
100
AcDbCircle
 10
349.1344926175
 20
342.5454393466
 30
0.0
 40
1.200000000000346
100
AcDbArc
 50
282.9475314855
 51
356.9805709559
  0
ARC
  5
15D
330
11F
100
AcDbEntity
  8
DV2_Standard
  6
Continuous
 62
     7
100
AcDbCircle
 10
290.2509986728
 20
342.5454393466
 30
0.0
 40
1.2
100
AcDbArc
 50
183.0194290441
 51
257.0524685145
  0
LINE
  5
15E
330
11F
100
AcDbEntity
  8
DV2_Standard
  6
Continuous
 62
     7
100
AcDbLine
 10
298.2666499949
 20
339.4713052257
 30
0.0
 11
299.2724222826
 21
339.2400743177
 31
0.0
  0
LINE
  5
15F
330
11F
100
AcDbEntity
  8
DV2_Standard
  6
Continuous
 62
     7
100
AcDbLine
 10
289.9821282539
 20
341.3759485609
 30
0.0
 11
291.877718789
 21
340.9401450237
 31
0.0
  0
LINE
  5
160
330
11F
100
AcDbEntity
  8
DV2_Standard
  6
Continuous
 62
     7
100
AcDbLine
 10
340.1130690077
 20
339.2400743177
 30
0.0
 11
349.4033630364
 21
341.3759485609
 31
0.0
  0
LINE
  5
161
330
11F
100
AcDbEntity
  8
DV2_Standard
  6
Continuous
 62
     7
100
AcDbLine
 10
399.9930085061
 20
361.2615922231
 30
0.0
 11
239.3924827842
 21
361.2615922231
 31
0.0
  0
LINE
  5
162
330
11F
100
AcDbEntity
  8
DV2_Standard
  6
Continuous
 62
     7
100
AcDbLine
 10
236.3011757569
 20
352.188997938
 30
0.0
 11
403.0843155334
 21
352.188997938
 31
0.0
  0
LINE
  5
163
330
11F
100
AcDbEntity
  8
DV2_Standard
  6
Continuous
 62
     7
100
AcDbLine
 10
240.5102394737
 20
349.312888077
 30
0.0
 11
398.8752518166
 21
349.312888077
 31
0.0
  0
LINE
  5
164
330
11F
100
AcDbEntity
  8
DV2_Standard
  6
Continuous
 62
     7
100
AcDbLine
 10
402.7762336628
 20
350.6494528218
 30
0.0
 11
236.6092576275
 21
350.6494528218
 31
0.0
  0
LINE
  5
165
330
11F
100
AcDbEntity
  8
DV2_Standard
  6
Continuous
 62
     7
100
AcDbLine
 10
333.4427456451
 20
411.572789052
 30
0.0
 11
305.9427456451
 21
411.572789052
 31
0.0
  0
LINE
  5
166
330
11F
100
AcDbEntity
  8
DV2_Standard
  6
Continuous
 62
     7
100
AcDbLine
 10
396.8062714007
 20
379.2444020896
 30
0.0
 11
242.5792198896
 21
379.2444020896
 31
0.0
  0
LINE
  5
167
330
11F
100
AcDbEntity
  8
DV2_Standard
  6
Continuous
 62
     7
100
AcDbLine
 10
343.8659469804
 20
391.8718351844
 30
0.0
 11
295.5195443099
 21
391.8718351844
 31
0.0
  0
LINE
  5
168
330
11F
100
AcDbEntity
  8
DV2_Standard
  6
Continuous
 62
     7
100
AcDbLine
 10
392.288607801
 20
384.1581809731
 30
0.0
 11
247.0968834893
 21
384.1581809731
 31
0.0
  0
LINE
  5
169
330
11F
100
AcDbEntity
  8
DV2_Standard
  6
Continuous
 62
     7
100
AcDbLine
 10
400.3268095202
 20
361.1237109108
 30
0.0
 11
399.9930085061
 21
361.2615922231
 31
0.0
  0
LINE
  5
16A
330
11F
100
AcDbEntity
  8
DV2_Standard
  6
Continuous
 62
     7
100
AcDbLine
 10
239.3924827842
 20
361.2615922231
 30
0.0
 11
239.0586817701
 21
361.1237109108
 31
0.0
  0
ARC
  5
16B
330
11F
100
AcDbEntity
  8
DV2_Standard
  6
Continuous
 62
     7
100
AcDbCircle
 10
419.6044032804
 20
361.5518055391
 30
0.0
 40
18.98882474887595
100
AcDbArc
 50
182.6181011141
 51
209.5425219091
  0
ARC
  5
16C
330
11F
100
AcDbEntity
  8
DV2_Standard
  6
Continuous
 62
     7
100
AcDbCircle
 10
219.7810880099
 20
361.5518055391
 30
0.0
 40
18.98882474887585
100
AcDbArc
 50
330.4574780909
 51
357.3818988859
  0
ARC
  5
16D
330
11F
100
AcDbEntity
  8
DV2_Standard
  6
Continuous
 62
     7
100
AcDbCircle
 10
398.8752518166
 20
355.6739958149
 30
0.0
 40
6.361107737885355
100
AcDbArc
 50
270.0
 51
307.8252428369
  0
ARC
  5
16E
330
11F
100
AcDbEntity
  8
DV2_Standard
  6
Continuous
 62
     7
100
AcDbCircle
 10
240.5102394737
 20
355.6739958149
 30
0.0
 40
6.361107737885762
100
AcDbArc
 50
232.1747571631
 51
270.0
  0
ARC
  5
16F
330
11F
100
AcDbEntity
  8
DV2_Standard
  6
Continuous
 62
     7
100
AcDbCircle
 10
402.0403275269
 20
351.5973147101
 30
0.0
 40
1.20000000000038
100
AcDbArc
 50
307.8252428369
 51
29.5425219091
  0
ARC
  5
170
330
11F
100
AcDbEntity
  8
DV2_Standard
  6
Continuous
 62
     7
100
AcDbCircle
 10
237.3451637634
 20
351.5973147101
 30
0.0
 40
1.199999999999942
100
AcDbArc
 50
150.4574780909
 51
232.1747571631
  0
LINE
  5
171
330
11F
100
AcDbEntity
  8
DV2_Standard
  6
Continuous
 62
     7
100
AcDbLine
 10
338.4519267774
 20
411.349097189
 30
0.0
 11
333.4427456451
 21
411.572789052
 31
0.0
  0
LINE
  5
172
330
11F
100
AcDbEntity
  8
DV2_Standard
  6
Continuous
 62
     7
100
AcDbLine
 10
305.9427456451
 20
411.572789052
 30
0.0
 11
300.9335645129
 21
411.349097189
 31
0.0
  0
ARC
  5
173
330
11F
100
AcDbEntity
  8
DV2_Standard
  6
Continuous
 62
     7
100
AcDbCircle
 10
1392.5302786794
 20
533.3665816129
 30
0.0
 40
1007.58123488486
100
AcDbArc
 50
188.7986490121
 51
189.8131679413
  0
ARC
  5
174
330
11F
100
AcDbEntity
  8
DV2_Standard
  6
Continuous
 62
     7
100
AcDbCircle
 10
-753.1447873891
 20
533.3665816129
 30
0.0
 40
1007.58123488486
100
AcDbArc
 50
350.1868320587
 51
351.2013509879
  0
ARC
  5
175
330
11F
100
AcDbEntity
  8
DV2_Standard
  6
Continuous
 62
     7
100
AcDbCircle
 10
239.2015944514
 20
361.7237195264
 30
0.0
 40
0.4999999999999606
100
AcDbArc
 50
292.4437769054
 51
350.1868320587
  0
ARC
  5
176
330
11F
100
AcDbEntity
  8
DV2_Standard
  6
Continuous
 62
     7
100
AcDbCircle
 10
400.1838968388
 20
361.7237195264
 30
0.0
 40
0.5000000000000722
100
AcDbArc
 50
189.8131679413
 51
247.5562230946
  0
ARC
  5
177
330
11F
100
AcDbEntity
  8
DV2_Standard
  6
Continuous
 62
     7
100
AcDbCircle
 10
400.1359211874
 20
360.6615836075
 30
0.0
 40
0.5000000000000465
100
AcDbArc
 50
2.6181011141
 51
67.5562230945
  0
ARC
  5
178
330
11F
100
AcDbEntity
  8
DV2_Standard
  6
Continuous
 62
     7
100
AcDbCircle
 10
239.2495701029
 20
360.6615836075
 30
0.0
 40
0.4999999999999615
100
AcDbArc
 50
112.4437769055
 51
177.3818988859
  0
ARC
  5
179
330
11F
100
AcDbEntity
  8
DV2_Standard
  6
Continuous
 62
     7
100
AcDbCircle
 10
301.0227883392
 20
409.3510884031
 30
0.0
 40
2.000000000000008
100
AcDbArc
 50
92.556922961
 51
174.6239621136
  0
ARC
  5
17A
330
11F
100
AcDbEntity
  8
DV2_Standard
  6
Continuous
 62
     7
100
AcDbCircle
 10
338.3627029511
 20
409.3510884031
 30
0.0
 40
1.999999999999979
100
AcDbArc
 50
5.3760378864
 51
87.443077039
  0
ARC
  5
17B
330
11F
100
AcDbEntity
  8
DV2_Standard
  6
Continuous
 62
     7
100
AcDbCircle
 10
1029.8106649565
 20
474.4204163774
 30
0.0
 40
692.5029169157403
100
AcDbArc
 50
185.3760378864
 51
186.6994356041
  0
ARC
  5
17C
330
11F
100
AcDbEntity
  8
DV2_Standard
  6
Continuous
 62
     7
100
AcDbCircle
 10
-390.4251736662
 20
474.4204163774
 30
0.0
 40
692.50291691574
100
AcDbArc
 50
353.3005643959
 51
354.6239621136
  0
ARC
  5
17D
330
11F
100
AcDbEntity
  8
DV2_Standard
  6
Continuous
 62
     7
100
AcDbCircle
 10
344.022640912
 20
393.8656874888
 30
0.0
 40
1.999999999999954
100
AcDbArc
 50
186.6994356041
 51
265.5064444094
  0
ARC
  5
17E
330
11F
100
AcDbEntity
  8
DV2_Standard
  6
Continuous
 62
     7
100
AcDbCircle
 10
295.3628503783
 20
393.8656874888
 30
0.0
 40
1.999999999999678
100
AcDbArc
 50
274.4935555906
 51
353.3005643959
  0
ARC
  5
17F
330
11F
100
AcDbEntity
  8
DV2_Standard
  6
Continuous
 62
     7
100
AcDbCircle
 10
319.6927456451
 20
84.2798774245
 30
0.0
 40
308.5403638770368
100
AcDbArc
 50
76.3913967577
 51
85.5064444094
  0
ARC
  5
180
330
11F
100
AcDbEntity
  8
DV2_Standard
  6
Continuous
 62
     7
100
AcDbCircle
 10
319.6927456451
 20
84.2798774245
 30
0.0
 40
308.5403638770369
100
AcDbArc
 50
94.4935555906
 51
103.6086032423
  0
ARC
  5
181
330
11F
100
AcDbEntity
  8
DV2_Standard
  6
Continuous
 62
     7
100
AcDbCircle
 10
390.87687947
 20
378.3266268818
 30
0.0
 40
5.999999999999978
100
AcDbArc
 50
8.7986490121
 51
76.3913967577
  0
ARC
  5
182
330
11F
100
AcDbEntity
  8
DV2_Standard
  6
Continuous
 62
     7
100
AcDbCircle
 10
248.5086118203
 20
378.3266268818
 30
0.0
 40
6.000000000000021
100
AcDbArc
 50
103.6086032423
 51
171.2013509879
  0
LINE
  5
183
330
11F
100
AcDbEntity
  8
DV2_Standard
  6
Continuous
 62
     7
100
AcDbLine
 10
331.3850032771
 20
434.8463769233
 30
0.0
 11
308.0004880132
 21
434.8463769233
 31
0.0
  0
LINE
  5
184
330
11F
100
AcDbEntity
  8
DV2_Standard
  6
Continuous
 62
     7
100
AcDbLine
 10
304.9627416513
 20
416.9389535157
 30
0.0
 11
334.4227496389
 21
416.9389535157
 31
0.0
  0
LINE
  5
185
330
11F
100
AcDbEntity
  8
DV2_Standard
  6
Continuous
 62
     7
100
AcDbLine
 10
334.9714860624
 20
434.2139832425
 30
0.0
 11
331.3850032771
 21
434.8463769233
 31
0.0
  0
LINE
  5
186
330
11F
100
AcDbEntity
  8
DV2_Standard
  6
Continuous
 62
     7
100
AcDbLine
 10
308.0004880132
 20
434.8463769233
 30
0.0
 11
304.4140052279
 21
434.2139832425
 31
0.0
  0
LINE
  5
187
330
11F
100
AcDbEntity
  8
DV2_Standard
  6
Continuous
 62
     7
100
AcDbLine
 10
304.2763365573
 20
417.0599852535
 30
0.0
 11
304.9627416513
 21
416.9389535157
 31
0.0
  0
LINE
  5
188
330
11F
100
AcDbEntity
  8
DV2_Standard
  6
Continuous
 62
     7
100
AcDbLine
 10
334.4227496389
 20
416.9389535157
 30
0.0
 11
335.109154733
 21
417.0599852535
 31
0.0
  0
LINE
  5
189
330
11F
100
AcDbEntity
  8
DV2_Standard
  6
Continuous
 62
     7
100
AcDbLine
 10
335.6875743548
 20
417.7554592555
 30
0.0
 11
335.5499056842
 21
433.5307263902
 31
0.0
  0
LINE
  5
18A
330
11F
100
AcDbEntity
  8
DV2_Standard
  6
Continuous
 62
     7
100
AcDbLine
 10
303.8355856061
 20
433.5307263902
 30
0.0
 11
303.6979169355
 21
417.7554592555
 31
0.0
  0
ARC
  5
18B
330
11F
100
AcDbEntity
  8
DV2_Standard
  6
Continuous
 62
     7
100
AcDbCircle
 10
304.3978902816
 20
417.7493506806
 30
0.0
 40
0.6999999999999904
100
AcDbArc
 50
179.5
 51
260.0
  0
ARC
  5
18C
330
11F
100
AcDbEntity
  8
DV2_Standard
  6
Continuous
 62
     7
100
AcDbCircle
 10
334.9876010087
 20
417.7493506806
 30
0.0
 40
0.7000000000000026
100
AcDbArc
 50
280.0
 51
0.5
  0
ARC
  5
18D
330
11F
100
AcDbEntity
  8
DV2_Standard
  6
Continuous
 62
     7
100
AcDbCircle
 10
304.5355589523
 20
433.5246178153
 30
0.0
 40
0.7000000000000001
100
AcDbArc
 50
100.0
 51
179.5
  0
ARC
  5
18E
330
11F
100
AcDbEntity
  8
DV2_Standard
  6
Continuous
 62
     7
100
AcDbCircle
 10
334.849932338
 20
433.5246178153
 30
0.0
 40
0.7000000000000165
100
AcDbArc
 50
0.5
 51
80.0
  0
LINE
  5
18F
330
11F
100
AcDbEntity
  8
DV2_Standard
  6
Continuous
 62
     7
100
AcDbLine
 10
328.9427456451
 20
413.902888077
 30
0.0
 11
310.4427456451
 21
413.902888077
 31
0.0
  0
LINE
  5
190
330
11F
100
AcDbEntity
  8
DV2_Standard
  6
Continuous
 62
     7
100
AcDbLine
 10
330.9241482045
 20
411.9214855176
 30
0.0
 11
308.4613430858
 21
411.9214855176
 31
0.0
  0
LINE
  5
191
330
11F
100
AcDbEntity
  8
DV2_Standard
  6
Continuous
 62
     7
100
AcDbLine
 10
328.9427456451
 20
413.902888077
 30
0.0
 11
328.9427456451
 21
415.5625767697
 31
0.0
  0
LINE
  5
192
330
11F
100
AcDbEntity
  8
DV2_Standard
  6
Continuous
 62
     7
100
AcDbLine
 10
310.4427456451
 20
415.5625767697
 30
0.0
 11
310.4427456451
 21
413.902888077
 31
0.0
  0
ARC
  5
193
330
11F
100
AcDbEntity
  8
DV2_Standard
  6
Continuous
 62
     7
100
AcDbCircle
 10
319.6927456451
 20
404.612888077
 30
0.0
 40
13.40000000000001
100
AcDbArc
 50
31.2917179433
 51
33.053213739
  0
ARC
  5
194
330
11F
100
AcDbEntity
  8
DV2_Standard
  6
Continuous
 62
     7
100
AcDbCircle
 10
319.6927456451
 20
404.612888077
 30
0.0
 40
13.4
100
AcDbArc
 50
146.946786261
 51
148.7082820567
  0
ARC
  5
195
330
11F
100
AcDbEntity
  8
DV2_Standard
  6
Continuous
 62
     7
100
AcDbCircle
 10
330.4427456451
 20
415.5625767697
 30
0.0
 40
1.500000000000001
100
AcDbArc
 50
113.4245319589
 51
180.0
  0
ARC
  5
196
330
11F
100
AcDbEntity
  8
DV2_Standard
  6
Continuous
 62
     7
100
AcDbCircle
 10
308.9427456451
 20
415.5625767697
 30
0.0
 40
1.499999999999994
100
AcDbArc
 50
0.0
 51
66.5754680411
  0
LINE
  5
197
330
11F
100
AcDbEntity
  8
DV2_Standard
  6
Continuous
 62
     7
100
AcDbLine
 10
330.9241482045
 20
411.9214855176
 30
0.0
 11
328.9427456451
 21
413.902888077
 31
0.0
  0
LINE
  5
198
330
11F
100
AcDbEntity
  8
DV2_Standard
  6
Continuous
 62
     7
100
AcDbLine
 10
310.4427456451
 20
413.902888077
 30
0.0
 11
308.4613430858
 21
411.9214855176
 31
0.0
  0
LINE
  5
199
330
11F
100
AcDbEntity
  8
DV2_Standard
  6
Continuous
 62
     7
100
AcDbLine
 10
317.7715012267
 20
349.3128880661
 30
0.0
 11
317.7848409472
 21
348.5486559941
 31
0.0
  0
LINE
  5
19A
330
11F
100
AcDbEntity
  8
DV2_Standard
  6
Continuous
 62
     7
100
AcDbLine
 10
321.6006503431
 20
348.5486559941
 30
0.0
 11
321.6139900635
 21
349.3128880661
 31
0.0
  0
LINE
  5
19B
330
11F
100
AcDbEntity
  8
DV2_Standard
  6
Continuous
 62
     7
100
AcDbLine
 10
397.5015316836
 20
347.8747699447
 30
0.0
 11
321.5268837725
 21
347.8747699445
 31
0.0
  0
LINE
  5
19C
330
11F
100
AcDbEntity
  8
DV2_Standard
  6
Continuous
 62
     7
100
AcDbLine
 10
317.8586075178
 20
347.8747699445
 30
0.0
 11
241.8839596067
 21
347.8747699444
 31
0.0
  0
LINE
  5
19D
330
11F
100
AcDbEntity
  8
DV2_Standard
  6
Continuous
 62
     7
100
AcDbLine
 10
317.7882049303
 20
348.3559335304
 30
0.0
 11
317.7926999467
 21
348.0984142115
 31
0.0
  0
LINE
  5
19E
330
11F
100
AcDbEntity
  8
DV2_Standard
  6
Continuous
 62
     7
100
AcDbLine
 10
317.7848409472
 20
348.5486559941
 30
0.0
 11
317.7882049303
 21
348.3559335305
 31
0.0
  0
LINE
  5
19F
330
11F
100
AcDbEntity
  8
DV2_Standard
  6
Continuous
 62
     7
100
AcDbLine
 10
321.59728636
 20
348.3559335304
 30
0.0
 11
321.6006503431
 21
348.5486559941
 31
0.0
  0
LINE
  5
1A0
330
11F
100
AcDbEntity
  8
DV2_Standard
  6
Continuous
 62
     7
100
AcDbLine
 10
321.5927913436
 20
348.0984142115
 30
0.0
 11
321.59728636
 21
348.3559335304
 31
0.0
  0
LINE
  5
1A1
330
11F
100
AcDbEntity
  8
DV2_Standard
  6
Continuous
 62
     7
100
AcDbLine
 10
320.1518838713
 20
339.834991913
 30
0.0
 11
320.1519499197
 21
339.8375141994
 31
0.0
  0
LINE
  5
1A2
330
11F
100
AcDbEntity
  8
DV2_Standard
  6
Continuous
 62
     7
100
AcDbLine
 10
319.2335413706
 20
339.8375141994
 30
0.0
 11
319.233607419
 21
339.834991913
 31
0.0
  0
LINE
  5
1A3
330
11F
100
AcDbEntity
  8
DV2_Standard
  6
Continuous
 62
     7
100
AcDbLine
 10
320.3503202039
 20
348.0984142116
 30
0.0
 11
319.0351710864
 21
348.0984142116
 31
0.0
  0
LINE
  5
1A4
330
11F
100
AcDbEntity
  8
DV2_Standard
  6
Continuous
 62
     7
100
AcDbLine
 10
319.2336365398
 20
339.833732957
 30
0.0
 11
319.233607419
 21
339.834991913
 31
0.0
  0
LINE
  5
1A5
330
11F
100
AcDbEntity
  8
DV2_Standard
  6
Continuous
 62
     7
100
AcDbLine
 10
321.0501839296
 20
348.0984142116
 30
0.0
 11
320.9054330661
 21
342.5706017551
 31
0.0
  0
LINE
  5
1A6
330
11F
100
AcDbEntity
  8
DV2_Standard
  6
Continuous
 62
     7
100
AcDbLine
 10
320.9054330661
 20
342.5706017551
 30
0.0
 11
320.8517100472
 21
340.5190024327
 31
0.0
  0
LINE
  5
1A7
330
11F
100
AcDbEntity
  8
DV2_Standard
  6
Continuous
 62
     7
100
AcDbLine
 10
318.5337812431
 20
340.5190024327
 30
0.0
 11
318.4800582241
 21
342.5706017551
 31
0.0
  0
LINE
  5
1A8
330
11F
100
AcDbEntity
  8
DV2_Standard
  6
Continuous
 62
     7
100
AcDbLine
 10
318.4800582241
 20
342.5706017551
 30
0.0
 11
318.3353073607
 21
348.0984142116
 31
0.0
  0
ELLIPSE
  5
1A9
330
11F
100
AcDbEntity
  8
DV2_Standard
  6
Continuous
 62
     7
100
AcDbEllipse
 10
320.1518838713
 20
340.5348040101
 30
0.0
 11
-0.6997601274830033
 21
0.01832386381260543
 31
0.0
210
0.0
220
0.0
230
1.0
 40
0.9997313834
 41
1.596969236414902
 42
3.141592653589793
  0
ELLIPSE
  5
1AA
330
11F
100
AcDbEntity
  8
DV2_Standard
  6
Continuous
 62
     7
100
AcDbEllipse
 10
320.1519499197
 20
340.5373262965
 30
0.0
 11
-0.6997601274830523
 21
0.01832386381381279
 31
0.0
210
0.0
220
0.0
230
1.0
 40
0.9997313834
 41
1.596969236416619
 42
3.141592653589793
  0
SPLINE
  5
1AB
330
11F
100
AcDbEntity
  8
DV2_Standard
  6
Continuous
 62
     7
100
AcDbSpline
210
0.0
220
0.0
230
1.0
 70
     8
 71
     3
 72
    12
 73
     8
 74
     0
 42
0.0000000142811106
 43
0.0000000001
 40
0.0
 40
0.0
 40
0.0
 40
0.0
 40
0.4999999999999863
 40
0.4999999999999863
 40
0.7499999999999931
 40
0.7499999999999931
 40
1.0
 40
1.0
 40
1.0
 40
1.0
 10
320.3503202036596
 20
348.0984142088046
 30
0.0
 10
320.5351476350002
 20
348.0982080558438
 30
0.0
 10
320.7163399662311
 20
348.0977423903632
 30
0.0
 10
320.909873655018
 20
348.0975794934442
 30
0.0
 10
320.9618088245595
 20
348.0975955932319
 30
0.0
 10
321.0319910662114
 20
348.0978324277796
 30
0.0
 10
321.0501742660218
 20
348.0980451750817
 30
0.0
 10
321.0501839295819
 20
348.0984142115566
 30
0.0
  0
LINE
  5
1AC
330
11F
100
AcDbEntity
  8
DV2_Standard
  6
Continuous
 62
     7
100
AcDbLine
 10
321.0472864148
 20
348.2644127204
 30
0.0
 11
321.0501839296
 21
348.0984142116
 31
0.0
  0
SPLINE
  5
1AD
330
11F
100
AcDbEntity
  8
DV2_Standard
  6
Continuous
 62
     7
100
AcDbSpline
210
0.0
220
0.0
230
1.0
 70
     8
 71
     3
 72
    17
 73
    13
 74
     0
 42
0.0000000136870349
 43
0.0000000001
 40
0.0
 40
0.0
 40
0.0
 40
0.0
 40
0.0226118206305514
 40
0.0632065743895364
 40
0.164132547601084
 40
0.4421050425137255
 40
0.5694693001446484
 40
0.7296820112652994
 40
0.815379034956439
 40
0.8675868707484539
 40
0.9382746378429132
 40
1.0
 40
1.0
 40
1.0
 40
1.0
 10
321.0472864148318
 20
348.264412720415
 30
0.0
 10
321.0471907178992
 20
348.2646466226003
 30
0.0
 10
321.0469232173122
 20
348.2653004468153
 30
0.0
 10
321.0424981028833
 20
348.2702979129805
 30
0.0
 10
321.0145558836629
 20
348.2798911435411
 30
0.0
 10
320.9220767097058
 20
348.2651662479629
 30
0.0
 10
320.7740203816505
 20
348.214513646063
 30
0.0
 10
320.6599908080797
 20
348.1711933949134
 30
0.0
 10
320.5616269361479
 20
348.1348832285935
 30
0.0
 10
320.4899054769176
 20
348.1116674850838
 30
0.0
 10
320.4228267659005
 20
348.0973784147885
 30
0.0
 10
320.3733733023518
 20
348.0980848861059
 30
0.0
 10
320.3503202036596
 20
348.0984142088046
 30
0.0
  0
ELLIPSE
  5
1AE
330
11F
100
AcDbEntity
  8
DV2_Standard
  6
Continuous
 62
     7
100
AcDbEllipse
 10
319.233607419
 20
340.5348040101
 30
0.0
 11
-0.6997601274831925
 21
-0.01832386380883067
 31
0.0
210
0.0
220
0.0
230
1.0
 40
0.9997313834
 41
0.0
 42
1.544623417180293
  0
ELLIPSE
  5
1AF
330
11F
100
AcDbEntity
  8
DV2_Standard
  6
Continuous
 62
     7
100
AcDbEllipse
 10
319.2335413706
 20
340.5373262965
 30
0.0
 11
-0.6997601274831255
 21
-0.0183238638108707
 31
0.0
210
0.0
220
0.0
230
1.0
 40
0.9997313834
 41
0.0
 42
1.544623417177377
  0
ARC
  5
1B0
330
11F
100
AcDbEntity
  8
DV2_Standard
  6
Continuous
 62
     7
100
AcDbCircle
 10
318.6852395158
 20
422.4337575484
 30
0.0
 40
74.3361669816316
100
AcDbArc
 50
269.7302832462
 51
270.2697163036
  0
SPLINE
  5
1B1
330
11F
100
AcDbEntity
  8
DV2_Standard
  6
Continuous
 62
     7
100
AcDbSpline
210
0.0
220
0.0
230
1.0
 70
     8
 71
     3
 72
    18
 73
    14
 74
     0
 42
0.0000000137025345
 43
0.0000000001
 40
0.0
 40
0.0
 40
0.0
 40
0.0
 40
0.0403277502332196
 40
0.0841548907073984
 40
0.132034410578341
 40
0.1840030688327527
 40
0.2694665847430752
 40
0.4281433209780657
 40
0.555872709163236
 40
0.6950644783334914
 40
0.8356643462393815
 40
0.9177862399592182
 40
1.0
 40
1.0
 40
1.0
 40
1.0
 10
319.0351710866476
 20
348.0984142088044
 30
0.0
 10
319.0201056415062
 20
348.0978337684409
 30
0.0
 10
318.9886674658021
 20
348.0966225120766
 30
0.0
 10
318.9397925999556
 20
348.1026395656352
 30
0.0
 10
318.8880427911582
 20
348.1137546150191
 30
0.0
 10
318.8241637532545
 20
348.1347443347855
 30
0.0
 10
318.7262661679729
 20
348.1708154060084
 30
0.0
 10
318.6123303545235
 20
348.2141418090988
 30
0.0
 10
318.5004360532908
 20
348.2523274214731
 30
0.0
 10
318.4146713033304
 20
348.2727039804877
 30
0.0
 10
318.365018840332
 20
348.2759720673591
 30
0.0
 10
318.3418294373631
 20
348.2713478048099
 30
0.0
 10
318.3394135129432
 20
348.2667252765697
 30
0.0
 10
318.3382048754626
 20
348.264412720415
 30
0.0
  0
LINE
  5
1B2
330
11F
100
AcDbEntity
  8
DV2_Standard
  6
Continuous
 62
     7
100
AcDbLine
 10
318.3353073607
 20
348.0984142116
 30
0.0
 11
318.3382048755
 21
348.2644127204
 31
0.0
  0
ARC
  5
1B3
330
11F
100
AcDbEntity
  8
DV2_Standard
  6
Continuous
 62
     7
100
AcDbCircle
 10
319.692746443
 20
381.3170128354
 30
0.0
 40
32.52895442643373
100
AcDbArc
 50
267.2500032801
 51
272.749994489
  0
SPLINE
  5
1B4
330
11F
100
AcDbEntity
  8
DV2_Standard
  6
Continuous
 62
     7
100
AcDbSpline
210
0.0
220
0.0
230
1.0
 70
     8
 71
     3
 72
    12
 73
     8
 74
     0
 42
0.0000000208144756
 43
0.0000000001
 40
0.0
 40
0.0
 40
0.0
 40
0.0
 40
0.1692283333786861
 40
0.3288488610743288
 40
0.6618128407751497
 40
0.9403581274313415
 40
1.0
 40
1.0
 40
1.0
 40
1.0
 10
318.1323173674697
 20
348.8252146468938
 30
0.0
 10
318.1510910932619
 20
348.8021131790205
 30
0.0
 10
318.1870944457073
 20
348.7578105063376
 30
0.0
 10
318.2578915018503
 20
348.6710367604629
 30
0.0
 10
318.3366766106757
 20
348.5731338708447
 30
0.0
 10
318.3974043772342
 20
348.4926123776187
 30
0.0
 10
318.4238021743139
 20
348.4538226279877
 30
0.0
 10
318.4283196547714
 20
348.4470414012947
 30
0.0
  0
LINE
  5
1B5
330
11F
100
AcDbEntity
  8
DV2_Standard
  6
Continuous
 62
     7
100
AcDbLine
 10
320.7808189824
 20
348.2161838495
 30
0.0
 11
320.580610516
 21
348.2161838495
 31
0.0
  0
LINE
  5
1B6
330
11F
100
AcDbEntity
  8
DV2_Standard
  6
Continuous
 62
     7
100
AcDbLine
 10
318.8048999883
 20
348.2161838495
 30
0.0
 11
318.6043065943
 21
348.2161838495
 31
0.0
  0
SPLINE
  5
1B7
330
11F
100
AcDbEntity
  8
DV2_Standard
  6
Continuous
 62
     7
100
AcDbSpline
210
0.0
220
0.0
230
1.0
 70
     8
 71
     3
 72
    12
 73
     8
 74
     0
 42
0.0000000208134955
 43
0.0000000001
 40
0.0
 40
0.0
 40
0.0
 40
0.0
 40
0.059624715843883
 40
0.3380731606578353
 40
0.671145271184851
 40
0.8306831244361995
 40
1.0
 40
1.0
 40
1.0
 40
1.0
 10
320.9571397296418
 20
348.4470345194273
 30
0.0
 10
320.9616686669006
 20
348.4538179507677
 30
0.0
 10
320.988133660973
 20
348.4926229920142
 30
0.0
 10
321.0487761553993
 20
348.5731119659103
 30
0.0
 10
321.127583921031
 20
348.671013547958
 30
0.0
 10
321.1983864953611
 20
348.7577991482315
 30
0.0
 10
321.2343906245932
 20
348.8021015666726
 30
0.0
 10
321.2531741834217
 20
348.8252145083933
 30
0.0
  0
SPLINE
  5
1B8
330
11F
100
AcDbEntity
  8
DV2_Standard
  6
Continuous
 62
     7
100
AcDbSpline
210
0.0
220
0.0
230
1.0
 70
     8
 71
     3
 72
    12
 73
     8
 74
     0
 42
0.0000000220904035
 43
0.0000000001
 40
0.0
 40
0.0
 40
0.0
 40
0.0
 40
0.4999999999999918
 40
0.4999999999999918
 40
0.7499999999999959
 40
0.7499999999999959
 40
1.0
 40
1.0
 40
1.0
 40
1.0
 10
321.3027210159768
 20
348.7735371164494
 30
0.0
 10
321.3108919132098
 20
348.6997068244518
 30
0.0
 10
321.3293128650381
 20
348.625582325161
 30
0.0
 10
321.3847833799655
 20
348.5290163510032
 30
0.0
 10
321.4082797278874
 20
348.4992494632382
 30
0.0
 10
321.4685131697565
 20
348.4552017408009
 30
0.0
 10
321.5060702482418
 20
348.4418899938321
 30
0.0
 10
321.5442093242483
 20
348.445062555773
 30
0.0
  0
SPLINE
  5
1B9
330
11F
100
AcDbEntity
  8
DV2_Standard
  6
Continuous
 62
     7
100
AcDbSpline
210
0.0
220
0.0
230
1.0
 70
     8
 71
     3
 72
    14
 73
    10
 74
     0
 42
0.0000000140672243
 43
0.0000000001
 40
0.0
 40
0.0
 40
0.0
 40
0.0
 40
0.1276187863211175
 40
0.195165673210022
 40
0.409581514539012
 40
0.5849906207016417
 40
0.7389279854042867
 40
0.8767396882994062
 40
1.0
 40
1.0
 40
1.0
 40
1.0
 10
321.3027210159768
 20
348.7735371164494
 30
0.0
 10
321.2862538910625
 20
348.7419398938942
 30
0.0
 10
321.2614972755063
 20
348.694422551141
 30
0.0
 10
321.2131315009676
 20
348.59511589658
 30
0.0
 10
321.1619620062334
 20
348.4863618413394
 30
0.0
 10
321.1107384863425
 20
348.3609664884834
 30
0.0
 10
321.075663878811
 20
348.2601687257115
 30
0.0
 10
321.0535892541228
 20
348.1772377127638
 30
0.0
 10
321.0510873282134
 20
348.1345064079674
 30
0.0
 10
321.0499060951063
 20
348.1143313380073
 30
0.0
  0
LINE
  5
1BA
330
11F
100
AcDbEntity
  8
DV2_Standard
  6
Continuous
 62
     7
100
AcDbLine
 10
321.5502600936
 20
348.0984142115
 30
0.0
 11
321.0524538185
 21
348.098434111
 31
0.0
  0
LINE
  5
1BB
330
11F
100
AcDbEntity
  8
DV2_Standard
  6
Continuous
 62
     7
100
AcDbLine
 10
321.5442093242
 20
348.4450625558
 30
0.0
 11
321.5502600936
 21
348.0984142115
 31
0.0
  0
SPLINE
  5
1BC
330
11F
100
AcDbEntity
  8
DV2_Standard
  6
Continuous
 62
     7
100
AcDbSpline
210
0.0
220
0.0
230
1.0
 70
     8
 71
     3
 72
    12
 73
     8
 74
     0
 42
0.0000000220894072
 43
0.0000000001
 40
0.0
 40
0.0
 40
0.0
 40
0.0
 40
0.25
 40
0.25
 40
0.5
 40
0.5
 40
1.0
 40
1.0
 40
1.0
 40
1.0
 10
317.8412819660462
 20
348.4450625557781
 30
0.0
 10
317.8795268095191
 20
348.4418811956687
 30
0.0
 10
317.9167652551297
 20
348.4550448793639
 30
0.0
 10
317.9774327220753
 20
348.499412390295
 30
0.0
 10
318.0007898087129
 20
348.5291500480931
 30
0.0
 10
318.0560794509564
 20
348.6254277929467
 30
0.0
 10
318.0745982789671
 20
348.6996965849642
 30
0.0
 10
318.0827701275941
 20
348.773537262996
 30
0.0
  0
LINE
  5
1BD
330
11F
100
AcDbEntity
  8
DV2_Standard
  6
Continuous
 62
     7
100
AcDbLine
 10
317.8352311967
 20
348.0984142115
 30
0.0
 11
317.841281966
 21
348.4450625558
 31
0.0
  0
LINE
  5
1BE
330
11F
100
AcDbEntity
  8
DV2_Standard
  6
Continuous
 62
     7
100
AcDbLine
 10
318.3330374718
 20
348.098434111
 30
0.0
 11
317.8352311967
 21
348.0984142115
 31
0.0
  0
SPLINE
  5
1BF
330
11F
100
AcDbEntity
  8
DV2_Standard
  6
Continuous
 62
     7
100
AcDbSpline
210
0.0
220
0.0
230
1.0
 70
     8
 71
     3
 72
    11
 73
     7
 74
     0
 42
0.0000000140575421
 43
0.0000000001
 40
0.0
 40
0.0
 40
0.0
 40
0.0
 40
0.190137384680796
 40
0.4149875839278978
 40
0.8046175259597507
 40
1.0
 40
1.0
 40
1.0
 40
1.0
 10
318.3355851957159
 20
348.1143313682411
 30
0.0
 10
318.3325056518972
 20
348.1465584385339
 30
0.0
 10
318.325784330993
 20
348.2168955977774
 30
0.0
 10
318.2648404248245
 20
348.3915864227117
 30
0.0
 10
318.1805435712797
 20
348.5830688554058
 30
0.0
 10
318.1074579211904
 20
348.7254570560855
 30
0.0
 10
318.0827701275941
 20
348.773537262996
 30
0.0
  0
SPLINE
  5
1C0
330
11F
100
AcDbEntity
  8
DV2_Standard
  6
Continuous
 62
     7
100
AcDbSpline
210
0.0
220
0.0
230
1.0
 70
     8
 71
     3
 72
    16
 73
    12
 74
     0
 42
0.0000000188018023
 43
0.0000000001
 40
0.0
 40
0.0
 40
0.0
 40
0.0
 40
0.0624999999999991
 40
0.0624999999999991
 40
0.1249999999999983
 40
0.1249999999999983
 40
0.2500000000000254
 40
0.2500000000000254
 40
0.500000000000017
 40
0.500000000000017
 40
1.0
 40
1.0
 40
1.0
 40
1.0
 10
321.5268837724777
 20
347.8747699445323
 30
0.0
 10
321.508308972202
 20
347.8747699445258
 30
0.0
 10
321.4919556901694
 20
347.866152950128
 30
0.0
 10
321.4660946025932
 20
347.8471859688991
 30
0.0
 10
321.4555025190373
 20
347.8363575590287
 30
0.0
 10
321.4263355089936
 20
347.8032915309496
 30
0.0
 10
321.4108858449395
 20
347.7807801701338
 30
0.0
 10
321.3678248847464
 20
347.7149450315601
 30
0.0
 10
321.3441371362882
 20
347.6729162602996
 30
0.0
 10
321.2795141433854
 20
347.5600920440928
 30
0.0
 10
321.2448449060643
 20
347.5004059892701
 30
0.0
 10
321.2146948336942
 20
347.4602255007754
 30
0.0
  0
LINE
  5
1C1
330
11F
100
AcDbEntity
  8
DV2_Standard
  6
Continuous
 62
     7
100
AcDbLine
 10
321.0523740234
 20
348.0984327435
 30
0.0
 11
321.5333064815
 21
348.0984142115
 31
0.0
  0
ARC
  5
1C2
330
11F
100
AcDbEntity
  8
DV2_Standard
  6
Continuous
 62
     7
100
AcDbCircle
 10
888.171073312
 20
327.8487270432
 30
0.0
 40
567.3178059093394
100
AcDbArc
 50
178.0237841086
 51
178.1433242345
  0
LINE
  5
1C3
330
11F
100
AcDbEntity
  8
DV2_Standard
  6
Continuous
 62
     7
100
AcDbLine
 10
321.2146948337
 20
347.4602255008
 30
0.0
 11
321.1906921046
 21
347.4124748361
 31
0.0
  0
SPLINE
  5
1C4
330
11F
100
AcDbEntity
  8
DV2_Standard
  6
Continuous
 62
     7
100
AcDbSpline
210
0.0
220
0.0
230
1.0
 70
     8
 71
     3
 72
     8
 73
     4
 74
     0
 42
0.0000000991201488
 43
0.0000000001
 40
0.0
 40
0.0
 40
0.0
 40
0.0
 40
1.0
 40
1.0
 40
1.0
 40
1.0
 10
321.1511089553662
 20
346.2295029457964
 30
0.0
 10
321.1501966567937
 20
346.2012883989137
 30
0.0
 10
321.1347509626269
 20
346.1731973268908
 30
0.0
 10
321.1052320489867
 20
346.1453213285668
 30
0.0
  0
SPLINE
  5
1C5
330
11F
100
AcDbEntity
  8
DV2_Standard
  6
Continuous
 62
     7
100
AcDbSpline
210
0.0
220
0.0
230
1.0
 70
     8
 71
     3
 72
     8
 73
     4
 74
     0
 42
0.0000000961220886
 43
0.0000000001
 40
0.0
 40
0.0
 40
0.0
 40
0.0
 40
1.0
 40
1.0
 40
1.0
 40
1.0
 10
318.2824288933704
 20
346.1432769972856
 30
0.0
 10
318.2514696475223
 20
346.1718205650241
 30
0.0
 10
318.2353181170062
 20
346.2005621274402
 30
0.0
 10
318.2343823349294
 20
346.2295029457952
 30
0.0
  0
ARC
  5
1C6
330
11F
100
AcDbEntity
  8
DV2_Standard
  6
Continuous
 62
     7
100
AcDbCircle
 10
-248.7451625542
 20
327.8500795097
 30
0.0
 40
567.2773638428846
100
AcDbArc
 50
1.8566715044
 51
1.9762201525
  0
LINE
  5
1C7
330
11F
100
AcDbEntity
  8
DV2_Standard
  6
Continuous
 62
     7
100
AcDbLine
 10
318.1947991857
 20
347.4124748361
 30
0.0
 11
318.1707964566
 21
347.4602255008
 31
0.0
  0
SPLINE
  5
1C8
330
11F
100
AcDbEntity
  8
DV2_Standard
  6
Continuous
 62
     7
100
AcDbSpline
210
0.0
220
0.0
230
1.0
 70
     8
 71
     3
 72
    16
 73
    12
 74
     0
 42
0.0000000188025829
 43
0.0000000001
 40
0.0
 40
0.0
 40
0.0
 40
0.0
 40
0.4999999999999932
 40
0.4999999999999932
 40
0.7499999999999964
 40
0.7499999999999964
 40
0.8750000000000127
 40
0.8750000000000127
 40
0.9375000000000063
 40
0.9375000000000063
 40
1.0
 40
1.0
 40
1.0
 40
1.0
 10
318.1707964566019
 20
347.4602255007747
 30
0.0
 10
318.1406022495269
 20
347.5004648068399
 30
0.0
 10
318.1063754839174
 20
347.5593933300174
 30
0.0
 10
318.0415091640469
 20
347.6726472494276
 30
0.0
 10
318.0177958688168
 20
347.7147555482988
 30
0.0
 10
317.9744646913593
 20
347.7809911298901
 30
0.0
 10
317.9588087314725
 20
347.8037451120373
 30
0.0
 10
317.9297123288175
 20
347.8366401844387
 30
0.0
 10
317.9191919292273
 20
347.8473819115292
 30
0.0
 10
317.8932181259872
 20
347.8663390926646
 30
0.0
 10
317.8769676856498
 20
347.8747699445258
 30
0.0
 10
317.8586075178182
 20
347.8747699445258
 30
0.0
  0
LINE
  5
1C9
330
11F
100
AcDbEntity
  8
DV2_Standard
  6
Continuous
 62
     7
100
AcDbLine
 10
318.6222404224
 20
348.5231592799
 30
0.0
 11
318.638159184
 21
348.5588878601
 31
0.0
  0
SPLINE
  5
1CA
330
11F
100
AcDbEntity
  8
DV2_Standard
  6
Continuous
 62
     7
100
AcDbSpline
210
0.0
220
0.0
230
1.0
 70
     8
 71
     3
 72
    13
 73
     9
 74
     0
 42
0.000000014810445
 43
0.0000000001
 40
0.0
 40
0.0
 40
0.0
 40
0.0
 40
0.0621390000605548
 40
0.1617846128249843
 40
0.4404824896765879
 40
0.7265102250720941
 40
0.8733021028647023
 40
1.0
 40
1.0
 40
1.0
 40
1.0
 10
318.6381591840095
 20
348.5588878601091
 30
0.0
 10
318.6365035988426
 20
348.5574145775892
 30
0.0
 10
318.632193130297
 20
348.5535787507845
 30
0.0
 10
318.6207190038095
 20
348.524184653826
 30
0.0
 10
318.6484470414942
 20
348.4224495634593
 30
0.0
 10
318.7557130417993
 20
348.2534769427843
 30
0.0
 10
318.8973367608502
 20
348.1282632734236
 30
0.0
 10
318.9915332626368
 20
348.1078643121352
 30
0.0
 10
319.0351710866476
 20
348.0984142088044
 30
0.0
  0
SPLINE
  5
1CB
330
11F
100
AcDbEntity
  8
DV2_Standard
  6
Continuous
 62
     7
100
AcDbSpline
210
0.0
220
0.0
230
1.0
 70
     8
 71
     3
 72
    18
 73
    14
 74
     0
 42
0.0000000149700792
 43
0.0000000001
 40
0.0
 40
0.0
 40
0.0
 40
0.0
 40
0.0501214480781171
 40
0.100961250669388
 40
0.1542513630023728
 40
0.2115012216515269
 40
0.2739329828443318
 40
0.4118617644837106
 40
0.5611012660061001
 40
0.6982155746114309
 40
0.8396755209318177
 40
0.9197150430723797
 40
1.0
 40
1.0
 40
1.0
 40
1.0
 10
320.3503202036596
 20
348.0984142088046
 30
0.0
 10
320.3677514679751
 20
348.1005860114346
 30
0.0
 10
320.4028638264896
 20
348.104960735221
 30
0.0
 10
320.4534661954526
 20
348.1230735560299
 30
0.0
 10
320.5018943997486
 20
348.149106697168
 30
0.0
 10
320.5480759492308
 20
348.1832422720223
 30
0.0
 10
320.6083245793569
 20
348.2394083038052
 30
0.0
 10
320.6737336540158
 20
348.3208757192072
 30
0.0
 10
320.7254432662162
 20
348.4131296569209
 30
0.0
 10
320.7549690914206
 20
348.4881353682954
 30
0.0
 10
320.7602491987502
 20
348.5309743408977
 30
0.0
 10
320.7555824935786
 20
348.5526617569872
 30
0.0
 10
320.7500850406649
 20
348.5568103754131
 30
0.0
 10
320.7473321062849
 20
348.558887860109
 30
0.0
  0
LINE
  5
1CC
330
11F
100
AcDbEntity
  8
DV2_Standard
  6
Continuous
 62
     7
100
AcDbLine
 10
320.7584236525
 20
348.5339936435
 30
0.0
 11
320.7632508719
 21
348.5231592799
 31
0.0
  0
LINE
  5
1CD
330
11F
100
AcDbEntity
  8
DV2_Standard
  6
Continuous
 62
     7
100
AcDbLine
 10
320.7632508719
 20
348.5231592799
 30
0.0
 11
320.8301554123
 21
348.2161838495
 31
0.0
  0
ELLIPSE
  5
1CE
330
11F
100
AcDbEntity
  8
DV2_Standard
  6
Continuous
 62
     7
100
AcDbEllipse
 10
320.7632508719
 20
348.2519158589
 30
0.0
 11
0.2841670966489867
 21
0.004960155122094024
 31
0.0
210
0.0
220
0.0
230
1.0
 40
0.9543625164
 41
0.0
 42
1.554139407781511
  0
ELLIPSE
  5
1CF
330
11F
100
AcDbEntity
  8
DV2_Standard
  6
Continuous
 62
     7
100
AcDbEllipse
 10
318.6222404224
 20
348.251915855
 30
0.0
 11
-0.2841671007168317
 21
0.004960155193800553
 31
0.0
210
0.0
220
0.0
230
0.9999999999999998
 40
0.9543625164
 41
4.72904589940044
 42
6.283185307179586
  0
LINE
  5
1D0
330
11F
100
AcDbEntity
  8
DV2_Standard
  6
Continuous
 62
     7
100
AcDbLine
 10
318.5553358978
 20
348.2161838495
 30
0.0
 11
318.6222404224
 21
348.5231592799
 31
0.0
  0
LINE
  5
1D1
330
11F
100
AcDbEntity
  8
DV2_Standard
  6
Continuous
 62
     7
100
AcDbLine
 10
288.6839494285
 20
342.4822298394
 30
0.0
 11
318.4815211683
 21
342.4822298394
 31
0.0
  0
LINE
  5
1D2
330
11F
100
AcDbEntity
  8
DV2_Standard
  6
Continuous
 62
     7
100
AcDbLine
 10
320.9038564766
 20
342.4822298394
 30
0.0
 11
350.7015418618
 21
342.4822298394
 31
0.0
  0
LINE
  5
1D3
330
11F
100
AcDbEntity
  8
DV2_Standard
  6
Continuous
 62
     7
100
AcDbLine
 10
241.3808299837
 20
349.312888077
 30
0.0
 11
241.5155847194
 21
348.5486559941
 31
0.0
  0
LINE
  5
1D4
330
11F
100
AcDbEntity
  8
DV2_Standard
  6
Continuous
 62
     7
100
AcDbLine
 10
397.8699065708
 20
348.5486559941
 30
0.0
 11
398.0046613066
 21
349.312888077
 31
0.0
  0
ARC
  5
1D5
330
11F
100
AcDbEntity
  8
DV2_Standard
  6
Continuous
 62
     7
100
AcDbCircle
 10
242.6973540231
 20
348.7570338073
 30
0.0
 40
1.2
100
AcDbArc
 50
190.0
 51
227.3257994243
  0
ARC
  5
1D6
330
11F
100
AcDbEntity
  8
DV2_Standard
  6
Continuous
 62
     7
100
AcDbCircle
 10
396.6881372672
 20
348.7570338073
 30
0.0
 40
1.199999999943859
100
AcDbArc
 50
312.6742005907
 51
350.0
  0
LINE
  5
1D7
330
11F
100
AcDbEntity
  8
DV2_Standard
  6
Continuous
 62
     7
100
AcDbLine
 10
319.2333862881
 20
339.833381317
 30
0.0
 11
320.1520103836
 21
339.833381317
 31
0.0
  0
LINE
  5
1D8
330
11F
100
AcDbEntity
  8
DV2_Standard
  6
Continuous
 62
     7
100
AcDbLine
 10
318.7274348601
 20
348.1705593296
 30
0.0
 11
318.8641305023
 21
348.1705593296
 31
0.0
  0
LINE
  5
1D9
330
11F
100
AcDbEntity
  8
DV2_Standard
  6
Continuous
 62
     7
100
AcDbLine
 10
320.5214636024
 20
348.1705593296
 30
0.0
 11
320.6578723151
 21
348.1705593296
 31
0.0
  0
ARC
  5
1DA
330
11F
100
AcDbEntity
  8
DV2_Standard
  6
Continuous
 62
     7
100
AcDbCircle
 10
321.3104719485
 20
345.9096948505
 30
0.0
 40
0.3112122023287917
100
AcDbArc
 50
132.8220502229
 51
183.4206809544
  0
ARC
  5
1DB
330
11F
100
AcDbEntity
  8
DV2_Standard
  6
Continuous
 62
     7
100
AcDbCircle
 10
318.0580889331
 20
345.9020557314
 30
0.0
 40
0.3272687704021293
100
AcDbArc
 50
352.8396852274
 51
46.9540866194
  0
LINE
  5
1DC
330
11F
100
AcDbEntity
  8
DV2_Standard
  6
Continuous
 62
     7
100
AcDbLine
 10
320.7832511219
 20
348.5596588958
 30
0.0
 11
318.6022401724
 21
348.5596588958
 31
0.0
  0
ARC
  5
1DD
330
11F
100
AcDbEntity
  8
DV2_Standard
  6
Continuous
 62
     7
100
AcDbCircle
 10
242.9499069182
 20
348.8388608926
 30
0.0
 40
1.437259554480866
100
AcDbArc
 50
222.1276158091
 51
262.9477313226
  0
ARC
  5
1DE
330
11F
100
AcDbEntity
  8
DV2_Standard
  6
Continuous
 62
     7
100
AcDbCircle
 10
396.4355843721
 20
348.8388608926
 30
0.0
 40
1.437259554435512
100
AcDbArc
 50
277.0522686774
 51
317.8723842031
  0
SPLINE
  5
1DF
330
11F
100
AcDbEntity
  8
DV2_Standard
  6
Continuous
 62
     7
100
AcDbSpline
210
0.0
220
0.0
230
1.0
 70
     8
 71
     3
 72
    11
 73
     7
 74
     0
 42
0.0000000002165587
 43
0.0000000001
 40
0.0
 40
0.0
 40
0.0
 40
0.0
 40
0.2824931320001434
 40
0.5630348364105391
 40
0.7821068751422413
 40
1.0
 40
1.0
 40
1.0
 40
1.0
 10
242.773447731035
 20
347.4124748360932
 30
0.0
 10
247.5215321118115
 20
346.8357065822555
 30
0.0
 10
255.5102152702836
 20
345.8708345785246
 30
0.0
 10
267.6468098812233
 20
344.5378737017217
 30
0.0
 10
278.7914915341802
 20
343.4014505631422
 30
0.0
 10
285.0104380042313
 20
342.8223429095762
 30
0.0
 10
288.683949428497
 20
342.4822298394382
 30
0.0
  0
SPLINE
  5
1E0
330
11F
100
AcDbEntity
  8
DV2_Standard
  6
Continuous
 62
     7
100
AcDbSpline
210
0.0
220
0.0
230
1.0
 70
     8
 71
     3
 72
    11
 73
     7
 74
     0
 42
0.0000000002165587
 43
0.0000000001
 40
0.0
 40
0.0
 40
0.0
 40
0.0
 40
0.2775222659476645
 40
0.5569592663523264
 40
0.7778757608251444
 40
1.0
 40
1.0
 40
1.0
 40
1.0
 10
350.7015418618003
 20
342.4822298394382
 30
0.0
 10
355.3801331492139
 20
342.9178073058212
 30
0.0
 10
363.3065428293003
 20
343.6611004426288
 30
0.0
 10
375.385413367215
 20
344.9296648065265
 30
0.0
 10
386.5930979962126
 20
346.1940699483736
 30
0.0
 10
392.8788395196608
 20
346.9572141179766
 30
0.0
 10
396.6120435592622
 20
347.4124748360932
 30
0.0
  0
ENDBLK
  5
1E2
330
11F
100
AcDbEntity
  8
0
100
AcDbBlockEnd
  0
BLOCK
  5
1EC
330
1E3
100
AcDbEntity
  8
0
100
AcDbBlockBegin
  2
SE2
 70
     0
 10
0.0
 20
0.0
 30
0.0
  3
SE2
  1

  0
CIRCLE
  5
1E6
330
1E3
100
AcDbEntity
  8
DV3_Standard
  6
Continuous
 62
     7
100
AcDbCircle
 10
89.8975818817
 20
189.8975818817
 30
0.0
 40
80.30026286094929
  0
CIRCLE
  5
1E7
330
1E3
100
AcDbEntity
  8
DV3_Standard
  6
Continuous
 62
     7
100
AcDbCircle
 10
89.8975818817
 20
189.8975818817
 30
0.0
 40
24.17320133526905
  0
CIRCLE
  5
1E8
330
1E3
100
AcDbEntity
  8
DV3_Standard
  6
Continuous
 62
     7
100
AcDbCircle
 10
89.8975818817
 20
189.8975818817
 30
0.0
 40
72.59586215581461
  0
CIRCLE
  5
1E9
330
1E3
100
AcDbEntity
  8
DV3_Standard
  6
Continuous
 62
     7
100
AcDbCircle
 10
89.8975818817
 20
189.8975818817
 30
0.0
 40
83.54758188171611
  0
CIRCLE
  5
1EA
330
1E3
100
AcDbEntity
  8
DV3_Standard
  6
Continuous
 62
     7
100
AcDbCircle
 10
89.8975818817
 20
189.8975818817
 30
0.0
 40
11.69225763192144
  0
CIRCLE
  5
1EB
330
1E3
100
AcDbEntity
  8
DV3_Standard
  6
Continuous
 62
     7
100
AcDbCircle
 10
89.8975818817
 20
189.8975818817
 30
0.0
 40
15.9948553635241
  0
ENDBLK
  5
1ED
330
1E3
100
AcDbEntity
  8
0
100
AcDbBlockEnd
  0
ENDSEC
  0
SECTION
  2
ENTITIES
  0
INSERT
  5
5F
330
1F
100
AcDbEntity
  8
Default
100
AcDbBlockReference
  2
SEANNOT_GROUP
 10
0.0
 20
0.0
 30
0.0
  0
INSERT
  5
6A
330
1F
100
AcDbEntity
  8
Default
100
AcDbBlockReference
  2
SEANNOT_GROUP1
 10
0.0
 20
0.0
 30
0.0
  0
INSERT
  5
70
330
1F
100
AcDbEntity
  8
Default
100
AcDbBlockReference
  2
SEANNOT_GROUP2
 10
0.0
 20
0.0
 30
0.0
  0
INSERT
  5
76
330
1F
100
AcDbEntity
  8
Default
100
AcDbBlockReference
  2
SE
 10
0.0
 20
0.0
 30
0.0
  0
INSERT
  5
120
330
1F
100
AcDbEntity
  8
Default
100
AcDbBlockReference
  2
SE1
 10
0.0
 20
0.0
 30
0.0
  0
INSERT
  5
1E4
330
1F
100
AcDbEntity
  8
Default
100
AcDbBlockReference
  2
SE2
 10
0.0
 20
0.0
 30
0.0
  0
TEXT
  5
1EF
330
1F
100
AcDbEntity
  8
Default
  6
Continuous
 62
     7
100
AcDbText
 10
5.9362635081
 20
53.4225120485
 30
0.0
 40
10.0
  1
Grohe AG^J
  7
SEACAD_seiso_ttf
 11
5.9362635081
 21
63.4225120485
 31
0.0
100
AcDbText
 73
     3
  0
TEXT
  5
1F0
330
1F
100
AcDbEntity
  8
Default
  6
Continuous
 62
     7
100
AcDbText
 10
5.9362635081
 20
37.0588756849
 30
0.0
 40
10.0
  1
 
  7
SEACAD_seiso_ttf
 11
5.9362635081
 21
47.0588756849
 31
0.0
100
AcDbText
 73
     3
  0
TEXT
  5
1F1
330
1F
100
AcDbEntity
  8
Default
  6
Continuous
 62
     7
100
AcDbText
 10
5.9362635081
 20
20.6952393213
 30
0.0
 40
10.0
  1
ecn: 
  7
SEACAD_seiso_ttf
 11
5.9362635081
 21
30.6952393213
 31
0.0
100
AcDbText
 73
     3
  0
TEXT
  5
1F2
330
1F
100
AcDbEntity
  8
Default
  6
Continuous
 62
     7
100
AcDbText
 10
5.9362635081
 20
4.3316029576
 30
0.0
 40
10.0
  1
unit: mm
  7
SEACAD_seiso_ttf
 11
5.9362635081
 21
14.3316029576
 31
0.0
100
AcDbText
 73
     3
  0
LINE
  5
1F3
330
1F
100
AcDbEntity
  8
Default
  6
Continuous
 62
     7
100
AcDbLine
 10
0.0
 20
0.0
 30
0.0
 11
100.0
 21
0.0
 31
0.0
  0
LINE
  5
1F4
330
1F
100
AcDbEntity
  8
Default
  6
Continuous
 62
     7
100
AcDbLine
 10
0.0
 20
0.0
 30
0.0
 11
0.0
 21
100.0
 31
0.0
  0
TEXT
  5
1F5
330
1F
100
AcDbEntity
  8
Default
  6
Continuous
 62
     7
100
AcDbText
 10
24.3923665681
 20
-18.2375342018
 30
0.0
 40
10.0
  1
100 mm
  7
SEACAD_seiso_ttf
 11
24.3923665681
 21
-8.2375342018
 31
0.0
100
AcDbText
 73
     3
  0
TEXT
  5
1F6
330
1F
100
AcDbEntity
  8
Default
  6
Continuous
 62
     7
100
AcDbText
 10
-7.6150308803
 20
24.6231930421
 30
0.0
 40
10.0
  1
100 mm
 50
90.0
  7
SEACAD_seiso_ttf
 11
-17.6150308803
 21
24.6231930421
 31
0.0
100
AcDbText
 73
     3
  0
TEXT
  5
1F7
330
1F
100
AcDbEntity
  8
Default
  6
Continuous
 62
     7
100
AcDbText
 10
28.4878128572
 20
20.0907663715
 30
0.0
 40
10.0
  1
208768
  7
SEACAD_seiso_ttf
 11
28.4878128572
 21
30.0907663715
 31
0.0
100
AcDbText
 73
     3
  0
TEXT
  5
1F8
330
1F
100
AcDbEntity
  8
Default
  6
Continuous
 62
     7
100
AcDbText
 10
5.9012241913
 20
36.7242780188
 30
0.0
 40
10.0
  1
27130000
  7
SEACAD_seiso_ttf
 11
5.9012241913
 21
46.7242780188
 31
0.0
100
AcDbText
 73
     3
  0
ENDSEC
  0
SECTION
  2
OBJECTS
  0
DICTIONARY
  5
C
330
0
100
AcDbDictionary
281
     1
  3
ACAD_GROUP
350
D
  3
ACAD_LAYOUT
350
1A
  3
ACAD_MLEADERSTYLE
350
1FC
  3
ACAD_MLINESTYLE
350
17
  3
ACAD_PLOTSETTINGS
350
19
  3
ACAD_PLOTSTYLENAME
350
E
  3
ACAD_SCALELIST
350
3B
  3
ACAD_TABLESTYLE
350
1FB
  3
ACAD_VISUALSTYLE
350
2A
  3
AcDbVariableDictionary
350
1F9
  0
DICTIONARY
  5
D
102
{ACAD_REACTORS
330
C
102
}
330
C
100
AcDbDictionary
281
     1
  0
DICTIONARY
  5
1A
102
{ACAD_REACTORS
330
C
102
}
330
C
100
AcDbDictionary
281
     1
  3
Layout1
350
1E
  3
Model
350
22
  0
DICTIONARY
  5
1FC
102
{ACAD_REACTORS
330
C
102
}
330
C
100
AcDbDictionary
281
     1
  0
DICTIONARY
  5
17
102
{ACAD_REACTORS
330
C
102
}
330
C
100
AcDbDictionary
281
     1
  3
Standard
350
18
  0
DICTIONARY
  5
19
102
{ACAD_REACTORS
330
C
102
}
330
C
100
AcDbDictionary
281
     1
  0
ACDBDICTIONARYWDFLT
  5
E
102
{ACAD_REACTORS
330
C
102
}
330
C
100
AcDbDictionary
281
     1
  3
Normal
350
F
100
AcDbDictionaryWithDefault
340
F
  0
DICTIONARY
  5
3B
102
{ACAD_REACTORS
330
C
102
}
330
C
100
AcDbDictionary
281
     1
  3
A0
350
3C
  3
A1
350
3D
  3
A2
350
3E
  3
A3
350
3F
  3
A4
350
40
  3
A5
350
41
  3
A6
350
42
  3
A7
350
43
  3
A8
350
44
  3
A9
350
45
  3
B0
350
46
  3
B1
350
47
  3
B2
350
48
  3
B3
350
49
  3
B4
350
4A
  3
B5
350
4B
  3
B6
350
4C
  3
B7
350
4D
  3
B8
350
4E
  3
B9
350
4F
  3
C0
350
50
  3
C1
350
51
  3
C2
350
52
  3
C3
350
53
  3
C4
350
54
  3
C5
350
55
  3
C6
350
56
  3
C7
350
57
  3
C8
350
58
  3
C9
350
59
  3
D0
350
5A
  3
D1
350
5B
  3
D2
350
5C
  0
DICTIONARY
  5
1FB
102
{ACAD_REACTORS
330
C
102
}
330
C
100
AcDbDictionary
281
     1
  0
DICTIONARY
  5
2A
102
{ACAD_REACTORS
330
C
102
}
330
C
100
AcDbDictionary
281
     1
  3
2dWireframe
350
2F
  3
3D Hidden
350
31
  3
3dWireframe
350
30
  3
Basic
350
32
  3
Brighten
350
36
  3
ColorChange
350
3A
  3
Conceptual
350
34
  3
Dim
350
35
  3
Facepattern
350
39
  3
Flat
350
2B
  3
FlatWithEdges
350
2C
  3
Gouraud
350
2D
  3
GouraudWithEdges
350
2E
  3
Linepattern
350
38
  3
Realistic
350
33
  3
Thicken
350
37
  0
DICTIONARY
  5
1F9
102
{ACAD_REACTORS
330
C
102
}
330
C
100
AcDbDictionary
281
     1
  3
CANNOSCALE
350
1FA
  3
PSOLHEIGHT
350
1FE
  3
PSOLWIDTH
350
1FD
  0
LAYOUT
  5
1E
102
{ACAD_REACTORS
330
1A
102
}
330
1A
100
AcDbPlotSettings
  1

  2
none_device
  4

  6

 40
0.0
 41
0.0
 42
0.0
 43
0.0
 44
0.0
 45
0.0
 46
0.0
 47
0.0
 48
0.0
 49
0.0
140
0.0
141
0.0
142
1.0
143
1.0
 70
   688
 72
     0
 73
     0
 74
     5
  7

 75
    16
147
1.0
148
0.0
149
0.0
100
AcDbLayout
  1
Layout1
 70
     1
 71
     1
 10
0.0
 20
0.0
 11
1682.0
 21
2378.0
 12
0.0
 22
0.0
 32
0.0
 14
0.0
 24
0.0
 34
0.0
 15
1682.0
 25
2378.0
 35
0.0
146
0.0
 13
0.0
 23
0.0
 33
0.0
 16
1.0
 26
0.0
 36
0.0
 17
0.0
 27
1.0
 37
0.0
 76
     0
330
1B
  0
LAYOUT
  5
22
102
{ACAD_REACTORS
330
1A
102
}
330
1A
100
AcDbPlotSettings
  1

  2
none_device
  4

  6

 40
0.0
 41
0.0
 42
0.0
 43
0.0
 44
0.0
 45
0.0
 46
0.0
 47
0.0
 48
0.0
 49
0.0
140
0.0
141
0.0
142
1.0
143
1.0
 70
  1712
 72
     0
 73
     0
 74
     0
  7

 75
     0
147
1.0
148
0.0
149
0.0
100
AcDbLayout
  1
Model
 70
     1
 71
     0
 10
0.0
 20
0.0
 11
1682.0
 21
2378.0
 12
0.0
 22
0.0
 32
0.0
 14
0.0
 24
0.0
 34
0.0
 15
1682.0
 25
2378.0
 35
0.0
146
0.0
 13
0.0
 23
0.0
 33
0.0
 16
1.0
 26
0.0
 36
0.0
 17
0.0
 27
1.0
 37
0.0
 76
     0
330
1F
331
29
  0
MLINESTYLE
  5
18
102
{ACAD_REACTORS
330
17
102
}
330
17
100
AcDbMlineStyle
  2
Standard
 70
     0
  3

 62
   256
 51
90.0
 52
90.0
 71
     2
 49
0.5
 62
   256
  6
BYLAYER
 49
-0.5
 62
   256
  6
BYLAYER
  0
ACDBPLACEHOLDER
  5
F
102
{ACAD_REACTORS
330
E
102
}
330
E
  0
SCALE
  5
3C
102
{ACAD_REACTORS
330
3B
102
}
330
3B
100
AcDbScale
 70
     0
300
1:1
140
1.0
141
1.0
290
     1
  0
SCALE
  5
3D
102
{ACAD_REACTORS
330
3B
102
}
330
3B
100
AcDbScale
 70
     0
300
1:2
140
1.0
141
2.0
290
     0
  0
SCALE
  5
3E
102
{ACAD_REACTORS
330
3B
102
}
330
3B
100
AcDbScale
 70
     0
300
1:4
140
1.0
141
4.0
290
     0
  0
SCALE
  5
3F
102
{ACAD_REACTORS
330
3B
102
}
330
3B
100
AcDbScale
 70
     0
300
1:5
140
1.0
141
5.0
290
     0
  0
SCALE
  5
40
102
{ACAD_REACTORS
330
3B
102
}
330
3B
100
AcDbScale
 70
     0
300
1:8
140
1.0
141
8.0
290
     0
  0
SCALE
  5
41
102
{ACAD_REACTORS
330
3B
102
}
330
3B
100
AcDbScale
 70
     0
300
1:10
140
1.0
141
10.0
290
     0
  0
SCALE
  5
42
102
{ACAD_REACTORS
330
3B
102
}
330
3B
100
AcDbScale
 70
     0
300
1:16
140
1.0
141
16.0
290
     0
  0
SCALE
  5
43
102
{ACAD_REACTORS
330
3B
102
}
330
3B
100
AcDbScale
 70
     0
300
1:20
140
1.0
141
20.0
290
     0
  0
SCALE
  5
44
102
{ACAD_REACTORS
330
3B
102
}
330
3B
100
AcDbScale
 70
     0
300
1:30
140
1.0
141
30.0
290
     0
  0
SCALE
  5
45
102
{ACAD_REACTORS
330
3B
102
}
330
3B
100
AcDbScale
 70
     0
300
1:40
140
1.0
141
40.0
290
     0
  0
SCALE
  5
46
102
{ACAD_REACTORS
330
3B
102
}
330
3B
100
AcDbScale
 70
     0
300
1:50
140
1.0
141
50.0
290
     0
  0
SCALE
  5
47
102
{ACAD_REACTORS
330
3B
102
}
330
3B
100
AcDbScale
 70
     0
300
1:100
140
1.0
141
100.0
290
     0
  0
SCALE
  5
48
102
{ACAD_REACTORS
330
3B
102
}
330
3B
100
AcDbScale
 70
     0
300
2:1
140
2.0
141
1.0
290
     0
  0
SCALE
  5
49
102
{ACAD_REACTORS
330
3B
102
}
330
3B
100
AcDbScale
 70
     0
300
4:1
140
4.0
141
1.0
290
     0
  0
SCALE
  5
4A
102
{ACAD_REACTORS
330
3B
102
}
330
3B
100
AcDbScale
 70
     0
300
8:1
140
8.0
141
1.0
290
     0
  0
SCALE
  5
4B
102
{ACAD_REACTORS
330
3B
102
}
330
3B
100
AcDbScale
 70
     0
300
10:1
140
10.0
141
1.0
290
     0
  0
SCALE
  5
4C
102
{ACAD_REACTORS
330
3B
102
}
330
3B
100
AcDbScale
 70
     0
300
100:1
140
100.0
141
1.0
290
     0
  0
SCALE
  5
4D
102
{ACAD_REACTORS
330
3B
102
}
330
3B
100
AcDbScale
 70
     0
300
1/128" = 1'-0"
140
0.0078125
141
12.0
290
     0
  0
SCALE
  5
4E
102
{ACAD_REACTORS
330
3B
102
}
330
3B
100
AcDbScale
 70
     0
300
1/64" = 1'-0"
140
0.015625
141
12.0
290
     0
  0
SCALE
  5
4F
102
{ACAD_REACTORS
330
3B
102
}
330
3B
100
AcDbScale
 70
     0
300
1/32" = 1'-0"
140
0.03125
141
12.0
290
     0
  0
SCALE
  5
50
102
{ACAD_REACTORS
330
3B
102
}
330
3B
100
AcDbScale
 70
     0
300
1/16" = 1'-0"
140
0.0625
141
12.0
290
     0
  0
SCALE
  5
51
102
{ACAD_REACTORS
330
3B
102
}
330
3B
100
AcDbScale
 70
     0
300
3/32" = 1'-0"
140
0.09375
141
12.0
290
     0
  0
SCALE
  5
52
102
{ACAD_REACTORS
330
3B
102
}
330
3B
100
AcDbScale
 70
     0
300
1/8" = 1'-0"
140
0.125
141
12.0
290
     0
  0
SCALE
  5
53
102
{ACAD_REACTORS
330
3B
102
}
330
3B
100
AcDbScale
 70
     0
300
3/16" = 1'-0"
140
0.1875
141
12.0
290
     0
  0
SCALE
  5
54
102
{ACAD_REACTORS
330
3B
102
}
330
3B
100
AcDbScale
 70
     0
300
1/4" = 1'-0"
140
0.25
141
12.0
290
     0
  0
SCALE
  5
55
102
{ACAD_REACTORS
330
3B
102
}
330
3B
100
AcDbScale
 70
     0
300
3/8" = 1'-0"
140
0.375
141
12.0
290
     0
  0
SCALE
  5
56
102
{ACAD_REACTORS
330
3B
102
}
330
3B
100
AcDbScale
 70
     0
300
1/2" = 1'-0"
140
0.5
141
12.0
290
     0
  0
SCALE
  5
57
102
{ACAD_REACTORS
330
3B
102
}
330
3B
100
AcDbScale
 70
     0
300
3/4" = 1'-0"
140
0.75
141
12.0
290
     0
  0
SCALE
  5
58
102
{ACAD_REACTORS
330
3B
102
}
330
3B
100
AcDbScale
 70
     0
300
1" = 1'-0"
140
1.0
141
12.0
290
     0
  0
SCALE
  5
59
102
{ACAD_REACTORS
330
3B
102
}
330
3B
100
AcDbScale
 70
     0
300
1-1/2" = 1'-0"
140
1.5
141
12.0
290
     0
  0
SCALE
  5
5A
102
{ACAD_REACTORS
330
3B
102
}
330
3B
100
AcDbScale
 70
     0
300
3" = 1'-0"
140
3.0
141
12.0
290
     0
  0
SCALE
  5
5B
102
{ACAD_REACTORS
330
3B
102
}
330
3B
100
AcDbScale
 70
     0
300
6" = 1'-0"
140
6.0
141
12.0
290
     0
  0
SCALE
  5
5C
102
{ACAD_REACTORS
330
3B
102
}
330
3B
100
AcDbScale
 70
     0
300
1'-0" = 1'-0"
140
12.0
141
12.0
290
     0
  0
VISUALSTYLE
  5
2F
102
{ACAD_REACTORS
330
2A
102
}
330
2A
100
AcDbVisualStyle
  2
2dWireframe
 70
     4
 71
     0
 72
     2
 73
     0
 90
        0
 40
-0.6
 41
-30.0
 62
     5
 63
     7
 74
     1
 91
        4
 64
     7
 65
   257
 75
     1
175
     1
 42
1.0
 92
        0
 66
   257
 43
1.0
 76
     1
 77
     6
 78
     2
 67
     7
 79
     5
170
     0
171
     0
290
     0
174
     0
 93
        1
 44
0.0
173
     0
291
     0
 45
0.0
1001
ACAD
1000
AcDbSavedByObjectVersion
1070
     0
  0
VISUALSTYLE
  5
31
102
{ACAD_REACTORS
330
2A
102
}
330
2A
100
AcDbVisualStyle
  2
3D Hidden
 70
     6
 71
     1
 72
     2
 73
     2
 90
        0
 40
-0.6
 41
-30.0
 62
     5
 63
     7
 74
     2
 91
        2
 64
     7
 65
   257
 75
     2
175
     1
 42
40.0
 92
        0
 66
   257
 43
1.0
 76
     1
 77
     6
 78
     2
 67
     7
 79
     3
170
     0
171
     0
290
     0
174
     0
 93
        1
 44
0.0
173
     0
291
     0
 45
0.0
1001
ACAD
1000
AcDbSavedByObjectVersion
1070
     0
  0
VISUALSTYLE
  5
30
102
{ACAD_REACTORS
330
2A
102
}
330
2A
100
AcDbVisualStyle
  2
3dWireframe
 70
     5
 71
     0
 72
     2
 73
     0
 90
        0
 40
-0.6
 41
-30.0
 62
     5
 63
     7
 74
     1
 91
        4
 64
     7
 65
   257
 75
     1
175
     1
 42
1.0
 92
        0
 66
   257
 43
1.0
 76
     1
 77
     6
 78
     2
 67
     7
 79
     5
170
     0
171
     0
290
     0
174
     0
 93
        1
 44
0.0
173
     0
291
     0
 45
0.0
1001
ACAD
1000
AcDbSavedByObjectVersion
1070
     0
  0
VISUALSTYLE
  5
32
102
{ACAD_REACTORS
330
2A
102
}
330
2A
100
AcDbVisualStyle
  2
Basic
 70
     7
 71
     1
 72
     0
 73
     1
 90
        0
 40
-0.6
 41
-30.0
 62
     5
 63
     7
 74
     0
 91
        4
 64
     7
 65
   257
 75
     1
175
     1
 42
1.0
 92
        8
 66
     7
 43
1.0
 76
     1
 77
     6
 78
     2
 67
     7
 79
     5
170
     0
171
     0
290
     0
174
     0
 93
        1
 44
0.0
173
     0
291
     1
 45
0.0
1001
ACAD
1000
AcDbSavedByObjectVersion
1070
     0
  0
VISUALSTYLE
  5
36
102
{ACAD_REACTORS
330
2A
102
}
330
2A
100
AcDbVisualStyle
  2
Brighten
 70
    12
 71
     2
 72
     2
 73
     0
 90
        0
 40
-0.6
 41
-30.0
 62
     5
 63
     7
 74
     1
 91
        4
 64
     7
 65
   257
 75
     1
175
     1
 42
1.0
 92
        8
 66
     7
 43
1.0
 76
     1
 77
     6
 78
     2
 67
     7
 79
     5
170
     0
171
     0
290
     0
174
     0
 93
        1
 44
50.0
173
     0
291
     1
 45
0.0
1001
ACAD
1000
AcDbSavedByObjectVersion
1070
     0
  0
VISUALSTYLE
  5
3A
102
{ACAD_REACTORS
330
2A
102
}
330
2A
100
AcDbVisualStyle
  2
ColorChange
 70
    16
 71
     2
 72
     2
 73
     3
 90
        0
 40
-0.6
 41
-30.0
 62
     5
 63
     8
 74
     1
 91
        4
 64
     7
 65
   257
 75
     1
175
     1
 42
1.0
 92
        8
 66
     8
 43
1.0
 76
     1
 77
     6
 78
     2
 67
     7
 79
     5
170
     0
171
     0
290
     0
174
     0
 93
        1
 44
0.0
173
     0
291
     1
 45
0.0
1001
ACAD
1000
AcDbSavedByObjectVersion
1070
     0
  0
VISUALSTYLE
  5
34
102
{ACAD_REACTORS
330
2A
102
}
330
2A
100
AcDbVisualStyle
  2
Conceptual
 70
     9
 71
     3
 72
     2
 73
     0
 90
        0
 40
-0.6
 41
-30.0
 62
     5
 63
     7
 74
     2
 91
        2
 64
     7
 65
   257
 75
     1
175
     1
 42
40.0
 92
        8
 66
     7
 43
1.0
 76
     1
 77
     6
 78
     2
 67
     7
 79
     3
170
     0
171
     0
290
     0
174
     0
 93
        1
 44
0.0
173
     0
291
     0
 45
0.0
1001
ACAD
1000
AcDbSavedByObjectVersion
1070
     0
  0
VISUALSTYLE
  5
35
102
{ACAD_REACTORS
330
2A
102
}
330
2A
100
AcDbVisualStyle
  2
Dim
 70
    11
 71
     2
 72
     2
 73
     0
 90
        0
 40
-0.6
 41
-30.0
 62
     5
 63
     7
 74
     1
 91
        4
 64
     7
 65
   257
 75
     1
175
     1
 42
1.0
 92
        8
 66
     7
 43
1.0
 76
     1
 77
     6
 78
     2
 67
     7
 79
     5
170
     0
171
     0
290
     0
174
     0
 93
        1
 44
-50.0
173
     0
291
     1
 45
0.0
1001
ACAD
1000
AcDbSavedByObjectVersion
1070
     0
  0
VISUALSTYLE
  5
39
102
{ACAD_REACTORS
330
2A
102
}
330
2A
100
AcDbVisualStyle
  2
Facepattern
 70
    15
 71
     2
 72
     2
 73
     0
 90
        0
 40
-0.6
 41
-30.0
 62
     5
 63
     7
 74
     1
 91
        4
 64
     7
 65
   257
 75
     1
175
     1
 42
1.0
 92
        8
 66
     7
 43
1.0
 76
     1
 77
     6
 78
     2
 67
     7
 79
     5
170
     0
171
     0
290
     0
174
     0
 93
        1
 44
0.0
173
     0
291
     1
 45
0.0
1001
ACAD
1000
AcDbSavedByObjectVersion
1070
     0
  0
VISUALSTYLE
  5
2B
102
{ACAD_REACTORS
330
2A
102
}
330
2A
100
AcDbVisualStyle
  2
Flat
 70
     0
 71
     2
 72
     1
 73
     1
 90
        2
 40
-0.6
 41
30.0
 62
     5
 63
     7
 74
     0
 91
        4
 64
     7
 65
   257
 75
     1
175
     1
 42
1.0
 92
        8
 66
     7
 43
1.0
 76
     1
 77
     6
 78
     2
 67
     7
 79
     5
170
     0
171
     0
290
     0
174
     0
 93
       13
 44
0.0
173
     0
291
     1
 45
0.0
1001
ACAD
1000
AcDbSavedByObjectVersion
1070
     0
  0
VISUALSTYLE
  5
2C
102
{ACAD_REACTORS
330
2A
102
}
330
2A
100
AcDbVisualStyle
  2
FlatWithEdges
 70
     1
 71
     2
 72
     1
 73
     1
 90
        2
 40
-0.6
 41
30.0
 62
     5
 63
     7
 74
     1
 91
        4
 64
     7
 65
   257
 75
     1
175
     1
 42
1.0
 92
        0
 66
   257
 43
1.0
 76
     1
 77
     6
 78
     2
 67
     7
 79
     5
170
     0
171
     0
290
     0
174
     0
 93
       13
 44
0.0
173
     0
291
     1
 45
0.0
1001
ACAD
1000
AcDbSavedByObjectVersion
1070
     0
  0
VISUALSTYLE
  5
2D
102
{ACAD_REACTORS
330
2A
102
}
330
2A
100
AcDbVisualStyle
  2
Gouraud
 70
     2
 71
     2
 72
     2
 73
     1
 90
        2
 40
-0.6
 41
30.0
 62
     5
 63
     7
 74
     0
 91
        4
 64
     7
 65
   257
 75
     1
175
     1
 42
1.0
 92
        0
 66
     7
 43
1.0
 76
     1
 77
     6
 78
     2
 67
     7
 79
     5
170
     0
171
     0
290
     0
174
     0
 93
       13
 44
0.0
173
     0
291
     1
 45
0.0
1001
ACAD
1000
AcDbSavedByObjectVersion
1070
     0
  0
VISUALSTYLE
  5
2E
102
{ACAD_REACTORS
330
2A
102
}
330
2A
100
AcDbVisualStyle
  2
GouraudWithEdges
 70
     3
 71
     2
 72
     2
 73
     1
 90
        2
 40
-0.6
 41
30.0
 62
     5
 63
     7
 74
     1
 91
        4
 64
     7
 65
   257
 75
     1
175
     1
 42
1.0
 92
        0
 66
   257
 43
1.0
 76
     1
 77
     6
 78
     2
 67
     7
 79
     5
170
     0
171
     0
290
     0
174
     0
 93
       13
 44
0.0
173
     0
291
     1
 45
0.0
1001
ACAD
1000
AcDbSavedByObjectVersion
1070
     0
  0
VISUALSTYLE
  5
38
102
{ACAD_REACTORS
330
2A
102
}
330
2A
100
AcDbVisualStyle
  2
Linepattern
 70
    14
 71
     2
 72
     2
 73
     0
 90
        0
 40
-0.6
 41
-30.0
 62
     5
 63
     7
 74
     1
 91
        4
 64
     7
 65
   257
 75
     7
175
     7
 42
1.0
 92
        8
 66
     7
 43
1.0
 76
     1
 77
     6
 78
     2
 67
     7
 79
     5
170
     0
171
     0
290
     0
174
     0
 93
        1
 44
0.0
173
     0
291
     1
 45
0.0
1001
ACAD
1000
AcDbSavedByObjectVersion
1070
     0
  0
VISUALSTYLE
  5
33
102
{ACAD_REACTORS
330
2A
102
}
330
2A
100
AcDbVisualStyle
  2
Realistic
 70
     8
 71
     2
 72
     2
 73
     0
 90
        0
 40
-0.6
 41
-30.0
 62
     5
 63
     7
 74
     1
 91
        0
 64
     7
 65
   257
 75
     1
175
     1
 42
1.0
 92
        8
 66
     8
 43
1.0
 76
     1
 77
     6
 78
     2
 67
     7
 79
     5
170
     0
171
     0
290
     0
174
     0
 93
       13
 44
0.0
173
     0
291
     0
 45
0.0
1001
ACAD
1000
AcDbSavedByObjectVersion
1070
     0
  0
VISUALSTYLE
  5
37
102
{ACAD_REACTORS
330
2A
102
}
330
2A
100
AcDbVisualStyle
  2
Thicken
 70
    13
 71
     2
 72
     2
 73
     0
 90
        0
 40
-0.6
 41
-30.0
 62
     5
 63
     7
 74
     1
 91
        4
 64
     7
 65
   257
 75
     1
175
     1
 42
1.0
 92
       12
 66
     7
 43
1.0
 76
     1
 77
     6
 78
     2
 67
     7
 79
     5
170
     0
171
     0
290
     0
174
     0
 93
        1
 44
0.0
173
     0
291
     1
 45
0.0
1001
ACAD
1000
AcDbSavedByObjectVersion
1070
     0
  0
DICTIONARYVAR
  5
1FA
102
{ACAD_REACTORS
330
1F9
102
}
330
1F9
100
DictionaryVariables
280
     0
  1
1:1
  0
DICTIONARYVAR
  5
1FE
102
{ACAD_REACTORS
330
1F9
102
}
330
1F9
100
DictionaryVariables
280
     0
  1
80.000000
  0
DICTIONARYVAR
  5
1FD
102
{ACAD_REACTORS
330
1F9
102
}
330
1F9
100
DictionaryVariables
280
     0
  1
5.000000
  0
ENDSEC
  0
EOF
