  0
SECTION
  2
HEADER
  9
$ACADVER
  1
AC1015
  9
$ACADMAINTVER
 70
     6
  9
$DWGCODEPAGE
  3
ANSI_1252
  9
$INSBASE
 10
0.0
 20
0.0
 30
0.0
  9
$EXTMIN
 10
0.0
 20
0.0
 30
0.0
  9
$EXTMAX
 10
1682.0
 20
2378.0
 30
0.0
  9
$LIMMIN
 10
0.0
 20
0.0
  9
$LIMMAX
 10
1682.0
 20
2378.0
  9
$ORTHOMODE
 70
     0
  9
$REGENMODE
 70
     1
  9
$FILLMODE
 70
     1
  9
$QTEXTMODE
 70
     0
  9
$MIRRTEXT
 70
     1
  9
$LTSCALE
 40
1.0
  9
$ATTMODE
 70
     1
  9
$TEXTSIZE
 40
2.5
  9
$TRACEWID
 40
1.0
  9
$TEXTSTYLE
  7
Standard
  9
$CLAYER
  8
0
  9
$CELTYPE
  6
ByLayer
  9
$CECOLOR
 62
   256
  9
$CELTSCALE
 40
1.0
  9
$DISPSILH
 70
     0
  9
$DIMSCALE
 40
1.0
  9
$DIMASZ
 40
2.5
  9
$DIMEXO
 40
0.625
  9
$DIMDLI
 40
3.75
  9
$DIMRND
 40
0.0
  9
$DIMDLE
 40
0.0
  9
$DIMEXE
 40
1.25
  9
$DIMTP
 40
0.0
  9
$DIMTM
 40
0.0
  9
$DIMTXT
 40
2.5
  9
$DIMCEN
 40
2.5
  9
$DIMTSZ
 40
0.0
  9
$DIMTOL
 70
     0
  9
$DIMLIM
 70
     0
  9
$DIMTIH
 70
     0
  9
$DIMTOH
 70
     0
  9
$DIMSE1
 70
     0
  9
$DIMSE2
 70
     0
  9
$DIMTAD
 70
     1
  9
$DIMZIN
 70
     8
  9
$DIMBLK
  1

  9
$DIMASO
 70
     1
  9
$DIMSHO
 70
     1
  9
$DIMPOST
  1

  9
$DIMAPOST
  1

  9
$DIMALT
 70
     0
  9
$DIMALTD
 70
     3
  9
$DIMALTF
 40
0.0393700787
  9
$DIMLFAC
 40
1.0
  9
$DIMTOFL
 70
     1
  9
$DIMTVP
 40
0.0
  9
$DIMTIX
 70
     0
  9
$DIMSOXD
 70
     0
  9
$DIMSAH
 70
     0
  9
$DIMBLK1
  1

  9
$DIMBLK2
  1

  9
$DIMSTYLE
  2
ISO-25
  9
$DIMCLRD
 70
     0
  9
$DIMCLRE
 70
     0
  9
$DIMCLRT
 70
     0
  9
$DIMTFAC
 40
1.0
  9
$DIMGAP
 40
0.625
  9
$DIMJUST
 70
     0
  9
$DIMSD1
 70
     0
  9
$DIMSD2
 70
     0
  9
$DIMTOLJ
 70
     0
  9
$DIMTZIN
 70
     8
  9
$DIMALTZ
 70
     0
  9
$DIMALTTZ
 70
     0
  9
$DIMUPT
 70
     0
  9
$DIMDEC
 70
     2
  9
$DIMTDEC
 70
     2
  9
$DIMALTU
 70
     2
  9
$DIMALTTD
 70
     3
  9
$DIMTXSTY
  7
Standard
  9
$DIMAUNIT
 70
     0
  9
$DIMADEC
 70
     0
  9
$DIMALTRND
 40
0.0
  9
$DIMAZIN
 70
     0
  9
$DIMDSEP
 70
    44
  9
$DIMATFIT
 70
     3
  9
$DIMFRAC
 70
     0
  9
$DIMLDRBLK
  1

  9
$DIMLUNIT
 70
     2
  9
$DIMLWD
 70
    -2
  9
$DIMLWE
 70
    -2
  9
$DIMTMOVE
 70
     0
  9
$LUNITS
 70
     2
  9
$LUPREC
 70
     4
  9
$SKETCHINC
 40
1.0
  9
$FILLETRAD
 40
10.0
  9
$AUNITS
 70
     0
  9
$AUPREC
 70
     0
  9
$MENU
  1
.
  9
$ELEVATION
 40
0.0
  9
$PELEVATION
 40
0.0
  9
$THICKNESS
 40
0.0
  9
$LIMCHECK
 70
     0
  9
$CHAMFERA
 40
10.0
  9
$CHAMFERB
 40
10.0
  9
$CHAMFERC
 40
20.0
  9
$CHAMFERD
 40
0.0
  9
$SKPOLY
 70
     0
  9
$TDCREATE
 40
2455580.617762442
  9
$TDUCREATE
 40
2455580.576095775
  9
$TDUPDATE
 40
2455580.617762454
  9
$TDUUPDATE
 40
2455580.576095787
  9
$TDINDWG
 40
0.0000000116
  9
$TDUSRTIMER
 40
0.0000000116
  9
$USRTIMER
 70
     1
  9
$ANGBASE
 50
0.0
  9
$ANGDIR
 70
     0
  9
$PDMODE
 70
     0
  9
$PDSIZE
 40
0.0
  9
$PLINEWID
 40
0.0
  9
$SPLFRAME
 70
     0
  9
$SPLINETYPE
 70
     6
  9
$SPLINESEGS
 70
     8
  9
$HANDSEED
  5
1C9
  9
$SURFTAB1
 70
     6
  9
$SURFTAB2
 70
     6
  9
$SURFTYPE
 70
     6
  9
$SURFU
 70
     6
  9
$SURFV
 70
     6
  9
$UCSBASE
  2

  9
$UCSNAME
  2

  9
$UCSORG
 10
0.0
 20
0.0
 30
0.0
  9
$UCSXDIR
 10
1.0
 20
0.0
 30
0.0
  9
$UCSYDIR
 10
0.0
 20
1.0
 30
0.0
  9
$UCSORTHOREF
  2

  9
$UCSORTHOVIEW
 70
     0
  9
$UCSORGTOP
 10
0.0
 20
0.0
 30
0.0
  9
$UCSORGBOTTOM
 10
0.0
 20
0.0
 30
0.0
  9
$UCSORGLEFT
 10
0.0
 20
0.0
 30
0.0
  9
$UCSORGRIGHT
 10
0.0
 20
0.0
 30
0.0
  9
$UCSORGFRONT
 10
0.0
 20
0.0
 30
0.0
  9
$UCSORGBACK
 10
0.0
 20
0.0
 30
0.0
  9
$PUCSBASE
  2

  9
$PUCSNAME
  2

  9
$PUCSORG
 10
0.0
 20
0.0
 30
0.0
  9
$PUCSXDIR
 10
1.0
 20
0.0
 30
0.0
  9
$PUCSYDIR
 10
0.0
 20
1.0
 30
0.0
  9
$PUCSORTHOREF
  2

  9
$PUCSORTHOVIEW
 70
     0
  9
$PUCSORGTOP
 10
0.0
 20
0.0
 30
0.0
  9
$PUCSORGBOTTOM
 10
0.0
 20
0.0
 30
0.0
  9
$PUCSORGLEFT
 10
0.0
 20
0.0
 30
0.0
  9
$PUCSORGRIGHT
 10
0.0
 20
0.0
 30
0.0
  9
$PUCSORGFRONT
 10
0.0
 20
0.0
 30
0.0
  9
$PUCSORGBACK
 10
0.0
 20
0.0
 30
0.0
  9
$USERI1
 70
     0
  9
$USERI2
 70
     0
  9
$USERI3
 70
     0
  9
$USERI4
 70
     0
  9
$USERI5
 70
     0
  9
$USERR1
 40
0.0
  9
$USERR2
 40
0.0
  9
$USERR3
 40
0.0
  9
$USERR4
 40
0.0
  9
$USERR5
 40
0.0
  9
$WORLDVIEW
 70
     1
  9
$SHADEDGE
 70
     3
  9
$SHADEDIF
 70
    70
  9
$TILEMODE
 70
     1
  9
$MAXACTVP
 70
    64
  9
$PINSBASE
 10
0.0
 20
0.0
 30
0.0
  9
$PLIMCHECK
 70
     0
  9
$PEXTMIN
 10
0.0
 20
0.0
 30
0.0
  9
$PEXTMAX
 10
1682.0
 20
2378.0
 30
0.0
  9
$PLIMMIN
 10
0.0
 20
0.0
  9
$PLIMMAX
 10
1682.0
 20
2378.0
  9
$UNITMODE
 70
     0
  9
$VISRETAIN
 70
     1
  9
$PLINEGEN
 70
     0
  9
$PSLTSCALE
 70
     1
  9
$TREEDEPTH
 70
  3020
  9
$CMLSTYLE
  2
Standard
  9
$CMLJUST
 70
     0
  9
$CMLSCALE
 40
20.0
  9
$PROXYGRAPHICS
 70
     1
  9
$MEASUREMENT
 70
     1
  9
$CELWEIGHT
370
    -1
  9
$ENDCAPS
280
     0
  9
$JOINSTYLE
280
     0
  9
$LWDISPLAY
290
     0
  9
$INSUNITS
 70
     4
  9
$HYPERLINKBASE
  1

  9
$STYLESHEET
  1

  9
$XEDIT
290
     1
  9
$CEPSNTYPE
380
     0
  9
$PSTYLEMODE
290
     1
  9
$FINGERPRINTGUID
  2
{2703CC53-8BA1-4483-8845-6AAFC59A4FCA}
  9
$VERSIONGUID
  2
{FAEB1C32-E019-11D5-929B-00C0DF256EC4}
  9
$EXTNAMES
290
     1
  9
$PSVPSCALE
 40
0.0
  9
$OLESTARTUP
290
     0
  0
ENDSEC
  0
SECTION
  2
CLASSES
  0
CLASS
  1
ACDBDICTIONARYWDFLT
  2
AcDbDictionaryWithDefault
  3
ObjectDBX Classes
 90
        0
280
     0
281
     0
  0
CLASS
  1
VISUALSTYLE
  2
AcDbVisualStyle
  3
ObjectDBX Classes
 90
     4095
280
     0
281
     0
  0
CLASS
  1
SCALE
  2
AcDbScale
  3
ObjectDBX Classes
 90
     1153
280
     0
281
     0
  0
CLASS
  1
DICTIONARYVAR
  2
AcDbDictionaryVar
  3
ObjectDBX Classes
 90
        0
280
     0
281
     0
  0
CLASS
  1
ACDBPLACEHOLDER
  2
AcDbPlaceHolder
  3
ObjectDBX Classes
 90
        0
280
     0
281
     0
  0
CLASS
  1
LAYOUT
  2
AcDbLayout
  3
ObjectDBX Classes
 90
        0
280
     0
281
     0
  0
ENDSEC
  0
SECTION
  2
TABLES
  0
TABLE
  2
VPORT
  5
8
330
0
100
AcDbSymbolTable
 70
     1
  0
VPORT
  5
29
330
8
100
AcDbSymbolTableRecord
100
AcDbViewportTableRecord
  2
*Active
 70
     0
 10
0.0
 20
0.0
 11
1.0
 21
1.0
 12
344.1869158879
 22
148.5
 13
0.0
 23
0.0
 14
10.0
 24
10.0
 15
10.0
 25
10.0
 16
0.0
 26
0.0
 36
1.0
 17
0.0
 27
0.0
 37
0.0
 40
297.0
 41
1.9729729729
 42
50.0
 43
0.0
 44
0.0
 50
0.0
 51
0.0
 71
     0
 72
   100
 73
     1
 74
     3
 75
     0
 76
     0
 77
     0
 78
     0
281
     0
 65
     1
110
0.0
120
0.0
130
0.0
111
1.0
121
0.0
131
0.0
112
0.0
122
1.0
132
0.0
 79
     0
146
0.0
  0
ENDTAB
  0
TABLE
  2
LTYPE
  5
5
330
0
100
AcDbSymbolTable
 70
     2
  0
LTYPE
  5
14
330
5
100
AcDbSymbolTableRecord
100
AcDbLinetypeTableRecord
  2
ByBlock
 70
     0
  3

 72
    65
 73
     0
 40
0.0
  0
LTYPE
  5
15
330
5
100
AcDbSymbolTableRecord
100
AcDbLinetypeTableRecord
  2
ByLayer
 70
     0
  3

 72
    65
 73
     0
 40
0.0
  0
LTYPE
  5
16
330
5
100
AcDbSymbolTableRecord
100
AcDbLinetypeTableRecord
  2
Continuous
 70
     0
  3
Solid line
 72
    65
 73
     0
 40
0.0
  0
LTYPE
  5
60
330
5
100
AcDbSymbolTableRecord
100
AcDbLinetypeTableRecord
  2
CENTER2
 70
     0
  3
Center (.5x) ___ _ ___ _ ___ _ ___ _ ___ _ ___
 72
    65
 73
     4
 40
28.575
 49
19.05
 74
     4
 75
     0
340
0
 46
0.0
 50
0.0
 44
0.0
 45
0.0
 49
-3.175
 74
     4
 75
     0
340
0
 46
0.0
 50
0.0
 44
0.0
 45
0.0
 49
3.175
 74
     4
 75
     0
340
0
 46
0.0
 50
0.0
 44
0.0
 45
0.0
 49
-3.175
 74
     4
 75
     0
340
0
 46
0.0
 50
0.0
 44
0.0
 45
0.0
  0
ENDTAB
  0
TABLE
  2
LAYER
  5
2
330
0
100
AcDbSymbolTable
 70
     9
  0
LAYER
  5
10
330
2
100
AcDbSymbolTableRecord
100
AcDbLayerTableRecord
  2
0
 70
     0
 62
     7
  6
Continuous
370
    -3
390
F
  0
LAYER
  5
5D
330
2
100
AcDbSymbolTableRecord
100
AcDbLayerTableRecord
  2
Default
 70
     0
 62
     7
  6
Continuous
370
    -3
390
F
  0
LAYER
  5
8E
330
2
100
AcDbSymbolTableRecord
100
AcDbLayerTableRecord
  2
$DDT_AUDIT_GENERATED_(8E)
 70
     0
 62
     7
  6
Continuous
370
    -3
390
F
  0
LAYER
  5
93
330
2
100
AcDbSymbolTableRecord
100
AcDbLayerTableRecord
  2
$DDT_AUDIT_GENERATED_(93)
 70
     0
 62
     7
  6
Continuous
370
    -3
390
F
  0
LAYER
  5
AE
330
2
100
AcDbSymbolTableRecord
100
AcDbLayerTableRecord
  2
$DDT_AUDIT_GENERATED_(AE)
 70
     0
 62
     7
  6
Continuous
370
    -3
390
F
  0
LAYER
  5
C6
330
2
100
AcDbSymbolTableRecord
100
AcDbLayerTableRecord
  2
$DDT_AUDIT_GENERATED_(C6)
 70
     0
 62
     7
  6
Continuous
370
    -3
390
F
  0
LAYER
  5
D8
330
2
100
AcDbSymbolTableRecord
100
AcDbLayerTableRecord
  2
$DDT_AUDIT_GENERATED_(D8)
 70
     0
 62
     7
  6
Continuous
370
    -3
390
F
  0
LAYER
  5
DF
330
2
100
AcDbSymbolTableRecord
100
AcDbLayerTableRecord
  2
$DDT_AUDIT_GENERATED_(DF)
 70
     0
 62
     7
  6
Continuous
370
    -3
390
F
  0
LAYER
  5
17F
330
2
100
AcDbSymbolTableRecord
100
AcDbLayerTableRecord
  2
$DDT_AUDIT_GENERATED_(17F)
 70
     0
 62
     7
  6
Continuous
370
    -3
390
F
  0
ENDTAB
  0
TABLE
  2
STYLE
  5
3
330
0
100
AcDbSymbolTable
 70
     2
  0
STYLE
  5
11
330
3
100
AcDbSymbolTableRecord
100
AcDbTextStyleTableRecord
  2
Standard
 70
     0
 40
0.0
 41
1.0
 50
0.0
 71
     0
 42
2.5
  3
txt
  4

  0
STYLE
  5
1B8
330
3
100
AcDbSymbolTableRecord
100
AcDbTextStyleTableRecord
  2
SEACAD_seiso_ttf
 70
     0
 40
0.0
 41
1.0
 50
0.0
 71
     0
 42
0.2
  3
seiso.ttf
  4

  0
ENDTAB
  0
TABLE
  2
VIEW
  5
6
330
0
100
AcDbSymbolTable
 70
     0
  0
ENDTAB
  0
TABLE
  2
UCS
  5
7
330
0
100
AcDbSymbolTable
 70
     0
  0
ENDTAB
  0
TABLE
  2
APPID
  5
9
330
0
100
AcDbSymbolTable
 70
     1
  0
APPID
  5
12
330
9
100
AcDbSymbolTableRecord
100
AcDbRegAppTableRecord
  2
ACAD
 70
     0
  0
ENDTAB
  0
TABLE
  2
DIMSTYLE
  5
A
330
0
100
AcDbSymbolTable
 70
     1
100
AcDbDimStyleTable
  0
DIMSTYLE
105
27
330
A
100
AcDbSymbolTableRecord
100
AcDbDimStyleTableRecord
  2
ISO-25
 70
     0
 41
2.5
 42
0.625
 43
3.75
 44
1.25
 73
     0
 74
     0
 77
     1
 78
     8
140
2.5
141
2.5
143
0.0393700787
147
0.625
171
     3
172
     1
271
     2
272
     2
274
     3
278
    44
283
     0
284
     8
340
11
  0
ENDTAB
  0
TABLE
  2
BLOCK_RECORD
  5
1
330
0
100
AcDbSymbolTable
 70
    10
  0
BLOCK_RECORD
  5
1F
330
1
100
AcDbSymbolTableRecord
100
AcDbBlockTableRecord
  2
*Model_Space
340
22
  0
BLOCK_RECORD
  5
1B
330
1
100
AcDbSymbolTableRecord
100
AcDbBlockTableRecord
  2
*Paper_Space
340
1E
  0
BLOCK_RECORD
  5
5E
330
1
100
AcDbSymbolTableRecord
100
AcDbBlockTableRecord
  2
SEANNOT_GROUP
340
0
102
{BLKREFS
331
5F
102
}
  0
BLOCK_RECORD
  5
65
330
1
100
AcDbSymbolTableRecord
100
AcDbBlockTableRecord
  2
SEANNOT_GROUP1
340
0
102
{BLKREFS
331
66
102
}
  0
BLOCK_RECORD
  5
6F
330
1
100
AcDbSymbolTableRecord
100
AcDbBlockTableRecord
  2
SEANNOT_GROUP2
340
0
102
{BLKREFS
331
70
102
}
  0
BLOCK_RECORD
  5
79
330
1
100
AcDbSymbolTableRecord
100
AcDbBlockTableRecord
  2
SEANNOT_GROUP3
340
0
102
{BLKREFS
331
7A
102
}
  0
BLOCK_RECORD
  5
7F
330
1
100
AcDbSymbolTableRecord
100
AcDbBlockTableRecord
  2
SEANNOT_GROUP4
340
0
102
{BLKREFS
331
80
102
}
  0
BLOCK_RECORD
  5
86
330
1
100
AcDbSymbolTableRecord
100
AcDbBlockTableRecord
  2
SEANNOT_GROUP5
340
0
102
{BLKREFS
331
87
102
}
  0
BLOCK_RECORD
  5
8C
330
1
100
AcDbSymbolTableRecord
100
AcDbBlockTableRecord
  2
SE
340
0
102
{BLKREFS
331
8D
102
}
  0
BLOCK_RECORD
  5
DD
330
1
100
AcDbSymbolTableRecord
100
AcDbBlockTableRecord
  2
SE1
340
0
102
{BLKREFS
331
DE
102
}
  0
BLOCK_RECORD
  5
165
330
1
100
AcDbSymbolTableRecord
100
AcDbBlockTableRecord
  2
SE2
340
0
102
{BLKREFS
331
166
102
}
  0
ENDTAB
  0
ENDSEC
  0
SECTION
  2
BLOCKS
  0
BLOCK
  5
20
330
1F
100
AcDbEntity
  8
0
100
AcDbBlockBegin
  2
*Model_Space
 70
     0
 10
0.0
 20
0.0
 30
0.0
  3
*Model_Space
  1

  0
ENDBLK
  5
21
330
1F
100
AcDbEntity
  8
0
100
AcDbBlockEnd
  0
BLOCK
  5
1C
330
1B
100
AcDbEntity
 67
     1
  8
0
100
AcDbBlockBegin
  2
*Paper_Space
 70
     0
 10
0.0
 20
0.0
 30
0.0
  3
*Paper_Space
  1

  0
ENDBLK
  5
1D
330
1B
100
AcDbEntity
 67
     1
  8
0
100
AcDbBlockEnd
  0
BLOCK
  5
63
330
5E
100
AcDbEntity
  8
0
100
AcDbBlockBegin
  2
SEANNOT_GROUP
 70
     0
 10
0.0
 20
0.0
 30
0.0
  3
SEANNOT_GROUP
  1

  0
LINE
  5
61
330
5E
100
AcDbEntity
  8
Default
  6
CENTER2
 62
     7
100
AcDbLine
 10
74.9387561686
 20
182.588458799
 30
0.0
 11
34.9387570627
 21
182.588458799
 31
0.0
  0
LINE
  5
62
330
5E
100
AcDbEntity
  8
Default
  6
CENTER2
 62
     7
100
AcDbLine
 10
54.9387566157
 20
202.588458352
 30
0.0
 11
54.9387566157
 21
162.5884592461
 31
0.0
  0
ENDBLK
  5
64
330
5E
100
AcDbEntity
  8
0
100
AcDbBlockEnd
  0
BLOCK
  5
6D
330
65
100
AcDbEntity
  8
0
100
AcDbBlockBegin
  2
SEANNOT_GROUP1
 70
     0
 10
0.0
 20
0.0
 30
0.0
  3
SEANNOT_GROUP1
  1

  0
LINE
  5
67
330
65
100
AcDbEntity
  8
Default
  6
CENTER2
 62
     7
100
AcDbLine
 10
74.938458352
 20
941.2823889395
 30
0.0
 11
34.9384592461
 21
941.2823889395
 31
0.0
  0
LINE
  5
68
330
65
100
AcDbEntity
  8
Default
  6
CENTER2
 62
     7
100
AcDbLine
 10
54.938458799
 20
961.2823884924
 30
0.0
 11
54.938458799
 21
921.2823893865
 31
0.0
  0
LINE
  5
69
330
65
100
AcDbEntity
  8
Default
  6
CENTER2
 62
     7
100
AcDbLine
 10
79.9384582402
 20
941.2823889395
 30
0.0
 11
78.2283147892
 21
941.2823889395
 31
0.0
  0
LINE
  5
6A
330
65
100
AcDbEntity
  8
Default
  6
CENTER2
 62
     7
100
AcDbLine
 10
54.938458799
 20
966.2823883807
 30
0.0
 11
54.938458799
 21
964.5722449297
 31
0.0
  0
LINE
  5
6B
330
65
100
AcDbEntity
  8
Default
  6
CENTER2
 62
     7
100
AcDbLine
 10
29.9384593578
 20
941.2823889395
 30
0.0
 11
31.6486028088
 21
941.2823889395
 31
0.0
  0
LINE
  5
6C
330
65
100
AcDbEntity
  8
Default
  6
CENTER2
 62
     7
100
AcDbLine
 10
54.938458799
 20
916.2823894983
 30
0.0
 11
54.938458799
 21
917.9925329493
 31
0.0
  0
ENDBLK
  5
6E
330
65
100
AcDbEntity
  8
0
100
AcDbBlockEnd
  0
BLOCK
  5
77
330
6F
100
AcDbEntity
  8
0
100
AcDbBlockBegin
  2
SEANNOT_GROUP2
 70
     0
 10
0.0
 20
0.0
 30
0.0
  3
SEANNOT_GROUP2
  1

  0
LINE
  5
71
330
6F
100
AcDbEntity
  8
Default
  6
CENTER2
 62
     7
100
AcDbLine
 10
74.938458352
 20
321.0783147892
 30
0.0
 11
34.9384592461
 21
321.0783147892
 31
0.0
  0
LINE
  5
72
330
6F
100
AcDbEntity
  8
Default
  6
CENTER2
 62
     7
100
AcDbLine
 10
54.938458799
 20
341.0783143422
 30
0.0
 11
54.938458799
 21
301.0783152363
 31
0.0
  0
LINE
  5
73
330
6F
100
AcDbEntity
  8
Default
  6
CENTER2
 62
     7
100
AcDbLine
 10
79.9384582402
 20
321.0783147892
 30
0.0
 11
78.2283147892
 21
321.0783147892
 31
0.0
  0
LINE
  5
74
330
6F
100
AcDbEntity
  8
Default
  6
CENTER2
 62
     7
100
AcDbLine
 10
54.938458799
 20
346.0783142304
 30
0.0
 11
54.938458799
 21
344.3681707794
 31
0.0
  0
LINE
  5
75
330
6F
100
AcDbEntity
  8
Default
  6
CENTER2
 62
     7
100
AcDbLine
 10
29.9384593578
 20
321.0783147892
 30
0.0
 11
31.6486028088
 21
321.0783147892
 31
0.0
  0
LINE
  5
76
330
6F
100
AcDbEntity
  8
Default
  6
CENTER2
 62
     7
100
AcDbLine
 10
54.938458799
 20
296.078315348
 30
0.0
 11
54.938458799
 21
297.788458799
 31
0.0
  0
ENDBLK
  5
78
330
6F
100
AcDbEntity
  8
0
100
AcDbBlockEnd
  0
BLOCK
  5
7D
330
79
100
AcDbEntity
  8
0
100
AcDbBlockBegin
  2
SEANNOT_GROUP3
 70
     0
 10
0.0
 20
0.0
 30
0.0
  3
SEANNOT_GROUP3
  1

  0
LINE
  5
7B
330
79
100
AcDbEntity
  8
Default
  6
CENTER2
 62
     7
100
AcDbLine
 10
256.9916133395
 20
321.0783147892
 30
0.0
 11
216.9916142335
 21
321.0783147892
 31
0.0
  0
LINE
  5
7C
330
79
100
AcDbEntity
  8
Default
  6
CENTER2
 62
     7
100
AcDbLine
 10
236.9916137865
 20
341.0783143422
 30
0.0
 11
236.9916137865
 21
301.0783152363
 31
0.0
  0
ENDBLK
  5
7E
330
79
100
AcDbEntity
  8
0
100
AcDbBlockEnd
  0
BLOCK
  5
83
330
7F
100
AcDbEntity
  8
0
100
AcDbBlockBegin
  2
SEANNOT_GROUP4
 70
     0
 10
0.0
 20
0.0
 30
0.0
  3
SEANNOT_GROUP4
  1

  0
LINE
  5
81
330
7F
100
AcDbEntity
  8
Default
  6
CENTER2
 62
     7
100
AcDbLine
 10
256.9916133395
 20
941.2823889395
 30
0.0
 11
216.9916142335
 21
941.2823889395
 31
0.0
  0
LINE
  5
82
330
7F
100
AcDbEntity
  8
Default
  6
CENTER2
 62
     7
100
AcDbLine
 10
236.9916137865
 20
961.2823884924
 30
0.0
 11
236.9916137865
 21
921.2823893865
 31
0.0
  0
ENDBLK
  5
84
330
7F
100
AcDbEntity
  8
0
100
AcDbBlockEnd
  0
BLOCK
  5
8A
330
86
100
AcDbEntity
  8
0
100
AcDbBlockBegin
  2
SEANNOT_GROUP5
 70
     0
 10
0.0
 20
0.0
 30
0.0
  3
SEANNOT_GROUP5
  1

  0
LINE
  5
88
330
86
100
AcDbEntity
  8
Default
  6
CENTER2
 62
     7
100
AcDbLine
 10
124.2698427775
 20
132.5890471769
 30
0.0
 11
84.2698436716
 21
132.5890471769
 31
0.0
  0
LINE
  5
89
330
86
100
AcDbEntity
  8
Default
  6
CENTER2
 62
     7
100
AcDbLine
 10
104.2698432246
 20
152.5890467299
 30
0.0
 11
104.2698432246
 21
112.5890476239
 31
0.0
  0
ENDBLK
  5
8B
330
86
100
AcDbEntity
  8
0
100
AcDbBlockEnd
  0
BLOCK
  5
DB
330
8C
100
AcDbEntity
  8
0
100
AcDbBlockBegin
  2
SE
 70
     0
 10
0.0
 20
0.0
 30
0.0
  3
SE
  1

  0
LINE
  5
8F
330
8C
100
AcDbEntity
  8
$DDT_AUDIT_GENERATED_(8E)
  6
Continuous
 62
     7
100
AcDbLine
 10
65.838458799
 20
337.595832766
 30
0.0
 11
65.838458799
 21
615.6316289013
 31
0.0
  0
LINE
  5
90
330
8C
100
AcDbEntity
  8
$DDT_AUDIT_GENERATED_(8E)
  6
Continuous
 62
     7
100
AcDbLine
 10
65.838458799
 20
648.727845008
 30
0.0
 11
65.838458799
 21
924.7648709627
 31
0.0
  0
LINE
  5
91
330
8C
100
AcDbEntity
  8
$DDT_AUDIT_GENERATED_(8E)
  6
Continuous
 62
     7
100
AcDbLine
 10
44.038458799
 20
924.7648709627
 30
0.0
 11
44.038458799
 21
648.7278600106
 31
0.0
  0
LINE
  5
92
330
8C
100
AcDbEntity
  8
$DDT_AUDIT_GENERATED_(8E)
  6
Continuous
 62
     7
100
AcDbLine
 10
44.038458799
 20
613.6327139316
 30
0.0
 11
44.038458799
 21
337.595832766
 31
0.0
  0
LINE
  5
94
330
8C
100
AcDbEntity
  8
$DDT_AUDIT_GENERATED_(93)
  6
Continuous
 62
     7
100
AcDbLine
 10
12.588458799
 20
649.1803518643
 30
0.0
 11
12.588458799
 21
613.1803518643
 31
0.0
  0
LINE
  5
95
330
8C
100
AcDbEntity
  8
$DDT_AUDIT_GENERATED_(93)
  6
Continuous
 62
     7
100
AcDbLine
 10
6.8438787033
 20
617.1337307351
 30
0.0
 11
6.8438787033
 21
645.2269729936
 31
0.0
  0
LINE
  5
96
330
8C
100
AcDbEntity
  8
$DDT_AUDIT_GENERATED_(93)
  6
Continuous
 62
     7
100
AcDbLine
 10
6.8150334447
 20
644.8110936548
 30
0.0
 11
6.8150334447
 21
617.5496100739
 31
0.0
  0
LINE
  5
97
330
8C
100
AcDbEntity
  8
$DDT_AUDIT_GENERATED_(93)
  6
Continuous
 62
     7
100
AcDbLine
 10
37.588458799
 20
613.3803518643
 30
0.0
 11
37.588458799
 21
648.9803518643
 31
0.0
  0
LINE
  5
98
330
8C
100
AcDbEntity
  8
$DDT_AUDIT_GENERATED_(93)
  6
Continuous
 62
     7
100
AcDbLine
 10
17.6147623195
 20
649.1803518643
 30
0.0
 11
12.588458799
 21
649.1803518643
 31
0.0
  0
LINE
  5
99
330
8C
100
AcDbEntity
  8
$DDT_AUDIT_GENERATED_(93)
  6
Continuous
 62
     7
100
AcDbLine
 10
37.388458799
 20
649.1803518643
 30
0.0
 11
32.5582813467
 21
649.1803518643
 31
0.0
  0
LINE
  5
9A
330
8C
100
AcDbEntity
  8
$DDT_AUDIT_GENERATED_(93)
  6
Continuous
 62
     7
100
AcDbLine
 10
12.588458799
 20
613.1803518643
 30
0.0
 11
37.388458799
 21
613.1803518643
 31
0.0
  0
ARC
  5
9B
330
8C
100
AcDbEntity
  8
$DDT_AUDIT_GENERATED_(93)
  6
Continuous
 62
     7
100
AcDbCircle
 10
12.396222323
 20
607.183432227
 30
0.0
 40
5.999999999999994
100
AcDbArc
 50
88.1639626617
 51
135.050652095
  0
ARC
  5
9C
330
8C
100
AcDbEntity
  8
$DDT_AUDIT_GENERATED_(93)
  6
Continuous
 62
     7
100
AcDbCircle
 10
12.396222323
 20
655.1772715017
 30
0.0
 40
5.999999999999915
100
AcDbArc
 50
224.949347905
 51
271.8360373383
  0
ARC
  5
9D
330
8C
100
AcDbEntity
  8
$DDT_AUDIT_GENERATED_(93)
  6
Continuous
 62
     7
100
AcDbCircle
 10
206.35
 20
631.1803518643
 30
0.0
 40
200.0
100
AcDbArc
 50
174.4181792824
 51
175.9726238595
  0
ARC
  5
9E
330
8C
100
AcDbEntity
  8
$DDT_AUDIT_GENERATED_(93)
  6
Continuous
 62
     7
100
AcDbCircle
 10
206.35
 20
631.1803518643
 30
0.0
 40
200.0
100
AcDbArc
 50
184.0273761405
 51
185.5818207176
  0
ARC
  5
9F
330
8C
100
AcDbEntity
  8
$DDT_AUDIT_GENERATED_(93)
  6
Continuous
 62
     7
100
AcDbCircle
 10
7.7959667956
 20
611.7755612629
 30
0.0
 40
0.5000000000000042
100
AcDbArc
 50
185.5818207176
 51
315.0506520951
  0
ARC
  5
A0
330
8C
100
AcDbEntity
  8
$DDT_AUDIT_GENERATED_(93)
  6
Continuous
 62
     7
100
AcDbCircle
 10
7.7959667956
 20
650.5851424658
 30
0.0
 40
0.4999999999999804
100
AcDbArc
 50
44.949347905
 51
174.4181792824
  0
LINE
  5
A1
330
8C
100
AcDbEntity
  8
$DDT_AUDIT_GENERATED_(93)
  6
Continuous
 62
     7
100
AcDbLine
 10
32.0841903266
 20
649.6694703552
 30
0.0
 11
32.0509338154
 21
653.4802890856
 31
0.0
  0
LINE
  5
A2
330
8C
100
AcDbEntity
  8
$DDT_AUDIT_GENERATED_(93)
  6
Continuous
 62
     7
100
AcDbLine
 10
18.1259937876
 20
653.4814355355
 30
0.0
 11
18.0926918515
 21
649.665411638
 31
0.0
  0
LINE
  5
A3
330
8C
100
AcDbEntity
  8
$DDT_AUDIT_GENERATED_(93)
  6
Continuous
 62
     7
100
AcDbLine
 10
31.3293002009
 20
654.1803518643
 30
0.0
 11
18.848626935
 21
654.1803518643
 31
0.0
  0
ARC
  5
A4
330
8C
100
AcDbEntity
  8
$DDT_AUDIT_GENERATED_(93)
  6
Continuous
 62
     7
100
AcDbCircle
 10
206.35
 20
631.1803518643
 30
0.0
 40
200.0
100
AcDbArc
 50
176.0920507706
 51
180.0
  0
ARC
  5
A5
330
8C
100
AcDbEntity
  8
$DDT_AUDIT_GENERATED_(93)
  6
Continuous
 62
     7
100
AcDbCircle
 10
206.35
 20
631.1803518643
 30
0.0
 40
200.0
100
AcDbArc
 50
180.0
 51
183.9079492294
  0
ARC
  5
A6
330
8C
100
AcDbEntity
  8
$DDT_AUDIT_GENERATED_(93)
  6
Continuous
 62
     7
100
AcDbCircle
 10
6.6917540021
 20
617.3321194326
 30
0.0
 40
0.2500000000000289
100
AcDbArc
 50
52.5189642537
 51
60.4542896236
  0
ARC
  5
A7
330
8C
100
AcDbEntity
  8
$DDT_AUDIT_GENERATED_(93)
  6
Continuous
 62
     7
100
AcDbCircle
 10
6.6917540021
 20
645.0285842961
 30
0.0
 40
0.2500000000000002
100
AcDbArc
 50
299.5457103764
 51
307.4810357463
  0
SPLINE
  5
A8
330
8C
100
AcDbEntity
  8
$DDT_AUDIT_GENERATED_(93)
  6
Continuous
 62
     7
100
AcDbSpline
210
0.0
220
0.0
230
1.0
 70
     8
 71
     3
 72
    14
 73
    10
 74
     0
 42
0.0000000088215615
 43
0.0000000001
 40
0.0
 40
0.0
 40
0.0
 40
0.0
 40
0.0252224895936031
 40
0.1921436093827388
 40
0.3466766097112838
 40
0.5273417215270539
 40
0.7224692340462839
 40
0.9251117822598386
 40
1.0
 40
1.0
 40
1.0
 40
1.0
 10
18.8487610597492
 20
654.1781660437512
 30
0.0
 10
18.83847714625704
 20
654.1790567654139
 30
0.0
 10
18.77114720049575
 20
654.1846414678756
 30
0.0
 10
18.63695050178465
 20
654.161180674695
 30
0.0
 10
18.46474449422866
 20
654.0896792490851
 30
0.0
 10
18.30602098414772
 20
653.9647353616296
 30
0.0
 10
18.18524930254322
 20
653.7859739799707
 30
0.0
 10
18.12530920983746
 20
653.6089117484111
 30
0.0
 10
18.13185547392019
 20
653.5114815106224
 30
0.0
 10
18.13419989761511
 20
653.4808782955563
 30
0.0
  0
ARC
  5
A9
330
8C
100
AcDbEntity
  8
$DDT_AUDIT_GENERATED_(93)
  6
Continuous
 62
     7
100
AcDbCircle
 10
31.3531703289
 20
653.4826927438
 30
0.0
 40
0.6959383926938981
100
AcDbArc
 50
0.0884083226
 51
91.9698752757
  0
ARC
  5
AA
330
8C
100
AcDbEntity
  8
$DDT_AUDIT_GENERATED_(93)
  6
Continuous
 62
     7
100
AcDbCircle
 10
32.5721549014
 20
649.6668552867
 30
0.0
 40
0.4825099999215669
100
AcDbArc
 50
179.4439832109
 51
268.5612647435
  0
SPLINE
  5
AB
330
8C
100
AcDbEntity
  8
$DDT_AUDIT_GENERATED_(93)
  6
Continuous
 62
     7
100
AcDbSpline
210
0.0
220
0.0
230
1.0
 70
     8
 71
     3
 72
    13
 73
     9
 74
     0
 42
0.0000000132044136
 43
0.0000000001
 40
0.0
 40
0.0
 40
0.0
 40
0.0
 40
0.0706653779784004
 40
0.3131147625143006
 40
0.5503313100383381
 40
0.7390578412071639
 40
0.8976601797303967
 40
1.0
 40
1.0
 40
1.0
 40
1.0
 10
18.0862845178992
 20
649.6641523742093
 30
0.0
 10
18.08770940544198
 20
649.6449000919753
 30
0.0
 10
18.09254176831223
 20
649.5714527250209
 30
0.0
 10
18.03889529261198
 20
649.4349537618074
 30
0.0
 10
17.93526484153418
 20
649.3039974003907
 30
0.0
 10
17.81187513321604
 20
649.2248502611889
 30
0.0
 10
17.70240846125207
 20
649.1879802922876
 30
0.0
 10
17.64183691690884
 20
649.1839957160258
 30
0.0
 10
17.61393064526399
 20
649.1825146599583
 30
0.0
  0
ARC
  5
AC
330
8C
100
AcDbEntity
  8
$DDT_AUDIT_GENERATED_(93)
  6
Continuous
 62
     7
100
AcDbCircle
 10
37.388458799
 20
613.3803518643
 30
0.0
 40
0.2000000000000335
100
AcDbArc
 50
270.0
 51
0.0
  0
ARC
  5
AD
330
8C
100
AcDbEntity
  8
$DDT_AUDIT_GENERATED_(93)
  6
Continuous
 62
     7
100
AcDbCircle
 10
37.388458799
 20
648.9803518643
 30
0.0
 40
0.1999999999999988
100
AcDbArc
 50
0.0
 51
90.0
  0
LINE
  5
AF
330
8C
100
AcDbEntity
  8
$DDT_AUDIT_GENERATED_(AE)
  6
Continuous
 62
     7
100
AcDbLine
 10
70.938458799
 20
613.4803518643
 30
0.0
 11
70.938458799
 21
648.8803518643
 31
0.0
  0
LINE
  5
B0
330
8C
100
AcDbEntity
  8
$DDT_AUDIT_GENERATED_(AE)
  6
Continuous
 62
     7
100
AcDbLine
 10
38.938458799
 20
648.8803518643
 30
0.0
 11
38.938458799
 21
613.4803518643
 31
0.0
  0
ARC
  5
B1
330
8C
100
AcDbEntity
  8
$DDT_AUDIT_GENERATED_(AE)
  6
Continuous
 62
     7
100
AcDbCircle
 10
54.9384587077
 20
662.869604143
 30
0.0
 40
17.91083834044106
100
AcDbArc
 50
229.8447534459
 51
310.1552502091
  0
ARC
  5
B2
330
8C
100
AcDbEntity
  8
$DDT_AUDIT_GENERATED_(AE)
  6
Continuous
 62
     7
100
AcDbCircle
 10
54.9384587077
 20
599.4910995857
 30
0.0
 40
17.91083834044102
100
AcDbArc
 50
49.8447497909
 51
49.8482549751
  0
ARC
  5
B3
330
8C
100
AcDbEntity
  8
$DDT_AUDIT_GENERATED_(AE)
  6
Continuous
 62
     7
100
AcDbCircle
 10
54.9384587077
 20
599.4910995857
 30
0.0
 40
17.91083834044102
100
AcDbArc
 50
50.8848848446
 51
130.1548047819
  0
LINE
  5
B4
330
8C
100
AcDbEntity
  8
$DDT_AUDIT_GENERATED_(AE)
  6
Continuous
 62
     7
100
AcDbLine
 10
66.488458799
 20
613.1803518643
 30
0.0
 11
70.638458799
 21
613.1803518643
 31
0.0
  0
LINE
  5
B5
330
8C
100
AcDbEntity
  8
$DDT_AUDIT_GENERATED_(AE)
  6
Continuous
 62
     7
100
AcDbLine
 10
39.238458799
 20
613.1803518643
 30
0.0
 11
43.3983950526
 21
613.1803518643
 31
0.0
  0
LINE
  5
B6
330
8C
100
AcDbEntity
  8
$DDT_AUDIT_GENERATED_(AE)
  6
Continuous
 62
     7
100
AcDbLine
 10
43.3983950526
 20
649.1803518643
 30
0.0
 11
39.238458799
 21
649.1803518643
 31
0.0
  0
LINE
  5
B7
330
8C
100
AcDbEntity
  8
$DDT_AUDIT_GENERATED_(AE)
  6
Continuous
 62
     7
100
AcDbLine
 10
70.638458799
 20
649.1803518643
 30
0.0
 11
66.488458799
 21
649.1803518643
 31
0.0
  0
ARC
  5
B8
330
8C
100
AcDbEntity
  8
$DDT_AUDIT_GENERATED_(AE)
  6
Continuous
 62
     7
100
AcDbCircle
 10
70.638458799
 20
613.4803518643
 30
0.0
 40
0.3000000000000225
100
AcDbArc
 50
270.0
 51
0.0
  0
ARC
  5
B9
330
8C
100
AcDbEntity
  8
$DDT_AUDIT_GENERATED_(AE)
  6
Continuous
 62
     7
100
AcDbCircle
 10
70.638458799
 20
648.8803518643
 30
0.0
 40
0.3000000000000017
100
AcDbArc
 50
0.0
 51
90.0
  0
ARC
  5
BA
330
8C
100
AcDbEntity
  8
$DDT_AUDIT_GENERATED_(AE)
  6
Continuous
 62
     7
100
AcDbCircle
 10
39.238458799
 20
613.4803518643
 30
0.0
 40
0.3000000000000017
100
AcDbArc
 50
180.0
 51
270.0
  0
ARC
  5
BB
330
8C
100
AcDbEntity
  8
$DDT_AUDIT_GENERATED_(AE)
  6
Continuous
 62
     7
100
AcDbCircle
 10
39.238458799
 20
648.8803518643
 30
0.0
 40
0.3000000000000225
100
AcDbArc
 50
90.0
 51
180.0
  0
LINE
  5
BC
330
8C
100
AcDbEntity
  8
$DDT_AUDIT_GENERATED_(AE)
  6
Continuous
 62
     7
100
AcDbLine
 10
71.138458799
 20
614.4803518643
 30
0.0
 11
71.788458799
 21
614.4803518643
 31
0.0
  0
LINE
  5
BD
330
8C
100
AcDbEntity
  8
$DDT_AUDIT_GENERATED_(AE)
  6
Continuous
 62
     7
100
AcDbLine
 10
71.788458799
 20
647.8803518643
 30
0.0
 11
71.138458799
 21
647.8803518643
 31
0.0
  0
LINE
  5
BE
330
8C
100
AcDbEntity
  8
$DDT_AUDIT_GENERATED_(AE)
  6
Continuous
 62
     7
100
AcDbLine
 10
37.588458799
 20
614.4803518643
 30
0.0
 11
38.738458799
 21
614.4803518643
 31
0.0
  0
LINE
  5
BF
330
8C
100
AcDbEntity
  8
$DDT_AUDIT_GENERATED_(AE)
  6
Continuous
 62
     7
100
AcDbLine
 10
38.738458799
 20
647.8803518643
 30
0.0
 11
37.588458799
 21
647.8803518643
 31
0.0
  0
SPLINE
  5
C0
330
8C
100
AcDbEntity
  8
$DDT_AUDIT_GENERATED_(AE)
  6
Continuous
 62
     7
100
AcDbSpline
210
0.0
220
0.0
230
1.0
 70
     8
 71
     3
 72
    12
 73
     8
 74
     0
 42
0.0000000472172218
 43
0.0000000001
 40
0.0
 40
0.0
 40
0.0
 40
0.0
 40
0.3328495422909295
 40
0.872581574172861
 40
0.949596162645731
 40
0.9874748612216767
 40
1.0
 40
1.0
 40
1.0
 40
1.0
 10
66.2947271374329
 20
613.2874348383965
 30
0.0
 10
66.32447480241838
 20
613.2688945202195
 30
0.0
 10
66.39238763978868
 20
613.2277326082219
 30
0.0
 10
66.4126606237438
 20
613.2123182957025
 30
0.0
 10
66.43974916591009
 20
613.2029864806879
 30
0.0
 10
66.45830132099836
 20
613.1953737032295
 30
0.0
 10
66.47625643164984
 20
613.1960951746586
 30
0.0
 10
66.48143300309438
 20
613.1962902834086
 30
0.0
  0
ARC
  5
C1
330
8C
100
AcDbEntity
  8
$DDT_AUDIT_GENERATED_(AE)
  6
Continuous
 62
     7
100
AcDbCircle
 10
70.6199597129
 20
620.3238604213
 30
0.0
 40
8.25947466946289
100
AcDbArc
 50
237.3335274987
 51
238.4213017403
  0
ARC
  5
C2
330
8C
100
AcDbEntity
  8
$DDT_AUDIT_GENERATED_(AE)
  6
Continuous
 62
     7
100
AcDbCircle
 10
71.138458799
 20
614.2803518643
 30
0.0
 40
0.1999999999999988
100
AcDbArc
 50
90.0
 51
180.0
  0
ARC
  5
C3
330
8C
100
AcDbEntity
  8
$DDT_AUDIT_GENERATED_(AE)
  6
Continuous
 62
     7
100
AcDbCircle
 10
71.138458799
 20
648.0803518643
 30
0.0
 40
0.2000000000000335
100
AcDbArc
 50
180.0
 51
270.0
  0
ARC
  5
C4
330
8C
100
AcDbEntity
  8
$DDT_AUDIT_GENERATED_(AE)
  6
Continuous
 62
     7
100
AcDbCircle
 10
38.738458799
 20
614.2803518643
 30
0.0
 40
0.2000000000000335
100
AcDbArc
 50
0.0
 51
90.0
  0
ARC
  5
C5
330
8C
100
AcDbEntity
  8
$DDT_AUDIT_GENERATED_(AE)
  6
Continuous
 62
     7
100
AcDbCircle
 10
38.738458799
 20
648.0803518643
 30
0.0
 40
0.1999999999999988
100
AcDbArc
 50
270.0
 51
0.0
  0
LINE
  5
C7
330
8C
100
AcDbEntity
  8
$DDT_AUDIT_GENERATED_(C6)
  6
Continuous
 62
     7
100
AcDbLine
 10
71.788458799
 20
648.9803518643
 30
0.0
 11
71.788458799
 21
613.3803518643
 31
0.0
  0
SPLINE
  5
C8
330
8C
100
AcDbEntity
  8
$DDT_AUDIT_GENERATED_(C6)
  6
Continuous
 62
     7
100
AcDbSpline
210
0.0
220
0.0
230
1.0
 70
     8
 71
     3
 72
     8
 73
     4
 74
     0
 42
0.0000000090366472
 43
0.0000000001
 40
0.50045579244152
 40
0.50045579244152
 40
0.50045579244152
 40
0.50045579244152
 40
0.5013594571611519
 40
0.5013594571611519
 40
0.5013594571611519
 40
0.5013594571611519
 10
92.2351475438809
 20
613.1803525607747
 30
0.0
 10
92.23514842747528
 20
613.1803534506979
 30
0.0
 10
92.23518452296275
 20
613.1803804533323
 30
0.0
 10
92.23525577657446
 20
613.180433507978
 30
0.0
  0
LINE
  5
C9
330
8C
100
AcDbEntity
  8
$DDT_AUDIT_GENERATED_(C6)
  6
Continuous
 62
     7
100
AcDbLine
 10
118.288458799
 20
645.5417584807
 30
0.0
 11
118.288458799
 21
616.818945248
 31
0.0
  0
ELLIPSE
  5
CA
330
8C
100
AcDbEntity
  8
$DDT_AUDIT_GENERATED_(C6)
  6
Continuous
 62
     7
100
AcDbEllipse
 10
114.2160134706
 20
645.877290321
 30
0.0
 11
0.2706987918529025
 21
-0.4203833537254065
 31
0.0
210
0.0
220
0.0
230
0.9999999999999998
 40
0.6420978827
 41
3.141592653589441
 42
3.162864750567739
  0
LINE
  5
CB
330
8C
100
AcDbEntity
  8
$DDT_AUDIT_GENERATED_(C6)
  6
Continuous
 62
     7
100
AcDbLine
 10
71.988458799
 20
613.1803518643
 30
0.0
 11
92.2363779312
 21
613.1803518643
 31
0.0
  0
LINE
  5
CC
330
8C
100
AcDbEntity
  8
$DDT_AUDIT_GENERATED_(C6)
  6
Continuous
 62
     7
100
AcDbLine
 10
90.4192755357
 20
649.1803518643
 30
0.0
 11
71.988458799
 21
649.1803518643
 31
0.0
  0
ARC
  5
CD
330
8C
100
AcDbEntity
  8
$DDT_AUDIT_GENERATED_(C6)
  6
Continuous
 62
     7
100
AcDbCircle
 10
71.988458799
 20
613.3803518643
 30
0.0
 40
0.2000000000000023
100
AcDbArc
 50
180.0
 51
270.0
  0
ARC
  5
CE
330
8C
100
AcDbEntity
  8
$DDT_AUDIT_GENERATED_(C6)
  6
Continuous
 62
     7
100
AcDbCircle
 10
71.988458799
 20
648.9803518643
 30
0.0
 40
0.2000000000000335
100
AcDbArc
 50
90.0
 51
180.0
  0
SPLINE
  5
CF
330
8C
100
AcDbEntity
  8
$DDT_AUDIT_GENERATED_(C6)
  6
Continuous
 62
     7
100
AcDbSpline
210
0.0
220
0.0
230
1.0
 70
     8
 71
     3
 72
    50
 73
    46
 74
     0
 42
0.0000000003848172
 43
0.0000000001
 40
0.0
 40
0.0
 40
0.0
 40
0.0
 40
0.017549063278895
 40
0.0507984315872333
 40
0.0842746433821693
 40
0.1184187810265978
 40
0.1516100491492816
 40
0.1836260308229737
 40
0.2111024676031689
 40
0.2369652230663203
 40
0.2643849018838823
 40
0.2912324574893328
 40
0.3172537459342054
 40
0.3423346171587205
 40
0.3665218054430816
 40
0.3903217195844542
 40
0.4156298000461811
 40
0.4418051420091271
 40
0.4690776325541673
 40
0.4976179470820931
 40
0.5275361535366708
 40
0.55885468260424
 40
0.5914733874216436
 40
0.6251339860708782
 40
0.6594056495905235
 40
0.6899203050160242
 40
0.722296329584481
 40
0.754518692692628
 40
0.7863872241927071
 40
0.8176879247068616
 40
0.8482735955077877
 40
0.8780692431095528
 40
0.9070697222736166
 40
0.9353332309955328
 40
0.9629776064056219
 40
0.9767548961468007
 40
0.9853089787356932
 40
0.9891854179341099
 40
0.9905135408500615
 40
0.9912259424957538
 40
0.9917203610399754
 40
0.9928577149515105
 40
0.9950646959550875
 40
0.9991404050241456
 40
1.0
 40
1.0
 40
1.0
 40
1.0
 10
113.9401949423262
 20
646.2931877731875
 30
0.0
 10
113.8008248206498
 20
646.2036095208495
 30
0.0
 10
113.4569609898105
 20
645.9831689537015
 30
0.0
 10
112.7772280993031
 20
645.5691521085938
 30
0.0
 10
111.9490434850346
 20
645.0882427866271
 30
0.0
 10
111.0646505442195
 20
644.6130389599922
 30
0.0
 10
110.147384368734
 20
644.1675381319212
 30
0.0
 10
109.247450020396
 20
643.7832176610499
 30
0.0
 10
108.3843811606217
 20
643.4637153412274
 30
0.0
 10
107.5368455253369
 20
643.2056649100849
 30
0.0
 10
106.6687714164863
 20
643.0000458102506
 30
0.0
 10
105.7775285239415
 20
642.8508326544213
 30
0.0
 10
104.8979593015338
 20
642.766475006028
 30
0.0
 10
104.0418656069023
 20
642.7471757062214
 30
0.0
 10
103.213234975275
 20
642.7954064063816
 30
0.0
 10
102.3918170206208
 20
642.9019221334125
 30
0.0
 10
101.5638156610981
 20
643.0646399028117
 30
0.0
 10
100.7202938807947
 20
643.2865097284331
 30
0.0
 10
99.87051136643143
 20
643.5643651996471
 30
0.0
 10
99.01546586464573
 20
643.8964579993781
 30
0.0
 10
98.15813093000712
 20
644.2794469224948
 30
0.0
 10
97.30380678061115
 20
644.7076279133668
 30
0.0
 10
96.46055256432918
 20
645.171978255515
 30
0.0
 10
95.63935155260566
 20
645.6592931849756
 30
0.0
 10
94.882480329985
 20
646.1343426065007
 30
0.0
 10
94.1803694407764
 20
646.5892790217238
 30
0.0
 10
93.54395361115668
 20
647.0145066708743
 30
0.0
 10
92.95275298303552
 20
647.4208110277608
 30
0.0
 10
92.42501632308108
 20
647.7928517499143
 30
0.0
 10
91.96523754132527
 20
648.1245077759277
 30
0.0
 10
91.57645914595261
 20
648.4108223130179
 30
0.0
 10
91.25993468677262
 20
648.6483361104503
 30
0.0
 10
91.01552824221866
 20
648.8348758498532
 30
0.0
 10
90.84214569684704
 20
648.9692664002578
 30
0.0
 10
90.75487261800843
 20
649.0378644700668
 30
0.0
 10
90.72260223740716
 20
649.0634017573965
 30
0.0
 10
90.71357003165181
 20
649.0705434548272
 30
0.0
 10
90.70995179480224
 20
649.0734003214836
 30
0.0
 10
90.70439331451406
 20
649.077709304684
 30
0.0
 10
90.6956087170539
 20
649.084317936266
 30
0.0
 10
90.67797394738835
 20
649.0967974692298
 30
0.0
 10
90.64057475122402
 20
649.1205601300501
 30
0.0
 10
90.56555803648227
 20
649.1555726293077
 30
0.0
 10
90.48253064179445
 20
649.1812634835093
 30
0.0
 10
90.42971150349719
 20
649.177401836699
 30
0.0
 10
90.4190058781954
 20
649.1765850125515
 30
0.0
  0
SPLINE
  5
D0
330
8C
100
AcDbEntity
  8
$DDT_AUDIT_GENERATED_(C6)
  6
Continuous
 62
     7
100
AcDbSpline
210
0.0
220
0.0
230
1.0
 70
     8
 71
     3
 72
     8
 73
     4
 74
     0
 42
0.0000000003663084
 43
0.0000000001
 40
0.0
 40
0.0
 40
0.0
 40
0.0
 40
0.0073868495928651
 40
0.0073868495928651
 40
0.0073868495928651
 40
0.0073868495928651
 10
113.941010156402
 20
646.2932298669709
 30
0.0
 10
113.8817768257347
 20
646.2552811689415
 30
0.0
 10
113.8256743656919
 20
646.2193739137326
 30
0.0
 10
113.7711259616949
 20
646.184580413453
 30
0.0
  0
LINE
  5
D1
330
8C
100
AcDbEntity
  8
$DDT_AUDIT_GENERATED_(C6)
  6
Continuous
 62
     7
100
AcDbLine
 10
117.288458799
 20
646.377290321
 30
0.0
 11
114.2160134706
 21
646.377290321
 31
0.0
  0
SPLINE
  5
D2
330
8C
100
AcDbEntity
  8
$DDT_AUDIT_GENERATED_(C6)
  6
Continuous
 62
     7
100
AcDbSpline
210
0.0
220
0.0
230
1.0
 70
     8
 71
     3
 72
    14
 73
    10
 74
     0
 42
0.0000000068356675
 43
0.0000000001
 40
0.0
 40
0.0
 40
0.0
 40
0.0
 40
0.0314771625539062
 40
0.2083054620172836
 40
0.3798673177298812
 40
0.5498763042921295
 40
0.7276896165111144
 40
0.9102792471288996
 40
1.0
 40
1.0
 40
1.0
 40
1.0
 10
118.2832559657788
 20
645.5431503331793
 30
0.0
 10
118.2850366889842
 20
645.5591362667689
 30
0.0
 10
118.2947687739484
 20
645.6500995199108
 30
0.0
 10
118.2409306176341
 20
645.8316399383289
 30
0.0
 10
118.11675362365
 20
646.0385043872832
 30
0.0
 10
117.9302038657702
 20
646.2037765455459
 30
0.0
 10
117.7003276961042
 20
646.3170645690818
 30
0.0
 10
117.4707460818364
 20
646.375264637451
 30
0.0
 10
117.3390576286325
 20
646.3714951384676
 30
0.0
 10
117.2884662512814
 20
646.3695984579965
 30
0.0
  0
SPLINE
  5
D3
330
8C
100
AcDbEntity
  8
$DDT_AUDIT_GENERATED_(C6)
  6
Continuous
 62
     7
100
AcDbSpline
210
0.0
220
0.0
230
1.0
 70
     8
 71
     3
 72
    13
 73
     9
 74
     0
 42
0.0000000068393697
 43
0.0000000001
 40
0.0
 40
0.0
 40
0.0
 40
0.0
 40
0.1608067516320911
 40
0.3421589022293338
 40
0.5336218544174919
 40
0.7047546279436916
 40
0.8720131004886293
 40
1.0
 40
1.0
 40
1.0
 40
1.0
 10
117.288444503307
 20
615.9861017483423
 30
0.0
 10
117.3791136420668
 20
615.9892916299215
 30
0.0
 10
117.5438508507702
 20
615.9977197164117
 30
0.0
 10
117.8033388548677
 20
616.0841391859677
 30
0.0
 10
118.0230476069838
 20
616.226136706028
 30
0.0
 10
118.1839436291016
 20
616.4164919192599
 30
0.0
 10
118.2768390733599
 20
616.623976801473
 30
0.0
 10
118.2796355795572
 20
616.7531500674316
 30
0.0
 10
118.2799162268929
 20
616.8187141328666
 30
0.0
  0
LINE
  5
D4
330
8C
100
AcDbEntity
  8
$DDT_AUDIT_GENERATED_(C6)
  6
Continuous
 62
     7
100
AcDbLine
 10
111.9432106653
 20
615.9834134076
 30
0.0
 11
117.288458799
 21
615.9834134076
 31
0.0
  0
SPLINE
  5
D5
330
8C
100
AcDbEntity
  8
$DDT_AUDIT_GENERATED_(C6)
  6
Continuous
 62
     7
100
AcDbSpline
210
0.0
220
0.0
230
1.0
 70
     8
 71
     3
 72
    45
 73
    41
 74
     0
 42
0.0000000004738802
 43
0.0000000001
 40
0.0
 40
0.0
 40
0.0
 40
0.0
 40
0.0033466223190946
 40
0.0062907493848762
 40
0.0083403279835964
 40
0.0096732532332304
 40
0.0110701702904437
 40
0.0132926046920252
 40
0.0182854881190685
 40
0.0290109181571139
 40
0.0641862682271751
 40
0.0979310427189148
 40
0.1306935947244086
 40
0.1639275318468622
 40
0.1979108380186675
 40
0.2326810256670608
 40
0.2681826416532476
 40
0.3042865273182441
 40
0.3407985836709787
 40
0.3775695462502234
 40
0.4152757591922775
 40
0.4535476884826319
 40
0.4909407875854045
 40
0.5269933272772297
 40
0.5614673317631104
 40
0.594341145363264
 40
0.6257623784620653
 40
0.6559945348030436
 40
0.6816505138379361
 40
0.7085146051934458
 40
0.7358181471042835
 40
0.7640949355405062
 40
0.7935488580864333
 40
0.8243216195159055
 40
0.8564692799487366
 40
0.8899398003875781
 40
0.9245498313405791
 40
0.9599687740651014
 40
0.9959257394164399
 40
1.0
 40
1.0
 40
1.0
 40
1.0
 10
92.2383217155045
 20
613.1821860345923
 30
0.0
 10
92.27284983840309
 20
613.1836829347612
 30
0.0
 10
92.32763258746597
 20
613.1866251493452
 30
0.0
 10
92.40390311895833
 20
613.2088928147094
 30
0.0
 10
92.4538814006003
 20
613.2309166201561
 30
0.0
 10
92.48025325481635
 20
613.2450164924489
 30
0.0
 10
92.49715500859709
 20
613.2549286986205
 30
0.0
 10
92.51307208027912
 20
613.2650117481804
 30
0.0
 10
92.52773021708974
 20
613.2749800166928
 30
0.0
 10
92.55737396836363
 20
613.295876234272
 30
0.0
 10
92.62683240571425
 20
613.3467280793752
 30
0.0
 10
92.78922595876871
 20
613.4647340730934
 30
0.0
 10
93.0133426099794
 20
613.6251565560157
 30
0.0
 10
93.30015507779801
 20
613.8265782987504
 30
0.0
 10
93.65328225651918
 20
614.0691621618637
 30
0.0
 10
94.07371756454467
 20
614.3508609739098
 30
0.0
 10
94.56089964500951
 20
614.6682416989821
 30
0.0
 10
95.11278875317622
 20
615.0167143790381
 30
0.0
 10
95.72652009839047
 20
615.390713235051
 30
0.0
 10
96.40251338949946
 20
615.7874137862996
 30
0.0
 10
97.13859022208769
 20
616.1969113079937
 30
0.0
 10
97.93029113692248
 20
616.6045540371682
 30
0.0
 10
98.76085451571846
 20
616.9908919156051
 30
0.0
 10
99.6104348378763
 20
617.3385160039263
 30
0.0
 10
100.4670343682677
 20
617.6370241940904
 30
0.0
 10
101.3219976888137
 20
617.8801043693364
 30
0.0
 10
102.1701195112211
 20
618.0642612606517
 30
0.0
 10
102.9746500596991
 20
618.1837856662415
 30
0.0
 10
103.7495454534893
 20
618.2451579590646
 30
0.0
 10
104.502274919477
 20
618.2477616663747
 30
0.0
 10
105.2763985076895
 20
618.197261052729
 30
0.0
 10
106.0642581333487
 20
618.094078487273
 30
0.0
 10
106.8666941031778
 20
617.9388550610577
 30
0.0
 10
107.6801807018588
 20
617.732733407215
 30
0.0
 10
108.4993302193438
 20
617.4779225687752
 30
0.0
 10
109.3148442536677
 20
617.1788592295178
 30
0.0
 10
110.1198305074222
 20
616.8404323286776
 30
0.0
 10
110.8860176401884
 20
616.4771373631363
 30
0.0
 10
111.4306845029966
 20
616.196023834359
 30
0.0
 10
111.6737602592355
 20
616.06098102765
 30
0.0
 10
111.7025173888132
 20
616.044985804236
 30
0.0
  0
ARC
  5
D6
330
8C
100
AcDbEntity
  8
$DDT_AUDIT_GENERATED_(C6)
  6
Continuous
 62
     7
100
AcDbCircle
 10
111.9432106653
 20
616.4834134076
 30
0.0
 40
0.5000000000000162
100
AcDbArc
 50
241.430404504
 51
270.0
  0
ARC
  5
D7
330
8C
100
AcDbEntity
  8
$DDT_AUDIT_GENERATED_(C6)
  6
Continuous
 62
     7
100
AcDbCircle
 10
114.2160134706
 20
645.877290321
 30
0.0
 40
0.5000000000000004
100
AcDbArc
 50
90.0
 51
122.7788291928
  0
CIRCLE
  5
D9
330
8C
100
AcDbEntity
  8
$DDT_AUDIT_GENERATED_(D8)
  6
Continuous
 62
     7
100
AcDbCircle
 10
54.938458799
 20
941.2823889395
 30
0.0
 40
19.78985599019025
  0
CIRCLE
  5
DA
330
8C
100
AcDbEntity
  8
$DDT_AUDIT_GENERATED_(D8)
  6
Continuous
 62
     7
100
AcDbCircle
 10
54.938458799
 20
321.0783147892
 30
0.0
 40
19.78985599019025
  0
ENDBLK
  5
DC
330
8C
100
AcDbEntity
  8
0
100
AcDbBlockEnd
  0
BLOCK
  5
163
330
DD
100
AcDbEntity
  8
0
100
AcDbBlockBegin
  2
SE1
 70
     0
 10
0.0
 20
0.0
 30
0.0
  3
SE1
  1

  0
ARC
  5
E0
330
DD
100
AcDbEntity
  8
$DDT_AUDIT_GENERATED_(DF)
  6
Continuous
 62
     7
100
AcDbCircle
 10
275.6357833205
 20
338.9967653093
 30
0.0
 40
0.2066646288914806
100
AcDbArc
 50
54.5364954687
 51
88.9267498862
  0
ARC
  5
E1
330
DD
100
AcDbEntity
  8
$DDT_AUDIT_GENERATED_(DF)
  6
Continuous
 62
     7
100
AcDbCircle
 10
276.5325392499
 20
338.4234986586
 30
0.0
 40
0.2166730252141052
100
AcDbArc
 50
55.7007700893
 51
91.2001547727
  0
SPLINE
  5
E2
330
DD
100
AcDbEntity
  8
$DDT_AUDIT_GENERATED_(DF)
  6
Continuous
 62
     7
100
AcDbSpline
210
0.0
220
0.0
230
1.0
 70
     8
 71
     3
 72
     8
 73
     4
 74
     0
 42
0.0000000334433057
 43
0.0000000001
 40
0.5761048672667247
 40
0.5761048672667247
 40
0.5761048672667247
 40
0.5761048672667247
 40
1.0
 40
1.0
 40
1.0
 40
1.0
 10
278.8072840701269
 20
337.3770746633029
 30
0.0
 10
278.7716601390843
 20
337.3946823494414
 30
0.0
 10
278.728321454048
 20
337.4013141245591
 30
0.0
 10
278.6853819181586
 20
337.3968652820982
 30
0.0
  0
SPLINE
  5
E3
330
DD
100
AcDbEntity
  8
$DDT_AUDIT_GENERATED_(DF)
  6
Continuous
 62
     7
100
AcDbSpline
210
0.0
220
0.0
230
1.0
 70
     8
 71
     3
 72
     8
 73
     4
 74
     0
 42
0.0000000674974824
 43
0.0000000001
 40
0.708472326368492
 40
0.708472326368492
 40
0.708472326368492
 40
0.708472326368492
 40
1.0
 40
1.0
 40
1.0
 40
1.0
 10
280.8339235557713
 20
336.4124939191531
 30
0.0
 10
280.8284368637221
 20
336.4097835111007
 30
0.0
 10
280.822572470042
 20
336.3962348125324
 30
0.0
 10
280.8178323912299
 20
336.3744363918864
 30
0.0
  0
SPLINE
  5
E4
330
DD
100
AcDbEntity
  8
$DDT_AUDIT_GENERATED_(DF)
  6
Continuous
 62
     7
100
AcDbSpline
210
0.0
220
0.0
230
1.0
 70
     8
 71
     3
 72
     8
 73
     4
 74
     0
 42
0.0000000350740169
 43
0.0000000001
 40
0.5781337518302287
 40
0.5781337518302287
 40
0.5781337518302287
 40
0.5781337518302287
 40
1.0
 40
1.0
 40
1.0
 40
1.0
 10
281.9596184176285
 20
335.9734442923295
 30
0.0
 10
281.9271137455096
 20
335.9854995109066
 30
0.0
 10
281.8856341811962
 20
335.9830735523253
 30
0.0
 10
281.8441173733916
 20
335.9683202787877
 30
0.0
  0
LINE
  5
E5
330
DD
100
AcDbEntity
  8
$DDT_AUDIT_GENERATED_(DF)
  6
Continuous
 62
     7
100
AcDbLine
 10
236.9916137865
 20
302.4715686268
 30
0.0
 11
236.9916137865
 21
306.6619204573
 31
0.0
  0
ARC
  5
E6
330
DD
100
AcDbEntity
  8
$DDT_AUDIT_GENERATED_(DF)
  6
Continuous
 62
     7
100
AcDbCircle
 10
285.5348405684
 20
285.0717062243
 30
0.0
 40
22.09639089013286
100
AcDbArc
 50
55.2116306986
 51
73.8266365595
  0
LINE
  5
E7
330
DD
100
AcDbEntity
  8
$DDT_AUDIT_GENERATED_(DF)
  6
Continuous
 62
     7
100
AcDbLine
 10
236.9916137865
 20
306.8168702039
 30
0.0
 11
236.9916137865
 21
307.2295195537
 31
0.0
  0
LINE
  5
E8
330
DD
100
AcDbEntity
  8
$DDT_AUDIT_GENERATED_(DF)
  6
Continuous
 62
     7
100
AcDbLine
 10
236.9916137865
 20
306.6619204573
 30
0.0
 11
236.9916137865
 21
306.8168702039
 31
0.0
  0
LINE
  5
E9
330
DD
100
AcDbEntity
  8
$DDT_AUDIT_GENERATED_(DF)
  6
Continuous
 62
     7
100
AcDbLine
 10
288.0514078353
 20
307.1873412149
 30
0.0
 11
288.0514078353
 21
307.1869086045
 31
0.0
  0
ARC
  5
EA
330
DD
100
AcDbEntity
  8
$DDT_AUDIT_GENERATED_(DF)
  6
Continuous
 62
     7
100
AcDbCircle
 10
285.4046712785
 20
307.2443105667
 30
0.0
 40
2.647358945527734
100
AcDbArc
 50
355.370280993
 51
358.7575738684
  0
LINE
  5
EB
330
DD
100
AcDbEntity
  8
$DDT_AUDIT_GENERATED_(DF)
  6
Continuous
 62
     7
100
AcDbLine
 10
236.9916137865
 20
335.3396365913
 30
0.0
 11
236.9916137865
 21
334.9271100248
 31
0.0
  0
LINE
  5
EC
330
DD
100
AcDbEntity
  8
$DDT_AUDIT_GENERATED_(DF)
  6
Continuous
 62
     7
100
AcDbLine
 10
236.9916137865
 20
335.3396365913
 30
0.0
 11
236.9916137865
 21
335.4945850039
 31
0.0
  0
LINE
  5
ED
330
DD
100
AcDbEntity
  8
$DDT_AUDIT_GENERATED_(DF)
  6
Continuous
 62
     7
100
AcDbLine
 10
284.4916137865
 20
334.9969155885
 30
0.0
 11
284.4916137865
 21
334.9002960593
 31
0.0
  0
LINE
  5
EE
330
DD
100
AcDbEntity
  8
$DDT_AUDIT_GENERATED_(DF)
  6
Continuous
 62
     7
100
AcDbLine
 10
284.4916137865
 20
335.1021222872
 30
0.0
 11
284.4916137865
 21
334.9969155885
 31
0.0
  0
ELLIPSE
  5
EF
330
DD
100
AcDbEntity
  8
$DDT_AUDIT_GENERATED_(DF)
  6
Continuous
 62
     7
100
AcDbEllipse
 10
284.2916137865
 20
335.1021222872
 30
0.0
 11
-0.0404671262527398
 21
-0.1958632474274961
 31
0.0
210
0.0
220
0.0
230
1.0
 40
0.2318698334
 41
3.104860368989612
 42
3.141592653589793
  0
LINE
  5
F0
330
DD
100
AcDbEntity
  8
$DDT_AUDIT_GENERATED_(DF)
  6
Continuous
 62
     7
100
AcDbLine
 10
236.9916137865
 20
339.6850609516
 30
0.0
 11
236.9916137865
 21
335.4945850039
 31
0.0
  0
LINE
  5
F1
330
DD
100
AcDbEntity
  8
$DDT_AUDIT_GENERATED_(DF)
  6
Continuous
 62
     7
100
AcDbLine
 10
236.9916137865
 20
302.4715686268
 30
0.0
 11
298.1219768466
 21
303.2184540637
 31
0.0
  0
LINE
  5
F2
330
DD
100
AcDbEntity
  8
$DDT_AUDIT_GENERATED_(DF)
  6
Continuous
 62
     7
100
AcDbLine
 10
275.9161032963
 20
339.2094849383
 30
0.0
 11
236.9916137865
 21
339.6850609516
 31
0.0
  0
LINE
  5
F3
330
DD
100
AcDbEntity
  8
$DDT_AUDIT_GENERATED_(DF)
  6
Continuous
 62
     7
100
AcDbLine
 10
276.8385955834
 20
338.48592991
 30
0.0
 11
276.8381071185
 21
338.541902442
 31
0.0
  0
ARC
  5
F4
330
DD
100
AcDbEntity
  8
$DDT_AUDIT_GENERATED_(DF)
  6
Continuous
 62
     7
100
AcDbCircle
 10
275.9223925587
 20
339.0093931688
 30
0.0
 40
0.1999999992154178
100
AcDbArc
 50
32.2093426051
 51
91.6278651786
  0
ARC
  5
F5
330
DD
100
AcDbEntity
  8
$DDT_AUDIT_GENERATED_(DF)
  6
Continuous
 62
     7
100
AcDbCircle
 10
280.5300862796
 20
346.417328373
 30
0.0
 40
8.684604211138726
100
AcDbArc
 50
236.639845351
 51
237.8910455878
  0
ARC
  5
F6
330
DD
100
AcDbEntity
  8
$DDT_AUDIT_GENERATED_(DF)
  6
Continuous
 62
     7
100
AcDbCircle
 10
289.5166618846
 20
360.389453652
 30
0.0
 40
25.29685962946706
100
AcDbArc
 50
237.471209708
 51
238.2964135039
  0
SPLINE
  5
F7
330
DD
100
AcDbEntity
  8
$DDT_AUDIT_GENERATED_(DF)
  6
Continuous
 62
     7
100
AcDbSpline
210
0.0
220
0.0
230
1.0
 70
     8
 71
     3
 72
    14
 73
    10
 74
     0
 42
0.0000000116859014
 43
0.0000000001
 40
0.0
 40
0.0
 40
0.0
 40
0.0
 40
0.0097730111044488
 40
0.1388544550163041
 40
0.2517770326384994
 40
0.3853554746869973
 40
0.600571945281177
 40
0.852189420827619
 40
1.0
 40
1.0
 40
1.0
 40
1.0
 10
276.8361889588993
 20
338.5388467965631
 30
0.0
 10
276.8368785958021
 20
338.541929298966
 30
0.0
 10
276.8452896960851
 20
338.5796543285118
 30
0.0
 10
276.8127819992761
 20
338.6593086782729
 30
0.0
 10
276.7488947527371
 20
338.7367333866816
 30
0.0
 10
276.6557408066788
 20
338.7954096028068
 30
0.0
 10
276.5214623211151
 20
338.8413590021017
 30
0.0
 10
276.3405594463798
 20
338.8763250530642
 30
0.0
 10
276.2073446233702
 20
338.8857966875813
 30
0.0
 10
276.1497801877555
 20
338.8896187267467
 30
0.0
  0
ARC
  5
F8
330
DD
100
AcDbEntity
  8
$DDT_AUDIT_GENERATED_(DF)
  6
Continuous
 62
     7
100
AcDbCircle
 10
288.5167796969
 20
357.6280556599
 30
0.0
 40
22.42424394254002
100
AcDbArc
 50
238.0567210355
 51
239.7770193909
  0
ARC
  5
F9
330
DD
100
AcDbEntity
  8
$DDT_AUDIT_GENERATED_(DF)
  6
Continuous
 62
     7
100
AcDbCircle
 10
289.2227125007
 20
358.2701881045
 30
0.0
 40
23.3361980199233
100
AcDbArc
 50
239.0729652236
 51
241.2311952898
  0
SPLINE
  5
FA
330
DD
100
AcDbEntity
  8
$DDT_AUDIT_GENERATED_(DF)
  6
Continuous
 62
     7
100
AcDbSpline
210
0.0
220
0.0
230
1.0
 70
     8
 71
     3
 72
    13
 73
     9
 74
     0
 42
0.0000000081773105
 43
0.0000000001
 40
0.0
 40
0.0
 40
0.0
 40
0.0
 40
0.1579035264423554
 40
0.3290715269591787
 40
0.5138974147848883
 40
0.72602272171823
 40
0.9294530938557707
 40
1.0
 40
1.0
 40
1.0
 40
1.0
 10
278.8916711502477
 20
337.2909578055063
 30
0.0
 10
278.8860184636195
 20
337.3519942988415
 30
0.0
 10
278.8735472709729
 20
337.4606224214507
 30
0.0
 10
278.7511658969591
 20
337.6038595928685
 30
0.0
 10
278.5751776116562
 20
337.7136124879467
 30
0.0
 10
278.3347596506192
 20
337.7900337567868
 30
0.0
 10
278.0963016978108
 20
337.8266194636869
 30
0.0
 10
277.9709472323883
 20
337.8225689124071
 30
0.0
 10
277.9334610168624
 20
337.821198296962
 30
0.0
  0
ARC
  5
FB
330
DD
100
AcDbEntity
  8
$DDT_AUDIT_GENERATED_(DF)
  6
Continuous
 62
     7
100
AcDbCircle
 10
288.323791809
 20
355.2016508387
 30
0.0
 40
20.21109287465296
100
AcDbArc
 50
241.9014971829
 51
245.3917310368
  0
ARC
  5
FC
330
DD
100
AcDbEntity
  8
$DDT_AUDIT_GENERATED_(DF)
  6
Continuous
 62
     7
100
AcDbCircle
 10
285.9932806095
 20
349.2656489289
 30
0.0
 40
13.8482686637955
100
AcDbArc
 50
243.9311646103
 51
248.1483369381
  0
ARC
  5
FD
330
DD
100
AcDbEntity
  8
$DDT_AUDIT_GENERATED_(DF)
  6
Continuous
 62
     7
100
AcDbCircle
 10
281.015987533
 20
335.7601640178
 30
0.0
 40
0.6710372514486734
100
AcDbArc
 50
85.1595682828
 51
105.6742589715
  0
SPLINE
  5
FE
330
DD
100
AcDbEntity
  8
$DDT_AUDIT_GENERATED_(DF)
  6
Continuous
 62
     7
100
AcDbSpline
210
0.0
220
0.0
230
1.0
 70
     8
 71
     3
 72
    12
 73
     8
 74
     0
 42
0.0000000086694526
 43
0.0000000001
 40
0.0
 40
0.0
 40
0.0
 40
0.0
 40
0.1319543663333819
 40
0.3720857866163468
 40
0.6144363111767499
 40
0.8257682219252437
 40
1.0
 40
1.0
 40
1.0
 40
1.0
 10
282.0052063088798
 20
335.9125749663569
 30
0.0
 10
281.9915359059395
 20
335.9573239229827
 30
0.0
 10
281.9567197226343
 20
336.0649161109407
 30
0.0
 10
281.7999902152333
 20
336.2228098439973
 30
0.0
 10
281.5750458743861
 20
336.3497739988988
 30
0.0
 10
281.314795409848
 20
336.423837914303
 30
0.0
 10
281.1561797790602
 20
336.4277509439731
 30
0.0
 10
281.0726103368489
 20
336.4288080568703
 30
0.0
  0
ARC
  5
FF
330
DD
100
AcDbEntity
  8
$DDT_AUDIT_GENERATED_(DF)
  6
Continuous
 62
     7
100
AcDbCircle
 10
287.3748087881
 20
350.5977341053
 30
0.0
 40
15.59262936676272
100
AcDbArc
 50
249.6792842078
 51
258.7580249057
  0
ARC
  5
100
330
DD
100
AcDbEntity
  8
$DDT_AUDIT_GENERATED_(DF)
  6
Continuous
 62
     7
100
AcDbCircle
 10
284.2916137865
 20
335.1021222872
 30
0.0
 40
0.1999999999999919
100
AcDbArc
 50
0.0
 51
78.3264262751
  0
LINE
  5
101
330
DD
100
AcDbEntity
  8
$DDT_AUDIT_GENERATED_(8E)
  6
Continuous
 62
     7
100
AcDbLine
 10
297.8916137865
 20
338.5933552055
 30
0.0
 11
297.8916137865
 21
614.5253019129
 31
0.0
  0
LINE
  5
102
330
DD
100
AcDbEntity
  8
$DDT_AUDIT_GENERATED_(8E)
  6
Continuous
 62
     7
100
AcDbLine
 10
297.8916137865
 20
647.8354018158
 30
0.0
 11
297.8916137865
 21
923.76791489
 31
0.0
  0
LINE
  5
103
330
DD
100
AcDbEntity
  8
$DDT_AUDIT_GENERATED_(8E)
  6
Continuous
 62
     7
100
AcDbLine
 10
276.0916137865
 20
923.244707726
 30
0.0
 11
276.0916137865
 21
647.8354018158
 31
0.0
  0
LINE
  5
104
330
DD
100
AcDbEntity
  8
$DDT_AUDIT_GENERATED_(8E)
  6
Continuous
 62
     7
100
AcDbLine
 10
276.0916137865
 20
614.5253019129
 30
0.0
 11
276.0916137865
 21
338.9491537121
 31
0.0
  0
LINE
  5
105
330
DD
100
AcDbEntity
  8
$DDT_AUDIT_GENERATED_(DF)
  6
Continuous
 62
     7
100
AcDbLine
 10
236.9916137865
 20
955.131184175
 30
0.0
 11
236.9916137865
 21
955.5446645414
 31
0.0
  0
LINE
  5
106
330
DD
100
AcDbEntity
  8
$DDT_AUDIT_GENERATED_(DF)
  6
Continuous
 62
     7
100
AcDbLine
 10
236.9916137865
 20
927.4335937039
 30
0.0
 11
236.9916137865
 21
927.0200275886
 31
0.0
  0
LINE
  5
107
330
DD
100
AcDbEntity
  8
$DDT_AUDIT_GENERATED_(DF)
  6
Continuous
 62
     7
100
AcDbLine
 10
284.4916137865
 20
927.4612629183
 30
0.0
 11
284.4916137865
 21
927.3627683376
 31
0.0
  0
SPLINE
  5
108
330
DD
100
AcDbEntity
  8
$DDT_AUDIT_GENERATED_(DF)
  6
Continuous
 62
     7
100
AcDbSpline
210
0.0
220
0.0
230
1.0
 70
     8
 71
     3
 72
     8
 73
     4
 74
     0
 42
0.000000035007153
 43
0.0000000001
 40
0.5905730380128452
 40
0.5905730380128452
 40
0.5905730380128452
 40
0.5905730380128452
 40
1.0
 40
1.0
 40
1.0
 40
1.0
 10
281.9567169452505
 20
926.3859328029486
 30
0.0
 10
281.924664729804
 20
926.3750593044115
 30
0.0
 10
281.8844074204333
 20
926.3777657956999
 30
0.0
 10
281.8441150148189
 20
926.3920834913984
 30
0.0
  0
SPLINE
  5
109
330
DD
100
AcDbEntity
  8
$DDT_AUDIT_GENERATED_(DF)
  6
Continuous
 62
     7
100
AcDbSpline
210
0.0
220
0.0
230
1.0
 70
     8
 71
     3
 72
     8
 73
     4
 74
     0
 42
0.0000000673025019
 43
0.0000000001
 40
0.7106076428208961
 40
0.7106076428208961
 40
0.7106076428208961
 40
0.7106076428208961
 40
1.0
 40
1.0
 40
1.0
 40
1.0
 10
280.8338020340027
 20
925.9480008348999
 30
0.0
 10
280.8283501856455
 20
925.9508481667599
 30
0.0
 10
280.8225370729511
 20
925.9643566870842
 30
0.0
 10
280.8178321237392
 20
925.9859929785616
 30
0.0
  0
SPLINE
  5
10A
330
DD
100
AcDbEntity
  8
$DDT_AUDIT_GENERATED_(DF)
  6
Continuous
 62
     7
100
AcDbSpline
210
0.0
220
0.0
230
1.0
 70
     8
 71
     3
 72
     8
 73
     4
 74
     0
 42
0.0000000334416905
 43
0.0000000001
 40
0.5772554928596357
 40
0.5772554928596357
 40
0.5772554928596357
 40
0.5772554928596357
 40
1.0
 40
1.0
 40
1.0
 40
1.0
 10
278.8069921438742
 20
924.9832769960808
 30
0.0
 10
278.7714231214475
 20
924.9657759782153
 30
0.0
 10
278.7282030431528
 20
924.9591917861933
 30
0.0
 10
278.6853799508069
 20
924.9636283085321
 30
0.0
  0
SPLINE
  5
10B
330
DD
100
AcDbEntity
  8
$DDT_AUDIT_GENERATED_(DF)
  6
Continuous
 62
     7
100
AcDbSpline
210
0.0
220
0.0
230
1.0
 70
     8
 71
     3
 72
     8
 73
     4
 74
     0
 42
0.000000053103999
 43
0.0000000001
 40
0.7973873927868464
 40
0.7973873927868464
 40
0.7973873927868464
 40
0.7973873927868464
 40
1.0
 40
1.0
 40
1.0
 40
1.0
 10
277.9638147112827
 20
924.535358506056
 30
0.0
 10
277.952517270528
 20
924.536365157433
 30
0.0
 10
277.9408398845968
 20
924.5412884695124
 30
0.0
 10
277.9295417605409
 20
924.549789121113
 30
0.0
  0
ARC
  5
10C
330
DD
100
AcDbEntity
  8
$DDT_AUDIT_GENERATED_(DF)
  6
Continuous
 62
     7
100
AcDbCircle
 10
276.5325383375
 20
923.9370928712
 30
0.0
 40
0.216672739316072
100
AcDbArc
 50
268.7997976874
 51
305.8847494904
  0
ARC
  5
10D
330
DD
100
AcDbEntity
  8
$DDT_AUDIT_GENERATED_(DF)
  6
Continuous
 62
     7
100
AcDbCircle
 10
275.6357858384
 20
923.3639215434
 30
0.0
 40
0.2066618867813223
100
AcDbArc
 50
271.072531347
 51
305.9764604548
  0
LINE
  5
10E
330
DD
100
AcDbEntity
  8
$DDT_AUDIT_GENERATED_(DF)
  6
Continuous
 62
     7
100
AcDbLine
 10
236.9916137865
 20
959.8891351018
 30
0.0
 11
236.9916137865
 21
955.6996233169
 31
0.0
  0
ARC
  5
10F
330
DD
100
AcDbEntity
  8
$DDT_AUDIT_GENERATED_(DF)
  6
Continuous
 62
     7
100
AcDbCircle
 10
285.5348405684
 20
977.2889975043
 30
0.0
 40
22.09639089013319
100
AcDbArc
 50
277.9293802625
 51
304.7583384275
  0
LINE
  5
110
330
DD
100
AcDbEntity
  8
$DDT_AUDIT_GENERATED_(DF)
  6
Continuous
 62
     7
100
AcDbLine
 10
236.9916137865
 20
955.5446645414
 30
0.0
 11
236.9916137865
 21
955.6996233169
 31
0.0
  0
LINE
  5
111
330
DD
100
AcDbEntity
  8
$DDT_AUDIT_GENERATED_(DF)
  6
Continuous
 62
     7
100
AcDbLine
 10
288.0132438837
 20
955.1748865309
 30
0.0
 11
288.0132438837
 21
955.1744931167
 31
0.0
  0
ARC
  5
112
330
DD
100
AcDbEntity
  8
$DDT_AUDIT_GENERATED_(DF)
  6
Continuous
 62
     7
100
AcDbCircle
 10
285.2792849356
 20
955.1189449186
 30
0.0
 40
2.734531220122882
100
AcDbArc
 50
1.1722089228
 51
4.4512541406
  0
LINE
  5
113
330
DD
100
AcDbEntity
  8
$DDT_AUDIT_GENERATED_(DF)
  6
Continuous
 62
     7
100
AcDbLine
 10
236.9916137865
 20
922.6756427771
 30
0.0
 11
236.9916137865
 21
926.8650678814
 31
0.0
  0
LINE
  5
114
330
DD
100
AcDbEntity
  8
$DDT_AUDIT_GENERATED_(DF)
  6
Continuous
 62
     7
100
AcDbLine
 10
236.9916137865
 20
926.8650678814
 30
0.0
 11
236.9916137865
 21
927.0200275886
 31
0.0
  0
LINE
  5
115
330
DD
100
AcDbEntity
  8
$DDT_AUDIT_GENERATED_(DF)
  6
Continuous
 62
     7
100
AcDbLine
 10
284.4916137865
 20
927.3627683376
 30
0.0
 11
284.4916137865
 21
927.2582431844
 31
0.0
  0
ELLIPSE
  5
116
330
DD
100
AcDbEntity
  8
$DDT_AUDIT_GENERATED_(DF)
  6
Continuous
 62
     7
100
AcDbEllipse
 10
284.2916137865
 20
927.2582431844
 30
0.0
 11
-0.04046479182036322
 21
0.1958637297279076
 31
0.0
210
0.0
220
0.0
230
0.9999999999999999
 40
0.2318704133
 41
3.141592653589793
 42
3.17557985501426
  0
LINE
  5
117
330
DD
100
AcDbEntity
  8
$DDT_AUDIT_GENERATED_(DF)
  6
Continuous
 62
     7
100
AcDbLine
 10
298.1219768466
 20
959.142249665
 30
0.0
 11
236.9916137865
 21
959.8891351018
 31
0.0
  0
LINE
  5
118
330
DD
100
AcDbEntity
  8
$DDT_AUDIT_GENERATED_(DF)
  6
Continuous
 62
     7
100
AcDbLine
 10
236.9916137865
 20
922.6756427771
 30
0.0
 11
275.9161032963
 21
923.1512187903
 31
0.0
  0
LINE
  5
119
330
DD
100
AcDbEntity
  8
$DDT_AUDIT_GENERATED_(DF)
  6
Continuous
 62
     7
100
AcDbLine
 10
276.8381080046
 20
923.8189028241
 30
0.0
 11
276.8386005105
 21
923.8753384026
 31
0.0
  0
ARC
  5
11A
330
DD
100
AcDbEntity
  8
$DDT_AUDIT_GENERATED_(DF)
  6
Continuous
 62
     7
100
AcDbCircle
 10
287.3871343985
 20
911.6538698262
 30
0.0
 40
15.70092390697724
100
AcDbArc
 50
101.2076600344
 51
110.2363373813
  0
SPLINE
  5
11B
330
DD
100
AcDbEntity
  8
$DDT_AUDIT_GENERATED_(DF)
  6
Continuous
 62
     7
100
AcDbSpline
210
0.0
220
0.0
230
1.0
 70
     8
 71
     3
 72
    12
 73
     8
 74
     0
 42
0.0000000096696789
 43
0.0000000001
 40
0.0
 40
0.0
 40
0.0
 40
0.0
 40
0.032896972194308
 40
0.2707803171879641
 40
0.5148848344222328
 40
0.773412849932933
 40
1.0
 40
1.0
 40
1.0
 40
1.0
 10
281.1952687938038
 20
925.9351356818539
 30
0.0
 10
281.2096390516646
 20
925.9351383338033
 30
0.0
 10
281.3115575748272
 20
925.9353399053936
 30
0.0
 10
281.5132613606405
 20
925.99064266044
 30
0.0
 10
281.7458296777164
 20
926.09906450005
 30
0.0
 10
281.9295953465875
 20
926.2588185147072
 30
0.0
 10
281.983587274293
 20
926.382517415274
 30
0.0
 10
282.0113611718505
 20
926.4507381584534
 30
0.0
  0
ARC
  5
11C
330
DD
100
AcDbEntity
  8
$DDT_AUDIT_GENERATED_(DF)
  6
Continuous
 62
     7
100
AcDbCircle
 10
281.0654718669
 20
926.8491149497
 30
0.0
 40
0.9231496868440129
100
AcDbArc
 50
255.550077306
 51
278.0826975858
  0
ARC
  5
11D
330
DD
100
AcDbEntity
  8
$DDT_AUDIT_GENERATED_(DF)
  6
Continuous
 62
     7
100
AcDbCircle
 10
285.6226234524
 20
913.9537111787
 30
0.0
 40
12.91283377586159
100
AcDbArc
 50
111.7433223624
 51
116.0075255312
  0
ARC
  5
11E
330
DD
100
AcDbEntity
  8
$DDT_AUDIT_GENERATED_(DF)
  6
Continuous
 62
     7
100
AcDbCircle
 10
288.1698907212
 20
907.4846577435
 30
0.0
 40
19.85130276825867
100
AcDbArc
 50
114.4277163669
 51
118.1506453881
  0
SPLINE
  5
11F
330
DD
100
AcDbEntity
  8
$DDT_AUDIT_GENERATED_(DF)
  6
Continuous
 62
     7
100
AcDbSpline
210
0.0
220
0.0
230
1.0
 70
     8
 71
     3
 72
    13
 73
     9
 74
     0
 42
0.0000000083675946
 43
0.0000000001
 40
0.0
 40
0.0
 40
0.0
 40
0.0
 40
0.0796467335215903
 40
0.2783819721007328
 40
0.4831824169306211
 40
0.705153336434225
 40
0.8825527828782334
 40
1.0
 40
1.0
 40
1.0
 40
1.0
 10
277.9635488296304
 20
924.5397644416678
 30
0.0
 10
278.00521194512
 20
924.539058912343
 30
0.0
 10
278.1304871933662
 20
924.5375251374661
 30
0.0
 10
278.3586174334407
 20
924.5766472344892
 30
0.0
 10
278.6005442813596
 20
924.657441402273
 30
0.0
 10
278.7773503336185
 20
924.77680557317
 30
0.0
 10
278.885755892438
 20
924.929567851781
 30
0.0
 10
278.8881437983409
 20
925.0257084310236
 30
0.0
 10
278.888493441569
 20
925.070503275625
 30
0.0
  0
ARC
  5
120
330
DD
100
AcDbEntity
  8
$DDT_AUDIT_GENERATED_(DF)
  6
Continuous
 62
     7
100
AcDbCircle
 10
288.2954566694
 20
905.6368617265
 30
0.0
 40
21.53406904939309
100
AcDbArc
 50
118.5848487701
 51
120.9008906601
  0
ARC
  5
121
330
DD
100
AcDbEntity
  8
$DDT_AUDIT_GENERATED_(DF)
  6
Continuous
 62
     7
100
AcDbCircle
 10
292.3470788542
 20
898.4918842253
 30
0.0
 40
29.74622053920643
100
AcDbArc
 50
120.5294996477
 51
121.8326211449
  0
SPLINE
  5
122
330
DD
100
AcDbEntity
  8
$DDT_AUDIT_GENERATED_(DF)
  6
Continuous
 62
     7
100
AcDbSpline
210
0.0
220
0.0
230
1.0
 70
     8
 71
     3
 72
    13
 73
     9
 74
     0
 42
0.0000000116629537
 43
0.0000000001
 40
0.0
 40
0.0
 40
0.0
 40
0.0
 40
0.1852163982445322
 40
0.4454667330424879
 40
0.6986994693917705
 40
0.8729016633899322
 40
0.999553617348556
 40
1.0
 40
1.0
 40
1.0
 40
1.0
 10
276.152960076463
 20
923.4705153523801
 30
0.0
 10
276.2237306733214
 20
923.4760173492565
 30
0.0
 10
276.3692929284999
 20
923.4882022565558
 30
0.0
 10
276.5651393055783
 20
923.5304655605812
 30
0.0
 10
276.7110149834022
 20
923.587887943677
 30
0.0
 10
276.8106721675025
 20
923.6903980785515
 30
0.0
 10
276.8462377818961
 20
923.7891096015849
 30
0.0
 10
276.8380086677991
 20
923.8233345945994
 30
0.0
 10
276.8379751925666
 20
923.8234737963691
 30
0.0
  0
ARC
  5
123
330
DD
100
AcDbEntity
  8
$DDT_AUDIT_GENERATED_(DF)
  6
Continuous
 62
     7
100
AcDbCircle
 10
291.0334674445
 20
899.5071351032
 30
0.0
 40
28.19022732669236
100
AcDbArc
 50
121.6882334158
 51
122.5200227768
  0
ARC
  5
124
330
DD
100
AcDbEntity
  8
$DDT_AUDIT_GENERATED_(DF)
  6
Continuous
 62
     7
100
AcDbCircle
 10
280.6498141413
 20
915.7603457411
 30
0.0
 40
8.903286216475164
100
AcDbArc
 50
122.4048261855
 51
123.343629071
  0
ARC
  5
125
330
DD
100
AcDbEntity
  8
$DDT_AUDIT_GENERATED_(DF)
  6
Continuous
 62
     7
100
AcDbCircle
 10
275.9223925587
 20
923.3513105615
 30
0.0
 40
0.1999999598542258
100
AcDbArc
 50
268.3721348215
 51
0.04294202
  0
ARC
  5
126
330
DD
100
AcDbEntity
  8
$DDT_AUDIT_GENERATED_(DF)
  6
Continuous
 62
     7
100
AcDbCircle
 10
284.2916137865
 20
927.2582431844
 30
0.0
 40
0.1999999999999832
100
AcDbArc
 50
281.6728908354
 51
0.0
  0
CIRCLE
  5
127
330
DD
100
AcDbEntity
  8
$DDT_AUDIT_GENERATED_(93)
  6
Continuous
 62
     7
100
AcDbCircle
 10
286.9916137865
 20
631.1803518643
 30
0.0
 40
14.04662112920757
  0
CIRCLE
  5
128
330
DD
100
AcDbEntity
  8
$DDT_AUDIT_GENERATED_(93)
  6
Continuous
 62
     7
100
AcDbCircle
 10
286.9916137865
 20
631.1803518643
 30
0.0
 40
13.63074179042313
  0
ARC
  5
129
330
DD
100
AcDbEntity
  8
$DDT_AUDIT_GENERATED_(93)
  6
Continuous
 62
     7
100
AcDbCircle
 10
286.9915883405
 20
631.1805543159
 30
0.0
 40
23.00000000000029
100
AcDbArc
 50
73.6707521697
 51
106.3301654851
  0
CIRCLE
  5
12A
330
DD
100
AcDbEntity
  8
$DDT_AUDIT_GENERATED_(93)
  6
Continuous
 62
     7
100
AcDbCircle
 10
286.9916137865
 20
631.1803518643
 30
0.0
 40
19.90479060140887
  0
LINE
  5
12B
330
DD
100
AcDbEntity
  8
$DDT_AUDIT_GENERATED_(93)
  6
Continuous
 62
     7
100
AcDbLine
 10
293.9860686981
 20
649.8157560557
 30
0.0
 11
293.9618699126
 21
652.588662224
 31
0.0
  0
LINE
  5
12C
330
DD
100
AcDbEntity
  8
$DDT_AUDIT_GENERATED_(93)
  6
Continuous
 62
     7
100
AcDbLine
 10
280.0213867687
 20
652.5919977083
 30
0.0
 11
279.9971588749
 21
649.8157560557
 31
0.0
  0
ARC
  5
12D
330
DD
100
AcDbEntity
  8
$DDT_AUDIT_GENERATED_(93)
  6
Continuous
 62
     7
100
AcDbCircle
 10
280.6963340198
 20
652.6042111147
 30
0.0
 40
0.6660548920899314
100
AcDbArc
 50
114.3972539806
 51
181.1133584243
  0
ARC
  5
12E
330
DD
100
AcDbEntity
  8
$DDT_AUDIT_GENERATED_(93)
  6
Continuous
 62
     7
100
AcDbCircle
 10
293.2847769544
 20
652.6048338405
 30
0.0
 40
0.6679100235759253
100
AcDbArc
 50
358.604825181
 51
66.723737904
  0
LINE
  5
12F
330
DD
100
AcDbEntity
  8
$DDT_AUDIT_GENERATED_(D8)
  6
Continuous
 62
     7
100
AcDbLine
 10
306.9916137865
 20
959.1562080437
 30
0.0
 11
306.9916137865
 21
923.4085698353
 31
0.0
  0
LINE
  5
130
330
DD
100
AcDbEntity
  8
$DDT_AUDIT_GENERATED_(D8)
  6
Continuous
 62
     7
100
AcDbLine
 10
236.9916137865
 20
927.4335937039
 30
0.0
 11
236.9916137865
 21
955.131184175
 31
0.0
  0
ARC
  5
131
330
DD
100
AcDbEntity
  8
$DDT_AUDIT_GENERATED_(D8)
  6
Continuous
 62
     7
100
AcDbCircle
 10
286.0317511247
 20
975.7904592573
 30
0.0
 40
20.77457558575687
100
AcDbArc
 50
289.6371169848
 51
307.2057708807
  0
ARC
  5
132
330
DD
100
AcDbEntity
  8
$DDT_AUDIT_GENERATED_(D8)
  6
Continuous
 62
     7
100
AcDbCircle
 10
286.0317511247
 20
906.7743186216
 30
0.0
 40
20.774575585759
100
AcDbArc
 50
52.7942291193
 51
63.791036504
  0
ELLIPSE
  5
133
330
DD
100
AcDbEntity
  8
$DDT_AUDIT_GENERATED_(D8)
  6
Continuous
 62
     7
100
AcDbEllipse
 10
287.1130864822
 20
954.8919472982
 30
0.0
 11
-0.0009668656286154764
 21
-0.1999976629135647
 31
0.0
210
0.0
220
0.0
230
1.0
 40
0.0104716618
 41
3.14198176719451
 42
3.193548391331888
  0
ELLIPSE
  5
134
330
DD
100
AcDbEntity
  8
$DDT_AUDIT_GENERATED_(D8)
  6
Continuous
 62
     7
100
AcDbEllipse
 10
287.1130864822
 20
927.6728305807
 30
0.0
 11
0.0
 21
0.1998608870905511
 31
0.0
210
0.0
220
0.0
230
1.0
 40
1.0
 41
3.146036204843724
 42
3.146422173050364
  0
ARC
  5
135
330
DD
100
AcDbEntity
  8
$DDT_AUDIT_GENERATED_(D8)
  6
Continuous
 62
     7
100
AcDbCircle
 10
307.1838502625
 20
965.153127681
 30
0.0
 40
5.999999999999981
100
AcDbArc
 50
268.1639626617
 51
315.1905532242
  0
ARC
  5
136
330
DD
100
AcDbEntity
  8
$DDT_AUDIT_GENERATED_(D8)
  6
Continuous
 62
     7
100
AcDbCircle
 10
307.1838502625
 20
917.4116501979
 30
0.0
 40
5.999999999999915
100
AcDbArc
 50
44.8094467758
 51
91.8360373383
  0
ARC
  5
137
330
DD
100
AcDbEntity
  8
$DDT_AUDIT_GENERATED_(D8)
  6
Continuous
 62
     7
100
AcDbCircle
 10
113.2300725855
 20
941.2823889395
 30
0.0
 40
200.0
100
AcDbArc
 50
4.0469516692
 51
5.5486555275
  0
ARC
  5
138
330
DD
100
AcDbEntity
  8
$DDT_AUDIT_GENERATED_(D8)
  6
Continuous
 62
     7
100
AcDbCircle
 10
113.2300725855
 20
941.2823889395
 30
0.0
 40
200.0
100
AcDbArc
 50
354.4513444725
 51
355.9530483308
  0
ARC
  5
139
330
DD
100
AcDbEntity
  8
$DDT_AUDIT_GENERATED_(D8)
  6
Continuous
 62
     7
100
AcDbCircle
 10
311.7953048289
 20
960.5722449297
 30
0.0
 40
0.5000000000000071
100
AcDbArc
 50
5.5486555275
 51
135.1905532242
  0
ARC
  5
13A
330
DD
100
AcDbEntity
  8
$DDT_AUDIT_GENERATED_(D8)
  6
Continuous
 62
     7
100
AcDbCircle
 10
311.7953048289
 20
921.9925329493
 30
0.0
 40
0.4999999999999447
100
AcDbArc
 50
224.8094467758
 51
354.4513444725
  0
ARC
  5
13B
330
DD
100
AcDbEntity
  8
$DDT_AUDIT_GENERATED_(D8)
  6
Continuous
 62
     7
100
AcDbCircle
 10
113.2300725855
 20
941.2823889395
 30
0.0
 40
200.0
100
AcDbArc
 50
356.1107618471
 51
3.8892381529
  0
ARC
  5
13C
330
DD
100
AcDbEntity
  8
$DDT_AUDIT_GENERATED_(D8)
  6
Continuous
 62
     7
100
AcDbCircle
 10
312.6316324505
 20
927.1746632748
 30
0.0
 40
0.0999999999999923
100
AcDbArc
 50
355.9530483307
 51
0.0
  0
ARC
  5
13D
330
DD
100
AcDbEntity
  8
$DDT_AUDIT_GENERATED_(D8)
  6
Continuous
 62
     7
100
AcDbCircle
 10
312.6316324505
 20
955.3901146041
 30
0.0
 40
0.1000000000000029
100
AcDbArc
 50
0.0
 51
4.0469516693
  0
LINE
  5
13E
330
DD
100
AcDbEntity
  8
$DDT_AUDIT_GENERATED_(D8)
  6
Continuous
 62
     7
100
AcDbLine
 10
312.7316324505
 20
927.1746632748
 30
0.0
 11
312.7316324505
 21
955.3901146041
 31
0.0
  0
ARC
  5
13F
330
DD
100
AcDbEntity
  8
$DDT_AUDIT_GENERATED_(D8)
  6
Continuous
 62
     7
100
AcDbCircle
 10
312.669710187
 20
954.8411851023
 30
0.0
 40
0.0999999999999961
100
AcDbArc
 50
3.889238153
 51
51.7406106791
  0
ARC
  5
140
330
DD
100
AcDbEntity
  8
$DDT_AUDIT_GENERATED_(D8)
  6
Continuous
 62
     7
100
AcDbCircle
 10
312.669710187
 20
927.7235927766
 30
0.0
 40
0.0999999999999374
100
AcDbArc
 50
308.2593893209
 51
356.1107618472
  0
LINE
  5
141
330
DD
100
AcDbEntity
  8
$DDT_AUDIT_GENERATED_(D8)
  6
Continuous
 62
     7
100
AcDbLine
 10
298.5733310313
 20
923.3204105618
 30
0.0
 11
306.9916137865
 21
923.4085698353
 31
0.0
  0
LINE
  5
142
330
DD
100
AcDbEntity
  8
$DDT_AUDIT_GENERATED_(D8)
  6
Continuous
 62
     7
100
AcDbLine
 10
306.9916137865
 20
959.1562080437
 30
0.0
 11
298.5733310313
 21
959.2443673171
 31
0.0
  0
ARC
  5
143
330
DD
100
AcDbEntity
  8
$DDT_AUDIT_GENERATED_(D8)
  6
Continuous
 62
     7
100
AcDbCircle
 10
286.9798328836
 20
970.7210751182
 30
0.0
 40
15.62112598444273
100
AcDbArc
 50
270.4917046338
 51
292.3455313124
  0
SPLINE
  5
144
330
DD
100
AcDbEntity
  8
$DDT_AUDIT_GENERATED_(D8)
  6
Continuous
 62
     7
100
AcDbSpline
210
0.0
220
0.0
230
1.0
 70
     8
 71
     3
 72
     8
 73
     4
 74
     0
 42
0.0000000002003122
 43
0.0000000001
 40
0.0
 40
0.0
 40
0.0
 40
0.0
 40
1.0
 40
1.0
 40
1.0
 40
1.0
 10
287.1140522059118
 20
955.0917130639178
 30
0.0
 10
272.5964104589524
 20
955.1627084228431
 30
0.0
 10
255.9559116975811
 20
955.2419704266059
 30
0.0
 10
237.1925559217977
 20
955.3294990752064
 30
0.0
  0
ARC
  5
145
330
DD
100
AcDbEntity
  8
$DDT_AUDIT_GENERATED_(D8)
  6
Continuous
 62
     7
100
AcDbCircle
 10
237.1916137865
 20
955.131184175
 30
0.0
 40
0.1999999999999735
100
AcDbArc
 50
89.72779719
 51
180.0
  0
ARC
  5
146
330
DD
100
AcDbEntity
  8
$DDT_AUDIT_GENERATED_(D8)
  6
Continuous
 62
     7
100
AcDbCircle
 10
286.7128899987
 20
910.0929803005
 30
0.0
 40
17.37609434159213
100
AcDbArc
 50
61.2671391167
 51
88.6769532614
  0
LINE
  5
147
330
DD
100
AcDbEntity
  8
$DDT_AUDIT_GENERATED_(D8)
  6
Continuous
 62
     7
100
AcDbLine
 10
237.1925541292
 20
927.2356599639
 30
0.0
 11
287.114048797
 21
927.4737711815
 31
0.0
  0
ARC
  5
148
330
DD
100
AcDbEntity
  8
$DDT_AUDIT_GENERATED_(D8)
  6
Continuous
 62
     7
100
AcDbCircle
 10
237.1916137865
 20
927.4335937039
 30
0.0
 40
0.200000000000001
100
AcDbArc
 50
180.0
 51
270.27220281
  0
LINE
  5
149
330
DD
100
AcDbEntity
  8
$DDT_AUDIT_GENERATED_(D8)
  6
Continuous
 62
     7
100
AcDbLine
 10
306.9916137865
 20
338.9521338934
 30
0.0
 11
306.9916137865
 21
303.204495685
 31
0.0
  0
LINE
  5
14A
330
DD
100
AcDbEntity
  8
$DDT_AUDIT_GENERATED_(D8)
  6
Continuous
 62
     7
100
AcDbLine
 10
236.9916137865
 20
307.2295195537
 30
0.0
 11
236.9916137865
 21
334.9271100248
 31
0.0
  0
ARC
  5
14B
330
DD
100
AcDbEntity
  8
$DDT_AUDIT_GENERATED_(D8)
  6
Continuous
 62
     7
100
AcDbCircle
 10
286.0317511247
 20
286.5702444714
 30
0.0
 40
20.77457558575758
100
AcDbArc
 50
52.7942291193
 51
63.791036504
  0
ARC
  5
14C
330
DD
100
AcDbEntity
  8
$DDT_AUDIT_GENERATED_(D8)
  6
Continuous
 62
     7
100
AcDbCircle
 10
286.0317511247
 20
355.5863851071
 30
0.0
 40
20.77457558575735
100
AcDbArc
 50
289.6371169849
 51
307.2057708807
  0
ELLIPSE
  5
14D
330
DD
100
AcDbEntity
  8
$DDT_AUDIT_GENERATED_(D8)
  6
Continuous
 62
     7
100
AcDbEllipse
 10
287.1130864822
 20
307.4687564305
 30
0.0
 11
0.0
 21
0.1997496620564908
 31
0.0
210
0.0
220
0.0
230
1.0
 40
1.0
 41
3.145902542486358
 42
3.146426823657151
  0
ELLIPSE
  5
14E
330
DD
100
AcDbEntity
  8
$DDT_AUDIT_GENERATED_(D8)
  6
Continuous
 62
     7
100
AcDbEllipse
 10
287.1130864822
 20
334.687873148
 30
0.0
 11
-0.0009668656286154763
 21
-0.1999976629134884
 31
0.0
210
0.0
220
0.0
230
1.0
 40
0.0104716618
 41
3.14145755157424
 42
3.18053531563255
  0
ARC
  5
14F
330
DD
100
AcDbEntity
  8
$DDT_AUDIT_GENERATED_(D8)
  6
Continuous
 62
     7
100
AcDbCircle
 10
307.1838502625
 20
344.9490535308
 30
0.0
 40
5.999999999999987
100
AcDbArc
 50
268.1639626617
 51
315.1905532242
  0
ARC
  5
150
330
DD
100
AcDbEntity
  8
$DDT_AUDIT_GENERATED_(D8)
  6
Continuous
 62
     7
100
AcDbCircle
 10
307.1838502625
 20
297.2075760476
 30
0.0
 40
6.000000000000002
100
AcDbArc
 50
44.8094467758
 51
91.8360373383
  0
ARC
  5
151
330
DD
100
AcDbEntity
  8
$DDT_AUDIT_GENERATED_(D8)
  6
Continuous
 62
     7
100
AcDbCircle
 10
113.2300725855
 20
321.0783147892
 30
0.0
 40
200.0
100
AcDbArc
 50
4.0469516692
 51
5.5486555275
  0
ARC
  5
152
330
DD
100
AcDbEntity
  8
$DDT_AUDIT_GENERATED_(D8)
  6
Continuous
 62
     7
100
AcDbCircle
 10
113.2300725855
 20
321.0783147892
 30
0.0
 40
200.0
100
AcDbArc
 50
354.4513444725
 51
355.9530483308
  0
ARC
  5
153
330
DD
100
AcDbEntity
  8
$DDT_AUDIT_GENERATED_(D8)
  6
Continuous
 62
     7
100
AcDbCircle
 10
311.7953048289
 20
340.3681707794
 30
0.0
 40
0.500000000000005
100
AcDbArc
 50
5.5486555275
 51
135.1905532242
  0
ARC
  5
154
330
DD
100
AcDbEntity
  8
$DDT_AUDIT_GENERATED_(D8)
  6
Continuous
 62
     7
100
AcDbCircle
 10
311.7953048289
 20
301.788458799
 30
0.0
 40
0.5000000000000131
100
AcDbArc
 50
224.8094467758
 51
354.4513444725
  0
ARC
  5
155
330
DD
100
AcDbEntity
  8
$DDT_AUDIT_GENERATED_(D8)
  6
Continuous
 62
     7
100
AcDbCircle
 10
113.2300725855
 20
321.0783147892
 30
0.0
 40
200.0
100
AcDbArc
 50
356.1107618471
 51
3.8892381529
  0
ARC
  5
156
330
DD
100
AcDbEntity
  8
$DDT_AUDIT_GENERATED_(D8)
  6
Continuous
 62
     7
100
AcDbCircle
 10
312.6316324505
 20
306.9705891245
 30
0.0
 40
0.0999999999999896
100
AcDbArc
 50
355.9530483308
 51
0.0
  0
ARC
  5
157
330
DD
100
AcDbEntity
  8
$DDT_AUDIT_GENERATED_(D8)
  6
Continuous
 62
     7
100
AcDbCircle
 10
312.6316324505
 20
335.1860404539
 30
0.0
 40
0.1000000000000029
100
AcDbArc
 50
0.0
 51
4.0469516692
  0
LINE
  5
158
330
DD
100
AcDbEntity
  8
$DDT_AUDIT_GENERATED_(D8)
  6
Continuous
 62
     7
100
AcDbLine
 10
312.7316324505
 20
306.9705891245
 30
0.0
 11
312.7316324505
 21
335.1860404539
 31
0.0
  0
ARC
  5
159
330
DD
100
AcDbEntity
  8
$DDT_AUDIT_GENERATED_(D8)
  6
Continuous
 62
     7
100
AcDbCircle
 10
312.669710187
 20
334.6371109521
 30
0.0
 40
0.0999999999999971
100
AcDbArc
 50
3.8892381529
 51
51.7406106791
  0
ARC
  5
15A
330
DD
100
AcDbEntity
  8
$DDT_AUDIT_GENERATED_(D8)
  6
Continuous
 62
     7
100
AcDbCircle
 10
312.669710187
 20
307.5195186264
 30
0.0
 40
0.0999999999999303
100
AcDbArc
 50
308.2593893208
 51
356.1107618471
  0
LINE
  5
15B
330
DD
100
AcDbEntity
  8
$DDT_AUDIT_GENERATED_(D8)
  6
Continuous
 62
     7
100
AcDbLine
 10
298.5733310313
 20
303.1163364116
 30
0.0
 11
306.9916137865
 21
303.204495685
 31
0.0
  0
LINE
  5
15C
330
DD
100
AcDbEntity
  8
$DDT_AUDIT_GENERATED_(D8)
  6
Continuous
 62
     7
100
AcDbLine
 10
306.9916137865
 20
338.9521338934
 30
0.0
 11
298.5733310313
 21
339.0402931669
 31
0.0
  0
ARC
  5
15D
330
DD
100
AcDbEntity
  8
$DDT_AUDIT_GENERATED_(D8)
  6
Continuous
 62
     7
100
AcDbCircle
 10
237.1916137865
 20
307.2295195537
 30
0.0
 40
0.1999999999999971
100
AcDbArc
 50
180.0
 51
270.27220281
  0
LINE
  5
15E
330
DD
100
AcDbEntity
  8
$DDT_AUDIT_GENERATED_(D8)
  6
Continuous
 62
     7
100
AcDbLine
 10
237.1925541557
 20
307.0315858138
 30
0.0
 11
287.1140486858
 21
307.2696970307
 31
0.0
  0
ARC
  5
15F
330
DD
100
AcDbEntity
  8
$DDT_AUDIT_GENERATED_(D8)
  6
Continuous
 62
     7
100
AcDbCircle
 10
286.7129010118
 20
289.8889377562
 30
0.0
 40
17.37606133299467
100
AcDbArc
 50
61.2671208599
 51
88.6770959502
  0
ARC
  5
160
330
DD
100
AcDbEntity
  8
$DDT_AUDIT_GENERATED_(D8)
  6
Continuous
 62
     7
100
AcDbCircle
 10
237.1916137865
 20
334.9271100248
 30
0.0
 40
0.1999999999999943
100
AcDbArc
 50
89.72779719
 51
180.0
  0
SPLINE
  5
161
330
DD
100
AcDbEntity
  8
$DDT_AUDIT_GENERATED_(D8)
  6
Continuous
 62
     7
100
AcDbSpline
210
0.0
220
0.0
230
1.0
 70
     8
 71
     3
 72
     8
 73
     4
 74
     0
 42
0.0000000002003122
 43
0.0000000001
 40
0.0
 40
0.0
 40
0.0
 40
0.0
 40
1.0
 40
1.0
 40
1.0
 40
1.0
 10
287.1140522195988
 20
334.8876389136024
 30
0.0
 10
272.5964104635148
 20
334.958634272571
 30
0.0
 10
255.9559117148702
 20
335.0378962762746
 30
0.0
 10
237.192555973665
 20
335.1254249247129
 30
0.0
  0
ARC
  5
162
330
DD
100
AcDbEntity
  8
$DDT_AUDIT_GENERATED_(D8)
  6
Continuous
 62
     7
100
AcDbCircle
 10
286.9798365693
 20
350.5169837758
 30
0.0
 40
15.6211086821064
100
AcDbArc
 50
270.4915388493
 51
292.3455427831
  0
ENDBLK
  5
164
330
DD
100
AcDbEntity
  8
0
100
AcDbBlockEnd
  0
BLOCK
  5
1B6
330
165
100
AcDbEntity
  8
0
100
AcDbBlockBegin
  2
SE2
 70
     0
 10
0.0
 20
0.0
 30
0.0
  3
SE2
  1

  0
LINE
  5
167
330
165
100
AcDbEntity
  8
$DDT_AUDIT_GENERATED_(DF)
  6
Continuous
 62
     7
100
AcDbLine
 10
66.7752362822
 20
182.588458799
 30
0.0
 11
67.0606183137
 21
182.588458799
 31
0.0
  0
LINE
  5
168
330
165
100
AcDbEntity
  8
$DDT_AUDIT_GENERATED_(DF)
  6
Continuous
 62
     7
100
AcDbLine
 10
43.1758289966
 20
182.588458799
 30
0.0
 11
66.7016842347
 21
182.588458799
 31
0.0
  0
LINE
  5
169
330
165
100
AcDbEntity
  8
$DDT_AUDIT_GENERATED_(DF)
  6
Continuous
 62
     7
100
AcDbLine
 10
43.1022658833
 20
182.588458799
 30
0.0
 11
43.1758289966
 21
182.588458799
 31
0.0
  0
LINE
  5
16A
330
165
100
AcDbEntity
  8
$DDT_AUDIT_GENERATED_(DF)
  6
Continuous
 62
     7
100
AcDbLine
 10
66.7016842347
 20
182.588458799
 30
0.0
 11
66.7752362822
 21
182.588458799
 31
0.0
  0
LINE
  5
16B
330
165
100
AcDbEntity
  8
$DDT_AUDIT_GENERATED_(DF)
  6
Continuous
 62
     7
100
AcDbLine
 10
66.7752362822
 20
182.588458799
 30
0.0
 11
66.240519823
 21
131.5286647502
 31
0.0
  0
ARC
  5
16C
330
165
100
AcDbEntity
  8
$DDT_AUDIT_GENERATED_(DF)
  6
Continuous
 62
     7
100
AcDbCircle
 10
54.9403120561
 20
132.590646117
 30
0.0
 40
11.35
100
AcDbArc
 50
185.1753533805
 51
354.6311731317
  0
LINE
  5
16D
330
165
100
AcDbEntity
  8
$DDT_AUDIT_GENERATED_(DF)
  6
Continuous
 62
     7
100
AcDbLine
 10
43.6365826759
 20
131.5668287018
 30
0.0
 11
43.1022658833
 21
182.588458799
 31
0.0
  0
ARC
  5
16E
330
165
100
AcDbEntity
  8
$DDT_AUDIT_GENERATED_(DF)
  6
Continuous
 62
     7
100
AcDbCircle
 10
43.7270346704
 20
131.0531565291
 30
0.0
 40
0.5215751760796016
100
AcDbArc
 50
91.6911215894
 51
99.9867726537
  0
ARC
  5
16F
330
165
100
AcDbEntity
  8
$DDT_AUDIT_GENERATED_(DF)
  6
Continuous
 62
     7
100
AcDbCircle
 10
66.1505757172
 20
131.0418780802
 30
0.0
 40
0.4950264683053751
100
AcDbArc
 50
79.5314636749
 51
88.2753674022
  0
LINE
  5
170
330
165
100
AcDbEntity
  8
$DDT_AUDIT_GENERATED_(DF)
  6
Continuous
 62
     7
100
AcDbLine
 10
42.8162992843
 20
182.588458799
 30
0.0
 11
43.1022658833
 21
182.588458799
 31
0.0
  0
LINE
  5
171
330
165
100
AcDbEntity
  8
$DDT_AUDIT_GENERATED_(93)
  6
Continuous
 62
     7
100
AcDbLine
 10
12.588458799
 20
150.588458799
 30
0.0
 11
12.588458799
 21
114.588458799
 31
0.0
  0
LINE
  5
172
330
165
100
AcDbEntity
  8
$DDT_AUDIT_GENERATED_(93)
  6
Continuous
 62
     7
100
AcDbLine
 10
6.8438787033
 20
118.5418376698
 30
0.0
 11
6.8438787033
 21
146.6350799282
 31
0.0
  0
LINE
  5
173
330
165
100
AcDbEntity
  8
$DDT_AUDIT_GENERATED_(93)
  6
Continuous
 62
     7
100
AcDbLine
 10
6.8150334447
 20
146.2192005895
 30
0.0
 11
6.8150334447
 21
118.9577170086
 31
0.0
  0
LINE
  5
174
330
165
100
AcDbEntity
  8
$DDT_AUDIT_GENERATED_(93)
  6
Continuous
 62
     7
100
AcDbLine
 10
36.6666900786
 20
150.588458799
 30
0.0
 11
12.588458799
 21
150.588458799
 31
0.0
  0
LINE
  5
175
330
165
100
AcDbEntity
  8
$DDT_AUDIT_GENERATED_(93)
  6
Continuous
 62
     7
100
AcDbLine
 10
12.588458799
 20
114.588458799
 30
0.0
 11
37.0436949782
 21
114.588458799
 31
0.0
  0
ARC
  5
176
330
165
100
AcDbEntity
  8
$DDT_AUDIT_GENERATED_(93)
  6
Continuous
 62
     7
100
AcDbCircle
 10
12.396222323
 20
108.5915391616
 30
0.0
 40
6.00000000000001
100
AcDbArc
 50
88.1639626617
 51
135.050652095
  0
ARC
  5
177
330
165
100
AcDbEntity
  8
$DDT_AUDIT_GENERATED_(93)
  6
Continuous
 62
     7
100
AcDbCircle
 10
12.396222323
 20
156.5853784364
 30
0.0
 40
5.999999999999912
100
AcDbArc
 50
224.949347905
 51
271.8360373383
  0
ARC
  5
178
330
165
100
AcDbEntity
  8
$DDT_AUDIT_GENERATED_(93)
  6
Continuous
 62
     7
100
AcDbCircle
 10
206.35
 20
132.588458799
 30
0.0
 40
200.0
100
AcDbArc
 50
184.0273761405
 51
185.5818207176
  0
ARC
  5
179
330
165
100
AcDbEntity
  8
$DDT_AUDIT_GENERATED_(93)
  6
Continuous
 62
     7
100
AcDbCircle
 10
206.35
 20
132.588458799
 30
0.0
 40
200.0
100
AcDbArc
 50
174.4181792824
 51
175.9726238595
  0
ARC
  5
17A
330
165
100
AcDbEntity
  8
$DDT_AUDIT_GENERATED_(93)
  6
Continuous
 62
     7
100
AcDbCircle
 10
7.7959667956
 20
113.1836681976
 30
0.0
 40
0.5000000000000094
100
AcDbArc
 50
185.5818207176
 51
315.050652095
  0
ARC
  5
17B
330
165
100
AcDbEntity
  8
$DDT_AUDIT_GENERATED_(93)
  6
Continuous
 62
     7
100
AcDbCircle
 10
7.7959667956
 20
151.9932494004
 30
0.0
 40
0.4999999999999925
100
AcDbArc
 50
44.949347905
 51
174.4181792824
  0
ARC
  5
17C
330
165
100
AcDbEntity
  8
$DDT_AUDIT_GENERATED_(93)
  6
Continuous
 62
     7
100
AcDbCircle
 10
206.35
 20
132.588458799
 30
0.0
 40
200.0
100
AcDbArc
 50
176.0920507706
 51
183.9079492294
  0
ARC
  5
17D
330
165
100
AcDbEntity
  8
$DDT_AUDIT_GENERATED_(93)
  6
Continuous
 62
     7
100
AcDbCircle
 10
6.6917540021
 20
118.7402263673
 30
0.0
 40
0.2500000000000306
100
AcDbArc
 50
52.5189642537
 51
60.4542896236
  0
ARC
  5
17E
330
165
100
AcDbEntity
  8
$DDT_AUDIT_GENERATED_(93)
  6
Continuous
 62
     7
100
AcDbCircle
 10
6.6917540021
 20
146.4366912307
 30
0.0
 40
0.2500000000000002
100
AcDbArc
 50
299.5457103764
 51
307.4810357463
  0
LINE
  5
180
330
165
100
AcDbEntity
  8
$DDT_AUDIT_GENERATED_(17F)
  6
Continuous
 62
     7
100
AcDbLine
 10
114.074708662
 20
141.588458799
 30
0.0
 11
113.1975716947
 21
141.588458799
 31
0.0
  0
LINE
  5
181
330
165
100
AcDbEntity
  8
$DDT_AUDIT_GENERATED_(17F)
  6
Continuous
 62
     7
100
AcDbLine
 10
114.0747232301
 20
123.588458799
 30
0.0
 11
113.1975716947
 21
123.588458799
 31
0.0
  0
SPLINE
  5
182
330
165
100
AcDbEntity
  8
$DDT_AUDIT_GENERATED_(17F)
  6
Continuous
 62
     7
100
AcDbSpline
210
0.0
220
0.0
230
1.0
 70
     8
 71
     3
 72
    30
 73
    26
 74
     0
 42
0.0000000002432463
 43
0.0000000001
 40
0.0
 40
0.0
 40
0.0
 40
0.0
 40
0.0625000000000002
 40
0.0625000000000002
 40
0.1250000000000004
 40
0.1250000000000004
 40
0.1875000000000004
 40
0.1875000000000004
 40
0.2500000000000004
 40
0.2500000000000004
 40
0.3750000000000003
 40
0.3750000000000003
 40
0.5000000000000002
 40
0.5000000000000002
 40
0.6250000000000002
 40
0.6250000000000002
 40
0.7500000000000001
 40
0.7500000000000001
 40
0.8125000000000001
 40
0.8125000000000001
 40
0.8750000000000001
 40
0.8750000000000001
 40
0.9375000000000001
 40
0.9375000000000001
 40
1.0
 40
1.0
 40
1.0
 40
1.0
 10
108.4853267365966
 20
123.1508301546135
 30
0.0
 10
107.7319776585625
 20
122.7979276167615
 30
0.0
 10
106.90795426353
 20
122.5280022096652
 30
0.0
 10
105.1870637359871
 20
122.2154128129687
 30
0.0
 10
104.2747027680899
 20
122.1742480254119
 30
0.0
 10
102.5205140099795
 20
122.3357985723791
 30
0.0
 10
101.6615443874192
 20
122.5375617756424
 30
0.0
 10
100.0911858131548
 20
123.1185193717244
 30
0.0
 10
99.35479687220669
 20
123.5041121375396
 30
0.0
 10
97.352637759405
 20
124.871686984322
 30
0.0
 10
96.2389852958829
 20
126.093894097116
 30
0.0
 10
94.64678114908843
 20
129.0129219377936
 30
0.0
 10
94.1652682510602
 20
130.778732570456
 30
0.0
 10
94.15584605549188
 20
134.3424635942594
 30
0.0
 10
94.61570623575894
 20
136.0912693792705
 30
0.0
 10
96.2262335148629
 20
139.0749798788535
 30
0.0
 10
97.33879532332315
 20
140.2922097735464
 30
0.0
 10
99.33886520286478
 20
141.6636758497782
 30
0.0
 10
100.0757859163559
 20
142.0514212944106
 30
0.0
 10
101.6504305527306
 20
142.6365025786997
 30
0.0
 10
102.5089421714607
 20
142.8391656332729
 30
0.0
 10
104.2668330006917
 20
143.0028227434375
 30
0.0
 10
105.1805021753483
 20
142.9622238642818
 30
0.0
 10
106.9042658906407
 20
142.6500553447652
 30
0.0
 10
107.7302485985281
 20
142.3797999506607
 30
0.0
 10
108.4853267365966
 20
142.0260874434439
 30
0.0
  0
ARC
  5
183
330
165
100
AcDbEntity
  8
$DDT_AUDIT_GENERATED_(17F)
  6
Continuous
 62
     7
100
AcDbCircle
 10
110.3518481147
 20
119.3899791827
 30
0.0
 40
4.198559525382696
100
AcDbArc
 50
89.6465027617
 51
116.395339754
  0
LINE
  5
184
330
165
100
AcDbEntity
  8
$DDT_AUDIT_GENERATED_(17F)
  6
Continuous
 62
     7
100
AcDbLine
 10
110.377751764
 20
123.588458799
 30
0.0
 11
113.1975716947
 21
123.588458799
 31
0.0
  0
LINE
  5
185
330
165
100
AcDbEntity
  8
$DDT_AUDIT_GENERATED_(17F)
  6
Continuous
 62
     7
100
AcDbLine
 10
113.1975716947
 20
123.588458799
 30
0.0
 11
112.6073551598
 21
123.554041211
 31
0.0
  0
ARC
  5
186
330
165
100
AcDbEntity
  8
$DDT_AUDIT_GENERATED_(17F)
  6
Continuous
 62
     7
100
AcDbCircle
 10
113.3283322179
 20
117.5724734747
 30
0.0
 40
6.024861865837947
100
AcDbArc
 50
96.8728837682
 51
119.3268063339
  0
LINE
  5
187
330
165
100
AcDbEntity
  8
$DDT_AUDIT_GENERATED_(17F)
  6
Continuous
 62
     7
100
AcDbLine
 10
113.1975716947
 20
141.588458799
 30
0.0
 11
110.377751764
 21
141.588458799
 31
0.0
  0
ARC
  5
188
330
165
100
AcDbEntity
  8
$DDT_AUDIT_GENERATED_(17F)
  6
Continuous
 62
     7
100
AcDbCircle
 10
110.3518481147
 20
145.7869384154
 30
0.0
 40
4.19855952538256
100
AcDbArc
 50
243.604660246
 51
270.3534972383
  0
SPLINE
  5
189
330
165
100
AcDbEntity
  8
$DDT_AUDIT_GENERATED_(17F)
  6
Continuous
 62
     7
100
AcDbSpline
210
0.0
220
0.0
230
1.0
 70
     8
 71
     3
 72
    34
 73
    30
 74
     0
 42
0.0000000002025182
 43
0.0000000001
 40
0.0
 40
0.0
 40
0.0
 40
0.0
 40
0.0625000000000003
 40
0.0625000000000003
 40
0.1250000000000007
 40
0.1250000000000007
 40
0.1875000000000006
 40
0.1875000000000006
 40
0.2500000000000006
 40
0.2500000000000006
 40
0.3750000000000005
 40
0.3750000000000005
 40
0.4375000000000004
 40
0.4375000000000004
 40
0.5000000000000003
 40
0.5000000000000003
 40
0.5625000000000003
 40
0.5625000000000003
 40
0.6250000000000003
 40
0.6250000000000003
 40
0.7500000000000001
 40
0.7500000000000001
 40
0.8125000000000001
 40
0.8125000000000001
 40
0.8750000000000001
 40
0.8750000000000001
 40
0.9375000000000001
 40
0.9375000000000001
 40
1.0
 40
1.0
 40
1.0
 40
1.0
 10
110.377412693923
 20
142.3517272582097
 30
0.0
 10
109.5381016799408
 20
142.8464813170355
 30
0.0
 10
108.6180290817337
 20
143.2480197444687
 30
0.0
 10
106.6330817607116
 20
143.8169959271253
 30
0.0
 10
105.5526297152314
 20
143.9822967516441
 30
0.0
 10
103.3995220707548
 20
144.016938904091
 30
0.0
 10
102.3112021011919
 20
143.8857630505046
 30
0.0
 10
100.3142324914541
 20
143.3828374963568
 30
0.0
 10
99.37532165591956
 20
143.0090380418546
 30
0.0
 10
96.82022507309337
 20
141.6144165804361
 30
0.0
 10
95.37761341188371
 20
140.2918030980807
 30
0.0
 10
93.77733033258734
 20
137.7606779251143
 30
0.0
 10
93.33554985338705
 20
136.8086760163906
 30
0.0
 10
92.73340611989603
 20
134.7899162960905
 30
0.0
 10
92.56906386145965
 20
133.7013821026544
 30
0.0
 10
92.56232685565979
 20
131.545695314655
 30
0.0
 10
92.71997862286793
 20
130.4537529513822
 30
0.0
 10
93.31264096377215
 20
128.4245928278968
 30
0.0
 10
93.74814401288553
 20
127.4715581449671
 30
0.0
 10
95.3503368811795
 20
124.9106589421401
 30
0.0
 10
96.79614204654722
 20
123.580543833519
 30
0.0
 10
99.35351303815604
 20
122.1773824804585
 30
0.0
 10
100.2646476384844
 20
121.8105294255805
 30
0.0
 10
102.2762609998496
 20
121.2961555656727
 30
0.0
 10
103.3591140178912
 20
121.1614194781323
 30
0.0
 10
105.5468474563853
 20
121.192480574947
 30
0.0
 10
106.6223436083924
 20
121.3577282406734
 30
0.0
 10
108.6098591876438
 20
121.9256797546956
 30
0.0
 10
109.5289371808229
 20
122.3250340248138
 30
0.0
 10
110.3774126939231
 20
122.8251903398477
 30
0.0
  0
ARC
  5
18A
330
165
100
AcDbEntity
  8
$DDT_AUDIT_GENERATED_(17F)
  6
Continuous
 62
     7
100
AcDbCircle
 10
113.3283322179
 20
147.6044441234
 30
0.0
 40
6.024861865856179
100
AcDbArc
 50
240.6731936661
 51
263.1271162318
  0
LINE
  5
18B
330
165
100
AcDbEntity
  8
$DDT_AUDIT_GENERATED_(17F)
  6
Continuous
 62
     7
100
AcDbLine
 10
112.6073551598
 20
141.622876387
 30
0.0
 11
113.1975716947
 21
141.588458799
 31
0.0
  0
LINE
  5
18C
330
165
100
AcDbEntity
  8
$DDT_AUDIT_GENERATED_(17F)
  6
Continuous
 62
     7
100
AcDbLine
 10
108.5690324694
 20
123.2072418348
 30
0.0
 11
108.5427277301
 21
123.1954116648
 31
0.0
  0
LINE
  5
18D
330
165
100
AcDbEntity
  8
$DDT_AUDIT_GENERATED_(C6)
  6
Continuous
 62
     7
100
AcDbLine
 10
117.288458799
 20
141.588458799
 30
0.0
 11
114.2160134706
 21
141.588458799
 31
0.0
  0
ARC
  5
18E
330
165
100
AcDbEntity
  8
$DDT_AUDIT_GENERATED_(C6)
  6
Continuous
 62
     7
100
AcDbCircle
 10
117.288458799
 20
122.588458799
 30
0.0
 40
0.9999999999999936
100
AcDbArc
 50
0.0
 51
90.0
  0
ARC
  5
18F
330
165
100
AcDbEntity
  8
$DDT_AUDIT_GENERATED_(C6)
  6
Continuous
 62
     7
100
AcDbCircle
 10
117.288458799
 20
142.588458799
 30
0.0
 40
1.000000000000006
100
AcDbArc
 50
270.0
 51
0.0
  0
LINE
  5
190
330
165
100
AcDbEntity
  8
$DDT_AUDIT_GENERATED_(C6)
  6
Continuous
 62
     7
100
AcDbLine
 10
118.288458799
 20
122.588458799
 30
0.0
 11
118.288458799
 21
115.088458799
 31
0.0
  0
LINE
  5
191
330
165
100
AcDbEntity
  8
$DDT_AUDIT_GENERATED_(C6)
  6
Continuous
 62
     7
100
AcDbLine
 10
118.288458799
 20
150.088458799
 30
0.0
 11
118.288458799
 21
142.588458799
 31
0.0
  0
LINE
  5
192
330
165
100
AcDbEntity
  8
$DDT_AUDIT_GENERATED_(C6)
  6
Continuous
 62
     7
100
AcDbLine
 10
114.2160134706
 20
141.588458799
 30
0.0
 11
114.0764872731
 21
141.588458799
 31
0.0
  0
SPLINE
  5
193
330
165
100
AcDbEntity
  8
$DDT_AUDIT_GENERATED_(C6)
  6
Continuous
 62
     7
100
AcDbSpline
210
0.0
220
0.0
230
1.0
 70
     8
 71
     3
 72
    40
 73
    36
 74
     0
 42
0.0000000001605497
 43
0.0000000001
 40
0.0
 40
0.0
 40
0.0
 40
0.0
 40
0.0625000000000003
 40
0.0625000000000003
 40
0.1250000000000006
 40
0.1250000000000006
 40
0.1562500000000007
 40
0.1562500000000007
 40
0.1875000000000009
 40
0.1875000000000009
 40
0.2500000000000008
 40
0.2500000000000008
 40
0.3125000000000008
 40
0.3125000000000008
 40
0.3750000000000008
 40
0.3750000000000008
 40
0.4375000000000008
 40
0.4375000000000008
 40
0.5000000000000008
 40
0.5000000000000008
 40
0.5625000000000008
 40
0.5625000000000008
 40
0.6250000000000007
 40
0.6250000000000007
 40
0.6875000000000007
 40
0.6875000000000007
 40
0.7500000000000006
 40
0.7500000000000006
 40
0.8125000000000006
 40
0.8125000000000006
 40
0.8750000000000004
 40
0.8750000000000004
 40
0.9375000000000002
 40
0.9375000000000002
 40
1.0
 40
1.0
 40
1.0
 40
1.0
 10
113.7088103912606
 20
141.7405264218831
 30
0.0
 10
112.8318165203893
 20
142.5974065134403
 30
0.0
 10
111.8345251182648
 20
143.3286618711918
 30
0.0
 10
109.6590652185406
 20
144.4971744894522
 30
0.0
 10
108.488004371026
 20
144.940454548498
 30
0.0
 10
106.509555491283
 20
145.3623522801748
 30
0.0
 10
105.8366447057168
 20
145.4555440633382
 30
0.0
 10
104.458900252907
 20
145.5418192796045
 30
0.0
 10
103.7534549152425
 20
145.5327916539326
 30
0.0
 10
101.7117392198047
 20
145.3551735671547
 30
0.0
 10
100.4117451550769
 20
145.0368078303325
 30
0.0
 10
98.06440556649584
 20
144.1111456061832
 30
0.0
 10
96.98714351332471
 20
143.4963599183481
 30
0.0
 10
95.05837609320989
 20
142.0139969173352
 30
0.0
 10
94.18014142541156
 20
141.1233681014548
 30
0.0
 10
92.69770940185035
 20
139.0861881206548
 30
0.0
 10
92.08046297368396
 20
137.9184226529625
 30
0.0
 10
91.22807346868066
 20
135.384352195481
 30
0.0
 10
90.9926225918962
 20
133.9966177561447
 30
0.0
 10
90.98537367300978
 20
131.2474468377148
 30
0.0
 10
91.21327603485857
 20
129.8576675571681
 30
0.0
 10
92.05561772143089
 20
127.3122103110401
 30
0.0
 10
92.6669945168008
 20
126.1412549974268
 30
0.0
 10
94.15373899558132
 20
124.0818281101321
 30
0.0
 10
95.02010848908449
 20
123.1981114785662
 30
0.0
 10
96.94910248873009
 20
121.7042381209124
 30
0.0
 10
98.02765611732977
 20
121.0847799951225
 30
0.0
 10
100.366455686531
 20
120.1536089928048
 30
0.0
 10
101.6638802409281
 20
119.830294377986
 30
0.0
 10
104.3951395682776
 20
119.5840531430797
 30
0.0
 10
105.8178314761857
 20
119.6710058716319
 30
0.0
 10
108.4439339089433
 20
120.2232298708133
 30
0.0
 10
109.6468384083875
 20
120.6737080727156
 30
0.0
 10
111.8379352447434
 20
121.8495571638842
 30
0.0
 10
112.8190964361731
 20
122.5670827344429
 30
0.0
 10
113.7088103912606
 20
123.4363911761742
 30
0.0
  0
ARC
  5
194
330
165
100
AcDbEntity
  8
$DDT_AUDIT_GENERATED_(C6)
  6
Continuous
 62
     7
100
AcDbCircle
 10
114.0818415521
 20
142.1219324521
 30
0.0
 40
0.5335005218667112
100
AcDbArc
 50
225.6360038556
 51
269.4249626279
  0
ARC
  5
195
330
165
100
AcDbEntity
  8
$DDT_AUDIT_GENERATED_(C6)
  6
Continuous
 62
     7
100
AcDbCircle
 10
114.0799371961
 20
123.0595895952
 30
0.0
 40
0.5288804559944529
100
AcDbArc
 50
90.3737469023
 51
134.5652866143
  0
LINE
  5
196
330
165
100
AcDbEntity
  8
$DDT_AUDIT_GENERATED_(C6)
  6
Continuous
 62
     7
100
AcDbLine
 10
114.2160134706
 20
123.588458799
 30
0.0
 11
117.288458799
 21
123.588458799
 31
0.0
  0
LINE
  5
197
330
165
100
AcDbEntity
  8
$DDT_AUDIT_GENERATED_(C6)
  6
Continuous
 62
     7
100
AcDbLine
 10
114.0764872731
 20
123.588458799
 30
0.0
 11
114.2160134706
 21
123.588458799
 31
0.0
  0
LINE
  5
198
330
165
100
AcDbEntity
  8
$DDT_AUDIT_GENERATED_(C6)
  6
Continuous
 62
     7
100
AcDbLine
 10
72.8332226199
 20
114.588458799
 30
0.0
 11
117.788458799
 21
114.588458799
 31
0.0
  0
LINE
  5
199
330
165
100
AcDbEntity
  8
$DDT_AUDIT_GENERATED_(C6)
  6
Continuous
 62
     7
100
AcDbLine
 10
117.788458799
 20
150.588458799
 30
0.0
 11
73.2102275195
 21
150.588458799
 31
0.0
  0
ARC
  5
19A
330
165
100
AcDbEntity
  8
$DDT_AUDIT_GENERATED_(C6)
  6
Continuous
 62
     7
100
AcDbCircle
 10
117.788458799
 20
115.088458799
 30
0.0
 40
0.5000000000000004
100
AcDbArc
 50
270.0
 51
0.0
  0
ARC
  5
19B
330
165
100
AcDbEntity
  8
$DDT_AUDIT_GENERATED_(C6)
  6
Continuous
 62
     7
100
AcDbCircle
 10
117.788458799
 20
150.088458799
 30
0.0
 40
0.5000000000000004
100
AcDbArc
 50
0.0
 51
90.0
  0
ARC
  5
19C
330
165
100
AcDbEntity
  8
$DDT_AUDIT_GENERATED_(C6)
  6
Continuous
 62
     7
100
AcDbCircle
 10
111.9432106653
 20
123.088458799
 30
0.0
 40
0.5000000000000004
100
AcDbArc
 50
90.0
 51
130.1111975008
  0
ARC
  5
19D
330
165
100
AcDbEntity
  8
$DDT_AUDIT_GENERATED_(C6)
  6
Continuous
 62
     7
100
AcDbCircle
 10
111.9432106653
 20
142.088458799
 30
0.0
 40
0.499999999999992
100
AcDbArc
 50
229.8888024992
 51
270.0
  0
LINE
  5
19E
330
165
100
AcDbEntity
  8
$DDT_AUDIT_GENERATED_(D8)
  6
Continuous
 62
     7
100
AcDbLine
 10
72.8122779032
 20
112.588458799
 30
0.0
 11
37.0646396948
 21
112.588458799
 31
0.0
  0
LINE
  5
19F
330
165
100
AcDbEntity
  8
$DDT_AUDIT_GENERATED_(D8)
  6
Continuous
 62
     7
100
AcDbLine
 10
42.8162992843
 20
182.588458799
 30
0.0
 11
36.5336800507
 21
182.588458799
 31
0.0
  0
LINE
  5
1A0
330
165
100
AcDbEntity
  8
$DDT_AUDIT_GENERATED_(D8)
  6
Continuous
 62
     7
100
AcDbLine
 10
73.3432375474
 20
182.588458799
 30
0.0
 11
67.0606183137
 21
182.588458799
 31
0.0
  0
LINE
  5
1A1
330
165
100
AcDbEntity
  8
$DDT_AUDIT_GENERATED_(D8)
  6
Continuous
 62
     7
100
AcDbLine
 10
43.0162883182
 20
182.3905531559
 30
0.0
 11
43.5390838683
 21
132.4690804601
 31
0.0
  0
ARC
  5
1A2
330
165
100
AcDbEntity
  8
$DDT_AUDIT_GENERATED_(D8)
  6
Continuous
 62
     7
100
AcDbCircle
 10
54.938458799
 20
132.588458799
 30
0.0
 40
11.4
100
AcDbArc
 50
180.6
 51
359.4
  0
LINE
  5
1A3
330
165
100
AcDbEntity
  8
$DDT_AUDIT_GENERATED_(D8)
  6
Continuous
 62
     7
100
AcDbLine
 10
66.3378337298
 20
132.4690804601
 30
0.0
 11
66.8606292798
 21
182.3905531559
 31
0.0
  0
ARC
  5
1A4
330
165
100
AcDbEntity
  8
$DDT_AUDIT_GENERATED_(D8)
  6
Continuous
 62
     7
100
AcDbCircle
 10
67.0606183137
 20
182.388458799
 30
0.0
 40
0.2
100
AcDbArc
 50
90.0
 51
179.4
  0
ARC
  5
1A5
330
165
100
AcDbEntity
  8
$DDT_AUDIT_GENERATED_(D8)
  6
Continuous
 62
     7
100
AcDbCircle
 10
42.8162992843
 20
182.388458799
 30
0.0
 40
0.2
100
AcDbArc
 50
0.6
 51
90.0
  0
ARC
  5
1A6
330
165
100
AcDbEntity
  8
$DDT_AUDIT_GENERATED_(D8)
  6
Continuous
 62
     7
100
AcDbCircle
 10
78.8091975406
 20
112.396222323
 30
0.0
 40
5.999999999999973
100
AcDbArc
 50
178.1639626617
 51
225.1905532242
  0
ARC
  5
1A7
330
165
100
AcDbEntity
  8
$DDT_AUDIT_GENERATED_(D8)
  6
Continuous
 62
     7
100
AcDbCircle
 10
31.0677200574
 20
112.396222323
 30
0.0
 40
6.000000000000005
100
AcDbArc
 50
314.8094467758
 51
1.8360373383
  0
ARC
  5
1A8
330
165
100
AcDbEntity
  8
$DDT_AUDIT_GENERATED_(D8)
  6
Continuous
 62
     7
100
AcDbCircle
 10
54.938458799
 20
306.35
 30
0.0
 40
200.0
100
AcDbArc
 50
274.0469516692
 51
275.5486555275
  0
ARC
  5
1A9
330
165
100
AcDbEntity
  8
$DDT_AUDIT_GENERATED_(D8)
  6
Continuous
 62
     7
100
AcDbCircle
 10
54.938458799
 20
306.35
 30
0.0
 40
200.0
100
AcDbArc
 50
264.4513444725
 51
265.9530483308
  0
ARC
  5
1AA
330
165
100
AcDbEntity
  8
$DDT_AUDIT_GENERATED_(D8)
  6
Continuous
 62
     7
100
AcDbCircle
 10
74.2283147892
 20
107.7847677566
 30
0.0
 40
0.499999999999996
100
AcDbArc
 50
275.5486555275
 51
45.1905532242
  0
ARC
  5
1AB
330
165
100
AcDbEntity
  8
$DDT_AUDIT_GENERATED_(D8)
  6
Continuous
 62
     7
100
AcDbCircle
 10
35.6486028088
 20
107.7847677566
 30
0.0
 40
0.5000000000000157
100
AcDbArc
 50
134.8094467758
 51
264.4513444725
  0
ARC
  5
1AC
330
165
100
AcDbEntity
  8
$DDT_AUDIT_GENERATED_(D8)
  6
Continuous
 62
     7
100
AcDbCircle
 10
54.938458799
 20
306.35
 30
0.0
 40
200.0
100
AcDbArc
 50
266.1107618471
 51
273.8892381529
  0
ARC
  5
1AD
330
165
100
AcDbEntity
  8
$DDT_AUDIT_GENERATED_(D8)
  6
Continuous
 62
     7
100
AcDbCircle
 10
40.8307331344
 20
106.9484401351
 30
0.0
 40
0.0999999999999962
100
AcDbArc
 50
265.9530483307
 51
270.0
  0
ARC
  5
1AE
330
165
100
AcDbEntity
  8
$DDT_AUDIT_GENERATED_(D8)
  6
Continuous
 62
     7
100
AcDbCircle
 10
69.0461844637
 20
106.9484401351
 30
0.0
 40
0.1000000000000029
100
AcDbArc
 50
270.0
 51
274.0469516692
  0
LINE
  5
1AF
330
165
100
AcDbEntity
  8
$DDT_AUDIT_GENERATED_(D8)
  6
Continuous
 62
     7
100
AcDbLine
 10
40.8307331344
 20
106.8484401351
 30
0.0
 11
69.0461844637
 21
106.8484401351
 31
0.0
  0
ARC
  5
1B0
330
165
100
AcDbEntity
  8
$DDT_AUDIT_GENERATED_(D8)
  6
Continuous
 62
     7
100
AcDbCircle
 10
68.4972549619
 20
106.9103623985
 30
0.0
 40
0.0999999999999909
100
AcDbArc
 50
273.8892381528
 51
321.7406106791
  0
ARC
  5
1B1
330
165
100
AcDbEntity
  8
$DDT_AUDIT_GENERATED_(D8)
  6
Continuous
 62
     7
100
AcDbCircle
 10
41.3796626362
 20
106.9103623985
 30
0.0
 40
0.0999999999999303
100
AcDbArc
 50
218.0776738254
 51
266.1107618471
  0
LINE
  5
1B2
330
165
100
AcDbEntity
  8
$DDT_AUDIT_GENERATED_(D8)
  6
Continuous
 62
     7
100
AcDbLine
 10
36.3336910168
 20
182.3863644422
 30
0.0
 11
37.0646396948
 21
112.588458799
 31
0.0
  0
LINE
  5
1B3
330
165
100
AcDbEntity
  8
$DDT_AUDIT_GENERATED_(D8)
  6
Continuous
 62
     7
100
AcDbLine
 10
72.8122779032
 20
112.588458799
 30
0.0
 11
73.5432265813
 21
182.3863644422
 31
0.0
  0
ARC
  5
1B4
330
165
100
AcDbEntity
  8
$DDT_AUDIT_GENERATED_(D8)
  6
Continuous
 62
     7
100
AcDbCircle
 10
73.3432375474
 20
182.388458799
 30
0.0
 40
0.2000000000000009
100
AcDbArc
 50
359.4
 51
90.0
  0
ARC
  5
1B5
330
165
100
AcDbEntity
  8
$DDT_AUDIT_GENERATED_(D8)
  6
Continuous
 62
     7
100
AcDbCircle
 10
36.5336800507
 20
182.388458799
 30
0.0
 40
0.2000000000000028
100
AcDbArc
 50
90.0
 51
180.6
  0
ENDBLK
  5
1B7
330
165
100
AcDbEntity
  8
0
100
AcDbBlockEnd
  0
ENDSEC
  0
SECTION
  2
ENTITIES
  0
INSERT
  5
5F
330
1F
100
AcDbEntity
  8
Default
100
AcDbBlockReference
  2
SEANNOT_GROUP
 10
0.0
 20
0.0
 30
0.0
  0
INSERT
  5
66
330
1F
100
AcDbEntity
  8
Default
100
AcDbBlockReference
  2
SEANNOT_GROUP1
 10
0.0
 20
0.0
 30
0.0
  0
INSERT
  5
70
330
1F
100
AcDbEntity
  8
Default
100
AcDbBlockReference
  2
SEANNOT_GROUP2
 10
0.0
 20
0.0
 30
0.0
  0
INSERT
  5
7A
330
1F
100
AcDbEntity
  8
Default
100
AcDbBlockReference
  2
SEANNOT_GROUP3
 10
0.0
 20
0.0
 30
0.0
  0
INSERT
  5
80
330
1F
100
AcDbEntity
  8
Default
100
AcDbBlockReference
  2
SEANNOT_GROUP4
 10
0.0
 20
0.0
 30
0.0
  0
LINE
  5
85
330
1F
100
AcDbEntity
  8
Default
  6
Continuous
 62
     7
100
AcDbLine
 10
104.2808145128
 20
145.5255780142
 30
0.0
 11
104.2588719363
 21
119.6525163396
 31
0.0
  0
INSERT
  5
87
330
1F
100
AcDbEntity
  8
Default
100
AcDbBlockReference
  2
SEANNOT_GROUP5
 10
0.0
 20
0.0
 30
0.0
  0
INSERT
  5
8D
330
1F
100
AcDbEntity
  8
Default
100
AcDbBlockReference
  2
SE
 10
0.0
 20
0.0
 30
0.0
  0
INSERT
  5
DE
330
1F
100
AcDbEntity
  8
Default
100
AcDbBlockReference
  2
SE1
 10
0.0
 20
0.0
 30
0.0
  0
INSERT
  5
166
330
1F
100
AcDbEntity
  8
Default
100
AcDbBlockReference
  2
SE2
 10
0.0
 20
0.0
 30
0.0
  0
TEXT
  5
1B9
330
1F
100
AcDbEntity
  8
Default
  6
Continuous
 62
     7
100
AcDbText
 10
5.9362635081
 20
53.4225120485
 30
0.0
 40
10.0
  1
Grohe AG^J
  7
SEACAD_seiso_ttf
 11
5.9362635081
 21
63.4225120485
 31
0.0
100
AcDbText
 73
     3
  0
TEXT
  5
1BA
330
1F
100
AcDbEntity
  8
Default
  6
Continuous
 62
     7
100
AcDbText
 10
5.9362635081
 20
37.0588756849
 30
0.0
 40
10.0
  1
 
  7
SEACAD_seiso_ttf
 11
5.9362635081
 21
47.0588756849
 31
0.0
100
AcDbText
 73
     3
  0
TEXT
  5
1BB
330
1F
100
AcDbEntity
  8
Default
  6
Continuous
 62
     7
100
AcDbText
 10
5.9362635081
 20
20.6952393213
 30
0.0
 40
10.0
  1
ecn: 
  7
SEACAD_seiso_ttf
 11
5.9362635081
 21
30.6952393213
 31
0.0
100
AcDbText
 73
     3
  0
TEXT
  5
1BC
330
1F
100
AcDbEntity
  8
Default
  6
Continuous
 62
     7
100
AcDbText
 10
5.9362635081
 20
4.3316029576
 30
0.0
 40
10.0
  1
unit: mm
  7
SEACAD_seiso_ttf
 11
5.9362635081
 21
14.3316029576
 31
0.0
100
AcDbText
 73
     3
  0
LINE
  5
1BD
330
1F
100
AcDbEntity
  8
Default
  6
Continuous
 62
     7
100
AcDbLine
 10
0.0
 20
0.0
 30
0.0
 11
100.0
 21
0.0
 31
0.0
  0
LINE
  5
1BE
330
1F
100
AcDbEntity
  8
Default
  6
Continuous
 62
     7
100
AcDbLine
 10
0.0
 20
0.0
 30
0.0
 11
0.0
 21
100.0
 31
0.0
  0
TEXT
  5
1BF
330
1F
100
AcDbEntity
  8
Default
  6
Continuous
 62
     7
100
AcDbText
 10
24.3923665681
 20
-18.2375342018
 30
0.0
 40
10.0
  1
100 mm
  7
SEACAD_seiso_ttf
 11
24.3923665681
 21
-8.2375342018
 31
0.0
100
AcDbText
 73
     3
  0
TEXT
  5
1C0
330
1F
100
AcDbEntity
  8
Default
  6
Continuous
 62
     7
100
AcDbText
 10
-7.6150308803
 20
24.6231930421
 30
0.0
 40
10.0
  1
100 mm
 50
90.0
  7
SEACAD_seiso_ttf
 11
-17.6150308803
 21
24.6231930421
 31
0.0
100
AcDbText
 73
     3
  0
TEXT
  5
1C1
330
1F
100
AcDbEntity
  8
Default
  6
Continuous
 62
     7
100
AcDbText
 10
28.4878128572
 20
20.0907663715
 30
0.0
 40
10.0
  1
219776
  7
SEACAD_seiso_ttf
 11
28.4878128572
 21
30.0907663715
 31
0.0
100
AcDbText
 73
     3
  0
TEXT
  5
1C2
330
1F
100
AcDbEntity
  8
Default
  6
Continuous
 62
     7
100
AcDbText
 10
5.9012241913
 20
36.7242780188
 30
0.0
 40
10.0
  1
27519000
  7
SEACAD_seiso_ttf
 11
5.9012241913
 21
46.7242780188
 31
0.0
100
AcDbText
 73
     3
  0
ENDSEC
  0
SECTION
  2
OBJECTS
  0
DICTIONARY
  5
C
330
0
100
AcDbDictionary
281
     1
  3
ACAD_GROUP
350
D
  3
ACAD_LAYOUT
350
1A
  3
ACAD_MLEADERSTYLE
350
1C6
  3
ACAD_MLINESTYLE
350
17
  3
ACAD_PLOTSETTINGS
350
19
  3
ACAD_PLOTSTYLENAME
350
E
  3
ACAD_SCALELIST
350
3B
  3
ACAD_TABLESTYLE
350
1C5
  3
ACAD_VISUALSTYLE
350
2A
  3
AcDbVariableDictionary
350
1C3
  0
DICTIONARY
  5
D
102
{ACAD_REACTORS
330
C
102
}
330
C
100
AcDbDictionary
281
     1
  0
DICTIONARY
  5
1A
102
{ACAD_REACTORS
330
C
102
}
330
C
100
AcDbDictionary
281
     1
  3
Layout1
350
1E
  3
Model
350
22
  0
DICTIONARY
  5
1C6
102
{ACAD_REACTORS
330
C
102
}
330
C
100
AcDbDictionary
281
     1
  0
DICTIONARY
  5
17
102
{ACAD_REACTORS
330
C
102
}
330
C
100
AcDbDictionary
281
     1
  3
Standard
350
18
  0
DICTIONARY
  5
19
102
{ACAD_REACTORS
330
C
102
}
330
C
100
AcDbDictionary
281
     1
  0
ACDBDICTIONARYWDFLT
  5
E
102
{ACAD_REACTORS
330
C
102
}
330
C
100
AcDbDictionary
281
     1
  3
Normal
350
F
100
AcDbDictionaryWithDefault
340
F
  0
DICTIONARY
  5
3B
102
{ACAD_REACTORS
330
C
102
}
330
C
100
AcDbDictionary
281
     1
  3
A0
350
3C
  3
A1
350
3D
  3
A2
350
3E
  3
A3
350
3F
  3
A4
350
40
  3
A5
350
41
  3
A6
350
42
  3
A7
350
43
  3
A8
350
44
  3
A9
350
45
  3
B0
350
46
  3
B1
350
47
  3
B2
350
48
  3
B3
350
49
  3
B4
350
4A
  3
B5
350
4B
  3
B6
350
4C
  3
B7
350
4D
  3
B8
350
4E
  3
B9
350
4F
  3
C0
350
50
  3
C1
350
51
  3
C2
350
52
  3
C3
350
53
  3
C4
350
54
  3
C5
350
55
  3
C6
350
56
  3
C7
350
57
  3
C8
350
58
  3
C9
350
59
  3
D0
350
5A
  3
D1
350
5B
  3
D2
350
5C
  0
DICTIONARY
  5
1C5
102
{ACAD_REACTORS
330
C
102
}
330
C
100
AcDbDictionary
281
     1
  0
DICTIONARY
  5
2A
102
{ACAD_REACTORS
330
C
102
}
330
C
100
AcDbDictionary
281
     1
  3
2dWireframe
350
2F
  3
3D Hidden
350
31
  3
3dWireframe
350
30
  3
Basic
350
32
  3
Brighten
350
36
  3
ColorChange
350
3A
  3
Conceptual
350
34
  3
Dim
350
35
  3
Facepattern
350
39
  3
Flat
350
2B
  3
FlatWithEdges
350
2C
  3
Gouraud
350
2D
  3
GouraudWithEdges
350
2E
  3
Linepattern
350
38
  3
Realistic
350
33
  3
Thicken
350
37
  0
DICTIONARY
  5
1C3
102
{ACAD_REACTORS
330
C
102
}
330
C
100
AcDbDictionary
281
     1
  3
CANNOSCALE
350
1C4
  3
PSOLHEIGHT
350
1C8
  3
PSOLWIDTH
350
1C7
  0
LAYOUT
  5
1E
102
{ACAD_REACTORS
330
1A
102
}
330
1A
100
AcDbPlotSettings
  1

  2
none_device
  4

  6

 40
0.0
 41
0.0
 42
0.0
 43
0.0
 44
0.0
 45
0.0
 46
0.0
 47
0.0
 48
0.0
 49
0.0
140
0.0
141
0.0
142
1.0
143
1.0
 70
   688
 72
     0
 73
     0
 74
     5
  7

 75
    16
147
1.0
148
0.0
149
0.0
100
AcDbLayout
  1
Layout1
 70
     1
 71
     1
 10
0.0
 20
0.0
 11
1682.0
 21
2378.0
 12
0.0
 22
0.0
 32
0.0
 14
0.0
 24
0.0
 34
0.0
 15
1682.0
 25
2378.0
 35
0.0
146
0.0
 13
0.0
 23
0.0
 33
0.0
 16
1.0
 26
0.0
 36
0.0
 17
0.0
 27
1.0
 37
0.0
 76
     0
330
1B
  0
LAYOUT
  5
22
102
{ACAD_REACTORS
330
1A
102
}
330
1A
100
AcDbPlotSettings
  1

  2
none_device
  4

  6

 40
0.0
 41
0.0
 42
0.0
 43
0.0
 44
0.0
 45
0.0
 46
0.0
 47
0.0
 48
0.0
 49
0.0
140
0.0
141
0.0
142
1.0
143
1.0
 70
  1712
 72
     0
 73
     0
 74
     0
  7

 75
     0
147
1.0
148
0.0
149
0.0
100
AcDbLayout
  1
Model
 70
     1
 71
     0
 10
0.0
 20
0.0
 11
1682.0
 21
2378.0
 12
0.0
 22
0.0
 32
0.0
 14
0.0
 24
0.0
 34
0.0
 15
1682.0
 25
2378.0
 35
0.0
146
0.0
 13
0.0
 23
0.0
 33
0.0
 16
1.0
 26
0.0
 36
0.0
 17
0.0
 27
1.0
 37
0.0
 76
     0
330
1F
331
29
  0
MLINESTYLE
  5
18
102
{ACAD_REACTORS
330
17
102
}
330
17
100
AcDbMlineStyle
  2
Standard
 70
     0
  3

 62
   256
 51
90.0
 52
90.0
 71
     2
 49
0.5
 62
   256
  6
BYLAYER
 49
-0.5
 62
   256
  6
BYLAYER
  0
ACDBPLACEHOLDER
  5
F
102
{ACAD_REACTORS
330
E
102
}
330
E
  0
SCALE
  5
3C
102
{ACAD_REACTORS
330
3B
102
}
330
3B
100
AcDbScale
 70
     0
300
1:1
140
1.0
141
1.0
290
     1
  0
SCALE
  5
3D
102
{ACAD_REACTORS
330
3B
102
}
330
3B
100
AcDbScale
 70
     0
300
1:2
140
1.0
141
2.0
290
     0
  0
SCALE
  5
3E
102
{ACAD_REACTORS
330
3B
102
}
330
3B
100
AcDbScale
 70
     0
300
1:4
140
1.0
141
4.0
290
     0
  0
SCALE
  5
3F
102
{ACAD_REACTORS
330
3B
102
}
330
3B
100
AcDbScale
 70
     0
300
1:5
140
1.0
141
5.0
290
     0
  0
SCALE
  5
40
102
{ACAD_REACTORS
330
3B
102
}
330
3B
100
AcDbScale
 70
     0
300
1:8
140
1.0
141
8.0
290
     0
  0
SCALE
  5
41
102
{ACAD_REACTORS
330
3B
102
}
330
3B
100
AcDbScale
 70
     0
300
1:10
140
1.0
141
10.0
290
     0
  0
SCALE
  5
42
102
{ACAD_REACTORS
330
3B
102
}
330
3B
100
AcDbScale
 70
     0
300
1:16
140
1.0
141
16.0
290
     0
  0
SCALE
  5
43
102
{ACAD_REACTORS
330
3B
102
}
330
3B
100
AcDbScale
 70
     0
300
1:20
140
1.0
141
20.0
290
     0
  0
SCALE
  5
44
102
{ACAD_REACTORS
330
3B
102
}
330
3B
100
AcDbScale
 70
     0
300
1:30
140
1.0
141
30.0
290
     0
  0
SCALE
  5
45
102
{ACAD_REACTORS
330
3B
102
}
330
3B
100
AcDbScale
 70
     0
300
1:40
140
1.0
141
40.0
290
     0
  0
SCALE
  5
46
102
{ACAD_REACTORS
330
3B
102
}
330
3B
100
AcDbScale
 70
     0
300
1:50
140
1.0
141
50.0
290
     0
  0
SCALE
  5
47
102
{ACAD_REACTORS
330
3B
102
}
330
3B
100
AcDbScale
 70
     0
300
1:100
140
1.0
141
100.0
290
     0
  0
SCALE
  5
48
102
{ACAD_REACTORS
330
3B
102
}
330
3B
100
AcDbScale
 70
     0
300
2:1
140
2.0
141
1.0
290
     0
  0
SCALE
  5
49
102
{ACAD_REACTORS
330
3B
102
}
330
3B
100
AcDbScale
 70
     0
300
4:1
140
4.0
141
1.0
290
     0
  0
SCALE
  5
4A
102
{ACAD_REACTORS
330
3B
102
}
330
3B
100
AcDbScale
 70
     0
300
8:1
140
8.0
141
1.0
290
     0
  0
SCALE
  5
4B
102
{ACAD_REACTORS
330
3B
102
}
330
3B
100
AcDbScale
 70
     0
300
10:1
140
10.0
141
1.0
290
     0
  0
SCALE
  5
4C
102
{ACAD_REACTORS
330
3B
102
}
330
3B
100
AcDbScale
 70
     0
300
100:1
140
100.0
141
1.0
290
     0
  0
SCALE
  5
4D
102
{ACAD_REACTORS
330
3B
102
}
330
3B
100
AcDbScale
 70
     0
300
1/128" = 1'-0"
140
0.0078125
141
12.0
290
     0
  0
SCALE
  5
4E
102
{ACAD_REACTORS
330
3B
102
}
330
3B
100
AcDbScale
 70
     0
300
1/64" = 1'-0"
140
0.015625
141
12.0
290
     0
  0
SCALE
  5
4F
102
{ACAD_REACTORS
330
3B
102
}
330
3B
100
AcDbScale
 70
     0
300
1/32" = 1'-0"
140
0.03125
141
12.0
290
     0
  0
SCALE
  5
50
102
{ACAD_REACTORS
330
3B
102
}
330
3B
100
AcDbScale
 70
     0
300
1/16" = 1'-0"
140
0.0625
141
12.0
290
     0
  0
SCALE
  5
51
102
{ACAD_REACTORS
330
3B
102
}
330
3B
100
AcDbScale
 70
     0
300
3/32" = 1'-0"
140
0.09375
141
12.0
290
     0
  0
SCALE
  5
52
102
{ACAD_REACTORS
330
3B
102
}
330
3B
100
AcDbScale
 70
     0
300
1/8" = 1'-0"
140
0.125
141
12.0
290
     0
  0
SCALE
  5
53
102
{ACAD_REACTORS
330
3B
102
}
330
3B
100
AcDbScale
 70
     0
300
3/16" = 1'-0"
140
0.1875
141
12.0
290
     0
  0
SCALE
  5
54
102
{ACAD_REACTORS
330
3B
102
}
330
3B
100
AcDbScale
 70
     0
300
1/4" = 1'-0"
140
0.25
141
12.0
290
     0
  0
SCALE
  5
55
102
{ACAD_REACTORS
330
3B
102
}
330
3B
100
AcDbScale
 70
     0
300
3/8" = 1'-0"
140
0.375
141
12.0
290
     0
  0
SCALE
  5
56
102
{ACAD_REACTORS
330
3B
102
}
330
3B
100
AcDbScale
 70
     0
300
1/2" = 1'-0"
140
0.5
141
12.0
290
     0
  0
SCALE
  5
57
102
{ACAD_REACTORS
330
3B
102
}
330
3B
100
AcDbScale
 70
     0
300
3/4" = 1'-0"
140
0.75
141
12.0
290
     0
  0
SCALE
  5
58
102
{ACAD_REACTORS
330
3B
102
}
330
3B
100
AcDbScale
 70
     0
300
1" = 1'-0"
140
1.0
141
12.0
290
     0
  0
SCALE
  5
59
102
{ACAD_REACTORS
330
3B
102
}
330
3B
100
AcDbScale
 70
     0
300
1-1/2" = 1'-0"
140
1.5
141
12.0
290
     0
  0
SCALE
  5
5A
102
{ACAD_REACTORS
330
3B
102
}
330
3B
100
AcDbScale
 70
     0
300
3" = 1'-0"
140
3.0
141
12.0
290
     0
  0
SCALE
  5
5B
102
{ACAD_REACTORS
330
3B
102
}
330
3B
100
AcDbScale
 70
     0
300
6" = 1'-0"
140
6.0
141
12.0
290
     0
  0
SCALE
  5
5C
102
{ACAD_REACTORS
330
3B
102
}
330
3B
100
AcDbScale
 70
     0
300
1'-0" = 1'-0"
140
12.0
141
12.0
290
     0
  0
VISUALSTYLE
  5
2F
102
{ACAD_REACTORS
330
2A
102
}
330
2A
100
AcDbVisualStyle
  2
2dWireframe
 70
     4
 71
     0
 72
     2
 73
     0
 90
        0
 40
-0.6
 41
-30.0
 62
     5
 63
     7
 74
     1
 91
        4
 64
     7
 65
   257
 75
     1
175
     1
 42
1.0
 92
        0
 66
   257
 43
1.0
 76
     1
 77
     6
 78
     2
 67
     7
 79
     5
170
     0
171
     0
290
     0
174
     0
 93
        1
 44
0.0
173
     0
291
     0
 45
0.0
1001
ACAD
1000
AcDbSavedByObjectVersion
1070
     0
  0
VISUALSTYLE
  5
31
102
{ACAD_REACTORS
330
2A
102
}
330
2A
100
AcDbVisualStyle
  2
3D Hidden
 70
     6
 71
     1
 72
     2
 73
     2
 90
        0
 40
-0.6
 41
-30.0
 62
     5
 63
     7
 74
     2
 91
        2
 64
     7
 65
   257
 75
     2
175
     1
 42
40.0
 92
        0
 66
   257
 43
1.0
 76
     1
 77
     6
 78
     2
 67
     7
 79
     3
170
     0
171
     0
290
     0
174
     0
 93
        1
 44
0.0
173
     0
291
     0
 45
0.0
1001
ACAD
1000
AcDbSavedByObjectVersion
1070
     0
  0
VISUALSTYLE
  5
30
102
{ACAD_REACTORS
330
2A
102
}
330
2A
100
AcDbVisualStyle
  2
3dWireframe
 70
     5
 71
     0
 72
     2
 73
     0
 90
        0
 40
-0.6
 41
-30.0
 62
     5
 63
     7
 74
     1
 91
        4
 64
     7
 65
   257
 75
     1
175
     1
 42
1.0
 92
        0
 66
   257
 43
1.0
 76
     1
 77
     6
 78
     2
 67
     7
 79
     5
170
     0
171
     0
290
     0
174
     0
 93
        1
 44
0.0
173
     0
291
     0
 45
0.0
1001
ACAD
1000
AcDbSavedByObjectVersion
1070
     0
  0
VISUALSTYLE
  5
32
102
{ACAD_REACTORS
330
2A
102
}
330
2A
100
AcDbVisualStyle
  2
Basic
 70
     7
 71
     1
 72
     0
 73
     1
 90
        0
 40
-0.6
 41
-30.0
 62
     5
 63
     7
 74
     0
 91
        4
 64
     7
 65
   257
 75
     1
175
     1
 42
1.0
 92
        8
 66
     7
 43
1.0
 76
     1
 77
     6
 78
     2
 67
     7
 79
     5
170
     0
171
     0
290
     0
174
     0
 93
        1
 44
0.0
173
     0
291
     1
 45
0.0
1001
ACAD
1000
AcDbSavedByObjectVersion
1070
     0
  0
VISUALSTYLE
  5
36
102
{ACAD_REACTORS
330
2A
102
}
330
2A
100
AcDbVisualStyle
  2
Brighten
 70
    12
 71
     2
 72
     2
 73
     0
 90
        0
 40
-0.6
 41
-30.0
 62
     5
 63
     7
 74
     1
 91
        4
 64
     7
 65
   257
 75
     1
175
     1
 42
1.0
 92
        8
 66
     7
 43
1.0
 76
     1
 77
     6
 78
     2
 67
     7
 79
     5
170
     0
171
     0
290
     0
174
     0
 93
        1
 44
50.0
173
     0
291
     1
 45
0.0
1001
ACAD
1000
AcDbSavedByObjectVersion
1070
     0
  0
VISUALSTYLE
  5
3A
102
{ACAD_REACTORS
330
2A
102
}
330
2A
100
AcDbVisualStyle
  2
ColorChange
 70
    16
 71
     2
 72
     2
 73
     3
 90
        0
 40
-0.6
 41
-30.0
 62
     5
 63
     8
 74
     1
 91
        4
 64
     7
 65
   257
 75
     1
175
     1
 42
1.0
 92
        8
 66
     8
 43
1.0
 76
     1
 77
     6
 78
     2
 67
     7
 79
     5
170
     0
171
     0
290
     0
174
     0
 93
        1
 44
0.0
173
     0
291
     1
 45
0.0
1001
ACAD
1000
AcDbSavedByObjectVersion
1070
     0
  0
VISUALSTYLE
  5
34
102
{ACAD_REACTORS
330
2A
102
}
330
2A
100
AcDbVisualStyle
  2
Conceptual
 70
     9
 71
     3
 72
     2
 73
     0
 90
        0
 40
-0.6
 41
-30.0
 62
     5
 63
     7
 74
     2
 91
        2
 64
     7
 65
   257
 75
     1
175
     1
 42
40.0
 92
        8
 66
     7
 43
1.0
 76
     1
 77
     6
 78
     2
 67
     7
 79
     3
170
     0
171
     0
290
     0
174
     0
 93
        1
 44
0.0
173
     0
291
     0
 45
0.0
1001
ACAD
1000
AcDbSavedByObjectVersion
1070
     0
  0
VISUALSTYLE
  5
35
102
{ACAD_REACTORS
330
2A
102
}
330
2A
100
AcDbVisualStyle
  2
Dim
 70
    11
 71
     2
 72
     2
 73
     0
 90
        0
 40
-0.6
 41
-30.0
 62
     5
 63
     7
 74
     1
 91
        4
 64
     7
 65
   257
 75
     1
175
     1
 42
1.0
 92
        8
 66
     7
 43
1.0
 76
     1
 77
     6
 78
     2
 67
     7
 79
     5
170
     0
171
     0
290
     0
174
     0
 93
        1
 44
-50.0
173
     0
291
     1
 45
0.0
1001
ACAD
1000
AcDbSavedByObjectVersion
1070
     0
  0
VISUALSTYLE
  5
39
102
{ACAD_REACTORS
330
2A
102
}
330
2A
100
AcDbVisualStyle
  2
Facepattern
 70
    15
 71
     2
 72
     2
 73
     0
 90
        0
 40
-0.6
 41
-30.0
 62
     5
 63
     7
 74
     1
 91
        4
 64
     7
 65
   257
 75
     1
175
     1
 42
1.0
 92
        8
 66
     7
 43
1.0
 76
     1
 77
     6
 78
     2
 67
     7
 79
     5
170
     0
171
     0
290
     0
174
     0
 93
        1
 44
0.0
173
     0
291
     1
 45
0.0
1001
ACAD
1000
AcDbSavedByObjectVersion
1070
     0
  0
VISUALSTYLE
  5
2B
102
{ACAD_REACTORS
330
2A
102
}
330
2A
100
AcDbVisualStyle
  2
Flat
 70
     0
 71
     2
 72
     1
 73
     1
 90
        2
 40
-0.6
 41
30.0
 62
     5
 63
     7
 74
     0
 91
        4
 64
     7
 65
   257
 75
     1
175
     1
 42
1.0
 92
        8
 66
     7
 43
1.0
 76
     1
 77
     6
 78
     2
 67
     7
 79
     5
170
     0
171
     0
290
     0
174
     0
 93
       13
 44
0.0
173
     0
291
     1
 45
0.0
1001
ACAD
1000
AcDbSavedByObjectVersion
1070
     0
  0
VISUALSTYLE
  5
2C
102
{ACAD_REACTORS
330
2A
102
}
330
2A
100
AcDbVisualStyle
  2
FlatWithEdges
 70
     1
 71
     2
 72
     1
 73
     1
 90
        2
 40
-0.6
 41
30.0
 62
     5
 63
     7
 74
     1
 91
        4
 64
     7
 65
   257
 75
     1
175
     1
 42
1.0
 92
        0
 66
   257
 43
1.0
 76
     1
 77
     6
 78
     2
 67
     7
 79
     5
170
     0
171
     0
290
     0
174
     0
 93
       13
 44
0.0
173
     0
291
     1
 45
0.0
1001
ACAD
1000
AcDbSavedByObjectVersion
1070
     0
  0
VISUALSTYLE
  5
2D
102
{ACAD_REACTORS
330
2A
102
}
330
2A
100
AcDbVisualStyle
  2
Gouraud
 70
     2
 71
     2
 72
     2
 73
     1
 90
        2
 40
-0.6
 41
30.0
 62
     5
 63
     7
 74
     0
 91
        4
 64
     7
 65
   257
 75
     1
175
     1
 42
1.0
 92
        0
 66
     7
 43
1.0
 76
     1
 77
     6
 78
     2
 67
     7
 79
     5
170
     0
171
     0
290
     0
174
     0
 93
       13
 44
0.0
173
     0
291
     1
 45
0.0
1001
ACAD
1000
AcDbSavedByObjectVersion
1070
     0
  0
VISUALSTYLE
  5
2E
102
{ACAD_REACTORS
330
2A
102
}
330
2A
100
AcDbVisualStyle
  2
GouraudWithEdges
 70
     3
 71
     2
 72
     2
 73
     1
 90
        2
 40
-0.6
 41
30.0
 62
     5
 63
     7
 74
     1
 91
        4
 64
     7
 65
   257
 75
     1
175
     1
 42
1.0
 92
        0
 66
   257
 43
1.0
 76
     1
 77
     6
 78
     2
 67
     7
 79
     5
170
     0
171
     0
290
     0
174
     0
 93
       13
 44
0.0
173
     0
291
     1
 45
0.0
1001
ACAD
1000
AcDbSavedByObjectVersion
1070
     0
  0
VISUALSTYLE
  5
38
102
{ACAD_REACTORS
330
2A
102
}
330
2A
100
AcDbVisualStyle
  2
Linepattern
 70
    14
 71
     2
 72
     2
 73
     0
 90
        0
 40
-0.6
 41
-30.0
 62
     5
 63
     7
 74
     1
 91
        4
 64
     7
 65
   257
 75
     7
175
     7
 42
1.0
 92
        8
 66
     7
 43
1.0
 76
     1
 77
     6
 78
     2
 67
     7
 79
     5
170
     0
171
     0
290
     0
174
     0
 93
        1
 44
0.0
173
     0
291
     1
 45
0.0
1001
ACAD
1000
AcDbSavedByObjectVersion
1070
     0
  0
VISUALSTYLE
  5
33
102
{ACAD_REACTORS
330
2A
102
}
330
2A
100
AcDbVisualStyle
  2
Realistic
 70
     8
 71
     2
 72
     2
 73
     0
 90
        0
 40
-0.6
 41
-30.0
 62
     5
 63
     7
 74
     1
 91
        0
 64
     7
 65
   257
 75
     1
175
     1
 42
1.0
 92
        8
 66
     8
 43
1.0
 76
     1
 77
     6
 78
     2
 67
     7
 79
     5
170
     0
171
     0
290
     0
174
     0
 93
       13
 44
0.0
173
     0
291
     0
 45
0.0
1001
ACAD
1000
AcDbSavedByObjectVersion
1070
     0
  0
VISUALSTYLE
  5
37
102
{ACAD_REACTORS
330
2A
102
}
330
2A
100
AcDbVisualStyle
  2
Thicken
 70
    13
 71
     2
 72
     2
 73
     0
 90
        0
 40
-0.6
 41
-30.0
 62
     5
 63
     7
 74
     1
 91
        4
 64
     7
 65
   257
 75
     1
175
     1
 42
1.0
 92
       12
 66
     7
 43
1.0
 76
     1
 77
     6
 78
     2
 67
     7
 79
     5
170
     0
171
     0
290
     0
174
     0
 93
        1
 44
0.0
173
     0
291
     1
 45
0.0
1001
ACAD
1000
AcDbSavedByObjectVersion
1070
     0
  0
DICTIONARYVAR
  5
1C4
102
{ACAD_REACTORS
330
1C3
102
}
330
1C3
100
DictionaryVariables
280
     0
  1
1:1
  0
DICTIONARYVAR
  5
1C8
102
{ACAD_REACTORS
330
1C3
102
}
330
1C3
100
DictionaryVariables
280
     0
  1
80.000000
  0
DICTIONARYVAR
  5
1C7
102
{ACAD_REACTORS
330
1C3
102
}
330
1C3
100
DictionaryVariables
280
     0
  1
5.000000
  0
ENDSEC
  0
EOF
