  0
SECTION
  2
HEADER
  9
$ACADVER
  1
AC1015
  9
$ACADMAINTVER
 70
     6
  9
$DWGCODEPAGE
  3
ANSI_1252
  9
$INSBASE
 10
0.0
 20
0.0
 30
0.0
  9
$EXTMIN
 10
0.0
 20
0.0
 30
0.0
  9
$EXTMAX
 10
1682.0
 20
2378.0
 30
0.0
  9
$LIMMIN
 10
0.0
 20
0.0
  9
$LIMMAX
 10
1682.0
 20
2378.0
  9
$ORTHOMODE
 70
     0
  9
$REGENMODE
 70
     1
  9
$FILLMODE
 70
     1
  9
$QTEXTMODE
 70
     0
  9
$MIRRTEXT
 70
     1
  9
$LTSCALE
 40
1.0
  9
$ATTMODE
 70
     1
  9
$TEXTSIZE
 40
2.5
  9
$TRACEWID
 40
1.0
  9
$TEXTSTYLE
  7
Standard
  9
$CLAYER
  8
0
  9
$CELTYPE
  6
ByLayer
  9
$CECOLOR
 62
   256
  9
$CELTSCALE
 40
1.0
  9
$DISPSILH
 70
     0
  9
$DIMSCALE
 40
1.0
  9
$DIMASZ
 40
2.5
  9
$DIMEXO
 40
0.625
  9
$DIMDLI
 40
3.75
  9
$DIMRND
 40
0.0
  9
$DIMDLE
 40
0.0
  9
$DIMEXE
 40
1.25
  9
$DIMTP
 40
0.0
  9
$DIMTM
 40
0.0
  9
$DIMTXT
 40
2.5
  9
$DIMCEN
 40
2.5
  9
$DIMTSZ
 40
0.0
  9
$DIMTOL
 70
     0
  9
$DIMLIM
 70
     0
  9
$DIMTIH
 70
     0
  9
$DIMTOH
 70
     0
  9
$DIMSE1
 70
     0
  9
$DIMSE2
 70
     0
  9
$DIMTAD
 70
     1
  9
$DIMZIN
 70
     8
  9
$DIMBLK
  1

  9
$DIMASO
 70
     1
  9
$DIMSHO
 70
     1
  9
$DIMPOST
  1

  9
$DIMAPOST
  1

  9
$DIMALT
 70
     0
  9
$DIMALTD
 70
     3
  9
$DIMALTF
 40
0.0393700787
  9
$DIMLFAC
 40
1.0
  9
$DIMTOFL
 70
     1
  9
$DIMTVP
 40
0.0
  9
$DIMTIX
 70
     0
  9
$DIMSOXD
 70
     0
  9
$DIMSAH
 70
     0
  9
$DIMBLK1
  1

  9
$DIMBLK2
  1

  9
$DIMSTYLE
  2
ISO-25
  9
$DIMCLRD
 70
     0
  9
$DIMCLRE
 70
     0
  9
$DIMCLRT
 70
     0
  9
$DIMTFAC
 40
1.0
  9
$DIMGAP
 40
0.625
  9
$DIMJUST
 70
     0
  9
$DIMSD1
 70
     0
  9
$DIMSD2
 70
     0
  9
$DIMTOLJ
 70
     0
  9
$DIMTZIN
 70
     8
  9
$DIMALTZ
 70
     0
  9
$DIMALTTZ
 70
     0
  9
$DIMUPT
 70
     0
  9
$DIMDEC
 70
     2
  9
$DIMTDEC
 70
     2
  9
$DIMALTU
 70
     2
  9
$DIMALTTD
 70
     3
  9
$DIMTXSTY
  7
Standard
  9
$DIMAUNIT
 70
     0
  9
$DIMADEC
 70
     0
  9
$DIMALTRND
 40
0.0
  9
$DIMAZIN
 70
     0
  9
$DIMDSEP
 70
    44
  9
$DIMATFIT
 70
     3
  9
$DIMFRAC
 70
     0
  9
$DIMLDRBLK
  1

  9
$DIMLUNIT
 70
     2
  9
$DIMLWD
 70
    -2
  9
$DIMLWE
 70
    -2
  9
$DIMTMOVE
 70
     0
  9
$LUNITS
 70
     2
  9
$LUPREC
 70
     4
  9
$SKETCHINC
 40
1.0
  9
$FILLETRAD
 40
10.0
  9
$AUNITS
 70
     0
  9
$AUPREC
 70
     0
  9
$MENU
  1
.
  9
$ELEVATION
 40
0.0
  9
$PELEVATION
 40
0.0
  9
$THICKNESS
 40
0.0
  9
$LIMCHECK
 70
     0
  9
$CHAMFERA
 40
10.0
  9
$CHAMFERB
 40
10.0
  9
$CHAMFERC
 40
20.0
  9
$CHAMFERD
 40
0.0
  9
$SKPOLY
 70
     0
  9
$TDCREATE
 40
2455685.540301898
  9
$TDUCREATE
 40
2455685.456968565
  9
$TDUPDATE
 40
2455685.54030191
  9
$TDUUPDATE
 40
2455685.456968576
  9
$TDINDWG
 40
0.0000000116
  9
$TDUSRTIMER
 40
0.0000000116
  9
$USRTIMER
 70
     1
  9
$ANGBASE
 50
0.0
  9
$ANGDIR
 70
     0
  9
$PDMODE
 70
     0
  9
$PDSIZE
 40
0.0
  9
$PLINEWID
 40
0.0
  9
$SPLFRAME
 70
     0
  9
$SPLINETYPE
 70
     6
  9
$SPLINESEGS
 70
     8
  9
$HANDSEED
  5
1C4
  9
$SURFTAB1
 70
     6
  9
$SURFTAB2
 70
     6
  9
$SURFTYPE
 70
     6
  9
$SURFU
 70
     6
  9
$SURFV
 70
     6
  9
$UCSBASE
  2

  9
$UCSNAME
  2

  9
$UCSORG
 10
0.0
 20
0.0
 30
0.0
  9
$UCSXDIR
 10
1.0
 20
0.0
 30
0.0
  9
$UCSYDIR
 10
0.0
 20
1.0
 30
0.0
  9
$UCSORTHOREF
  2

  9
$UCSORTHOVIEW
 70
     0
  9
$UCSORGTOP
 10
0.0
 20
0.0
 30
0.0
  9
$UCSORGBOTTOM
 10
0.0
 20
0.0
 30
0.0
  9
$UCSORGLEFT
 10
0.0
 20
0.0
 30
0.0
  9
$UCSORGRIGHT
 10
0.0
 20
0.0
 30
0.0
  9
$UCSORGFRONT
 10
0.0
 20
0.0
 30
0.0
  9
$UCSORGBACK
 10
0.0
 20
0.0
 30
0.0
  9
$PUCSBASE
  2

  9
$PUCSNAME
  2

  9
$PUCSORG
 10
0.0
 20
0.0
 30
0.0
  9
$PUCSXDIR
 10
1.0
 20
0.0
 30
0.0
  9
$PUCSYDIR
 10
0.0
 20
1.0
 30
0.0
  9
$PUCSORTHOREF
  2

  9
$PUCSORTHOVIEW
 70
     0
  9
$PUCSORGTOP
 10
0.0
 20
0.0
 30
0.0
  9
$PUCSORGBOTTOM
 10
0.0
 20
0.0
 30
0.0
  9
$PUCSORGLEFT
 10
0.0
 20
0.0
 30
0.0
  9
$PUCSORGRIGHT
 10
0.0
 20
0.0
 30
0.0
  9
$PUCSORGFRONT
 10
0.0
 20
0.0
 30
0.0
  9
$PUCSORGBACK
 10
0.0
 20
0.0
 30
0.0
  9
$USERI1
 70
     0
  9
$USERI2
 70
     0
  9
$USERI3
 70
     0
  9
$USERI4
 70
     0
  9
$USERI5
 70
     0
  9
$USERR1
 40
0.0
  9
$USERR2
 40
0.0
  9
$USERR3
 40
0.0
  9
$USERR4
 40
0.0
  9
$USERR5
 40
0.0
  9
$WORLDVIEW
 70
     1
  9
$SHADEDGE
 70
     3
  9
$SHADEDIF
 70
    70
  9
$TILEMODE
 70
     1
  9
$MAXACTVP
 70
    64
  9
$PINSBASE
 10
0.0
 20
0.0
 30
0.0
  9
$PLIMCHECK
 70
     0
  9
$PEXTMIN
 10
0.0
 20
0.0
 30
0.0
  9
$PEXTMAX
 10
1682.0
 20
2378.0
 30
0.0
  9
$PLIMMIN
 10
0.0
 20
0.0
  9
$PLIMMAX
 10
1682.0
 20
2378.0
  9
$UNITMODE
 70
     0
  9
$VISRETAIN
 70
     1
  9
$PLINEGEN
 70
     0
  9
$PSLTSCALE
 70
     1
  9
$TREEDEPTH
 70
  3020
  9
$CMLSTYLE
  2
Standard
  9
$CMLJUST
 70
     0
  9
$CMLSCALE
 40
20.0
  9
$PROXYGRAPHICS
 70
     1
  9
$MEASUREMENT
 70
     1
  9
$CELWEIGHT
370
    -1
  9
$ENDCAPS
280
     0
  9
$JOINSTYLE
280
     0
  9
$LWDISPLAY
290
     0
  9
$INSUNITS
 70
     4
  9
$HYPERLINKBASE
  1

  9
$STYLESHEET
  1

  9
$XEDIT
290
     1
  9
$CEPSNTYPE
380
     0
  9
$PSTYLEMODE
290
     1
  9
$FINGERPRINTGUID
  2
{D47882F2-37F1-4ECF-A10A-415F7A186A74}
  9
$VERSIONGUID
  2
{FAEB1C32-E019-11D5-929B-00C0DF256EC4}
  9
$EXTNAMES
290
     1
  9
$PSVPSCALE
 40
0.0
  9
$OLESTARTUP
290
     0
  0
ENDSEC
  0
SECTION
  2
CLASSES
  0
CLASS
  1
ACDBDICTIONARYWDFLT
  2
AcDbDictionaryWithDefault
  3
ObjectDBX Classes
 90
        0
280
     0
281
     0
  0
CLASS
  1
VISUALSTYLE
  2
AcDbVisualStyle
  3
ObjectDBX Classes
 90
     4095
280
     0
281
     0
  0
CLASS
  1
SCALE
  2
AcDbScale
  3
ObjectDBX Classes
 90
     1153
280
     0
281
     0
  0
CLASS
  1
DICTIONARYVAR
  2
AcDbDictionaryVar
  3
ObjectDBX Classes
 90
        0
280
     0
281
     0
  0
CLASS
  1
ACDBPLACEHOLDER
  2
AcDbPlaceHolder
  3
ObjectDBX Classes
 90
        0
280
     0
281
     0
  0
CLASS
  1
LAYOUT
  2
AcDbLayout
  3
ObjectDBX Classes
 90
        0
280
     0
281
     0
  0
ENDSEC
  0
SECTION
  2
TABLES
  0
TABLE
  2
VPORT
  5
8
330
0
100
AcDbSymbolTable
 70
     1
  0
VPORT
  5
29
330
8
100
AcDbSymbolTableRecord
100
AcDbViewportTableRecord
  2
*Active
 70
     0
 10
0.0
 20
0.0
 11
1.0
 21
1.0
 12
344.1869158879
 22
148.5
 13
0.0
 23
0.0
 14
10.0
 24
10.0
 15
10.0
 25
10.0
 16
0.0
 26
0.0
 36
1.0
 17
0.0
 27
0.0
 37
0.0
 40
297.0
 41
1.9729729729
 42
50.0
 43
0.0
 44
0.0
 50
0.0
 51
0.0
 71
     0
 72
   100
 73
     1
 74
     3
 75
     0
 76
     0
 77
     0
 78
     0
281
     0
 65
     1
110
0.0
120
0.0
130
0.0
111
1.0
121
0.0
131
0.0
112
0.0
122
1.0
132
0.0
 79
     0
146
0.0
  0
ENDTAB
  0
TABLE
  2
LTYPE
  5
5
330
0
100
AcDbSymbolTable
 70
     2
  0
LTYPE
  5
14
330
5
100
AcDbSymbolTableRecord
100
AcDbLinetypeTableRecord
  2
ByBlock
 70
     0
  3

 72
    65
 73
     0
 40
0.0
  0
LTYPE
  5
15
330
5
100
AcDbSymbolTableRecord
100
AcDbLinetypeTableRecord
  2
ByLayer
 70
     0
  3

 72
    65
 73
     0
 40
0.0
  0
LTYPE
  5
16
330
5
100
AcDbSymbolTableRecord
100
AcDbLinetypeTableRecord
  2
Continuous
 70
     0
  3
Solid line
 72
    65
 73
     0
 40
0.0
  0
LTYPE
  5
60
330
5
100
AcDbSymbolTableRecord
100
AcDbLinetypeTableRecord
  2
CENTER2
 70
     0
  3
Center (.5x) ___ _ ___ _ ___ _ ___ _ ___ _ ___
 72
    65
 73
     4
 40
28.575
 49
19.05
 74
     4
 75
     0
340
0
 46
0.0
 50
0.0
 44
0.0
 45
0.0
 49
-3.175
 74
     4
 75
     0
340
0
 46
0.0
 50
0.0
 44
0.0
 45
0.0
 49
3.175
 74
     4
 75
     0
340
0
 46
0.0
 50
0.0
 44
0.0
 45
0.0
 49
-3.175
 74
     4
 75
     0
340
0
 46
0.0
 50
0.0
 44
0.0
 45
0.0
  0
ENDTAB
  0
TABLE
  2
LAYER
  5
2
330
0
100
AcDbSymbolTable
 70
    10
  0
LAYER
  5
10
330
2
100
AcDbSymbolTableRecord
100
AcDbLayerTableRecord
  2
0
 70
     0
 62
     7
  6
Continuous
370
    -3
390
F
  0
LAYER
  5
5D
330
2
100
AcDbSymbolTableRecord
100
AcDbLayerTableRecord
  2
Default
 70
     0
 62
     7
  6
Continuous
370
    -3
390
F
  0
LAYER
  5
8B
330
2
100
AcDbSymbolTableRecord
100
AcDbLayerTableRecord
  2
$DDT_AUDIT_GENERATED_(8B)
 70
     0
 62
     7
  6
Continuous
370
    -3
390
F
  0
LAYER
  5
8F
330
2
100
AcDbSymbolTableRecord
100
AcDbLayerTableRecord
  2
$DDT_AUDIT_GENERATED_(8F)
 70
     0
 62
     7
  6
Continuous
370
    -3
390
F
  0
LAYER
  5
AA
330
2
100
AcDbSymbolTableRecord
100
AcDbLayerTableRecord
  2
$DDT_AUDIT_GENERATED_(AA)
 70
     0
 62
     7
  6
Continuous
370
    -3
390
F
  0
LAYER
  5
C2
330
2
100
AcDbSymbolTableRecord
100
AcDbLayerTableRecord
  2
$DDT_AUDIT_GENERATED_(C2)
 70
     0
 62
     7
  6
Continuous
370
    -3
390
F
  0
LAYER
  5
D4
330
2
100
AcDbSymbolTableRecord
100
AcDbLayerTableRecord
  2
$DDT_AUDIT_GENERATED_(D4)
 70
     0
 62
     7
  6
Continuous
370
    -3
390
F
  0
LAYER
  5
D7
330
2
100
AcDbSymbolTableRecord
100
AcDbLayerTableRecord
  2
DV1_Standard
 70
     0
 62
     7
  6
Continuous
370
    -3
390
F
  0
LAYER
  5
DD
330
2
100
AcDbSymbolTableRecord
100
AcDbLayerTableRecord
  2
$DDT_AUDIT_GENERATED_(DD)
 70
     0
 62
     7
  6
Continuous
370
    -3
390
F
  0
LAYER
  5
17D
330
2
100
AcDbSymbolTableRecord
100
AcDbLayerTableRecord
  2
$DDT_AUDIT_GENERATED_(17D)
 70
     0
 62
     7
  6
Continuous
370
    -3
390
F
  0
ENDTAB
  0
TABLE
  2
STYLE
  5
3
330
0
100
AcDbSymbolTable
 70
     2
  0
STYLE
  5
11
330
3
100
AcDbSymbolTableRecord
100
AcDbTextStyleTableRecord
  2
Standard
 70
     0
 40
0.0
 41
1.0
 50
0.0
 71
     0
 42
2.5
  3
txt
  4

  0
STYLE
  5
1B3
330
3
100
AcDbSymbolTableRecord
100
AcDbTextStyleTableRecord
  2
SEACAD_seiso_ttf
 70
     0
 40
0.0
 41
1.0
 50
0.0
 71
     0
 42
0.2
  3
seiso.ttf
  4

  0
ENDTAB
  0
TABLE
  2
VIEW
  5
6
330
0
100
AcDbSymbolTable
 70
     0
  0
ENDTAB
  0
TABLE
  2
UCS
  5
7
330
0
100
AcDbSymbolTable
 70
     0
  0
ENDTAB
  0
TABLE
  2
APPID
  5
9
330
0
100
AcDbSymbolTable
 70
     1
  0
APPID
  5
12
330
9
100
AcDbSymbolTableRecord
100
AcDbRegAppTableRecord
  2
ACAD
 70
     0
  0
ENDTAB
  0
TABLE
  2
DIMSTYLE
  5
A
330
0
100
AcDbSymbolTable
 70
     1
100
AcDbDimStyleTable
  0
DIMSTYLE
105
27
330
A
100
AcDbSymbolTableRecord
100
AcDbDimStyleTableRecord
  2
ISO-25
 70
     0
 41
2.5
 42
0.625
 43
3.75
 44
1.25
 73
     0
 74
     0
 77
     1
 78
     8
140
2.5
141
2.5
143
0.0393700787
147
0.625
171
     3
172
     1
271
     2
272
     2
274
     3
278
    44
283
     0
284
     8
340
11
  0
ENDTAB
  0
TABLE
  2
BLOCK_RECORD
  5
1
330
0
100
AcDbSymbolTable
 70
     9
  0
BLOCK_RECORD
  5
1F
330
1
100
AcDbSymbolTableRecord
100
AcDbBlockTableRecord
  2
*Model_Space
340
22
  0
BLOCK_RECORD
  5
1B
330
1
100
AcDbSymbolTableRecord
100
AcDbBlockTableRecord
  2
*Paper_Space
340
1E
  0
BLOCK_RECORD
  5
5E
330
1
100
AcDbSymbolTableRecord
100
AcDbBlockTableRecord
  2
SEANNOT_GROUP
340
0
102
{BLKREFS
331
5F
102
}
  0
BLOCK_RECORD
  5
69
330
1
100
AcDbSymbolTableRecord
100
AcDbBlockTableRecord
  2
SEANNOT_GROUP1
340
0
102
{BLKREFS
331
6A
102
}
  0
BLOCK_RECORD
  5
6F
330
1
100
AcDbSymbolTableRecord
100
AcDbBlockTableRecord
  2
SEANNOT_GROUP2
340
0
102
{BLKREFS
331
70
102
}
  0
BLOCK_RECORD
  5
79
330
1
100
AcDbSymbolTableRecord
100
AcDbBlockTableRecord
  2
SEANNOT_GROUP3
340
0
102
{BLKREFS
331
7A
102
}
  0
BLOCK_RECORD
  5
7F
330
1
100
AcDbSymbolTableRecord
100
AcDbBlockTableRecord
  2
SEANNOT_GROUP4
340
0
102
{BLKREFS
331
80
102
}
  0
BLOCK_RECORD
  5
89
330
1
100
AcDbSymbolTableRecord
100
AcDbBlockTableRecord
  2
SE
340
0
102
{BLKREFS
331
8A
102
}
  0
BLOCK_RECORD
  5
DB
330
1
100
AcDbSymbolTableRecord
100
AcDbBlockTableRecord
  2
SE1
340
0
102
{BLKREFS
331
DC
102
}
  0
BLOCK_RECORD
  5
163
330
1
100
AcDbSymbolTableRecord
100
AcDbBlockTableRecord
  2
SE2
340
0
102
{BLKREFS
331
164
102
}
  0
ENDTAB
  0
ENDSEC
  0
SECTION
  2
BLOCKS
  0
BLOCK
  5
20
330
1F
100
AcDbEntity
  8
0
100
AcDbBlockBegin
  2
*Model_Space
 70
     0
 10
0.0
 20
0.0
 30
0.0
  3
*Model_Space
  1

  0
ENDBLK
  5
21
330
1F
100
AcDbEntity
  8
0
100
AcDbBlockEnd
  0
BLOCK
  5
1C
330
1B
100
AcDbEntity
 67
     1
  8
0
100
AcDbBlockBegin
  2
*Paper_Space
 70
     0
 10
0.0
 20
0.0
 30
0.0
  3
*Paper_Space
  1

  0
ENDBLK
  5
1D
330
1B
100
AcDbEntity
 67
     1
  8
0
100
AcDbBlockEnd
  0
BLOCK
  5
67
330
5E
100
AcDbEntity
  8
0
100
AcDbBlockBegin
  2
SEANNOT_GROUP
 70
     0
 10
0.0
 20
0.0
 30
0.0
  3
SEANNOT_GROUP
  1

  0
LINE
  5
61
330
5E
100
AcDbEntity
  8
Default
  6
CENTER2
 62
     7
100
AcDbLine
 10
147.0870805147
 20
854.8628241826
 30
0.0
 11
107.0870814088
 21
854.8628241826
 31
0.0
  0
LINE
  5
62
330
5E
100
AcDbEntity
  8
Default
  6
CENTER2
 62
     7
100
AcDbLine
 10
127.0870809617
 20
874.8628237355
 30
0.0
 11
127.0870809617
 21
834.8628246296
 31
0.0
  0
LINE
  5
63
330
5E
100
AcDbEntity
  8
Default
  6
CENTER2
 62
     7
100
AcDbLine
 10
152.0870804029
 20
854.8628241826
 30
0.0
 11
150.3769369519
 21
854.8628241826
 31
0.0
  0
LINE
  5
64
330
5E
100
AcDbEntity
  8
Default
  6
CENTER2
 62
     7
100
AcDbLine
 10
127.0870809617
 20
879.8628236238
 30
0.0
 11
127.0870809617
 21
878.1526801727
 31
0.0
  0
LINE
  5
65
330
5E
100
AcDbEntity
  8
Default
  6
CENTER2
 62
     7
100
AcDbLine
 10
102.0870815205
 20
854.8628241826
 30
0.0
 11
103.7972249715
 21
854.8628241826
 31
0.0
  0
LINE
  5
66
330
5E
100
AcDbEntity
  8
Default
  6
CENTER2
 62
     7
100
AcDbLine
 10
127.0870809617
 20
829.8628247414
 30
0.0
 11
127.0870809617
 21
831.5729681924
 31
0.0
  0
ENDBLK
  5
68
330
5E
100
AcDbEntity
  8
0
100
AcDbBlockEnd
  0
BLOCK
  5
6D
330
69
100
AcDbEntity
  8
0
100
AcDbBlockBegin
  2
SEANNOT_GROUP1
 70
     0
 10
0.0
 20
0.0
 30
0.0
  3
SEANNOT_GROUP1
  1

  0
LINE
  5
6B
330
69
100
AcDbEntity
  8
Default
  6
CENTER2
 62
     7
100
AcDbLine
 10
259.4607437611
 20
854.8628241826
 30
0.0
 11
219.4607446551
 21
854.8628241826
 31
0.0
  0
LINE
  5
6C
330
69
100
AcDbEntity
  8
Default
  6
CENTER2
 62
     7
100
AcDbLine
 10
239.4607442081
 20
874.8628237355
 30
0.0
 11
239.4607442081
 21
834.8628246296
 31
0.0
  0
ENDBLK
  5
6E
330
69
100
AcDbEntity
  8
0
100
AcDbBlockEnd
  0
BLOCK
  5
77
330
6F
100
AcDbEntity
  8
0
100
AcDbBlockBegin
  2
SEANNOT_GROUP2
 70
     0
 10
0.0
 20
0.0
 30
0.0
  3
SEANNOT_GROUP2
  1

  0
LINE
  5
71
330
6F
100
AcDbEntity
  8
Default
  6
CENTER2
 62
     7
100
AcDbLine
 10
147.0870805147
 20
234.6587500323
 30
0.0
 11
107.0870814088
 21
234.6587500323
 31
0.0
  0
LINE
  5
72
330
6F
100
AcDbEntity
  8
Default
  6
CENTER2
 62
     7
100
AcDbLine
 10
127.0870809617
 20
254.6587495853
 30
0.0
 11
127.0870809617
 21
214.6587504793
 31
0.0
  0
LINE
  5
73
330
6F
100
AcDbEntity
  8
Default
  6
CENTER2
 62
     7
100
AcDbLine
 10
152.0870804029
 20
234.6587500323
 30
0.0
 11
150.3769369519
 21
234.6587500323
 31
0.0
  0
LINE
  5
74
330
6F
100
AcDbEntity
  8
Default
  6
CENTER2
 62
     7
100
AcDbLine
 10
127.0870809617
 20
259.6587494735
 30
0.0
 11
127.0870809617
 21
257.9486060225
 31
0.0
  0
LINE
  5
75
330
6F
100
AcDbEntity
  8
Default
  6
CENTER2
 62
     7
100
AcDbLine
 10
102.0870815205
 20
234.6587500323
 30
0.0
 11
103.7972249715
 21
234.6587500323
 31
0.0
  0
LINE
  5
76
330
6F
100
AcDbEntity
  8
Default
  6
CENTER2
 62
     7
100
AcDbLine
 10
127.0870809617
 20
209.6587505911
 30
0.0
 11
127.0870809617
 21
211.3688940421
 31
0.0
  0
ENDBLK
  5
78
330
6F
100
AcDbEntity
  8
0
100
AcDbBlockEnd
  0
BLOCK
  5
7D
330
79
100
AcDbEntity
  8
0
100
AcDbBlockBegin
  2
SEANNOT_GROUP3
 70
     0
 10
0.0
 20
0.0
 30
0.0
  3
SEANNOT_GROUP3
  1

  0
LINE
  5
7B
330
79
100
AcDbEntity
  8
Default
  6
CENTER2
 62
     7
100
AcDbLine
 10
259.4607437611
 20
234.6587500323
 30
0.0
 11
219.4607446551
 21
234.6587500323
 31
0.0
  0
LINE
  5
7C
330
79
100
AcDbEntity
  8
Default
  6
CENTER2
 62
     7
100
AcDbLine
 10
239.4607442081
 20
254.6587495853
 30
0.0
 11
239.4607442081
 21
214.6587504793
 31
0.0
  0
ENDBLK
  5
7E
330
79
100
AcDbEntity
  8
0
100
AcDbBlockEnd
  0
BLOCK
  5
87
330
7F
100
AcDbEntity
  8
0
100
AcDbBlockBegin
  2
SEANNOT_GROUP4
 70
     0
 10
0.0
 20
0.0
 30
0.0
  3
SEANNOT_GROUP4
  1

  0
LINE
  5
81
330
7F
100
AcDbEntity
  8
Default
  6
CENTER2
 62
     7
100
AcDbLine
 10
147.0870805147
 20
114.8529644726
 30
0.0
 11
107.0870814088
 21
114.8529644726
 31
0.0
  0
LINE
  5
82
330
7F
100
AcDbEntity
  8
Default
  6
CENTER2
 62
     7
100
AcDbLine
 10
127.0870809617
 20
134.8529640256
 30
0.0
 11
127.0870809617
 21
94.8529649196
 31
0.0
  0
LINE
  5
83
330
7F
100
AcDbEntity
  8
Default
  6
CENTER2
 62
     7
100
AcDbLine
 10
152.0870804029
 20
114.8529644726
 30
0.0
 11
141.9870809617
 21
114.8529644726
 31
0.0
  0
LINE
  5
84
330
7F
100
AcDbEntity
  8
Default
  6
CENTER2
 62
     7
100
AcDbLine
 10
127.0870809617
 20
139.8529639138
 30
0.0
 11
127.0870809617
 21
129.7529644726
 31
0.0
  0
LINE
  5
85
330
7F
100
AcDbEntity
  8
Default
  6
CENTER2
 62
     7
100
AcDbLine
 10
102.0870815205
 20
114.8529644726
 30
0.0
 11
112.1870809617
 21
114.8529644726
 31
0.0
  0
LINE
  5
86
330
7F
100
AcDbEntity
  8
Default
  6
CENTER2
 62
     7
100
AcDbLine
 10
127.0870809617
 20
89.8529650314
 30
0.0
 11
127.0870809617
 21
99.9529644726
 31
0.0
  0
ENDBLK
  5
88
330
7F
100
AcDbEntity
  8
0
100
AcDbBlockEnd
  0
BLOCK
  5
D9
330
89
100
AcDbEntity
  8
0
100
AcDbBlockBegin
  2
SE
 70
     0
 10
0.0
 20
0.0
 30
0.0
  3
SE
  1

  0
LINE
  5
8C
330
89
100
AcDbEntity
  8
$DDT_AUDIT_GENERATED_(8B)
  6
Continuous
 62
     7
100
AcDbLine
 10
137.9870809617
 20
562.3082802511
 30
0.0
 11
137.9870809617
 21
838.3453062058
 31
0.0
  0
LINE
  5
8D
330
89
100
AcDbEntity
  8
$DDT_AUDIT_GENERATED_(8B)
  6
Continuous
 62
     7
100
AcDbLine
 10
116.1870809617
 20
838.3453062058
 30
0.0
 11
116.1870809617
 21
562.3082952537
 31
0.0
  0
LINE
  5
8E
330
89
100
AcDbEntity
  8
$DDT_AUDIT_GENERATED_(8B)
  6
Continuous
 62
     7
100
AcDbLine
 10
116.1870809617
 20
527.2131491747
 30
0.0
 11
116.1870809617
 21
251.1762680091
 31
0.0
  0
LINE
  5
90
330
89
100
AcDbEntity
  8
$DDT_AUDIT_GENERATED_(8F)
  6
Continuous
 62
     7
100
AcDbLine
 10
84.7370809617
 20
562.7607871074
 30
0.0
 11
84.7370809617
 21
526.7607871074
 31
0.0
  0
LINE
  5
91
330
89
100
AcDbEntity
  8
$DDT_AUDIT_GENERATED_(8F)
  6
Continuous
 62
     7
100
AcDbLine
 10
78.992500866
 20
530.7141659782
 30
0.0
 11
78.992500866
 21
558.8074082366
 31
0.0
  0
LINE
  5
92
330
89
100
AcDbEntity
  8
$DDT_AUDIT_GENERATED_(8F)
  6
Continuous
 62
     7
100
AcDbLine
 10
78.9636556073
 20
558.3915288979
 30
0.0
 11
78.9636556073
 21
531.130045317
 31
0.0
  0
LINE
  5
93
330
89
100
AcDbEntity
  8
$DDT_AUDIT_GENERATED_(8F)
  6
Continuous
 62
     7
100
AcDbLine
 10
109.7370809617
 20
526.9607871074
 30
0.0
 11
109.7370809617
 21
562.5607871074
 31
0.0
  0
LINE
  5
94
330
89
100
AcDbEntity
  8
$DDT_AUDIT_GENERATED_(8F)
  6
Continuous
 62
     7
100
AcDbLine
 10
89.7633844822
 20
562.7607871074
 30
0.0
 11
84.7370809617
 21
562.7607871074
 31
0.0
  0
LINE
  5
95
330
89
100
AcDbEntity
  8
$DDT_AUDIT_GENERATED_(8F)
  6
Continuous
 62
     7
100
AcDbLine
 10
109.5370809617
 20
562.7607871074
 30
0.0
 11
104.7069035094
 21
562.7607871074
 31
0.0
  0
LINE
  5
96
330
89
100
AcDbEntity
  8
$DDT_AUDIT_GENERATED_(8F)
  6
Continuous
 62
     7
100
AcDbLine
 10
84.7370809617
 20
526.7607871074
 30
0.0
 11
109.5370809617
 21
526.7607871074
 31
0.0
  0
ARC
  5
97
330
89
100
AcDbEntity
  8
$DDT_AUDIT_GENERATED_(8F)
  6
Continuous
 62
     7
100
AcDbCircle
 10
84.5448444857
 20
520.76386747
 30
0.0
 40
5.999999999999994
100
AcDbArc
 50
88.1639626617
 51
135.050652095
  0
ARC
  5
98
330
89
100
AcDbEntity
  8
$DDT_AUDIT_GENERATED_(8F)
  6
Continuous
 62
     7
100
AcDbCircle
 10
84.5448444857
 20
568.7577067448
 30
0.0
 40
5.999999999999915
100
AcDbArc
 50
224.949347905
 51
271.8360373383
  0
ARC
  5
99
330
89
100
AcDbEntity
  8
$DDT_AUDIT_GENERATED_(8F)
  6
Continuous
 62
     7
100
AcDbCircle
 10
278.4986221627
 20
544.7607871074
 30
0.0
 40
200.0
100
AcDbArc
 50
174.4181792824
 51
175.9726238595
  0
ARC
  5
9A
330
89
100
AcDbEntity
  8
$DDT_AUDIT_GENERATED_(8F)
  6
Continuous
 62
     7
100
AcDbCircle
 10
278.4986221627
 20
544.7607871074
 30
0.0
 40
200.0
100
AcDbArc
 50
184.0273761405
 51
185.5818207176
  0
ARC
  5
9B
330
89
100
AcDbEntity
  8
$DDT_AUDIT_GENERATED_(8F)
  6
Continuous
 62
     7
100
AcDbCircle
 10
79.9445889583
 20
525.355996506
 30
0.0
 40
0.5000000000000042
100
AcDbArc
 50
185.5818207176
 51
315.0506520951
  0
ARC
  5
9C
330
89
100
AcDbEntity
  8
$DDT_AUDIT_GENERATED_(8F)
  6
Continuous
 62
     7
100
AcDbCircle
 10
79.9445889583
 20
564.1655777088
 30
0.0
 40
0.4999999999999804
100
AcDbArc
 50
44.949347905
 51
174.4181792824
  0
LINE
  5
9D
330
89
100
AcDbEntity
  8
$DDT_AUDIT_GENERATED_(8F)
  6
Continuous
 62
     7
100
AcDbLine
 10
104.2328124893
 20
563.2499055983
 30
0.0
 11
104.1995559781
 21
567.0607243287
 31
0.0
  0
LINE
  5
9E
330
89
100
AcDbEntity
  8
$DDT_AUDIT_GENERATED_(8F)
  6
Continuous
 62
     7
100
AcDbLine
 10
90.2746159503
 20
567.0618707786
 30
0.0
 11
90.2413140142
 21
563.2458468811
 31
0.0
  0
LINE
  5
9F
330
89
100
AcDbEntity
  8
$DDT_AUDIT_GENERATED_(8F)
  6
Continuous
 62
     7
100
AcDbLine
 10
103.4779223636
 20
567.7607871074
 30
0.0
 11
90.9972490977
 21
567.7607871074
 31
0.0
  0
ARC
  5
A0
330
89
100
AcDbEntity
  8
$DDT_AUDIT_GENERATED_(8F)
  6
Continuous
 62
     7
100
AcDbCircle
 10
278.4986221627
 20
544.7607871074
 30
0.0
 40
200.0
100
AcDbArc
 50
176.0920507706
 51
180.0
  0
ARC
  5
A1
330
89
100
AcDbEntity
  8
$DDT_AUDIT_GENERATED_(8F)
  6
Continuous
 62
     7
100
AcDbCircle
 10
278.4986221627
 20
544.7607871074
 30
0.0
 40
200.0
100
AcDbArc
 50
180.0
 51
183.9079492294
  0
ARC
  5
A2
330
89
100
AcDbEntity
  8
$DDT_AUDIT_GENERATED_(8F)
  6
Continuous
 62
     7
100
AcDbCircle
 10
78.8403761648
 20
530.9125546757
 30
0.0
 40
0.2500000000000289
100
AcDbArc
 50
52.5189642537
 51
60.4542896236
  0
ARC
  5
A3
330
89
100
AcDbEntity
  8
$DDT_AUDIT_GENERATED_(8F)
  6
Continuous
 62
     7
100
AcDbCircle
 10
78.8403761648
 20
558.6090195392
 30
0.0
 40
0.2500000000000002
100
AcDbArc
 50
299.5457103764
 51
307.4810357463
  0
SPLINE
  5
A4
330
89
100
AcDbEntity
  8
$DDT_AUDIT_GENERATED_(8F)
  6
Continuous
 62
     7
100
AcDbSpline
210
0.0
220
0.0
230
1.0
 70
     8
 71
     3
 72
    14
 73
    10
 74
     0
 42
0.0000000088215615
 43
0.0000000001
 40
0.0
 40
0.0
 40
0.0
 40
0.0
 40
0.0252224895936031
 40
0.1921436093827388
 40
0.3466766097112838
 40
0.5273417215270539
 40
0.7224692340462839
 40
0.9251117822598386
 40
1.0
 40
1.0
 40
1.0
 40
1.0
 10
90.99738322244211
 20
567.7586012868426
 30
0.0
 10
90.98709930894994
 20
567.7594920085053
 30
0.0
 10
90.91976936318866
 20
567.765076710967
 30
0.0
 10
90.78557266447757
 20
567.7416159177864
 30
0.0
 10
90.61336665692157
 20
567.6701144921765
 30
0.0
 10
90.45464314684062
 20
567.545170604721
 30
0.0
 10
90.33387146523613
 20
567.3664092230621
 30
0.0
 10
90.27393137253037
 20
567.1893469915025
 30
0.0
 10
90.2804776366131
 20
567.0919167537138
 30
0.0
 10
90.28282206030802
 20
567.0613135386477
 30
0.0
  0
ARC
  5
A5
330
89
100
AcDbEntity
  8
$DDT_AUDIT_GENERATED_(8F)
  6
Continuous
 62
     7
100
AcDbCircle
 10
103.5017924916
 20
567.0631279869
 30
0.0
 40
0.6959383926938981
100
AcDbArc
 50
0.0884083226
 51
91.9698752757
  0
ARC
  5
A6
330
89
100
AcDbEntity
  8
$DDT_AUDIT_GENERATED_(8F)
  6
Continuous
 62
     7
100
AcDbCircle
 10
104.720777064
 20
563.2472905298
 30
0.0
 40
0.4825099999215669
100
AcDbArc
 50
179.4439832109
 51
268.5612647435
  0
SPLINE
  5
A7
330
89
100
AcDbEntity
  8
$DDT_AUDIT_GENERATED_(8F)
  6
Continuous
 62
     7
100
AcDbSpline
210
0.0
220
0.0
230
1.0
 70
     8
 71
     3
 72
    13
 73
     9
 74
     0
 42
0.0000000132044136
 43
0.0000000001
 40
0.0
 40
0.0
 40
0.0
 40
0.0
 40
0.0706653779784004
 40
0.3131147625143006
 40
0.5503313100383381
 40
0.7390578412071639
 40
0.8976601797303967
 40
1.0
 40
1.0
 40
1.0
 40
1.0
 10
90.2349066805921
 20
563.2445876173007
 30
0.0
 10
90.23633156813487
 20
563.2253353350667
 30
0.0
 10
90.24116393100513
 20
563.1518879681123
 30
0.0
 10
90.18751745530487
 20
563.0153890048988
 30
0.0
 10
90.0838870042271
 20
562.8844326434821
 30
0.0
 10
89.96049729590894
 20
562.8052855042802
 30
0.0
 10
89.85103062394498
 20
562.7684155353791
 30
0.0
 10
89.79045907960175
 20
562.7644309591172
 30
0.0
 10
89.7625528079569
 20
562.7629499030497
 30
0.0
  0
ARC
  5
A8
330
89
100
AcDbEntity
  8
$DDT_AUDIT_GENERATED_(8F)
  6
Continuous
 62
     7
100
AcDbCircle
 10
109.5370809617
 20
526.9607871074
 30
0.0
 40
0.2000000000000335
100
AcDbArc
 50
270.0
 51
0.0
  0
ARC
  5
A9
330
89
100
AcDbEntity
  8
$DDT_AUDIT_GENERATED_(8F)
  6
Continuous
 62
     7
100
AcDbCircle
 10
109.5370809617
 20
562.5607871074
 30
0.0
 40
0.1999999999999988
100
AcDbArc
 50
0.0
 51
90.0
  0
LINE
  5
AB
330
89
100
AcDbEntity
  8
$DDT_AUDIT_GENERATED_(AA)
  6
Continuous
 62
     7
100
AcDbLine
 10
143.0870809617
 20
527.0607871074
 30
0.0
 11
143.0870809617
 21
562.4607871074
 31
0.0
  0
LINE
  5
AC
330
89
100
AcDbEntity
  8
$DDT_AUDIT_GENERATED_(AA)
  6
Continuous
 62
     7
100
AcDbLine
 10
111.0870809617
 20
562.4607871074
 30
0.0
 11
111.0870809617
 21
527.0607871074
 31
0.0
  0
ARC
  5
AD
330
89
100
AcDbEntity
  8
$DDT_AUDIT_GENERATED_(AA)
  6
Continuous
 62
     7
100
AcDbCircle
 10
127.0870808704
 20
576.4500393861
 30
0.0
 40
17.91083834044106
100
AcDbArc
 50
229.8447534459
 51
310.1552502091
  0
ARC
  5
AE
330
89
100
AcDbEntity
  8
$DDT_AUDIT_GENERATED_(AA)
  6
Continuous
 62
     7
100
AcDbCircle
 10
127.0870808704
 20
513.0715348288
 30
0.0
 40
17.91083834044102
100
AcDbArc
 50
49.8447497909
 51
49.8482549751
  0
ARC
  5
AF
330
89
100
AcDbEntity
  8
$DDT_AUDIT_GENERATED_(AA)
  6
Continuous
 62
     7
100
AcDbCircle
 10
127.0870808704
 20
513.0715348288
 30
0.0
 40
17.91083834044102
100
AcDbArc
 50
50.8848848446
 51
130.1548047819
  0
LINE
  5
B0
330
89
100
AcDbEntity
  8
$DDT_AUDIT_GENERATED_(AA)
  6
Continuous
 62
     7
100
AcDbLine
 10
138.6370809617
 20
526.7607871074
 30
0.0
 11
142.7870809617
 21
526.7607871074
 31
0.0
  0
LINE
  5
B1
330
89
100
AcDbEntity
  8
$DDT_AUDIT_GENERATED_(AA)
  6
Continuous
 62
     7
100
AcDbLine
 10
111.3870809617
 20
526.7607871074
 30
0.0
 11
115.5470172153
 21
526.7607871074
 31
0.0
  0
LINE
  5
B2
330
89
100
AcDbEntity
  8
$DDT_AUDIT_GENERATED_(AA)
  6
Continuous
 62
     7
100
AcDbLine
 10
115.5470172153
 20
562.7607871074
 30
0.0
 11
111.3870809617
 21
562.7607871074
 31
0.0
  0
LINE
  5
B3
330
89
100
AcDbEntity
  8
$DDT_AUDIT_GENERATED_(AA)
  6
Continuous
 62
     7
100
AcDbLine
 10
142.7870809617
 20
562.7607871074
 30
0.0
 11
138.6370809617
 21
562.7607871074
 31
0.0
  0
ARC
  5
B4
330
89
100
AcDbEntity
  8
$DDT_AUDIT_GENERATED_(AA)
  6
Continuous
 62
     7
100
AcDbCircle
 10
142.7870809617
 20
527.0607871074
 30
0.0
 40
0.3000000000000225
100
AcDbArc
 50
270.0
 51
0.0
  0
ARC
  5
B5
330
89
100
AcDbEntity
  8
$DDT_AUDIT_GENERATED_(AA)
  6
Continuous
 62
     7
100
AcDbCircle
 10
142.7870809617
 20
562.4607871074
 30
0.0
 40
0.3000000000000017
100
AcDbArc
 50
0.0
 51
90.0
  0
ARC
  5
B6
330
89
100
AcDbEntity
  8
$DDT_AUDIT_GENERATED_(AA)
  6
Continuous
 62
     7
100
AcDbCircle
 10
111.3870809617
 20
527.0607871074
 30
0.0
 40
0.3000000000000017
100
AcDbArc
 50
180.0
 51
270.0
  0
ARC
  5
B7
330
89
100
AcDbEntity
  8
$DDT_AUDIT_GENERATED_(AA)
  6
Continuous
 62
     7
100
AcDbCircle
 10
111.3870809617
 20
562.4607871074
 30
0.0
 40
0.3000000000000225
100
AcDbArc
 50
90.0
 51
180.0
  0
LINE
  5
B8
330
89
100
AcDbEntity
  8
$DDT_AUDIT_GENERATED_(AA)
  6
Continuous
 62
     7
100
AcDbLine
 10
143.2870809617
 20
528.0607871074
 30
0.0
 11
143.9370809617
 21
528.0607871074
 31
0.0
  0
LINE
  5
B9
330
89
100
AcDbEntity
  8
$DDT_AUDIT_GENERATED_(AA)
  6
Continuous
 62
     7
100
AcDbLine
 10
143.9370809617
 20
561.4607871074
 30
0.0
 11
143.2870809617
 21
561.4607871074
 31
0.0
  0
LINE
  5
BA
330
89
100
AcDbEntity
  8
$DDT_AUDIT_GENERATED_(AA)
  6
Continuous
 62
     7
100
AcDbLine
 10
109.7370809617
 20
528.0607871074
 30
0.0
 11
110.8870809617
 21
528.0607871074
 31
0.0
  0
LINE
  5
BB
330
89
100
AcDbEntity
  8
$DDT_AUDIT_GENERATED_(AA)
  6
Continuous
 62
     7
100
AcDbLine
 10
110.8870809617
 20
561.4607871074
 30
0.0
 11
109.7370809617
 21
561.4607871074
 31
0.0
  0
SPLINE
  5
BC
330
89
100
AcDbEntity
  8
$DDT_AUDIT_GENERATED_(AA)
  6
Continuous
 62
     7
100
AcDbSpline
210
0.0
220
0.0
230
1.0
 70
     8
 71
     3
 72
    12
 73
     8
 74
     0
 42
0.0000000472172218
 43
0.0000000001
 40
0.0
 40
0.0
 40
0.0
 40
0.0
 40
0.3328495422909295
 40
0.872581574172861
 40
0.949596162645731
 40
0.9874748612216767
 40
1.0
 40
1.0
 40
1.0
 40
1.0
 10
138.4433493001258
 20
526.8678700814879
 30
0.0
 10
138.4730969651113
 20
526.849329763311
 30
0.0
 10
138.5410098024816
 20
526.8081678513133
 30
0.0
 10
138.5612827864367
 20
526.7927535387939
 30
0.0
 10
138.588371328603
 20
526.7834217237793
 30
0.0
 10
138.6069234836912
 20
526.7758089463209
 30
0.0
 10
138.6248785943428
 20
526.77653041775
 30
0.0
 10
138.6300551657873
 20
526.7767255265001
 30
0.0
  0
ARC
  5
BD
330
89
100
AcDbEntity
  8
$DDT_AUDIT_GENERATED_(AA)
  6
Continuous
 62
     7
100
AcDbCircle
 10
142.7685818756
 20
533.9042956644
 30
0.0
 40
8.25947466946289
100
AcDbArc
 50
237.3335274987
 51
238.4213017403
  0
ARC
  5
BE
330
89
100
AcDbEntity
  8
$DDT_AUDIT_GENERATED_(AA)
  6
Continuous
 62
     7
100
AcDbCircle
 10
143.2870809617
 20
527.8607871074
 30
0.0
 40
0.1999999999999988
100
AcDbArc
 50
90.0
 51
180.0
  0
ARC
  5
BF
330
89
100
AcDbEntity
  8
$DDT_AUDIT_GENERATED_(AA)
  6
Continuous
 62
     7
100
AcDbCircle
 10
143.2870809617
 20
561.6607871074
 30
0.0
 40
0.2000000000000335
100
AcDbArc
 50
180.0
 51
270.0
  0
ARC
  5
C0
330
89
100
AcDbEntity
  8
$DDT_AUDIT_GENERATED_(AA)
  6
Continuous
 62
     7
100
AcDbCircle
 10
110.8870809617
 20
527.8607871074
 30
0.0
 40
0.2000000000000335
100
AcDbArc
 50
0.0
 51
90.0
  0
ARC
  5
C1
330
89
100
AcDbEntity
  8
$DDT_AUDIT_GENERATED_(AA)
  6
Continuous
 62
     7
100
AcDbCircle
 10
110.8870809617
 20
561.6607871074
 30
0.0
 40
0.1999999999999988
100
AcDbArc
 50
270.0
 51
0.0
  0
LINE
  5
C3
330
89
100
AcDbEntity
  8
$DDT_AUDIT_GENERATED_(C2)
  6
Continuous
 62
     7
100
AcDbLine
 10
143.9370809617
 20
562.5607871074
 30
0.0
 11
143.9370809617
 21
526.9607871074
 31
0.0
  0
SPLINE
  5
C4
330
89
100
AcDbEntity
  8
$DDT_AUDIT_GENERATED_(C2)
  6
Continuous
 62
     7
100
AcDbSpline
210
0.0
220
0.0
230
1.0
 70
     8
 71
     3
 72
     8
 73
     4
 74
     0
 42
0.0000000090366472
 43
0.0000000001
 40
0.50045579244152
 40
0.50045579244152
 40
0.50045579244152
 40
0.50045579244152
 40
0.5013594571611519
 40
0.5013594571611519
 40
0.5013594571611519
 40
0.5013594571611519
 10
164.3837697065738
 20
526.7607878038662
 30
0.0
 10
164.3837705901682
 20
526.7607886937893
 30
0.0
 10
164.3838066856557
 20
526.7608156964237
 30
0.0
 10
164.3838779392673
 20
526.7608687510694
 30
0.0
  0
LINE
  5
C5
330
89
100
AcDbEntity
  8
$DDT_AUDIT_GENERATED_(C2)
  6
Continuous
 62
     7
100
AcDbLine
 10
190.4370809617
 20
559.1221937238
 30
0.0
 11
190.4370809617
 21
530.3993804911
 31
0.0
  0
ELLIPSE
  5
C6
330
89
100
AcDbEntity
  8
$DDT_AUDIT_GENERATED_(C2)
  6
Continuous
 62
     7
100
AcDbEllipse
 10
186.3646356333
 20
559.4577255641
 30
0.0
 11
0.2706987918529025
 21
-0.4203833537254065
 31
0.0
210
0.0
220
0.0
230
0.9999999999999998
 40
0.6420978827
 41
3.141592653589478
 42
3.162864750566287
  0
LINE
  5
C7
330
89
100
AcDbEntity
  8
$DDT_AUDIT_GENERATED_(C2)
  6
Continuous
 62
     7
100
AcDbLine
 10
144.1370809617
 20
526.7607871074
 30
0.0
 11
164.3850000939
 21
526.7607871074
 31
0.0
  0
LINE
  5
C8
330
89
100
AcDbEntity
  8
$DDT_AUDIT_GENERATED_(C2)
  6
Continuous
 62
     7
100
AcDbLine
 10
162.5678976984
 20
562.7607871074
 30
0.0
 11
144.1370809617
 21
562.7607871074
 31
0.0
  0
ARC
  5
C9
330
89
100
AcDbEntity
  8
$DDT_AUDIT_GENERATED_(C2)
  6
Continuous
 62
     7
100
AcDbCircle
 10
144.1370809617
 20
526.9607871074
 30
0.0
 40
0.2000000000000023
100
AcDbArc
 50
180.0
 51
270.0
  0
ARC
  5
CA
330
89
100
AcDbEntity
  8
$DDT_AUDIT_GENERATED_(C2)
  6
Continuous
 62
     7
100
AcDbCircle
 10
144.1370809617
 20
562.5607871074
 30
0.0
 40
0.2000000000000335
100
AcDbArc
 50
90.0
 51
180.0
  0
SPLINE
  5
CB
330
89
100
AcDbEntity
  8
$DDT_AUDIT_GENERATED_(C2)
  6
Continuous
 62
     7
100
AcDbSpline
210
0.0
220
0.0
230
1.0
 70
     8
 71
     3
 72
    50
 73
    46
 74
     0
 42
0.0000000003848172
 43
0.0000000001
 40
0.0
 40
0.0
 40
0.0
 40
0.0
 40
0.017549063278895
 40
0.0507984315872333
 40
0.0842746433821693
 40
0.1184187810265978
 40
0.1516100491492816
 40
0.1836260308229737
 40
0.2111024676031689
 40
0.2369652230663203
 40
0.2643849018838823
 40
0.2912324574893328
 40
0.3172537459342054
 40
0.3423346171587205
 40
0.3665218054430816
 40
0.3903217195844542
 40
0.4156298000461811
 40
0.4418051420091271
 40
0.4690776325541673
 40
0.4976179470820931
 40
0.5275361535366708
 40
0.55885468260424
 40
0.5914733874216436
 40
0.6251339860708782
 40
0.6594056495905235
 40
0.6899203050160242
 40
0.722296329584481
 40
0.754518692692628
 40
0.7863872241927071
 40
0.8176879247068616
 40
0.8482735955077877
 40
0.8780692431095528
 40
0.9070697222736166
 40
0.9353332309955328
 40
0.9629776064056219
 40
0.9767548961468007
 40
0.9853089787356932
 40
0.9891854179341099
 40
0.9905135408500615
 40
0.9912259424957538
 40
0.9917203610399754
 40
0.9928577149515105
 40
0.9950646959550875
 40
0.9991404050241456
 40
1.0
 40
1.0
 40
1.0
 40
1.0
 10
186.0888171050191
 20
559.8736230162789
 30
0.0
 10
185.9494469833427
 20
559.7840447639409
 30
0.0
 10
185.6055831525034
 20
559.5636041967929
 30
0.0
 10
184.925850261996
 20
559.1495873516852
 30
0.0
 10
184.0976656477275
 20
558.6686780297185
 30
0.0
 10
183.2132727069124
 20
558.1934742030836
 30
0.0
 10
182.2960065314269
 20
557.7479733750126
 30
0.0
 10
181.3960721830889
 20
557.3636529041413
 30
0.0
 10
180.5330033233146
 20
557.0441505843188
 30
0.0
 10
179.6854676880298
 20
556.7861001531763
 30
0.0
 10
178.8173935791792
 20
556.580481053342
 30
0.0
 10
177.9261506866345
 20
556.4312678975127
 30
0.0
 10
177.0465814642267
 20
556.3469102491194
 30
0.0
 10
176.1904877695952
 20
556.3276109493127
 30
0.0
 10
175.3618571379679
 20
556.375841649473
 30
0.0
 10
174.5404391833137
 20
556.482357376504
 30
0.0
 10
173.712437823791
 20
556.6450751459031
 30
0.0
 10
172.8689160434876
 20
556.8669449715244
 30
0.0
 10
172.0191335291244
 20
557.1448004427385
 30
0.0
 10
171.1640880273386
 20
557.4768932424695
 30
0.0
 10
170.3067530927
 20
557.8598821655862
 30
0.0
 10
169.452428943304
 20
558.2880631564582
 30
0.0
 10
168.6091747270221
 20
558.7524134986064
 30
0.0
 10
167.7879737152986
 20
559.239728428067
 30
0.0
 10
167.0311024926779
 20
559.7147778495921
 30
0.0
 10
166.3289916034693
 20
560.1697142648152
 30
0.0
 10
165.6925757738496
 20
560.5949419139657
 30
0.0
 10
165.1013751457284
 20
561.0012462708522
 30
0.0
 10
164.573638485774
 20
561.3732869930056
 30
0.0
 10
164.1138597040182
 20
561.7049430190191
 30
0.0
 10
163.7250813086455
 20
561.9912575561092
 30
0.0
 10
163.4085568494655
 20
562.2287713535417
 30
0.0
 10
163.1641504049116
 20
562.4153110929446
 30
0.0
 10
162.9907678595399
 20
562.5497016433492
 30
0.0
 10
162.9034947807013
 20
562.6182997131581
 30
0.0
 10
162.8712244001
 20
562.6438370004879
 30
0.0
 10
162.8621921943447
 20
562.6509786979186
 30
0.0
 10
162.8585739574951
 20
562.653835564575
 30
0.0
 10
162.853015477207
 20
562.6581445477755
 30
0.0
 10
162.8442308797468
 20
562.6647531793574
 30
0.0
 10
162.8265961100813
 20
562.6772327123213
 30
0.0
 10
162.789196913917
 20
562.7009953731415
 30
0.0
 10
162.7141801991752
 20
562.7360078723991
 30
0.0
 10
162.6311528044874
 20
562.7616987266007
 30
0.0
 10
162.5783336661901
 20
562.7578370797904
 30
0.0
 10
162.5676280408883
 20
562.7570202556429
 30
0.0
  0
SPLINE
  5
CC
330
89
100
AcDbEntity
  8
$DDT_AUDIT_GENERATED_(C2)
  6
Continuous
 62
     7
100
AcDbSpline
210
0.0
220
0.0
230
1.0
 70
     8
 71
     3
 72
     8
 73
     4
 74
     0
 42
0.0000000003663084
 43
0.0000000001
 40
0.0
 40
0.0
 40
0.0
 40
0.0
 40
0.0073868495928651
 40
0.0073868495928651
 40
0.0073868495928651
 40
0.0073868495928651
 10
186.0896323190949
 20
559.8736651100623
 30
0.0
 10
186.0303989884276
 20
559.8357164120329
 30
0.0
 10
185.9742965283848
 20
559.799809156824
 30
0.0
 10
185.9197481243878
 20
559.7650156565444
 30
0.0
  0
LINE
  5
CD
330
89
100
AcDbEntity
  8
$DDT_AUDIT_GENERATED_(C2)
  6
Continuous
 62
     7
100
AcDbLine
 10
189.4370809617
 20
559.9577255641
 30
0.0
 11
186.3646356333
 21
559.9577255641
 31
0.0
  0
SPLINE
  5
CE
330
89
100
AcDbEntity
  8
$DDT_AUDIT_GENERATED_(C2)
  6
Continuous
 62
     7
100
AcDbSpline
210
0.0
220
0.0
230
1.0
 70
     8
 71
     3
 72
    14
 73
    10
 74
     0
 42
0.0000000068356675
 43
0.0000000001
 40
0.0
 40
0.0
 40
0.0
 40
0.0
 40
0.0314771625539062
 40
0.2083054620172836
 40
0.3798673177298812
 40
0.5498763042921295
 40
0.7276896165111144
 40
0.9102792471288996
 40
1.0
 40
1.0
 40
1.0
 40
1.0
 10
190.4318781284717
 20
559.1235855762707
 30
0.0
 10
190.4336588516771
 20
559.1395715098603
 30
0.0
 10
190.4433909366413
 20
559.2305347630022
 30
0.0
 10
190.389552780327
 20
559.4120751814203
 30
0.0
 10
190.2653757863429
 20
559.6189396303746
 30
0.0
 10
190.0788260284631
 20
559.7842117886373
 30
0.0
 10
189.8489498587971
 20
559.8974998121732
 30
0.0
 10
189.6193682445293
 20
559.9556998805424
 30
0.0
 10
189.4876797913254
 20
559.951930381559
 30
0.0
 10
189.4370884139743
 20
559.9500337010878
 30
0.0
  0
SPLINE
  5
CF
330
89
100
AcDbEntity
  8
$DDT_AUDIT_GENERATED_(C2)
  6
Continuous
 62
     7
100
AcDbSpline
210
0.0
220
0.0
230
1.0
 70
     8
 71
     3
 72
    13
 73
     9
 74
     0
 42
0.0000000068393697
 43
0.0000000001
 40
0.0
 40
0.0
 40
0.0
 40
0.0
 40
0.1608067516320911
 40
0.3421589022293338
 40
0.5336218544174919
 40
0.7047546279436916
 40
0.8720131004886293
 40
1.0
 40
1.0
 40
1.0
 40
1.0
 10
189.4370666659999
 20
529.5665369914337
 30
0.0
 10
189.5277358047597
 20
529.5697268730129
 30
0.0
 10
189.6924730134631
 20
529.5781549595031
 30
0.0
 10
189.9519610175606
 20
529.6645744290591
 30
0.0
 10
190.1716697696767
 20
529.8065719491194
 30
0.0
 10
190.3325657917945
 20
529.9969271623512
 30
0.0
 10
190.4254612360528
 20
530.2044120445644
 30
0.0
 10
190.4282577422501
 20
530.3335853105231
 30
0.0
 10
190.4285383895858
 20
530.399149375958
 30
0.0
  0
LINE
  5
D0
330
89
100
AcDbEntity
  8
$DDT_AUDIT_GENERATED_(C2)
  6
Continuous
 62
     7
100
AcDbLine
 10
184.091832828
 20
529.5638486507
 30
0.0
 11
189.4370809617
 21
529.5638486507
 31
0.0
  0
SPLINE
  5
D1
330
89
100
AcDbEntity
  8
$DDT_AUDIT_GENERATED_(C2)
  6
Continuous
 62
     7
100
AcDbSpline
210
0.0
220
0.0
230
1.0
 70
     8
 71
     3
 72
    45
 73
    41
 74
     0
 42
0.0000000004738802
 43
0.0000000001
 40
0.0
 40
0.0
 40
0.0
 40
0.0
 40
0.0033466223190946
 40
0.0062907493848762
 40
0.0083403279835964
 40
0.0096732532332304
 40
0.0110701702904437
 40
0.0132926046920252
 40
0.0182854881190685
 40
0.0290109181571139
 40
0.0641862682271751
 40
0.0979310427189148
 40
0.1306935947244086
 40
0.1639275318468622
 40
0.1979108380186675
 40
0.2326810256670608
 40
0.2681826416532476
 40
0.3042865273182441
 40
0.3407985836709787
 40
0.3775695462502234
 40
0.4152757591922775
 40
0.4535476884826319
 40
0.4909407875854045
 40
0.5269933272772297
 40
0.5614673317631104
 40
0.594341145363264
 40
0.6257623784620653
 40
0.6559945348030436
 40
0.6816505138379361
 40
0.7085146051934458
 40
0.7358181471042835
 40
0.7640949355405062
 40
0.7935488580864333
 40
0.8243216195159055
 40
0.8564692799487366
 40
0.8899398003875781
 40
0.9245498313405791
 40
0.9599687740651014
 40
0.9959257394164399
 40
1.0
 40
1.0
 40
1.0
 40
1.0
 10
164.3869438781974
 20
526.7626212776837
 30
0.0
 10
164.421472001096
 20
526.7641181778527
 30
0.0
 10
164.4762547501589
 20
526.7670603924366
 30
0.0
 10
164.5525252816512
 20
526.7893280578008
 30
0.0
 10
164.6025035632932
 20
526.8113518632475
 30
0.0
 10
164.6288754175092
 20
526.8254517355402
 30
0.0
 10
164.64577717129
 20
526.8353639417119
 30
0.0
 10
164.661694242972
 20
526.8454469912717
 30
0.0
 10
164.6763523797827
 20
526.8554152597842
 30
0.0
 10
164.7059961310565
 20
526.8763114773634
 30
0.0
 10
164.7754545684072
 20
526.9271633224666
 30
0.0
 10
164.9378481214616
 20
527.0451693161848
 30
0.0
 10
165.1619647726723
 20
527.2055917991071
 30
0.0
 10
165.4487772404909
 20
527.4070135418418
 30
0.0
 10
165.8019044192121
 20
527.6495974049551
 30
0.0
 10
166.2223397272376
 20
527.9312962170012
 30
0.0
 10
166.7095218077024
 20
528.2486769420735
 30
0.0
 10
167.2614109158691
 20
528.5971496221296
 30
0.0
 10
167.8751422610833
 20
528.9711484781423
 30
0.0
 10
168.5511355521924
 20
529.367849029391
 30
0.0
 10
169.2872123847806
 20
529.7773465510851
 30
0.0
 10
170.0789132996154
 20
530.1849892802596
 30
0.0
 10
170.9094766784114
 20
530.5713271586965
 30
0.0
 10
171.7590570005692
 20
530.9189512470177
 30
0.0
 10
172.6156565309606
 20
531.2174594371818
 30
0.0
 10
173.4706198515066
 20
531.4605396124279
 30
0.0
 10
174.318741673914
 20
531.6446965037431
 30
0.0
 10
175.123272222392
 20
531.764220909333
 30
0.0
 10
175.8981676161822
 20
531.825593202156
 30
0.0
 10
176.6508970821698
 20
531.8281969094661
 30
0.0
 10
177.4250206703824
 20
531.7776962958204
 30
0.0
 10
178.2128802960416
 20
531.6745137303644
 30
0.0
 10
179.0153162658708
 20
531.519290304149
 30
0.0
 10
179.8288028645517
 20
531.3131686503065
 30
0.0
 10
180.6479523820367
 20
531.0583578118666
 30
0.0
 10
181.4634664163606
 20
530.7592944726092
 30
0.0
 10
182.268452670115
 20
530.420867571769
 30
0.0
 10
183.0346398028813
 20
530.0575726062277
 30
0.0
 10
183.5793066656895
 20
529.7764590774505
 30
0.0
 10
183.8223824219284
 20
529.6414162707414
 30
0.0
 10
183.8511395515061
 20
529.6254210473274
 30
0.0
  0
ARC
  5
D2
330
89
100
AcDbEntity
  8
$DDT_AUDIT_GENERATED_(C2)
  6
Continuous
 62
     7
100
AcDbCircle
 10
184.091832828
 20
530.0638486507
 30
0.0
 40
0.5000000000000162
100
AcDbArc
 50
241.4304045039
 51
270.0
  0
ARC
  5
D3
330
89
100
AcDbEntity
  8
$DDT_AUDIT_GENERATED_(C2)
  6
Continuous
 62
     7
100
AcDbCircle
 10
186.3646356333
 20
559.4577255641
 30
0.0
 40
0.5000000000000004
100
AcDbArc
 50
90.0
 51
122.7788291928
  0
CIRCLE
  5
D5
330
89
100
AcDbEntity
  8
$DDT_AUDIT_GENERATED_(D4)
  6
Continuous
 62
     7
100
AcDbCircle
 10
127.0870809617
 20
854.8628241826
 30
0.0
 40
19.78985599019025
  0
CIRCLE
  5
D6
330
89
100
AcDbEntity
  8
$DDT_AUDIT_GENERATED_(D4)
  6
Continuous
 62
     7
100
AcDbCircle
 10
127.0870809617
 20
234.6587500323
 30
0.0
 40
19.78985599019025
  0
LINE
  5
D8
330
89
100
AcDbEntity
  8
DV1_Standard
  6
Continuous
 62
     7
100
AcDbLine
 10
137.9870809617
 20
251.5261076396
 30
0.0
 11
137.9708608373
 21
527.2770793525
 31
0.0
  0
ENDBLK
  5
DA
330
89
100
AcDbEntity
  8
0
100
AcDbBlockEnd
  0
BLOCK
  5
161
330
DB
100
AcDbEntity
  8
0
100
AcDbBlockBegin
  2
SE1
 70
     0
 10
0.0
 20
0.0
 30
0.0
  3
SE1
  1

  0
ARC
  5
DE
330
DB
100
AcDbEntity
  8
$DDT_AUDIT_GENERATED_(DD)
  6
Continuous
 62
     7
100
AcDbCircle
 10
278.1049137421
 20
252.5772005524
 30
0.0
 40
0.2066646288914806
100
AcDbArc
 50
54.5364954687
 51
88.9267498862
  0
ARC
  5
DF
330
DB
100
AcDbEntity
  8
$DDT_AUDIT_GENERATED_(DD)
  6
Continuous
 62
     7
100
AcDbCircle
 10
279.0016696715
 20
252.0039339016
 30
0.0
 40
0.2166730252141052
100
AcDbArc
 50
55.7007700893
 51
91.2001547727
  0
SPLINE
  5
E0
330
DB
100
AcDbEntity
  8
$DDT_AUDIT_GENERATED_(DD)
  6
Continuous
 62
     7
100
AcDbSpline
210
0.0
220
0.0
230
1.0
 70
     8
 71
     3
 72
     8
 73
     4
 74
     0
 42
0.0000000334433057
 43
0.0000000001
 40
0.5761048672667247
 40
0.5761048672667247
 40
0.5761048672667247
 40
0.5761048672667247
 40
1.0
 40
1.0
 40
1.0
 40
1.0
 10
281.2764144917529
 20
250.9575099063943
 30
0.0
 10
281.2407905607103
 20
250.9751175925328
 30
0.0
 10
281.197451875674
 20
250.9817493676505
 30
0.0
 10
281.1545123397846
 20
250.9773005251896
 30
0.0
  0
SPLINE
  5
E1
330
DB
100
AcDbEntity
  8
$DDT_AUDIT_GENERATED_(DD)
  6
Continuous
 62
     7
100
AcDbSpline
210
0.0
220
0.0
230
1.0
 70
     8
 71
     3
 72
     8
 73
     4
 74
     0
 42
0.0000000674974824
 43
0.0000000001
 40
0.708472326368492
 40
0.708472326368492
 40
0.708472326368492
 40
0.708472326368492
 40
1.0
 40
1.0
 40
1.0
 40
1.0
 10
283.3030539773973
 20
249.9929291622445
 30
0.0
 10
283.2975672853481
 20
249.9902187541921
 30
0.0
 10
283.291702891668
 20
249.9766700556238
 30
0.0
 10
283.2869628128558
 20
249.9548716349778
 30
0.0
  0
SPLINE
  5
E2
330
DB
100
AcDbEntity
  8
$DDT_AUDIT_GENERATED_(DD)
  6
Continuous
 62
     7
100
AcDbSpline
210
0.0
220
0.0
230
1.0
 70
     8
 71
     3
 72
     8
 73
     4
 74
     0
 42
0.0000000350740169
 43
0.0000000001
 40
0.5781337518302287
 40
0.5781337518302287
 40
0.5781337518302287
 40
0.5781337518302287
 40
1.0
 40
1.0
 40
1.0
 40
1.0
 10
284.4287488392545
 20
249.5538795354209
 30
0.0
 10
284.3962441671356
 20
249.565934753998
 30
0.0
 10
284.3547646028222
 20
249.5635087954167
 30
0.0
 10
284.3132477950176
 20
249.5487555218791
 30
0.0
  0
LINE
  5
E3
330
DB
100
AcDbEntity
  8
$DDT_AUDIT_GENERATED_(DD)
  6
Continuous
 62
     7
100
AcDbLine
 10
239.4607442081
 20
216.0520038699
 30
0.0
 11
239.4607442081
 21
220.2423557003
 31
0.0
  0
ARC
  5
E4
330
DB
100
AcDbEntity
  8
$DDT_AUDIT_GENERATED_(DD)
  6
Continuous
 62
     7
100
AcDbCircle
 10
288.00397099
 20
198.6521414674
 30
0.0
 40
22.09639089013286
100
AcDbArc
 50
55.2116306986
 51
73.8266365595
  0
LINE
  5
E5
330
DB
100
AcDbEntity
  8
$DDT_AUDIT_GENERATED_(DD)
  6
Continuous
 62
     7
100
AcDbLine
 10
239.4607442081
 20
220.397305447
 30
0.0
 11
239.4607442081
 21
220.8099547967
 31
0.0
  0
LINE
  5
E6
330
DB
100
AcDbEntity
  8
$DDT_AUDIT_GENERATED_(DD)
  6
Continuous
 62
     7
100
AcDbLine
 10
239.4607442081
 20
220.2423557003
 30
0.0
 11
239.4607442081
 21
220.397305447
 31
0.0
  0
LINE
  5
E7
330
DB
100
AcDbEntity
  8
$DDT_AUDIT_GENERATED_(DD)
  6
Continuous
 62
     7
100
AcDbLine
 10
290.5205382569
 20
220.767776458
 30
0.0
 11
290.5205382569
 21
220.7673438476
 31
0.0
  0
ARC
  5
E8
330
DB
100
AcDbEntity
  8
$DDT_AUDIT_GENERATED_(DD)
  6
Continuous
 62
     7
100
AcDbCircle
 10
287.8738017001
 20
220.8247458098
 30
0.0
 40
2.647358945527734
100
AcDbArc
 50
355.370280993
 51
358.7575738684
  0
LINE
  5
E9
330
DB
100
AcDbEntity
  8
$DDT_AUDIT_GENERATED_(DD)
  6
Continuous
 62
     7
100
AcDbLine
 10
239.4607442081
 20
248.9200718344
 30
0.0
 11
239.4607442081
 21
248.5075452679
 31
0.0
  0
LINE
  5
EA
330
DB
100
AcDbEntity
  8
$DDT_AUDIT_GENERATED_(DD)
  6
Continuous
 62
     7
100
AcDbLine
 10
239.4607442081
 20
248.9200718344
 30
0.0
 11
239.4607442081
 21
249.075020247
 31
0.0
  0
LINE
  5
EB
330
DB
100
AcDbEntity
  8
$DDT_AUDIT_GENERATED_(DD)
  6
Continuous
 62
     7
100
AcDbLine
 10
286.9607442081
 20
248.5773508316
 30
0.0
 11
286.9607442081
 21
248.4807313023
 31
0.0
  0
LINE
  5
EC
330
DB
100
AcDbEntity
  8
$DDT_AUDIT_GENERATED_(DD)
  6
Continuous
 62
     7
100
AcDbLine
 10
286.9607442081
 20
248.6825575303
 30
0.0
 11
286.9607442081
 21
248.5773508316
 31
0.0
  0
ELLIPSE
  5
ED
330
DB
100
AcDbEntity
  8
$DDT_AUDIT_GENERATED_(DD)
  6
Continuous
 62
     7
100
AcDbEllipse
 10
286.7607442081
 20
248.6825575303
 30
0.0
 11
-0.0404671262527398
 21
-0.1958632474274961
 31
0.0
210
0.0
220
0.0
230
1.0
 40
0.2318698334
 41
3.1048603689934
 42
3.141592653589793
  0
LINE
  5
EE
330
DB
100
AcDbEntity
  8
$DDT_AUDIT_GENERATED_(DD)
  6
Continuous
 62
     7
100
AcDbLine
 10
239.4607442081
 20
253.2654961947
 30
0.0
 11
239.4607442081
 21
249.075020247
 31
0.0
  0
LINE
  5
EF
330
DB
100
AcDbEntity
  8
$DDT_AUDIT_GENERATED_(DD)
  6
Continuous
 62
     7
100
AcDbLine
 10
239.4607442081
 20
216.0520038699
 30
0.0
 11
300.5911072682
 21
216.7988893068
 31
0.0
  0
LINE
  5
F0
330
DB
100
AcDbEntity
  8
$DDT_AUDIT_GENERATED_(DD)
  6
Continuous
 62
     7
100
AcDbLine
 10
278.3852337179
 20
252.7899201814
 30
0.0
 11
239.4607442081
 21
253.2654961947
 31
0.0
  0
LINE
  5
F1
330
DB
100
AcDbEntity
  8
$DDT_AUDIT_GENERATED_(DD)
  6
Continuous
 62
     7
100
AcDbLine
 10
279.307726005
 20
252.0663651531
 30
0.0
 11
279.3072375402
 21
252.1223376851
 31
0.0
  0
ARC
  5
F2
330
DB
100
AcDbEntity
  8
$DDT_AUDIT_GENERATED_(DD)
  6
Continuous
 62
     7
100
AcDbCircle
 10
278.3915229803
 20
252.5898284119
 30
0.0
 40
0.1999999992154178
100
AcDbArc
 50
32.2093426051
 51
91.6278651785
  0
ARC
  5
F3
330
DB
100
AcDbEntity
  8
$DDT_AUDIT_GENERATED_(DD)
  6
Continuous
 62
     7
100
AcDbCircle
 10
282.9992167012
 20
259.9977636161
 30
0.0
 40
8.684604211138726
100
AcDbArc
 50
236.639845351
 51
237.8910455878
  0
ARC
  5
F4
330
DB
100
AcDbEntity
  8
$DDT_AUDIT_GENERATED_(DD)
  6
Continuous
 62
     7
100
AcDbCircle
 10
291.9857923062
 20
273.9698888951
 30
0.0
 40
25.29685962946706
100
AcDbArc
 50
237.471209708
 51
238.2964135039
  0
SPLINE
  5
F5
330
DB
100
AcDbEntity
  8
$DDT_AUDIT_GENERATED_(DD)
  6
Continuous
 62
     7
100
AcDbSpline
210
0.0
220
0.0
230
1.0
 70
     8
 71
     3
 72
    14
 73
    10
 74
     0
 42
0.0000000116859014
 43
0.0000000001
 40
0.0
 40
0.0
 40
0.0
 40
0.0
 40
0.0097730111044488
 40
0.1388544550163041
 40
0.2517770326384994
 40
0.3853554746869973
 40
0.600571945281177
 40
0.852189420827619
 40
1.0
 40
1.0
 40
1.0
 40
1.0
 10
279.3053193805252
 20
252.1192820396545
 30
0.0
 10
279.3060090174281
 20
252.1223645420574
 30
0.0
 10
279.3144201177111
 20
252.1600895716032
 30
0.0
 10
279.2819124209021
 20
252.2397439213643
 30
0.0
 10
279.2180251743631
 20
252.3171686297731
 30
0.0
 10
279.1248712283048
 20
252.3758448458983
 30
0.0
 10
278.9905927427411
 20
252.4217942451931
 30
0.0
 10
278.8096898680058
 20
252.4567602961557
 30
0.0
 10
278.6764750449962
 20
252.4662319306727
 30
0.0
 10
278.6189106093815
 20
252.4700539698381
 30
0.0
  0
ARC
  5
F6
330
DB
100
AcDbEntity
  8
$DDT_AUDIT_GENERATED_(DD)
  6
Continuous
 62
     7
100
AcDbCircle
 10
290.9859101185
 20
271.208490903
 30
0.0
 40
22.42424394254002
100
AcDbArc
 50
238.0567210355
 51
239.7770193909
  0
ARC
  5
F7
330
DB
100
AcDbEntity
  8
$DDT_AUDIT_GENERATED_(DD)
  6
Continuous
 62
     7
100
AcDbCircle
 10
291.6918429223
 20
271.8506233476
 30
0.0
 40
23.3361980199233
100
AcDbArc
 50
239.0729652236
 51
241.2311952898
  0
SPLINE
  5
F8
330
DB
100
AcDbEntity
  8
$DDT_AUDIT_GENERATED_(DD)
  6
Continuous
 62
     7
100
AcDbSpline
210
0.0
220
0.0
230
1.0
 70
     8
 71
     3
 72
    13
 73
     9
 74
     0
 42
0.0000000081773105
 43
0.0000000001
 40
0.0
 40
0.0
 40
0.0
 40
0.0
 40
0.1579035264423554
 40
0.3290715269591787
 40
0.5138974147848883
 40
0.72602272171823
 40
0.9294530938557707
 40
1.0
 40
1.0
 40
1.0
 40
1.0
 10
281.3608015718737
 20
250.8713930485977
 30
0.0
 10
281.3551488852455
 20
250.9324295419329
 30
0.0
 10
281.3426776925989
 20
251.0410576645421
 30
0.0
 10
281.2202963185851
 20
251.1842948359599
 30
0.0
 10
281.0443080332822
 20
251.2940477310381
 30
0.0
 10
280.8038900722452
 20
251.3704689998782
 30
0.0
 10
280.5654321194368
 20
251.4070547067783
 30
0.0
 10
280.4400776540143
 20
251.4030041554985
 30
0.0
 10
280.4025914384884
 20
251.4016335400534
 30
0.0
  0
ARC
  5
F9
330
DB
100
AcDbEntity
  8
$DDT_AUDIT_GENERATED_(DD)
  6
Continuous
 62
     7
100
AcDbCircle
 10
290.7929222306
 20
268.7820860818
 30
0.0
 40
20.21109287465296
100
AcDbArc
 50
241.9014971829
 51
245.3917310368
  0
ARC
  5
FA
330
DB
100
AcDbEntity
  8
$DDT_AUDIT_GENERATED_(DD)
  6
Continuous
 62
     7
100
AcDbCircle
 10
288.4624110311
 20
262.846084172
 30
0.0
 40
13.8482686637955
100
AcDbArc
 50
243.9311646103
 51
248.1483369381
  0
ARC
  5
FB
330
DB
100
AcDbEntity
  8
$DDT_AUDIT_GENERATED_(DD)
  6
Continuous
 62
     7
100
AcDbCircle
 10
283.4851179547
 20
249.3405992609
 30
0.0
 40
0.6710372514486734
100
AcDbArc
 50
85.1595682828
 51
105.6742589715
  0
SPLINE
  5
FC
330
DB
100
AcDbEntity
  8
$DDT_AUDIT_GENERATED_(DD)
  6
Continuous
 62
     7
100
AcDbSpline
210
0.0
220
0.0
230
1.0
 70
     8
 71
     3
 72
    12
 73
     8
 74
     0
 42
0.0000000086694526
 43
0.0000000001
 40
0.0
 40
0.0
 40
0.0
 40
0.0
 40
0.1319543663333819
 40
0.3720857866163468
 40
0.6144363111767499
 40
0.8257682219252437
 40
1.0
 40
1.0
 40
1.0
 40
1.0
 10
284.4743367305058
 20
249.4930102094484
 30
0.0
 10
284.4606663275655
 20
249.5377591660741
 30
0.0
 10
284.4258501442603
 20
249.645351354032
 30
0.0
 10
284.2691206368593
 20
249.8032450870887
 30
0.0
 10
284.0441762960121
 20
249.9302092419902
 30
0.0
 10
283.783925831474
 20
250.0042731573944
 30
0.0
 10
283.6253102006862
 20
250.0081861870646
 30
0.0
 10
283.5417407584749
 20
250.0092432999617
 30
0.0
  0
ARC
  5
FD
330
DB
100
AcDbEntity
  8
$DDT_AUDIT_GENERATED_(DD)
  6
Continuous
 62
     7
100
AcDbCircle
 10
289.8439392097
 20
264.1781693484
 30
0.0
 40
15.59262936676272
100
AcDbArc
 50
249.6792842078
 51
258.7580249057
  0
ARC
  5
FE
330
DB
100
AcDbEntity
  8
$DDT_AUDIT_GENERATED_(DD)
  6
Continuous
 62
     7
100
AcDbCircle
 10
286.7607442081
 20
248.6825575303
 30
0.0
 40
0.1999999999999919
100
AcDbArc
 50
0.0
 51
78.3264262751
  0
LINE
  5
FF
330
DB
100
AcDbEntity
  8
$DDT_AUDIT_GENERATED_(8B)
  6
Continuous
 62
     7
100
AcDbLine
 10
300.3607442081
 20
252.1737904486
 30
0.0
 11
300.3607442081
 21
528.105737156
 31
0.0
  0
LINE
  5
100
330
DB
100
AcDbEntity
  8
$DDT_AUDIT_GENERATED_(8B)
  6
Continuous
 62
     7
100
AcDbLine
 10
300.3607442081
 20
561.4158370589
 30
0.0
 11
300.3607442081
 21
837.3483501331
 31
0.0
  0
LINE
  5
101
330
DB
100
AcDbEntity
  8
$DDT_AUDIT_GENERATED_(8B)
  6
Continuous
 62
     7
100
AcDbLine
 10
278.5607442081
 20
836.8251429691
 30
0.0
 11
278.5607442081
 21
561.4158370589
 31
0.0
  0
LINE
  5
102
330
DB
100
AcDbEntity
  8
$DDT_AUDIT_GENERATED_(8B)
  6
Continuous
 62
     7
100
AcDbLine
 10
278.5607442081
 20
528.105737156
 30
0.0
 11
278.5607442081
 21
252.5295889552
 31
0.0
  0
LINE
  5
103
330
DB
100
AcDbEntity
  8
$DDT_AUDIT_GENERATED_(DD)
  6
Continuous
 62
     7
100
AcDbLine
 10
239.4607442081
 20
868.7116194181
 30
0.0
 11
239.4607442081
 21
869.1250997845
 31
0.0
  0
LINE
  5
104
330
DB
100
AcDbEntity
  8
$DDT_AUDIT_GENERATED_(DD)
  6
Continuous
 62
     7
100
AcDbLine
 10
239.4607442081
 20
841.014028947
 30
0.0
 11
239.4607442081
 21
840.6004628317
 31
0.0
  0
LINE
  5
105
330
DB
100
AcDbEntity
  8
$DDT_AUDIT_GENERATED_(DD)
  6
Continuous
 62
     7
100
AcDbLine
 10
286.9607442081
 20
841.0416981614
 30
0.0
 11
286.9607442081
 21
840.9432035807
 31
0.0
  0
SPLINE
  5
106
330
DB
100
AcDbEntity
  8
$DDT_AUDIT_GENERATED_(DD)
  6
Continuous
 62
     7
100
AcDbSpline
210
0.0
220
0.0
230
1.0
 70
     8
 71
     3
 72
     8
 73
     4
 74
     0
 42
0.000000035007153
 43
0.0000000001
 40
0.5905730380128452
 40
0.5905730380128452
 40
0.5905730380128452
 40
0.5905730380128452
 40
1.0
 40
1.0
 40
1.0
 40
1.0
 10
284.4258473668765
 20
839.96636804604
 30
0.0
 10
284.39379515143
 20
839.9554945475029
 30
0.0
 10
284.3535378420593
 20
839.9582010387913
 30
0.0
 10
284.3132454364448
 20
839.9725187344898
 30
0.0
  0
SPLINE
  5
107
330
DB
100
AcDbEntity
  8
$DDT_AUDIT_GENERATED_(DD)
  6
Continuous
 62
     7
100
AcDbSpline
210
0.0
220
0.0
230
1.0
 70
     8
 71
     3
 72
     8
 73
     4
 74
     0
 42
0.0000000673025019
 43
0.0000000001
 40
0.7106076428208961
 40
0.7106076428208961
 40
0.7106076428208961
 40
0.7106076428208961
 40
1.0
 40
1.0
 40
1.0
 40
1.0
 10
283.3029324556287
 20
839.5284360779912
 30
0.0
 10
283.2974806072716
 20
839.5312834098513
 30
0.0
 10
283.2916674945772
 20
839.5447919301756
 30
0.0
 10
283.2869625453652
 20
839.566428221653
 30
0.0
  0
SPLINE
  5
108
330
DB
100
AcDbEntity
  8
$DDT_AUDIT_GENERATED_(DD)
  6
Continuous
 62
     7
100
AcDbSpline
210
0.0
220
0.0
230
1.0
 70
     8
 71
     3
 72
     8
 73
     4
 74
     0
 42
0.0000000334416905
 43
0.0000000001
 40
0.5772554928596357
 40
0.5772554928596357
 40
0.5772554928596357
 40
0.5772554928596357
 40
1.0
 40
1.0
 40
1.0
 40
1.0
 10
281.2761225655002
 20
838.5637122391722
 30
0.0
 10
281.2405535430735
 20
838.5462112213066
 30
0.0
 10
281.1973334647788
 20
838.5396270292846
 30
0.0
 10
281.1545103724329
 20
838.5440635516235
 30
0.0
  0
SPLINE
  5
109
330
DB
100
AcDbEntity
  8
$DDT_AUDIT_GENERATED_(DD)
  6
Continuous
 62
     7
100
AcDbSpline
210
0.0
220
0.0
230
1.0
 70
     8
 71
     3
 72
     8
 73
     4
 74
     0
 42
0.000000053103999
 43
0.0000000001
 40
0.7973873927868464
 40
0.7973873927868464
 40
0.7973873927868464
 40
0.7973873927868464
 40
1.0
 40
1.0
 40
1.0
 40
1.0
 10
280.4329451329087
 20
838.1157937491474
 30
0.0
 10
280.421647692154
 20
838.1168004005244
 30
0.0
 10
280.4099703062228
 20
838.1217237126039
 30
0.0
 10
280.3986721821669
 20
838.1302243642044
 30
0.0
  0
ARC
  5
10A
330
DB
100
AcDbEntity
  8
$DDT_AUDIT_GENERATED_(DD)
  6
Continuous
 62
     7
100
AcDbCircle
 10
279.0016687591
 20
837.5175281143
 30
0.0
 40
0.216672739316072
100
AcDbArc
 50
268.7997976875
 51
305.8847494904
  0
ARC
  5
10B
330
DB
100
AcDbEntity
  8
$DDT_AUDIT_GENERATED_(DD)
  6
Continuous
 62
     7
100
AcDbCircle
 10
278.10491626
 20
836.9443567864
 30
0.0
 40
0.2066618867813223
100
AcDbArc
 50
271.072531347
 51
305.9764604548
  0
LINE
  5
10C
330
DB
100
AcDbEntity
  8
$DDT_AUDIT_GENERATED_(DD)
  6
Continuous
 62
     7
100
AcDbLine
 10
239.4607442081
 20
873.4695703449
 30
0.0
 11
239.4607442081
 21
869.28005856
 31
0.0
  0
ARC
  5
10D
330
DB
100
AcDbEntity
  8
$DDT_AUDIT_GENERATED_(DD)
  6
Continuous
 62
     7
100
AcDbCircle
 10
288.00397099
 20
890.8694327474
 30
0.0
 40
22.09639089013319
100
AcDbArc
 50
277.9293802625
 51
304.7583384275
  0
LINE
  5
10E
330
DB
100
AcDbEntity
  8
$DDT_AUDIT_GENERATED_(DD)
  6
Continuous
 62
     7
100
AcDbLine
 10
239.4607442081
 20
869.1250997845
 30
0.0
 11
239.4607442081
 21
869.28005856
 31
0.0
  0
LINE
  5
10F
330
DB
100
AcDbEntity
  8
$DDT_AUDIT_GENERATED_(DD)
  6
Continuous
 62
     7
100
AcDbLine
 10
290.4823743053
 20
868.755321774
 30
0.0
 11
290.4823743053
 21
868.7549283598
 31
0.0
  0
ARC
  5
110
330
DB
100
AcDbEntity
  8
$DDT_AUDIT_GENERATED_(DD)
  6
Continuous
 62
     7
100
AcDbCircle
 10
287.7484153572
 20
868.6993801617
 30
0.0
 40
2.734531220122882
100
AcDbArc
 50
1.1722089228
 51
4.4512541406
  0
LINE
  5
111
330
DB
100
AcDbEntity
  8
$DDT_AUDIT_GENERATED_(DD)
  6
Continuous
 62
     7
100
AcDbLine
 10
239.4607442081
 20
836.2560780202
 30
0.0
 11
239.4607442081
 21
840.4455031245
 31
0.0
  0
LINE
  5
112
330
DB
100
AcDbEntity
  8
$DDT_AUDIT_GENERATED_(DD)
  6
Continuous
 62
     7
100
AcDbLine
 10
239.4607442081
 20
840.4455031245
 30
0.0
 11
239.4607442081
 21
840.6004628317
 31
0.0
  0
LINE
  5
113
330
DB
100
AcDbEntity
  8
$DDT_AUDIT_GENERATED_(DD)
  6
Continuous
 62
     7
100
AcDbLine
 10
286.9607442081
 20
840.9432035807
 30
0.0
 11
286.9607442081
 21
840.8386784275
 31
0.0
  0
ELLIPSE
  5
114
330
DB
100
AcDbEntity
  8
$DDT_AUDIT_GENERATED_(DD)
  6
Continuous
 62
     7
100
AcDbEllipse
 10
286.7607442081
 20
840.8386784275
 30
0.0
 11
-0.04046479182036322
 21
0.1958637297279076
 31
0.0
210
0.0
220
0.0
230
0.9999999999999999
 40
0.2318704133
 41
3.141592653589793
 42
3.17557985501426
  0
LINE
  5
115
330
DB
100
AcDbEntity
  8
$DDT_AUDIT_GENERATED_(DD)
  6
Continuous
 62
     7
100
AcDbLine
 10
300.5911072682
 20
872.7226849081
 30
0.0
 11
239.4607442081
 21
873.4695703449
 31
0.0
  0
LINE
  5
116
330
DB
100
AcDbEntity
  8
$DDT_AUDIT_GENERATED_(DD)
  6
Continuous
 62
     7
100
AcDbLine
 10
239.4607442081
 20
836.2560780202
 30
0.0
 11
278.3852337179
 21
836.7316540334
 31
0.0
  0
LINE
  5
117
330
DB
100
AcDbEntity
  8
$DDT_AUDIT_GENERATED_(DD)
  6
Continuous
 62
     7
100
AcDbLine
 10
279.3072384263
 20
837.3993380672
 30
0.0
 11
279.3077309321
 21
837.4557736457
 31
0.0
  0
ARC
  5
118
330
DB
100
AcDbEntity
  8
$DDT_AUDIT_GENERATED_(DD)
  6
Continuous
 62
     7
100
AcDbCircle
 10
289.8562648201
 20
825.2343050693
 30
0.0
 40
15.70092390697724
100
AcDbArc
 50
101.2076600344
 51
110.2363373813
  0
SPLINE
  5
119
330
DB
100
AcDbEntity
  8
$DDT_AUDIT_GENERATED_(DD)
  6
Continuous
 62
     7
100
AcDbSpline
210
0.0
220
0.0
230
1.0
 70
     8
 71
     3
 72
    12
 73
     8
 74
     0
 42
0.0000000096696789
 43
0.0000000001
 40
0.0
 40
0.0
 40
0.0
 40
0.0
 40
0.032896972194308
 40
0.2707803171879641
 40
0.5148848344222328
 40
0.773412849932933
 40
1.0
 40
1.0
 40
1.0
 40
1.0
 10
283.6643992154299
 20
839.5155709249453
 30
0.0
 10
283.6787694732906
 20
839.5155735768947
 30
0.0
 10
283.7806879964532
 20
839.515775148485
 30
0.0
 10
283.9823917822665
 20
839.5710779035314
 30
0.0
 10
284.2149600993424
 20
839.6794997431414
 30
0.0
 10
284.3987257682135
 20
839.8392537577986
 30
0.0
 10
284.452717695919
 20
839.9629526583655
 30
0.0
 10
284.4804915934765
 20
840.0311734015448
 30
0.0
  0
ARC
  5
11A
330
DB
100
AcDbEntity
  8
$DDT_AUDIT_GENERATED_(DD)
  6
Continuous
 62
     7
100
AcDbCircle
 10
283.5346022886
 20
840.4295501928
 30
0.0
 40
0.9231496868440129
100
AcDbArc
 50
255.550077306
 51
278.0826975858
  0
ARC
  5
11B
330
DB
100
AcDbEntity
  8
$DDT_AUDIT_GENERATED_(DD)
  6
Continuous
 62
     7
100
AcDbCircle
 10
288.091753874
 20
827.5341464218
 30
0.0
 40
12.91283377586159
100
AcDbArc
 50
111.7433223624
 51
116.0075255312
  0
ARC
  5
11C
330
DB
100
AcDbEntity
  8
$DDT_AUDIT_GENERATED_(DD)
  6
Continuous
 62
     7
100
AcDbCircle
 10
290.6390211428
 20
821.0650929866
 30
0.0
 40
19.85130276825867
100
AcDbArc
 50
114.4277163669
 51
118.1506453881
  0
SPLINE
  5
11D
330
DB
100
AcDbEntity
  8
$DDT_AUDIT_GENERATED_(DD)
  6
Continuous
 62
     7
100
AcDbSpline
210
0.0
220
0.0
230
1.0
 70
     8
 71
     3
 72
    13
 73
     9
 74
     0
 42
0.0000000083675946
 43
0.0000000001
 40
0.0
 40
0.0
 40
0.0
 40
0.0
 40
0.0796467335215903
 40
0.2783819721007328
 40
0.4831824169306211
 40
0.705153336434225
 40
0.8825527828782334
 40
1.0
 40
1.0
 40
1.0
 40
1.0
 10
280.4326792512564
 20
838.1201996847592
 30
0.0
 10
280.4743423667459
 20
838.1194941554344
 30
0.0
 10
280.5996176149922
 20
838.1179603805575
 30
0.0
 10
280.8277478550667
 20
838.1570824775806
 30
0.0
 10
281.0696747029856
 20
838.2378766453644
 30
0.0
 10
281.2464807552445
 20
838.3572408162614
 30
0.0
 10
281.354886314064
 20
838.5100030948724
 30
0.0
 10
281.3572742199669
 20
838.6061436741151
 30
0.0
 10
281.357623863195
 20
838.6509385187164
 30
0.0
  0
ARC
  5
11E
330
DB
100
AcDbEntity
  8
$DDT_AUDIT_GENERATED_(DD)
  6
Continuous
 62
     7
100
AcDbCircle
 10
290.764587091
 20
819.2172969696
 30
0.0
 40
21.53406904939309
100
AcDbArc
 50
118.5848487701
 51
120.9008906601
  0
ARC
  5
11F
330
DB
100
AcDbEntity
  8
$DDT_AUDIT_GENERATED_(DD)
  6
Continuous
 62
     7
100
AcDbCircle
 10
294.8162092758
 20
812.0723194684
 30
0.0
 40
29.74622053920643
100
AcDbArc
 50
120.5294996477
 51
121.8326211449
  0
SPLINE
  5
120
330
DB
100
AcDbEntity
  8
$DDT_AUDIT_GENERATED_(DD)
  6
Continuous
 62
     7
100
AcDbSpline
210
0.0
220
0.0
230
1.0
 70
     8
 71
     3
 72
    13
 73
     9
 74
     0
 42
0.0000000116629537
 43
0.0000000001
 40
0.0
 40
0.0
 40
0.0
 40
0.0
 40
0.1852163982445322
 40
0.4454667330424879
 40
0.6986994693917705
 40
0.8729016633899322
 40
0.999553617348556
 40
1.0
 40
1.0
 40
1.0
 40
1.0
 10
278.6220904980891
 20
837.0509505954715
 30
0.0
 10
278.6928610949474
 20
837.0564525923478
 30
0.0
 10
278.8384233501259
 20
837.0686374996473
 30
0.0
 10
279.0342697272043
 20
837.1109008036726
 30
0.0
 10
279.1801454050282
 20
837.1683231867684
 30
0.0
 10
279.2798025891285
 20
837.270833321643
 30
0.0
 10
279.3153682035222
 20
837.3695448446763
 30
0.0
 10
279.3071390894251
 20
837.4037698376908
 30
0.0
 10
279.3071056141926
 20
837.4039090394605
 30
0.0
  0
ARC
  5
121
330
DB
100
AcDbEntity
  8
$DDT_AUDIT_GENERATED_(DD)
  6
Continuous
 62
     7
100
AcDbCircle
 10
293.5025978661
 20
813.0875703463
 30
0.0
 40
28.19022732669236
100
AcDbArc
 50
121.6882334158
 51
122.5200227768
  0
ARC
  5
122
330
DB
100
AcDbEntity
  8
$DDT_AUDIT_GENERATED_(DD)
  6
Continuous
 62
     7
100
AcDbCircle
 10
283.1189445629
 20
829.3407809842
 30
0.0
 40
8.903286216475164
100
AcDbArc
 50
122.4048261855
 51
123.343629071
  0
ARC
  5
123
330
DB
100
AcDbEntity
  8
$DDT_AUDIT_GENERATED_(DD)
  6
Continuous
 62
     7
100
AcDbCircle
 10
278.3915229803
 20
836.9317458046
 30
0.0
 40
0.1999999598542258
100
AcDbArc
 50
268.3721348215
 51
0.04294202
  0
ARC
  5
124
330
DB
100
AcDbEntity
  8
$DDT_AUDIT_GENERATED_(DD)
  6
Continuous
 62
     7
100
AcDbCircle
 10
286.7607442081
 20
840.8386784275
 30
0.0
 40
0.1999999999999832
100
AcDbArc
 50
281.6728908354
 51
0.0
  0
CIRCLE
  5
125
330
DB
100
AcDbEntity
  8
$DDT_AUDIT_GENERATED_(8F)
  6
Continuous
 62
     7
100
AcDbCircle
 10
289.4607442081
 20
544.7607871074
 30
0.0
 40
14.04662112920757
  0
CIRCLE
  5
126
330
DB
100
AcDbEntity
  8
$DDT_AUDIT_GENERATED_(8F)
  6
Continuous
 62
     7
100
AcDbCircle
 10
289.4607442081
 20
544.7607871074
 30
0.0
 40
13.63074179042313
  0
ARC
  5
127
330
DB
100
AcDbEntity
  8
$DDT_AUDIT_GENERATED_(8F)
  6
Continuous
 62
     7
100
AcDbCircle
 10
289.4607187622
 20
544.7609895589
 30
0.0
 40
23.00000000000029
100
AcDbArc
 50
73.6707521697
 51
106.3301654851
  0
CIRCLE
  5
128
330
DB
100
AcDbEntity
  8
$DDT_AUDIT_GENERATED_(8F)
  6
Continuous
 62
     7
100
AcDbCircle
 10
289.4607442081
 20
544.7607871074
 30
0.0
 40
19.90479060140887
  0
LINE
  5
129
330
DB
100
AcDbEntity
  8
$DDT_AUDIT_GENERATED_(8F)
  6
Continuous
 62
     7
100
AcDbLine
 10
296.4551991197
 20
563.3961912988
 30
0.0
 11
296.4310003342
 21
566.169097467
 31
0.0
  0
LINE
  5
12A
330
DB
100
AcDbEntity
  8
$DDT_AUDIT_GENERATED_(8F)
  6
Continuous
 62
     7
100
AcDbLine
 10
282.4905171903
 20
566.1724329514
 30
0.0
 11
282.4662892965
 21
563.3961912988
 31
0.0
  0
ARC
  5
12B
330
DB
100
AcDbEntity
  8
$DDT_AUDIT_GENERATED_(8F)
  6
Continuous
 62
     7
100
AcDbCircle
 10
283.1654644414
 20
566.1846463578
 30
0.0
 40
0.6660548920899314
100
AcDbArc
 50
114.3972539806
 51
181.1133584243
  0
ARC
  5
12C
330
DB
100
AcDbEntity
  8
$DDT_AUDIT_GENERATED_(8F)
  6
Continuous
 62
     7
100
AcDbCircle
 10
295.753907376
 20
566.1852690836
 30
0.0
 40
0.6679100235759253
100
AcDbArc
 50
358.604825181
 51
66.723737904
  0
LINE
  5
12D
330
DB
100
AcDbEntity
  8
$DDT_AUDIT_GENERATED_(D4)
  6
Continuous
 62
     7
100
AcDbLine
 10
309.4607442081
 20
872.7366432868
 30
0.0
 11
309.4607442081
 21
836.9890050784
 31
0.0
  0
LINE
  5
12E
330
DB
100
AcDbEntity
  8
$DDT_AUDIT_GENERATED_(D4)
  6
Continuous
 62
     7
100
AcDbLine
 10
239.4607442081
 20
841.014028947
 30
0.0
 11
239.4607442081
 21
868.7116194181
 31
0.0
  0
ARC
  5
12F
330
DB
100
AcDbEntity
  8
$DDT_AUDIT_GENERATED_(D4)
  6
Continuous
 62
     7
100
AcDbCircle
 10
288.5008815463
 20
889.3708945004
 30
0.0
 40
20.77457558575687
100
AcDbArc
 50
289.6371169848
 51
307.2057708807
  0
ARC
  5
130
330
DB
100
AcDbEntity
  8
$DDT_AUDIT_GENERATED_(D4)
  6
Continuous
 62
     7
100
AcDbCircle
 10
288.5008815463
 20
820.3547538647
 30
0.0
 40
20.774575585759
100
AcDbArc
 50
52.7942291193
 51
63.791036504
  0
ELLIPSE
  5
131
330
DB
100
AcDbEntity
  8
$DDT_AUDIT_GENERATED_(D4)
  6
Continuous
 62
     7
100
AcDbEllipse
 10
289.5822169039
 20
868.4723825413
 30
0.0
 11
-0.0009668656286154764
 21
-0.1999976629135647
 31
0.0
210
0.0
220
0.0
230
1.0
 40
0.0104716618
 41
3.14198176719451
 42
3.193548391331888
  0
ELLIPSE
  5
132
330
DB
100
AcDbEntity
  8
$DDT_AUDIT_GENERATED_(D4)
  6
Continuous
 62
     7
100
AcDbEllipse
 10
289.5822169039
 20
841.2532658238
 30
0.0
 11
0.0
 21
0.1998608870905511
 31
0.0
210
0.0
220
0.0
230
1.0
 40
1.0
 41
3.146036204843724
 42
3.146422173050364
  0
ARC
  5
133
330
DB
100
AcDbEntity
  8
$DDT_AUDIT_GENERATED_(D4)
  6
Continuous
 62
     7
100
AcDbCircle
 10
309.6529806841
 20
878.7335629241
 30
0.0
 40
5.999999999999981
100
AcDbArc
 50
268.1639626617
 51
315.1905532242
  0
ARC
  5
134
330
DB
100
AcDbEntity
  8
$DDT_AUDIT_GENERATED_(D4)
  6
Continuous
 62
     7
100
AcDbCircle
 10
309.6529806841
 20
830.992085441
 30
0.0
 40
5.999999999999915
100
AcDbArc
 50
44.8094467758
 51
91.8360373383
  0
ARC
  5
135
330
DB
100
AcDbEntity
  8
$DDT_AUDIT_GENERATED_(D4)
  6
Continuous
 62
     7
100
AcDbCircle
 10
115.6992030071
 20
854.8628241826
 30
0.0
 40
200.0
100
AcDbArc
 50
4.0469516692
 51
5.5486555275
  0
ARC
  5
136
330
DB
100
AcDbEntity
  8
$DDT_AUDIT_GENERATED_(D4)
  6
Continuous
 62
     7
100
AcDbCircle
 10
115.6992030071
 20
854.8628241826
 30
0.0
 40
200.0
100
AcDbArc
 50
354.4513444725
 51
355.9530483308
  0
ARC
  5
137
330
DB
100
AcDbEntity
  8
$DDT_AUDIT_GENERATED_(D4)
  6
Continuous
 62
     7
100
AcDbCircle
 10
314.2644352505
 20
874.1526801727
 30
0.0
 40
0.5000000000000071
100
AcDbArc
 50
5.5486555275
 51
135.1905532242
  0
ARC
  5
138
330
DB
100
AcDbEntity
  8
$DDT_AUDIT_GENERATED_(D4)
  6
Continuous
 62
     7
100
AcDbCircle
 10
314.2644352505
 20
835.5729681924
 30
0.0
 40
0.4999999999999447
100
AcDbArc
 50
224.8094467758
 51
354.4513444725
  0
ARC
  5
139
330
DB
100
AcDbEntity
  8
$DDT_AUDIT_GENERATED_(D4)
  6
Continuous
 62
     7
100
AcDbCircle
 10
115.6992030071
 20
854.8628241826
 30
0.0
 40
200.0
100
AcDbArc
 50
356.1107618471
 51
3.8892381529
  0
ARC
  5
13A
330
DB
100
AcDbEntity
  8
$DDT_AUDIT_GENERATED_(D4)
  6
Continuous
 62
     7
100
AcDbCircle
 10
315.1007628721
 20
840.7550985179
 30
0.0
 40
0.0999999999999923
100
AcDbArc
 50
355.9530483307
 51
0.0
  0
ARC
  5
13B
330
DB
100
AcDbEntity
  8
$DDT_AUDIT_GENERATED_(D4)
  6
Continuous
 62
     7
100
AcDbCircle
 10
315.1007628721
 20
868.9705498472
 30
0.0
 40
0.1000000000000029
100
AcDbArc
 50
0.0
 51
4.0469516693
  0
LINE
  5
13C
330
DB
100
AcDbEntity
  8
$DDT_AUDIT_GENERATED_(D4)
  6
Continuous
 62
     7
100
AcDbLine
 10
315.2007628721
 20
840.7550985179
 30
0.0
 11
315.2007628721
 21
868.9705498472
 31
0.0
  0
ARC
  5
13D
330
DB
100
AcDbEntity
  8
$DDT_AUDIT_GENERATED_(D4)
  6
Continuous
 62
     7
100
AcDbCircle
 10
315.1388406086
 20
868.4216203454
 30
0.0
 40
0.0999999999999961
100
AcDbArc
 50
3.8892381529
 51
51.7406106791
  0
ARC
  5
13E
330
DB
100
AcDbEntity
  8
$DDT_AUDIT_GENERATED_(D4)
  6
Continuous
 62
     7
100
AcDbCircle
 10
315.1388406086
 20
841.3040280197
 30
0.0
 40
0.0999999999999374
100
AcDbArc
 50
308.2593893209
 51
356.1107618472
  0
LINE
  5
13F
330
DB
100
AcDbEntity
  8
$DDT_AUDIT_GENERATED_(D4)
  6
Continuous
 62
     7
100
AcDbLine
 10
301.0424614529
 20
836.9008458049
 30
0.0
 11
309.4607442081
 21
836.9890050784
 31
0.0
  0
LINE
  5
140
330
DB
100
AcDbEntity
  8
$DDT_AUDIT_GENERATED_(D4)
  6
Continuous
 62
     7
100
AcDbLine
 10
309.4607442081
 20
872.7366432868
 30
0.0
 11
301.0424614529
 21
872.8248025602
 31
0.0
  0
ARC
  5
141
330
DB
100
AcDbEntity
  8
$DDT_AUDIT_GENERATED_(D4)
  6
Continuous
 62
     7
100
AcDbCircle
 10
289.4489633052
 20
884.3015103612
 30
0.0
 40
15.62112598444273
100
AcDbArc
 50
270.4917046338
 51
292.3455313124
  0
SPLINE
  5
142
330
DB
100
AcDbEntity
  8
$DDT_AUDIT_GENERATED_(D4)
  6
Continuous
 62
     7
100
AcDbSpline
210
0.0
220
0.0
230
1.0
 70
     8
 71
     3
 72
     8
 73
     4
 74
     0
 42
0.0000000002003122
 43
0.0000000001
 40
0.0
 40
0.0
 40
0.0
 40
0.0
 40
1.0
 40
1.0
 40
1.0
 40
1.0
 10
289.5831826275378
 20
868.6721483070093
 30
0.0
 10
275.0655408805785
 20
868.7431436659346
 30
0.0
 10
258.4250421192071
 20
868.8224056696973
 30
0.0
 10
239.6616863434237
 20
868.9099343182978
 30
0.0
  0
ARC
  5
143
330
DB
100
AcDbEntity
  8
$DDT_AUDIT_GENERATED_(D4)
  6
Continuous
 62
     7
100
AcDbCircle
 10
239.6607442081
 20
868.7116194181
 30
0.0
 40
0.1999999999999735
100
AcDbArc
 50
89.72779719
 51
180.0
  0
ARC
  5
144
330
DB
100
AcDbEntity
  8
$DDT_AUDIT_GENERATED_(D4)
  6
Continuous
 62
     7
100
AcDbCircle
 10
289.1820204203
 20
823.6734155436
 30
0.0
 40
17.37609434159213
100
AcDbArc
 50
61.2671391167
 51
88.6769532614
  0
LINE
  5
145
330
DB
100
AcDbEntity
  8
$DDT_AUDIT_GENERATED_(D4)
  6
Continuous
 62
     7
100
AcDbLine
 10
239.6616845508
 20
840.816095207
 30
0.0
 11
289.5831792186
 21
841.0542064246
 31
0.0
  0
ARC
  5
146
330
DB
100
AcDbEntity
  8
$DDT_AUDIT_GENERATED_(D4)
  6
Continuous
 62
     7
100
AcDbCircle
 10
239.6607442081
 20
841.014028947
 30
0.0
 40
0.200000000000001
100
AcDbArc
 50
180.0
 51
270.27220281
  0
LINE
  5
147
330
DB
100
AcDbEntity
  8
$DDT_AUDIT_GENERATED_(D4)
  6
Continuous
 62
     7
100
AcDbLine
 10
309.4607442081
 20
252.5325691365
 30
0.0
 11
309.4607442081
 21
216.7849309281
 31
0.0
  0
LINE
  5
148
330
DB
100
AcDbEntity
  8
$DDT_AUDIT_GENERATED_(D4)
  6
Continuous
 62
     7
100
AcDbLine
 10
239.4607442081
 20
220.8099547967
 30
0.0
 11
239.4607442081
 21
248.5075452679
 31
0.0
  0
ARC
  5
149
330
DB
100
AcDbEntity
  8
$DDT_AUDIT_GENERATED_(D4)
  6
Continuous
 62
     7
100
AcDbCircle
 10
288.5008815463
 20
200.1506797145
 30
0.0
 40
20.77457558575758
100
AcDbArc
 50
52.7942291193
 51
63.791036504
  0
ARC
  5
14A
330
DB
100
AcDbEntity
  8
$DDT_AUDIT_GENERATED_(D4)
  6
Continuous
 62
     7
100
AcDbCircle
 10
288.5008815463
 20
269.1668203502
 30
0.0
 40
20.77457558575735
100
AcDbArc
 50
289.6371169849
 51
307.2057708807
  0
ELLIPSE
  5
14B
330
DB
100
AcDbEntity
  8
$DDT_AUDIT_GENERATED_(D4)
  6
Continuous
 62
     7
100
AcDbEllipse
 10
289.5822169039
 20
221.0491916735
 30
0.0
 11
0.0
 21
0.1997496620564624
 31
0.0
210
0.0
220
0.0
230
1.0
 40
1.0
 41
3.145902542486358
 42
3.146426823569043
  0
ELLIPSE
  5
14C
330
DB
100
AcDbEntity
  8
$DDT_AUDIT_GENERATED_(D4)
  6
Continuous
 62
     7
100
AcDbEllipse
 10
289.5822169039
 20
248.2683083911
 30
0.0
 11
-0.0009668656286154763
 21
-0.1999976629134884
 31
0.0
210
0.0
220
0.0
230
1.0
 40
0.0104716618
 41
3.141457552615422
 42
3.1805353156289
  0
ARC
  5
14D
330
DB
100
AcDbEntity
  8
$DDT_AUDIT_GENERATED_(D4)
  6
Continuous
 62
     7
100
AcDbCircle
 10
309.6529806841
 20
258.5294887739
 30
0.0
 40
5.999999999999987
100
AcDbArc
 50
268.1639626617
 51
315.1905532242
  0
ARC
  5
14E
330
DB
100
AcDbEntity
  8
$DDT_AUDIT_GENERATED_(D4)
  6
Continuous
 62
     7
100
AcDbCircle
 10
309.6529806841
 20
210.7880112907
 30
0.0
 40
6.000000000000002
100
AcDbArc
 50
44.8094467758
 51
91.8360373383
  0
ARC
  5
14F
330
DB
100
AcDbEntity
  8
$DDT_AUDIT_GENERATED_(D4)
  6
Continuous
 62
     7
100
AcDbCircle
 10
115.6992030071
 20
234.6587500323
 30
0.0
 40
200.0
100
AcDbArc
 50
4.0469516692
 51
5.5486555275
  0
ARC
  5
150
330
DB
100
AcDbEntity
  8
$DDT_AUDIT_GENERATED_(D4)
  6
Continuous
 62
     7
100
AcDbCircle
 10
115.6992030071
 20
234.6587500323
 30
0.0
 40
200.0
100
AcDbArc
 50
354.4513444725
 51
355.9530483308
  0
ARC
  5
151
330
DB
100
AcDbEntity
  8
$DDT_AUDIT_GENERATED_(D4)
  6
Continuous
 62
     7
100
AcDbCircle
 10
314.2644352505
 20
253.9486060225
 30
0.0
 40
0.500000000000005
100
AcDbArc
 50
5.5486555275
 51
135.1905532242
  0
ARC
  5
152
330
DB
100
AcDbEntity
  8
$DDT_AUDIT_GENERATED_(D4)
  6
Continuous
 62
     7
100
AcDbCircle
 10
314.2644352505
 20
215.3688940421
 30
0.0
 40
0.5000000000000131
100
AcDbArc
 50
224.8094467758
 51
354.4513444725
  0
ARC
  5
153
330
DB
100
AcDbEntity
  8
$DDT_AUDIT_GENERATED_(D4)
  6
Continuous
 62
     7
100
AcDbCircle
 10
115.6992030071
 20
234.6587500323
 30
0.0
 40
200.0
100
AcDbArc
 50
356.1107618471
 51
3.8892381529
  0
ARC
  5
154
330
DB
100
AcDbEntity
  8
$DDT_AUDIT_GENERATED_(D4)
  6
Continuous
 62
     7
100
AcDbCircle
 10
315.1007628721
 20
220.5510243676
 30
0.0
 40
0.0999999999999896
100
AcDbArc
 50
355.9530483308
 51
0.0
  0
ARC
  5
155
330
DB
100
AcDbEntity
  8
$DDT_AUDIT_GENERATED_(D4)
  6
Continuous
 62
     7
100
AcDbCircle
 10
315.1007628721
 20
248.766475697
 30
0.0
 40
0.1000000000000029
100
AcDbArc
 50
0.0
 51
4.0469516692
  0
LINE
  5
156
330
DB
100
AcDbEntity
  8
$DDT_AUDIT_GENERATED_(D4)
  6
Continuous
 62
     7
100
AcDbLine
 10
315.2007628721
 20
220.5510243676
 30
0.0
 11
315.2007628721
 21
248.766475697
 31
0.0
  0
ARC
  5
157
330
DB
100
AcDbEntity
  8
$DDT_AUDIT_GENERATED_(D4)
  6
Continuous
 62
     7
100
AcDbCircle
 10
315.1388406086
 20
248.2175461952
 30
0.0
 40
0.0999999999999971
100
AcDbArc
 50
3.8892381529
 51
51.7406106792
  0
ARC
  5
158
330
DB
100
AcDbEntity
  8
$DDT_AUDIT_GENERATED_(D4)
  6
Continuous
 62
     7
100
AcDbCircle
 10
315.1388406086
 20
221.0999538695
 30
0.0
 40
0.0999999999999303
100
AcDbArc
 50
308.2593893208
 51
356.1107618471
  0
LINE
  5
159
330
DB
100
AcDbEntity
  8
$DDT_AUDIT_GENERATED_(D4)
  6
Continuous
 62
     7
100
AcDbLine
 10
301.0424614529
 20
216.6967716546
 30
0.0
 11
309.4607442081
 21
216.7849309281
 31
0.0
  0
LINE
  5
15A
330
DB
100
AcDbEntity
  8
$DDT_AUDIT_GENERATED_(D4)
  6
Continuous
 62
     7
100
AcDbLine
 10
309.4607442081
 20
252.5325691365
 30
0.0
 11
301.0424614529
 21
252.62072841
 31
0.0
  0
ARC
  5
15B
330
DB
100
AcDbEntity
  8
$DDT_AUDIT_GENERATED_(D4)
  6
Continuous
 62
     7
100
AcDbCircle
 10
239.6607442081
 20
220.8099547967
 30
0.0
 40
0.1999999999999971
100
AcDbArc
 50
180.0
 51
270.27220281
  0
LINE
  5
15C
330
DB
100
AcDbEntity
  8
$DDT_AUDIT_GENERATED_(D4)
  6
Continuous
 62
     7
100
AcDbLine
 10
239.6616845774
 20
220.6120210569
 30
0.0
 11
289.5831791075
 21
220.8501322738
 31
0.0
  0
ARC
  5
15D
330
DB
100
AcDbEntity
  8
$DDT_AUDIT_GENERATED_(D4)
  6
Continuous
 62
     7
100
AcDbCircle
 10
289.1820314334
 20
203.4693729993
 30
0.0
 40
17.37606133299467
100
AcDbArc
 50
61.2671208599
 51
88.6770959502
  0
ARC
  5
15E
330
DB
100
AcDbEntity
  8
$DDT_AUDIT_GENERATED_(D4)
  6
Continuous
 62
     7
100
AcDbCircle
 10
239.6607442081
 20
248.5075452679
 30
0.0
 40
0.1999999999999943
100
AcDbArc
 50
89.72779719
 51
180.0
  0
SPLINE
  5
15F
330
DB
100
AcDbEntity
  8
$DDT_AUDIT_GENERATED_(D4)
  6
Continuous
 62
     7
100
AcDbSpline
210
0.0
220
0.0
230
1.0
 70
     8
 71
     3
 72
     8
 73
     4
 74
     0
 42
0.0000000002003122
 43
0.0000000001
 40
0.0
 40
0.0
 40
0.0
 40
0.0
 40
1.0
 40
1.0
 40
1.0
 40
1.0
 10
289.5831826412248
 20
248.4680741566938
 30
0.0
 10
275.0655408851408
 20
248.5390695156624
 30
0.0
 10
258.4250421364961
 20
248.618331519366
 30
0.0
 10
239.661686395291
 20
248.7058601678043
 30
0.0
  0
ARC
  5
160
330
DB
100
AcDbEntity
  8
$DDT_AUDIT_GENERATED_(D4)
  6
Continuous
 62
     7
100
AcDbCircle
 10
289.4489669909
 20
264.0974190189
 30
0.0
 40
15.6211086821064
100
AcDbArc
 50
270.4915388493
 51
292.3455427831
  0
ENDBLK
  5
162
330
DB
100
AcDbEntity
  8
0
100
AcDbBlockEnd
  0
BLOCK
  5
1B1
330
163
100
AcDbEntity
  8
0
100
AcDbBlockBegin
  2
SE2
 70
     0
 10
0.0
 20
0.0
 30
0.0
  3
SE2
  1

  0
LINE
  5
165
330
163
100
AcDbEntity
  8
$DDT_AUDIT_GENERATED_(DD)
  6
Continuous
 62
     7
100
AcDbLine
 10
138.9238584449
 20
164.8529644726
 30
0.0
 11
139.2092404764
 21
164.8529644726
 31
0.0
  0
LINE
  5
166
330
163
100
AcDbEntity
  8
$DDT_AUDIT_GENERATED_(DD)
  6
Continuous
 62
     7
100
AcDbLine
 10
115.3244511593
 20
164.8529644726
 30
0.0
 11
138.8503063974
 21
164.8529644726
 31
0.0
  0
LINE
  5
167
330
163
100
AcDbEntity
  8
$DDT_AUDIT_GENERATED_(DD)
  6
Continuous
 62
     7
100
AcDbLine
 10
115.250888046
 20
164.8529644726
 30
0.0
 11
115.3244511593
 21
164.8529644726
 31
0.0
  0
LINE
  5
168
330
163
100
AcDbEntity
  8
$DDT_AUDIT_GENERATED_(DD)
  6
Continuous
 62
     7
100
AcDbLine
 10
138.8503063974
 20
164.8529644726
 30
0.0
 11
138.9238584449
 21
164.8529644726
 31
0.0
  0
LINE
  5
169
330
163
100
AcDbEntity
  8
$DDT_AUDIT_GENERATED_(DD)
  6
Continuous
 62
     7
100
AcDbLine
 10
138.9238584449
 20
164.8529644726
 30
0.0
 11
138.3891419857
 21
113.7931704238
 31
0.0
  0
ARC
  5
16A
330
163
100
AcDbEntity
  8
$DDT_AUDIT_GENERATED_(DD)
  6
Continuous
 62
     7
100
AcDbCircle
 10
127.0889342188
 20
114.8551517906
 30
0.0
 40
11.35
100
AcDbArc
 50
185.1753533805
 51
354.6311731317
  0
LINE
  5
16B
330
163
100
AcDbEntity
  8
$DDT_AUDIT_GENERATED_(DD)
  6
Continuous
 62
     7
100
AcDbLine
 10
115.7852048386
 20
113.8313343754
 30
0.0
 11
115.250888046
 21
164.8529644726
 31
0.0
  0
ARC
  5
16C
330
163
100
AcDbEntity
  8
$DDT_AUDIT_GENERATED_(DD)
  6
Continuous
 62
     7
100
AcDbCircle
 10
115.8756568331
 20
113.3176622027
 30
0.0
 40
0.5215751760796016
100
AcDbArc
 50
91.6911215894
 51
99.9867726537
  0
ARC
  5
16D
330
163
100
AcDbEntity
  8
$DDT_AUDIT_GENERATED_(DD)
  6
Continuous
 62
     7
100
AcDbCircle
 10
138.2991978799
 20
113.3063837537
 30
0.0
 40
0.4950264683053751
100
AcDbArc
 50
79.5314636749
 51
88.2753674022
  0
LINE
  5
16E
330
163
100
AcDbEntity
  8
$DDT_AUDIT_GENERATED_(DD)
  6
Continuous
 62
     7
100
AcDbLine
 10
114.964921447
 20
164.8529644726
 30
0.0
 11
115.250888046
 21
164.8529644726
 31
0.0
  0
LINE
  5
16F
330
163
100
AcDbEntity
  8
$DDT_AUDIT_GENERATED_(8F)
  6
Continuous
 62
     7
100
AcDbLine
 10
84.7370809617
 20
132.8529644726
 30
0.0
 11
84.7370809617
 21
96.8529644726
 31
0.0
  0
LINE
  5
170
330
163
100
AcDbEntity
  8
$DDT_AUDIT_GENERATED_(8F)
  6
Continuous
 62
     7
100
AcDbLine
 10
78.992500866
 20
100.8063433434
 30
0.0
 11
78.992500866
 21
128.8995856018
 31
0.0
  0
LINE
  5
171
330
163
100
AcDbEntity
  8
$DDT_AUDIT_GENERATED_(8F)
  6
Continuous
 62
     7
100
AcDbLine
 10
78.9636556073
 20
128.483706263
 30
0.0
 11
78.9636556073
 21
101.2222226822
 31
0.0
  0
LINE
  5
172
330
163
100
AcDbEntity
  8
$DDT_AUDIT_GENERATED_(8F)
  6
Continuous
 62
     7
100
AcDbLine
 10
108.8153122413
 20
132.8529644726
 30
0.0
 11
84.7370809617
 21
132.8529644726
 31
0.0
  0
LINE
  5
173
330
163
100
AcDbEntity
  8
$DDT_AUDIT_GENERATED_(8F)
  6
Continuous
 62
     7
100
AcDbLine
 10
84.7370809617
 20
96.8529644726
 30
0.0
 11
109.1923171409
 21
96.8529644726
 31
0.0
  0
ARC
  5
174
330
163
100
AcDbEntity
  8
$DDT_AUDIT_GENERATED_(8F)
  6
Continuous
 62
     7
100
AcDbCircle
 10
84.5448444857
 20
90.8560448352
 30
0.0
 40
6.00000000000001
100
AcDbArc
 50
88.1639626617
 51
135.050652095
  0
ARC
  5
175
330
163
100
AcDbEntity
  8
$DDT_AUDIT_GENERATED_(8F)
  6
Continuous
 62
     7
100
AcDbCircle
 10
84.5448444857
 20
138.84988411
 30
0.0
 40
5.999999999999912
100
AcDbArc
 50
224.949347905
 51
271.8360373383
  0
ARC
  5
176
330
163
100
AcDbEntity
  8
$DDT_AUDIT_GENERATED_(8F)
  6
Continuous
 62
     7
100
AcDbCircle
 10
278.4986221627
 20
114.8529644726
 30
0.0
 40
200.0
100
AcDbArc
 50
184.0273761405
 51
185.5818207176
  0
ARC
  5
177
330
163
100
AcDbEntity
  8
$DDT_AUDIT_GENERATED_(8F)
  6
Continuous
 62
     7
100
AcDbCircle
 10
278.4986221627
 20
114.8529644726
 30
0.0
 40
200.0
100
AcDbArc
 50
174.4181792824
 51
175.9726238595
  0
ARC
  5
178
330
163
100
AcDbEntity
  8
$DDT_AUDIT_GENERATED_(8F)
  6
Continuous
 62
     7
100
AcDbCircle
 10
79.9445889583
 20
95.4481738712
 30
0.0
 40
0.5000000000000094
100
AcDbArc
 50
185.5818207176
 51
315.050652095
  0
ARC
  5
179
330
163
100
AcDbEntity
  8
$DDT_AUDIT_GENERATED_(8F)
  6
Continuous
 62
     7
100
AcDbCircle
 10
79.9445889583
 20
134.257755074
 30
0.0
 40
0.4999999999999925
100
AcDbArc
 50
44.949347905
 51
174.4181792824
  0
ARC
  5
17A
330
163
100
AcDbEntity
  8
$DDT_AUDIT_GENERATED_(8F)
  6
Continuous
 62
     7
100
AcDbCircle
 10
278.4986221627
 20
114.8529644726
 30
0.0
 40
200.0
100
AcDbArc
 50
176.0920507706
 51
183.9079492294
  0
ARC
  5
17B
330
163
100
AcDbEntity
  8
$DDT_AUDIT_GENERATED_(8F)
  6
Continuous
 62
     7
100
AcDbCircle
 10
78.8403761648
 20
101.0047320409
 30
0.0
 40
0.2500000000000306
100
AcDbArc
 50
52.5189642537
 51
60.4542896236
  0
ARC
  5
17C
330
163
100
AcDbEntity
  8
$DDT_AUDIT_GENERATED_(8F)
  6
Continuous
 62
     7
100
AcDbCircle
 10
78.8403761648
 20
128.7011969043
 30
0.0
 40
0.2500000000000002
100
AcDbArc
 50
299.5457103764
 51
307.4810357463
  0
LINE
  5
17E
330
163
100
AcDbEntity
  8
$DDT_AUDIT_GENERATED_(17D)
  6
Continuous
 62
     7
100
AcDbLine
 10
186.2233308247
 20
123.8529644726
 30
0.0
 11
185.3461938574
 21
123.8529644726
 31
0.0
  0
LINE
  5
17F
330
163
100
AcDbEntity
  8
$DDT_AUDIT_GENERATED_(17D)
  6
Continuous
 62
     7
100
AcDbLine
 10
186.2233453927
 20
105.8529644726
 30
0.0
 11
185.3461938574
 21
105.8529644726
 31
0.0
  0
SPLINE
  5
180
330
163
100
AcDbEntity
  8
$DDT_AUDIT_GENERATED_(17D)
  6
Continuous
 62
     7
100
AcDbSpline
210
0.0
220
0.0
230
1.0
 70
     8
 71
     3
 72
    30
 73
    26
 74
     0
 42
0.0000000002432463
 43
0.0000000001
 40
0.0
 40
0.0
 40
0.0
 40
0.0
 40
0.0625000000000002
 40
0.0625000000000002
 40
0.1250000000000004
 40
0.1250000000000004
 40
0.1875000000000004
 40
0.1875000000000004
 40
0.2500000000000004
 40
0.2500000000000004
 40
0.3750000000000003
 40
0.3750000000000003
 40
0.5000000000000002
 40
0.5000000000000002
 40
0.6250000000000002
 40
0.6250000000000002
 40
0.7500000000000001
 40
0.7500000000000001
 40
0.8125000000000001
 40
0.8125000000000001
 40
0.8750000000000001
 40
0.8750000000000001
 40
0.9375000000000001
 40
0.9375000000000001
 40
1.0
 40
1.0
 40
1.0
 40
1.0
 10
180.6339488992895
 20
105.4153358281851
 30
0.0
 10
179.8805998212554
 20
105.0624332903331
 30
0.0
 10
179.0565764262229
 20
104.7925078832368
 30
0.0
 10
177.3356858986799
 20
104.4799184865403
 30
0.0
 10
176.4233249307828
 20
104.4387536989835
 30
0.0
 10
174.6691361726724
 20
104.6003042459507
 30
0.0
 10
173.8101665501121
 20
104.802067449214
 30
0.0
 10
172.2398079758477
 20
105.383025045296
 30
0.0
 10
171.5034190348996
 20
105.7686178111112
 30
0.0
 10
169.5012599220979
 20
107.1361926578936
 30
0.0
 10
168.3876074585758
 20
108.3583997706876
 30
0.0
 10
166.7954033117813
 20
111.2774276113652
 30
0.0
 10
166.3138904137531
 20
113.0432382440276
 30
0.0
 10
166.3044682181848
 20
116.606969267831
 30
0.0
 10
166.7643283984518
 20
118.3557750528421
 30
0.0
 10
168.3748556775558
 20
121.3394855524251
 30
0.0
 10
169.487417486016
 20
122.556715447118
 30
0.0
 10
171.4874873655577
 20
123.9281815233498
 30
0.0
 10
172.2244080790488
 20
124.3159269679822
 30
0.0
 10
173.7990527154234
 20
124.9010082522713
 30
0.0
 10
174.6575643341536
 20
125.1036713068445
 30
0.0
 10
176.4154551633845
 20
125.2673284170091
 30
0.0
 10
177.3291243380412
 20
125.2267295378534
 30
0.0
 10
179.0528880533336
 20
124.9145610183368
 30
0.0
 10
179.878870761221
 20
124.6443056242323
 30
0.0
 10
180.6339488992895
 20
124.2905931170155
 30
0.0
  0
ARC
  5
181
330
163
100
AcDbEntity
  8
$DDT_AUDIT_GENERATED_(17D)
  6
Continuous
 62
     7
100
AcDbCircle
 10
182.5004702774
 20
101.6544848562
 30
0.0
 40
4.198559525382696
100
AcDbArc
 50
89.6465027617
 51
116.395339754
  0
LINE
  5
182
330
163
100
AcDbEntity
  8
$DDT_AUDIT_GENERATED_(17D)
  6
Continuous
 62
     7
100
AcDbLine
 10
182.5263739267
 20
105.8529644726
 30
0.0
 11
185.3461938574
 21
105.8529644726
 31
0.0
  0
LINE
  5
183
330
163
100
AcDbEntity
  8
$DDT_AUDIT_GENERATED_(17D)
  6
Continuous
 62
     7
100
AcDbLine
 10
185.3461938574
 20
105.8529644726
 30
0.0
 11
184.7559773225
 21
105.8185468846
 31
0.0
  0
ARC
  5
184
330
163
100
AcDbEntity
  8
$DDT_AUDIT_GENERATED_(17D)
  6
Continuous
 62
     7
100
AcDbCircle
 10
185.4769543806
 20
99.8369791483
 30
0.0
 40
6.024861865837947
100
AcDbArc
 50
96.8728837682
 51
119.3268063339
  0
LINE
  5
185
330
163
100
AcDbEntity
  8
$DDT_AUDIT_GENERATED_(17D)
  6
Continuous
 62
     7
100
AcDbLine
 10
185.3461938574
 20
123.8529644726
 30
0.0
 11
182.5263739267
 21
123.8529644726
 31
0.0
  0
ARC
  5
186
330
163
100
AcDbEntity
  8
$DDT_AUDIT_GENERATED_(17D)
  6
Continuous
 62
     7
100
AcDbCircle
 10
182.5004702774
 20
128.051444089
 30
0.0
 40
4.19855952538256
100
AcDbArc
 50
243.604660246
 51
270.3534972383
  0
SPLINE
  5
187
330
163
100
AcDbEntity
  8
$DDT_AUDIT_GENERATED_(17D)
  6
Continuous
 62
     7
100
AcDbSpline
210
0.0
220
0.0
230
1.0
 70
     8
 71
     3
 72
    34
 73
    30
 74
     0
 42
0.0000000002025182
 43
0.0000000001
 40
0.0
 40
0.0
 40
0.0
 40
0.0
 40
0.0625000000000003
 40
0.0625000000000003
 40
0.1250000000000007
 40
0.1250000000000007
 40
0.1875000000000006
 40
0.1875000000000006
 40
0.2500000000000006
 40
0.2500000000000006
 40
0.3750000000000005
 40
0.3750000000000005
 40
0.4375000000000004
 40
0.4375000000000004
 40
0.5000000000000003
 40
0.5000000000000003
 40
0.5625000000000003
 40
0.5625000000000003
 40
0.6250000000000003
 40
0.6250000000000003
 40
0.7500000000000001
 40
0.7500000000000001
 40
0.8125000000000001
 40
0.8125000000000001
 40
0.8750000000000001
 40
0.8750000000000001
 40
0.9375000000000001
 40
0.9375000000000001
 40
1.0
 40
1.0
 40
1.0
 40
1.0
 10
182.5260348566158
 20
124.6162329317813
 30
0.0
 10
181.6867238426337
 20
125.1109869906071
 30
0.0
 10
180.7666512444265
 20
125.5125254180403
 30
0.0
 10
178.7817039234045
 20
126.0815016006969
 30
0.0
 10
177.7012518779243
 20
126.2468024252157
 30
0.0
 10
175.5481442334477
 20
126.2814445776626
 30
0.0
 10
174.4598242638847
 20
126.1502687240762
 30
0.0
 10
172.462854654147
 20
125.6473431699284
 30
0.0
 10
171.5239438186125
 20
125.2735437154261
 30
0.0
 10
168.9688472357863
 20
123.8789222540077
 30
0.0
 10
167.5262355745766
 20
122.5563087716523
 30
0.0
 10
165.9259524952802
 20
120.0251835986859
 30
0.0
 10
165.4841720160799
 20
119.0731816899622
 30
0.0
 10
164.8820282825889
 20
117.0544219696621
 30
0.0
 10
164.7176860241526
 20
115.965887776226
 30
0.0
 10
164.7109490183527
 20
113.8102009882266
 30
0.0
 10
164.8686007855608
 20
112.7182586249538
 30
0.0
 10
165.461263126465
 20
110.6890985014684
 30
0.0
 10
165.8967661755784
 20
109.7360638185387
 30
0.0
 10
167.4989590438724
 20
107.1751646157117
 30
0.0
 10
168.9447642092401
 20
105.8450495070906
 30
0.0
 10
171.5021352008489
 20
104.4418881540301
 30
0.0
 10
172.4132698011773
 20
104.0750350991521
 30
0.0
 10
174.4248831625424
 20
103.5606612392443
 30
0.0
 10
175.5077361805841
 20
103.4259251517039
 30
0.0
 10
177.6954696190782
 20
103.4569862485186
 30
0.0
 10
178.7709657710853
 20
103.622233914245
 30
0.0
 10
180.7584813503367
 20
104.1901854282671
 30
0.0
 10
181.6775593435158
 20
104.5895396983854
 30
0.0
 10
182.526034856616
 20
105.0896960134192
 30
0.0
  0
ARC
  5
188
330
163
100
AcDbEntity
  8
$DDT_AUDIT_GENERATED_(17D)
  6
Continuous
 62
     7
100
AcDbCircle
 10
185.4769543806
 20
129.868949797
 30
0.0
 40
6.024861865856179
100
AcDbArc
 50
240.6731936661
 51
263.1271162318
  0
LINE
  5
189
330
163
100
AcDbEntity
  8
$DDT_AUDIT_GENERATED_(17D)
  6
Continuous
 62
     7
100
AcDbLine
 10
184.7559773225
 20
123.8873820606
 30
0.0
 11
185.3461938574
 21
123.8529644726
 31
0.0
  0
LINE
  5
18A
330
163
100
AcDbEntity
  8
$DDT_AUDIT_GENERATED_(C2)
  6
Continuous
 62
     7
100
AcDbLine
 10
189.4370809617
 20
123.8529644726
 30
0.0
 11
186.3646356333
 21
123.8529644726
 31
0.0
  0
ARC
  5
18B
330
163
100
AcDbEntity
  8
$DDT_AUDIT_GENERATED_(C2)
  6
Continuous
 62
     7
100
AcDbCircle
 10
189.4370809617
 20
104.8529644726
 30
0.0
 40
0.9999999999999936
100
AcDbArc
 50
0.0
 51
90.0
  0
ARC
  5
18C
330
163
100
AcDbEntity
  8
$DDT_AUDIT_GENERATED_(C2)
  6
Continuous
 62
     7
100
AcDbCircle
 10
189.4370809617
 20
124.8529644726
 30
0.0
 40
1.000000000000006
100
AcDbArc
 50
270.0
 51
0.0
  0
LINE
  5
18D
330
163
100
AcDbEntity
  8
$DDT_AUDIT_GENERATED_(C2)
  6
Continuous
 62
     7
100
AcDbLine
 10
190.4370809617
 20
104.8529644726
 30
0.0
 11
190.4370809617
 21
97.3529644726
 31
0.0
  0
LINE
  5
18E
330
163
100
AcDbEntity
  8
$DDT_AUDIT_GENERATED_(C2)
  6
Continuous
 62
     7
100
AcDbLine
 10
190.4370809617
 20
132.3529644726
 30
0.0
 11
190.4370809617
 21
124.8529644726
 31
0.0
  0
LINE
  5
18F
330
163
100
AcDbEntity
  8
$DDT_AUDIT_GENERATED_(C2)
  6
Continuous
 62
     7
100
AcDbLine
 10
186.3646356333
 20
123.8529644726
 30
0.0
 11
186.2251094358
 21
123.8529644726
 31
0.0
  0
SPLINE
  5
190
330
163
100
AcDbEntity
  8
$DDT_AUDIT_GENERATED_(C2)
  6
Continuous
 62
     7
100
AcDbSpline
210
0.0
220
0.0
230
1.0
 70
     8
 71
     3
 72
    40
 73
    36
 74
     0
 42
0.0000000001605497
 43
0.0000000001
 40
0.0
 40
0.0
 40
0.0
 40
0.0
 40
0.0625000000000003
 40
0.0625000000000003
 40
0.1250000000000006
 40
0.1250000000000006
 40
0.1562500000000007
 40
0.1562500000000007
 40
0.1875000000000009
 40
0.1875000000000009
 40
0.2500000000000008
 40
0.2500000000000008
 40
0.3125000000000008
 40
0.3125000000000008
 40
0.3750000000000008
 40
0.3750000000000008
 40
0.4375000000000008
 40
0.4375000000000008
 40
0.5000000000000008
 40
0.5000000000000008
 40
0.5625000000000008
 40
0.5625000000000008
 40
0.6250000000000007
 40
0.6250000000000007
 40
0.6875000000000007
 40
0.6875000000000007
 40
0.7500000000000006
 40
0.7500000000000006
 40
0.8125000000000006
 40
0.8125000000000006
 40
0.8750000000000004
 40
0.8750000000000004
 40
0.9375000000000002
 40
0.9375000000000002
 40
1.0
 40
1.0
 40
1.0
 40
1.0
 10
185.8574325539535
 20
124.0050320954547
 30
0.0
 10
184.9804386830822
 20
124.8619121870119
 30
0.0
 10
183.9831472809577
 20
125.5931675447634
 30
0.0
 10
181.8076873812335
 20
126.7616801630238
 30
0.0
 10
180.6366265337188
 20
127.2049602220696
 30
0.0
 10
178.6581776539759
 20
127.6268579537464
 30
0.0
 10
177.9852668684097
 20
127.7200497369098
 30
0.0
 10
176.6075224155998
 20
127.8063249531761
 30
0.0
 10
175.9020770779354
 20
127.7972973275042
 30
0.0
 10
173.8603613824976
 20
127.6196792407263
 30
0.0
 10
172.5603673177698
 20
127.3013135039041
 30
0.0
 10
170.2130277291887
 20
126.3756512797548
 30
0.0
 10
169.1357656760176
 20
125.7608655919197
 30
0.0
 10
167.2069982559028
 20
124.2785025909068
 30
0.0
 10
166.3287635881044
 20
123.3878737750264
 30
0.0
 10
164.8463315645432
 20
121.3506937942264
 30
0.0
 10
164.2290851363769
 20
120.1829283265341
 30
0.0
 10
163.3766956313735
 20
117.6488578690526
 30
0.0
 10
163.1412447545891
 20
116.2611234297162
 30
0.0
 10
163.1339958357026
 20
113.5119525112864
 30
0.0
 10
163.3618981975515
 20
112.1221732307397
 30
0.0
 10
164.2042398841238
 20
109.5767159846117
 30
0.0
 10
164.8156166794937
 20
108.4057606709984
 30
0.0
 10
166.3023611582742
 20
106.3463337837037
 30
0.0
 10
167.1687306517773
 20
105.4626171521378
 30
0.0
 10
169.097724651423
 20
103.968743794484
 30
0.0
 10
170.1762782800227
 20
103.3492856686941
 30
0.0
 10
172.5150778492239
 20
102.4181146663764
 30
0.0
 10
173.812502403621
 20
102.0948000515576
 30
0.0
 10
176.5437617309705
 20
101.8485588166513
 30
0.0
 10
177.9664536388786
 20
101.9355115452035
 30
0.0
 10
180.5925560716362
 20
102.4877355443849
 30
0.0
 10
181.7954605710804
 20
102.9382137462872
 30
0.0
 10
183.9865574074363
 20
104.1140628374558
 30
0.0
 10
184.967718598866
 20
104.8315884080145
 30
0.0
 10
185.8574325539534
 20
105.7008968497458
 30
0.0
  0
ARC
  5
191
330
163
100
AcDbEntity
  8
$DDT_AUDIT_GENERATED_(C2)
  6
Continuous
 62
     7
100
AcDbCircle
 10
186.2304637148
 20
124.3864381257
 30
0.0
 40
0.5335005218667112
100
AcDbArc
 50
225.6360038556
 51
269.4249626279
  0
ARC
  5
192
330
163
100
AcDbEntity
  8
$DDT_AUDIT_GENERATED_(C2)
  6
Continuous
 62
     7
100
AcDbCircle
 10
186.2285593588
 20
105.3240952688
 30
0.0
 40
0.5288804559944529
100
AcDbArc
 50
90.3737469023
 51
134.5652866143
  0
LINE
  5
193
330
163
100
AcDbEntity
  8
$DDT_AUDIT_GENERATED_(C2)
  6
Continuous
 62
     7
100
AcDbLine
 10
186.3646356333
 20
105.8529644726
 30
0.0
 11
189.4370809617
 21
105.8529644726
 31
0.0
  0
LINE
  5
194
330
163
100
AcDbEntity
  8
$DDT_AUDIT_GENERATED_(C2)
  6
Continuous
 62
     7
100
AcDbLine
 10
186.2251094358
 20
105.8529644726
 30
0.0
 11
186.3646356333
 21
105.8529644726
 31
0.0
  0
LINE
  5
195
330
163
100
AcDbEntity
  8
$DDT_AUDIT_GENERATED_(C2)
  6
Continuous
 62
     7
100
AcDbLine
 10
144.9818447826
 20
96.8529644726
 30
0.0
 11
189.9370809617
 21
96.8529644726
 31
0.0
  0
LINE
  5
196
330
163
100
AcDbEntity
  8
$DDT_AUDIT_GENERATED_(C2)
  6
Continuous
 62
     7
100
AcDbLine
 10
189.9370809617
 20
132.8529644726
 30
0.0
 11
145.3588496822
 21
132.8529644726
 31
0.0
  0
ARC
  5
197
330
163
100
AcDbEntity
  8
$DDT_AUDIT_GENERATED_(C2)
  6
Continuous
 62
     7
100
AcDbCircle
 10
189.9370809617
 20
97.3529644726
 30
0.0
 40
0.5000000000000004
100
AcDbArc
 50
270.0
 51
0.0
  0
ARC
  5
198
330
163
100
AcDbEntity
  8
$DDT_AUDIT_GENERATED_(C2)
  6
Continuous
 62
     7
100
AcDbCircle
 10
189.9370809617
 20
132.3529644726
 30
0.0
 40
0.5000000000000004
100
AcDbArc
 50
0.0
 51
90.0
  0
LINE
  5
199
330
163
100
AcDbEntity
  8
$DDT_AUDIT_GENERATED_(D4)
  6
Continuous
 62
     7
100
AcDbLine
 10
144.9609000659
 20
94.8529644726
 30
0.0
 11
109.2132618575
 21
94.8529644726
 31
0.0
  0
LINE
  5
19A
330
163
100
AcDbEntity
  8
$DDT_AUDIT_GENERATED_(D4)
  6
Continuous
 62
     7
100
AcDbLine
 10
114.964921447
 20
164.8529644726
 30
0.0
 11
108.6823022134
 21
164.8529644726
 31
0.0
  0
LINE
  5
19B
330
163
100
AcDbEntity
  8
$DDT_AUDIT_GENERATED_(D4)
  6
Continuous
 62
     7
100
AcDbLine
 10
145.4918597101
 20
164.8529644726
 30
0.0
 11
139.2092404764
 21
164.8529644726
 31
0.0
  0
LINE
  5
19C
330
163
100
AcDbEntity
  8
$DDT_AUDIT_GENERATED_(D4)
  6
Continuous
 62
     7
100
AcDbLine
 10
115.1649104809
 20
164.6550588294
 30
0.0
 11
115.687706031
 21
114.7335861337
 31
0.0
  0
ARC
  5
19D
330
163
100
AcDbEntity
  8
$DDT_AUDIT_GENERATED_(D4)
  6
Continuous
 62
     7
100
AcDbCircle
 10
127.0870809617
 20
114.8529644726
 30
0.0
 40
11.4
100
AcDbArc
 50
180.6
 51
359.4
  0
LINE
  5
19E
330
163
100
AcDbEntity
  8
$DDT_AUDIT_GENERATED_(D4)
  6
Continuous
 62
     7
100
AcDbLine
 10
138.4864558925
 20
114.7335861337
 30
0.0
 11
139.0092514425
 21
164.6550588294
 31
0.0
  0
ARC
  5
19F
330
163
100
AcDbEntity
  8
$DDT_AUDIT_GENERATED_(D4)
  6
Continuous
 62
     7
100
AcDbCircle
 10
139.2092404764
 20
164.6529644726
 30
0.0
 40
0.2
100
AcDbArc
 50
90.0
 51
179.4
  0
ARC
  5
1A0
330
163
100
AcDbEntity
  8
$DDT_AUDIT_GENERATED_(D4)
  6
Continuous
 62
     7
100
AcDbCircle
 10
114.964921447
 20
164.6529644726
 30
0.0
 40
0.2
100
AcDbArc
 50
0.6
 51
90.0
  0
ARC
  5
1A1
330
163
100
AcDbEntity
  8
$DDT_AUDIT_GENERATED_(D4)
  6
Continuous
 62
     7
100
AcDbCircle
 10
150.9578197033
 20
94.6607279966
 30
0.0
 40
5.999999999999973
100
AcDbArc
 50
178.1639626617
 51
225.1905532242
  0
ARC
  5
1A2
330
163
100
AcDbEntity
  8
$DDT_AUDIT_GENERATED_(D4)
  6
Continuous
 62
     7
100
AcDbCircle
 10
103.2163422201
 20
94.6607279966
 30
0.0
 40
6.000000000000005
100
AcDbArc
 50
314.8094467758
 51
1.8360373383
  0
ARC
  5
1A3
330
163
100
AcDbEntity
  8
$DDT_AUDIT_GENERATED_(D4)
  6
Continuous
 62
     7
100
AcDbCircle
 10
127.0870809617
 20
288.6145056736
 30
0.0
 40
200.0
100
AcDbArc
 50
274.0469516692
 51
275.5486555275
  0
ARC
  5
1A4
330
163
100
AcDbEntity
  8
$DDT_AUDIT_GENERATED_(D4)
  6
Continuous
 62
     7
100
AcDbCircle
 10
127.0870809617
 20
288.6145056736
 30
0.0
 40
200.0
100
AcDbArc
 50
264.4513444725
 51
265.9530483308
  0
ARC
  5
1A5
330
163
100
AcDbEntity
  8
$DDT_AUDIT_GENERATED_(D4)
  6
Continuous
 62
     7
100
AcDbCircle
 10
146.3769369519
 20
90.0492734302
 30
0.0
 40
0.499999999999996
100
AcDbArc
 50
275.5486555275
 51
45.1905532242
  0
ARC
  5
1A6
330
163
100
AcDbEntity
  8
$DDT_AUDIT_GENERATED_(D4)
  6
Continuous
 62
     7
100
AcDbCircle
 10
107.7972249715
 20
90.0492734302
 30
0.0
 40
0.5000000000000157
100
AcDbArc
 50
134.8094467758
 51
264.4513444725
  0
ARC
  5
1A7
330
163
100
AcDbEntity
  8
$DDT_AUDIT_GENERATED_(D4)
  6
Continuous
 62
     7
100
AcDbCircle
 10
127.0870809617
 20
288.6145056736
 30
0.0
 40
200.0
100
AcDbArc
 50
266.1107618471
 51
273.8892381529
  0
ARC
  5
1A8
330
163
100
AcDbEntity
  8
$DDT_AUDIT_GENERATED_(D4)
  6
Continuous
 62
     7
100
AcDbCircle
 10
112.979355297
 20
89.2129458086
 30
0.0
 40
0.0999999999999962
100
AcDbArc
 50
265.9530483307
 51
270.0
  0
ARC
  5
1A9
330
163
100
AcDbEntity
  8
$DDT_AUDIT_GENERATED_(D4)
  6
Continuous
 62
     7
100
AcDbCircle
 10
141.1948066264
 20
89.2129458086
 30
0.0
 40
0.1000000000000029
100
AcDbArc
 50
270.0
 51
274.0469516692
  0
LINE
  5
1AA
330
163
100
AcDbEntity
  8
$DDT_AUDIT_GENERATED_(D4)
  6
Continuous
 62
     7
100
AcDbLine
 10
112.979355297
 20
89.1129458086
 30
0.0
 11
141.1948066264
 21
89.1129458086
 31
0.0
  0
ARC
  5
1AB
330
163
100
AcDbEntity
  8
$DDT_AUDIT_GENERATED_(D4)
  6
Continuous
 62
     7
100
AcDbCircle
 10
140.6458771246
 20
89.1748680721
 30
0.0
 40
0.0999999999999909
100
AcDbArc
 50
273.8892381528
 51
321.7406106791
  0
ARC
  5
1AC
330
163
100
AcDbEntity
  8
$DDT_AUDIT_GENERATED_(D4)
  6
Continuous
 62
     7
100
AcDbCircle
 10
113.5282847989
 20
89.1748680721
 30
0.0
 40
0.0999999999999303
100
AcDbArc
 50
218.0776738254
 51
266.110761847
  0
LINE
  5
1AD
330
163
100
AcDbEntity
  8
$DDT_AUDIT_GENERATED_(D4)
  6
Continuous
 62
     7
100
AcDbLine
 10
108.4823131795
 20
164.6508701158
 30
0.0
 11
109.2132618575
 21
94.8529644726
 31
0.0
  0
LINE
  5
1AE
330
163
100
AcDbEntity
  8
$DDT_AUDIT_GENERATED_(D4)
  6
Continuous
 62
     7
100
AcDbLine
 10
144.9609000659
 20
94.8529644726
 30
0.0
 11
145.691848744
 21
164.6508701158
 31
0.0
  0
ARC
  5
1AF
330
163
100
AcDbEntity
  8
$DDT_AUDIT_GENERATED_(D4)
  6
Continuous
 62
     7
100
AcDbCircle
 10
145.4918597101
 20
164.6529644726
 30
0.0
 40
0.2000000000000009
100
AcDbArc
 50
359.4
 51
90.0
  0
ARC
  5
1B0
330
163
100
AcDbEntity
  8
$DDT_AUDIT_GENERATED_(D4)
  6
Continuous
 62
     7
100
AcDbCircle
 10
108.6823022134
 20
164.6529644726
 30
0.0
 40
0.2000000000000028
100
AcDbArc
 50
90.0
 51
180.6
  0
ENDBLK
  5
1B2
330
163
100
AcDbEntity
  8
0
100
AcDbBlockEnd
  0
ENDSEC
  0
SECTION
  2
ENTITIES
  0
INSERT
  5
5F
330
1F
100
AcDbEntity
  8
Default
100
AcDbBlockReference
  2
SEANNOT_GROUP
 10
0.0
 20
0.0
 30
0.0
  0
INSERT
  5
6A
330
1F
100
AcDbEntity
  8
Default
100
AcDbBlockReference
  2
SEANNOT_GROUP1
 10
0.0
 20
0.0
 30
0.0
  0
INSERT
  5
70
330
1F
100
AcDbEntity
  8
Default
100
AcDbBlockReference
  2
SEANNOT_GROUP2
 10
0.0
 20
0.0
 30
0.0
  0
INSERT
  5
7A
330
1F
100
AcDbEntity
  8
Default
100
AcDbBlockReference
  2
SEANNOT_GROUP3
 10
0.0
 20
0.0
 30
0.0
  0
INSERT
  5
80
330
1F
100
AcDbEntity
  8
Default
100
AcDbBlockReference
  2
SEANNOT_GROUP4
 10
0.0
 20
0.0
 30
0.0
  0
INSERT
  5
8A
330
1F
100
AcDbEntity
  8
Default
100
AcDbBlockReference
  2
SE
 10
0.0
 20
0.0
 30
0.0
  0
INSERT
  5
DC
330
1F
100
AcDbEntity
  8
Default
100
AcDbBlockReference
  2
SE1
 10
0.0
 20
0.0
 30
0.0
  0
INSERT
  5
164
330
1F
100
AcDbEntity
  8
Default
100
AcDbBlockReference
  2
SE2
 10
0.0
 20
0.0
 30
0.0
  0
TEXT
  5
1B4
330
1F
100
AcDbEntity
  8
Default
  6
Continuous
 62
     7
100
AcDbText
 10
5.9362635081
 20
53.4225120485
 30
0.0
 40
10.0
  1
Grohe AG^J
  7
SEACAD_seiso_ttf
 11
5.9362635081
 21
63.4225120485
 31
0.0
100
AcDbText
 73
     3
  0
TEXT
  5
1B5
330
1F
100
AcDbEntity
  8
Default
  6
Continuous
 62
     7
100
AcDbText
 10
5.9362635081
 20
37.0588756849
 30
0.0
 40
10.0
  1
 
  7
SEACAD_seiso_ttf
 11
5.9362635081
 21
47.0588756849
 31
0.0
100
AcDbText
 73
     3
  0
TEXT
  5
1B6
330
1F
100
AcDbEntity
  8
Default
  6
Continuous
 62
     7
100
AcDbText
 10
5.9362635081
 20
20.6952393213
 30
0.0
 40
10.0
  1
ecn: 
  7
SEACAD_seiso_ttf
 11
5.9362635081
 21
30.6952393213
 31
0.0
100
AcDbText
 73
     3
  0
TEXT
  5
1B7
330
1F
100
AcDbEntity
  8
Default
  6
Continuous
 62
     7
100
AcDbText
 10
5.9362635081
 20
4.3316029576
 30
0.0
 40
10.0
  1
unit: mm
  7
SEACAD_seiso_ttf
 11
5.9362635081
 21
14.3316029576
 31
0.0
100
AcDbText
 73
     3
  0
LINE
  5
1B8
330
1F
100
AcDbEntity
  8
Default
  6
Continuous
 62
     7
100
AcDbLine
 10
0.0
 20
0.0
 30
0.0
 11
100.0
 21
0.0
 31
0.0
  0
LINE
  5
1B9
330
1F
100
AcDbEntity
  8
Default
  6
Continuous
 62
     7
100
AcDbLine
 10
0.0
 20
0.0
 30
0.0
 11
0.0
 21
100.0
 31
0.0
  0
TEXT
  5
1BA
330
1F
100
AcDbEntity
  8
Default
  6
Continuous
 62
     7
100
AcDbText
 10
24.3923665681
 20
-18.2375342018
 30
0.0
 40
10.0
  1
100 mm
  7
SEACAD_seiso_ttf
 11
24.3923665681
 21
-8.2375342018
 31
0.0
100
AcDbText
 73
     3
  0
TEXT
  5
1BB
330
1F
100
AcDbEntity
  8
Default
  6
Continuous
 62
     7
100
AcDbText
 10
-7.6150308803
 20
24.6231930421
 30
0.0
 40
10.0
  1
100 mm
 50
90.0
  7
SEACAD_seiso_ttf
 11
-17.6150308803
 21
24.6231930421
 31
0.0
100
AcDbText
 73
     3
  0
TEXT
  5
1BC
330
1F
100
AcDbEntity
  8
Default
  6
Continuous
 62
     7
100
AcDbText
 10
28.4878128572
 20
20.0907663715
 30
0.0
 40
10.0
  1
219776
  7
SEACAD_seiso_ttf
 11
28.4878128572
 21
30.0907663715
 31
0.0
100
AcDbText
 73
     3
  0
TEXT
  5
1BD
330
1F
100
AcDbEntity
  8
Default
  6
Continuous
 62
     7
100
AcDbText
 10
5.9012241913
 20
36.7242780188
 30
0.0
 40
10.0
  1
27520000
  7
SEACAD_seiso_ttf
 11
5.9012241913
 21
46.7242780188
 31
0.0
100
AcDbText
 73
     3
  0
ENDSEC
  0
SECTION
  2
OBJECTS
  0
DICTIONARY
  5
C
330
0
100
AcDbDictionary
281
     1
  3
ACAD_GROUP
350
D
  3
ACAD_LAYOUT
350
1A
  3
ACAD_MLEADERSTYLE
350
1C1
  3
ACAD_MLINESTYLE
350
17
  3
ACAD_PLOTSETTINGS
350
19
  3
ACAD_PLOTSTYLENAME
350
E
  3
ACAD_SCALELIST
350
3B
  3
ACAD_TABLESTYLE
350
1C0
  3
ACAD_VISUALSTYLE
350
2A
  3
AcDbVariableDictionary
350
1BE
  0
DICTIONARY
  5
D
102
{ACAD_REACTORS
330
C
102
}
330
C
100
AcDbDictionary
281
     1
  0
DICTIONARY
  5
1A
102
{ACAD_REACTORS
330
C
102
}
330
C
100
AcDbDictionary
281
     1
  3
Layout1
350
1E
  3
Model
350
22
  0
DICTIONARY
  5
1C1
102
{ACAD_REACTORS
330
C
102
}
330
C
100
AcDbDictionary
281
     1
  0
DICTIONARY
  5
17
102
{ACAD_REACTORS
330
C
102
}
330
C
100
AcDbDictionary
281
     1
  3
Standard
350
18
  0
DICTIONARY
  5
19
102
{ACAD_REACTORS
330
C
102
}
330
C
100
AcDbDictionary
281
     1
  0
ACDBDICTIONARYWDFLT
  5
E
102
{ACAD_REACTORS
330
C
102
}
330
C
100
AcDbDictionary
281
     1
  3
Normal
350
F
100
AcDbDictionaryWithDefault
340
F
  0
DICTIONARY
  5
3B
102
{ACAD_REACTORS
330
C
102
}
330
C
100
AcDbDictionary
281
     1
  3
A0
350
3C
  3
A1
350
3D
  3
A2
350
3E
  3
A3
350
3F
  3
A4
350
40
  3
A5
350
41
  3
A6
350
42
  3
A7
350
43
  3
A8
350
44
  3
A9
350
45
  3
B0
350
46
  3
B1
350
47
  3
B2
350
48
  3
B3
350
49
  3
B4
350
4A
  3
B5
350
4B
  3
B6
350
4C
  3
B7
350
4D
  3
B8
350
4E
  3
B9
350
4F
  3
C0
350
50
  3
C1
350
51
  3
C2
350
52
  3
C3
350
53
  3
C4
350
54
  3
C5
350
55
  3
C6
350
56
  3
C7
350
57
  3
C8
350
58
  3
C9
350
59
  3
D0
350
5A
  3
D1
350
5B
  3
D2
350
5C
  0
DICTIONARY
  5
1C0
102
{ACAD_REACTORS
330
C
102
}
330
C
100
AcDbDictionary
281
     1
  0
DICTIONARY
  5
2A
102
{ACAD_REACTORS
330
C
102
}
330
C
100
AcDbDictionary
281
     1
  3
2dWireframe
350
2F
  3
3D Hidden
350
31
  3
3dWireframe
350
30
  3
Basic
350
32
  3
Brighten
350
36
  3
ColorChange
350
3A
  3
Conceptual
350
34
  3
Dim
350
35
  3
Facepattern
350
39
  3
Flat
350
2B
  3
FlatWithEdges
350
2C
  3
Gouraud
350
2D
  3
GouraudWithEdges
350
2E
  3
Linepattern
350
38
  3
Realistic
350
33
  3
Thicken
350
37
  0
DICTIONARY
  5
1BE
102
{ACAD_REACTORS
330
C
102
}
330
C
100
AcDbDictionary
281
     1
  3
CANNOSCALE
350
1BF
  3
PSOLHEIGHT
350
1C3
  3
PSOLWIDTH
350
1C2
  0
LAYOUT
  5
1E
102
{ACAD_REACTORS
330
1A
102
}
330
1A
100
AcDbPlotSettings
  1

  2
none_device
  4

  6

 40
0.0
 41
0.0
 42
0.0
 43
0.0
 44
0.0
 45
0.0
 46
0.0
 47
0.0
 48
0.0
 49
0.0
140
0.0
141
0.0
142
1.0
143
1.0
 70
   688
 72
     0
 73
     0
 74
     5
  7

 75
    16
147
1.0
148
0.0
149
0.0
100
AcDbLayout
  1
Layout1
 70
     1
 71
     1
 10
0.0
 20
0.0
 11
1682.0
 21
2378.0
 12
0.0
 22
0.0
 32
0.0
 14
0.0
 24
0.0
 34
0.0
 15
1682.0
 25
2378.0
 35
0.0
146
0.0
 13
0.0
 23
0.0
 33
0.0
 16
1.0
 26
0.0
 36
0.0
 17
0.0
 27
1.0
 37
0.0
 76
     0
330
1B
  0
LAYOUT
  5
22
102
{ACAD_REACTORS
330
1A
102
}
330
1A
100
AcDbPlotSettings
  1

  2
none_device
  4

  6

 40
0.0
 41
0.0
 42
0.0
 43
0.0
 44
0.0
 45
0.0
 46
0.0
 47
0.0
 48
0.0
 49
0.0
140
0.0
141
0.0
142
1.0
143
1.0
 70
  1712
 72
     0
 73
     0
 74
     0
  7

 75
     0
147
1.0
148
0.0
149
0.0
100
AcDbLayout
  1
Model
 70
     1
 71
     0
 10
0.0
 20
0.0
 11
1682.0
 21
2378.0
 12
0.0
 22
0.0
 32
0.0
 14
0.0
 24
0.0
 34
0.0
 15
1682.0
 25
2378.0
 35
0.0
146
0.0
 13
0.0
 23
0.0
 33
0.0
 16
1.0
 26
0.0
 36
0.0
 17
0.0
 27
1.0
 37
0.0
 76
     0
330
1F
331
29
  0
MLINESTYLE
  5
18
102
{ACAD_REACTORS
330
17
102
}
330
17
100
AcDbMlineStyle
  2
Standard
 70
     0
  3

 62
   256
 51
90.0
 52
90.0
 71
     2
 49
0.5
 62
   256
  6
BYLAYER
 49
-0.5
 62
   256
  6
BYLAYER
  0
ACDBPLACEHOLDER
  5
F
102
{ACAD_REACTORS
330
E
102
}
330
E
  0
SCALE
  5
3C
102
{ACAD_REACTORS
330
3B
102
}
330
3B
100
AcDbScale
 70
     0
300
1:1
140
1.0
141
1.0
290
     1
  0
SCALE
  5
3D
102
{ACAD_REACTORS
330
3B
102
}
330
3B
100
AcDbScale
 70
     0
300
1:2
140
1.0
141
2.0
290
     0
  0
SCALE
  5
3E
102
{ACAD_REACTORS
330
3B
102
}
330
3B
100
AcDbScale
 70
     0
300
1:4
140
1.0
141
4.0
290
     0
  0
SCALE
  5
3F
102
{ACAD_REACTORS
330
3B
102
}
330
3B
100
AcDbScale
 70
     0
300
1:5
140
1.0
141
5.0
290
     0
  0
SCALE
  5
40
102
{ACAD_REACTORS
330
3B
102
}
330
3B
100
AcDbScale
 70
     0
300
1:8
140
1.0
141
8.0
290
     0
  0
SCALE
  5
41
102
{ACAD_REACTORS
330
3B
102
}
330
3B
100
AcDbScale
 70
     0
300
1:10
140
1.0
141
10.0
290
     0
  0
SCALE
  5
42
102
{ACAD_REACTORS
330
3B
102
}
330
3B
100
AcDbScale
 70
     0
300
1:16
140
1.0
141
16.0
290
     0
  0
SCALE
  5
43
102
{ACAD_REACTORS
330
3B
102
}
330
3B
100
AcDbScale
 70
     0
300
1:20
140
1.0
141
20.0
290
     0
  0
SCALE
  5
44
102
{ACAD_REACTORS
330
3B
102
}
330
3B
100
AcDbScale
 70
     0
300
1:30
140
1.0
141
30.0
290
     0
  0
SCALE
  5
45
102
{ACAD_REACTORS
330
3B
102
}
330
3B
100
AcDbScale
 70
     0
300
1:40
140
1.0
141
40.0
290
     0
  0
SCALE
  5
46
102
{ACAD_REACTORS
330
3B
102
}
330
3B
100
AcDbScale
 70
     0
300
1:50
140
1.0
141
50.0
290
     0
  0
SCALE
  5
47
102
{ACAD_REACTORS
330
3B
102
}
330
3B
100
AcDbScale
 70
     0
300
1:100
140
1.0
141
100.0
290
     0
  0
SCALE
  5
48
102
{ACAD_REACTORS
330
3B
102
}
330
3B
100
AcDbScale
 70
     0
300
2:1
140
2.0
141
1.0
290
     0
  0
SCALE
  5
49
102
{ACAD_REACTORS
330
3B
102
}
330
3B
100
AcDbScale
 70
     0
300
4:1
140
4.0
141
1.0
290
     0
  0
SCALE
  5
4A
102
{ACAD_REACTORS
330
3B
102
}
330
3B
100
AcDbScale
 70
     0
300
8:1
140
8.0
141
1.0
290
     0
  0
SCALE
  5
4B
102
{ACAD_REACTORS
330
3B
102
}
330
3B
100
AcDbScale
 70
     0
300
10:1
140
10.0
141
1.0
290
     0
  0
SCALE
  5
4C
102
{ACAD_REACTORS
330
3B
102
}
330
3B
100
AcDbScale
 70
     0
300
100:1
140
100.0
141
1.0
290
     0
  0
SCALE
  5
4D
102
{ACAD_REACTORS
330
3B
102
}
330
3B
100
AcDbScale
 70
     0
300
1/128" = 1'-0"
140
0.0078125
141
12.0
290
     0
  0
SCALE
  5
4E
102
{ACAD_REACTORS
330
3B
102
}
330
3B
100
AcDbScale
 70
     0
300
1/64" = 1'-0"
140
0.015625
141
12.0
290
     0
  0
SCALE
  5
4F
102
{ACAD_REACTORS
330
3B
102
}
330
3B
100
AcDbScale
 70
     0
300
1/32" = 1'-0"
140
0.03125
141
12.0
290
     0
  0
SCALE
  5
50
102
{ACAD_REACTORS
330
3B
102
}
330
3B
100
AcDbScale
 70
     0
300
1/16" = 1'-0"
140
0.0625
141
12.0
290
     0
  0
SCALE
  5
51
102
{ACAD_REACTORS
330
3B
102
}
330
3B
100
AcDbScale
 70
     0
300
3/32" = 1'-0"
140
0.09375
141
12.0
290
     0
  0
SCALE
  5
52
102
{ACAD_REACTORS
330
3B
102
}
330
3B
100
AcDbScale
 70
     0
300
1/8" = 1'-0"
140
0.125
141
12.0
290
     0
  0
SCALE
  5
53
102
{ACAD_REACTORS
330
3B
102
}
330
3B
100
AcDbScale
 70
     0
300
3/16" = 1'-0"
140
0.1875
141
12.0
290
     0
  0
SCALE
  5
54
102
{ACAD_REACTORS
330
3B
102
}
330
3B
100
AcDbScale
 70
     0
300
1/4" = 1'-0"
140
0.25
141
12.0
290
     0
  0
SCALE
  5
55
102
{ACAD_REACTORS
330
3B
102
}
330
3B
100
AcDbScale
 70
     0
300
3/8" = 1'-0"
140
0.375
141
12.0
290
     0
  0
SCALE
  5
56
102
{ACAD_REACTORS
330
3B
102
}
330
3B
100
AcDbScale
 70
     0
300
1/2" = 1'-0"
140
0.5
141
12.0
290
     0
  0
SCALE
  5
57
102
{ACAD_REACTORS
330
3B
102
}
330
3B
100
AcDbScale
 70
     0
300
3/4" = 1'-0"
140
0.75
141
12.0
290
     0
  0
SCALE
  5
58
102
{ACAD_REACTORS
330
3B
102
}
330
3B
100
AcDbScale
 70
     0
300
1" = 1'-0"
140
1.0
141
12.0
290
     0
  0
SCALE
  5
59
102
{ACAD_REACTORS
330
3B
102
}
330
3B
100
AcDbScale
 70
     0
300
1-1/2" = 1'-0"
140
1.5
141
12.0
290
     0
  0
SCALE
  5
5A
102
{ACAD_REACTORS
330
3B
102
}
330
3B
100
AcDbScale
 70
     0
300
3" = 1'-0"
140
3.0
141
12.0
290
     0
  0
SCALE
  5
5B
102
{ACAD_REACTORS
330
3B
102
}
330
3B
100
AcDbScale
 70
     0
300
6" = 1'-0"
140
6.0
141
12.0
290
     0
  0
SCALE
  5
5C
102
{ACAD_REACTORS
330
3B
102
}
330
3B
100
AcDbScale
 70
     0
300
1'-0" = 1'-0"
140
12.0
141
12.0
290
     0
  0
VISUALSTYLE
  5
2F
102
{ACAD_REACTORS
330
2A
102
}
330
2A
100
AcDbVisualStyle
  2
2dWireframe
 70
     4
 71
     0
 72
     2
 73
     0
 90
        0
 40
-0.6
 41
-30.0
 62
     5
 63
     7
 74
     1
 91
        4
 64
     7
 65
   257
 75
     1
175
     1
 42
1.0
 92
        0
 66
   257
 43
1.0
 76
     1
 77
     6
 78
     2
 67
     7
 79
     5
170
     0
171
     0
290
     0
174
     0
 93
        1
 44
0.0
173
     0
291
     0
 45
0.0
1001
ACAD
1000
AcDbSavedByObjectVersion
1070
     0
  0
VISUALSTYLE
  5
31
102
{ACAD_REACTORS
330
2A
102
}
330
2A
100
AcDbVisualStyle
  2
3D Hidden
 70
     6
 71
     1
 72
     2
 73
     2
 90
        0
 40
-0.6
 41
-30.0
 62
     5
 63
     7
 74
     2
 91
        2
 64
     7
 65
   257
 75
     2
175
     1
 42
40.0
 92
        0
 66
   257
 43
1.0
 76
     1
 77
     6
 78
     2
 67
     7
 79
     3
170
     0
171
     0
290
     0
174
     0
 93
        1
 44
0.0
173
     0
291
     0
 45
0.0
1001
ACAD
1000
AcDbSavedByObjectVersion
1070
     0
  0
VISUALSTYLE
  5
30
102
{ACAD_REACTORS
330
2A
102
}
330
2A
100
AcDbVisualStyle
  2
3dWireframe
 70
     5
 71
     0
 72
     2
 73
     0
 90
        0
 40
-0.6
 41
-30.0
 62
     5
 63
     7
 74
     1
 91
        4
 64
     7
 65
   257
 75
     1
175
     1
 42
1.0
 92
        0
 66
   257
 43
1.0
 76
     1
 77
     6
 78
     2
 67
     7
 79
     5
170
     0
171
     0
290
     0
174
     0
 93
        1
 44
0.0
173
     0
291
     0
 45
0.0
1001
ACAD
1000
AcDbSavedByObjectVersion
1070
     0
  0
VISUALSTYLE
  5
32
102
{ACAD_REACTORS
330
2A
102
}
330
2A
100
AcDbVisualStyle
  2
Basic
 70
     7
 71
     1
 72
     0
 73
     1
 90
        0
 40
-0.6
 41
-30.0
 62
     5
 63
     7
 74
     0
 91
        4
 64
     7
 65
   257
 75
     1
175
     1
 42
1.0
 92
        8
 66
     7
 43
1.0
 76
     1
 77
     6
 78
     2
 67
     7
 79
     5
170
     0
171
     0
290
     0
174
     0
 93
        1
 44
0.0
173
     0
291
     1
 45
0.0
1001
ACAD
1000
AcDbSavedByObjectVersion
1070
     0
  0
VISUALSTYLE
  5
36
102
{ACAD_REACTORS
330
2A
102
}
330
2A
100
AcDbVisualStyle
  2
Brighten
 70
    12
 71
     2
 72
     2
 73
     0
 90
        0
 40
-0.6
 41
-30.0
 62
     5
 63
     7
 74
     1
 91
        4
 64
     7
 65
   257
 75
     1
175
     1
 42
1.0
 92
        8
 66
     7
 43
1.0
 76
     1
 77
     6
 78
     2
 67
     7
 79
     5
170
     0
171
     0
290
     0
174
     0
 93
        1
 44
50.0
173
     0
291
     1
 45
0.0
1001
ACAD
1000
AcDbSavedByObjectVersion
1070
     0
  0
VISUALSTYLE
  5
3A
102
{ACAD_REACTORS
330
2A
102
}
330
2A
100
AcDbVisualStyle
  2
ColorChange
 70
    16
 71
     2
 72
     2
 73
     3
 90
        0
 40
-0.6
 41
-30.0
 62
     5
 63
     8
 74
     1
 91
        4
 64
     7
 65
   257
 75
     1
175
     1
 42
1.0
 92
        8
 66
     8
 43
1.0
 76
     1
 77
     6
 78
     2
 67
     7
 79
     5
170
     0
171
     0
290
     0
174
     0
 93
        1
 44
0.0
173
     0
291
     1
 45
0.0
1001
ACAD
1000
AcDbSavedByObjectVersion
1070
     0
  0
VISUALSTYLE
  5
34
102
{ACAD_REACTORS
330
2A
102
}
330
2A
100
AcDbVisualStyle
  2
Conceptual
 70
     9
 71
     3
 72
     2
 73
     0
 90
        0
 40
-0.6
 41
-30.0
 62
     5
 63
     7
 74
     2
 91
        2
 64
     7
 65
   257
 75
     1
175
     1
 42
40.0
 92
        8
 66
     7
 43
1.0
 76
     1
 77
     6
 78
     2
 67
     7
 79
     3
170
     0
171
     0
290
     0
174
     0
 93
        1
 44
0.0
173
     0
291
     0
 45
0.0
1001
ACAD
1000
AcDbSavedByObjectVersion
1070
     0
  0
VISUALSTYLE
  5
35
102
{ACAD_REACTORS
330
2A
102
}
330
2A
100
AcDbVisualStyle
  2
Dim
 70
    11
 71
     2
 72
     2
 73
     0
 90
        0
 40
-0.6
 41
-30.0
 62
     5
 63
     7
 74
     1
 91
        4
 64
     7
 65
   257
 75
     1
175
     1
 42
1.0
 92
        8
 66
     7
 43
1.0
 76
     1
 77
     6
 78
     2
 67
     7
 79
     5
170
     0
171
     0
290
     0
174
     0
 93
        1
 44
-50.0
173
     0
291
     1
 45
0.0
1001
ACAD
1000
AcDbSavedByObjectVersion
1070
     0
  0
VISUALSTYLE
  5
39
102
{ACAD_REACTORS
330
2A
102
}
330
2A
100
AcDbVisualStyle
  2
Facepattern
 70
    15
 71
     2
 72
     2
 73
     0
 90
        0
 40
-0.6
 41
-30.0
 62
     5
 63
     7
 74
     1
 91
        4
 64
     7
 65
   257
 75
     1
175
     1
 42
1.0
 92
        8
 66
     7
 43
1.0
 76
     1
 77
     6
 78
     2
 67
     7
 79
     5
170
     0
171
     0
290
     0
174
     0
 93
        1
 44
0.0
173
     0
291
     1
 45
0.0
1001
ACAD
1000
AcDbSavedByObjectVersion
1070
     0
  0
VISUALSTYLE
  5
2B
102
{ACAD_REACTORS
330
2A
102
}
330
2A
100
AcDbVisualStyle
  2
Flat
 70
     0
 71
     2
 72
     1
 73
     1
 90
        2
 40
-0.6
 41
30.0
 62
     5
 63
     7
 74
     0
 91
        4
 64
     7
 65
   257
 75
     1
175
     1
 42
1.0
 92
        8
 66
     7
 43
1.0
 76
     1
 77
     6
 78
     2
 67
     7
 79
     5
170
     0
171
     0
290
     0
174
     0
 93
       13
 44
0.0
173
     0
291
     1
 45
0.0
1001
ACAD
1000
AcDbSavedByObjectVersion
1070
     0
  0
VISUALSTYLE
  5
2C
102
{ACAD_REACTORS
330
2A
102
}
330
2A
100
AcDbVisualStyle
  2
FlatWithEdges
 70
     1
 71
     2
 72
     1
 73
     1
 90
        2
 40
-0.6
 41
30.0
 62
     5
 63
     7
 74
     1
 91
        4
 64
     7
 65
   257
 75
     1
175
     1
 42
1.0
 92
        0
 66
   257
 43
1.0
 76
     1
 77
     6
 78
     2
 67
     7
 79
     5
170
     0
171
     0
290
     0
174
     0
 93
       13
 44
0.0
173
     0
291
     1
 45
0.0
1001
ACAD
1000
AcDbSavedByObjectVersion
1070
     0
  0
VISUALSTYLE
  5
2D
102
{ACAD_REACTORS
330
2A
102
}
330
2A
100
AcDbVisualStyle
  2
Gouraud
 70
     2
 71
     2
 72
     2
 73
     1
 90
        2
 40
-0.6
 41
30.0
 62
     5
 63
     7
 74
     0
 91
        4
 64
     7
 65
   257
 75
     1
175
     1
 42
1.0
 92
        0
 66
     7
 43
1.0
 76
     1
 77
     6
 78
     2
 67
     7
 79
     5
170
     0
171
     0
290
     0
174
     0
 93
       13
 44
0.0
173
     0
291
     1
 45
0.0
1001
ACAD
1000
AcDbSavedByObjectVersion
1070
     0
  0
VISUALSTYLE
  5
2E
102
{ACAD_REACTORS
330
2A
102
}
330
2A
100
AcDbVisualStyle
  2
GouraudWithEdges
 70
     3
 71
     2
 72
     2
 73
     1
 90
        2
 40
-0.6
 41
30.0
 62
     5
 63
     7
 74
     1
 91
        4
 64
     7
 65
   257
 75
     1
175
     1
 42
1.0
 92
        0
 66
   257
 43
1.0
 76
     1
 77
     6
 78
     2
 67
     7
 79
     5
170
     0
171
     0
290
     0
174
     0
 93
       13
 44
0.0
173
     0
291
     1
 45
0.0
1001
ACAD
1000
AcDbSavedByObjectVersion
1070
     0
  0
VISUALSTYLE
  5
38
102
{ACAD_REACTORS
330
2A
102
}
330
2A
100
AcDbVisualStyle
  2
Linepattern
 70
    14
 71
     2
 72
     2
 73
     0
 90
        0
 40
-0.6
 41
-30.0
 62
     5
 63
     7
 74
     1
 91
        4
 64
     7
 65
   257
 75
     7
175
     7
 42
1.0
 92
        8
 66
     7
 43
1.0
 76
     1
 77
     6
 78
     2
 67
     7
 79
     5
170
     0
171
     0
290
     0
174
     0
 93
        1
 44
0.0
173
     0
291
     1
 45
0.0
1001
ACAD
1000
AcDbSavedByObjectVersion
1070
     0
  0
VISUALSTYLE
  5
33
102
{ACAD_REACTORS
330
2A
102
}
330
2A
100
AcDbVisualStyle
  2
Realistic
 70
     8
 71
     2
 72
     2
 73
     0
 90
        0
 40
-0.6
 41
-30.0
 62
     5
 63
     7
 74
     1
 91
        0
 64
     7
 65
   257
 75
     1
175
     1
 42
1.0
 92
        8
 66
     8
 43
1.0
 76
     1
 77
     6
 78
     2
 67
     7
 79
     5
170
     0
171
     0
290
     0
174
     0
 93
       13
 44
0.0
173
     0
291
     0
 45
0.0
1001
ACAD
1000
AcDbSavedByObjectVersion
1070
     0
  0
VISUALSTYLE
  5
37
102
{ACAD_REACTORS
330
2A
102
}
330
2A
100
AcDbVisualStyle
  2
Thicken
 70
    13
 71
     2
 72
     2
 73
     0
 90
        0
 40
-0.6
 41
-30.0
 62
     5
 63
     7
 74
     1
 91
        4
 64
     7
 65
   257
 75
     1
175
     1
 42
1.0
 92
       12
 66
     7
 43
1.0
 76
     1
 77
     6
 78
     2
 67
     7
 79
     5
170
     0
171
     0
290
     0
174
     0
 93
        1
 44
0.0
173
     0
291
     1
 45
0.0
1001
ACAD
1000
AcDbSavedByObjectVersion
1070
     0
  0
DICTIONARYVAR
  5
1BF
102
{ACAD_REACTORS
330
1BE
102
}
330
1BE
100
DictionaryVariables
280
     0
  1
1:1
  0
DICTIONARYVAR
  5
1C3
102
{ACAD_REACTORS
330
1BE
102
}
330
1BE
100
DictionaryVariables
280
     0
  1
80.000000
  0
DICTIONARYVAR
  5
1C2
102
{ACAD_REACTORS
330
1BE
102
}
330
1BE
100
DictionaryVariables
280
     0
  1
5.000000
  0
ENDSEC
  0
EOF
