  0
SECTION
  2
HEADER
  9
$ACADVER
  1
AC1015
  9
$ACADMAINTVER
 70
     6
  9
$DWGCODEPAGE
  3
ANSI_1252
  9
$INSBASE
 10
0.0
 20
0.0
 30
0.0
  9
$EXTMIN
 10
0.0
 20
0.0
 30
0.0
  9
$EXTMAX
 10
1682.0
 20
2378.0
 30
0.0
  9
$LIMMIN
 10
0.0
 20
0.0
  9
$LIMMAX
 10
1682.0
 20
2378.0
  9
$ORTHOMODE
 70
     0
  9
$REGENMODE
 70
     1
  9
$FILLMODE
 70
     1
  9
$QTEXTMODE
 70
     0
  9
$MIRRTEXT
 70
     1
  9
$LTSCALE
 40
1.0
  9
$ATTMODE
 70
     1
  9
$TEXTSIZE
 40
2.5
  9
$TRACEWID
 40
1.0
  9
$TEXTSTYLE
  7
Standard
  9
$CLAYER
  8
0
  9
$CELTYPE
  6
ByLayer
  9
$CECOLOR
 62
   256
  9
$CELTSCALE
 40
1.0
  9
$DISPSILH
 70
     0
  9
$DIMSCALE
 40
1.0
  9
$DIMASZ
 40
2.5
  9
$DIMEXO
 40
0.625
  9
$DIMDLI
 40
3.75
  9
$DIMRND
 40
0.0
  9
$DIMDLE
 40
0.0
  9
$DIMEXE
 40
1.25
  9
$DIMTP
 40
0.0
  9
$DIMTM
 40
0.0
  9
$DIMTXT
 40
2.5
  9
$DIMCEN
 40
2.5
  9
$DIMTSZ
 40
0.0
  9
$DIMTOL
 70
     0
  9
$DIMLIM
 70
     0
  9
$DIMTIH
 70
     0
  9
$DIMTOH
 70
     0
  9
$DIMSE1
 70
     0
  9
$DIMSE2
 70
     0
  9
$DIMTAD
 70
     1
  9
$DIMZIN
 70
     8
  9
$DIMBLK
  1

  9
$DIMASO
 70
     1
  9
$DIMSHO
 70
     1
  9
$DIMPOST
  1

  9
$DIMAPOST
  1

  9
$DIMALT
 70
     0
  9
$DIMALTD
 70
     3
  9
$DIMALTF
 40
0.0393700787
  9
$DIMLFAC
 40
1.0
  9
$DIMTOFL
 70
     1
  9
$DIMTVP
 40
0.0
  9
$DIMTIX
 70
     0
  9
$DIMSOXD
 70
     0
  9
$DIMSAH
 70
     0
  9
$DIMBLK1
  1

  9
$DIMBLK2
  1

  9
$DIMSTYLE
  2
ISO-25
  9
$DIMCLRD
 70
     0
  9
$DIMCLRE
 70
     0
  9
$DIMCLRT
 70
     0
  9
$DIMTFAC
 40
1.0
  9
$DIMGAP
 40
0.625
  9
$DIMJUST
 70
     0
  9
$DIMSD1
 70
     0
  9
$DIMSD2
 70
     0
  9
$DIMTOLJ
 70
     0
  9
$DIMTZIN
 70
     8
  9
$DIMALTZ
 70
     0
  9
$DIMALTTZ
 70
     0
  9
$DIMUPT
 70
     0
  9
$DIMDEC
 70
     2
  9
$DIMTDEC
 70
     2
  9
$DIMALTU
 70
     2
  9
$DIMALTTD
 70
     3
  9
$DIMTXSTY
  7
Standard
  9
$DIMAUNIT
 70
     0
  9
$DIMADEC
 70
     0
  9
$DIMALTRND
 40
0.0
  9
$DIMAZIN
 70
     0
  9
$DIMDSEP
 70
    44
  9
$DIMATFIT
 70
     3
  9
$DIMFRAC
 70
     0
  9
$DIMLDRBLK
  1

  9
$DIMLUNIT
 70
     2
  9
$DIMLWD
 70
    -2
  9
$DIMLWE
 70
    -2
  9
$DIMTMOVE
 70
     0
  9
$LUNITS
 70
     2
  9
$LUPREC
 70
     4
  9
$SKETCHINC
 40
1.0
  9
$FILLETRAD
 40
10.0
  9
$AUNITS
 70
     0
  9
$AUPREC
 70
     0
  9
$MENU
  1
.
  9
$ELEVATION
 40
0.0
  9
$PELEVATION
 40
0.0
  9
$THICKNESS
 40
0.0
  9
$LIMCHECK
 70
     0
  9
$CHAMFERA
 40
10.0
  9
$CHAMFERB
 40
10.0
  9
$CHAMFERC
 40
20.0
  9
$CHAMFERD
 40
0.0
  9
$SKPOLY
 70
     0
  9
$TDCREATE
 40
2455544.381698403
  9
$TDUCREATE
 40
2455544.340031736
  9
$TDUPDATE
 40
2455544.381698414
  9
$TDUUPDATE
 40
2455544.340031748
  9
$TDINDWG
 40
0.0000000116
  9
$TDUSRTIMER
 40
0.0000000116
  9
$USRTIMER
 70
     1
  9
$ANGBASE
 50
0.0
  9
$ANGDIR
 70
     0
  9
$PDMODE
 70
     0
  9
$PDSIZE
 40
0.0
  9
$PLINEWID
 40
0.0
  9
$SPLFRAME
 70
     0
  9
$SPLINETYPE
 70
     6
  9
$SPLINESEGS
 70
     8
  9
$HANDSEED
  5
53E
  9
$SURFTAB1
 70
     6
  9
$SURFTAB2
 70
     6
  9
$SURFTYPE
 70
     6
  9
$SURFU
 70
     6
  9
$SURFV
 70
     6
  9
$UCSBASE
  2

  9
$UCSNAME
  2

  9
$UCSORG
 10
0.0
 20
0.0
 30
0.0
  9
$UCSXDIR
 10
1.0
 20
0.0
 30
0.0
  9
$UCSYDIR
 10
0.0
 20
1.0
 30
0.0
  9
$UCSORTHOREF
  2

  9
$UCSORTHOVIEW
 70
     0
  9
$UCSORGTOP
 10
0.0
 20
0.0
 30
0.0
  9
$UCSORGBOTTOM
 10
0.0
 20
0.0
 30
0.0
  9
$UCSORGLEFT
 10
0.0
 20
0.0
 30
0.0
  9
$UCSORGRIGHT
 10
0.0
 20
0.0
 30
0.0
  9
$UCSORGFRONT
 10
0.0
 20
0.0
 30
0.0
  9
$UCSORGBACK
 10
0.0
 20
0.0
 30
0.0
  9
$PUCSBASE
  2

  9
$PUCSNAME
  2

  9
$PUCSORG
 10
0.0
 20
0.0
 30
0.0
  9
$PUCSXDIR
 10
1.0
 20
0.0
 30
0.0
  9
$PUCSYDIR
 10
0.0
 20
1.0
 30
0.0
  9
$PUCSORTHOREF
  2

  9
$PUCSORTHOVIEW
 70
     0
  9
$PUCSORGTOP
 10
0.0
 20
0.0
 30
0.0
  9
$PUCSORGBOTTOM
 10
0.0
 20
0.0
 30
0.0
  9
$PUCSORGLEFT
 10
0.0
 20
0.0
 30
0.0
  9
$PUCSORGRIGHT
 10
0.0
 20
0.0
 30
0.0
  9
$PUCSORGFRONT
 10
0.0
 20
0.0
 30
0.0
  9
$PUCSORGBACK
 10
0.0
 20
0.0
 30
0.0
  9
$USERI1
 70
     0
  9
$USERI2
 70
     0
  9
$USERI3
 70
     0
  9
$USERI4
 70
     0
  9
$USERI5
 70
     0
  9
$USERR1
 40
0.0
  9
$USERR2
 40
0.0
  9
$USERR3
 40
0.0
  9
$USERR4
 40
0.0
  9
$USERR5
 40
0.0
  9
$WORLDVIEW
 70
     1
  9
$SHADEDGE
 70
     3
  9
$SHADEDIF
 70
    70
  9
$TILEMODE
 70
     1
  9
$MAXACTVP
 70
    64
  9
$PINSBASE
 10
0.0
 20
0.0
 30
0.0
  9
$PLIMCHECK
 70
     0
  9
$PEXTMIN
 10
0.0
 20
0.0
 30
0.0
  9
$PEXTMAX
 10
1682.0
 20
2378.0
 30
0.0
  9
$PLIMMIN
 10
0.0
 20
0.0
  9
$PLIMMAX
 10
1682.0
 20
2378.0
  9
$UNITMODE
 70
     0
  9
$VISRETAIN
 70
     1
  9
$PLINEGEN
 70
     0
  9
$PSLTSCALE
 70
     1
  9
$TREEDEPTH
 70
  3020
  9
$CMLSTYLE
  2
Standard
  9
$CMLJUST
 70
     0
  9
$CMLSCALE
 40
20.0
  9
$PROXYGRAPHICS
 70
     1
  9
$MEASUREMENT
 70
     1
  9
$CELWEIGHT
370
    -1
  9
$ENDCAPS
280
     0
  9
$JOINSTYLE
280
     0
  9
$LWDISPLAY
290
     0
  9
$INSUNITS
 70
     4
  9
$HYPERLINKBASE
  1

  9
$STYLESHEET
  1

  9
$XEDIT
290
     1
  9
$CEPSNTYPE
380
     0
  9
$PSTYLEMODE
290
     1
  9
$FINGERPRINTGUID
  2
{6CF88B9E-E111-4207-BF5D-DC68B1FD7131}
  9
$VERSIONGUID
  2
{FAEB1C32-E019-11D5-929B-00C0DF256EC4}
  9
$EXTNAMES
290
     1
  9
$PSVPSCALE
 40
0.0
  9
$OLESTARTUP
290
     0
  0
ENDSEC
  0
SECTION
  2
CLASSES
  0
CLASS
  1
ACDBDICTIONARYWDFLT
  2
AcDbDictionaryWithDefault
  3
ObjectDBX Classes
 90
        0
280
     0
281
     0
  0
CLASS
  1
VISUALSTYLE
  2
AcDbVisualStyle
  3
ObjectDBX Classes
 90
     4095
280
     0
281
     0
  0
CLASS
  1
SCALE
  2
AcDbScale
  3
ObjectDBX Classes
 90
     1153
280
     0
281
     0
  0
CLASS
  1
DICTIONARYVAR
  2
AcDbDictionaryVar
  3
ObjectDBX Classes
 90
        0
280
     0
281
     0
  0
CLASS
  1
ACDBPLACEHOLDER
  2
AcDbPlaceHolder
  3
ObjectDBX Classes
 90
        0
280
     0
281
     0
  0
CLASS
  1
LAYOUT
  2
AcDbLayout
  3
ObjectDBX Classes
 90
        0
280
     0
281
     0
  0
ENDSEC
  0
SECTION
  2
TABLES
  0
TABLE
  2
VPORT
  5
8
330
0
100
AcDbSymbolTable
 70
     1
  0
VPORT
  5
29
330
8
100
AcDbSymbolTableRecord
100
AcDbViewportTableRecord
  2
*Active
 70
     0
 10
0.0
 20
0.0
 11
1.0
 21
1.0
 12
344.1869158879
 22
148.5
 13
0.0
 23
0.0
 14
10.0
 24
10.0
 15
10.0
 25
10.0
 16
0.0
 26
0.0
 36
1.0
 17
0.0
 27
0.0
 37
0.0
 40
297.0
 41
1.9729729729
 42
50.0
 43
0.0
 44
0.0
 50
0.0
 51
0.0
 71
     0
 72
   100
 73
     1
 74
     3
 75
     0
 76
     0
 77
     0
 78
     0
281
     0
 65
     1
110
0.0
120
0.0
130
0.0
111
1.0
121
0.0
131
0.0
112
0.0
122
1.0
132
0.0
 79
     0
146
0.0
  0
ENDTAB
  0
TABLE
  2
LTYPE
  5
5
330
0
100
AcDbSymbolTable
 70
     2
  0
LTYPE
  5
14
330
5
100
AcDbSymbolTableRecord
100
AcDbLinetypeTableRecord
  2
ByBlock
 70
     0
  3

 72
    65
 73
     0
 40
0.0
  0
LTYPE
  5
15
330
5
100
AcDbSymbolTableRecord
100
AcDbLinetypeTableRecord
  2
ByLayer
 70
     0
  3

 72
    65
 73
     0
 40
0.0
  0
LTYPE
  5
16
330
5
100
AcDbSymbolTableRecord
100
AcDbLinetypeTableRecord
  2
Continuous
 70
     0
  3
Solid line
 72
    65
 73
     0
 40
0.0
  0
LTYPE
  5
60
330
5
100
AcDbSymbolTableRecord
100
AcDbLinetypeTableRecord
  2
CENTER2
 70
     0
  3
Center (.5x) ___ _ ___ _ ___ _ ___ _ ___ _ ___
 72
    65
 73
     4
 40
28.575
 49
19.05
 74
     4
 75
     0
340
0
 46
0.0
 50
0.0
 44
0.0
 45
0.0
 49
-3.175
 74
     4
 75
     0
340
0
 46
0.0
 50
0.0
 44
0.0
 45
0.0
 49
3.175
 74
     4
 75
     0
340
0
 46
0.0
 50
0.0
 44
0.0
 45
0.0
 49
-3.175
 74
     4
 75
     0
340
0
 46
0.0
 50
0.0
 44
0.0
 45
0.0
  0
ENDTAB
  0
TABLE
  2
LAYER
  5
2
330
0
100
AcDbSymbolTable
 70
    12
  0
LAYER
  5
10
330
2
100
AcDbSymbolTableRecord
100
AcDbLayerTableRecord
  2
0
 70
     0
 62
     7
  6
Continuous
370
    -3
390
F
  0
LAYER
  5
5D
330
2
100
AcDbSymbolTableRecord
100
AcDbLayerTableRecord
  2
Default
 70
     0
 62
     7
  6
Continuous
370
    -3
390
F
  0
LAYER
  5
91
330
2
100
AcDbSymbolTableRecord
100
AcDbLayerTableRecord
  2
4240246_KONSOLE_
 70
     0
 62
     7
  6
Continuous
370
    -3
390
F
  0
LAYER
  5
9E
330
2
100
AcDbSymbolTableRecord
100
AcDbLayerTableRecord
  2
03038038_ROHR_BR
 70
     0
 62
     7
  6
Continuous
370
    -3
390
F
  0
LAYER
  5
A3
330
2
100
AcDbSymbolTableRecord
100
AcDbLayerTableRecord
  2
03634L31_KAPPE__
 70
     0
 62
     7
  6
Continuous
370
    -3
390
F
  0
LAYER
  5
A6
330
2
100
AcDbSymbolTableRecord
100
AcDbLayerTableRecord
  2
09712038_KAPPE
 70
     0
 62
     7
  6
Continuous
370
    -3
390
F
  0
LAYER
  5
2F8
330
2
100
AcDbSymbolTableRecord
100
AcDbLayerTableRecord
  2
$DDT_AUDIT_GENERATED_(2F8)
 70
     0
 62
     7
  6
Continuous
370
    -3
390
F
  0
LAYER
  5
35A
330
2
100
AcDbSymbolTableRecord
100
AcDbLayerTableRecord
  2
$DDT_AUDIT_GENERATED_(35A)
 70
     0
 62
     7
  6
Continuous
370
    -3
390
F
  0
LAYER
  5
35F
330
2
100
AcDbSymbolTableRecord
100
AcDbLayerTableRecord
  2
03705L38_HÜLSE_R
 70
     0
 62
     7
  6
Continuous
370
    -3
390
F
  0
LAYER
  5
422
330
2
100
AcDbSymbolTableRecord
100
AcDbLayerTableRecord
  2
$DDT_AUDIT_GENERATED_(422)
 70
     0
 62
     7
  6
Continuous
370
    -3
390
F
  0
LAYER
  5
43B
330
2
100
AcDbSymbolTableRecord
100
AcDbLayerTableRecord
  2
$DDT_AUDIT_GENERATED_(43B)
 70
     0
 62
     7
  6
Continuous
370
    -3
390
F
  0
LAYER
  5
47D
330
2
100
AcDbSymbolTableRecord
100
AcDbLayerTableRecord
  2
03703031_FEDERTE
 70
     0
 62
     7
  6
Continuous
370
    -3
390
F
  0
ENDTAB
  0
TABLE
  2
STYLE
  5
3
330
0
100
AcDbSymbolTable
 70
     2
  0
STYLE
  5
11
330
3
100
AcDbSymbolTableRecord
100
AcDbTextStyleTableRecord
  2
Standard
 70
     0
 40
0.0
 41
1.0
 50
0.0
 71
     0
 42
2.5
  3
txt
  4

  0
STYLE
  5
52D
330
3
100
AcDbSymbolTableRecord
100
AcDbTextStyleTableRecord
  2
SEACAD_seiso_ttf
 70
     0
 40
0.0
 41
1.0
 50
0.0
 71
     0
 42
0.2
  3
seiso.ttf
  4

  0
ENDTAB
  0
TABLE
  2
VIEW
  5
6
330
0
100
AcDbSymbolTable
 70
     0
  0
ENDTAB
  0
TABLE
  2
UCS
  5
7
330
0
100
AcDbSymbolTable
 70
     0
  0
ENDTAB
  0
TABLE
  2
APPID
  5
9
330
0
100
AcDbSymbolTable
 70
     1
  0
APPID
  5
12
330
9
100
AcDbSymbolTableRecord
100
AcDbRegAppTableRecord
  2
ACAD
 70
     0
  0
ENDTAB
  0
TABLE
  2
DIMSTYLE
  5
A
330
0
100
AcDbSymbolTable
 70
     1
100
AcDbDimStyleTable
  0
DIMSTYLE
105
27
330
A
100
AcDbSymbolTableRecord
100
AcDbDimStyleTableRecord
  2
ISO-25
 70
     0
 41
2.5
 42
0.625
 43
3.75
 44
1.25
 73
     0
 74
     0
 77
     1
 78
     8
140
2.5
141
2.5
143
0.0393700787
147
0.625
171
     3
172
     1
271
     2
272
     2
274
     3
278
    44
283
     0
284
     8
340
11
  0
ENDTAB
  0
TABLE
  2
BLOCK_RECORD
  5
1
330
0
100
AcDbSymbolTable
 70
    10
  0
BLOCK_RECORD
  5
1F
330
1
100
AcDbSymbolTableRecord
100
AcDbBlockTableRecord
  2
*Model_Space
340
22
  0
BLOCK_RECORD
  5
1B
330
1
100
AcDbSymbolTableRecord
100
AcDbBlockTableRecord
  2
*Paper_Space
340
1E
  0
BLOCK_RECORD
  5
5E
330
1
100
AcDbSymbolTableRecord
100
AcDbBlockTableRecord
  2
SEANNOT_GROUP
340
0
102
{BLKREFS
331
5F
102
}
  0
BLOCK_RECORD
  5
69
330
1
100
AcDbSymbolTableRecord
100
AcDbBlockTableRecord
  2
SEANNOT_GROUP1
340
0
102
{BLKREFS
331
6A
102
}
  0
BLOCK_RECORD
  5
73
330
1
100
AcDbSymbolTableRecord
100
AcDbBlockTableRecord
  2
SEANNOT_GROUP2
340
0
102
{BLKREFS
331
74
102
}
  0
BLOCK_RECORD
  5
79
330
1
100
AcDbSymbolTableRecord
100
AcDbBlockTableRecord
  2
SEANNOT_GROUP3
340
0
102
{BLKREFS
331
7A
102
}
  0
BLOCK_RECORD
  5
7F
330
1
100
AcDbSymbolTableRecord
100
AcDbBlockTableRecord
  2
SEANNOT_GROUP4
340
0
102
{BLKREFS
331
80
102
}
  0
BLOCK_RECORD
  5
89
330
1
100
AcDbSymbolTableRecord
100
AcDbBlockTableRecord
  2
SEANNOT_GROUP5
340
0
102
{BLKREFS
331
8A
102
}
  0
BLOCK_RECORD
  5
8F
330
1
100
AcDbSymbolTableRecord
100
AcDbBlockTableRecord
  2
SE
340
0
102
{BLKREFS
331
90
102
}
  0
BLOCK_RECORD
  5
305
330
1
100
AcDbSymbolTableRecord
100
AcDbBlockTableRecord
  2
SE1
340
0
102
{BLKREFS
331
306
102
}
  0
BLOCK_RECORD
  5
445
330
1
100
AcDbSymbolTableRecord
100
AcDbBlockTableRecord
  2
SE2
340
0
102
{BLKREFS
331
446
102
}
  0
ENDTAB
  0
ENDSEC
  0
SECTION
  2
BLOCKS
  0
BLOCK
  5
20
330
1F
100
AcDbEntity
  8
0
100
AcDbBlockBegin
  2
*Model_Space
 70
     0
 10
0.0
 20
0.0
 30
0.0
  3
*Model_Space
  1

  0
ENDBLK
  5
21
330
1F
100
AcDbEntity
  8
0
100
AcDbBlockEnd
  0
BLOCK
  5
1C
330
1B
100
AcDbEntity
 67
     1
  8
0
100
AcDbBlockBegin
  2
*Paper_Space
 70
     0
 10
0.0
 20
0.0
 30
0.0
  3
*Paper_Space
  1

  0
ENDBLK
  5
1D
330
1B
100
AcDbEntity
 67
     1
  8
0
100
AcDbBlockEnd
  0
BLOCK
  5
67
330
5E
100
AcDbEntity
  8
0
100
AcDbBlockBegin
  2
SEANNOT_GROUP
 70
     0
 10
0.0
 20
0.0
 30
0.0
  3
SEANNOT_GROUP
  1

  0
LINE
  5
61
330
5E
100
AcDbEntity
  8
Default
  6
CENTER2
 62
     7
100
AcDbLine
 10
50.4833365965
 20
1333.0558552877
 30
0.0
 11
10.4833374906
 21
1333.0558552877
 31
0.0
  0
LINE
  5
62
330
5E
100
AcDbEntity
  8
Default
  6
CENTER2
 62
     7
100
AcDbLine
 10
30.4833370435
 20
1353.0558548407
 30
0.0
 11
30.4833370435
 21
1313.0558557347
 31
0.0
  0
LINE
  5
63
330
5E
100
AcDbEntity
  8
Default
  6
CENTER2
 62
     7
100
AcDbLine
 10
55.4833364847
 20
1333.0558552877
 30
0.0
 11
55.9833370435
 21
1333.0558552877
 31
0.0
  0
LINE
  5
64
330
5E
100
AcDbEntity
  8
Default
  6
CENTER2
 62
     7
100
AcDbLine
 10
30.4833370435
 20
1358.0558547289
 30
0.0
 11
30.4833370435
 21
1358.5558552877
 31
0.0
  0
LINE
  5
65
330
5E
100
AcDbEntity
  8
Default
  6
CENTER2
 62
     7
100
AcDbLine
 10
5.4833376023
 20
1333.0558552877
 30
0.0
 11
4.9833370435
 21
1333.0558552877
 31
0.0
  0
LINE
  5
66
330
5E
100
AcDbEntity
  8
Default
  6
CENTER2
 62
     7
100
AcDbLine
 10
30.4833370435
 20
1308.0558558465
 30
0.0
 11
30.4833370435
 21
1307.5558552877
 31
0.0
  0
ENDBLK
  5
68
330
5E
100
AcDbEntity
  8
0
100
AcDbBlockEnd
  0
BLOCK
  5
71
330
69
100
AcDbEntity
  8
0
100
AcDbBlockBegin
  2
SEANNOT_GROUP1
 70
     0
 10
0.0
 20
0.0
 30
0.0
  3
SEANNOT_GROUP1
  1

  0
LINE
  5
6B
330
69
100
AcDbEntity
  8
Default
  6
CENTER2
 62
     7
100
AcDbLine
 10
50.4833365965
 20
313.0558552877
 30
0.0
 11
10.4833374906
 21
313.0558552877
 31
0.0
  0
LINE
  5
6C
330
69
100
AcDbEntity
  8
Default
  6
CENTER2
 62
     7
100
AcDbLine
 10
30.4833370435
 20
333.0558548407
 30
0.0
 11
30.4833370435
 21
293.0558557347
 31
0.0
  0
LINE
  5
6D
330
69
100
AcDbEntity
  8
Default
  6
CENTER2
 62
     7
100
AcDbLine
 10
55.4833364847
 20
313.0558552877
 30
0.0
 11
55.9833370435
 21
313.0558552877
 31
0.0
  0
LINE
  5
6E
330
69
100
AcDbEntity
  8
Default
  6
CENTER2
 62
     7
100
AcDbLine
 10
30.4833370435
 20
338.0558547289
 30
0.0
 11
30.4833370435
 21
338.5558552877
 31
0.0
  0
LINE
  5
6F
330
69
100
AcDbEntity
  8
Default
  6
CENTER2
 62
     7
100
AcDbLine
 10
5.4833376023
 20
313.0558552877
 30
0.0
 11
4.9833370435
 21
313.0558552877
 31
0.0
  0
LINE
  5
70
330
69
100
AcDbEntity
  8
Default
  6
CENTER2
 62
     7
100
AcDbLine
 10
30.4833370435
 20
288.0558558465
 30
0.0
 11
30.4833370435
 21
287.5558552877
 31
0.0
  0
ENDBLK
  5
72
330
69
100
AcDbEntity
  8
0
100
AcDbBlockEnd
  0
BLOCK
  5
77
330
73
100
AcDbEntity
  8
0
100
AcDbBlockBegin
  2
SEANNOT_GROUP2
 70
     0
 10
0.0
 20
0.0
 30
0.0
  3
SEANNOT_GROUP2
  1

  0
LINE
  5
75
330
73
100
AcDbEntity
  8
Default
  6
CENTER2
 62
     7
100
AcDbLine
 10
137.8220215005
 20
1333.0558552877
 30
0.0
 11
97.8220223946
 21
1333.0558552877
 31
0.0
  0
LINE
  5
76
330
73
100
AcDbEntity
  8
Default
  6
CENTER2
 62
     7
100
AcDbLine
 10
117.8220219475
 20
1353.0558548407
 30
0.0
 11
117.8220219475
 21
1313.0558557347
 31
0.0
  0
ENDBLK
  5
78
330
73
100
AcDbEntity
  8
0
100
AcDbBlockEnd
  0
BLOCK
  5
7D
330
79
100
AcDbEntity
  8
0
100
AcDbBlockBegin
  2
SEANNOT_GROUP3
 70
     0
 10
0.0
 20
0.0
 30
0.0
  3
SEANNOT_GROUP3
  1

  0
LINE
  5
7B
330
79
100
AcDbEntity
  8
Default
  6
CENTER2
 62
     7
100
AcDbLine
 10
137.3220215005
 20
316.1623057387
 30
0.0
 11
97.3220223946
 21
316.1623057387
 31
0.0
  0
LINE
  5
7C
330
79
100
AcDbEntity
  8
Default
  6
CENTER2
 62
     7
100
AcDbLine
 10
117.3220219475
 20
336.1623052916
 30
0.0
 11
117.3220219475
 21
296.1623061857
 31
0.0
  0
ENDBLK
  5
7E
330
79
100
AcDbEntity
  8
0
100
AcDbBlockEnd
  0
BLOCK
  5
87
330
7F
100
AcDbEntity
  8
0
100
AcDbBlockBegin
  2
SEANNOT_GROUP4
 70
     0
 10
0.0
 20
0.0
 30
0.0
  3
SEANNOT_GROUP4
  1

  0
LINE
  5
81
330
7F
100
AcDbEntity
  8
Default
  6
CENTER2
 62
     7
100
AcDbLine
 10
50.4833365965
 20
823.0558552877
 30
0.0
 11
10.4833374906
 21
823.0558552877
 31
0.0
  0
LINE
  5
82
330
7F
100
AcDbEntity
  8
Default
  6
CENTER2
 62
     7
100
AcDbLine
 10
30.4833370435
 20
843.0558548407
 30
0.0
 11
30.4833370435
 21
803.0558557347
 31
0.0
  0
LINE
  5
83
330
7F
100
AcDbEntity
  8
Default
  6
CENTER2
 62
     7
100
AcDbLine
 10
55.4833364847
 20
823.0558552877
 30
0.0
 11
55.9833370435
 21
823.0558552877
 31
0.0
  0
LINE
  5
84
330
7F
100
AcDbEntity
  8
Default
  6
CENTER2
 62
     7
100
AcDbLine
 10
30.4833370435
 20
848.0558547289
 30
0.0
 11
30.4833370435
 21
848.5558552877
 31
0.0
  0
LINE
  5
85
330
7F
100
AcDbEntity
  8
Default
  6
CENTER2
 62
     7
100
AcDbLine
 10
5.4833376023
 20
823.0558552877
 30
0.0
 11
4.9833370435
 21
823.0558552877
 31
0.0
  0
LINE
  5
86
330
7F
100
AcDbEntity
  8
Default
  6
CENTER2
 62
     7
100
AcDbLine
 10
30.4833370435
 20
798.0558558465
 30
0.0
 11
30.4833370435
 21
797.5558552877
 31
0.0
  0
ENDBLK
  5
88
330
7F
100
AcDbEntity
  8
0
100
AcDbBlockEnd
  0
BLOCK
  5
8D
330
89
100
AcDbEntity
  8
0
100
AcDbBlockBegin
  2
SEANNOT_GROUP5
 70
     0
 10
0.0
 20
0.0
 30
0.0
  3
SEANNOT_GROUP5
  1

  0
LINE
  5
8B
330
89
100
AcDbEntity
  8
Default
  6
CENTER2
 62
     7
100
AcDbLine
 10
50.4833365965
 20
227.3
 30
0.0
 11
10.4833374906
 21
227.3
 31
0.0
  0
LINE
  5
8C
330
89
100
AcDbEntity
  8
Default
  6
CENTER2
 62
     7
100
AcDbLine
 10
30.4833370435
 20
247.299999553
 30
0.0
 11
30.4833370435
 21
207.300000447
 31
0.0
  0
ENDBLK
  5
8E
330
89
100
AcDbEntity
  8
0
100
AcDbBlockEnd
  0
BLOCK
  5
303
330
8F
100
AcDbEntity
  8
0
100
AcDbBlockBegin
  2
SE
 70
     0
 10
0.0
 20
0.0
 30
0.0
  3
SE
  1

  0
ARC
  5
92
330
8F
100
AcDbEntity
  8
4240246_KONSOLE_
  6
Continuous
 62
     7
100
AcDbCircle
 10
30.4833370435
 20
313.0558552877
 30
0.0
 40
22.55
100
AcDbArc
 50
128.3776896887
 51
0.0
  0
ARC
  5
93
330
8F
100
AcDbEntity
  8
4240246_KONSOLE_
  6
Continuous
 62
     7
100
AcDbCircle
 10
30.4833370435
 20
313.0558552877
 30
0.0
 40
22.55
100
AcDbArc
 50
0.0
 51
51.6223103113
  0
ARC
  5
94
330
8F
100
AcDbEntity
  8
4240246_KONSOLE_
  6
Continuous
 62
     7
100
AcDbCircle
 10
30.4841737428
 20
312.9995125481
 30
0.0
 40
22.19654720550781
100
AcDbArc
 50
50.0683046505
 51
129.9379729318
  0
LINE
  5
95
330
8F
100
AcDbEntity
  8
4240246_KONSOLE_
  6
Continuous
 62
     7
100
AcDbLine
 10
32.4833370435
 20
291.138045149
 30
0.0
 11
32.4833370435
 21
291.1469529875
 31
0.0
  0
ARC
  5
96
330
8F
100
AcDbEntity
  8
4240246_KONSOLE_
  6
Continuous
 62
     7
100
AcDbCircle
 10
30.4833370435
 20
313.0558552877
 30
0.0
 40
22.00887096774192
100
AcDbArc
 50
264.7861995941
 51
275.2138004059
  0
LINE
  5
97
330
8F
100
AcDbEntity
  8
4240246_KONSOLE_
  6
Continuous
 62
     7
100
AcDbLine
 10
28.4833370435
 20
291.1469529875
 30
0.0
 11
28.4833370435
 21
291.138045149
 31
0.0
  0
ARC
  5
98
330
8F
100
AcDbEntity
  8
4240246_KONSOLE_
  6
Continuous
 62
     7
100
AcDbCircle
 10
30.4833370435
 20
1333.0558552877
 30
0.0
 40
22.55
100
AcDbArc
 50
308.3776896887
 51
0.0
  0
ARC
  5
99
330
8F
100
AcDbEntity
  8
4240246_KONSOLE_
  6
Continuous
 62
     7
100
AcDbCircle
 10
30.4833370435
 20
1333.0558552877
 30
0.0
 40
22.55
100
AcDbArc
 50
0.0
 51
231.6223103113
  0
ARC
  5
9A
330
8F
100
AcDbEntity
  8
4240246_KONSOLE_
  6
Continuous
 62
     7
100
AcDbCircle
 10
30.4825003443
 20
1333.1121980273
 30
0.0
 40
22.1965472055078
100
AcDbArc
 50
230.0683046505
 51
309.9379729318
  0
LINE
  5
9B
330
8F
100
AcDbEntity
  8
4240246_KONSOLE_
  6
Continuous
 62
     7
100
AcDbLine
 10
28.4833370435
 20
1354.9736654264
 30
0.0
 11
28.4833370435
 21
1354.9647575879
 31
0.0
  0
ARC
  5
9C
330
8F
100
AcDbEntity
  8
4240246_KONSOLE_
  6
Continuous
 62
     7
100
AcDbCircle
 10
30.4833370435
 20
1333.0558552877
 30
0.0
 40
22.00887096774191
100
AcDbArc
 50
84.7861995941
 51
95.2138004059
  0
LINE
  5
9D
330
8F
100
AcDbEntity
  8
4240246_KONSOLE_
  6
Continuous
 62
     7
100
AcDbLine
 10
32.4833370435
 20
1354.9647575879
 30
0.0
 11
32.4833370435
 21
1354.9736654264
 31
0.0
  0
LINE
  5
9F
330
8F
100
AcDbEntity
  8
03038038_ROHR_BR
  6
Continuous
 62
     7
100
AcDbLine
 10
44.4833370435
 20
330.1943898699
 30
0.0
 11
44.4833370435
 21
806.0852925392
 31
0.0
  0
LINE
  5
A0
330
8F
100
AcDbEntity
  8
03038038_ROHR_BR
  6
Continuous
 62
     7
100
AcDbLine
 10
44.4833370435
 20
840.0264180362
 30
0.0
 11
44.4833370435
 21
1315.9178142556
 31
0.0
  0
LINE
  5
A1
330
8F
100
AcDbEntity
  8
03038038_ROHR_BR
  6
Continuous
 62
     7
100
AcDbLine
 10
16.4833370435
 20
1315.9173207054
 30
0.0
 11
16.4833370435
 21
840.0264180362
 31
0.0
  0
LINE
  5
A2
330
8F
100
AcDbEntity
  8
03038038_ROHR_BR
  6
Continuous
 62
     7
100
AcDbLine
 10
16.4833370435
 20
806.0852925392
 30
0.0
 11
16.4833370435
 21
330.1938963198
 31
0.0
  0
CIRCLE
  5
A4
330
8F
100
AcDbEntity
  8
03634L31_KAPPE__
  6
Continuous
 62
     7
100
AcDbCircle
 10
30.4833370435
 20
1333.0558552877
 30
0.0
 40
22.0
  0
CIRCLE
  5
A5
330
8F
100
AcDbEntity
  8
03634L31_KAPPE__
  6
Continuous
 62
     7
100
AcDbCircle
 10
30.4833370435
 20
313.0558552877
 30
0.0
 40
22.0
  0
CIRCLE
  5
A7
330
8F
100
AcDbEntity
  8
09712038_KAPPE
  6
Continuous
 62
     7
100
AcDbCircle
 10
30.4833370435
 20
823.0558552877
 30
0.0
 40
21.99999999999999
  0
ARC
  5
A8
330
8F
100
AcDbEntity
  8
09712038_KAPPE
  6
Continuous
 62
     7
100
AcDbCircle
 10
724.7369156957
 20
823.8550263284
 30
0.0
 40
685.5517721054455
100
AcDbArc
 50
181.1811384116
 51
181.5755271989
  0
ARC
  5
A9
330
8F
100
AcDbEntity
  8
09712038_KAPPE
  6
Continuous
 62
     7
100
AcDbCircle
 10
30.4833276283
 20
822.2222182655
 30
0.0
 40
21.01407296572247
100
AcDbArc
 50
237.1340035594
 51
302.7978960562
  0
ARC
  5
AA
330
8F
100
AcDbEntity
  8
09712038_KAPPE
  6
Continuous
 62
     7
100
AcDbCircle
 10
20.4885814288
 20
804.9927266154
 30
0.0
 40
1.033444852233766
100
AcDbArc
 50
240.811248674
 51
356.7786797838
  0
LINE
  5
AB
330
8F
100
AcDbEntity
  8
09712038_KAPPE
  6
Continuous
 62
     7
100
AcDbLine
 10
39.4462828536
 20
804.9346589097
 30
0.0
 11
39.4443164025
 21
805.0060053759
 31
0.0
  0
ARC
  5
AC
330
8F
100
AcDbEntity
  8
09712038_KAPPE
  6
Continuous
 62
     7
100
AcDbCircle
 10
40.4780483403
 20
804.9926459841
 30
0.0
 40
1.033396076095858
100
AcDbArc
 50
183.2169947925
 51
299.1930768129
  0
ELLIPSE
  5
AD
330
8F
100
AcDbEntity
  8
09712038_KAPPE
  6
Continuous
 62
     7
100
AcDbEllipse
 10
30.4833370435
 20
839.0557574498
 30
0.0
 11
13.64792656962027
 21
0.0
 31
0.0
210
0.0
220
0.0
230
1.0
 40
0.0087268687
 41
3.493980342911932
 42
3.78381666654314
  0
ELLIPSE
  5
AE
330
8F
100
AcDbEntity
  8
09712038_KAPPE
  6
Continuous
 62
     7
100
AcDbEllipse
 10
30.4833370435
 20
839.0557574498
 30
0.0
 11
13.64792656962027
 21
0.0
 31
0.0
210
0.0
220
0.0
230
1.0
 40
0.0087268687
 41
0.4637271991227658
 42
2.714714327085134
  0
ELLIPSE
  5
AF
330
8F
100
AcDbEntity
  8
09712038_KAPPE
  6
Continuous
 62
     7
100
AcDbEllipse
 10
30.4833370435
 20
839.0557574498
 30
0.0
 11
13.64792656962027
 21
0.0
 31
0.0
210
0.0
220
0.0
230
1.0
 40
0.0087268687
 41
-6.925409320132932
 42
-6.608866680860232
  0
ELLIPSE
  5
B0
330
8F
100
AcDbEntity
  8
09712038_KAPPE
  6
Continuous
 62
     7
100
AcDbEllipse
 10
41.3307310916
 20
836.9030208669
 30
0.0
 11
-1.414213519047752
 21
-1.414213605691828
 31
0.0
210
0.0
220
0.0
230
1.0
 40
0.9999238505
 41
4.712197094744402
 42
5.497749036940279
  0
ELLIPSE
  5
B1
330
8F
100
AcDbEntity
  8
09712038_KAPPE
  6
Continuous
 62
     7
100
AcDbEllipse
 10
41.3307310916
 20
836.9030970222
 30
0.0
 11
1.414213535210322
 21
-1.414213589531643
 31
0.0
210
0.0
220
0.0
230
1.0
 40
0.9999238505
 41
3.141418825854052
 42
3.927028912402198
  0
ARC
  5
B2
330
8F
100
AcDbEntity
  8
09712038_KAPPE
  6
Continuous
 62
     7
100
AcDbCircle
 10
41.4086303833
 20
836.9925703595
 30
0.0
 40
1.991849705472372
100
AcDbArc
 50
89.8994130838
 51
134.9613176005
  0
ARC
  5
B3
330
8F
100
AcDbEntity
  8
09712038_KAPPE
  6
Continuous
 62
     7
100
AcDbCircle
 10
19.5580437038
 20
836.9925703595
 30
0.0
 40
1.991849705472374
100
AcDbArc
 50
45.0386823995
 51
90.1005869162
  0
ELLIPSE
  5
B4
330
8F
100
AcDbEntity
  8
09712038_KAPPE
  6
Continuous
 62
     7
100
AcDbEllipse
 10
19.6359429954
 20
836.9030970222
 30
0.0
 11
-1.414213535310594
 21
-1.41421358943139
 31
0.0
210
0.0
220
0.0
230
1.0
 40
0.9999238505
 41
2.356156394848285
 42
3.141766481406648
  0
ELLIPSE
  5
B5
330
8F
100
AcDbEntity
  8
09712038_KAPPE
  6
Continuous
 62
     7
100
AcDbEllipse
 10
19.6359429954
 20
836.9030208669
 30
0.0
 11
1.414213580644912
 21
-1.41421354409843
 31
0.0
210
0.0
220
0.0
230
0.9999999999999998
 40
0.9999238505
 41
0.7854362266862511
 42
1.570988168884109
  0
ARC
  5
B6
330
8F
100
AcDbEntity
  8
09712038_KAPPE
  6
Continuous
 62
     7
100
AcDbCircle
 10
30.7501427958
 20
823.8526972783
 30
0.0
 40
21.09017068602664
100
AcDbArc
 50
46.9836665943
 51
74.7168072313
  0
ARC
  5
B7
330
8F
100
AcDbEntity
  8
09712038_KAPPE
  6
Continuous
 62
     7
100
AcDbCircle
 10
30.2166452624
 20
823.8525033984
 30
0.0
 40
21.09038775104644
100
AcDbArc
 50
105.2833526065
 51
133.0828889382
  0
ELLIPSE
  5
B8
330
8F
100
AcDbEntity
  8
09712038_KAPPE
  6
Continuous
 62
     7
100
AcDbEllipse
 10
30.4833370435
 20
839.0558552877
 30
0.0
 11
20.0
 21
0.0
 31
0.0
210
0.0
220
0.0
230
1.0
 40
0.0087265355
 41
0.7999808646379203
 42
2.341611788951873
  0
LINE
  5
B9
330
8F
100
AcDbEntity
  8
09712038_KAPPE
  6
Continuous
 62
     7
100
AcDbLine
 10
42.5574411735
 20
817.4675205233
 30
0.0
 11
42.5543978457
 21
817.3451066963
 31
0.0
  0
LINE
  5
BA
330
8F
100
AcDbEntity
  8
09712038_KAPPE
  6
Continuous
 62
     7
100
AcDbLine
 10
42.5543978457
 20
817.3451066963
 30
0.0
 11
42.5549920148
 21
817.224312648
 31
0.0
  0
LINE
  5
BB
330
8F
100
AcDbEntity
  8
09712038_KAPPE
  6
Continuous
 62
     7
100
AcDbLine
 10
42.5549920148
 20
817.224312648
 30
0.0
 11
42.5624179763
 21
817.1107401746
 31
0.0
  0
LINE
  5
BC
330
8F
100
AcDbEntity
  8
09712038_KAPPE
  6
Continuous
 62
     7
100
AcDbLine
 10
42.5624179763
 20
817.1107401746
 30
0.0
 11
42.575915857
 21
817.0043235715
 31
0.0
  0
LINE
  5
BD
330
8F
100
AcDbEntity
  8
09712038_KAPPE
  6
Continuous
 62
     7
100
AcDbLine
 10
42.575915857
 20
817.0043235715
 30
0.0
 11
42.5947257834
 21
816.9049971344
 31
0.0
  0
LINE
  5
BE
330
8F
100
AcDbEntity
  8
09712038_KAPPE
  6
Continuous
 62
     7
100
AcDbLine
 10
42.5947257834
 20
816.9049971344
 30
0.0
 11
42.6180878825
 21
816.812695159
 31
0.0
  0
LINE
  5
BF
330
8F
100
AcDbEntity
  8
09712038_KAPPE
  6
Continuous
 62
     7
100
AcDbLine
 10
42.6180878825
 20
816.812695159
 30
0.0
 11
42.645242281
 21
816.7273519407
 31
0.0
  0
LINE
  5
C0
330
8F
100
AcDbEntity
  8
09712038_KAPPE
  6
Continuous
 62
     7
100
AcDbLine
 10
42.645242281
 20
816.7273519407
 30
0.0
 11
42.6754291055
 21
816.6489017753
 31
0.0
  0
LINE
  5
C1
330
8F
100
AcDbEntity
  8
09712038_KAPPE
  6
Continuous
 62
     7
100
AcDbLine
 10
42.6754291055
 20
816.6489017753
 30
0.0
 11
42.7078884829
 21
816.5772789582
 31
0.0
  0
LINE
  5
C2
330
8F
100
AcDbEntity
  8
09712038_KAPPE
  6
Continuous
 62
     7
100
AcDbLine
 10
42.7078884829
 20
816.5772789582
 30
0.0
 11
42.7418605399
 21
816.5124177852
 31
0.0
  0
LINE
  5
C3
330
8F
100
AcDbEntity
  8
09712038_KAPPE
  6
Continuous
 62
     7
100
AcDbLine
 10
42.7418605399
 20
816.5124177852
 30
0.0
 11
42.7743837249
 21
816.4578762695
 31
0.0
  0
LINE
  5
C4
330
8F
100
AcDbEntity
  8
09712038_KAPPE
  6
Continuous
 62
     7
100
AcDbLine
 10
42.7743837249
 20
816.4578762695
 30
0.0
 11
42.8079093504
 21
816.408446061
 31
0.0
  0
LINE
  5
C5
330
8F
100
AcDbEntity
  8
09712038_KAPPE
  6
Continuous
 62
     7
100
AcDbLine
 10
42.8079093504
 20
816.408446061
 30
0.0
 11
42.8427856564
 21
816.3634195894
 31
0.0
  0
LINE
  5
C6
330
8F
100
AcDbEntity
  8
09712038_KAPPE
  6
Continuous
 62
     7
100
AcDbLine
 10
42.8427856564
 20
816.3634195894
 30
0.0
 11
42.8793608828
 21
816.3220892846
 31
0.0
  0
LINE
  5
C7
330
8F
100
AcDbEntity
  8
09712038_KAPPE
  6
Continuous
 62
     7
100
AcDbLine
 10
42.8793608828
 20
816.3220892846
 30
0.0
 11
42.9179832697
 21
816.2837475762
 31
0.0
  0
LINE
  5
C8
330
8F
100
AcDbEntity
  8
09712038_KAPPE
  6
Continuous
 62
     7
100
AcDbLine
 10
42.9179832697
 20
816.2837475762
 30
0.0
 11
42.9590010569
 21
816.2476868939
 31
0.0
  0
LINE
  5
C9
330
8F
100
AcDbEntity
  8
09712038_KAPPE
  6
Continuous
 62
     7
100
AcDbLine
 10
42.9590010569
 20
816.2476868939
 30
0.0
 11
43.0257808881
 21
816.1963249846
 31
0.0
  0
LINE
  5
CA
330
8F
100
AcDbEntity
  8
09712038_KAPPE
  6
Continuous
 62
     7
100
AcDbLine
 10
43.0257808881
 20
816.1963249846
 30
0.0
 11
43.0999092197
 21
816.1461153015
 31
0.0
  0
LINE
  5
CB
330
8F
100
AcDbEntity
  8
09712038_KAPPE
  6
Continuous
 62
     7
100
AcDbLine
 10
43.0999092197
 20
816.1461153015
 30
0.0
 11
43.1556420138
 21
816.1114314843
 31
0.0
  0
LINE
  5
CC
330
8F
100
AcDbEntity
  8
09712038_KAPPE
  6
Continuous
 62
     7
100
AcDbLine
 10
43.1556420138
 20
816.1114314843
 30
0.0
 11
43.216273193
 21
816.0771449327
 31
0.0
  0
LINE
  5
CD
330
8F
100
AcDbEntity
  8
09712038_KAPPE
  6
Continuous
 62
     7
100
AcDbLine
 10
43.216273193
 20
816.0771449327
 30
0.0
 11
43.2826987018
 21
816.0442332052
 31
0.0
  0
LINE
  5
CE
330
8F
100
AcDbEntity
  8
09712038_KAPPE
  6
Continuous
 62
     7
100
AcDbLine
 10
43.2826987018
 20
816.0442332052
 30
0.0
 11
43.355814485
 21
816.0136738609
 31
0.0
  0
LINE
  5
CF
330
8F
100
AcDbEntity
  8
09712038_KAPPE
  6
Continuous
 62
     7
100
AcDbLine
 10
43.355814485
 20
816.0136738609
 30
0.0
 11
43.436516487
 21
815.9864444584
 31
0.0
  0
LINE
  5
D0
330
8F
100
AcDbEntity
  8
09712038_KAPPE
  6
Continuous
 62
     7
100
AcDbLine
 10
43.436516487
 20
815.9864444584
 30
0.0
 11
43.5257006525
 21
815.9635225565
 31
0.0
  0
LINE
  5
D1
330
8F
100
AcDbEntity
  8
09712038_KAPPE
  6
Continuous
 62
     7
100
AcDbLine
 10
43.5257006525
 20
815.9635225565
 30
0.0
 11
43.6242629259
 21
815.945885714
 31
0.0
  0
LINE
  5
D2
330
8F
100
AcDbEntity
  8
09712038_KAPPE
  6
Continuous
 62
     7
100
AcDbLine
 10
43.6242629259
 20
815.945885714
 30
0.0
 11
43.733099252
 21
815.9345114898
 31
0.0
  0
SPLINE
  5
D3
330
8F
100
AcDbEntity
  8
09712038_KAPPE
  6
Continuous
 62
     7
100
AcDbSpline
210
0.0
220
0.0
230
1.0
 70
     8
 71
     1
 72
     7
 73
     5
 74
     0
 42
0.0000000415943258
 43
0.0000000001
 40
0.0
 40
0.0
 40
0.2499999999999981
 40
0.5
 40
0.7499999999999981
 40
1.0
 40
1.0
 10
43.73309925197022
 20
815.9345114897662
 30
0.0
 10
43.85310557519234
 20
815.9303774425067
 30
0.0
 10
43.85323677788066
 20
815.9303772971922
 30
0.0
 10
43.8533679670992
 20
815.9303774382295
 30
0.0
 10
43.97337442503645
 20
815.9345075730198
 30
0.0
  0
LINE
  5
D4
330
8F
100
AcDbEntity
  8
09712038_KAPPE
  6
Continuous
 62
     7
100
AcDbLine
 10
43.973374425
 20
815.934507573
 30
0.0
 11
44.0822111219
 21
815.945878249
 31
0.0
  0
LINE
  5
D5
330
8F
100
AcDbEntity
  8
09712038_KAPPE
  6
Continuous
 62
     7
100
AcDbLine
 10
44.0822111219
 20
815.945878249
 30
0.0
 11
44.1807739703
 21
815.9635118781
 31
0.0
  0
LINE
  5
D6
330
8F
100
AcDbEntity
  8
09712038_KAPPE
  6
Continuous
 62
     7
100
AcDbLine
 10
44.1807739703
 20
815.9635118781
 30
0.0
 11
44.269958883
 21
815.9864308724
 31
0.0
  0
LINE
  5
D7
330
8F
100
AcDbEntity
  8
09712038_KAPPE
  6
Continuous
 62
     7
100
AcDbLine
 10
44.269958883
 20
815.9864308724
 30
0.0
 11
44.3506617727
 21
816.0136576438
 31
0.0
  0
LINE
  5
D8
330
8F
100
AcDbEntity
  8
09712038_KAPPE
  6
Continuous
 62
     7
100
AcDbLine
 10
44.3506617727
 20
816.0136576438
 30
0.0
 11
44.4237785521
 21
816.0442146044
 31
0.0
  0
LINE
  5
D9
330
8F
100
AcDbEntity
  8
09712038_KAPPE
  6
Continuous
 62
     7
100
AcDbLine
 10
44.4237785521
 20
816.0442146044
 30
0.0
 11
44.4902051339
 21
816.0771241662
 31
0.0
  0
LINE
  5
DA
330
8F
100
AcDbEntity
  8
09712038_KAPPE
  6
Continuous
 62
     7
100
AcDbLine
 10
44.4902051339
 20
816.0771241662
 30
0.0
 11
44.5508374309
 21
816.1114087411
 31
0.0
  0
LINE
  5
DB
330
8F
100
AcDbEntity
  8
09712038_KAPPE
  6
Continuous
 62
     7
100
AcDbLine
 10
44.5508374309
 20
816.1114087411
 30
0.0
 11
44.6065713557
 21
816.1460907413
 31
0.0
  0
LINE
  5
DC
330
8F
100
AcDbEntity
  8
09712038_KAPPE
  6
Continuous
 62
     7
100
AcDbLine
 10
44.6065713557
 20
816.1460907413
 30
0.0
 11
44.6807013242
 21
816.1962980076
 31
0.0
  0
LINE
  5
DD
330
8F
100
AcDbEntity
  8
09712038_KAPPE
  6
Continuous
 62
     7
100
AcDbLine
 10
44.6807013242
 20
816.1962980076
 30
0.0
 11
44.7474828299
 21
816.2476577397
 31
0.0
  0
LINE
  5
DE
330
8F
100
AcDbEntity
  8
09712038_KAPPE
  6
Continuous
 62
     7
100
AcDbLine
 10
44.7474828299
 20
816.2476577397
 30
0.0
 11
44.7885017927
 21
816.2837170847
 31
0.0
  0
LINE
  5
DF
330
8F
100
AcDbEntity
  8
09712038_KAPPE
  6
Continuous
 62
     7
100
AcDbLine
 10
44.7885017927
 20
816.2837170847
 30
0.0
 11
44.8271254296
 21
816.3220575339
 31
0.0
  0
LINE
  5
E0
330
8F
100
AcDbEntity
  8
09712038_KAPPE
  6
Continuous
 62
     7
100
AcDbLine
 10
44.8271254296
 20
816.3220575339
 30
0.0
 11
44.8637020035
 21
816.3633866463
 31
0.0
  0
LINE
  5
E1
330
8F
100
AcDbEntity
  8
09712038_KAPPE
  6
Continuous
 62
     7
100
AcDbLine
 10
44.8637020035
 20
816.3633866463
 30
0.0
 11
44.8985797775
 21
816.4084119808
 31
0.0
  0
LINE
  5
E2
330
8F
100
AcDbEntity
  8
09712038_KAPPE
  6
Continuous
 62
     7
100
AcDbLine
 10
44.8985797775
 20
816.4084119808
 30
0.0
 11
44.9321070145
 21
816.4578410962
 31
0.0
  0
LINE
  5
E3
330
8F
100
AcDbEntity
  8
09712038_KAPPE
  6
Continuous
 62
     7
100
AcDbLine
 10
44.9321070145
 20
816.4578410962
 30
0.0
 11
44.9646319775
 21
816.5123815516
 31
0.0
  0
LINE
  5
E4
330
8F
100
AcDbEntity
  8
09712038_KAPPE
  6
Continuous
 62
     7
100
AcDbLine
 10
44.9646319775
 20
816.5123815516
 30
0.0
 11
44.9986061492
 21
816.577241617
 31
0.0
  0
LINE
  5
E5
330
8F
100
AcDbEntity
  8
09712038_KAPPE
  6
Continuous
 62
     7
100
AcDbLine
 10
44.9986061492
 20
816.577241617
 30
0.0
 11
45.0310678616
 21
816.6488633758
 31
0.0
  0
LINE
  5
E6
330
8F
100
AcDbEntity
  8
09712038_KAPPE
  6
Continuous
 62
     7
100
AcDbLine
 10
45.0310678616
 20
816.6488633758
 30
0.0
 11
45.0612572438
 21
816.7273125571
 31
0.0
  0
LINE
  5
E7
330
8F
100
AcDbEntity
  8
09712038_KAPPE
  6
Continuous
 62
     7
100
AcDbLine
 10
45.0612572438
 20
816.7273125571
 30
0.0
 11
45.0884144246
 21
816.81265489
 31
0.0
  0
LINE
  5
E8
330
8F
100
AcDbEntity
  8
09712038_KAPPE
  6
Continuous
 62
     7
100
AcDbLine
 10
45.0884144246
 20
816.81265489
 30
0.0
 11
45.1117795329
 21
816.9049561037
 31
0.0
  0
LINE
  5
E9
330
8F
100
AcDbEntity
  8
09712038_KAPPE
  6
Continuous
 62
     7
100
AcDbLine
 10
45.1117795329
 20
816.9049561037
 30
0.0
 11
45.1305926976
 21
817.0042819275
 31
0.0
  0
LINE
  5
EA
330
8F
100
AcDbEntity
  8
09712038_KAPPE
  6
Continuous
 62
     7
100
AcDbLine
 10
45.1305926976
 20
817.0042819275
 30
0.0
 11
45.1440940477
 21
817.1106980904
 31
0.0
  0
LINE
  5
EB
330
8F
100
AcDbEntity
  8
09712038_KAPPE
  6
Continuous
 62
     7
100
AcDbLine
 10
45.1440940477
 20
817.1106980904
 30
0.0
 11
45.1515237119
 21
817.2242703217
 31
0.0
  0
LINE
  5
EC
330
8F
100
AcDbEntity
  8
09712038_KAPPE
  6
Continuous
 62
     7
100
AcDbLine
 10
45.1515237119
 20
817.2242703217
 30
0.0
 11
45.1521218192
 21
817.3450643506
 31
0.0
  0
LINE
  5
ED
330
8F
100
AcDbEntity
  8
09712038_KAPPE
  6
Continuous
 62
     7
100
AcDbLine
 10
45.1521218192
 20
817.3450643506
 30
0.0
 11
45.1484760883
 21
817.4777397912
 31
0.0
  0
LINE
  5
EE
330
8F
100
AcDbEntity
  8
09712038_KAPPE
  6
Continuous
 62
     7
100
AcDbLine
 10
45.1484760883
 20
817.4777397912
 30
0.0
 11
45.1374670926
 21
817.6107246127
 31
0.0
  0
LINE
  5
EF
330
8F
100
AcDbEntity
  8
09712038_KAPPE
  6
Continuous
 62
     7
100
AcDbLine
 10
45.1374670926
 20
817.6107246127
 30
0.0
 11
45.1190434276
 21
817.7434061958
 31
0.0
  0
LINE
  5
F0
330
8F
100
AcDbEntity
  8
09712038_KAPPE
  6
Continuous
 62
     7
100
AcDbLine
 10
45.1190434276
 20
817.7434061958
 30
0.0
 11
45.0932217933
 21
817.8751652511
 31
0.0
  0
LINE
  5
F1
330
8F
100
AcDbEntity
  8
09712038_KAPPE
  6
Continuous
 62
     7
100
AcDbLine
 10
45.0932217933
 20
817.8751652511
 30
0.0
 11
45.0600877908
 21
818.0053853069
 31
0.0
  0
LINE
  5
F2
330
8F
100
AcDbEntity
  8
09712038_KAPPE
  6
Continuous
 62
     7
100
AcDbLine
 10
45.0600877908
 20
818.0053853069
 30
0.0
 11
45.0197951308
 21
818.1334622642
 31
0.0
  0
LINE
  5
F3
330
8F
100
AcDbEntity
  8
09712038_KAPPE
  6
Continuous
 62
     7
100
AcDbLine
 10
45.0197951308
 20
818.1334622642
 30
0.0
 11
44.9725632643
 21
818.258813709
 31
0.0
  0
LINE
  5
F4
330
8F
100
AcDbEntity
  8
09712038_KAPPE
  6
Continuous
 62
     7
100
AcDbLine
 10
44.9725632643
 20
818.258813709
 30
0.0
 11
44.9186735105
 21
818.3808876832
 31
0.0
  0
LINE
  5
F5
330
8F
100
AcDbEntity
  8
09712038_KAPPE
  6
Continuous
 62
     7
100
AcDbLine
 10
44.9186735105
 20
818.3808876832
 30
0.0
 11
44.8584638233
 21
818.4991706383
 31
0.0
  0
LINE
  5
F6
330
8F
100
AcDbEntity
  8
09712038_KAPPE
  6
Continuous
 62
     7
100
AcDbLine
 10
44.8584638233
 20
818.4991706383
 30
0.0
 11
43.8532786455
 21
818.4991870239
 31
0.0
  0
LINE
  5
F7
330
8F
100
AcDbEntity
  8
09712038_KAPPE
  6
Continuous
 62
     7
100
AcDbLine
 10
43.8532786455
 20
818.4991870239
 30
0.0
 11
43.8532679645
 21
817.8439552043
 31
0.0
  0
LINE
  5
F8
330
8F
100
AcDbEntity
  8
09712038_KAPPE
  6
Continuous
 62
     7
100
AcDbLine
 10
43.8532679645
 20
817.8439552043
 30
0.0
 11
44.5737828206
 21
817.8439434591
 31
0.0
  0
LINE
  5
F9
330
8F
100
AcDbEntity
  8
09712038_KAPPE
  6
Continuous
 62
     7
100
AcDbLine
 10
44.5737828206
 20
817.8439434591
 30
0.0
 11
44.5998612633
 21
817.7870709098
 31
0.0
  0
LINE
  5
FA
330
8F
100
AcDbEntity
  8
09712038_KAPPE
  6
Continuous
 62
     7
100
AcDbLine
 10
44.5998612633
 20
817.7870709098
 30
0.0
 11
44.6231438315
 21
817.7286948424
 31
0.0
  0
LINE
  5
FB
330
8F
100
AcDbEntity
  8
09712038_KAPPE
  6
Continuous
 62
     7
100
AcDbLine
 10
44.6231438315
 20
817.7286948424
 30
0.0
 11
44.6435079142
 21
817.6690237969
 31
0.0
  0
LINE
  5
FC
330
8F
100
AcDbEntity
  8
09712038_KAPPE
  6
Continuous
 62
     7
100
AcDbLine
 10
44.6435079142
 20
817.6690237969
 30
0.0
 11
44.6608519431
 21
817.6082790478
 31
0.0
  0
LINE
  5
FD
330
8F
100
AcDbEntity
  8
09712038_KAPPE
  6
Continuous
 62
     7
100
AcDbLine
 10
44.6608519431
 20
817.6082790478
 30
0.0
 11
44.6750969771
 21
817.5466919096
 31
0.0
  0
LINE
  5
FE
330
8F
100
AcDbEntity
  8
09712038_KAPPE
  6
Continuous
 62
     7
100
AcDbLine
 10
44.6750969771
 20
817.5466919096
 30
0.0
 11
44.6861878665
 21
817.4845008165
 31
0.0
  0
LINE
  5
FF
330
8F
100
AcDbEntity
  8
09712038_KAPPE
  6
Continuous
 62
     7
100
AcDbLine
 10
44.6861878665
 20
817.4845008165
 30
0.0
 11
44.6940939634
 21
817.4219482532
 31
0.0
  0
LINE
  5
100
330
8F
100
AcDbEntity
  8
09712038_KAPPE
  6
Continuous
 62
     7
100
AcDbLine
 10
44.6940939634
 20
817.4219482532
 30
0.0
 11
44.6988093573
 21
817.3592776199
 31
0.0
  0
LINE
  5
101
330
8F
100
AcDbEntity
  8
09712038_KAPPE
  6
Continuous
 62
     7
100
AcDbLine
 10
44.6988093573
 20
817.3592776199
 30
0.0
 11
44.7003526351
 21
817.2967301153
 31
0.0
  0
LINE
  5
102
330
8F
100
AcDbEntity
  8
09712038_KAPPE
  6
Continuous
 62
     7
100
AcDbLine
 10
44.7003526351
 20
817.2967301153
 30
0.0
 11
44.6999628884
 21
817.237917824
 31
0.0
  0
LINE
  5
103
330
8F
100
AcDbEntity
  8
09712038_KAPPE
  6
Continuous
 62
     7
100
AcDbLine
 10
44.6999628884
 20
817.237917824
 30
0.0
 11
44.695117248
 21
817.1826217056
 31
0.0
  0
LINE
  5
104
330
8F
100
AcDbEntity
  8
09712038_KAPPE
  6
Continuous
 62
     7
100
AcDbLine
 10
44.695117248
 20
817.1826217056
 30
0.0
 11
44.6863113393
 21
817.1308097559
 31
0.0
  0
LINE
  5
105
330
8F
100
AcDbEntity
  8
09712038_KAPPE
  6
Continuous
 62
     7
100
AcDbLine
 10
44.6863113393
 20
817.1308097559
 30
0.0
 11
44.6740407874
 21
817.0824499705
 31
0.0
  0
LINE
  5
106
330
8F
100
AcDbEntity
  8
09712038_KAPPE
  6
Continuous
 62
     7
100
AcDbLine
 10
44.6740407874
 20
817.0824499705
 30
0.0
 11
44.6588012177
 21
817.037510345
 31
0.0
  0
LINE
  5
107
330
8F
100
AcDbEntity
  8
09712038_KAPPE
  6
Continuous
 62
     7
100
AcDbLine
 10
44.6588012177
 20
817.037510345
 30
0.0
 11
44.6410882553
 21
816.9959588753
 31
0.0
  0
LINE
  5
108
330
8F
100
AcDbEntity
  8
09712038_KAPPE
  6
Continuous
 62
     7
100
AcDbLine
 10
44.6410882553
 20
816.9959588753
 30
0.0
 11
44.6109653808
 21
816.939914453
 31
0.0
  0
LINE
  5
109
330
8F
100
AcDbEntity
  8
09712038_KAPPE
  6
Continuous
 62
     7
100
AcDbLine
 10
44.6109653808
 20
816.939914453
 30
0.0
 11
44.578065265
 21
816.8913133567
 31
0.0
  0
LINE
  5
10A
330
8F
100
AcDbEntity
  8
09712038_KAPPE
  6
Continuous
 62
     7
100
AcDbLine
 10
44.578065265
 20
816.8913133567
 30
0.0
 11
44.5460130464
 21
816.8524361997
 31
0.0
  0
LINE
  5
10B
330
8F
100
AcDbEntity
  8
09712038_KAPPE
  6
Continuous
 62
     7
100
AcDbLine
 10
44.5460130464
 20
816.8524361997
 30
0.0
 11
44.5122343575
 21
816.8187708707
 31
0.0
  0
LINE
  5
10C
330
8F
100
AcDbEntity
  8
09712038_KAPPE
  6
Continuous
 62
     7
100
AcDbLine
 10
44.5122343575
 20
816.8187708707
 30
0.0
 11
44.4759625611
 21
816.789154696
 31
0.0
  0
LINE
  5
10D
330
8F
100
AcDbEntity
  8
09712038_KAPPE
  6
Continuous
 62
     7
100
AcDbLine
 10
44.4759625611
 20
816.789154696
 30
0.0
 11
44.4364310202
 21
816.7624250019
 31
0.0
  0
LINE
  5
10E
330
8F
100
AcDbEntity
  8
09712038_KAPPE
  6
Continuous
 62
     7
100
AcDbLine
 10
44.4364310202
 20
816.7624250019
 30
0.0
 11
44.3928730979
 21
816.7374191147
 31
0.0
  0
LINE
  5
10F
330
8F
100
AcDbEntity
  8
09712038_KAPPE
  6
Continuous
 62
     7
100
AcDbLine
 10
44.3928730979
 20
816.7374191147
 30
0.0
 11
44.3445221569
 21
816.7129743607
 31
0.0
  0
LINE
  5
110
330
8F
100
AcDbEntity
  8
09712038_KAPPE
  6
Continuous
 62
     7
100
AcDbLine
 10
44.3445221569
 20
816.7129743607
 30
0.0
 11
44.2888322548
 21
816.6876884051
 31
0.0
  0
LINE
  5
111
330
8F
100
AcDbEntity
  8
09712038_KAPPE
  6
Continuous
 62
     7
100
AcDbLine
 10
44.2888322548
 20
816.6876884051
 30
0.0
 11
44.2252963079
 21
816.6633733188
 31
0.0
  0
LINE
  5
112
330
8F
100
AcDbEntity
  8
09712038_KAPPE
  6
Continuous
 62
     7
100
AcDbLine
 10
44.2252963079
 20
816.6633733188
 30
0.0
 11
44.1776061639
 21
816.6484959186
 31
0.0
  0
LINE
  5
113
330
8F
100
AcDbEntity
  8
09712038_KAPPE
  6
Continuous
 62
     7
100
AcDbLine
 10
44.1776061639
 20
816.6484959186
 30
0.0
 11
44.1249679905
 21
816.635239944
 31
0.0
  0
LINE
  5
114
330
8F
100
AcDbEntity
  8
09712038_KAPPE
  6
Continuous
 62
     7
100
AcDbLine
 10
44.1249679905
 20
816.635239944
 30
0.0
 11
44.0667974284
 21
816.6240813663
 31
0.0
  0
LINE
  5
115
330
8F
100
AcDbEntity
  8
09712038_KAPPE
  6
Continuous
 62
     7
100
AcDbLine
 10
44.0667974284
 20
816.6240813663
 30
0.0
 11
44.0025101182
 21
816.6154961566
 31
0.0
  0
LINE
  5
116
330
8F
100
AcDbEntity
  8
09712038_KAPPE
  6
Continuous
 62
     7
100
AcDbLine
 10
44.0025101182
 20
816.6154961566
 30
0.0
 11
43.9315217006
 21
816.6099602862
 31
0.0
  0
LINE
  5
117
330
8F
100
AcDbEntity
  8
09712038_KAPPE
  6
Continuous
 62
     7
100
AcDbLine
 10
43.9315217006
 20
816.6099602862
 30
0.0
 11
43.8532478163
 21
816.6079497264
 31
0.0
  0
LINE
  5
118
330
8F
100
AcDbEntity
  8
09712038_KAPPE
  6
Continuous
 62
     7
100
AcDbLine
 10
43.8532478163
 20
816.6079497264
 30
0.0
 11
43.774974007
 21
816.6105392019
 31
0.0
  0
LINE
  5
119
330
8F
100
AcDbEntity
  8
09712038_KAPPE
  6
Continuous
 62
     7
100
AcDbLine
 10
43.774974007
 20
816.6105392019
 30
0.0
 11
43.7039857958
 21
816.6176636702
 31
0.0
  0
LINE
  5
11A
330
8F
100
AcDbEntity
  8
09712038_KAPPE
  6
Continuous
 62
     7
100
AcDbLine
 10
43.7039857958
 20
816.6176636702
 30
0.0
 11
43.6396988057
 21
816.6287108226
 31
0.0
  0
LINE
  5
11B
330
8F
100
AcDbEntity
  8
09712038_KAPPE
  6
Continuous
 62
     7
100
AcDbLine
 10
43.6396988057
 20
816.6287108226
 30
0.0
 11
43.5815286595
 21
816.6430683502
 31
0.0
  0
LINE
  5
11C
330
8F
100
AcDbEntity
  8
09712038_KAPPE
  6
Continuous
 62
     7
100
AcDbLine
 10
43.5815286595
 20
816.6430683502
 30
0.0
 11
43.5288909802
 21
816.6601239443
 31
0.0
  0
LINE
  5
11D
330
8F
100
AcDbEntity
  8
09712038_KAPPE
  6
Continuous
 62
     7
100
AcDbLine
 10
43.5288909802
 20
816.6601239443
 30
0.0
 11
43.4812013907
 21
816.6792652961
 31
0.0
  0
LINE
  5
11E
330
8F
100
AcDbEntity
  8
09712038_KAPPE
  6
Continuous
 62
     7
100
AcDbLine
 10
43.4812013907
 20
816.6792652961
 30
0.0
 11
43.4176663501
 21
816.7105486941
 31
0.0
  0
LINE
  5
11F
330
8F
100
AcDbEntity
  8
09712038_KAPPE
  6
Continuous
 62
     7
100
AcDbLine
 10
43.4176663501
 20
816.7105486941
 30
0.0
 11
43.3619773905
 21
816.74308081
 31
0.0
  0
LINE
  5
120
330
8F
100
AcDbEntity
  8
09712038_KAPPE
  6
Continuous
 62
     7
100
AcDbLine
 10
43.3619773905
 20
816.74308081
 30
0.0
 11
43.3136273607
 21
816.7745304578
 31
0.0
  0
LINE
  5
121
330
8F
100
AcDbEntity
  8
09712038_KAPPE
  6
Continuous
 62
     7
100
AcDbLine
 10
43.3136273607
 20
816.7745304578
 30
0.0
 11
43.2700703704
 21
816.8067018172
 31
0.0
  0
LINE
  5
122
330
8F
100
AcDbEntity
  8
09712038_KAPPE
  6
Continuous
 62
     7
100
AcDbLine
 10
43.2700703704
 20
816.8067018172
 30
0.0
 11
43.2305398258
 21
816.8410906809
 31
0.0
  0
LINE
  5
123
330
8F
100
AcDbEntity
  8
09712038_KAPPE
  6
Continuous
 62
     7
100
AcDbLine
 10
43.2305398258
 20
816.8410906809
 30
0.0
 11
43.1942691333
 21
816.8791928414
 31
0.0
  0
LINE
  5
124
330
8F
100
AcDbEntity
  8
09712038_KAPPE
  6
Continuous
 62
     7
100
AcDbLine
 10
43.1942691333
 20
816.8791928414
 30
0.0
 11
43.1604916992
 21
816.9225040912
 31
0.0
  0
LINE
  5
125
330
8F
100
AcDbEntity
  8
09712038_KAPPE
  6
Continuous
 62
     7
100
AcDbLine
 10
43.1604916992
 20
816.9225040912
 30
0.0
 11
43.1284409297
 21
816.9725202229
 31
0.0
  0
LINE
  5
126
330
8F
100
AcDbEntity
  8
09712038_KAPPE
  6
Continuous
 62
     7
100
AcDbLine
 10
43.1284409297
 20
816.9725202229
 30
0.0
 11
43.1062827178
 21
817.0131470425
 31
0.0
  0
LINE
  5
127
330
8F
100
AcDbEntity
  8
09712038_KAPPE
  6
Continuous
 62
     7
100
AcDbLine
 10
43.1062827178
 20
817.0131470425
 30
0.0
 11
43.0851111443
 21
817.0580091225
 31
0.0
  0
LINE
  5
128
330
8F
100
AcDbEntity
  8
09712038_KAPPE
  6
Continuous
 62
     7
100
AcDbLine
 10
43.0851111443
 20
817.0580091225
 30
0.0
 11
43.0654218346
 21
817.1071476174
 31
0.0
  0
LINE
  5
129
330
8F
100
AcDbEntity
  8
09712038_KAPPE
  6
Continuous
 62
     7
100
AcDbLine
 10
43.0654218346
 20
817.1071476174
 30
0.0
 11
43.0477104139
 21
817.1606036819
 31
0.0
  0
LINE
  5
12A
330
8F
100
AcDbEntity
  8
09712038_KAPPE
  6
Continuous
 62
     7
100
AcDbLine
 10
43.0477104139
 20
817.1606036819
 30
0.0
 11
43.0324725075
 21
817.2184184707
 31
0.0
  0
LINE
  5
12B
330
8F
100
AcDbEntity
  8
09712038_KAPPE
  6
Continuous
 62
     7
100
AcDbLine
 10
43.0324725075
 20
817.2184184707
 30
0.0
 11
43.0202037407
 21
817.2806331384
 31
0.0
  0
LINE
  5
12C
330
8F
100
AcDbEntity
  8
09712038_KAPPE
  6
Continuous
 62
     7
100
AcDbLine
 10
43.0202037407
 20
817.2806331384
 30
0.0
 11
43.0113997388
 21
817.3472888398
 31
0.0
  0
LINE
  5
12D
330
8F
100
AcDbEntity
  8
09712038_KAPPE
  6
Continuous
 62
     7
100
AcDbLine
 10
43.0113997388
 20
817.3472888398
 30
0.0
 11
43.0065561271
 21
817.4184267293
 31
0.0
  0
LINE
  5
12E
330
8F
100
AcDbEntity
  8
09712038_KAPPE
  6
Continuous
 62
     7
100
AcDbLine
 10
43.0065561271
 20
817.4184267293
 30
0.0
 11
43.0061685308
 21
817.4940879618
 31
0.0
  0
LINE
  5
12F
330
8F
100
AcDbEntity
  8
09712038_KAPPE
  6
Continuous
 62
     7
100
AcDbLine
 10
43.0061685308
 20
817.4940879618
 30
0.0
 11
43.0096093312
 21
817.6014819995
 31
0.0
  0
LINE
  5
130
330
8F
100
AcDbEntity
  8
09712038_KAPPE
  6
Continuous
 62
     7
100
AcDbLine
 10
43.0096093312
 20
817.6014819995
 30
0.0
 11
43.0200055659
 21
817.7092176409
 31
0.0
  0
LINE
  5
131
330
8F
100
AcDbEntity
  8
09712038_KAPPE
  6
Continuous
 62
     7
100
AcDbLine
 10
43.0200055659
 20
817.7092176409
 30
0.0
 11
43.0374234806
 21
817.8166197104
 31
0.0
  0
LINE
  5
132
330
8F
100
AcDbEntity
  8
09712038_KAPPE
  6
Continuous
 62
     7
100
AcDbLine
 10
43.0374234806
 20
817.8166197104
 30
0.0
 11
43.0618416789
 21
817.9230029925
 31
0.0
  0
LINE
  5
133
330
8F
100
AcDbEntity
  8
09712038_KAPPE
  6
Continuous
 62
     7
100
AcDbLine
 10
43.0618416789
 20
817.9230029925
 30
0.0
 11
43.0931497221
 21
818.0276865019
 31
0.0
  0
LINE
  5
134
330
8F
100
AcDbEntity
  8
09712038_KAPPE
  6
Continuous
 62
     7
100
AcDbLine
 10
43.0931497221
 20
818.0276865019
 30
0.0
 11
43.1311495195
 21
818.1300078903
 31
0.0
  0
LINE
  5
135
330
8F
100
AcDbEntity
  8
09712038_KAPPE
  6
Continuous
 62
     7
100
AcDbLine
 10
43.1311495195
 20
818.1300078903
 30
0.0
 11
43.1755594886
 21
818.2293373567
 31
0.0
  0
LINE
  5
136
330
8F
100
AcDbEntity
  8
09712038_KAPPE
  6
Continuous
 62
     7
100
AcDbLine
 10
43.1755594886
 20
818.2293373567
 30
0.0
 11
43.2260213033
 21
818.3250904526
 31
0.0
  0
LINE
  5
137
330
8F
100
AcDbEntity
  8
09712038_KAPPE
  6
Continuous
 62
     7
100
AcDbLine
 10
43.2260213033
 20
818.3250904526
 30
0.0
 11
43.2821088986
 21
818.4167392393
 31
0.0
  0
LINE
  5
138
330
8F
100
AcDbEntity
  8
09712038_KAPPE
  6
Continuous
 62
     7
100
AcDbLine
 10
43.2821088986
 20
818.4167392393
 30
0.0
 11
42.799538129
 21
818.4167471057
 31
0.0
  0
LINE
  5
139
330
8F
100
AcDbEntity
  8
09712038_KAPPE
  6
Continuous
 62
     7
100
AcDbLine
 10
42.799538129
 20
818.4167471057
 30
0.0
 11
42.7490587668
 21
818.305184384
 31
0.0
  0
LINE
  5
13A
330
8F
100
AcDbEntity
  8
09712038_KAPPE
  6
Continuous
 62
     7
100
AcDbLine
 10
42.7490587668
 20
818.305184384
 30
0.0
 11
42.7039976312
 21
818.190748633
 31
0.0
  0
LINE
  5
13B
330
8F
100
AcDbEntity
  8
09712038_KAPPE
  6
Continuous
 62
     7
100
AcDbLine
 10
42.7039976312
 20
818.190748633
 30
0.0
 11
42.6645860062
 21
818.0738389944
 31
0.0
  0
LINE
  5
13C
330
8F
100
AcDbEntity
  8
09712038_KAPPE
  6
Continuous
 62
     7
100
AcDbLine
 10
42.6645860062
 20
818.0738389944
 30
0.0
 11
42.6310154138
 21
817.9548783215
 31
0.0
  0
LINE
  5
13D
330
8F
100
AcDbEntity
  8
09712038_KAPPE
  6
Continuous
 62
     7
100
AcDbLine
 10
42.6310154138
 20
817.9548783215
 30
0.0
 11
42.6034347022
 21
817.8343081539
 31
0.0
  0
LINE
  5
13E
330
8F
100
AcDbEntity
  8
09712038_KAPPE
  6
Continuous
 62
     7
100
AcDbLine
 10
42.6034347022
 20
817.8343081539
 30
0.0
 11
42.5819479063
 21
817.7125832839
 31
0.0
  0
LINE
  5
13F
330
8F
100
AcDbEntity
  8
09712038_KAPPE
  6
Continuous
 62
     7
100
AcDbLine
 10
42.5819479063
 20
817.7125832839
 30
0.0
 11
42.5666129425
 21
817.590166052
 31
0.0
  0
LINE
  5
140
330
8F
100
AcDbEntity
  8
09712038_KAPPE
  6
Continuous
 62
     7
100
AcDbLine
 10
42.5666129425
 20
817.590166052
 30
0.0
 11
42.5574411735
 21
817.4675205233
 31
0.0
  0
LINE
  5
141
330
8F
100
AcDbEntity
  8
09712038_KAPPE
  6
Continuous
 62
     7
100
AcDbLine
 10
42.6268303799
 20
820.297898123
 30
0.0
 11
42.6264763676
 21
820.221490247
 31
0.0
  0
LINE
  5
142
330
8F
100
AcDbEntity
  8
09712038_KAPPE
  6
Continuous
 62
     7
100
AcDbLine
 10
42.6264763676
 20
820.221490247
 30
0.0
 11
42.6264569708
 21
819.031582876
 31
0.0
  0
LINE
  5
143
330
8F
100
AcDbEntity
  8
09712038_KAPPE
  6
Continuous
 62
     7
100
AcDbLine
 10
42.6264569708
 20
819.031582876
 30
0.0
 11
45.0801176768
 21
819.0315428786
 31
0.0
  0
LINE
  5
144
330
8F
100
AcDbEntity
  8
09712038_KAPPE
  6
Continuous
 62
     7
100
AcDbLine
 10
45.0801176768
 20
819.0315428786
 30
0.0
 11
45.0801282971
 21
819.6830517901
 31
0.0
  0
LINE
  5
145
330
8F
100
AcDbEntity
  8
09712038_KAPPE
  6
Continuous
 62
     7
100
AcDbLine
 10
45.0801282971
 20
819.6830517901
 30
0.0
 11
43.0955081058
 21
819.6830841416
 31
0.0
  0
LINE
  5
146
330
8F
100
AcDbEntity
  8
09712038_KAPPE
  6
Continuous
 62
     7
100
AcDbLine
 10
43.0955081058
 20
819.6830841416
 30
0.0
 11
43.0955149858
 21
820.105141735
 31
0.0
  0
LINE
  5
147
330
8F
100
AcDbEntity
  8
09712038_KAPPE
  6
Continuous
 62
     7
100
AcDbLine
 10
43.0955149858
 20
820.105141735
 30
0.0
 11
43.096568455
 21
820.1524297296
 31
0.0
  0
LINE
  5
148
330
8F
100
AcDbEntity
  8
09712038_KAPPE
  6
Continuous
 62
     7
100
AcDbLine
 10
43.096568455
 20
820.1524297296
 30
0.0
 11
43.1019835111
 21
820.1954321187
 31
0.0
  0
LINE
  5
149
330
8F
100
AcDbEntity
  8
09712038_KAPPE
  6
Continuous
 62
     7
100
AcDbLine
 10
43.1019835111
 20
820.1954321187
 30
0.0
 11
43.1109895949
 21
820.2342076796
 31
0.0
  0
LINE
  5
14A
330
8F
100
AcDbEntity
  8
09712038_KAPPE
  6
Continuous
 62
     7
100
AcDbLine
 10
43.1109895949
 20
820.2342076796
 30
0.0
 11
43.1228161474
 21
820.268815189
 31
0.0
  0
LINE
  5
14B
330
8F
100
AcDbEntity
  8
09712038_KAPPE
  6
Continuous
 62
     7
100
AcDbLine
 10
43.1228161474
 20
820.268815189
 30
0.0
 11
43.1366926093
 21
820.2993134241
 31
0.0
  0
LINE
  5
14C
330
8F
100
AcDbEntity
  8
09712038_KAPPE
  6
Continuous
 62
     7
100
AcDbLine
 10
43.1366926093
 20
820.2993134241
 30
0.0
 11
43.1518484214
 21
820.3257611618
 31
0.0
  0
LINE
  5
14D
330
8F
100
AcDbEntity
  8
09712038_KAPPE
  6
Continuous
 62
     7
100
AcDbLine
 10
43.1518484214
 20
820.3257611618
 30
0.0
 11
43.1716946588
 21
820.3533078897
 31
0.0
  0
LINE
  5
14E
330
8F
100
AcDbEntity
  8
09712038_KAPPE
  6
Continuous
 62
     7
100
AcDbLine
 10
43.1716946588
 20
820.3533078897
 30
0.0
 11
43.1931640565
 21
820.3761874827
 31
0.0
  0
LINE
  5
14F
330
8F
100
AcDbEntity
  8
09712038_KAPPE
  6
Continuous
 62
     7
100
AcDbLine
 10
43.1931640565
 20
820.3761874827
 30
0.0
 11
43.2170937347
 21
820.3958996824
 31
0.0
  0
LINE
  5
150
330
8F
100
AcDbEntity
  8
09712038_KAPPE
  6
Continuous
 62
     7
100
AcDbLine
 10
43.2170937347
 20
820.3958996824
 30
0.0
 11
43.2371591325
 21
820.4095074188
 31
0.0
  0
LINE
  5
151
330
8F
100
AcDbEntity
  8
09712038_KAPPE
  6
Continuous
 62
     7
100
AcDbLine
 10
43.2371591325
 20
820.4095074188
 30
0.0
 11
43.2594324784
 21
820.4228098048
 31
0.0
  0
LINE
  5
152
330
8F
100
AcDbEntity
  8
09712038_KAPPE
  6
Continuous
 62
     7
100
AcDbLine
 10
43.2594324784
 20
820.4228098048
 30
0.0
 11
43.2850865864
 21
820.4365699651
 31
0.0
  0
LINE
  5
153
330
8F
100
AcDbEntity
  8
09712038_KAPPE
  6
Continuous
 62
     7
100
AcDbLine
 10
43.2850865864
 20
820.4365699651
 30
0.0
 11
43.3143550469
 21
820.4498018093
 31
0.0
  0
LINE
  5
154
330
8F
100
AcDbEntity
  8
09712038_KAPPE
  6
Continuous
 62
     7
100
AcDbLine
 10
43.3143550469
 20
820.4498018093
 30
0.0
 11
43.348146376
 21
820.4616311696
 31
0.0
  0
LINE
  5
155
330
8F
100
AcDbEntity
  8
09712038_KAPPE
  6
Continuous
 62
     7
100
AcDbLine
 10
43.348146376
 20
820.4616311696
 30
0.0
 11
43.3873690898
 21
820.471183878
 31
0.0
  0
LINE
  5
156
330
8F
100
AcDbEntity
  8
09712038_KAPPE
  6
Continuous
 62
     7
100
AcDbLine
 10
43.3873690898
 20
820.471183878
 30
0.0
 11
43.4329317041
 21
820.4775857666
 31
0.0
  0
LINE
  5
157
330
8F
100
AcDbEntity
  8
09712038_KAPPE
  6
Continuous
 62
     7
100
AcDbLine
 10
43.4329317041
 20
820.4775857666
 30
0.0
 11
43.4857427352
 21
820.4799626674
 31
0.0
  0
LINE
  5
158
330
8F
100
AcDbEntity
  8
09712038_KAPPE
  6
Continuous
 62
     7
100
AcDbLine
 10
43.4857427352
 20
820.4799626674
 30
0.0
 11
43.5385536888
 21
820.4775840449
 31
0.0
  0
LINE
  5
159
330
8F
100
AcDbEntity
  8
09712038_KAPPE
  6
Continuous
 62
     7
100
AcDbLine
 10
43.5385536888
 20
820.4775840449
 30
0.0
 11
43.5841160944
 21
820.4711806708
 31
0.0
  0
LINE
  5
15A
330
8F
100
AcDbEntity
  8
09712038_KAPPE
  6
Continuous
 62
     7
100
AcDbLine
 10
43.5841160944
 20
820.4711806708
 30
0.0
 11
43.6233384967
 21
820.4616266837
 31
0.0
  0
LINE
  5
15B
330
8F
100
AcDbEntity
  8
09712038_KAPPE
  6
Continuous
 62
     7
100
AcDbLine
 10
43.6233384967
 20
820.4616266837
 30
0.0
 11
43.6571294401
 21
820.4497962217
 31
0.0
  0
LINE
  5
15C
330
8F
100
AcDbEntity
  8
09712038_KAPPE
  6
Continuous
 62
     7
100
AcDbLine
 10
43.6571294401
 20
820.4497962217
 30
0.0
 11
43.6863974692
 21
820.4365634232
 31
0.0
  0
LINE
  5
15D
330
8F
100
AcDbEntity
  8
09712038_KAPPE
  6
Continuous
 62
     7
100
AcDbLine
 10
43.6863974692
 20
820.4365634232
 30
0.0
 11
43.7120511286
 21
820.4228024266
 31
0.0
  0
LINE
  5
15E
330
8F
100
AcDbEntity
  8
09712038_KAPPE
  6
Continuous
 62
     7
100
AcDbLine
 10
43.7120511286
 20
820.4228024266
 30
0.0
 11
43.7412402485
 21
820.4050283493
 31
0.0
  0
LINE
  5
15F
330
8F
100
AcDbEntity
  8
09712038_KAPPE
  6
Continuous
 62
     7
100
AcDbLine
 10
43.7412402485
 20
820.4050283493
 30
0.0
 11
43.7667133776
 21
820.3863366125
 31
0.0
  0
LINE
  5
160
330
8F
100
AcDbEntity
  8
09712038_KAPPE
  6
Continuous
 62
     7
100
AcDbLine
 10
43.7667133776
 20
820.3863366125
 30
0.0
 11
43.7893075873
 21
820.3652274473
 31
0.0
  0
LINE
  5
161
330
8F
100
AcDbEntity
  8
09712038_KAPPE
  6
Continuous
 62
     7
100
AcDbLine
 10
43.7893075873
 20
820.3652274473
 30
0.0
 11
43.8048675045
 21
820.3469069311
 31
0.0
  0
LINE
  5
162
330
8F
100
AcDbEntity
  8
09712038_KAPPE
  6
Continuous
 62
     7
100
AcDbLine
 10
43.8048675045
 20
820.3469069311
 30
0.0
 11
43.8196320215
 21
820.3257502762
 31
0.0
  0
LINE
  5
163
330
8F
100
AcDbEntity
  8
09712038_KAPPE
  6
Continuous
 62
     7
100
AcDbLine
 10
43.8196320215
 20
820.3257502762
 30
0.0
 11
43.8330384707
 21
820.3026550054
 31
0.0
  0
LINE
  5
164
330
8F
100
AcDbEntity
  8
09712038_KAPPE
  6
Continuous
 62
     7
100
AcDbLine
 10
43.8330384707
 20
820.3026550054
 30
0.0
 11
43.845522473
 21
820.2764199325
 31
0.0
  0
LINE
  5
165
330
8F
100
AcDbEntity
  8
09712038_KAPPE
  6
Continuous
 62
     7
100
AcDbLine
 10
43.845522473
 20
820.2764199325
 30
0.0
 11
43.8565567643
 21
820.2470048558
 31
0.0
  0
LINE
  5
166
330
8F
100
AcDbEntity
  8
09712038_KAPPE
  6
Continuous
 62
     7
100
AcDbLine
 10
43.8565567643
 20
820.2470048558
 30
0.0
 11
43.8656140804
 21
820.2143695738
 31
0.0
  0
LINE
  5
167
330
8F
100
AcDbEntity
  8
09712038_KAPPE
  6
Continuous
 62
     7
100
AcDbLine
 10
43.8656140804
 20
820.2143695738
 30
0.0
 11
43.8721671573
 21
820.1784738849
 31
0.0
  0
LINE
  5
168
330
8F
100
AcDbEntity
  8
09712038_KAPPE
  6
Continuous
 62
     7
100
AcDbLine
 10
43.8721671573
 20
820.1784738849
 30
0.0
 11
43.8756887308
 21
820.1392775877
 31
0.0
  0
LINE
  5
169
330
8F
100
AcDbEntity
  8
09712038_KAPPE
  6
Continuous
 62
     7
100
AcDbLine
 10
43.8756887308
 20
820.1392775877
 30
0.0
 11
43.8756826293
 21
819.7649754014
 31
0.0
  0
LINE
  5
16A
330
8F
100
AcDbEntity
  8
09712038_KAPPE
  6
Continuous
 62
     7
100
AcDbLine
 10
43.8756826293
 20
819.7649754014
 30
0.0
 11
45.0801443186
 21
820.6658995195
 31
0.0
  0
LINE
  5
16B
330
8F
100
AcDbEntity
  8
09712038_KAPPE
  6
Continuous
 62
     7
100
AcDbLine
 10
45.0801443186
 20
820.6658995195
 30
0.0
 11
45.080157488
 21
821.4737825493
 31
0.0
  0
LINE
  5
16C
330
8F
100
AcDbEntity
  8
09712038_KAPPE
  6
Continuous
 62
     7
100
AcDbLine
 10
45.080157488
 20
821.4737825493
 30
0.0
 11
44.0956869468
 21
820.6520586776
 31
0.0
  0
LINE
  5
16D
330
8F
100
AcDbEntity
  8
09712038_KAPPE
  6
Continuous
 62
     7
100
AcDbLine
 10
44.0956869468
 20
820.6520586776
 30
0.0
 11
44.0747158376
 21
820.7027196904
 31
0.0
  0
LINE
  5
16E
330
8F
100
AcDbEntity
  8
09712038_KAPPE
  6
Continuous
 62
     7
100
AcDbLine
 10
44.0747158376
 20
820.7027196904
 30
0.0
 11
44.0526014983
 21
820.7481797676
 31
0.0
  0
LINE
  5
16F
330
8F
100
AcDbEntity
  8
09712038_KAPPE
  6
Continuous
 62
     7
100
AcDbLine
 10
44.0526014983
 20
820.7481797676
 30
0.0
 11
44.0235234332
 21
820.7986894252
 31
0.0
  0
LINE
  5
170
330
8F
100
AcDbEntity
  8
09712038_KAPPE
  6
Continuous
 62
     7
100
AcDbLine
 10
44.0235234332
 20
820.7986894252
 30
0.0
 11
43.9928788358
 21
820.8424280315
 31
0.0
  0
LINE
  5
171
330
8F
100
AcDbEntity
  8
09712038_KAPPE
  6
Continuous
 62
     7
100
AcDbLine
 10
43.9928788358
 20
820.8424280315
 30
0.0
 11
43.9599722141
 21
820.8809061389
 31
0.0
  0
LINE
  5
172
330
8F
100
AcDbEntity
  8
09712038_KAPPE
  6
Continuous
 62
     7
100
AcDbLine
 10
43.9599722141
 20
820.8809061389
 30
0.0
 11
43.9241080765
 21
820.9156342997
 31
0.0
  0
LINE
  5
173
330
8F
100
AcDbEntity
  8
09712038_KAPPE
  6
Continuous
 62
     7
100
AcDbLine
 10
43.9241080765
 20
820.9156342997
 30
0.0
 11
43.8845909311
 21
820.9481230663
 31
0.0
  0
LINE
  5
174
330
8F
100
AcDbEntity
  8
09712038_KAPPE
  6
Continuous
 62
     7
100
AcDbLine
 10
43.8845909311
 20
820.9481230663
 30
0.0
 11
43.8407252864
 21
820.9798829911
 31
0.0
  0
LINE
  5
175
330
8F
100
AcDbEntity
  8
09712038_KAPPE
  6
Continuous
 62
     7
100
AcDbLine
 10
43.8407252864
 20
820.9798829911
 30
0.0
 11
43.7902013792
 21
821.0127360539
 31
0.0
  0
LINE
  5
176
330
8F
100
AcDbEntity
  8
09712038_KAPPE
  6
Continuous
 62
     7
100
AcDbLine
 10
43.7902013792
 20
821.0127360539
 30
0.0
 11
43.7325590914
 21
821.0443280629
 31
0.0
  0
LINE
  5
177
330
8F
100
AcDbEntity
  8
09712038_KAPPE
  6
Continuous
 62
     7
100
AcDbLine
 10
43.7325590914
 20
821.0443280629
 30
0.0
 11
43.6892926123
 21
821.0636582296
 31
0.0
  0
LINE
  5
178
330
8F
100
AcDbEntity
  8
09712038_KAPPE
  6
Continuous
 62
     7
100
AcDbLine
 10
43.6892926123
 20
821.0636582296
 30
0.0
 11
43.6415369617
 21
821.0808820472
 31
0.0
  0
LINE
  5
179
330
8F
100
AcDbEntity
  8
09712038_KAPPE
  6
Continuous
 62
     7
100
AcDbLine
 10
43.6415369617
 20
821.0808820472
 30
0.0
 11
43.5887619608
 21
821.0953811634
 31
0.0
  0
LINE
  5
17A
330
8F
100
AcDbEntity
  8
09712038_KAPPE
  6
Continuous
 62
     7
100
AcDbLine
 10
43.5887619608
 20
821.0953811634
 30
0.0
 11
43.5304374309
 21
821.106537226
 31
0.0
  0
LINE
  5
17B
330
8F
100
AcDbEntity
  8
09712038_KAPPE
  6
Continuous
 62
     7
100
AcDbLine
 10
43.5304374309
 20
821.106537226
 30
0.0
 11
43.4660331931
 21
821.1137318827
 31
0.0
  0
LINE
  5
17C
330
8F
100
AcDbEntity
  8
09712038_KAPPE
  6
Continuous
 62
     7
100
AcDbLine
 10
43.4660331931
 20
821.1137318827
 30
0.0
 11
43.3950190689
 21
821.1163467812
 31
0.0
  0
LINE
  5
17D
330
8F
100
AcDbEntity
  8
09712038_KAPPE
  6
Continuous
 62
     7
100
AcDbLine
 10
43.3950190689
 20
821.1163467812
 30
0.0
 11
43.3240048595
 21
821.1137341979
 31
0.0
  0
LINE
  5
17E
330
8F
100
AcDbEntity
  8
09712038_KAPPE
  6
Continuous
 62
     7
100
AcDbLine
 10
43.3240048595
 20
821.1137341979
 30
0.0
 11
43.2596003873
 21
821.1065416409
 31
0.0
  0
LINE
  5
17F
330
8F
100
AcDbEntity
  8
09712038_KAPPE
  6
Continuous
 62
     7
100
AcDbLine
 10
43.2596003873
 20
821.1065416409
 30
0.0
 11
43.2012754937
 21
821.0953874798
 31
0.0
  0
LINE
  5
180
330
8F
100
AcDbEntity
  8
09712038_KAPPE
  6
Continuous
 62
     7
100
AcDbLine
 10
43.2012754937
 20
821.0953874798
 30
0.0
 11
43.1485000201
 21
821.0808900842
 31
0.0
  0
LINE
  5
181
330
8F
100
AcDbEntity
  8
09712038_KAPPE
  6
Continuous
 62
     7
100
AcDbLine
 10
43.1485000201
 20
821.0808900842
 30
0.0
 11
43.1007438079
 21
821.0636678235
 31
0.0
  0
LINE
  5
182
330
8F
100
AcDbEntity
  8
09712038_KAPPE
  6
Continuous
 62
     7
100
AcDbLine
 10
43.1007438079
 20
821.0636678235
 30
0.0
 11
43.0574766987
 21
821.0443390675
 31
0.0
  0
LINE
  5
183
330
8F
100
AcDbEntity
  8
09712038_KAPPE
  6
Continuous
 62
     7
100
AcDbLine
 10
43.0574766987
 20
821.0443390675
 30
0.0
 11
42.9998333809
 21
821.0127489378
 31
0.0
  0
LINE
  5
184
330
8F
100
AcDbEntity
  8
09712038_KAPPE
  6
Continuous
 62
     7
100
AcDbLine
 10
42.9998333809
 20
821.0127489378
 30
0.0
 11
42.9493084027
 21
820.9798975222
 31
0.0
  0
LINE
  5
185
330
8F
100
AcDbEntity
  8
09712038_KAPPE
  6
Continuous
 62
     7
100
AcDbLine
 10
42.9493084027
 20
820.9798975222
 30
0.0
 11
42.9054417225
 21
820.9481390275
 31
0.0
  0
LINE
  5
186
330
8F
100
AcDbEntity
  8
09712038_KAPPE
  6
Continuous
 62
     7
100
AcDbLine
 10
42.9054417225
 20
820.9481390275
 30
0.0
 11
42.865923518
 21
820.9156515493
 31
0.0
  0
LINE
  5
187
330
8F
100
AcDbEntity
  8
09712038_KAPPE
  6
Continuous
 62
     7
100
AcDbLine
 10
42.865923518
 20
820.9156515493
 30
0.0
 11
42.8300582482
 21
820.8809245577
 31
0.0
  0
LINE
  5
188
330
8F
100
AcDbEntity
  8
09712038_KAPPE
  6
Continuous
 62
     7
100
AcDbLine
 10
42.8300582482
 20
820.8809245577
 30
0.0
 11
42.7971503721
 21
820.8424475232
 31
0.0
  0
LINE
  5
189
330
8F
100
AcDbEntity
  8
09712038_KAPPE
  6
Continuous
 62
     7
100
AcDbLine
 10
42.7971503721
 20
820.8424475232
 30
0.0
 11
42.7665043487
 21
820.798709916
 31
0.0
  0
LINE
  5
18A
330
8F
100
AcDbEntity
  8
09712038_KAPPE
  6
Continuous
 62
     7
100
AcDbLine
 10
42.7665043487
 20
820.798709916
 30
0.0
 11
42.7374246369
 21
820.7482012064
 31
0.0
  0
LINE
  5
18B
330
8F
100
AcDbEntity
  8
09712038_KAPPE
  6
Continuous
 62
     7
100
AcDbLine
 10
42.7374246369
 20
820.7482012064
 30
0.0
 11
42.7075756053
 21
820.685059324
 31
0.0
  0
LINE
  5
18C
330
8F
100
AcDbEntity
  8
09712038_KAPPE
  6
Continuous
 62
     7
100
AcDbLine
 10
42.7075756053
 20
820.685059324
 30
0.0
 11
42.6802461826
 21
820.6122472238
 31
0.0
  0
LINE
  5
18D
330
8F
100
AcDbEntity
  8
09712038_KAPPE
  6
Continuous
 62
     7
100
AcDbLine
 10
42.6802461826
 20
820.6122472238
 30
0.0
 11
42.6641757769
 21
820.5582641866
 31
0.0
  0
LINE
  5
18E
330
8F
100
AcDbEntity
  8
09712038_KAPPE
  6
Continuous
 62
     7
100
AcDbLine
 10
42.6641757769
 20
820.5582641866
 30
0.0
 11
42.6503493377
 21
820.4998793343
 31
0.0
  0
LINE
  5
18F
330
8F
100
AcDbEntity
  8
09712038_KAPPE
  6
Continuous
 62
     7
100
AcDbLine
 10
42.6503493377
 20
820.4998793343
 30
0.0
 11
42.639216521
 21
820.4370510904
 31
0.0
  0
LINE
  5
190
330
8F
100
AcDbEntity
  8
09712038_KAPPE
  6
Continuous
 62
     7
100
AcDbLine
 10
42.639216521
 20
820.4370510904
 30
0.0
 11
42.631226983
 21
820.3697378788
 31
0.0
  0
LINE
  5
191
330
8F
100
AcDbEntity
  8
09712038_KAPPE
  6
Continuous
 62
     7
100
AcDbLine
 10
42.631226983
 20
820.3697378788
 30
0.0
 11
42.6268303799
 21
820.297898123
 31
0.0
  0
ARC
  5
192
330
8F
100
AcDbEntity
  8
09712038_KAPPE
  6
Continuous
 62
     7
100
AcDbCircle
 10
43.8529285412
 20
822.7759674968
 30
0.0
 40
1.248836805238299
100
AcDbArc
 50
220.4334747531
 51
324.434081118
  0
ARC
  5
193
330
8F
100
AcDbEntity
  8
09712038_KAPPE
  6
Continuous
 62
     7
100
AcDbCircle
 10
44.1476004852
 20
823.0267123
 30
0.0
 40
1.635753411924689
100
AcDbArc
 50
135.960659387
 51
220.4244716518
  0
ARC
  5
194
330
8F
100
AcDbEntity
  8
09712038_KAPPE
  6
Continuous
 62
     7
100
AcDbCircle
 10
43.8524839201
 20
823.2929825849
 30
0.0
 40
1.23858298262523
100
AcDbArc
 50
39.830375841
 51
135.3250855684
  0
ARC
  5
195
330
8F
100
AcDbEntity
  8
09712038_KAPPE
  6
Continuous
 62
     7
100
AcDbCircle
 10
43.5323671456
 20
823.0262517595
 30
0.0
 40
1.655260376817319
100
AcDbArc
 50
323.8407154674
 51
39.8232501622
  0
ARC
  5
196
330
8F
100
AcDbEntity
  8
09712038_KAPPE
  6
Continuous
 62
     7
100
AcDbCircle
 10
43.5691629927
 20
822.7791170957
 30
0.0
 40
0.4999333689125484
100
AcDbArc
 50
211.5579121545
 51
233.9632757983
  0
ARC
  5
197
330
8F
100
AcDbEntity
  8
09712038_KAPPE
  6
Continuous
 62
     7
100
AcDbCircle
 10
43.9716455394
 20
823.0259647006
 30
0.0
 40
0.9720836560061256
100
AcDbArc
 50
149.7244836156
 51
211.5401354766
  0
ARC
  5
198
330
8F
100
AcDbEntity
  8
09712038_KAPPE
  6
Continuous
 62
     7
100
AcDbCircle
 10
43.5639789075
 20
823.2641534273
 30
0.0
 40
0.4999333689125387
100
AcDbArc
 50
122.9580165959
 51
149.7443987239
  0
ARC
  5
199
330
8F
100
AcDbEntity
  8
09712038_KAPPE
  6
Continuous
 62
     7
100
AcDbCircle
 10
43.8516421537
 20
822.8200521298
 30
0.0
 40
1.029061027815499
100
AcDbArc
 50
56.0616540532
 51
122.9450722707
  0
ARC
  5
19A
330
8F
100
AcDbEntity
  8
09712038_KAPPE
  6
Continuous
 62
     7
100
AcDbCircle
 10
44.1469256314
 20
823.2591236466
 30
0.0
 40
0.4999333689126352
100
AcDbArc
 50
28.6170199124
 51
56.0438667861
  0
ARC
  5
19B
330
8F
100
AcDbEntity
  8
09712038_KAPPE
  6
Continuous
 62
     7
100
AcDbCircle
 10
43.7202488606
 20
823.0259688575
 30
0.0
 40
0.9861577740796071
100
AcDbArc
 50
330.1241411588
 51
28.6353100642
  0
ARC
  5
19C
330
8F
100
AcDbEntity
  8
09712038_KAPPE
  6
Continuous
 62
     7
100
AcDbCircle
 10
44.1419603724
 20
822.7839489052
 30
0.0
 40
0.4999333689125839
100
AcDbArc
 50
307.0021862258
 51
330.1004357204
  0
ARC
  5
19D
330
8F
100
AcDbEntity
  8
09712038_KAPPE
  6
Continuous
 62
     7
100
AcDbCircle
 10
43.8523027668
 20
823.1678680086
 30
0.0
 40
0.9808651425409723
100
AcDbArc
 50
233.9484049726
 51
307.0176199323
  0
LINE
  5
19E
330
8F
100
AcDbEntity
  8
09712038_KAPPE
  6
Continuous
 62
     7
100
AcDbLine
 10
43.531495428
 20
825.6266253051
 30
0.0
 11
42.6265644774
 21
825.6266400565
 31
0.0
  0
LINE
  5
19F
330
8F
100
AcDbEntity
  8
09712038_KAPPE
  6
Continuous
 62
     7
100
AcDbLine
 10
42.6265644774
 20
825.6266400565
 30
0.0
 11
42.626554138
 21
824.9923628909
 31
0.0
  0
LINE
  5
1A0
330
8F
100
AcDbEntity
  8
09712038_KAPPE
  6
Continuous
 62
     7
100
AcDbLine
 10
42.626554138
 20
824.9923628909
 30
0.0
 11
45.080214844
 21
824.9923228935
 31
0.0
  0
LINE
  5
1A1
330
8F
100
AcDbEntity
  8
09712038_KAPPE
  6
Continuous
 62
     7
100
AcDbLine
 10
45.080214844
 20
824.9923228935
 30
0.0
 11
45.0802251834
 21
825.6266000592
 31
0.0
  0
LINE
  5
1A2
330
8F
100
AcDbEntity
  8
09712038_KAPPE
  6
Continuous
 62
     7
100
AcDbLine
 10
45.0802251834
 20
825.6266000592
 30
0.0
 11
44.037810925
 21
825.6266170516
 31
0.0
  0
LINE
  5
1A3
330
8F
100
AcDbEntity
  8
09712038_KAPPE
  6
Continuous
 62
     7
100
AcDbLine
 10
44.037810925
 20
825.6266170516
 30
0.0
 11
44.037829365
 21
826.7578279859
 31
0.0
  0
LINE
  5
1A4
330
8F
100
AcDbEntity
  8
09712038_KAPPE
  6
Continuous
 62
     7
100
AcDbLine
 10
44.037829365
 20
826.7578279859
 30
0.0
 11
45.0802436234
 21
826.7578109934
 31
0.0
  0
LINE
  5
1A5
330
8F
100
AcDbEntity
  8
09712038_KAPPE
  6
Continuous
 62
     7
100
AcDbLine
 10
45.0802436234
 20
826.7578109934
 30
0.0
 11
45.080254028
 21
827.396087626
 31
0.0
  0
LINE
  5
1A6
330
8F
100
AcDbEntity
  8
09712038_KAPPE
  6
Continuous
 62
     7
100
AcDbLine
 10
45.080254028
 20
827.396087626
 30
0.0
 11
42.626593322
 21
827.3961276233
 31
0.0
  0
LINE
  5
1A7
330
8F
100
AcDbEntity
  8
09712038_KAPPE
  6
Continuous
 62
     7
100
AcDbLine
 10
42.626593322
 20
827.3961276233
 30
0.0
 11
42.6265829174
 21
826.7578509907
 31
0.0
  0
LINE
  5
1A8
330
8F
100
AcDbEntity
  8
09712038_KAPPE
  6
Continuous
 62
     7
100
AcDbLine
 10
42.6265829174
 20
826.7578509907
 30
0.0
 11
43.531513868
 21
826.7578362394
 31
0.0
  0
LINE
  5
1A9
330
8F
100
AcDbEntity
  8
09712038_KAPPE
  6
Continuous
 62
     7
100
AcDbLine
 10
43.531513868
 20
826.7578362394
 30
0.0
 11
43.531495428
 21
825.6266253051
 31
0.0
  0
LINE
  5
1AA
330
8F
100
AcDbEntity
  8
09712038_KAPPE
  6
Continuous
 62
     7
100
AcDbLine
 10
45.0802653294
 20
828.0893782029
 30
0.0
 11
42.6266046234
 21
828.0894182002
 31
0.0
  0
LINE
  5
1AB
330
8F
100
AcDbEntity
  8
09712038_KAPPE
  6
Continuous
 62
     7
100
AcDbLine
 10
42.6266046234
 20
828.0894182002
 30
0.0
 11
42.6266319328
 21
829.7647268299
 31
0.0
  0
LINE
  5
1AC
330
8F
100
AcDbEntity
  8
09712038_KAPPE
  6
Continuous
 62
     7
100
AcDbLine
 10
42.6266319328
 20
829.7647268299
 30
0.0
 11
43.0957183491
 21
829.7647191833
 31
0.0
  0
LINE
  5
1AD
330
8F
100
AcDbEntity
  8
09712038_KAPPE
  6
Continuous
 62
     7
100
AcDbLine
 10
43.0957183491
 20
829.7647191833
 30
0.0
 11
43.0957013791
 21
828.7236877192
 31
0.0
  0
LINE
  5
1AE
330
8F
100
AcDbEntity
  8
09712038_KAPPE
  6
Continuous
 62
     7
100
AcDbLine
 10
43.0957013791
 20
828.7236877192
 30
0.0
 11
43.5538833618
 21
828.7236802504
 31
0.0
  0
LINE
  5
1AF
330
8F
100
AcDbEntity
  8
09712038_KAPPE
  6
Continuous
 62
     7
100
AcDbLine
 10
43.5538833618
 20
828.7236802504
 30
0.0
 11
43.5538976008
 21
829.5971808514
 31
0.0
  0
LINE
  5
1B0
330
8F
100
AcDbEntity
  8
09712038_KAPPE
  6
Continuous
 62
     7
100
AcDbLine
 10
43.5538976008
 20
829.5971808514
 30
0.0
 11
44.0080923848
 21
829.5971734476
 31
0.0
  0
LINE
  5
1B1
330
8F
100
AcDbEntity
  8
09712038_KAPPE
  6
Continuous
 62
     7
100
AcDbLine
 10
44.0080923848
 20
829.5971734476
 30
0.0
 11
44.0080781458
 21
828.7236728465
 31
0.0
  0
LINE
  5
1B2
330
8F
100
AcDbEntity
  8
09712038_KAPPE
  6
Continuous
 62
     7
100
AcDbLine
 10
44.0080781458
 20
828.7236728465
 30
0.0
 11
44.6111892525
 21
828.7236630151
 31
0.0
  0
LINE
  5
1B3
330
8F
100
AcDbEntity
  8
09712038_KAPPE
  6
Continuous
 62
     7
100
AcDbLine
 10
44.6111892525
 20
828.7236630151
 30
0.0
 11
44.6112088927
 21
829.9285024341
 31
0.0
  0
LINE
  5
1B4
330
8F
100
AcDbEntity
  8
09712038_KAPPE
  6
Continuous
 62
     7
100
AcDbLine
 10
44.6112088927
 20
829.9285024341
 30
0.0
 11
45.080295309
 21
829.9284947874
 31
0.0
  0
LINE
  5
1B5
330
8F
100
AcDbEntity
  8
09712038_KAPPE
  6
Continuous
 62
     7
100
AcDbLine
 10
45.080295309
 20
829.9284947874
 30
0.0
 11
45.0802653294
 21
828.0893782029
 31
0.0
  0
LINE
  5
1B6
330
8F
100
AcDbEntity
  8
09712038_KAPPE
  6
Continuous
 62
     7
100
AcDbLine
 10
45.6051949553
 20
825.8618477965
 30
0.0
 11
45.5963500915
 21
826.0641078018
 31
0.0
  0
LINE
  5
1B7
330
8F
100
AcDbEntity
  8
09712038_KAPPE
  6
Continuous
 62
     7
100
AcDbLine
 10
45.5963500915
 20
826.0641078018
 30
0.0
 11
45.6050102876
 21
826.2663637678
 31
0.0
  0
LINE
  5
1B8
330
8F
100
AcDbEntity
  8
09712038_KAPPE
  6
Continuous
 62
     7
100
AcDbLine
 10
45.6050102876
 20
826.2663637678
 30
0.0
 11
45.629550919
 21
826.4686167937
 31
0.0
  0
LINE
  5
1B9
330
8F
100
AcDbEntity
  8
09712038_KAPPE
  6
Continuous
 62
     7
100
AcDbLine
 10
45.629550919
 20
826.4686167937
 30
0.0
 11
45.6675337677
 21
826.6708682597
 31
0.0
  0
LINE
  5
1BA
330
8F
100
AcDbEntity
  8
09712038_KAPPE
  6
Continuous
 62
     7
100
AcDbLine
 10
45.6675337677
 20
826.6708682597
 30
0.0
 11
45.7165206161
 21
826.8731195464
 31
0.0
  0
LINE
  5
1BB
330
8F
100
AcDbEntity
  8
09712038_KAPPE
  6
Continuous
 62
     7
100
AcDbLine
 10
45.7165206161
 20
826.8731195464
 30
0.0
 11
45.7740732462
 21
827.0753720341
 31
0.0
  0
LINE
  5
1BC
330
8F
100
AcDbEntity
  8
09712038_KAPPE
  6
Continuous
 62
     7
100
AcDbLine
 10
45.7740732462
 20
827.0753720341
 30
0.0
 11
45.8824070469
 21
827.4124659319
 31
0.0
  0
LINE
  5
1BD
330
8F
100
AcDbEntity
  8
09712038_KAPPE
  6
Continuous
 62
     7
100
AcDbLine
 10
45.8824070469
 20
827.4124659319
 30
0.0
 11
45.9964738131
 21
827.7495733913
 31
0.0
  0
LINE
  5
1BE
330
8F
100
AcDbEntity
  8
09712038_KAPPE
  6
Continuous
 62
     7
100
AcDbLine
 10
45.9964738131
 20
827.7495733913
 30
0.0
 11
46.1049854992
 21
828.0867008031
 31
0.0
  0
LINE
  5
1BF
330
8F
100
AcDbEntity
  8
09712038_KAPPE
  6
Continuous
 62
     7
100
AcDbLine
 10
46.1049854992
 20
828.0867008031
 30
0.0
 11
46.1627302455
 21
828.288989486
 31
0.0
  0
LINE
  5
1C0
330
8F
100
AcDbEntity
  8
09712038_KAPPE
  6
Continuous
 62
     7
100
AcDbLine
 10
46.1627302455
 20
828.288989486
 30
0.0
 11
46.2119732488
 21
828.4912890329
 31
0.0
  0
LINE
  5
1C1
330
8F
100
AcDbEntity
  8
09712038_KAPPE
  6
Continuous
 62
     7
100
AcDbLine
 10
46.2119732488
 20
828.4912890329
 30
0.0
 11
46.2502762912
 21
828.6936008242
 31
0.0
  0
LINE
  5
1C2
330
8F
100
AcDbEntity
  8
09712038_KAPPE
  6
Continuous
 62
     7
100
AcDbLine
 10
46.2502762912
 20
828.6936008242
 30
0.0
 11
46.2752011549
 21
828.8959262403
 31
0.0
  0
LINE
  5
1C3
330
8F
100
AcDbEntity
  8
09712038_KAPPE
  6
Continuous
 62
     7
100
AcDbLine
 10
46.2752011549
 20
828.8959262403
 30
0.0
 11
46.2843096222
 21
829.0982666618
 31
0.0
  0
LINE
  5
1C4
330
8F
100
AcDbEntity
  8
09712038_KAPPE
  6
Continuous
 62
     7
100
AcDbLine
 10
46.2843096222
 20
829.0982666618
 30
0.0
 11
46.2822767861
 21
829.199326253
 31
0.0
  0
LINE
  5
1C5
330
8F
100
AcDbEntity
  8
09712038_KAPPE
  6
Continuous
 62
     7
100
AcDbLine
 10
46.2822767861
 20
829.199326253
 30
0.0
 11
46.2759919763
 21
829.3003892916
 31
0.0
  0
LINE
  5
1C6
330
8F
100
AcDbEntity
  8
09712038_KAPPE
  6
Continuous
 62
     7
100
AcDbLine
 10
46.2759919763
 20
829.3003892916
 30
0.0
 11
46.2657563653
 21
829.4014551382
 31
0.0
  0
LINE
  5
1C7
330
8F
100
AcDbEntity
  8
09712038_KAPPE
  6
Continuous
 62
     7
100
AcDbLine
 10
46.2657563653
 20
829.4014551382
 30
0.0
 11
46.2556681178
 21
829.4772559811
 31
0.0
  0
LINE
  5
1C8
330
8F
100
AcDbEntity
  8
09712038_KAPPE
  6
Continuous
 62
     7
100
AcDbLine
 10
46.2556681178
 20
829.4772559811
 30
0.0
 11
46.2436540115
 21
829.553057774
 31
0.0
  0
LINE
  5
1C9
330
8F
100
AcDbEntity
  8
09712038_KAPPE
  6
Continuous
 62
     7
100
AcDbLine
 10
46.2436540115
 20
829.553057774
 30
0.0
 11
46.3138352894
 21
829.5113489007
 31
0.0
  0
LINE
  5
1CA
330
8F
100
AcDbEntity
  8
09712038_KAPPE
  6
Continuous
 62
     7
100
AcDbLine
 10
46.3138352894
 20
829.5113489007
 30
0.0
 11
46.3821395322
 21
829.4664404004
 31
0.0
  0
LINE
  5
1CB
330
8F
100
AcDbEntity
  8
09712038_KAPPE
  6
Continuous
 62
     7
100
AcDbLine
 10
46.3821395322
 20
829.4664404004
 30
0.0
 11
46.4483509008
 21
829.4184638868
 31
0.0
  0
LINE
  5
1CC
330
8F
100
AcDbEntity
  8
09712038_KAPPE
  6
Continuous
 62
     7
100
AcDbLine
 10
46.4483509008
 20
829.4184638868
 30
0.0
 11
46.496513252
 21
829.3805581113
 31
0.0
  0
LINE
  5
1CD
330
8F
100
AcDbEntity
  8
09712038_KAPPE
  6
Continuous
 62
     7
100
AcDbLine
 10
46.496513252
 20
829.3805581113
 30
0.0
 11
46.5433034857
 21
829.3410811409
 31
0.0
  0
LINE
  5
1CE
330
8F
100
AcDbEntity
  8
09712038_KAPPE
  6
Continuous
 62
     7
100
AcDbLine
 10
46.5433034857
 20
829.3410811409
 30
0.0
 11
46.5510687521
 21
829.2534733427
 31
0.0
  0
LINE
  5
1CF
330
8F
100
AcDbEntity
  8
09712038_KAPPE
  6
Continuous
 62
     7
100
AcDbLine
 10
46.5510687521
 20
829.2534733427
 30
0.0
 11
46.5558046737
 21
829.1658677825
 31
0.0
  0
LINE
  5
1D0
330
8F
100
AcDbEntity
  8
09712038_KAPPE
  6
Continuous
 62
     7
100
AcDbLine
 10
46.5558046737
 20
829.1658677825
 30
0.0
 11
46.5573150532
 21
829.0782648767
 31
0.0
  0
LINE
  5
1D1
330
8F
100
AcDbEntity
  8
09712038_KAPPE
  6
Continuous
 62
     7
100
AcDbLine
 10
46.5573150532
 20
829.0782648767
 30
0.0
 11
46.5482055119
 21
828.8759244553
 31
0.0
  0
LINE
  5
1D2
330
8F
100
AcDbEntity
  8
09712038_KAPPE
  6
Continuous
 62
     7
100
AcDbLine
 10
46.5482055119
 20
828.8759244553
 30
0.0
 11
46.5232777081
 21
828.6735990392
 31
0.0
  0
LINE
  5
1D3
330
8F
100
AcDbEntity
  8
09712038_KAPPE
  6
Continuous
 62
     7
100
AcDbLine
 10
46.5232777081
 20
828.6735990392
 30
0.0
 11
46.4849701474
 21
828.4712872479
 31
0.0
  0
LINE
  5
1D4
330
8F
100
AcDbEntity
  8
09712038_KAPPE
  6
Continuous
 62
     7
100
AcDbLine
 10
46.4849701474
 20
828.4712872479
 30
0.0
 11
46.4357213352
 21
828.2689877012
 31
0.0
  0
LINE
  5
1D5
330
8F
100
AcDbEntity
  8
09712038_KAPPE
  6
Continuous
 62
     7
100
AcDbLine
 10
46.4357213352
 20
828.2689877012
 30
0.0
 11
46.3779697771
 21
828.0666990184
 31
0.0
  0
LINE
  5
1D6
330
8F
100
AcDbEntity
  8
09712038_KAPPE
  6
Continuous
 62
     7
100
AcDbLine
 10
46.3779697771
 20
828.0666990184
 30
0.0
 11
46.2694452904
 21
827.7295716068
 31
0.0
  0
LINE
  5
1D7
330
8F
100
AcDbEntity
  8
09712038_KAPPE
  6
Continuous
 62
     7
100
AcDbLine
 10
46.2694452904
 20
827.7295716068
 30
0.0
 11
46.1553650683
 21
827.3924641476
 31
0.0
  0
LINE
  5
1D8
330
8F
100
AcDbEntity
  8
09712038_KAPPE
  6
Continuous
 62
     7
100
AcDbLine
 10
46.1553650683
 20
827.3924641476
 30
0.0
 11
46.047018488
 21
827.05537025
 31
0.0
  0
LINE
  5
1D9
330
8F
100
AcDbEntity
  8
09712038_KAPPE
  6
Continuous
 62
     7
100
AcDbLine
 10
46.047018488
 20
827.05537025
 30
0.0
 11
45.9894590687
 21
826.8531177624
 31
0.0
  0
LINE
  5
1DA
330
8F
100
AcDbEntity
  8
09712038_KAPPE
  6
Continuous
 62
     7
100
AcDbLine
 10
45.9894590687
 20
826.8531177624
 30
0.0
 11
45.9404664417
 21
826.6508664758
 31
0.0
  0
LINE
  5
1DB
330
8F
100
AcDbEntity
  8
09712038_KAPPE
  6
Continuous
 62
     7
100
AcDbLine
 10
45.9404664417
 20
826.6508664758
 30
0.0
 11
45.9024791125
 21
826.4486150099
 31
0.0
  0
LINE
  5
1DC
330
8F
100
AcDbEntity
  8
09712038_KAPPE
  6
Continuous
 62
     7
100
AcDbLine
 10
45.9024791125
 20
826.4486150099
 30
0.0
 11
45.8779355864
 21
826.2463619841
 31
0.0
  0
LINE
  5
1DD
330
8F
100
AcDbEntity
  8
09712038_KAPPE
  6
Continuous
 62
     7
100
AcDbLine
 10
45.8779355864
 20
826.2463619841
 30
0.0
 11
45.869274369
 21
826.0441060181
 31
0.0
  0
LINE
  5
1DE
330
8F
100
AcDbEntity
  8
09712038_KAPPE
  6
Continuous
 62
     7
100
AcDbLine
 10
45.869274369
 20
826.0441060181
 30
0.0
 11
45.8780073213
 21
825.843178997
 31
0.0
  0
LINE
  5
1DF
330
8F
100
AcDbEntity
  8
09712038_KAPPE
  6
Continuous
 62
     7
100
AcDbLine
 10
45.8780073213
 20
825.843178997
 30
0.0
 11
45.9024247675
 21
825.6422480139
 31
0.0
  0
LINE
  5
1E0
330
8F
100
AcDbEntity
  8
09712038_KAPPE
  6
Continuous
 62
     7
100
AcDbLine
 10
45.9024247675
 20
825.6422480139
 30
0.0
 11
45.9401310742
 21
825.4413133707
 31
0.0
  0
LINE
  5
1E1
330
8F
100
AcDbEntity
  8
09712038_KAPPE
  6
Continuous
 62
     7
100
AcDbLine
 10
45.9401310742
 20
825.4413133707
 30
0.0
 11
45.9887306079
 21
825.2403753694
 31
0.0
  0
LINE
  5
1E2
330
8F
100
AcDbEntity
  8
09712038_KAPPE
  6
Continuous
 62
     7
100
AcDbLine
 10
45.9887306079
 20
825.2403753694
 30
0.0
 11
46.045827735
 21
825.0394343118
 31
0.0
  0
LINE
  5
1E3
330
8F
100
AcDbEntity
  8
09712038_KAPPE
  6
Continuous
 62
     7
100
AcDbLine
 10
46.045827735
 20
825.0394343118
 30
0.0
 11
46.1533664955
 21
824.7045265776
 31
0.0
  0
LINE
  5
1E4
330
8F
100
AcDbEntity
  8
09712038_KAPPE
  6
Continuous
 62
     7
100
AcDbLine
 10
46.1533664955
 20
824.7045265776
 30
0.0
 11
46.2667642487
 21
824.3696125903
 31
0.0
  0
LINE
  5
1E5
330
8F
100
AcDbEntity
  8
09712038_KAPPE
  6
Continuous
 62
     7
100
AcDbLine
 10
46.2667642487
 20
824.3696125903
 30
0.0
 11
46.3749300987
 21
824.0346937476
 31
0.0
  0
LINE
  5
1E6
330
8F
100
AcDbEntity
  8
09712038_KAPPE
  6
Continuous
 62
     7
100
AcDbLine
 10
46.3749300987
 20
824.0346937476
 30
0.0
 11
46.4327044824
 21
823.833740693
 31
0.0
  0
LINE
  5
1E7
330
8F
100
AcDbEntity
  8
09712038_KAPPE
  6
Continuous
 62
     7
100
AcDbLine
 10
46.4327044824
 20
823.833740693
 30
0.0
 11
46.4822070249
 21
823.6327866955
 31
0.0
  0
LINE
  5
1E8
330
8F
100
AcDbEntity
  8
09712038_KAPPE
  6
Continuous
 62
     7
100
AcDbLine
 10
46.4822070249
 20
823.6327866955
 30
0.0
 11
46.5210420927
 21
823.4318320572
 31
0.0
  0
LINE
  5
1E9
330
8F
100
AcDbEntity
  8
09712038_KAPPE
  6
Continuous
 62
     7
100
AcDbLine
 10
46.5210420927
 20
823.4318320572
 30
0.0
 11
46.5468140522
 21
823.2308770799
 31
0.0
  0
LINE
  5
1EA
330
8F
100
AcDbEntity
  8
09712038_KAPPE
  6
Continuous
 62
     7
100
AcDbLine
 10
46.5468140522
 20
823.2308770799
 30
0.0
 11
46.5571272699
 21
823.0299220656
 31
0.0
  0
LINE
  5
1EB
330
8F
100
AcDbEntity
  8
09712038_KAPPE
  6
Continuous
 62
     7
100
AcDbLine
 10
46.5571272699
 20
823.0299220656
 30
0.0
 11
46.5468075006
 21
822.8289673876
 31
0.0
  0
LINE
  5
1EC
330
8F
100
AcDbEntity
  8
09712038_KAPPE
  6
Continuous
 62
     7
100
AcDbLine
 10
46.5468075006
 20
822.8289673876
 30
0.0
 11
46.5210289896
 21
822.6280132506
 31
0.0
  0
LINE
  5
1ED
330
8F
100
AcDbEntity
  8
09712038_KAPPE
  6
Continuous
 62
     7
100
AcDbLine
 10
46.5210289896
 20
822.6280132506
 30
0.0
 11
46.4821873703
 21
822.4270598785
 31
0.0
  0
LINE
  5
1EE
330
8F
100
AcDbEntity
  8
09712038_KAPPE
  6
Continuous
 62
     7
100
AcDbLine
 10
46.4821873703
 20
822.4270598785
 30
0.0
 11
46.4326782763
 21
822.2261074951
 31
0.0
  0
LINE
  5
1EF
330
8F
100
AcDbEntity
  8
09712038_KAPPE
  6
Continuous
 62
     7
100
AcDbLine
 10
46.4326782763
 20
822.2261074951
 30
0.0
 11
46.374897341
 21
822.0251563241
 31
0.0
  0
LINE
  5
1F0
330
8F
100
AcDbEntity
  8
09712038_KAPPE
  6
Continuous
 62
     7
100
AcDbLine
 10
46.374897341
 20
822.0251563241
 30
0.0
 11
46.266720572
 21
821.690241008
 31
0.0
  0
LINE
  5
1F1
330
8F
100
AcDbEntity
  8
09712038_KAPPE
  6
Continuous
 62
     7
100
AcDbLine
 10
46.266720572
 20
821.690241008
 30
0.0
 11
46.1533118999
 21
821.3553307179
 31
0.0
  0
LINE
  5
1F2
330
8F
100
AcDbEntity
  8
09712038_KAPPE
  6
Continuous
 62
     7
100
AcDbLine
 10
46.1533118999
 20
821.3553307179
 30
0.0
 11
46.0457622208
 21
821.0204264899
 31
0.0
  0
LINE
  5
1F3
330
8F
100
AcDbEntity
  8
09712038_KAPPE
  6
Continuous
 62
     7
100
AcDbLine
 10
46.0457622208
 20
821.0204264899
 30
0.0
 11
45.9886585426
 21
820.8194872939
 31
0.0
  0
LINE
  5
1F4
330
8F
100
AcDbEntity
  8
09712038_KAPPE
  6
Continuous
 62
     7
100
AcDbLine
 10
45.9886585426
 20
820.8194872939
 30
0.0
 11
45.9400524579
 21
820.6185508771
 31
0.0
  0
LINE
  5
1F5
330
8F
100
AcDbEntity
  8
09712038_KAPPE
  6
Continuous
 62
     7
100
AcDbLine
 10
45.9400524579
 20
820.6185508771
 30
0.0
 11
45.9023396003
 21
820.4176174634
 31
0.0
  0
LINE
  5
1F6
330
8F
100
AcDbEntity
  8
09712038_KAPPE
  6
Continuous
 62
     7
100
AcDbLine
 10
45.9023396003
 20
820.4176174634
 30
0.0
 11
45.8779156033
 21
820.2166872765
 31
0.0
  0
LINE
  5
1F7
330
8F
100
AcDbEntity
  8
09712038_KAPPE
  6
Continuous
 62
     7
100
AcDbLine
 10
45.8779156033
 20
820.2166872765
 30
0.0
 11
45.8691761005
 21
820.0157605402
 31
0.0
  0
LINE
  5
1F8
330
8F
100
AcDbEntity
  8
09712038_KAPPE
  6
Continuous
 62
     7
100
AcDbLine
 10
45.8691761005
 20
820.0157605402
 30
0.0
 11
45.8778307238
 21
819.8135042919
 31
0.0
  0
LINE
  5
1F9
330
8F
100
AcDbEntity
  8
09712038_KAPPE
  6
Continuous
 62
     7
100
AcDbLine
 10
45.8778307238
 20
819.8135042919
 30
0.0
 11
45.902367656
 21
819.611250466
 31
0.0
  0
LINE
  5
1FA
330
8F
100
AcDbEntity
  8
09712038_KAPPE
  6
Continuous
 62
     7
100
AcDbLine
 10
45.902367656
 20
819.611250466
 30
0.0
 11
45.9403483914
 21
819.4089977617
 31
0.0
  0
LINE
  5
1FB
330
8F
100
AcDbEntity
  8
09712038_KAPPE
  6
Continuous
 62
     7
100
AcDbLine
 10
45.9403483914
 20
819.4089977617
 30
0.0
 11
45.9893344245
 21
819.206744878
 31
0.0
  0
LINE
  5
1FC
330
8F
100
AcDbEntity
  8
09712038_KAPPE
  6
Continuous
 62
     7
100
AcDbLine
 10
45.9893344245
 20
819.206744878
 30
0.0
 11
46.0468872499
 21
819.0044905139
 31
0.0
  0
LINE
  5
1FD
330
8F
100
AcDbEntity
  8
09712038_KAPPE
  6
Continuous
 62
     7
100
AcDbLine
 10
46.0468872499
 20
819.0044905139
 30
0.0
 11
46.1552228402
 21
818.6673930842
 31
0.0
  0
LINE
  5
1FE
330
8F
100
AcDbEntity
  8
09712038_KAPPE
  6
Continuous
 62
     7
100
AcDbLine
 10
46.1552228402
 20
818.6673930842
 30
0.0
 11
46.2692920718
 21
818.3302819059
 31
0.0
  0
LINE
  5
1FF
330
8F
100
AcDbEntity
  8
09712038_KAPPE
  6
Continuous
 62
     7
100
AcDbLine
 10
46.2692920718
 20
818.3302819059
 30
0.0
 11
46.3778055673
 21
817.9931509563
 31
0.0
  0
LINE
  5
200
330
8F
100
AcDbEntity
  8
09712038_KAPPE
  6
Continuous
 62
     7
100
AcDbLine
 10
46.3778055673
 20
817.9931509563
 30
0.0
 11
46.4355505304
 21
817.7908603909
 31
0.0
  0
LINE
  5
201
330
8F
100
AcDbEntity
  8
09712038_KAPPE
  6
Continuous
 62
     7
100
AcDbLine
 10
46.4355505304
 20
817.7908603909
 30
0.0
 11
46.4847927471
 21
817.5885592386
 31
0.0
  0
LINE
  5
202
330
8F
100
AcDbEntity
  8
09712038_KAPPE
  6
Continuous
 62
     7
100
AcDbLine
 10
46.4847927471
 20
817.5885592386
 30
0.0
 11
46.523093712
 21
817.3862461985
 31
0.0
  0
LINE
  5
203
330
8F
100
AcDbEntity
  8
09712038_KAPPE
  6
Continuous
 62
     7
100
AcDbLine
 10
46.523093712
 20
817.3862461985
 30
0.0
 11
46.5480149195
 21
817.1839199698
 31
0.0
  0
LINE
  5
204
330
8F
100
AcDbEntity
  8
09712038_KAPPE
  6
Continuous
 62
     7
100
AcDbLine
 10
46.5480149195
 20
817.1839199698
 30
0.0
 11
46.5571178641
 21
816.9815792515
 31
0.0
  0
LINE
  5
205
330
8F
100
AcDbEntity
  8
09712038_KAPPE
  6
Continuous
 62
     7
100
AcDbLine
 10
46.5571178641
 20
816.9815792515
 30
0.0
 11
46.5556046285
 21
816.893976395
 31
0.0
  0
LINE
  5
206
330
8F
100
AcDbEntity
  8
09712038_KAPPE
  6
Continuous
 62
     7
100
AcDbLine
 10
46.5556046285
 20
816.893976395
 30
0.0
 11
46.5508658508
 21
816.8063709892
 31
0.0
  0
LINE
  5
207
330
8F
100
AcDbEntity
  8
09712038_KAPPE
  6
Continuous
 62
     7
100
AcDbLine
 10
46.5508658508
 20
816.8063709892
 30
0.0
 11
46.5430977282
 21
816.7187634442
 31
0.0
  0
LINE
  5
208
330
8F
100
AcDbEntity
  8
09712038_KAPPE
  6
Continuous
 62
     7
100
AcDbLine
 10
46.5430977282
 20
816.7187634442
 30
0.0
 11
46.4804002654
 21
816.6664751087
 31
0.0
  0
LINE
  5
209
330
8F
100
AcDbEntity
  8
09712038_KAPPE
  6
Continuous
 62
     7
100
AcDbLine
 10
46.4804002654
 20
816.6664751087
 30
0.0
 11
46.4153107696
 21
816.6170220954
 31
0.0
  0
LINE
  5
20A
330
8F
100
AcDbEntity
  8
09712038_KAPPE
  6
Continuous
 62
     7
100
AcDbLine
 10
46.4153107696
 20
816.6170220954
 30
0.0
 11
46.3480252134
 21
816.5705641025
 31
0.0
  0
LINE
  5
20B
330
8F
100
AcDbEntity
  8
09712038_KAPPE
  6
Continuous
 62
     7
100
AcDbLine
 10
46.3480252134
 20
816.5705641025
 30
0.0
 11
46.2962456046
 21
816.5377718472
 31
0.0
  0
LINE
  5
20C
330
8F
100
AcDbEntity
  8
09712038_KAPPE
  6
Continuous
 62
     7
100
AcDbLine
 10
46.2962456046
 20
816.5377718472
 30
0.0
 11
46.2434413432
 21
816.5067965806
 31
0.0
  0
LINE
  5
20D
330
8F
100
AcDbEntity
  8
09712038_KAPPE
  6
Continuous
 62
     7
100
AcDbLine
 10
46.2434413432
 20
816.5067965806
 30
0.0
 11
46.2590417526
 21
816.6078649313
 31
0.0
  0
LINE
  5
20E
330
8F
100
AcDbEntity
  8
09712038_KAPPE
  6
Continuous
 62
     7
100
AcDbLine
 10
46.2590417526
 20
816.6078649313
 30
0.0
 11
46.2711431195
 21
816.7089315476
 31
0.0
  0
LINE
  5
20F
330
8F
100
AcDbEntity
  8
09712038_KAPPE
  6
Continuous
 62
     7
100
AcDbLine
 10
46.2711431195
 20
816.7089315476
 30
0.0
 11
46.2794442714
 21
816.8099957996
 31
0.0
  0
LINE
  5
210
330
8F
100
AcDbEntity
  8
09712038_KAPPE
  6
Continuous
 62
     7
100
AcDbLine
 10
46.2794442714
 20
816.8099957996
 30
0.0
 11
46.2829950701
 21
816.8857920582
 31
0.0
  0
LINE
  5
211
330
8F
100
AcDbEntity
  8
09712038_KAPPE
  6
Continuous
 62
     7
100
AcDbLine
 10
46.2829950701
 20
816.8857920582
 30
0.0
 11
46.2841117811
 21
816.961586367
 31
0.0
  0
LINE
  5
212
330
8F
100
AcDbEntity
  8
09712038_KAPPE
  6
Continuous
 62
     7
100
AcDbLine
 10
46.2841117811
 20
816.961586367
 30
0.0
 11
46.2750099106
 21
817.1639270853
 31
0.0
  0
LINE
  5
213
330
8F
100
AcDbEntity
  8
09712038_KAPPE
  6
Continuous
 62
     7
100
AcDbLine
 10
46.2750099106
 20
817.1639270853
 30
0.0
 11
46.2500916431
 21
817.366253314
 31
0.0
  0
LINE
  5
214
330
8F
100
AcDbEntity
  8
09712038_KAPPE
  6
Continuous
 62
     7
100
AcDbLine
 10
46.2500916431
 20
817.366253314
 30
0.0
 11
46.2117951965
 21
817.568566354
 31
0.0
  0
LINE
  5
215
330
8F
100
AcDbEntity
  8
09712038_KAPPE
  6
Continuous
 62
     7
100
AcDbLine
 10
46.2117951965
 20
817.568566354
 30
0.0
 11
46.1625587887
 21
817.7708675062
 31
0.0
  0
LINE
  5
216
330
8F
100
AcDbEntity
  8
09712038_KAPPE
  6
Continuous
 62
     7
100
AcDbLine
 10
46.1625587887
 20
817.7708675062
 30
0.0
 11
46.1048206374
 21
817.9731580715
 31
0.0
  0
LINE
  5
217
330
8F
100
AcDbEntity
  8
09712038_KAPPE
  6
Continuous
 62
     7
100
AcDbLine
 10
46.1048206374
 20
817.9731580715
 30
0.0
 11
45.9963199425
 21
818.3102890209
 31
0.0
  0
LINE
  5
218
330
8F
100
AcDbEntity
  8
09712038_KAPPE
  6
Continuous
 62
     7
100
AcDbLine
 10
45.9963199425
 20
818.3102890209
 30
0.0
 11
45.8822641668
 21
818.6474001989
 31
0.0
  0
LINE
  5
219
330
8F
100
AcDbEntity
  8
09712038_KAPPE
  6
Continuous
 62
     7
100
AcDbLine
 10
45.8822641668
 20
818.6474001989
 30
0.0
 11
45.7739413561
 21
818.9844976285
 31
0.0
  0
LINE
  5
21A
330
8F
100
AcDbEntity
  8
09712038_KAPPE
  6
Continuous
 62
     7
100
AcDbLine
 10
45.7739413561
 20
818.9844976285
 30
0.0
 11
45.7163953199
 21
819.1867519924
 31
0.0
  0
LINE
  5
21B
330
8F
100
AcDbEntity
  8
09712038_KAPPE
  6
Continuous
 62
     7
100
AcDbLine
 10
45.7163953199
 20
819.1867519924
 30
0.0
 11
45.6674150654
 21
819.389004876
 31
0.0
  0
LINE
  5
21C
330
8F
100
AcDbEntity
  8
09712038_KAPPE
  6
Continuous
 62
     7
100
AcDbLine
 10
45.6674150654
 20
819.389004876
 30
0.0
 11
45.6294388105
 21
819.5912575803
 31
0.0
  0
LINE
  5
21D
330
8F
100
AcDbEntity
  8
09712038_KAPPE
  6
Continuous
 62
     7
100
AcDbLine
 10
45.6294388105
 20
819.5912575803
 30
0.0
 11
45.6049047731
 21
819.7935114061
 31
0.0
  0
LINE
  5
21E
330
8F
100
AcDbEntity
  8
09712038_KAPPE
  6
Continuous
 62
     7
100
AcDbLine
 10
45.6049047731
 20
819.7935114061
 30
0.0
 11
45.596251171
 21
819.9957676544
 31
0.0
  0
LINE
  5
21F
330
8F
100
AcDbEntity
  8
09712038_KAPPE
  6
Continuous
 62
     7
100
AcDbLine
 10
45.596251171
 20
819.9957676544
 30
0.0
 11
45.6051026289
 21
820.1980273712
 31
0.0
  0
LINE
  5
220
330
8F
100
AcDbEntity
  8
09712038_KAPPE
  6
Continuous
 62
     7
100
AcDbLine
 10
45.6051026289
 20
820.1980273712
 30
0.0
 11
45.6298293991
 21
820.4002905832
 31
0.0
  0
LINE
  5
221
330
8F
100
AcDbEntity
  8
09712038_KAPPE
  6
Continuous
 62
     7
100
AcDbLine
 10
45.6298293991
 20
820.4002905832
 30
0.0
 11
45.6679881406
 21
820.6025570619
 31
0.0
  0
LINE
  5
222
330
8F
100
AcDbEntity
  8
09712038_KAPPE
  6
Continuous
 62
     7
100
AcDbLine
 10
45.6679881406
 20
820.6025570619
 30
0.0
 11
45.7171355125
 21
820.8048265792
 31
0.0
  0
LINE
  5
223
330
8F
100
AcDbEntity
  8
09712038_KAPPE
  6
Continuous
 62
     7
100
AcDbLine
 10
45.7171355125
 20
820.8048265792
 30
0.0
 11
45.7748281739
 21
821.0070989067
 31
0.0
  0
LINE
  5
224
330
8F
100
AcDbEntity
  8
09712038_KAPPE
  6
Continuous
 62
     7
100
AcDbLine
 10
45.7748281739
 20
821.0070989067
 30
0.0
 11
45.883335907
 21
821.3442250772
 31
0.0
  0
LINE
  5
225
330
8F
100
AcDbEntity
  8
09712038_KAPPE
  6
Continuous
 62
     7
100
AcDbLine
 10
45.883335907
 20
821.3442250772
 30
0.0
 11
45.9974817335
 21
821.6813573627
 31
0.0
  0
LINE
  5
226
330
8F
100
AcDbEntity
  8
09712038_KAPPE
  6
Continuous
 62
     7
100
AcDbLine
 10
45.9974817335
 20
821.6813573627
 30
0.0
 11
46.1059538898
 21
822.0184947061
 31
0.0
  0
LINE
  5
227
330
8F
100
AcDbEntity
  8
09712038_KAPPE
  6
Continuous
 62
     7
100
AcDbLine
 10
46.1059538898
 20
822.0184947061
 30
0.0
 11
46.1636081282
 21
822.2207791003
 31
0.0
  0
LINE
  5
228
330
8F
100
AcDbEntity
  8
09712038_KAPPE
  6
Continuous
 62
     7
100
AcDbLine
 10
46.1636081282
 20
822.2207791003
 30
0.0
 11
46.2127042695
 21
822.4230647065
 31
0.0
  0
LINE
  5
229
330
8F
100
AcDbEntity
  8
09712038_KAPPE
  6
Continuous
 62
     7
100
AcDbLine
 10
46.2127042695
 20
822.4230647065
 30
0.0
 11
46.2507989729
 21
822.6253512965
 31
0.0
  0
LINE
  5
22A
330
8F
100
AcDbEntity
  8
09712038_KAPPE
  6
Continuous
 62
     7
100
AcDbLine
 10
46.2507989729
 20
822.6253512965
 30
0.0
 11
46.2754488972
 21
822.8276386419
 31
0.0
  0
LINE
  5
22B
330
8F
100
AcDbEntity
  8
09712038_KAPPE
  6
Continuous
 62
     7
100
AcDbLine
 10
46.2754488972
 20
822.8276386419
 30
0.0
 11
46.2842107016
 21
823.0299265144
 31
0.0
  0
LINE
  5
22C
330
8F
100
AcDbEntity
  8
09712038_KAPPE
  6
Continuous
 62
     7
100
AcDbLine
 10
46.2842107016
 20
823.0299265144
 30
0.0
 11
46.2754554922
 21
823.2322146725
 31
0.0
  0
LINE
  5
22D
330
8F
100
AcDbEntity
  8
09712038_KAPPE
  6
Continuous
 62
     7
100
AcDbLine
 10
46.2754554922
 20
823.2322146725
 30
0.0
 11
46.2508121629
 21
823.4345028214
 31
0.0
  0
LINE
  5
22E
330
8F
100
AcDbEntity
  8
09712038_KAPPE
  6
Continuous
 62
     7
100
AcDbLine
 10
46.2508121629
 20
823.4345028214
 30
0.0
 11
46.2127240546
 21
823.6367906533
 31
0.0
  0
LINE
  5
22F
330
8F
100
AcDbEntity
  8
09712038_KAPPE
  6
Continuous
 62
     7
100
AcDbLine
 10
46.2127240546
 20
823.6367906533
 30
0.0
 11
46.1636345082
 21
823.83907786
 31
0.0
  0
LINE
  5
230
330
8F
100
AcDbEntity
  8
09712038_KAPPE
  6
Continuous
 62
     7
100
AcDbLine
 10
46.1636345082
 20
823.83907786
 30
0.0
 11
46.1059868647
 21
824.0413641337
 31
0.0
  0
LINE
  5
231
330
8F
100
AcDbEntity
  8
09712038_KAPPE
  6
Continuous
 62
     7
100
AcDbLine
 10
46.1059868647
 20
824.0413641337
 30
0.0
 11
45.9975256999
 21
824.3785050134
 31
0.0
  0
LINE
  5
232
330
8F
100
AcDbEntity
  8
09712038_KAPPE
  6
Continuous
 62
     7
100
AcDbLine
 10
45.9975256999
 20
824.3785050134
 30
0.0
 11
45.8833908647
 21
824.7156410201
 31
0.0
  0
LINE
  5
233
330
8F
100
AcDbEntity
  8
09712038_KAPPE
  6
Continuous
 62
     7
100
AcDbLine
 10
45.8833908647
 20
824.7156410201
 30
0.0
 11
45.7748941227
 21
825.0527707281
 31
0.0
  0
LINE
  5
234
330
8F
100
AcDbEntity
  8
09712038_KAPPE
  6
Continuous
 62
     7
100
AcDbLine
 10
45.7748941227
 20
825.0527707281
 30
0.0
 11
45.7172080559
 21
825.2550449363
 31
0.0
  0
LINE
  5
235
330
8F
100
AcDbEntity
  8
09712038_KAPPE
  6
Continuous
 62
     7
100
AcDbLine
 10
45.7172080559
 20
825.2550449363
 30
0.0
 11
45.6680672785
 21
825.4573160558
 31
0.0
  0
LINE
  5
236
330
8F
100
AcDbEntity
  8
09712038_KAPPE
  6
Continuous
 62
     7
100
AcDbLine
 10
45.6680672785
 20
825.4573160558
 30
0.0
 11
45.6299151313
 21
825.6595837785
 31
0.0
  0
LINE
  5
237
330
8F
100
AcDbEntity
  8
09712038_KAPPE
  6
Continuous
 62
     7
100
AcDbLine
 10
45.6299151313
 20
825.6595837785
 30
0.0
 11
45.6051949553
 21
825.8618477965
 31
0.0
  0
LINE
  5
238
330
8F
100
AcDbEntity
  8
09712038_KAPPE
  6
Continuous
 62
     7
100
AcDbLine
 10
46.6285775595
 20
825.4573003984
 30
0.0
 11
46.6777183369
 21
825.2550292789
 31
0.0
  0
LINE
  5
239
330
8F
100
AcDbEntity
  8
09712038_KAPPE
  6
Continuous
 62
     7
100
AcDbLine
 10
46.6777183369
 20
825.2550292789
 30
0.0
 11
46.7354044037
 21
825.0527550707
 31
0.0
  0
LINE
  5
23A
330
8F
100
AcDbEntity
  8
09712038_KAPPE
  6
Continuous
 62
     7
100
AcDbLine
 10
46.7354044037
 20
825.0527550707
 30
0.0
 11
46.8439011457
 21
824.7156253627
 31
0.0
  0
LINE
  5
23B
330
8F
100
AcDbEntity
  8
09712038_KAPPE
  6
Continuous
 62
     7
100
AcDbLine
 10
46.8439011457
 20
824.7156253627
 30
0.0
 11
46.9580359809
 21
824.3784893561
 31
0.0
  0
LINE
  5
23C
330
8F
100
AcDbEntity
  8
09712038_KAPPE
  6
Continuous
 62
     7
100
AcDbLine
 10
46.9580359809
 20
824.3784893561
 30
0.0
 11
47.0664971457
 21
824.0413484764
 31
0.0
  0
LINE
  5
23D
330
8F
100
AcDbEntity
  8
09712038_KAPPE
  6
Continuous
 62
     7
100
AcDbLine
 10
47.0664971457
 20
824.0413484764
 30
0.0
 11
47.1241447892
 21
823.8390622027
 31
0.0
  0
LINE
  5
23E
330
8F
100
AcDbEntity
  8
09712038_KAPPE
  6
Continuous
 62
     7
100
AcDbLine
 10
47.1241447892
 20
823.8390622027
 30
0.0
 11
47.1732343356
 21
823.6367749959
 31
0.0
  0
LINE
  5
23F
330
8F
100
AcDbEntity
  8
09712038_KAPPE
  6
Continuous
 62
     7
100
AcDbLine
 10
47.1732343356
 20
823.6367749959
 30
0.0
 11
47.2113224439
 21
823.4344871641
 31
0.0
  0
LINE
  5
240
330
8F
100
AcDbEntity
  8
09712038_KAPPE
  6
Continuous
 62
     7
100
AcDbLine
 10
47.2113224439
 20
823.4344871641
 30
0.0
 11
47.2359657732
 21
823.2321990151
 31
0.0
  0
LINE
  5
241
330
8F
100
AcDbEntity
  8
09712038_KAPPE
  6
Continuous
 62
     7
100
AcDbLine
 10
47.2359657732
 20
823.2321990151
 30
0.0
 11
47.2447209826
 21
823.029910857
 31
0.0
  0
LINE
  5
242
330
8F
100
AcDbEntity
  8
09712038_KAPPE
  6
Continuous
 62
     7
100
AcDbLine
 10
47.2447209826
 20
823.029910857
 30
0.0
 11
47.2359591782
 21
822.8276229845
 31
0.0
  0
LINE
  5
243
330
8F
100
AcDbEntity
  8
09712038_KAPPE
  6
Continuous
 62
     7
100
AcDbLine
 10
47.2359591782
 20
822.8276229845
 30
0.0
 11
47.2113092539
 21
822.6253356391
 31
0.0
  0
LINE
  5
244
330
8F
100
AcDbEntity
  8
09712038_KAPPE
  6
Continuous
 62
     7
100
AcDbLine
 10
47.2113092539
 20
822.6253356391
 30
0.0
 11
47.1732145505
 21
822.4230490491
 31
0.0
  0
LINE
  5
245
330
8F
100
AcDbEntity
  8
09712038_KAPPE
  6
Continuous
 62
     7
100
AcDbLine
 10
47.1732145505
 20
822.4230490491
 30
0.0
 11
47.1241184092
 21
822.2207634429
 31
0.0
  0
LINE
  5
246
330
8F
100
AcDbEntity
  8
09712038_KAPPE
  6
Continuous
 62
     7
100
AcDbLine
 10
47.1241184092
 20
822.2207634429
 30
0.0
 11
47.0664641708
 21
822.0184790487
 31
0.0
  0
LINE
  5
247
330
8F
100
AcDbEntity
  8
09712038_KAPPE
  6
Continuous
 62
     7
100
AcDbLine
 10
47.0664641708
 20
822.0184790487
 30
0.0
 11
46.9579920145
 21
821.6813417053
 31
0.0
  0
LINE
  5
248
330
8F
100
AcDbEntity
  8
09712038_KAPPE
  6
Continuous
 62
     7
100
AcDbLine
 10
46.9579920145
 20
821.6813417053
 30
0.0
 11
46.843846188
 21
821.3442094198
 31
0.0
  0
LINE
  5
249
330
8F
100
AcDbEntity
  8
09712038_KAPPE
  6
Continuous
 62
     7
100
AcDbLine
 10
46.843846188
 20
821.3442094198
 30
0.0
 11
46.7353384549
 21
821.0070832493
 31
0.0
  0
LINE
  5
24A
330
8F
100
AcDbEntity
  8
09712038_KAPPE
  6
Continuous
 62
     7
100
AcDbLine
 10
46.7353384549
 20
821.0070832493
 30
0.0
 11
46.6776457935
 21
820.8048109218
 31
0.0
  0
LINE
  5
24B
330
8F
100
AcDbEntity
  8
09712038_KAPPE
  6
Continuous
 62
     7
100
AcDbLine
 10
46.6776457935
 20
820.8048109218
 30
0.0
 11
46.6284984216
 21
820.6025414046
 31
0.0
  0
LINE
  5
24C
330
8F
100
AcDbEntity
  8
09712038_KAPPE
  6
Continuous
 62
     7
100
AcDbLine
 10
46.6284984216
 20
820.6025414046
 30
0.0
 11
46.5903396801
 21
820.4002749258
 31
0.0
  0
LINE
  5
24D
330
8F
100
AcDbEntity
  8
09712038_KAPPE
  6
Continuous
 62
     7
100
AcDbLine
 10
46.5903396801
 20
820.4002749258
 30
0.0
 11
46.5656129099
 21
820.1980117139
 31
0.0
  0
LINE
  5
24E
330
8F
100
AcDbEntity
  8
09712038_KAPPE
  6
Continuous
 62
     7
100
AcDbLine
 10
46.5656129099
 20
820.1980117139
 30
0.0
 11
46.556761452
 21
819.995751997
 31
0.0
  0
LINE
  5
24F
330
8F
100
AcDbEntity
  8
09712038_KAPPE
  6
Continuous
 62
     7
100
AcDbLine
 10
46.556761452
 20
819.995751997
 30
0.0
 11
46.5592987166
 21
819.886875704
 31
0.0
  0
LINE
  5
250
330
8F
100
AcDbEntity
  8
09712038_KAPPE
  6
Continuous
 62
     7
100
AcDbLine
 10
46.5592987166
 20
819.886875704
 30
0.0
 11
46.5667639232
 21
819.778000287
 31
0.0
  0
LINE
  5
251
330
8F
100
AcDbEntity
  8
09712038_KAPPE
  6
Continuous
 62
     7
100
AcDbLine
 10
46.5667639232
 20
819.778000287
 30
0.0
 11
46.5787767403
 21
819.6691255431
 31
0.0
  0
LINE
  5
252
330
8F
100
AcDbEntity
  8
09712038_KAPPE
  6
Continuous
 62
     7
100
AcDbLine
 10
46.5787767403
 20
819.6691255431
 30
0.0
 11
46.5949568367
 21
819.5602512693
 31
0.0
  0
LINE
  5
253
330
8F
100
AcDbEntity
  8
09712038_KAPPE
  6
Continuous
 62
     7
100
AcDbLine
 10
46.5949568367
 20
819.5602512693
 30
0.0
 11
46.614923881
 21
819.4513772628
 31
0.0
  0
LINE
  5
254
330
8F
100
AcDbEntity
  8
09712038_KAPPE
  6
Continuous
 62
     7
100
AcDbLine
 10
46.614923881
 20
819.4513772628
 30
0.0
 11
46.6382975418
 21
819.3425033206
 31
0.0
  0
LINE
  5
255
330
8F
100
AcDbEntity
  8
09712038_KAPPE
  6
Continuous
 62
     7
100
AcDbLine
 10
46.6382975418
 20
819.3425033206
 30
0.0
 11
46.6789134644
 21
819.1791920839
 31
0.0
  0
LINE
  5
256
330
8F
100
AcDbEntity
  8
09712038_KAPPE
  6
Continuous
 62
     7
100
AcDbLine
 10
46.6789134644
 20
819.1791920839
 30
0.0
 11
46.7250549105
 21
819.0158798505
 31
0.0
  0
LINE
  5
257
330
8F
100
AcDbEntity
  8
09712038_KAPPE
  6
Continuous
 62
     7
100
AcDbLine
 10
46.7250549105
 20
819.0158798505
 30
0.0
 11
47.1718543593
 21
817.5106476513
 31
0.0
  0
LINE
  5
258
330
8F
100
AcDbEntity
  8
09712038_KAPPE
  6
Continuous
 62
     7
100
AcDbLine
 10
47.1718543593
 20
817.5106476513
 30
0.0
 11
47.24709976
 21
817.5863763587
 31
0.0
  0
LINE
  5
259
330
8F
100
AcDbEntity
  8
09712038_KAPPE
  6
Continuous
 62
     7
100
AcDbLine
 10
47.24709976
 20
817.5863763587
 30
0.0
 11
47.3177829282
 21
817.6665055435
 31
0.0
  0
LINE
  5
25A
330
8F
100
AcDbEntity
  8
09712038_KAPPE
  6
Continuous
 62
     7
100
AcDbLine
 10
47.3177829282
 20
817.6665055435
 30
0.0
 11
47.3512950619
 21
817.7080898025
 31
0.0
  0
LINE
  5
25B
330
8F
100
AcDbEntity
  8
09712038_KAPPE
  6
Continuous
 62
     7
100
AcDbLine
 10
47.3512950619
 20
817.7080898025
 30
0.0
 11
47.38353074
 21
817.7506122179
 31
0.0
  0
LINE
  5
25C
330
8F
100
AcDbEntity
  8
09712038_KAPPE
  6
Continuous
 62
     7
100
AcDbLine
 10
47.38353074
 20
817.7506122179
 30
0.0
 11
47.0039676598
 21
819.0158753039
 31
0.0
  0
LINE
  5
25D
330
8F
100
AcDbEntity
  8
09712038_KAPPE
  6
Continuous
 62
     7
100
AcDbLine
 10
47.0039676598
 20
819.0158753039
 30
0.0
 11
46.9563300807
 21
819.1825205848
 31
0.0
  0
LINE
  5
25E
330
8F
100
AcDbEntity
  8
09712038_KAPPE
  6
Continuous
 62
     7
100
AcDbLine
 10
46.9563300807
 20
819.1825205848
 30
0.0
 11
46.9143101381
 21
819.349164755
 31
0.0
  0
LINE
  5
25F
330
8F
100
AcDbEntity
  8
09712038_KAPPE
  6
Continuous
 62
     7
100
AcDbLine
 10
46.9143101381
 20
819.349164755
 30
0.0
 11
46.8900913238
 21
819.4602606108
 31
0.0
  0
LINE
  5
260
330
8F
100
AcDbEntity
  8
09712038_KAPPE
  6
Continuous
 62
     7
100
AcDbLine
 10
46.8900913238
 20
819.4602606108
 30
0.0
 11
46.8693795941
 21
819.571356512
 31
0.0
  0
LINE
  5
261
330
8F
100
AcDbEntity
  8
09712038_KAPPE
  6
Continuous
 62
     7
100
AcDbLine
 10
46.8693795941
 20
819.571356512
 30
0.0
 11
46.8525790922
 21
819.6824526742
 31
0.0
  0
LINE
  5
262
330
8F
100
AcDbEntity
  8
09712038_KAPPE
  6
Continuous
 62
     7
100
AcDbLine
 10
46.8525790922
 20
819.6824526742
 30
0.0
 11
46.8400939608
 21
819.793549313
 31
0.0
  0
LINE
  5
263
330
8F
100
AcDbEntity
  8
09712038_KAPPE
  6
Continuous
 62
     7
100
AcDbLine
 10
46.8400939608
 20
819.793549313
 30
0.0
 11
46.8323283429
 21
819.904646644
 31
0.0
  0
LINE
  5
264
330
8F
100
AcDbEntity
  8
09712038_KAPPE
  6
Continuous
 62
     7
100
AcDbLine
 10
46.8323283429
 20
819.904646644
 30
0.0
 11
46.8296863815
 21
820.0157448828
 31
0.0
  0
LINE
  5
265
330
8F
100
AcDbEntity
  8
09712038_KAPPE
  6
Continuous
 62
     7
100
AcDbLine
 10
46.8296863815
 20
820.0157448828
 30
0.0
 11
46.8384258843
 21
820.2166716191
 31
0.0
  0
LINE
  5
266
330
8F
100
AcDbEntity
  8
09712038_KAPPE
  6
Continuous
 62
     7
100
AcDbLine
 10
46.8384258843
 20
820.2166716191
 30
0.0
 11
46.8628498813
 21
820.417601806
 31
0.0
  0
LINE
  5
267
330
8F
100
AcDbEntity
  8
09712038_KAPPE
  6
Continuous
 62
     7
100
AcDbLine
 10
46.8628498813
 20
820.417601806
 30
0.0
 11
46.9005627389
 21
820.6185352198
 31
0.0
  0
LINE
  5
268
330
8F
100
AcDbEntity
  8
09712038_KAPPE
  6
Continuous
 62
     7
100
AcDbLine
 10
46.9005627389
 20
820.6185352198
 30
0.0
 11
46.9491688236
 21
820.8194716365
 31
0.0
  0
LINE
  5
269
330
8F
100
AcDbEntity
  8
09712038_KAPPE
  6
Continuous
 62
     7
100
AcDbLine
 10
46.9491688236
 20
820.8194716365
 30
0.0
 11
47.0062725018
 21
821.0204108325
 31
0.0
  0
LINE
  5
26A
330
8F
100
AcDbEntity
  8
09712038_KAPPE
  6
Continuous
 62
     7
100
AcDbLine
 10
47.0062725018
 20
821.0204108325
 30
0.0
 11
47.1138221809
 21
821.3553150605
 31
0.0
  0
LINE
  5
26B
330
8F
100
AcDbEntity
  8
09712038_KAPPE
  6
Continuous
 62
     7
100
AcDbLine
 10
47.1138221809
 20
821.3553150605
 30
0.0
 11
47.227230853
 21
821.6902253507
 31
0.0
  0
LINE
  5
26C
330
8F
100
AcDbEntity
  8
09712038_KAPPE
  6
Continuous
 62
     7
100
AcDbLine
 10
47.227230853
 20
821.6902253507
 30
0.0
 11
47.335407622
 21
822.0251406667
 31
0.0
  0
LINE
  5
26D
330
8F
100
AcDbEntity
  8
09712038_KAPPE
  6
Continuous
 62
     7
100
AcDbLine
 10
47.335407622
 20
822.0251406667
 30
0.0
 11
47.3931885573
 21
822.2260918377
 31
0.0
  0
LINE
  5
26E
330
8F
100
AcDbEntity
  8
09712038_KAPPE
  6
Continuous
 62
     7
100
AcDbLine
 10
47.3931885573
 20
822.2260918377
 30
0.0
 11
47.4426976513
 21
822.4270442212
 31
0.0
  0
LINE
  5
26F
330
8F
100
AcDbEntity
  8
09712038_KAPPE
  6
Continuous
 62
     7
100
AcDbLine
 10
47.4426976513
 20
822.4270442212
 30
0.0
 11
47.4815392706
 21
822.6279975933
 31
0.0
  0
LINE
  5
270
330
8F
100
AcDbEntity
  8
09712038_KAPPE
  6
Continuous
 62
     7
100
AcDbLine
 10
47.4815392706
 20
822.6279975933
 30
0.0
 11
47.5073177816
 21
822.8289517302
 31
0.0
  0
LINE
  5
271
330
8F
100
AcDbEntity
  8
09712038_KAPPE
  6
Continuous
 62
     7
100
AcDbLine
 10
47.5073177816
 20
822.8289517302
 30
0.0
 11
47.5176375509
 21
823.0299064082
 31
0.0
  0
LINE
  5
272
330
8F
100
AcDbEntity
  8
09712038_KAPPE
  6
Continuous
 62
     7
100
AcDbLine
 10
47.5176375509
 20
823.0299064082
 30
0.0
 11
47.5073243332
 21
823.2308614225
 31
0.0
  0
LINE
  5
273
330
8F
100
AcDbEntity
  8
09712038_KAPPE
  6
Continuous
 62
     7
100
AcDbLine
 10
47.5073243332
 20
823.2308614225
 30
0.0
 11
47.4815523737
 21
823.4318163998
 31
0.0
  0
LINE
  5
274
330
8F
100
AcDbEntity
  8
09712038_KAPPE
  6
Continuous
 62
     7
100
AcDbLine
 10
47.4815523737
 20
823.4318163998
 30
0.0
 11
47.4427173059
 21
823.6327710381
 31
0.0
  0
LINE
  5
275
330
8F
100
AcDbEntity
  8
09712038_KAPPE
  6
Continuous
 62
     7
100
AcDbLine
 10
47.4427173059
 20
823.6327710381
 30
0.0
 11
47.3932147634
 21
823.8337250356
 31
0.0
  0
LINE
  5
276
330
8F
100
AcDbEntity
  8
09712038_KAPPE
  6
Continuous
 62
     7
100
AcDbLine
 10
47.3932147634
 20
823.8337250356
 30
0.0
 11
47.3354403797
 21
824.0346780903
 31
0.0
  0
LINE
  5
277
330
8F
100
AcDbEntity
  8
09712038_KAPPE
  6
Continuous
 62
     7
100
AcDbLine
 10
47.3354403797
 20
824.0346780903
 30
0.0
 11
47.2272745297
 21
824.3695969329
 31
0.0
  0
LINE
  5
278
330
8F
100
AcDbEntity
  8
09712038_KAPPE
  6
Continuous
 62
     7
100
AcDbLine
 10
47.2272745297
 20
824.3695969329
 30
0.0
 11
47.1138767765
 21
824.7045109202
 31
0.0
  0
LINE
  5
279
330
8F
100
AcDbEntity
  8
09712038_KAPPE
  6
Continuous
 62
     7
100
AcDbLine
 10
47.1138767765
 20
824.7045109202
 30
0.0
 11
47.006338016
 21
825.0394186545
 31
0.0
  0
LINE
  5
27A
330
8F
100
AcDbEntity
  8
09712038_KAPPE
  6
Continuous
 62
     7
100
AcDbLine
 10
47.006338016
 20
825.0394186545
 30
0.0
 11
46.9492408889
 21
825.240359712
 31
0.0
  0
LINE
  5
27B
330
8F
100
AcDbEntity
  8
09712038_KAPPE
  6
Continuous
 62
     7
100
AcDbLine
 10
46.9492408889
 20
825.240359712
 30
0.0
 11
46.9006413552
 21
825.4412977133
 31
0.0
  0
LINE
  5
27C
330
8F
100
AcDbEntity
  8
09712038_KAPPE
  6
Continuous
 62
     7
100
AcDbLine
 10
46.9006413552
 20
825.4412977133
 30
0.0
 11
46.8629350485
 21
825.6422323565
 31
0.0
  0
LINE
  5
27D
330
8F
100
AcDbEntity
  8
09712038_KAPPE
  6
Continuous
 62
     7
100
AcDbLine
 10
46.8629350485
 20
825.6422323565
 30
0.0
 11
46.8385176023
 21
825.8431633396
 31
0.0
  0
LINE
  5
27E
330
8F
100
AcDbEntity
  8
09712038_KAPPE
  6
Continuous
 62
     7
100
AcDbLine
 10
46.8385176023
 20
825.8431633396
 30
0.0
 11
46.82978465
 21
826.0440903607
 31
0.0
  0
LINE
  5
27F
330
8F
100
AcDbEntity
  8
09712038_KAPPE
  6
Continuous
 62
     7
100
AcDbLine
 10
46.82978465
 20
826.0440903607
 30
0.0
 11
46.8324302335
 21
826.1551885133
 31
0.0
  0
LINE
  5
280
330
8F
100
AcDbEntity
  8
09712038_KAPPE
  6
Continuous
 62
     7
100
AcDbLine
 10
46.8324302335
 20
826.1551885133
 30
0.0
 11
46.8401994734
 21
826.2662855911
 31
0.0
  0
LINE
  5
281
330
8F
100
AcDbEntity
  8
09712038_KAPPE
  6
Continuous
 62
     7
100
AcDbLine
 10
46.8401994734
 20
826.2662855911
 30
0.0
 11
46.8526882268
 21
826.3773818228
 31
0.0
  0
LINE
  5
282
330
8F
100
AcDbEntity
  8
09712038_KAPPE
  6
Continuous
 62
     7
100
AcDbLine
 10
46.8526882268
 20
826.3773818228
 30
0.0
 11
46.8694923507
 21
826.4884774372
 31
0.0
  0
LINE
  5
283
330
8F
100
AcDbEntity
  8
09712038_KAPPE
  6
Continuous
 62
     7
100
AcDbLine
 10
46.8694923507
 20
826.4884774372
 30
0.0
 11
46.8902077023
 21
826.5995726631
 31
0.0
  0
LINE
  5
284
330
8F
100
AcDbEntity
  8
09712038_KAPPE
  6
Continuous
 62
     7
100
AcDbLine
 10
46.8902077023
 20
826.5995726631
 30
0.0
 11
46.9144301386
 21
826.7106677292
 31
0.0
  0
LINE
  5
285
330
8F
100
AcDbEntity
  8
09712038_KAPPE
  6
Continuous
 62
     7
100
AcDbLine
 10
46.9144301386
 20
826.7106677292
 30
0.0
 11
46.9564555141
 21
826.8773105294
 31
0.0
  0
LINE
  5
286
330
8F
100
AcDbEntity
  8
09712038_KAPPE
  6
Continuous
 62
     7
100
AcDbLine
 10
46.9564555141
 20
826.8773105294
 30
0.0
 11
47.0040985262
 21
827.0439542571
 31
0.0
  0
LINE
  5
287
330
8F
100
AcDbEntity
  8
09712038_KAPPE
  6
Continuous
 62
     7
100
AcDbLine
 10
47.0040985262
 20
827.0439542571
 30
0.0
 11
47.3837028565
 21
828.3092049679
 31
0.0
  0
LINE
  5
288
330
8F
100
AcDbEntity
  8
09712038_KAPPE
  6
Continuous
 62
     7
100
AcDbLine
 10
47.3837028565
 20
828.3092049679
 30
0.0
 11
47.3179577868
 21
828.3933137858
 31
0.0
  0
LINE
  5
289
330
8F
100
AcDbEntity
  8
09712038_KAPPE
  6
Continuous
 62
     7
100
AcDbLine
 10
47.3179577868
 20
828.3933137858
 30
0.0
 11
47.247277231
 21
828.4734452749
 31
0.0
  0
LINE
  5
28A
330
8F
100
AcDbEntity
  8
09712038_KAPPE
  6
Continuous
 62
     7
100
AcDbLine
 10
47.247277231
 20
828.4734452749
 30
0.0
 11
47.2102008335
 21
828.5118855462
 31
0.0
  0
LINE
  5
28B
330
8F
100
AcDbEntity
  8
09712038_KAPPE
  6
Continuous
 62
     7
100
AcDbLine
 10
47.2102008335
 20
828.5118855462
 30
0.0
 11
47.1720342993
 21
828.5491764354
 31
0.0
  0
LINE
  5
28C
330
8F
100
AcDbEntity
  8
09712038_KAPPE
  6
Continuous
 62
     7
100
AcDbLine
 10
47.1720342993
 20
828.5491764354
 30
0.0
 11
46.7251857769
 21
827.0439588037
 31
0.0
  0
LINE
  5
28D
330
8F
100
AcDbEntity
  8
09712038_KAPPE
  6
Continuous
 62
     7
100
AcDbLine
 10
46.7251857769
 20
827.0439588037
 30
0.0
 11
46.6790390065
 21
826.8806480747
 31
0.0
  0
LINE
  5
28E
330
8F
100
AcDbEntity
  8
09712038_KAPPE
  6
Continuous
 62
     7
100
AcDbLine
 10
46.6790390065
 20
826.8806480747
 30
0.0
 11
46.6384177596
 21
826.7173381623
 31
0.0
  0
LINE
  5
28F
330
8F
100
AcDbEntity
  8
09712038_KAPPE
  6
Continuous
 62
     7
100
AcDbLine
 10
46.6384177596
 20
826.7173381623
 30
0.0
 11
46.6150405493
 21
826.6084649821
 31
0.0
  0
LINE
  5
290
330
8F
100
AcDbEntity
  8
09712038_KAPPE
  6
Continuous
 62
     7
100
AcDbLine
 10
46.6150405493
 20
826.6084649821
 30
0.0
 11
46.5950699555
 21
826.4995916267
 31
0.0
  0
LINE
  5
291
330
8F
100
AcDbEntity
  8
09712038_KAPPE
  6
Continuous
 62
     7
100
AcDbLine
 10
46.5950699555
 20
826.4995916267
 30
0.0
 11
46.5788863096
 21
826.3907178805
 31
0.0
  0
LINE
  5
292
330
8F
100
AcDbEntity
  8
09712038_KAPPE
  6
Continuous
 62
     7
100
AcDbLine
 10
46.5788863096
 20
826.3907178805
 30
0.0
 11
46.5668699429
 21
826.2818435282
 31
0.0
  0
LINE
  5
293
330
8F
100
AcDbEntity
  8
09712038_KAPPE
  6
Continuous
 62
     7
100
AcDbLine
 10
46.5668699429
 20
826.2818435282
 30
0.0
 11
46.5594011868
 21
826.1729683547
 31
0.0
  0
LINE
  5
294
330
8F
100
AcDbEntity
  8
09712038_KAPPE
  6
Continuous
 62
     7
100
AcDbLine
 10
46.5594011868
 20
826.1729683547
 30
0.0
 11
46.5568603725
 21
826.0640921444
 31
0.0
  0
LINE
  5
295
330
8F
100
AcDbEntity
  8
09712038_KAPPE
  6
Continuous
 62
     7
100
AcDbLine
 10
46.5568603725
 20
826.0640921444
 30
0.0
 11
46.5657052363
 21
825.8618321391
 31
0.0
  0
LINE
  5
296
330
8F
100
AcDbEntity
  8
09712038_KAPPE
  6
Continuous
 62
     7
100
AcDbLine
 10
46.5657052363
 20
825.8618321391
 30
0.0
 11
46.5904254123
 21
825.6595681211
 31
0.0
  0
LINE
  5
297
330
8F
100
AcDbEntity
  8
09712038_KAPPE
  6
Continuous
 62
     7
100
AcDbLine
 10
46.5904254123
 20
825.6595681211
 30
0.0
 11
46.6285775595
 21
825.4573003984
 31
0.0
  0
LINE
  5
298
330
8F
100
AcDbEntity
  8
09712038_KAPPE
  6
Continuous
 62
     7
100
AcDbLine
 10
47.6382286179
 20
825.2550136216
 30
0.0
 11
47.6959146847
 21
825.0527394133
 31
0.0
  0
LINE
  5
299
330
8F
100
AcDbEntity
  8
09712038_KAPPE
  6
Continuous
 62
     7
100
AcDbLine
 10
47.6959146847
 20
825.0527394133
 30
0.0
 11
47.8044114267
 21
824.7156097054
 31
0.0
  0
LINE
  5
29A
330
8F
100
AcDbEntity
  8
09712038_KAPPE
  6
Continuous
 62
     7
100
AcDbLine
 10
47.8044114267
 20
824.7156097054
 30
0.0
 11
47.9185462619
 21
824.3784736987
 31
0.0
  0
LINE
  5
29B
330
8F
100
AcDbEntity
  8
09712038_KAPPE
  6
Continuous
 62
     7
100
AcDbLine
 10
47.9185462619
 20
824.3784736987
 30
0.0
 11
48.0270074267
 21
824.041332819
 31
0.0
  0
LINE
  5
29C
330
8F
100
AcDbEntity
  8
09712038_KAPPE
  6
Continuous
 62
     7
100
AcDbLine
 10
48.0270074267
 20
824.041332819
 30
0.0
 11
48.0846550702
 21
823.8390465453
 31
0.0
  0
LINE
  5
29D
330
8F
100
AcDbEntity
  8
09712038_KAPPE
  6
Continuous
 62
     7
100
AcDbLine
 10
48.0846550702
 20
823.8390465453
 30
0.0
 11
48.1337446166
 21
823.6367593385
 31
0.0
  0
LINE
  5
29E
330
8F
100
AcDbEntity
  8
09712038_KAPPE
  6
Continuous
 62
     7
100
AcDbLine
 10
48.1337446166
 20
823.6367593385
 30
0.0
 11
48.1718327249
 21
823.4344715067
 31
0.0
  0
LINE
  5
29F
330
8F
100
AcDbEntity
  8
09712038_KAPPE
  6
Continuous
 62
     7
100
AcDbLine
 10
48.1718327249
 20
823.4344715067
 30
0.0
 11
48.1964760542
 21
823.2321833578
 31
0.0
  0
LINE
  5
2A0
330
8F
100
AcDbEntity
  8
09712038_KAPPE
  6
Continuous
 62
     7
100
AcDbLine
 10
48.1964760542
 20
823.2321833578
 30
0.0
 11
48.2052312636
 21
823.0298951997
 31
0.0
  0
LINE
  5
2A1
330
8F
100
AcDbEntity
  8
09712038_KAPPE
  6
Continuous
 62
     7
100
AcDbLine
 10
48.2052312636
 20
823.0298951997
 30
0.0
 11
48.1964694592
 21
822.8276073271
 31
0.0
  0
LINE
  5
2A2
330
8F
100
AcDbEntity
  8
09712038_KAPPE
  6
Continuous
 62
     7
100
AcDbLine
 10
48.1964694592
 20
822.8276073271
 30
0.0
 11
48.1718195349
 21
822.6253199817
 31
0.0
  0
LINE
  5
2A3
330
8F
100
AcDbEntity
  8
09712038_KAPPE
  6
Continuous
 62
     7
100
AcDbLine
 10
48.1718195349
 20
822.6253199817
 30
0.0
 11
48.1337248315
 21
822.4230333918
 31
0.0
  0
LINE
  5
2A4
330
8F
100
AcDbEntity
  8
09712038_KAPPE
  6
Continuous
 62
     7
100
AcDbLine
 10
48.1337248315
 20
822.4230333918
 30
0.0
 11
48.0846286902
 21
822.2207477856
 31
0.0
  0
LINE
  5
2A5
330
8F
100
AcDbEntity
  8
09712038_KAPPE
  6
Continuous
 62
     7
100
AcDbLine
 10
48.0846286902
 20
822.2207477856
 30
0.0
 11
48.0269744518
 21
822.0184633914
 31
0.0
  0
LINE
  5
2A6
330
8F
100
AcDbEntity
  8
09712038_KAPPE
  6
Continuous
 62
     7
100
AcDbLine
 10
48.0269744518
 20
822.0184633914
 30
0.0
 11
47.9185022955
 21
821.6813260479
 31
0.0
  0
LINE
  5
2A7
330
8F
100
AcDbEntity
  8
09712038_KAPPE
  6
Continuous
 62
     7
100
AcDbLine
 10
47.9185022955
 20
821.6813260479
 30
0.0
 11
47.804356469
 21
821.3441937625
 31
0.0
  0
LINE
  5
2A8
330
8F
100
AcDbEntity
  8
09712038_KAPPE
  6
Continuous
 62
     7
100
AcDbLine
 10
47.804356469
 20
821.3441937625
 30
0.0
 11
47.6958487359
 21
821.0070675919
 31
0.0
  0
LINE
  5
2A9
330
8F
100
AcDbEntity
  8
09712038_KAPPE
  6
Continuous
 62
     7
100
AcDbLine
 10
47.6958487359
 20
821.0070675919
 30
0.0
 11
47.6381560745
 21
820.8047952645
 31
0.0
  0
LINE
  5
2AA
330
8F
100
AcDbEntity
  8
09712038_KAPPE
  6
Continuous
 62
     7
100
AcDbLine
 10
47.6381560745
 20
820.8047952645
 30
0.0
 11
47.5890087026
 21
820.6025257472
 31
0.0
  0
LINE
  5
2AB
330
8F
100
AcDbEntity
  8
09712038_KAPPE
  6
Continuous
 62
     7
100
AcDbLine
 10
47.5890087026
 20
820.6025257472
 30
0.0
 11
47.5508499611
 21
820.4002592685
 31
0.0
  0
LINE
  5
2AC
330
8F
100
AcDbEntity
  8
09712038_KAPPE
  6
Continuous
 62
     7
100
AcDbLine
 10
47.5508499611
 20
820.4002592685
 30
0.0
 11
47.5261231909
 21
820.1979960565
 31
0.0
  0
LINE
  5
2AD
330
8F
100
AcDbEntity
  8
09712038_KAPPE
  6
Continuous
 62
     7
100
AcDbLine
 10
47.5261231909
 20
820.1979960565
 30
0.0
 11
47.517271733
 21
819.9957363397
 31
0.0
  0
LINE
  5
2AE
330
8F
100
AcDbEntity
  8
09712038_KAPPE
  6
Continuous
 62
     7
100
AcDbLine
 10
47.517271733
 20
819.9957363397
 30
0.0
 11
47.52239378
 21
819.8407082338
 31
0.0
  0
LINE
  5
2AF
330
8F
100
AcDbEntity
  8
09712038_KAPPE
  6
Continuous
 62
     7
100
AcDbLine
 10
47.52239378
 20
819.8407082338
 30
0.0
 11
47.5371802416
 21
819.6856817295
 31
0.0
  0
LINE
  5
2B0
330
8F
100
AcDbEntity
  8
09712038_KAPPE
  6
Continuous
 62
     7
100
AcDbLine
 10
47.5371802416
 20
819.6856817295
 30
0.0
 11
47.5605331343
 21
819.5306562412
 31
0.0
  0
LINE
  5
2B1
330
8F
100
AcDbEntity
  8
09712038_KAPPE
  6
Continuous
 62
     7
100
AcDbLine
 10
47.5605331343
 20
819.5306562412
 30
0.0
 11
47.5913544748
 21
819.3756311829
 31
0.0
  0
LINE
  5
2B2
330
8F
100
AcDbEntity
  8
09712038_KAPPE
  6
Continuous
 62
     7
100
AcDbLine
 10
47.5913544748
 20
819.3756311829
 30
0.0
 11
47.6285462798
 21
819.2206059688
 31
0.0
  0
LINE
  5
2B3
330
8F
100
AcDbEntity
  8
09712038_KAPPE
  6
Continuous
 62
     7
100
AcDbLine
 10
47.6285462798
 20
819.2206059688
 30
0.0
 11
47.6710105657
 21
819.065580013
 31
0.0
  0
LINE
  5
2B4
330
8F
100
AcDbEntity
  8
09712038_KAPPE
  6
Continuous
 62
     7
100
AcDbLine
 10
47.6710105657
 20
819.065580013
 30
0.0
 11
47.7421910579
 21
818.8330384072
 31
0.0
  0
LINE
  5
2B5
330
8F
100
AcDbEntity
  8
09712038_KAPPE
  6
Continuous
 62
     7
100
AcDbLine
 10
47.7421910579
 20
818.8330384072
 30
0.0
 11
47.8190584758
 21
818.6004918375
 31
0.0
  0
LINE
  5
2B6
330
8F
100
AcDbEntity
  8
09712038_KAPPE
  6
Continuous
 62
     7
100
AcDbLine
 10
47.8190584758
 20
818.6004918375
 30
0.0
 11
47.9875162008
 21
818.9404437904
 31
0.0
  0
LINE
  5
2B7
330
8F
100
AcDbEntity
  8
09712038_KAPPE
  6
Continuous
 62
     7
100
AcDbLine
 10
47.9875162008
 20
818.9404437904
 30
0.0
 11
47.9342194201
 21
819.1196590175
 31
0.0
  0
LINE
  5
2B8
330
8F
100
AcDbEntity
  8
09712038_KAPPE
  6
Continuous
 62
     7
100
AcDbLine
 10
47.9342194201
 20
819.1196590175
 30
0.0
 11
47.8868247405
 21
819.2988726427
 31
0.0
  0
LINE
  5
2B9
330
8F
100
AcDbEntity
  8
09712038_KAPPE
  6
Continuous
 62
     7
100
AcDbLine
 10
47.8868247405
 20
819.2988726427
 30
0.0
 11
47.8593450011
 21
819.4183479498
 31
0.0
  0
LINE
  5
2BA
330
8F
100
AcDbEntity
  8
09712038_KAPPE
  6
Continuous
 62
     7
100
AcDbLine
 10
47.8593450011
 20
819.4183479498
 30
0.0
 11
47.8357450707
 21
819.5378232153
 31
0.0
  0
LINE
  5
2BB
330
8F
100
AcDbEntity
  8
09712038_KAPPE
  6
Continuous
 62
     7
100
AcDbLine
 10
47.8357450707
 20
819.5378232153
 30
0.0
 11
47.8165276105
 21
819.6572987075
 31
0.0
  0
LINE
  5
2BC
330
8F
100
AcDbEntity
  8
09712038_KAPPE
  6
Continuous
 62
     7
100
AcDbLine
 10
47.8165276105
 20
819.6572987075
 30
0.0
 11
47.8021952815
 21
819.7767746945
 31
0.0
  0
LINE
  5
2BD
330
8F
100
AcDbEntity
  8
09712038_KAPPE
  6
Continuous
 62
     7
100
AcDbLine
 10
47.8021952815
 20
819.7767746945
 30
0.0
 11
47.7932507451
 21
819.8962514444
 31
0.0
  0
LINE
  5
2BE
330
8F
100
AcDbEntity
  8
09712038_KAPPE
  6
Continuous
 62
     7
100
AcDbLine
 10
47.7932507451
 20
819.8962514444
 30
0.0
 11
47.7901966624
 21
820.0157292255
 31
0.0
  0
LINE
  5
2BF
330
8F
100
AcDbEntity
  8
09712038_KAPPE
  6
Continuous
 62
     7
100
AcDbLine
 10
47.7901966624
 20
820.0157292255
 30
0.0
 11
47.7989361653
 21
820.2166559617
 31
0.0
  0
LINE
  5
2C0
330
8F
100
AcDbEntity
  8
09712038_KAPPE
  6
Continuous
 62
     7
100
AcDbLine
 10
47.7989361653
 20
820.2166559617
 30
0.0
 11
47.8233601623
 21
820.4175861487
 31
0.0
  0
LINE
  5
2C1
330
8F
100
AcDbEntity
  8
09712038_KAPPE
  6
Continuous
 62
     7
100
AcDbLine
 10
47.8233601623
 20
820.4175861487
 30
0.0
 11
47.8610730199
 21
820.6185195624
 31
0.0
  0
LINE
  5
2C2
330
8F
100
AcDbEntity
  8
09712038_KAPPE
  6
Continuous
 62
     7
100
AcDbLine
 10
47.8610730199
 20
820.6185195624
 30
0.0
 11
47.9096791046
 21
820.8194559792
 31
0.0
  0
LINE
  5
2C3
330
8F
100
AcDbEntity
  8
09712038_KAPPE
  6
Continuous
 62
     7
100
AcDbLine
 10
47.9096791046
 20
820.8194559792
 30
0.0
 11
47.9667827828
 21
821.0203951751
 31
0.0
  0
LINE
  5
2C4
330
8F
100
AcDbEntity
  8
09712038_KAPPE
  6
Continuous
 62
     7
100
AcDbLine
 10
47.9667827828
 20
821.0203951751
 30
0.0
 11
48.0743324619
 21
821.3552994032
 31
0.0
  0
LINE
  5
2C5
330
8F
100
AcDbEntity
  8
09712038_KAPPE
  6
Continuous
 62
     7
100
AcDbLine
 10
48.0743324619
 20
821.3552994032
 30
0.0
 11
48.187741134
 21
821.6902096933
 31
0.0
  0
LINE
  5
2C6
330
8F
100
AcDbEntity
  8
09712038_KAPPE
  6
Continuous
 62
     7
100
AcDbLine
 10
48.187741134
 20
821.6902096933
 30
0.0
 11
48.295917903
 21
822.0251250093
 31
0.0
  0
LINE
  5
2C7
330
8F
100
AcDbEntity
  8
09712038_KAPPE
  6
Continuous
 62
     7
100
AcDbLine
 10
48.295917903
 20
822.0251250093
 30
0.0
 11
48.3536988382
 21
822.2260761803
 31
0.0
  0
LINE
  5
2C8
330
8F
100
AcDbEntity
  8
09712038_KAPPE
  6
Continuous
 62
     7
100
AcDbLine
 10
48.3536988382
 20
822.2260761803
 30
0.0
 11
48.4032079323
 21
822.4270285638
 31
0.0
  0
LINE
  5
2C9
330
8F
100
AcDbEntity
  8
09712038_KAPPE
  6
Continuous
 62
     7
100
AcDbLine
 10
48.4032079323
 20
822.4270285638
 30
0.0
 11
48.4420495516
 21
822.6279819359
 31
0.0
  0
LINE
  5
2CA
330
8F
100
AcDbEntity
  8
09712038_KAPPE
  6
Continuous
 62
     7
100
AcDbLine
 10
48.4420495516
 20
822.6279819359
 30
0.0
 11
48.4678280626
 21
822.8289360729
 31
0.0
  0
LINE
  5
2CB
330
8F
100
AcDbEntity
  8
09712038_KAPPE
  6
Continuous
 62
     7
100
AcDbLine
 10
48.4678280626
 20
822.8289360729
 30
0.0
 11
48.4781478319
 21
823.0298907508
 31
0.0
  0
LINE
  5
2CC
330
8F
100
AcDbEntity
  8
09712038_KAPPE
  6
Continuous
 62
     7
100
AcDbLine
 10
48.4781478319
 20
823.0298907508
 30
0.0
 11
48.4678346142
 21
823.2308457652
 31
0.0
  0
LINE
  5
2CD
330
8F
100
AcDbEntity
  8
09712038_KAPPE
  6
Continuous
 62
     7
100
AcDbLine
 10
48.4678346142
 20
823.2308457652
 30
0.0
 11
48.4420626547
 21
823.4318007425
 31
0.0
  0
LINE
  5
2CE
330
8F
100
AcDbEntity
  8
09712038_KAPPE
  6
Continuous
 62
     7
100
AcDbLine
 10
48.4420626547
 20
823.4318007425
 30
0.0
 11
48.4032275869
 21
823.6327553808
 31
0.0
  0
LINE
  5
2CF
330
8F
100
AcDbEntity
  8
09712038_KAPPE
  6
Continuous
 62
     7
100
AcDbLine
 10
48.4032275869
 20
823.6327553808
 30
0.0
 11
48.3537250444
 21
823.8337093782
 31
0.0
  0
LINE
  5
2D0
330
8F
100
AcDbEntity
  8
09712038_KAPPE
  6
Continuous
 62
     7
100
AcDbLine
 10
48.3537250444
 20
823.8337093782
 30
0.0
 11
48.2959506607
 21
824.0346624329
 31
0.0
  0
LINE
  5
2D1
330
8F
100
AcDbEntity
  8
09712038_KAPPE
  6
Continuous
 62
     7
100
AcDbLine
 10
48.2959506607
 20
824.0346624329
 30
0.0
 11
48.1877848107
 21
824.3695812756
 31
0.0
  0
LINE
  5
2D2
330
8F
100
AcDbEntity
  8
09712038_KAPPE
  6
Continuous
 62
     7
100
AcDbLine
 10
48.1877848107
 20
824.3695812756
 30
0.0
 11
48.0743870575
 21
824.7044952629
 31
0.0
  0
LINE
  5
2D3
330
8F
100
AcDbEntity
  8
09712038_KAPPE
  6
Continuous
 62
     7
100
AcDbLine
 10
48.0743870575
 20
824.7044952629
 30
0.0
 11
47.966848297
 21
825.0394029971
 31
0.0
  0
LINE
  5
2D4
330
8F
100
AcDbEntity
  8
09712038_KAPPE
  6
Continuous
 62
     7
100
AcDbLine
 10
47.966848297
 20
825.0394029971
 30
0.0
 11
47.9097511699
 21
825.2403440547
 31
0.0
  0
LINE
  5
2D5
330
8F
100
AcDbEntity
  8
09712038_KAPPE
  6
Continuous
 62
     7
100
AcDbLine
 10
47.9097511699
 20
825.2403440547
 30
0.0
 11
47.8611516362
 21
825.441282056
 31
0.0
  0
LINE
  5
2D6
330
8F
100
AcDbEntity
  8
09712038_KAPPE
  6
Continuous
 62
     7
100
AcDbLine
 10
47.8611516362
 20
825.441282056
 30
0.0
 11
47.8234453295
 21
825.6422166992
 31
0.0
  0
LINE
  5
2D7
330
8F
100
AcDbEntity
  8
09712038_KAPPE
  6
Continuous
 62
     7
100
AcDbLine
 10
47.8234453295
 20
825.6422166992
 30
0.0
 11
47.7990278833
 21
825.8431476822
 31
0.0
  0
LINE
  5
2D8
330
8F
100
AcDbEntity
  8
09712038_KAPPE
  6
Continuous
 62
     7
100
AcDbLine
 10
47.7990278833
 20
825.8431476822
 30
0.0
 11
47.790294931
 21
826.0440747033
 31
0.0
  0
LINE
  5
2D9
330
8F
100
AcDbEntity
  8
09712038_KAPPE
  6
Continuous
 62
     7
100
AcDbLine
 10
47.790294931
 20
826.0440747033
 30
0.0
 11
47.793352909
 21
826.1635523847
 31
0.0
  0
LINE
  5
2DA
330
8F
100
AcDbEntity
  8
09712038_KAPPE
  6
Continuous
 62
     7
100
AcDbLine
 10
47.793352909
 20
826.1635523847
 30
0.0
 11
47.8023013406
 21
826.283028843
 31
0.0
  0
LINE
  5
2DB
330
8F
100
AcDbEntity
  8
09712038_KAPPE
  6
Continuous
 62
     7
100
AcDbLine
 10
47.8023013406
 20
826.283028843
 30
0.0
 11
47.8166375646
 21
826.4025043626
 31
0.0
  0
LINE
  5
2DC
330
8F
100
AcDbEntity
  8
09712038_KAPPE
  6
Continuous
 62
     7
100
AcDbLine
 10
47.8166375646
 20
826.4025043626
 30
0.0
 11
47.83585892
 21
826.5219792282
 31
0.0
  0
LINE
  5
2DD
330
8F
100
AcDbEntity
  8
09712038_KAPPE
  6
Continuous
 62
     7
100
AcDbLine
 10
47.83585892
 20
826.5219792282
 30
0.0
 11
47.8594627456
 21
826.6414537243
 31
0.0
  0
LINE
  5
2DE
330
8F
100
AcDbEntity
  8
09712038_KAPPE
  6
Continuous
 62
     7
100
AcDbLine
 10
47.8594627456
 20
826.6414537243
 30
0.0
 11
47.8869463801
 21
826.7609281355
 31
0.0
  0
LINE
  5
2DF
330
8F
100
AcDbEntity
  8
09712038_KAPPE
  6
Continuous
 62
     7
100
AcDbLine
 10
47.8869463801
 20
826.7609281355
 30
0.0
 11
47.9343469025
 21
826.9401402154
 31
0.0
  0
LINE
  5
2E0
330
8F
100
AcDbEntity
  8
09712038_KAPPE
  6
Continuous
 62
     7
100
AcDbLine
 10
47.9343469025
 20
826.9401402154
 30
0.0
 11
47.9876495259
 21
827.1193537047
 31
0.0
  0
LINE
  5
2E1
330
8F
100
AcDbEntity
  8
09712038_KAPPE
  6
Continuous
 62
     7
100
AcDbLine
 10
47.9876495259
 20
827.1193537047
 30
0.0
 11
47.8192028815
 21
827.4593111415
 31
0.0
  0
LINE
  5
2E2
330
8F
100
AcDbEntity
  8
09712038_KAPPE
  6
Continuous
 62
     7
100
AcDbLine
 10
47.8192028815
 20
827.4593111415
 30
0.0
 11
47.7423278832
 21
827.2267670813
 31
0.0
  0
LINE
  5
2E3
330
8F
100
AcDbEntity
  8
09712038_KAPPE
  6
Continuous
 62
     7
100
AcDbLine
 10
47.7423278832
 20
827.2267670813
 30
0.0
 11
47.6711398105
 21
826.9942277986
 31
0.0
  0
LINE
  5
2E4
330
8F
100
AcDbEntity
  8
09712038_KAPPE
  6
Continuous
 62
     7
100
AcDbLine
 10
47.6711398105
 20
826.9942277986
 30
0.0
 11
47.6286704707
 21
826.8392032284
 31
0.0
  0
LINE
  5
2E5
330
8F
100
AcDbEntity
  8
09712038_KAPPE
  6
Continuous
 62
     7
100
AcDbLine
 10
47.6286704707
 20
826.8392032284
 30
0.0
 11
47.5914736119
 21
826.6841792275
 31
0.0
  0
LINE
  5
2E6
330
8F
100
AcDbEntity
  8
09712038_KAPPE
  6
Continuous
 62
     7
100
AcDbLine
 10
47.5914736119
 20
826.6841792275
 30
0.0
 11
47.5606472174
 21
826.5291551746
 31
0.0
  0
LINE
  5
2E7
330
8F
100
AcDbEntity
  8
09712038_KAPPE
  6
Continuous
 62
     7
100
AcDbLine
 10
47.5606472174
 20
826.5291551746
 30
0.0
 11
47.5372892705
 21
826.3741304479
 31
0.0
  0
LINE
  5
2E8
330
8F
100
AcDbEntity
  8
09712038_KAPPE
  6
Continuous
 62
     7
100
AcDbLine
 10
47.5372892705
 20
826.3741304479
 30
0.0
 11
47.5224977548
 21
826.2191044259
 31
0.0
  0
LINE
  5
2E9
330
8F
100
AcDbEntity
  8
09712038_KAPPE
  6
Continuous
 62
     7
100
AcDbLine
 10
47.5224977548
 20
826.2191044259
 30
0.0
 11
47.5173706535
 21
826.0640764871
 31
0.0
  0
LINE
  5
2EA
330
8F
100
AcDbEntity
  8
09712038_KAPPE
  6
Continuous
 62
     7
100
AcDbLine
 10
47.5173706535
 20
826.0640764871
 30
0.0
 11
47.5262155173
 21
825.8618164817
 31
0.0
  0
LINE
  5
2EB
330
8F
100
AcDbEntity
  8
09712038_KAPPE
  6
Continuous
 62
     7
100
AcDbLine
 10
47.5262155173
 20
825.8618164817
 30
0.0
 11
47.5509356933
 21
825.6595524638
 31
0.0
  0
LINE
  5
2EC
330
8F
100
AcDbEntity
  8
09712038_KAPPE
  6
Continuous
 62
     7
100
AcDbLine
 10
47.5509356933
 20
825.6595524638
 30
0.0
 11
47.5890878405
 21
825.457284741
 31
0.0
  0
LINE
  5
2ED
330
8F
100
AcDbEntity
  8
09712038_KAPPE
  6
Continuous
 62
     7
100
AcDbLine
 10
47.5890878405
 20
825.457284741
 30
0.0
 11
47.6382286179
 21
825.2550136216
 31
0.0
  0
ARC
  5
2EE
330
8F
100
AcDbEntity
  8
09712038_KAPPE
  6
Continuous
 62
     7
100
AcDbCircle
 10
668.715414716
 20
822.1291331548
 30
0.0
 40
629.5035745514812
100
AcDbArc
 50
181.1470117216
 51
181.5662318292
  0
ARC
  5
2EF
330
8F
100
AcDbEntity
  8
09712038_KAPPE
  6
Continuous
 62
     7
100
AcDbCircle
 10
-607.5694989685
 20
822.1251882786
 30
0.0
 40
629.3242898826051
100
AcDbArc
 50
358.4338991941
 51
358.853035415
  0
ARC
  5
2F0
330
8F
100
AcDbEntity
  8
09712038_KAPPE
  6
Continuous
 62
     7
100
AcDbCircle
 10
19.4937569722
 20
805.4927664305
 30
0.0
 40
0.9948050970069976
100
AcDbArc
 50
245.7346134618
 51
248.7288455106
  0
ARC
  5
2F1
330
8F
100
AcDbEntity
  8
09712038_KAPPE
  6
Continuous
 62
     7
100
AcDbCircle
 10
41.4748652951
 20
805.4986336649
 30
0.0
 40
0.9989303833578606
100
AcDbArc
 50
289.8127024223
 51
294.4949146416
  0
LINE
  5
2F2
330
8F
100
AcDbEntity
  8
09712038_KAPPE
  6
Continuous
 62
     7
100
AcDbLine
 10
39.3307120532
 20
836.9030589446
 30
0.0
 11
39.3307120532
 21
809.7235460061
 31
0.0
  0
LINE
  5
2F3
330
8F
100
AcDbEntity
  8
09712038_KAPPE
  6
Continuous
 62
     7
100
AcDbLine
 10
21.6359620339
 20
809.7237170587
 30
0.0
 11
21.6359620339
 21
836.9030589446
 31
0.0
  0
LINE
  5
2F4
330
8F
100
AcDbEntity
  8
09712038_KAPPE
  6
Continuous
 62
     7
100
AcDbLine
 10
40.0010057399
 20
838.4017987952
 30
0.0
 11
39.9165175293
 21
838.3173105846
 31
0.0
  0
SPLINE
  5
2F5
330
8F
100
AcDbEntity
  8
09712038_KAPPE
  6
Continuous
 62
     7
100
AcDbSpline
210
0.0
220
0.0
230
1.0
 70
     8
 71
     3
 72
    14
 73
    10
 74
     0
 42
0.0000000083527446
 43
0.0000000001
 40
0.5549036875267751
 40
0.5549036875267751
 40
0.5549036875267751
 40
0.5549036875267751
 40
0.5581274494904148
 40
0.6111848762842025
 40
0.676510570515296
 40
0.7537350110457041
 40
0.8406318526620019
 40
0.9342125235756223
 40
1.0
 40
1.0
 40
1.0
 40
1.0
 10
43.89129079813868
 20
839.0365488946045
 30
0.0
 10
43.89128984223046
 20
839.0365486577587
 30
0.0
 10
43.89098571171467
 20
839.0365219544136
 30
0.0
 10
43.87990776319513
 20
839.0356879184413
 30
0.0
 10
43.83751324907628
 20
839.0332277035433
 30
0.0
 10
43.76110473984568
 20
839.0296695071179
 30
0.0
 10
43.64682463126904
 20
839.0253497919995
 30
0.0
 10
43.50914289990467
 20
839.0209489819852
 30
0.0
 10
43.40837156986969
 20
839.0183365400537
 30
0.0
 10
43.35880536404142
 20
839.0170603554928
 30
0.0
  0
SPLINE
  5
2F6
330
8F
100
AcDbEntity
  8
09712038_KAPPE
  6
Continuous
 62
     7
100
AcDbSpline
210
0.0
220
0.0
230
1.0
 70
     8
 71
     3
 72
    14
 73
    10
 74
     0
 42
0.000000007286167
 43
0.0000000001
 40
0.0
 40
0.0
 40
0.0
 40
0.0
 40
0.0445244879268731
 40
0.1405349250711221
 40
0.2348744710281548
 40
0.3162634189063818
 40
0.3893740476853784
 40
0.4504880331044543
 40
0.4738664829005867
 40
0.4738664829005867
 40
0.4738664829005867
 40
0.4738664829005867
 10
17.72529631983272
 20
839.0141764614694
 30
0.0
 10
17.68589601319898
 20
839.0150841950622
 30
0.0
 10
17.58067281252559
 20
839.0175203850519
 30
0.0
 10
17.42286400552508
 20
839.0220047369834
 30
0.0
 10
17.27443623096023
 20
839.0269374093806
 30
0.0
 10
17.16906150357886
 20
839.0312653560923
 30
0.0
 10
17.1046484288767
 20
839.0345612133681
 30
0.0
 10
17.07894341965956
 20
839.0362597387328
 30
0.0
 10
17.07535852756843
 20
839.0365537756524
 30
0.0
 10
17.07535976976594
 20
839.0365534733857
 30
0.0
  0
LINE
  5
2F7
330
8F
100
AcDbEntity
  8
09712038_KAPPE
  6
Continuous
 62
     7
100
AcDbLine
 10
21.0501565578
 20
838.3173105846
 30
0.0
 11
20.9656683472
 21
838.4017987952
 31
0.0
  0
ARC
  5
2F9
330
8F
100
AcDbEntity
  8
$DDT_AUDIT_GENERATED_(2F8)
  6
Continuous
 62
     7
100
AcDbCircle
 10
50.7282357901
 20
846.5323131708
 30
0.0
 40
8.999999999998678
100
AcDbArc
 50
264.1512691924
 51
285.3855060449
  0
ARC
  5
2FA
330
8F
100
AcDbEntity
  8
$DDT_AUDIT_GENERATED_(2F8)
  6
Continuous
 62
     7
100
AcDbCircle
 10
50.7282357901
 20
846.5323131708
 30
0.0
 40
9.000000000000034
100
AcDbArc
 50
229.2271933842
 51
264.1512691924
  0
ARC
  5
2FB
330
8F
100
AcDbEntity
  8
$DDT_AUDIT_GENERATED_(2F8)
  6
Continuous
 62
     7
100
AcDbCircle
 10
60.9369953345
 20
828.8502229577
 30
0.0
 40
9.000000000000663
100
AcDbArc
 50
134.6144939551
 51
155.8487308076
  0
ARC
  5
2FC
330
8F
100
AcDbEntity
  8
$DDT_AUDIT_GENERATED_(2F8)
  6
Continuous
 62
     7
100
AcDbCircle
 10
60.9369953345
 20
828.8502229577
 30
0.0
 40
8.999999999999968
100
AcDbArc
 50
155.8487308076
 51
190.7728066158
  0
ARC
  5
2FD
330
8F
100
AcDbEntity
  8
$DDT_AUDIT_GENERATED_(2F8)
  6
Continuous
 62
     7
100
AcDbCircle
 10
0.0296787525
 20
828.8502229577
 30
0.0
 40
8.999999999999824
100
AcDbArc
 50
24.1512691924
 51
45.3855060449
  0
ARC
  5
2FE
330
8F
100
AcDbEntity
  8
$DDT_AUDIT_GENERATED_(2F8)
  6
Continuous
 62
     7
100
AcDbCircle
 10
0.0296787525
 20
828.8502229577
 30
0.0
 40
9.000000000000009
100
AcDbArc
 50
349.2271933842
 51
24.1512691924
  0
ARC
  5
2FF
330
8F
100
AcDbEntity
  8
$DDT_AUDIT_GENERATED_(2F8)
  6
Continuous
 62
     7
100
AcDbCircle
 10
10.2384382969
 20
846.5323131708
 30
0.0
 40
8.999999999998643
100
AcDbArc
 50
254.6144939551
 51
275.8487308076
  0
ARC
  5
300
330
8F
100
AcDbEntity
  8
$DDT_AUDIT_GENERATED_(2F8)
  6
Continuous
 62
     7
100
AcDbCircle
 10
10.2384382969
 20
846.5323131708
 30
0.0
 40
9.000000000000048
100
AcDbArc
 50
275.8487308076
 51
310.7728066158
  0
LINE
  5
301
330
8F
100
AcDbEntity
  8
$DDT_AUDIT_GENERATED_(2F8)
  6
Continuous
 62
     7
100
AcDbLine
 10
54.6159983009
 20
835.2568598681
 30
0.0
 11
53.1160475905
 21
837.8548507073
 31
0.0
  0
LINE
  5
302
330
8F
100
AcDbEntity
  8
$DDT_AUDIT_GENERATED_(2F8)
  6
Continuous
 62
     7
100
AcDbLine
 10
7.8506264966
 20
837.8548507073
 30
0.0
 11
6.3506757862
 21
835.2568598681
 31
0.0
  0
ENDBLK
  5
304
330
8F
100
AcDbEntity
  8
0
100
AcDbBlockEnd
  0
BLOCK
  5
443
330
305
100
AcDbEntity
  8
0
100
AcDbBlockBegin
  2
SE1
 70
     0
 10
0.0
 20
0.0
 30
0.0
  3
SE1
  1

  0
LINE
  5
307
330
305
100
AcDbEntity
  8
4240246_KONSOLE_
  6
Continuous
 62
     7
100
AcDbLine
 10
179.8220219475
 20
291.1469529875
 30
0.0
 11
179.8220219475
 21
335.0558552877
 31
0.0
  0
LINE
  5
308
330
305
100
AcDbEntity
  8
4240246_KONSOLE_
  6
Continuous
 62
     7
100
AcDbLine
 10
117.8220219475
 20
290.5058552877
 30
0.0
 11
117.8220219475
 21
335.6058552877
 31
0.0
  0
ARC
  5
309
330
305
100
AcDbEntity
  8
4240246_KONSOLE_
  6
Continuous
 62
     7
100
AcDbCircle
 10
162.7217510226
 20
352.1035354063
 30
0.0
 40
22.10288920420097
100
AcDbArc
 50
229.3476217424
 51
309.6388037701
  0
LINE
  5
30A
330
305
100
AcDbEntity
  8
4240246_KONSOLE_
  6
Continuous
 62
     7
100
AcDbLine
 10
178.8220219475
 20
291.138045149
 30
0.0
 11
178.8220219475
 21
291.0469843199
 31
0.0
  0
LINE
  5
30B
330
305
100
AcDbEntity
  8
4240246_KONSOLE_
  6
Continuous
 62
     7
100
AcDbLine
 10
179.8220219475
 20
291.1469529875
 30
0.0
 11
178.8220219475
 21
291.138045149
 31
0.0
  0
LINE
  5
30C
330
305
100
AcDbEntity
  8
4240246_KONSOLE_
  6
Continuous
 62
     7
100
AcDbLine
 10
117.3220219475
 20
317.5311625468
 30
0.0
 11
117.3220219475
 21
318.6941985772
 31
0.0
  0
LINE
  5
30D
330
305
100
AcDbEntity
  8
4240246_KONSOLE_
  6
Continuous
 62
     7
100
AcDbLine
 10
117.3220219475
 20
316.1623057387
 30
0.0
 11
117.3220219475
 21
317.5311625468
 31
0.0
  0
LINE
  5
30E
330
305
100
AcDbEntity
  8
4240246_KONSOLE_
  6
Continuous
 62
     7
100
AcDbLine
 10
117.3220219475
 20
308.5805480286
 30
0.0
 11
117.3220219475
 21
309.9494048367
 31
0.0
  0
LINE
  5
30F
330
305
100
AcDbEntity
  8
4240246_KONSOLE_
  6
Continuous
 62
     7
100
AcDbLine
 10
117.3220219475
 20
332.0436056831
 30
0.0
 11
117.3220219475
 21
332.0558552877
 31
0.0
  0
LINE
  5
310
330
305
100
AcDbEntity
  8
4240246_KONSOLE_
  6
Continuous
 62
     7
100
AcDbLine
 10
117.3220219475
 20
323.7229507479
 30
0.0
 11
117.3220219475
 21
332.0436056831
 31
0.0
  0
ARC
  5
311
330
305
100
AcDbEntity
  8
4240246_KONSOLE_
  6
Continuous
 62
     7
100
AcDbCircle
 10
117.5220942679
 20
323.7228764944
 30
0.0
 40
0.2000723341570119
100
AcDbArc
 50
179.9787356255
 51
269.9792892279
  0
LINE
  5
312
330
305
100
AcDbEntity
  8
4240246_KONSOLE_
  6
Continuous
 62
     7
100
AcDbLine
 10
117.3220219475
 20
307.4175119981
 30
0.0
 11
117.3220219475
 21
308.5805480286
 31
0.0
  0
LINE
  5
313
330
305
100
AcDbEntity
  8
4240246_KONSOLE_
  6
Continuous
 62
     7
100
AcDbLine
 10
117.3220219475
 20
294.0681048923
 30
0.0
 11
117.3220219475
 21
294.0558552877
 31
0.0
  0
LINE
  5
314
330
305
100
AcDbEntity
  8
4240246_KONSOLE_
  6
Continuous
 62
     7
100
AcDbLine
 10
117.3220219475
 20
294.0681048923
 30
0.0
 11
117.3220219475
 21
302.3887598275
 31
0.0
  0
ARC
  5
315
330
305
100
AcDbEntity
  8
4240246_KONSOLE_
  6
Continuous
 62
     7
100
AcDbCircle
 10
117.5220943418
 20
302.3888340072
 30
0.0
 40
0.2000724079819257
100
AcDbArc
 50
90.020731914
 51
180.0212432327
  0
LINE
  5
316
330
305
100
AcDbEntity
  8
4240246_KONSOLE_
  6
Continuous
 62
     7
100
AcDbLine
 10
117.8220219475
 20
290.5058552877
 30
0.0
 11
178.8220219475
 21
291.0469843199
 31
0.0
  0
LINE
  5
317
330
305
100
AcDbEntity
  8
4240246_KONSOLE_
  6
Continuous
 62
     7
100
AcDbLine
 10
148.3351226982
 20
335.3351745552
 30
0.0
 11
117.8220219475
 21
335.6058552877
 31
0.0
  0
LINE
  5
318
330
305
100
AcDbEntity
  8
4240246_KONSOLE_
  6
Continuous
 62
     7
100
AcDbLine
 10
179.8220219475
 20
335.0558552877
 30
0.0
 11
176.8109310927
 21
335.0825665775
 31
0.0
  0
LINE
  5
319
330
305
100
AcDbEntity
  8
4240246_KONSOLE_
  6
Continuous
 62
     7
100
AcDbLine
 10
117.5220219475
 20
293.8558552877
 30
0.0
 11
117.8220219475
 21
293.8558552877
 31
0.0
  0
LINE
  5
31A
330
305
100
AcDbEntity
  8
4240246_KONSOLE_
  6
Continuous
 62
     7
100
AcDbLine
 10
117.8220219475
 20
332.2558552877
 30
0.0
 11
117.5220219475
 21
332.2558552877
 31
0.0
  0
ARC
  5
31B
330
305
100
AcDbEntity
  8
4240246_KONSOLE_
  6
Continuous
 62
     7
100
AcDbCircle
 10
117.5220219475
 20
294.0558552877
 30
0.0
 40
0.1999999999999999
100
AcDbArc
 50
180.0
 51
270.0
  0
ARC
  5
31C
330
305
100
AcDbEntity
  8
4240246_KONSOLE_
  6
Continuous
 62
     7
100
AcDbCircle
 10
117.5220219475
 20
332.0558552877
 30
0.0
 40
0.1999999999999988
100
AcDbArc
 50
90.0
 51
180.0
  0
SPLINE
  5
31D
330
305
100
AcDbEntity
  8
4240246_KONSOLE_
  6
Continuous
 62
     7
100
AcDbSpline
210
0.0
220
0.0
230
1.0
 70
     8
 71
     3
 72
    15
 73
    11
 74
     0
 42
0.000000038463039
 43
0.0000000001
 40
0.0
 40
0.0
 40
0.0
 40
0.0
 40
0.0590484338260327
 40
0.1835769218153475
 40
0.2883257497480025
 40
0.3848187263651237
 40
0.4818529391249225
 40
0.6000218181307321
 40
0.8372172771816944
 40
1.0
 40
1.0
 40
1.0
 40
1.0
 10
117.3237602446975
 20
316.1600438074549
 30
0.0
 10
117.3234108550813
 20
316.1540502774513
 30
0.0
 10
117.3226563693522
 20
316.1380278231813
 30
0.0
 10
117.3335986018479
 20
316.1119661104566
 30
0.0
 10
117.351515056614
 20
316.0883550775756
 30
0.0
 10
117.3726088680588
 20
316.0720594240378
 30
0.0
 10
117.3958260390598
 20
316.0610886167242
 30
0.0
 10
117.4272587100588
 20
316.0522754541859
 30
0.0
 10
117.4697547732656
 20
316.0467986023802
 30
0.0
 10
117.5052606045772
 20
316.0461041332366
 30
0.0
 10
117.521961982453
 20
316.0459269339225
 30
0.0
  0
LINE
  5
31E
330
305
100
AcDbEntity
  8
4240246_KONSOLE_
  6
Continuous
 62
     7
100
AcDbLine
 10
117.5220219475
 20
316.0457510779
 30
0.0
 11
117.8220219475
 21
316.0457510779
 31
0.0
  0
SPLINE
  5
31F
330
305
100
AcDbEntity
  8
4240246_KONSOLE_
  6
Continuous
 62
     7
100
AcDbSpline
210
0.0
220
0.0
230
1.0
 70
     8
 71
     3
 72
    15
 73
    11
 74
     0
 42
0.0000000380732542
 43
0.0000000001
 40
0.0
 40
0.0
 40
0.0
 40
0.0
 40
0.0180532776886621
 40
0.1996431086580782
 40
0.3957241994805287
 40
0.5580813041997162
 40
0.6682729850079799
 40
0.7854542481221294
 40
0.9152316451459281
 40
1.0
 40
1.0
 40
1.0
 40
1.0
 10
117.522073052233
 20
318.8106238820229
 30
0.0
 10
117.5202180979461
 20
318.8106750575844
 30
0.0
 10
117.5025294282621
 20
318.8111535114942
 30
0.0
 10
117.4636733583234
 20
318.8088050390833
 30
0.0
 10
117.4218729340286
 20
318.8031430788089
 30
0.0
 10
117.3885852087997
 20
318.7933489821725
 30
0.0
 10
117.3592194518601
 20
318.7755857513263
 30
0.0
 10
117.3372234561725
 20
318.751288517432
 30
0.0
 10
117.3233428669549
 20
318.7218064668279
 30
0.0
 10
117.3234538926141
 20
318.7028938312809
 30
0.0
 10
117.3236492063685
 20
318.6941971529701
 30
0.0
  0
LINE
  5
320
330
305
100
AcDbEntity
  8
4240246_KONSOLE_
  6
Continuous
 62
     7
100
AcDbLine
 10
117.8220219475
 20
318.8107660063
 30
0.0
 11
117.5220219475
 21
318.8107660063
 31
0.0
  0
SPLINE
  5
321
330
305
100
AcDbEntity
  8
4240246_KONSOLE_
  6
Continuous
 62
     7
100
AcDbSpline
210
0.0
220
0.0
230
1.0
 70
     8
 71
     3
 72
    14
 73
    10
 74
     0
 42
0.000000044484641
 43
0.0000000001
 40
0.0
 40
0.0
 40
0.0
 40
0.0
 40
0.073273955256587
 40
0.3005328927524705
 40
0.4889124794452532
 40
0.6164234704698499
 40
0.7521915477621237
 40
0.9025342139669876
 40
1.0
 40
1.0
 40
1.0
 40
1.0
 10
117.4843360167811
 20
310.0644715933424
 30
0.0
 10
117.4778835462572
 20
310.0642499238134
 30
0.0
 10
117.4550532397635
 20
310.0633813962649
 30
0.0
 10
117.4216385622939
 20
310.0581374509908
 30
0.0
 10
117.3885253126007
 20
310.0485499243011
 30
0.0
 10
117.3591119445778
 20
310.0306994064514
 30
0.0
 10
117.3371569288881
 20
310.0063875280462
 30
0.0
 10
117.323322920328
 20
309.9769354619208
 30
0.0
 10
117.3234548138753
 20
309.9580773096695
 30
0.0
 10
117.3236572159756
 20
309.9494451856757
 30
0.0
  0
ARC
  5
322
330
305
100
AcDbEntity
  8
4240246_KONSOLE_
  6
Continuous
 62
     7
100
AcDbCircle
 10
117.518212857
 20
309.6444838405
 30
0.0
 40
0.4213518159460657
100
AcDbArc
 50
89.4807739937
 51
94.6115791519
  0
LINE
  5
323
330
305
100
AcDbEntity
  8
4240246_KONSOLE_
  6
Continuous
 62
     7
100
AcDbLine
 10
117.8220219475
 20
310.0659594975
 30
0.0
 11
117.5220219475
 21
310.0659594975
 31
0.0
  0
SPLINE
  5
324
330
305
100
AcDbEntity
  8
4240246_KONSOLE_
  6
Continuous
 62
     7
100
AcDbSpline
210
0.0
220
0.0
230
1.0
 70
     8
 71
     3
 72
     9
 73
     5
 74
     0
 42
0.0000000359293709
 43
0.0000000001
 40
0.0
 40
0.0
 40
0.0
 40
0.0
 40
0.0816493678071101
 40
0.1411551150221262
 40
0.1411551150221262
 40
0.1411551150221262
 40
0.1411551150221262
 10
117.522021803836
 20
310.0655893152533
 30
0.0
 10
117.5135627156956
 20
310.0656760987663
 30
0.0
 10
117.5009839947728
 20
310.0657746061618
 30
0.0
 10
117.4881397280868
 20
310.065232361262
 30
0.0
 10
117.4827566903386
 20
310.064913312733
 30
0.0
  0
LINE
  5
325
330
305
100
AcDbEntity
  8
4240246_KONSOLE_
  6
Continuous
 62
     7
100
AcDbLine
 10
117.5220219475
 20
323.5224894008
 30
0.0
 11
117.8220219475
 21
323.5224894008
 31
0.0
  0
LINE
  5
326
330
305
100
AcDbEntity
  8
4240246_KONSOLE_
  6
Continuous
 62
     7
100
AcDbLine
 10
117.5220219475
 20
307.3009445691
 30
0.0
 11
117.8220219475
 21
307.3009445691
 31
0.0
  0
SPLINE
  5
327
330
305
100
AcDbEntity
  8
4240246_KONSOLE_
  6
Continuous
 62
     7
100
AcDbSpline
210
0.0
220
0.0
230
1.0
 70
     8
 71
     3
 72
    15
 73
    11
 74
     0
 42
0.0000000384612245
 43
0.0000000001
 40
0.0
 40
0.0
 40
0.0
 40
0.0
 40
0.0594275966940319
 40
0.1838922422733831
 40
0.2886224075651839
 40
0.3851284447771258
 40
0.4822330150981255
 40
0.600672091113288
 40
0.8372012923470602
 40
1.0
 40
1.0
 40
1.0
 40
1.0
 10
117.3237627403102
 20
307.4152602157291
 30
0.0
 10
117.3234152442908
 20
307.4092272308833
 30
0.0
 10
117.3226717302808
 20
307.3931750634674
 30
0.0
 10
117.3336398643123
 20
307.3670952081965
 30
0.0
 10
117.3515726143314
 20
307.3435019360601
 30
0.0
 10
117.3726786602669
 20
307.3272193397403
 30
0.0
 10
117.3959174194565
 20
307.31625478275
 30
0.0
 10
117.4273243773369
 20
307.307465511532
 30
0.0
 10
117.4698054706247
 20
307.3019913378658
 30
0.0
 10
117.5052564304033
 20
307.3012975854245
 30
0.0
 10
117.5219618576724
 20
307.3011196119218
 30
0.0
  0
LINE
  5
328
330
305
100
AcDbEntity
  8
4240246_KONSOLE_
  6
Continuous
 62
     7
100
AcDbLine
 10
117.8220219475
 20
302.5892211746
 30
0.0
 11
117.5220219475
 21
302.5892211746
 31
0.0
  0
LINE
  5
329
330
305
100
AcDbEntity
  8
4240246_KONSOLE_
  6
Continuous
 62
     7
100
AcDbLine
 10
179.8220219475
 20
1354.9647575879
 30
0.0
 11
179.8220219475
 21
1311.0558552877
 31
0.0
  0
LINE
  5
32A
330
305
100
AcDbEntity
  8
4240246_KONSOLE_
  6
Continuous
 62
     7
100
AcDbLine
 10
117.8220219475
 20
1310.5058552877
 30
0.0
 11
117.8220219475
 21
1355.6058552877
 31
0.0
  0
ARC
  5
32B
330
305
100
AcDbEntity
  8
4240246_KONSOLE_
  6
Continuous
 62
     7
100
AcDbCircle
 10
162.7217510226
 20
1294.0081751691
 30
0.0
 40
22.1028892042009
100
AcDbArc
 50
50.3611962299
 51
130.6523782576
  0
LINE
  5
32C
330
305
100
AcDbEntity
  8
4240246_KONSOLE_
  6
Continuous
 62
     7
100
AcDbLine
 10
178.8220219475
 20
1354.9736654264
 30
0.0
 11
179.8220219475
 21
1354.9647575879
 31
0.0
  0
LINE
  5
32D
330
305
100
AcDbEntity
  8
4240246_KONSOLE_
  6
Continuous
 62
     7
100
AcDbLine
 10
178.8220219475
 20
1354.9736654264
 30
0.0
 11
178.8220219475
 21
1355.0647262554
 31
0.0
  0
LINE
  5
32E
330
305
100
AcDbEntity
  8
4240246_KONSOLE_
  6
Continuous
 62
     7
100
AcDbLine
 10
117.3220219475
 20
1328.5805480286
 30
0.0
 11
117.3220219475
 21
1329.9494048367
 31
0.0
  0
LINE
  5
32F
330
305
100
AcDbEntity
  8
4240246_KONSOLE_
  6
Continuous
 62
     7
100
AcDbLine
 10
117.3220219475
 20
1337.5311625468
 30
0.0
 11
117.3220219475
 21
1338.6941985772
 31
0.0
  0
LINE
  5
330
330
305
100
AcDbEntity
  8
4240246_KONSOLE_
  6
Continuous
 62
     7
100
AcDbLine
 10
117.3220219475
 20
1336.1623057387
 30
0.0
 11
117.3220219475
 21
1337.5311625468
 31
0.0
  0
LINE
  5
331
330
305
100
AcDbEntity
  8
4240246_KONSOLE_
  6
Continuous
 62
     7
100
AcDbLine
 10
117.5220219475
 20
1336.0471074312
 30
0.0
 11
117.5220219475
 21
1336.0457510779
 31
0.0
  0
LINE
  5
332
330
305
100
AcDbEntity
  8
4240246_KONSOLE_
  6
Continuous
 62
     7
100
AcDbLine
 10
117.3220219475
 20
1327.4175119981
 30
0.0
 11
117.3220219475
 21
1328.5805480286
 31
0.0
  0
LINE
  5
333
330
305
100
AcDbEntity
  8
4240246_KONSOLE_
  6
Continuous
 62
     7
100
AcDbLine
 10
117.3220219475
 20
1314.0681048923
 30
0.0
 11
117.3220219475
 21
1314.0558552877
 31
0.0
  0
LINE
  5
334
330
305
100
AcDbEntity
  8
4240246_KONSOLE_
  6
Continuous
 62
     7
100
AcDbLine
 10
117.3220219475
 20
1314.0681048923
 30
0.0
 11
117.3220219475
 21
1322.3887598275
 31
0.0
  0
ARC
  5
335
330
305
100
AcDbEntity
  8
4240246_KONSOLE_
  6
Continuous
 62
     7
100
AcDbCircle
 10
117.5220943418
 20
1322.3888340072
 30
0.0
 40
0.2000724079817818
100
AcDbArc
 50
90.0207319139
 51
180.0212432326
  0
LINE
  5
336
330
305
100
AcDbEntity
  8
4240246_KONSOLE_
  6
Continuous
 62
     7
100
AcDbLine
 10
117.3220219475
 20
1352.0436056831
 30
0.0
 11
117.3220219475
 21
1352.0558552877
 31
0.0
  0
LINE
  5
337
330
305
100
AcDbEntity
  8
4240246_KONSOLE_
  6
Continuous
 62
     7
100
AcDbLine
 10
117.3220219475
 20
1343.7229507479
 30
0.0
 11
117.3220219475
 21
1352.0436056831
 31
0.0
  0
ARC
  5
338
330
305
100
AcDbEntity
  8
4240246_KONSOLE_
  6
Continuous
 62
     7
100
AcDbCircle
 10
117.5220942679
 20
1343.7228764944
 30
0.0
 40
0.200072334156919
100
AcDbArc
 50
179.9787356254
 51
269.9792892279
  0
LINE
  5
339
330
305
100
AcDbEntity
  8
4240246_KONSOLE_
  6
Continuous
 62
     7
100
AcDbLine
 10
176.8109310927
 20
1311.0291439978
 30
0.0
 11
179.8220219475
 21
1311.0558552877
 31
0.0
  0
LINE
  5
33A
330
305
100
AcDbEntity
  8
4240246_KONSOLE_
  6
Continuous
 62
     7
100
AcDbLine
 10
117.8220219475
 20
1310.5058552877
 30
0.0
 11
148.3351226982
 21
1310.7765360202
 31
0.0
  0
LINE
  5
33B
330
305
100
AcDbEntity
  8
4240246_KONSOLE_
  6
Continuous
 62
     7
100
AcDbLine
 10
178.8220219475
 20
1355.0647262554
 30
0.0
 11
117.8220219475
 21
1355.6058552877
 31
0.0
  0
LINE
  5
33C
330
305
100
AcDbEntity
  8
4240246_KONSOLE_
  6
Continuous
 62
     7
100
AcDbLine
 10
117.8220219475
 20
1352.2558552877
 30
0.0
 11
117.5220219475
 21
1352.2558552877
 31
0.0
  0
LINE
  5
33D
330
305
100
AcDbEntity
  8
4240246_KONSOLE_
  6
Continuous
 62
     7
100
AcDbLine
 10
117.5220219475
 20
1313.8558552877
 30
0.0
 11
117.8220219475
 21
1313.8558552877
 31
0.0
  0
ARC
  5
33E
330
305
100
AcDbEntity
  8
4240246_KONSOLE_
  6
Continuous
 62
     7
100
AcDbCircle
 10
117.5220219475
 20
1352.0558552877
 30
0.0
 40
0.2000000000002
100
AcDbArc
 50
90.0
 51
180.0
  0
ARC
  5
33F
330
305
100
AcDbEntity
  8
4240246_KONSOLE_
  6
Continuous
 62
     7
100
AcDbCircle
 10
117.5220219475
 20
1314.0558552877
 30
0.0
 40
0.1999999999999999
100
AcDbArc
 50
180.0
 51
270.0
  0
LINE
  5
340
330
305
100
AcDbEntity
  8
4240246_KONSOLE_
  6
Continuous
 62
     7
100
AcDbLine
 10
117.5220219475
 20
1336.0457510779
 30
0.0
 11
117.8220219475
 21
1336.0457510779
 31
0.0
  0
SPLINE
  5
341
330
305
100
AcDbEntity
  8
4240246_KONSOLE_
  6
Continuous
 62
     7
100
AcDbSpline
210
0.0
220
0.0
230
1.0
 70
     8
 71
     3
 72
    16
 73
    12
 74
     0
 42
0.000000037384486
 43
0.0000000001
 40
0.0
 40
0.0
 40
0.0
 40
0.0
 40
0.0364576921471662
 40
0.1625685741295397
 40
0.2672578908447586
 40
0.3625212555564491
 40
0.4550244214496147
 40
0.5616260767893752
 40
0.7931801494666516
 40
0.9678208560339107
 40
1.0
 40
1.0
 40
1.0
 40
1.0
 10
117.3234369719805
 20
1336.159989026282
 30
0.0
 10
117.3230548030926
 20
1336.156204049473
 30
0.0
 10
117.3216852296706
 20
1336.14167262391
 30
0.0
 10
117.331381416987
 20
1336.116204102528
 30
0.0
 10
117.3486862874814
 20
1336.091172927179
 30
0.0
 10
117.369652683365
 20
1336.073910645629
 30
0.0
 10
117.392063030746
 20
1336.062559403744
 30
0.0
 10
117.4233152273071
 20
1336.052964846843
 30
0.0
 10
117.463466722665
 20
1336.047508083756
 30
0.0
 10
117.5072705941581
 20
1336.045495649049
 30
0.0
 10
117.5259501513478
 20
1336.045825448745
 30
0.0
 10
117.5293332687779
 20
1336.045889054856
 30
0.0
  0
SPLINE
  5
342
330
305
100
AcDbEntity
  8
4240246_KONSOLE_
  6
Continuous
 62
     7
100
AcDbSpline
210
0.0
220
0.0
230
1.0
 70
     8
 71
     3
 72
    14
 73
    10
 74
     0
 42
0.0000000380525986
 43
0.0000000001
 40
0.0
 40
0.0
 40
0.0
 40
0.0
 40
0.0816545225347175
 40
0.2632328736302323
 40
0.4822650435657087
 40
0.6093508550276844
 40
0.7522528411167239
 40
0.879891303717879
 40
1.0
 40
1.0
 40
1.0
 40
1.0
 10
117.5220218038359
 20
1330.065589315253
 30
0.0
 10
117.5135627156957
 20
1330.065676098766
 30
0.0
 10
117.4901067912426
 20
1330.065859788449
 30
0.0
 10
117.4454418543114
 20
1330.062114371361
 30
0.0
 10
117.40810856247
 20
1330.055483165687
 30
0.0
 10
117.3717133837824
 20
1330.040135676163
 30
0.0
 10
117.3437819071373
 20
1330.016333853786
 30
0.0
 10
117.3252213716002
 20
1329.983392922561
 30
0.0
 10
117.3234073438495
 20
1329.96165455451
 30
0.0
 10
117.3226722088877
 20
1329.949357964289
 30
0.0
  0
LINE
  5
343
330
305
100
AcDbEntity
  8
4240246_KONSOLE_
  6
Continuous
 62
     7
100
AcDbLine
 10
117.8220219475
 20
1330.0659594975
 30
0.0
 11
117.5220219475
 21
1330.0659594975
 31
0.0
  0
SPLINE
  5
344
330
305
100
AcDbEntity
  8
4240246_KONSOLE_
  6
Continuous
 62
     7
100
AcDbSpline
210
0.0
220
0.0
230
1.0
 70
     8
 71
     3
 72
    16
 73
    12
 74
     0
 42
0.0000000374265116
 43
0.0000000001
 40
0.0
 40
0.0
 40
0.0
 40
0.0
 40
0.0365466144874766
 40
0.1627958587852123
 40
0.2676041786588139
 40
0.3629910840586041
 40
0.4556692521439841
 40
0.5625127656548735
 40
0.7949601973052133
 40
0.9696020757598256
 40
1.0
 40
1.0
 40
1.0
 40
1.0
 10
117.3234382803793
 20
1327.415196432752
 30
0.0
 10
117.3230558643146
 20
1327.411406018312
 30
0.0
 10
117.3216870543835
 20
1327.396868886506
 30
0.0
 10
117.3313880700122
 20
1327.371394678253
 30
0.0
 10
117.3486990920668
 20
1327.346362983293
 30
0.0
 10
117.3696736451012
 20
1327.329099038173
 30
0.0
 10
117.3920983770588
 20
1327.317745494059
 30
0.0
 10
117.4234057531153
 20
1327.308139908661
 30
0.0
 10
117.4636273355949
 20
1327.302688014961
 30
0.0
 10
117.507327957252
 20
1327.300688718977
 30
0.0
 10
117.5258332364456
 20
1327.301015958101
 30
0.0
 10
117.5290260544684
 20
1327.301075875501
 30
0.0
  0
LINE
  5
345
330
305
100
AcDbEntity
  8
4240246_KONSOLE_
  6
Continuous
 62
     7
100
AcDbLine
 10
117.5220219475
 20
1327.3009445691
 30
0.0
 11
117.8220219475
 21
1327.3009445691
 31
0.0
  0
LINE
  5
346
330
305
100
AcDbEntity
  8
4240246_KONSOLE_
  6
Continuous
 62
     7
100
AcDbLine
 10
117.8220219475
 20
1322.5892211746
 30
0.0
 11
117.5220219475
 21
1322.5892211746
 31
0.0
  0
LINE
  5
347
330
305
100
AcDbEntity
  8
4240246_KONSOLE_
  6
Continuous
 62
     7
100
AcDbLine
 10
117.8220219475
 20
1338.8107660063
 30
0.0
 11
117.5220219475
 21
1338.8107660063
 31
0.0
  0
SPLINE
  5
348
330
305
100
AcDbEntity
  8
4240246_KONSOLE_
  6
Continuous
 62
     7
100
AcDbSpline
210
0.0
220
0.0
230
1.0
 70
     8
 71
     3
 72
    14
 73
    10
 74
     0
 42
0.0000000380491424
 43
0.0000000001
 40
0.0
 40
0.0
 40
0.0
 40
0.0
 40
0.0815044744781261
 40
0.2629588479107073
 40
0.481745862594033
 40
0.6088864064229527
 40
0.7521078968847835
 40
0.8797412922092631
 40
1.0
 40
1.0
 40
1.0
 40
1.0
 10
117.5220218298518
 20
1338.810395970515
 30
0.0
 10
117.5135768700468
 20
1338.810482857929
 30
0.0
 10
117.4901413585886
 20
1338.810667068884
 30
0.0
 10
117.4455126048054
 20
1338.806927394973
 30
0.0
 10
117.4081845654948
 20
1338.800298297075
 30
0.0
 10
117.3717937919097
 20
1338.784985043422
 30
0.0
 10
117.3438155071074
 20
1338.761180645685
 30
0.0
 10
117.3252250246518
 20
1338.728201651792
 30
0.0
 10
117.3234047011778
 20
1338.706448175873
 30
0.0
 10
117.3226660363217
 20
1338.694134684406
 30
0.0
  0
LINE
  5
349
330
305
100
AcDbEntity
  8
4240246_KONSOLE_
  6
Continuous
 62
     7
100
AcDbLine
 10
117.5220219475
 20
1343.5224894008
 30
0.0
 11
117.8220219475
 21
1343.5224894008
 31
0.0
  0
LINE
  5
34A
330
305
100
AcDbEntity
  8
03038038_ROHR_BR
  6
Continuous
 62
     7
100
AcDbLine
 10
176.5720219475
 20
334.9238266903
 30
0.0
 11
176.5720219475
 21
801.4137561745
 31
0.0
  0
LINE
  5
34B
330
305
100
AcDbEntity
  8
03038038_ROHR_BR
  6
Continuous
 62
     7
100
AcDbLine
 10
176.5720219475
 20
844.6975767003
 30
0.0
 11
176.5720219475
 21
1311.1874531248
 31
0.0
  0
LINE
  5
34C
330
305
100
AcDbEntity
  8
03038038_ROHR_BR
  6
Continuous
 62
     7
100
AcDbLine
 10
148.5720219475
 20
1310.9376386789
 30
0.0
 11
148.5720219475
 21
844.7621180163
 31
0.0
  0
LINE
  5
34D
330
305
100
AcDbEntity
  8
03038038_ROHR_BR
  6
Continuous
 62
     7
100
AcDbLine
 10
148.5720219475
 20
801.3496475716
 30
0.0
 11
148.5720219475
 21
335.1739919
 31
0.0
  0
LINE
  5
34E
330
305
100
AcDbEntity
  8
03634L31_KAPPE__
  6
Continuous
 62
     7
100
AcDbLine
 10
179.8220219475
 20
1311.0558552877
 30
0.0
 11
179.8220219475
 21
1355.0558552877
 31
0.0
  0
LINE
  5
34F
330
305
100
AcDbEntity
  8
03634L31_KAPPE__
  6
Continuous
 62
     7
100
AcDbLine
 10
185.8220219475
 20
1352.0558552877
 30
0.0
 11
185.8220219475
 21
1314.0558552877
 31
0.0
  0
LINE
  5
350
330
305
100
AcDbEntity
  8
03634L31_KAPPE__
  6
Continuous
 62
     7
100
AcDbLine
 10
179.8220219475
 20
1311.0558552877
 30
0.0
 11
182.8220219475
 21
1311.0558552877
 31
0.0
  0
LINE
  5
351
330
305
100
AcDbEntity
  8
03634L31_KAPPE__
  6
Continuous
 62
     7
100
AcDbLine
 10
182.8220219475
 20
1355.0558552877
 30
0.0
 11
179.8220219475
 21
1355.0558552877
 31
0.0
  0
ARC
  5
352
330
305
100
AcDbEntity
  8
03634L31_KAPPE__
  6
Continuous
 62
     7
100
AcDbCircle
 10
182.8220219475
 20
1352.0558552877
 30
0.0
 40
2.999999999999989
100
AcDbArc
 50
0.0
 51
90.0
  0
ARC
  5
353
330
305
100
AcDbEntity
  8
03634L31_KAPPE__
  6
Continuous
 62
     7
100
AcDbCircle
 10
182.8220219475
 20
1314.0558552877
 30
0.0
 40
3.000000000000114
100
AcDbArc
 50
270.0
 51
0.0
  0
LINE
  5
354
330
305
100
AcDbEntity
  8
03634L31_KAPPE__
  6
Continuous
 62
     7
100
AcDbLine
 10
179.8220219475
 20
291.0558552877
 30
0.0
 11
179.8220219475
 21
335.0558552877
 31
0.0
  0
LINE
  5
355
330
305
100
AcDbEntity
  8
03634L31_KAPPE__
  6
Continuous
 62
     7
100
AcDbLine
 10
185.8220219475
 20
332.0558552877
 30
0.0
 11
185.8220219475
 21
294.0558552877
 31
0.0
  0
LINE
  5
356
330
305
100
AcDbEntity
  8
03634L31_KAPPE__
  6
Continuous
 62
     7
100
AcDbLine
 10
179.8220219475
 20
291.0558552877
 30
0.0
 11
182.8220219475
 21
291.0558552877
 31
0.0
  0
LINE
  5
357
330
305
100
AcDbEntity
  8
03634L31_KAPPE__
  6
Continuous
 62
     7
100
AcDbLine
 10
182.8220219475
 20
335.0558552877
 30
0.0
 11
179.8220219475
 21
335.0558552877
 31
0.0
  0
ARC
  5
358
330
305
100
AcDbEntity
  8
03634L31_KAPPE__
  6
Continuous
 62
     7
100
AcDbCircle
 10
182.8220219475
 20
332.0558552877
 30
0.0
 40
2.999999999999989
100
AcDbArc
 50
0.0
 51
90.0
  0
ARC
  5
359
330
305
100
AcDbEntity
  8
03634L31_KAPPE__
  6
Continuous
 62
     7
100
AcDbCircle
 10
182.8220219475
 20
294.0558552877
 30
0.0
 40
2.999999999999999
100
AcDbArc
 50
270.0
 51
0.0
  0
LINE
  5
35B
330
305
100
AcDbEntity
  8
$DDT_AUDIT_GENERATED_(35A)
  6
Continuous
 62
     7
100
AcDbLine
 10
144.8220219475
 20
835.0558552877
 30
0.0
 11
144.0296091123
 21
835.0558552877
 31
0.0
  0
LINE
  5
35C
330
305
100
AcDbEntity
  8
$DDT_AUDIT_GENERATED_(35A)
  6
Continuous
 62
     7
100
AcDbLine
 10
144.5296091123
 20
826.5558552877
 30
0.0
 11
144.8220219475
 21
826.5558552877
 31
0.0
  0
LINE
  5
35D
330
305
100
AcDbEntity
  8
$DDT_AUDIT_GENERATED_(35A)
  6
Continuous
 62
     7
100
AcDbLine
 10
144.8220219475
 20
819.5558552877
 30
0.0
 11
144.5296091123
 21
819.5558552877
 31
0.0
  0
LINE
  5
35E
330
305
100
AcDbEntity
  8
$DDT_AUDIT_GENERATED_(35A)
  6
Continuous
 62
     7
100
AcDbLine
 10
144.5296091123
 20
811.0558552877
 30
0.0
 11
144.8220219475
 21
811.0558552877
 31
0.0
  0
ARC
  5
360
330
305
100
AcDbEntity
  8
03705L38_HÜLSE_R
  6
Continuous
 62
     7
100
AcDbCircle
 10
162.622021936
 20
861.852033631
 30
0.0
 40
22.18922275798448
100
AcDbArc
 50
229.1962318755
 51
310.803765778
  0
ARC
  5
361
330
305
100
AcDbEntity
  8
03705L38_HÜLSE_R
  6
Continuous
 62
     7
100
AcDbCircle
 10
162.622022722
 20
784.7293526825
 30
0.0
 40
21.83585826131321
100
AcDbArc
 50
114.1295297791
 51
131.6091241891
  0
LINE
  5
362
330
305
100
AcDbEntity
  8
03705L38_HÜLSE_R
  6
Continuous
 62
     7
100
AcDbLine
 10
185.8220219475
 20
801.5558552877
 30
0.0
 11
185.8220219475
 21
844.5558552877
 31
0.0
  0
LINE
  5
363
330
305
100
AcDbEntity
  8
03705L38_HÜLSE_R
  6
Continuous
 62
     7
100
AcDbLine
 10
144.8220219475
 20
801.5791236928
 30
0.0
 11
144.8220219475
 21
844.5558552877
 31
0.0
  0
SPLINE
  5
364
330
305
100
AcDbEntity
  8
03705L38_HÜLSE_R
  6
Continuous
 62
     7
100
AcDbSpline
210
0.0
220
0.0
230
1.0
 70
     8
 71
     3
 72
    10
 73
     6
 74
     0
 42
0.0000000124148338
 43
0.0000000001
 40
0.0
 40
0.0
 40
0.0
 40
0.0
 40
0.5
 40
0.5
 40
1.0
 40
1.0
 40
1.0
 40
1.0
 10
145.3220219475384
 20
801.0785943118254
 30
0.0
 10
145.191685722374
 20
801.0785943118515
 30
0.0
 10
145.0601073323561
 20
801.1332150508881
 30
0.0
 10
144.8758954106844
 20
801.3181084591758
 30
0.0
 10
144.8220219475417
 20
801.4487234743594
 30
0.0
 10
144.8220219475417
 20
801.5791236927716
 30
0.0
  0
LINE
  5
365
330
305
100
AcDbEntity
  8
03705L38_HÜLSE_R
  6
Continuous
 62
     7
100
AcDbLine
 10
146.3220219475
 20
801.0785943119
 30
0.0
 11
145.3220219475
 21
801.0785943118
 31
0.0
  0
LINE
  5
366
330
305
100
AcDbEntity
  8
03705L38_HÜLSE_R
  6
Continuous
 62
     7
100
AcDbLine
 10
148.1220219475
 20
845.0558552877
 30
0.0
 11
145.3220219475
 21
845.0558552877
 31
0.0
  0
LINE
  5
367
330
305
100
AcDbEntity
  8
03705L38_HÜLSE_R
  6
Continuous
 62
     7
100
AcDbLine
 10
185.3220219475
 20
845.0558552877
 30
0.0
 11
177.1189778956
 21
845.0558552877
 31
0.0
  0
LINE
  5
368
330
305
100
AcDbEntity
  8
03705L38_HÜLSE_R
  6
Continuous
 62
     7
100
AcDbLine
 10
177.1119919611
 20
801.0558552877
 30
0.0
 11
185.3220219475
 21
801.0558552877
 31
0.0
  0
LINE
  5
369
330
305
100
AcDbEntity
  8
03705L38_HÜLSE_R
  6
Continuous
 62
     7
100
AcDbLine
 10
146.3220219475
 20
801.0558552877
 30
0.0
 11
148.1265477896
 21
801.0558552877
 31
0.0
  0
ARC
  5
36A
330
305
100
AcDbEntity
  8
03705L38_HÜLSE_R
  6
Continuous
 62
     7
100
AcDbCircle
 10
185.3220219475
 20
844.5558552877
 30
0.0
 40
0.5000000000000004
100
AcDbArc
 50
0.0
 51
90.0
  0
ARC
  5
36B
330
305
100
AcDbEntity
  8
03705L38_HÜLSE_R
  6
Continuous
 62
     7
100
AcDbCircle
 10
185.3220219475
 20
801.5558552877
 30
0.0
 40
0.5000000000000004
100
AcDbArc
 50
270.0
 51
0.0
  0
ARC
  5
36C
330
305
100
AcDbEntity
  8
03705L38_HÜLSE_R
  6
Continuous
 62
     7
100
AcDbCircle
 10
145.3220219475
 20
844.5558552877
 30
0.0
 40
0.500000000000056
100
AcDbArc
 50
90.0
 51
180.0
  0
ARC
  5
36D
330
305
100
AcDbEntity
  8
03705L38_HÜLSE_R
  6
Continuous
 62
     7
100
AcDbCircle
 10
146.3220219475
 20
801.8058552877
 30
0.0
 40
0.7500000000000007
100
AcDbArc
 50
255.8552156376
 51
270.0
  0
LINE
  5
36E
330
305
100
AcDbEntity
  8
09712038_KAPPE
  6
Continuous
 62
     7
100
AcDbLine
 10
186.0720219475
 20
845.0558552877
 30
0.0
 11
186.0720219475
 21
801.0558552877
 31
0.0
  0
LINE
  5
36F
330
305
100
AcDbEntity
  8
09712038_KAPPE
  6
Continuous
 62
     7
100
AcDbLine
 10
238.5720219475
 20
836.4030399054
 30
0.0
 11
238.5720219475
 21
809.0316123833
 31
0.0
  0
LINE
  5
370
330
305
100
AcDbEntity
  8
09712038_KAPPE
  6
Continuous
 62
     7
100
AcDbLine
 10
238.5720219475
 20
808.8996318995
 30
0.0
 11
238.5720219475
 21
809.0315891423
 31
0.0
  0
ARC
  5
371
330
305
100
AcDbEntity
  8
09712038_KAPPE
  6
Continuous
 62
     7
100
AcDbCircle
 10
236.0720219475
 20
836.4030399054
 30
0.0
 40
2.500000000000031
100
AcDbArc
 50
0.0
 51
89.5
  0
LINE
  5
372
330
305
100
AcDbEntity
  8
09712038_KAPPE
  6
Continuous
 62
     7
100
AcDbLine
 10
204.2257130512
 20
839.1810536287
 30
0.0
 11
236.0938382863
 21
838.902944713
 31
0.0
  0
LINE
  5
373
330
305
100
AcDbEntity
  8
09712038_KAPPE
  6
Continuous
 62
     7
100
AcDbLine
 10
238.7720219475
 20
817.4675205233
 30
0.0
 11
238.5720219475
 21
817.4675205233
 31
0.0
  0
LINE
  5
374
330
305
100
AcDbEntity
  8
09712038_KAPPE
  6
Continuous
 62
     7
100
AcDbLine
 10
238.7720219475
 20
817.3451066963
 30
0.0
 11
238.5720219475
 21
817.3451066963
 31
0.0
  0
LINE
  5
375
330
305
100
AcDbEntity
  8
09712038_KAPPE
  6
Continuous
 62
     7
100
AcDbLine
 10
238.7720219475
 20
817.224312648
 30
0.0
 11
238.5720219475
 21
817.224312648
 31
0.0
  0
LINE
  5
376
330
305
100
AcDbEntity
  8
09712038_KAPPE
  6
Continuous
 62
     7
100
AcDbLine
 10
238.7720219475
 20
817.1107401746
 30
0.0
 11
238.5720219475
 21
817.1107401746
 31
0.0
  0
LINE
  5
377
330
305
100
AcDbEntity
  8
09712038_KAPPE
  6
Continuous
 62
     7
100
AcDbLine
 10
238.7720219475
 20
817.0043235715
 30
0.0
 11
238.5720219475
 21
817.0043235715
 31
0.0
  0
LINE
  5
378
330
305
100
AcDbEntity
  8
09712038_KAPPE
  6
Continuous
 62
     7
100
AcDbLine
 10
238.7720219475
 20
816.9049971344
 30
0.0
 11
238.5720219475
 21
816.9049971344
 31
0.0
  0
LINE
  5
379
330
305
100
AcDbEntity
  8
09712038_KAPPE
  6
Continuous
 62
     7
100
AcDbLine
 10
238.7720219475
 20
816.812695159
 30
0.0
 11
238.5720219475
 21
816.812695159
 31
0.0
  0
LINE
  5
37A
330
305
100
AcDbEntity
  8
09712038_KAPPE
  6
Continuous
 62
     7
100
AcDbLine
 10
238.7720219475
 20
816.7273519407
 30
0.0
 11
238.5720219475
 21
816.7273519407
 31
0.0
  0
LINE
  5
37B
330
305
100
AcDbEntity
  8
09712038_KAPPE
  6
Continuous
 62
     7
100
AcDbLine
 10
238.7720219475
 20
816.6489017753
 30
0.0
 11
238.5720219475
 21
816.6489017753
 31
0.0
  0
LINE
  5
37C
330
305
100
AcDbEntity
  8
09712038_KAPPE
  6
Continuous
 62
     7
100
AcDbLine
 10
238.7720219475
 20
816.5772789582
 30
0.0
 11
238.5720219475
 21
816.5772789582
 31
0.0
  0
LINE
  5
37D
330
305
100
AcDbEntity
  8
09712038_KAPPE
  6
Continuous
 62
     7
100
AcDbLine
 10
238.7720219475
 20
816.5124177852
 30
0.0
 11
238.5720219475
 21
816.5124177852
 31
0.0
  0
LINE
  5
37E
330
305
100
AcDbEntity
  8
09712038_KAPPE
  6
Continuous
 62
     7
100
AcDbLine
 10
238.7720219475
 20
816.4578762695
 30
0.0
 11
238.5720219475
 21
816.4578762695
 31
0.0
  0
LINE
  5
37F
330
305
100
AcDbEntity
  8
09712038_KAPPE
  6
Continuous
 62
     7
100
AcDbLine
 10
238.7720219475
 20
816.408446061
 30
0.0
 11
238.5720219475
 21
816.408446061
 31
0.0
  0
LINE
  5
380
330
305
100
AcDbEntity
  8
09712038_KAPPE
  6
Continuous
 62
     7
100
AcDbLine
 10
238.7720219475
 20
816.3634195894
 30
0.0
 11
238.5720219475
 21
816.3634195894
 31
0.0
  0
LINE
  5
381
330
305
100
AcDbEntity
  8
09712038_KAPPE
  6
Continuous
 62
     7
100
AcDbLine
 10
238.7720219475
 20
816.3220892846
 30
0.0
 11
238.5720219475
 21
816.3220892846
 31
0.0
  0
LINE
  5
382
330
305
100
AcDbEntity
  8
09712038_KAPPE
  6
Continuous
 62
     7
100
AcDbLine
 10
238.7720219475
 20
816.2837475762
 30
0.0
 11
238.5720219475
 21
816.2837475762
 31
0.0
  0
LINE
  5
383
330
305
100
AcDbEntity
  8
09712038_KAPPE
  6
Continuous
 62
     7
100
AcDbLine
 10
238.7720219475
 20
816.2476868939
 30
0.0
 11
238.5720219475
 21
816.2476868939
 31
0.0
  0
LINE
  5
384
330
305
100
AcDbEntity
  8
09712038_KAPPE
  6
Continuous
 62
     7
100
AcDbLine
 10
238.7720219475
 20
816.1963249846
 30
0.0
 11
238.5720219475
 21
816.1963249846
 31
0.0
  0
LINE
  5
385
330
305
100
AcDbEntity
  8
09712038_KAPPE
  6
Continuous
 62
     7
100
AcDbLine
 10
238.7720219475
 20
816.1461153015
 30
0.0
 11
238.5720219475
 21
816.1461153015
 31
0.0
  0
LINE
  5
386
330
305
100
AcDbEntity
  8
09712038_KAPPE
  6
Continuous
 62
     7
100
AcDbLine
 10
238.7720219475
 20
816.1114314843
 30
0.0
 11
238.5720219475
 21
816.1114314843
 31
0.0
  0
LINE
  5
387
330
305
100
AcDbEntity
  8
09712038_KAPPE
  6
Continuous
 62
     7
100
AcDbLine
 10
238.7720219475
 20
816.0771449327
 30
0.0
 11
238.5720219475
 21
816.0771449327
 31
0.0
  0
LINE
  5
388
330
305
100
AcDbEntity
  8
09712038_KAPPE
  6
Continuous
 62
     7
100
AcDbLine
 10
238.7720219475
 20
816.0442332052
 30
0.0
 11
238.5720219475
 21
816.0442332052
 31
0.0
  0
LINE
  5
389
330
305
100
AcDbEntity
  8
09712038_KAPPE
  6
Continuous
 62
     7
100
AcDbLine
 10
238.7720219475
 20
816.0136738609
 30
0.0
 11
238.5720219475
 21
816.0136738609
 31
0.0
  0
LINE
  5
38A
330
305
100
AcDbEntity
  8
09712038_KAPPE
  6
Continuous
 62
     7
100
AcDbLine
 10
238.7720219475
 20
815.9864444584
 30
0.0
 11
238.5720219475
 21
815.9864444584
 31
0.0
  0
LINE
  5
38B
330
305
100
AcDbEntity
  8
09712038_KAPPE
  6
Continuous
 62
     7
100
AcDbLine
 10
238.7720219475
 20
815.9635225565
 30
0.0
 11
238.5720219475
 21
815.9635225565
 31
0.0
  0
LINE
  5
38C
330
305
100
AcDbEntity
  8
09712038_KAPPE
  6
Continuous
 62
     7
100
AcDbLine
 10
238.7720219475
 20
815.945885714
 30
0.0
 11
238.5720219475
 21
815.945885714
 31
0.0
  0
LINE
  5
38D
330
305
100
AcDbEntity
  8
09712038_KAPPE
  6
Continuous
 62
     7
100
AcDbLine
 10
238.7720219475
 20
815.9345114898
 30
0.0
 11
238.5720219475
 21
815.9345114898
 31
0.0
  0
LINE
  5
38E
330
305
100
AcDbEntity
  8
09712038_KAPPE
  6
Continuous
 62
     7
100
AcDbLine
 10
238.7720219475
 20
818.4991870239
 30
0.0
 11
238.5720219475
 21
818.4991870239
 31
0.0
  0
LINE
  5
38F
330
305
100
AcDbEntity
  8
09712038_KAPPE
  6
Continuous
 62
     7
100
AcDbLine
 10
238.7720219475
 20
818.4167471057
 30
0.0
 11
238.5720219475
 21
818.4167471057
 31
0.0
  0
LINE
  5
390
330
305
100
AcDbEntity
  8
09712038_KAPPE
  6
Continuous
 62
     7
100
AcDbLine
 10
238.7720219475
 20
818.305184384
 30
0.0
 11
238.5720219475
 21
818.305184384
 31
0.0
  0
LINE
  5
391
330
305
100
AcDbEntity
  8
09712038_KAPPE
  6
Continuous
 62
     7
100
AcDbLine
 10
238.7720219475
 20
818.190748633
 30
0.0
 11
238.5720219475
 21
818.190748633
 31
0.0
  0
LINE
  5
392
330
305
100
AcDbEntity
  8
09712038_KAPPE
  6
Continuous
 62
     7
100
AcDbLine
 10
238.7720219475
 20
818.0738389944
 30
0.0
 11
238.5720219475
 21
818.0738389944
 31
0.0
  0
LINE
  5
393
330
305
100
AcDbEntity
  8
09712038_KAPPE
  6
Continuous
 62
     7
100
AcDbLine
 10
238.7720219475
 20
817.9548783215
 30
0.0
 11
238.5720219475
 21
817.9548783215
 31
0.0
  0
LINE
  5
394
330
305
100
AcDbEntity
  8
09712038_KAPPE
  6
Continuous
 62
     7
100
AcDbLine
 10
238.7720219475
 20
817.8343081539
 30
0.0
 11
238.5720219475
 21
817.8343081539
 31
0.0
  0
LINE
  5
395
330
305
100
AcDbEntity
  8
09712038_KAPPE
  6
Continuous
 62
     7
100
AcDbLine
 10
238.7720219475
 20
817.7125832839
 30
0.0
 11
238.5720219475
 21
817.7125832839
 31
0.0
  0
LINE
  5
396
330
305
100
AcDbEntity
  8
09712038_KAPPE
  6
Continuous
 62
     7
100
AcDbLine
 10
238.7720219475
 20
817.590166052
 30
0.0
 11
238.5720219475
 21
817.590166052
 31
0.0
  0
LINE
  5
397
330
305
100
AcDbEntity
  8
09712038_KAPPE
  6
Continuous
 62
     7
100
AcDbLine
 10
238.7720219475
 20
817.4675205233
 30
0.0
 11
238.7720219475
 21
817.3451066963
 31
0.0
  0
LINE
  5
398
330
305
100
AcDbEntity
  8
09712038_KAPPE
  6
Continuous
 62
     7
100
AcDbLine
 10
238.7720219475
 20
817.3451066963
 30
0.0
 11
238.7720219475
 21
817.224312648
 31
0.0
  0
LINE
  5
399
330
305
100
AcDbEntity
  8
09712038_KAPPE
  6
Continuous
 62
     7
100
AcDbLine
 10
238.7720219475
 20
817.224312648
 30
0.0
 11
238.7720219475
 21
817.1107401746
 31
0.0
  0
LINE
  5
39A
330
305
100
AcDbEntity
  8
09712038_KAPPE
  6
Continuous
 62
     7
100
AcDbLine
 10
238.7720219475
 20
817.1107401746
 30
0.0
 11
238.7720219475
 21
817.0043235715
 31
0.0
  0
LINE
  5
39B
330
305
100
AcDbEntity
  8
09712038_KAPPE
  6
Continuous
 62
     7
100
AcDbLine
 10
238.7720219475
 20
817.0043235715
 30
0.0
 11
238.7720219475
 21
816.9049971344
 31
0.0
  0
LINE
  5
39C
330
305
100
AcDbEntity
  8
09712038_KAPPE
  6
Continuous
 62
     7
100
AcDbLine
 10
238.7720219475
 20
816.9049971344
 30
0.0
 11
238.7720219475
 21
816.812695159
 31
0.0
  0
LINE
  5
39D
330
305
100
AcDbEntity
  8
09712038_KAPPE
  6
Continuous
 62
     7
100
AcDbLine
 10
238.7720219475
 20
816.812695159
 30
0.0
 11
238.7720219475
 21
816.7273519407
 31
0.0
  0
LINE
  5
39E
330
305
100
AcDbEntity
  8
09712038_KAPPE
  6
Continuous
 62
     7
100
AcDbLine
 10
238.7720219475
 20
816.7273519407
 30
0.0
 11
238.7720219475
 21
816.6489017753
 31
0.0
  0
LINE
  5
39F
330
305
100
AcDbEntity
  8
09712038_KAPPE
  6
Continuous
 62
     7
100
AcDbLine
 10
238.7720219475
 20
816.6489017753
 30
0.0
 11
238.7720219475
 21
816.5772789582
 31
0.0
  0
LINE
  5
3A0
330
305
100
AcDbEntity
  8
09712038_KAPPE
  6
Continuous
 62
     7
100
AcDbLine
 10
238.7720219475
 20
816.5772789582
 30
0.0
 11
238.7720219475
 21
816.5124177852
 31
0.0
  0
LINE
  5
3A1
330
305
100
AcDbEntity
  8
09712038_KAPPE
  6
Continuous
 62
     7
100
AcDbLine
 10
238.7720219475
 20
816.5124177852
 30
0.0
 11
238.7720219475
 21
816.4578762695
 31
0.0
  0
LINE
  5
3A2
330
305
100
AcDbEntity
  8
09712038_KAPPE
  6
Continuous
 62
     7
100
AcDbLine
 10
238.7720219475
 20
816.4578762695
 30
0.0
 11
238.7720219475
 21
816.408446061
 31
0.0
  0
LINE
  5
3A3
330
305
100
AcDbEntity
  8
09712038_KAPPE
  6
Continuous
 62
     7
100
AcDbLine
 10
238.7720219475
 20
816.408446061
 30
0.0
 11
238.7720219475
 21
816.3634195894
 31
0.0
  0
LINE
  5
3A4
330
305
100
AcDbEntity
  8
09712038_KAPPE
  6
Continuous
 62
     7
100
AcDbLine
 10
238.7720219475
 20
816.3634195894
 30
0.0
 11
238.7720219475
 21
816.3220892846
 31
0.0
  0
LINE
  5
3A5
330
305
100
AcDbEntity
  8
09712038_KAPPE
  6
Continuous
 62
     7
100
AcDbLine
 10
238.7720219475
 20
816.3220892846
 30
0.0
 11
238.7720219475
 21
816.2837475762
 31
0.0
  0
LINE
  5
3A6
330
305
100
AcDbEntity
  8
09712038_KAPPE
  6
Continuous
 62
     7
100
AcDbLine
 10
238.7720219475
 20
816.2837475762
 30
0.0
 11
238.7720219475
 21
816.2476868939
 31
0.0
  0
LINE
  5
3A7
330
305
100
AcDbEntity
  8
09712038_KAPPE
  6
Continuous
 62
     7
100
AcDbLine
 10
238.7720219475
 20
816.2476868939
 30
0.0
 11
238.7720219475
 21
816.1963249846
 31
0.0
  0
LINE
  5
3A8
330
305
100
AcDbEntity
  8
09712038_KAPPE
  6
Continuous
 62
     7
100
AcDbLine
 10
238.7720219475
 20
816.1963249846
 30
0.0
 11
238.7720219475
 21
816.1461153015
 31
0.0
  0
LINE
  5
3A9
330
305
100
AcDbEntity
  8
09712038_KAPPE
  6
Continuous
 62
     7
100
AcDbLine
 10
238.7720219475
 20
816.1461153015
 30
0.0
 11
238.7720219475
 21
816.1114314843
 31
0.0
  0
LINE
  5
3AA
330
305
100
AcDbEntity
  8
09712038_KAPPE
  6
Continuous
 62
     7
100
AcDbLine
 10
238.7720219475
 20
816.1114314843
 30
0.0
 11
238.7720219475
 21
816.0771449327
 31
0.0
  0
LINE
  5
3AB
330
305
100
AcDbEntity
  8
09712038_KAPPE
  6
Continuous
 62
     7
100
AcDbLine
 10
238.7720219475
 20
816.0771449327
 30
0.0
 11
238.7720219475
 21
816.0442332052
 31
0.0
  0
LINE
  5
3AC
330
305
100
AcDbEntity
  8
09712038_KAPPE
  6
Continuous
 62
     7
100
AcDbLine
 10
238.7720219475
 20
816.0442332052
 30
0.0
 11
238.7720219475
 21
816.0136738609
 31
0.0
  0
LINE
  5
3AD
330
305
100
AcDbEntity
  8
09712038_KAPPE
  6
Continuous
 62
     7
100
AcDbLine
 10
238.7720219475
 20
816.0136738609
 30
0.0
 11
238.7720219475
 21
815.9864444584
 31
0.0
  0
LINE
  5
3AE
330
305
100
AcDbEntity
  8
09712038_KAPPE
  6
Continuous
 62
     7
100
AcDbLine
 10
238.7720219475
 20
815.9864444584
 30
0.0
 11
238.7720219475
 21
815.9635225565
 31
0.0
  0
LINE
  5
3AF
330
305
100
AcDbEntity
  8
09712038_KAPPE
  6
Continuous
 62
     7
100
AcDbLine
 10
238.7720219475
 20
815.9635225565
 30
0.0
 11
238.7720219475
 21
815.945885714
 31
0.0
  0
LINE
  5
3B0
330
305
100
AcDbEntity
  8
09712038_KAPPE
  6
Continuous
 62
     7
100
AcDbLine
 10
238.7720219475
 20
815.945885714
 30
0.0
 11
238.7720219475
 21
815.9345114898
 31
0.0
  0
LINE
  5
3B1
330
305
100
AcDbEntity
  8
09712038_KAPPE
  6
Continuous
 62
     7
100
AcDbLine
 10
238.7720219475
 20
815.9345114898
 30
0.0
 11
238.7720219475
 21
815.9303772972
 31
0.0
  0
LINE
  5
3B2
330
305
100
AcDbEntity
  8
09712038_KAPPE
  6
Continuous
 62
     7
100
AcDbLine
 10
238.7720219475
 20
818.4167471057
 30
0.0
 11
238.7720219475
 21
818.305184384
 31
0.0
  0
LINE
  5
3B3
330
305
100
AcDbEntity
  8
09712038_KAPPE
  6
Continuous
 62
     7
100
AcDbLine
 10
238.7720219475
 20
818.305184384
 30
0.0
 11
238.7720219475
 21
818.190748633
 31
0.0
  0
LINE
  5
3B4
330
305
100
AcDbEntity
  8
09712038_KAPPE
  6
Continuous
 62
     7
100
AcDbLine
 10
238.7720219475
 20
818.190748633
 30
0.0
 11
238.7720219475
 21
818.0738389944
 31
0.0
  0
LINE
  5
3B5
330
305
100
AcDbEntity
  8
09712038_KAPPE
  6
Continuous
 62
     7
100
AcDbLine
 10
238.7720219475
 20
818.0738389944
 30
0.0
 11
238.7720219475
 21
817.9548783215
 31
0.0
  0
LINE
  5
3B6
330
305
100
AcDbEntity
  8
09712038_KAPPE
  6
Continuous
 62
     7
100
AcDbLine
 10
238.7720219475
 20
817.9548783215
 30
0.0
 11
238.7720219475
 21
817.8343081539
 31
0.0
  0
LINE
  5
3B7
330
305
100
AcDbEntity
  8
09712038_KAPPE
  6
Continuous
 62
     7
100
AcDbLine
 10
238.7720219475
 20
817.8343081539
 30
0.0
 11
238.7720219475
 21
817.7125832839
 31
0.0
  0
LINE
  5
3B8
330
305
100
AcDbEntity
  8
09712038_KAPPE
  6
Continuous
 62
     7
100
AcDbLine
 10
238.7720219475
 20
817.7125832839
 30
0.0
 11
238.7720219475
 21
817.590166052
 31
0.0
  0
LINE
  5
3B9
330
305
100
AcDbEntity
  8
09712038_KAPPE
  6
Continuous
 62
     7
100
AcDbLine
 10
238.7720219475
 20
817.590166052
 30
0.0
 11
238.7720219475
 21
817.4675205233
 31
0.0
  0
LINE
  5
3BA
330
305
100
AcDbEntity
  8
09712038_KAPPE
  6
Continuous
 62
     7
100
AcDbLine
 10
238.7720219475
 20
820.297898123
 30
0.0
 11
238.5720219475
 21
820.297898123
 31
0.0
  0
LINE
  5
3BB
330
305
100
AcDbEntity
  8
09712038_KAPPE
  6
Continuous
 62
     7
100
AcDbLine
 10
238.7720219475
 20
820.221490247
 30
0.0
 11
238.5720219475
 21
820.221490247
 31
0.0
  0
LINE
  5
3BC
330
305
100
AcDbEntity
  8
09712038_KAPPE
  6
Continuous
 62
     7
100
AcDbLine
 10
238.7720219475
 20
819.031582876
 30
0.0
 11
238.5720219475
 21
819.031582876
 31
0.0
  0
LINE
  5
3BD
330
305
100
AcDbEntity
  8
09712038_KAPPE
  6
Continuous
 62
     7
100
AcDbLine
 10
238.7720219475
 20
819.0315428786
 30
0.0
 11
238.5720219475
 21
819.0315428786
 31
0.0
  0
LINE
  5
3BE
330
305
100
AcDbEntity
  8
09712038_KAPPE
  6
Continuous
 62
     7
100
AcDbLine
 10
238.7720219475
 20
821.4737825493
 30
0.0
 11
238.5720219475
 21
821.4737825493
 31
0.0
  0
LINE
  5
3BF
330
305
100
AcDbEntity
  8
09712038_KAPPE
  6
Continuous
 62
     7
100
AcDbLine
 10
238.7720219475
 20
821.1163467812
 30
0.0
 11
238.5720219475
 21
821.1163467812
 31
0.0
  0
LINE
  5
3C0
330
305
100
AcDbEntity
  8
09712038_KAPPE
  6
Continuous
 62
     7
100
AcDbLine
 10
238.7720219475
 20
821.1137341979
 30
0.0
 11
238.5720219475
 21
821.1137341979
 31
0.0
  0
LINE
  5
3C1
330
305
100
AcDbEntity
  8
09712038_KAPPE
  6
Continuous
 62
     7
100
AcDbLine
 10
238.7720219475
 20
821.1065416409
 30
0.0
 11
238.5720219475
 21
821.1065416409
 31
0.0
  0
LINE
  5
3C2
330
305
100
AcDbEntity
  8
09712038_KAPPE
  6
Continuous
 62
     7
100
AcDbLine
 10
238.7720219475
 20
821.0953874798
 30
0.0
 11
238.5720219475
 21
821.0953874798
 31
0.0
  0
LINE
  5
3C3
330
305
100
AcDbEntity
  8
09712038_KAPPE
  6
Continuous
 62
     7
100
AcDbLine
 10
238.7720219475
 20
821.0808900842
 30
0.0
 11
238.5720219475
 21
821.0808900842
 31
0.0
  0
LINE
  5
3C4
330
305
100
AcDbEntity
  8
09712038_KAPPE
  6
Continuous
 62
     7
100
AcDbLine
 10
238.7720219475
 20
821.0636678235
 30
0.0
 11
238.5720219475
 21
821.0636678235
 31
0.0
  0
LINE
  5
3C5
330
305
100
AcDbEntity
  8
09712038_KAPPE
  6
Continuous
 62
     7
100
AcDbLine
 10
238.7720219475
 20
821.0443390675
 30
0.0
 11
238.5720219475
 21
821.0443390675
 31
0.0
  0
LINE
  5
3C6
330
305
100
AcDbEntity
  8
09712038_KAPPE
  6
Continuous
 62
     7
100
AcDbLine
 10
238.7720219475
 20
821.0127489378
 30
0.0
 11
238.5720219475
 21
821.0127489378
 31
0.0
  0
LINE
  5
3C7
330
305
100
AcDbEntity
  8
09712038_KAPPE
  6
Continuous
 62
     7
100
AcDbLine
 10
238.7720219475
 20
820.9798975222
 30
0.0
 11
238.5720219475
 21
820.9798975222
 31
0.0
  0
LINE
  5
3C8
330
305
100
AcDbEntity
  8
09712038_KAPPE
  6
Continuous
 62
     7
100
AcDbLine
 10
238.7720219475
 20
820.9481390275
 30
0.0
 11
238.5720219475
 21
820.9481390275
 31
0.0
  0
LINE
  5
3C9
330
305
100
AcDbEntity
  8
09712038_KAPPE
  6
Continuous
 62
     7
100
AcDbLine
 10
238.7720219475
 20
820.9156515493
 30
0.0
 11
238.5720219475
 21
820.9156515493
 31
0.0
  0
LINE
  5
3CA
330
305
100
AcDbEntity
  8
09712038_KAPPE
  6
Continuous
 62
     7
100
AcDbLine
 10
238.7720219475
 20
820.8809245577
 30
0.0
 11
238.5720219475
 21
820.8809245577
 31
0.0
  0
LINE
  5
3CB
330
305
100
AcDbEntity
  8
09712038_KAPPE
  6
Continuous
 62
     7
100
AcDbLine
 10
238.7720219475
 20
820.8424475232
 30
0.0
 11
238.5720219475
 21
820.8424475232
 31
0.0
  0
LINE
  5
3CC
330
305
100
AcDbEntity
  8
09712038_KAPPE
  6
Continuous
 62
     7
100
AcDbLine
 10
238.7720219475
 20
820.798709916
 30
0.0
 11
238.5720219475
 21
820.798709916
 31
0.0
  0
LINE
  5
3CD
330
305
100
AcDbEntity
  8
09712038_KAPPE
  6
Continuous
 62
     7
100
AcDbLine
 10
238.7720219475
 20
820.7482012064
 30
0.0
 11
238.5720219475
 21
820.7482012064
 31
0.0
  0
LINE
  5
3CE
330
305
100
AcDbEntity
  8
09712038_KAPPE
  6
Continuous
 62
     7
100
AcDbLine
 10
238.7720219475
 20
820.685059324
 30
0.0
 11
238.5720219475
 21
820.685059324
 31
0.0
  0
LINE
  5
3CF
330
305
100
AcDbEntity
  8
09712038_KAPPE
  6
Continuous
 62
     7
100
AcDbLine
 10
238.7720219475
 20
820.6122472238
 30
0.0
 11
238.5720219475
 21
820.6122472238
 31
0.0
  0
LINE
  5
3D0
330
305
100
AcDbEntity
  8
09712038_KAPPE
  6
Continuous
 62
     7
100
AcDbLine
 10
238.7720219475
 20
820.5582641866
 30
0.0
 11
238.5720219475
 21
820.5582641866
 31
0.0
  0
LINE
  5
3D1
330
305
100
AcDbEntity
  8
09712038_KAPPE
  6
Continuous
 62
     7
100
AcDbLine
 10
238.7720219475
 20
820.4998793343
 30
0.0
 11
238.5720219475
 21
820.4998793343
 31
0.0
  0
LINE
  5
3D2
330
305
100
AcDbEntity
  8
09712038_KAPPE
  6
Continuous
 62
     7
100
AcDbLine
 10
238.7720219475
 20
820.4370510904
 30
0.0
 11
238.5720219475
 21
820.4370510904
 31
0.0
  0
LINE
  5
3D3
330
305
100
AcDbEntity
  8
09712038_KAPPE
  6
Continuous
 62
     7
100
AcDbLine
 10
238.7720219475
 20
820.3697378788
 30
0.0
 11
238.5720219475
 21
820.3697378788
 31
0.0
  0
LINE
  5
3D4
330
305
100
AcDbEntity
  8
09712038_KAPPE
  6
Continuous
 62
     7
100
AcDbLine
 10
238.7720219475
 20
820.297898123
 30
0.0
 11
238.7720219475
 21
820.221490247
 31
0.0
  0
LINE
  5
3D5
330
305
100
AcDbEntity
  8
09712038_KAPPE
  6
Continuous
 62
     7
100
AcDbLine
 10
238.7720219475
 20
820.221490247
 30
0.0
 11
238.7720219475
 21
819.031582876
 31
0.0
  0
LINE
  5
3D6
330
305
100
AcDbEntity
  8
09712038_KAPPE
  6
Continuous
 62
     7
100
AcDbLine
 10
238.7720219475
 20
819.031582876
 30
0.0
 11
238.7720219475
 21
819.0315428786
 31
0.0
  0
LINE
  5
3D7
330
305
100
AcDbEntity
  8
09712038_KAPPE
  6
Continuous
 62
     7
100
AcDbLine
 10
238.7720219475
 20
821.4737825493
 30
0.0
 11
238.7720219475
 21
821.1163467812
 31
0.0
  0
LINE
  5
3D8
330
305
100
AcDbEntity
  8
09712038_KAPPE
  6
Continuous
 62
     7
100
AcDbLine
 10
238.7720219475
 20
821.1163467812
 30
0.0
 11
238.7720219475
 21
821.1137341979
 31
0.0
  0
LINE
  5
3D9
330
305
100
AcDbEntity
  8
09712038_KAPPE
  6
Continuous
 62
     7
100
AcDbLine
 10
238.7720219475
 20
821.1137341979
 30
0.0
 11
238.7720219475
 21
821.1065416409
 31
0.0
  0
LINE
  5
3DA
330
305
100
AcDbEntity
  8
09712038_KAPPE
  6
Continuous
 62
     7
100
AcDbLine
 10
238.7720219475
 20
821.1065416409
 30
0.0
 11
238.7720219475
 21
821.0953874798
 31
0.0
  0
LINE
  5
3DB
330
305
100
AcDbEntity
  8
09712038_KAPPE
  6
Continuous
 62
     7
100
AcDbLine
 10
238.7720219475
 20
821.0953874798
 30
0.0
 11
238.7720219475
 21
821.0808900842
 31
0.0
  0
LINE
  5
3DC
330
305
100
AcDbEntity
  8
09712038_KAPPE
  6
Continuous
 62
     7
100
AcDbLine
 10
238.7720219475
 20
821.0808900842
 30
0.0
 11
238.7720219475
 21
821.0636678235
 31
0.0
  0
LINE
  5
3DD
330
305
100
AcDbEntity
  8
09712038_KAPPE
  6
Continuous
 62
     7
100
AcDbLine
 10
238.7720219475
 20
821.0636678235
 30
0.0
 11
238.7720219475
 21
821.0443390675
 31
0.0
  0
LINE
  5
3DE
330
305
100
AcDbEntity
  8
09712038_KAPPE
  6
Continuous
 62
     7
100
AcDbLine
 10
238.7720219475
 20
821.0443390675
 30
0.0
 11
238.7720219475
 21
821.0127489378
 31
0.0
  0
LINE
  5
3DF
330
305
100
AcDbEntity
  8
09712038_KAPPE
  6
Continuous
 62
     7
100
AcDbLine
 10
238.7720219475
 20
821.0127489378
 30
0.0
 11
238.7720219475
 21
820.9798975222
 31
0.0
  0
LINE
  5
3E0
330
305
100
AcDbEntity
  8
09712038_KAPPE
  6
Continuous
 62
     7
100
AcDbLine
 10
238.7720219475
 20
820.9798975222
 30
0.0
 11
238.7720219475
 21
820.9481390275
 31
0.0
  0
LINE
  5
3E1
330
305
100
AcDbEntity
  8
09712038_KAPPE
  6
Continuous
 62
     7
100
AcDbLine
 10
238.7720219475
 20
820.9481390275
 30
0.0
 11
238.7720219475
 21
820.9156515493
 31
0.0
  0
LINE
  5
3E2
330
305
100
AcDbEntity
  8
09712038_KAPPE
  6
Continuous
 62
     7
100
AcDbLine
 10
238.7720219475
 20
820.9156515493
 30
0.0
 11
238.7720219475
 21
820.8809245577
 31
0.0
  0
LINE
  5
3E3
330
305
100
AcDbEntity
  8
09712038_KAPPE
  6
Continuous
 62
     7
100
AcDbLine
 10
238.7720219475
 20
820.8809245577
 30
0.0
 11
238.7720219475
 21
820.8424475232
 31
0.0
  0
LINE
  5
3E4
330
305
100
AcDbEntity
  8
09712038_KAPPE
  6
Continuous
 62
     7
100
AcDbLine
 10
238.7720219475
 20
820.8424475232
 30
0.0
 11
238.7720219475
 21
820.798709916
 31
0.0
  0
LINE
  5
3E5
330
305
100
AcDbEntity
  8
09712038_KAPPE
  6
Continuous
 62
     7
100
AcDbLine
 10
238.7720219475
 20
820.798709916
 30
0.0
 11
238.7720219475
 21
820.7482012064
 31
0.0
  0
LINE
  5
3E6
330
305
100
AcDbEntity
  8
09712038_KAPPE
  6
Continuous
 62
     7
100
AcDbLine
 10
238.7720219475
 20
820.7482012064
 30
0.0
 11
238.7720219475
 21
820.685059324
 31
0.0
  0
LINE
  5
3E7
330
305
100
AcDbEntity
  8
09712038_KAPPE
  6
Continuous
 62
     7
100
AcDbLine
 10
238.7720219475
 20
820.685059324
 30
0.0
 11
238.7720219475
 21
820.6122472238
 31
0.0
  0
LINE
  5
3E8
330
305
100
AcDbEntity
  8
09712038_KAPPE
  6
Continuous
 62
     7
100
AcDbLine
 10
238.7720219475
 20
820.6122472238
 30
0.0
 11
238.7720219475
 21
820.5582641866
 31
0.0
  0
LINE
  5
3E9
330
305
100
AcDbEntity
  8
09712038_KAPPE
  6
Continuous
 62
     7
100
AcDbLine
 10
238.7720219475
 20
820.5582641866
 30
0.0
 11
238.7720219475
 21
820.4998793343
 31
0.0
  0
LINE
  5
3EA
330
305
100
AcDbEntity
  8
09712038_KAPPE
  6
Continuous
 62
     7
100
AcDbLine
 10
238.7720219475
 20
820.4998793343
 30
0.0
 11
238.7720219475
 21
820.4370510904
 31
0.0
  0
LINE
  5
3EB
330
305
100
AcDbEntity
  8
09712038_KAPPE
  6
Continuous
 62
     7
100
AcDbLine
 10
238.7720219475
 20
820.4370510904
 30
0.0
 11
238.7720219475
 21
820.3697378788
 31
0.0
  0
LINE
  5
3EC
330
305
100
AcDbEntity
  8
09712038_KAPPE
  6
Continuous
 62
     7
100
AcDbLine
 10
238.7720219475
 20
820.3697378788
 30
0.0
 11
238.7720219475
 21
820.297898123
 31
0.0
  0
LINE
  5
3ED
330
305
100
AcDbEntity
  8
09712038_KAPPE
  6
Continuous
 62
     7
100
AcDbLine
 10
238.7720219475
 20
821.9660160099
 30
0.0
 11
238.7720219475
 21
821.5271306915
 31
0.0
  0
LINE
  5
3EE
330
305
100
AcDbEntity
  8
09712038_KAPPE
  6
Continuous
 62
     7
100
AcDbLine
 10
238.7720219475
 20
821.9660160099
 30
0.0
 11
238.7720219475
 21
824.1638097555
 31
0.0
  0
LINE
  5
3EF
330
305
100
AcDbEntity
  8
09712038_KAPPE
  6
Continuous
 62
     7
100
AcDbLine
 10
238.7720219475
 20
824.1638097555
 30
0.0
 11
238.5720219475
 21
824.1638097555
 31
0.0
  0
LINE
  5
3F0
330
305
100
AcDbEntity
  8
09712038_KAPPE
  6
Continuous
 62
     7
100
AcDbLine
 10
238.7720219475
 20
824.5315655675
 30
0.0
 11
238.7720219475
 21
824.1638097555
 31
0.0
  0
LINE
  5
3F1
330
305
100
AcDbEntity
  8
09712038_KAPPE
  6
Continuous
 62
     7
100
AcDbLine
 10
238.7720219475
 20
825.6266400565
 30
0.0
 11
238.5720219475
 21
825.6266400565
 31
0.0
  0
LINE
  5
3F2
330
305
100
AcDbEntity
  8
09712038_KAPPE
  6
Continuous
 62
     7
100
AcDbLine
 10
238.7720219475
 20
824.9923628909
 30
0.0
 11
238.5720219475
 21
824.9923628909
 31
0.0
  0
LINE
  5
3F3
330
305
100
AcDbEntity
  8
09712038_KAPPE
  6
Continuous
 62
     7
100
AcDbLine
 10
238.7720219475
 20
824.9923228935
 30
0.0
 11
238.5720219475
 21
824.9923228935
 31
0.0
  0
LINE
  5
3F4
330
305
100
AcDbEntity
  8
09712038_KAPPE
  6
Continuous
 62
     7
100
AcDbLine
 10
238.7720219475
 20
827.3961276233
 30
0.0
 11
238.5720219475
 21
827.3961276233
 31
0.0
  0
LINE
  5
3F5
330
305
100
AcDbEntity
  8
09712038_KAPPE
  6
Continuous
 62
     7
100
AcDbLine
 10
238.7720219475
 20
826.7578509907
 30
0.0
 11
238.5720219475
 21
826.7578509907
 31
0.0
  0
LINE
  5
3F6
330
305
100
AcDbEntity
  8
09712038_KAPPE
  6
Continuous
 62
     7
100
AcDbLine
 10
238.7720219475
 20
826.7578362394
 30
0.0
 11
238.5720219475
 21
826.7578362394
 31
0.0
  0
LINE
  5
3F7
330
305
100
AcDbEntity
  8
09712038_KAPPE
  6
Continuous
 62
     7
100
AcDbLine
 10
238.7720219475
 20
825.6266400565
 30
0.0
 11
238.7720219475
 21
824.9923628909
 31
0.0
  0
LINE
  5
3F8
330
305
100
AcDbEntity
  8
09712038_KAPPE
  6
Continuous
 62
     7
100
AcDbLine
 10
238.7720219475
 20
824.9923628909
 30
0.0
 11
238.7720219475
 21
824.9923228935
 31
0.0
  0
LINE
  5
3F9
330
305
100
AcDbEntity
  8
09712038_KAPPE
  6
Continuous
 62
     7
100
AcDbLine
 10
238.7720219475
 20
827.3961276233
 30
0.0
 11
238.7720219475
 21
826.7578509907
 31
0.0
  0
LINE
  5
3FA
330
305
100
AcDbEntity
  8
09712038_KAPPE
  6
Continuous
 62
     7
100
AcDbLine
 10
238.7720219475
 20
826.7578509907
 30
0.0
 11
238.7720219475
 21
826.7578362394
 31
0.0
  0
LINE
  5
3FB
330
305
100
AcDbEntity
  8
09712038_KAPPE
  6
Continuous
 62
     7
100
AcDbLine
 10
238.7720219475
 20
826.7578362394
 30
0.0
 11
238.7720219475
 21
825.6266253051
 31
0.0
  0
LINE
  5
3FC
330
305
100
AcDbEntity
  8
09712038_KAPPE
  6
Continuous
 62
     7
100
AcDbLine
 10
238.7720219475
 20
828.0893782029
 30
0.0
 11
238.7720219475
 21
828.0894182002
 31
0.0
  0
LINE
  5
3FD
330
305
100
AcDbEntity
  8
09712038_KAPPE
  6
Continuous
 62
     7
100
AcDbLine
 10
238.7720219475
 20
828.0894182002
 30
0.0
 11
238.5720219475
 21
828.0894182002
 31
0.0
  0
LINE
  5
3FE
330
305
100
AcDbEntity
  8
09712038_KAPPE
  6
Continuous
 62
     7
100
AcDbLine
 10
238.7720219475
 20
828.0894182002
 30
0.0
 11
238.7720219475
 21
829.7647268299
 31
0.0
  0
LINE
  5
3FF
330
305
100
AcDbEntity
  8
09712038_KAPPE
  6
Continuous
 62
     7
100
AcDbLine
 10
238.7720219475
 20
829.7647268299
 30
0.0
 11
238.5720219475
 21
829.7647268299
 31
0.0
  0
LINE
  5
400
330
305
100
AcDbEntity
  8
09712038_KAPPE
  6
Continuous
 62
     7
100
AcDbLine
 10
238.7720219475
 20
829.7647268299
 30
0.0
 11
238.7720219475
 21
829.9285024341
 31
0.0
  0
LINE
  5
401
330
305
100
AcDbEntity
  8
09712038_KAPPE
  6
Continuous
 62
     7
100
AcDbLine
 10
238.7720219475
 20
829.9285024341
 30
0.0
 11
238.5720219475
 21
829.9285024341
 31
0.0
  0
LINE
  5
402
330
305
100
AcDbEntity
  8
09712038_KAPPE
  6
Continuous
 62
     7
100
AcDbLine
 10
238.7720219475
 20
828.0893782029
 30
0.0
 11
238.5720219475
 21
828.0893782029
 31
0.0
  0
LINE
  5
403
330
305
100
AcDbEntity
  8
09712038_KAPPE
  6
Continuous
 62
     7
100
AcDbLine
 10
238.7720219475
 20
827.3961276233
 30
0.0
 11
238.7720219475
 21
827.4124659319
 31
0.0
  0
LINE
  5
404
330
305
100
AcDbEntity
  8
09712038_KAPPE
  6
Continuous
 62
     7
100
AcDbLine
 10
238.7720219475
 20
827.4124659319
 30
0.0
 11
238.5720219475
 21
827.4124659319
 31
0.0
  0
LINE
  5
405
330
305
100
AcDbEntity
  8
09712038_KAPPE
  6
Continuous
 62
     7
100
AcDbLine
 10
238.7720219475
 20
827.4124659319
 30
0.0
 11
238.7720219475
 21
827.7495733913
 31
0.0
  0
LINE
  5
406
330
305
100
AcDbEntity
  8
09712038_KAPPE
  6
Continuous
 62
     7
100
AcDbLine
 10
238.7720219475
 20
827.7495733913
 30
0.0
 11
238.5720219475
 21
827.7495733913
 31
0.0
  0
LINE
  5
407
330
305
100
AcDbEntity
  8
09712038_KAPPE
  6
Continuous
 62
     7
100
AcDbLine
 10
238.7720219475
 20
827.7495733913
 30
0.0
 11
238.7720219475
 21
828.0867008031
 31
0.0
  0
LINE
  5
408
330
305
100
AcDbEntity
  8
09712038_KAPPE
  6
Continuous
 62
     7
100
AcDbLine
 10
238.7720219475
 20
828.0867008031
 30
0.0
 11
238.5720219475
 21
828.0867008031
 31
0.0
  0
LINE
  5
409
330
305
100
AcDbEntity
  8
09712038_KAPPE
  6
Continuous
 62
     7
100
AcDbLine
 10
238.7720219475
 20
828.0867008031
 30
0.0
 11
238.7720219475
 21
828.0893782029
 31
0.0
  0
LINE
  5
40A
330
305
100
AcDbEntity
  8
09712038_KAPPE
  6
Continuous
 62
     7
100
AcDbLine
 10
238.7720219475
 20
818.4991870239
 30
0.0
 11
238.7720219475
 21
818.6474001989
 31
0.0
  0
LINE
  5
40B
330
305
100
AcDbEntity
  8
09712038_KAPPE
  6
Continuous
 62
     7
100
AcDbLine
 10
238.7720219475
 20
818.6474001989
 30
0.0
 11
238.5720219475
 21
818.6474001989
 31
0.0
  0
LINE
  5
40C
330
305
100
AcDbEntity
  8
09712038_KAPPE
  6
Continuous
 62
     7
100
AcDbLine
 10
238.7720219475
 20
818.6474001989
 30
0.0
 11
238.7720219475
 21
818.9844976285
 31
0.0
  0
LINE
  5
40D
330
305
100
AcDbEntity
  8
09712038_KAPPE
  6
Continuous
 62
     7
100
AcDbLine
 10
238.7720219475
 20
818.9844976285
 30
0.0
 11
238.5720219475
 21
818.9844976285
 31
0.0
  0
LINE
  5
40E
330
305
100
AcDbEntity
  8
09712038_KAPPE
  6
Continuous
 62
     7
100
AcDbLine
 10
238.7720219475
 20
818.9844976285
 30
0.0
 11
238.7720219475
 21
819.0315428786
 31
0.0
  0
LINE
  5
40F
330
305
100
AcDbEntity
  8
09712038_KAPPE
  6
Continuous
 62
     7
100
AcDbLine
 10
238.7720219475
 20
821.4737825493
 30
0.0
 11
238.7720219475
 21
821.5271306915
 31
0.0
  0
LINE
  5
410
330
305
100
AcDbEntity
  8
09712038_KAPPE
  6
Continuous
 62
     7
100
AcDbLine
 10
238.7720219475
 20
824.5315655675
 30
0.0
 11
238.7720219475
 21
824.7156410201
 31
0.0
  0
LINE
  5
411
330
305
100
AcDbEntity
  8
09712038_KAPPE
  6
Continuous
 62
     7
100
AcDbLine
 10
238.7720219475
 20
824.7156410201
 30
0.0
 11
238.5720219475
 21
824.7156410201
 31
0.0
  0
LINE
  5
412
330
305
100
AcDbEntity
  8
09712038_KAPPE
  6
Continuous
 62
     7
100
AcDbLine
 10
238.7720219475
 20
824.7156410201
 30
0.0
 11
238.7720219475
 21
824.9923628909
 31
0.0
  0
LINE
  5
413
330
305
100
AcDbEntity
  8
09712038_KAPPE
  6
Continuous
 62
     7
100
AcDbLine
 10
186.0720219475
 20
801.0558552877
 30
0.0
 11
207.7890900723
 21
801.24537727
 31
0.0
  0
LINE
  5
414
330
305
100
AcDbEntity
  8
09712038_KAPPE
  6
Continuous
 62
     7
100
AcDbLine
 10
193.627133877
 20
844.9899228247
 30
0.0
 11
186.0720219475
 21
845.0558552877
 31
0.0
  0
ARC
  5
415
330
305
100
AcDbEntity
  8
09712038_KAPPE
  6
Continuous
 62
     7
100
AcDbCircle
 10
207.2719105332
 20
929.8972132374
 30
0.0
 40
126.9157504814041
100
AcDbArc
 50
277.1287154747
 51
283.3940559681
  0
SPLINE
  5
416
330
305
100
AcDbEntity
  8
09712038_KAPPE
  6
Continuous
 62
     7
100
AcDbSpline
210
0.0
220
0.0
230
1.0
 70
     8
 71
     3
 72
    40
 73
    36
 74
     0
 42
0.0000000006349741
 43
0.0000000001
 40
0.0
 40
0.0
 40
0.0
 40
0.0
 40
0.0015726993184373
 40
0.0083521341190393
 40
0.0138129841667192
 40
0.0176448373709083
 40
0.0195605060899964
 40
0.0210555811350819
 40
0.0231426157953403
 40
0.0272234712506082
 40
0.0375083328791938
 40
0.060058815093255
 40
0.1009903435585852
 40
0.1442406932600576
 40
0.187628308889864
 40
0.2317040726166931
 40
0.2763569570469421
 40
0.321298959982206
 40
0.3660823197213759
 40
0.4107212397829434
 40
0.456883311290231
 40
0.5030553562207173
 40
0.5486708862034072
 40
0.5932991044805387
 40
0.6366304680211365
 40
0.678520964160082
 40
0.714460137727992
 40
0.75237989127431
 40
0.7905254983294524
 40
0.8295220868264721
 40
0.8692547184563996
 40
0.9095438556181724
 40
0.9501536258837086
 40
0.9907863698965579
 40
1.0
 40
1.0
 40
1.0
 40
1.0
 10
207.7897538994695
 20
801.2484419930531
 30
0.0
 10
207.8023920546654
 20
801.2480865383206
 30
0.0
 10
207.8599062808468
 20
801.2465902597994
 30
0.0
 10
207.9633733306699
 20
801.2661544015234
 30
0.0
 10
208.0746271262963
 20
801.2973492326025
 30
0.0
 10
208.1506455875071
 20
801.3284343974942
 30
0.0
 10
208.1884572140693
 20
801.3463729313997
 30
0.0
 10
208.2066736865966
 20
801.3555326150919
 30
0.0
 10
208.221686548609
 20
801.3633770757295
 30
0.0
 10
208.2376208028627
 20
801.3720281958712
 30
0.0
 10
208.2521002267759
 20
801.3801184865922
 30
0.0
 10
208.2878827323111
 20
801.4001855270561
 30
0.0
 10
208.384137137271
 20
801.4538989688924
 30
0.0
 10
208.573337823495
 20
801.5570312598643
 30
0.0
 10
208.841568029004
 20
801.6992373317261
 30
0.0
 10
209.185134055956
 20
801.8758522002993
 30
0.0
 10
209.6039196862887
 20
802.0839273842547
 30
0.0
 10
210.094090486351
 20
802.3183198312937
 30
0.0
 10
210.6528250790162
 20
802.5749462118555
 30
0.0
 10
211.2775519890494
 20
802.8472530499495
 30
0.0
 10
211.9692462452032
 20
803.1275765478478
 30
0.0
 10
212.72405464214
 20
803.4069329154426
 30
0.0
 10
213.524709962409
 20
803.6716694473942
 30
0.0
 10
214.3577887249157
 20
803.9112438520191
 30
0.0
 10
215.2105804760621
 20
804.1167618423168
 30
0.0
 10
216.0408612774434
 20
804.2761512662988
 30
0.0
 10
216.8587744194167
 20
804.3913431663598
 30
0.0
 10
217.6688653285021
 20
804.458957407905
 30
0.0
 10
218.5099257540348
 20
804.4860830760709
 30
0.0
 10
219.3650085541353
 20
804.4716306345749
 30
0.0
 10
220.2270051568369
 20
804.4159628225697
 30
0.0
 10
221.0872031890321
 20
804.3200636602164
 30
0.0
 10
221.9178769576612
 20
804.1857208953339
 30
0.0
 10
222.542237372889
 20
804.0603140762624
 30
0.0
 10
222.8369091279558
 20
803.98242490923
 30
0.0
 10
222.900431798075
 20
803.9655651462446
 30
0.0
  0
ARC
  5
417
330
305
100
AcDbEntity
  8
09712038_KAPPE
  6
Continuous
 62
     7
100
AcDbCircle
 10
222.9705606711
 20
804.1227712172
 30
0.0
 40
0.1687463530289414
100
AcDbArc
 50
244.8183113642
 51
288.0102950145
  0
ARC
  5
418
330
305
100
AcDbEntity
  8
09712038_KAPPE
  6
Continuous
 62
     7
100
AcDbCircle
 10
236.0720219961
 20
808.8585846936
 30
0.0
 40
2.499999951459301
100
AcDbArc
 50
283.7929834258
 51
0.0
  0
ARC
  5
419
330
305
100
AcDbEntity
  8
09712038_KAPPE
  6
Continuous
 62
     7
100
AcDbCircle
 10
236.0720220518
 20
808.8585847411
 30
0.0
 40
2.499999895746288
100
AcDbArc
 50
283.9063456543
 51
0.0004253127
  0
ARC
  5
41A
330
305
100
AcDbEntity
  8
09712038_KAPPE
  6
Continuous
 62
     7
100
AcDbCircle
 10
153.8197697554
 20
811.1754829723
 30
0.0
 40
52.94173713750229
100
AcDbArc
 50
37.60549475
 51
37.722530866
  0
ARC
  5
41B
330
305
100
AcDbEntity
  8
09712038_KAPPE
  6
Continuous
 62
     7
100
AcDbCircle
 10
193.6054030655
 20
842.9900363099
 30
0.0
 40
1.999999999999954
100
AcDbArc
 50
38.0687742634
 51
38.895734404
  0
ARC
  5
41C
330
305
100
AcDbEntity
  8
09712038_KAPPE
  6
Continuous
 62
     7
100
AcDbCircle
 10
193.6054030655
 20
842.9900363099
 30
0.0
 40
1.999999999999847
100
AcDbArc
 50
38.8957344039
 51
89.3660873087
  0
ARC
  5
41D
330
305
100
AcDbEntity
  8
09712038_KAPPE
  6
Continuous
 62
     7
100
AcDbCircle
 10
152.5816894314
 20
810.1957966631
 30
0.0
 40
54.52052168994547
100
AcDbArc
 50
37.632074748
 51
38.6481679091
  0
ARC
  5
41E
330
305
100
AcDbEntity
  8
09712038_KAPPE
  6
Continuous
 62
     7
100
AcDbCircle
 10
204.7442773958
 20
850.688258755
 30
0.0
 40
11.51939950271846
100
AcDbArc
 50
218.6618577645
 51
267.419815496
  0
LINE
  5
41F
330
305
100
AcDbEntity
  8
09712038_KAPPE
  6
Continuous
 62
     7
100
AcDbLine
 10
238.5720219475
 20
815.9303772972
 30
0.0
 11
238.7720219475
 21
815.9303772972
 31
0.0
  0
LINE
  5
420
330
305
100
AcDbEntity
  8
09712038_KAPPE
  6
Continuous
 62
     7
100
AcDbLine
 10
238.5720219475
 20
821.5271306915
 30
0.0
 11
238.7720219475
 21
821.5271306915
 31
0.0
  0
LINE
  5
421
330
305
100
AcDbEntity
  8
09712038_KAPPE
  6
Continuous
 62
     7
100
AcDbLine
 10
238.7720219475
 20
824.5315655675
 30
0.0
 11
238.5720219475
 21
824.5315655675
 31
0.0
  0
LINE
  5
423
330
305
100
AcDbEntity
  8
$DDT_AUDIT_GENERATED_(422)
  6
Continuous
 62
     7
100
AcDbLine
 10
185.8220219475
 20
843.8100809669
 30
0.0
 11
186.0720219475
 21
843.8057058202
 31
0.0
  0
LINE
  5
424
330
305
100
AcDbEntity
  8
$DDT_AUDIT_GENERATED_(422)
  6
Continuous
 62
     7
100
AcDbLine
 10
186.0720219475
 20
802.3060047552
 30
0.0
 11
185.8220219475
 21
802.3016296084
 31
0.0
  0
LINE
  5
425
330
305
100
AcDbEntity
  8
$DDT_AUDIT_GENERATED_(2F8)
  6
Continuous
 62
     7
100
AcDbLine
 10
138.0296091123
 20
802.2830113467
 30
0.0
 11
138.0296091123
 21
827.1679871825
 31
0.0
  0
LINE
  5
426
330
305
100
AcDbEntity
  8
$DDT_AUDIT_GENERATED_(2F8)
  6
Continuous
 62
     7
100
AcDbLine
 10
144.0296091123
 20
802.2830113467
 30
0.0
 11
144.0296091123
 21
827.1679871825
 31
0.0
  0
LINE
  5
427
330
305
100
AcDbEntity
  8
$DDT_AUDIT_GENERATED_(2F8)
  6
Continuous
 62
     7
100
AcDbLine
 10
144.5296091123
 20
802.3196363732
 30
0.0
 11
144.5296091123
 21
831.2569272112
 31
0.0
  0
LINE
  5
428
330
305
100
AcDbEntity
  8
$DDT_AUDIT_GENERATED_(2F8)
  6
Continuous
 62
     7
100
AcDbLine
 10
138.0296091123
 20
802.2830113467
 30
0.0
 11
138.0296091123
 21
799.0558552877
 31
0.0
  0
LINE
  5
429
330
305
100
AcDbEntity
  8
$DDT_AUDIT_GENERATED_(2F8)
  6
Continuous
 62
     7
100
AcDbLine
 10
144.0296091123
 20
799.0558552877
 30
0.0
 11
144.0296091123
 21
802.2830113467
 31
0.0
  0
ARC
  5
42A
330
305
100
AcDbEntity
  8
$DDT_AUDIT_GENERATED_(2F8)
  6
Continuous
 62
     7
100
AcDbCircle
 10
141.0296091123
 20
799.0558552877
 30
0.0
 40
3.000000000000003
100
AcDbArc
 50
180.0
 51
0.0
  0
LINE
  5
42B
330
305
100
AcDbEntity
  8
$DDT_AUDIT_GENERATED_(2F8)
  6
Continuous
 62
     7
100
AcDbLine
 10
144.0296091123
 20
839.7165673338
 30
0.0
 11
144.0296091123
 21
845.0558552877
 31
0.0
  0
LINE
  5
42C
330
305
100
AcDbEntity
  8
$DDT_AUDIT_GENERATED_(2F8)
  6
Continuous
 62
     7
100
AcDbLine
 10
138.0296091123
 20
839.7165673338
 30
0.0
 11
138.0296091123
 21
845.0558552877
 31
0.0
  0
SPLINE
  5
42D
330
305
100
AcDbEntity
  8
$DDT_AUDIT_GENERATED_(2F8)
  6
Continuous
 62
     7
100
AcDbSpline
210
0.0
220
0.0
230
1.0
 70
     8
 71
     3
 72
    14
 73
    10
 74
     0
 42
0.000000001065725
 43
0.0000000001
 40
0.0
 40
0.0
 40
0.0
 40
0.0
 40
0.2500000000000001
 40
0.2500000000000001
 40
0.5
 40
0.5
 40
0.75
 40
0.75
 40
1.0
 40
1.0
 40
1.0
 40
1.0
 10
144.0296091122673
 20
832.5325469982793
 30
0.0
 10
144.0296091122673
 20
833.2994066140076
 30
0.0
 10
143.7846782605292
 20
834.0051351480765
 30
0.0
 10
142.6930222681282
 20
834.996543747606
 30
0.0
 10
141.8761883629032
 20
835.2561905212691
 30
0.0
 10
140.1895784588812
 20
835.2575266210059
 30
0.0
 10
139.3686261640747
 20
834.99580207904
 30
0.0
 10
138.2825656900129
 20
834.0153442793167
 30
0.0
 10
138.0296091122673
 20
833.3000864943143
 30
0.0
 10
138.0296091122673
 20
832.5325469982793
 30
0.0
  0
LINE
  5
42E
330
305
100
AcDbEntity
  8
$DDT_AUDIT_GENERATED_(2F8)
  6
Continuous
 62
     7
100
AcDbLine
 10
138.0296091123
 20
832.5325469983
 30
0.0
 11
138.0296091123
 21
827.1679871825
 31
0.0
  0
LINE
  5
42F
330
305
100
AcDbEntity
  8
$DDT_AUDIT_GENERATED_(2F8)
  6
Continuous
 62
     7
100
AcDbLine
 10
144.0296091123
 20
827.1679871825
 30
0.0
 11
144.0296091123
 21
832.5325469983
 31
0.0
  0
LINE
  5
430
330
305
100
AcDbEntity
  8
$DDT_AUDIT_GENERATED_(2F8)
  6
Continuous
 62
     7
100
AcDbLine
 10
138.0296091123
 20
839.7165673338
 30
0.0
 11
138.0296091123
 21
837.5791635771
 31
0.0
  0
SPLINE
  5
431
330
305
100
AcDbEntity
  8
$DDT_AUDIT_GENERATED_(2F8)
  6
Continuous
 62
     7
100
AcDbSpline
210
0.0
220
0.0
230
1.0
 70
     8
 71
     3
 72
    14
 73
    10
 74
     0
 42
0.0000000016045137
 43
0.0000000001
 40
0.0
 40
0.0
 40
0.0
 40
0.0
 40
0.25
 40
0.25
 40
0.5
 40
0.5
 40
0.75
 40
0.75
 40
1.0
 40
1.0
 40
1.0
 40
1.0
 10
138.0296091122673
 20
837.579163577093
 30
0.0
 10
138.0296091122673
 20
837.4935224221446
 30
0.0
 10
138.2745399640054
 20
837.5420286509916
 30
0.0
 10
139.3661959564064
 20
837.7389024550794
 30
0.0
 10
140.1830298616313
 20
837.8545978559679
 30
0.0
 10
141.8696397656533
 20
837.8551025788239
 30
0.0
 10
142.6905920604599
 20
837.7392314230713
 30
0.0
 10
143.7766525345216
 20
837.5435843060285
 30
0.0
 10
144.0296091122673
 20
837.493446494643
 30
0.0
 10
144.0296091122673
 20
837.579163577093
 30
0.0
  0
LINE
  5
432
330
305
100
AcDbEntity
  8
$DDT_AUDIT_GENERATED_(2F8)
  6
Continuous
 62
     7
100
AcDbLine
 10
144.0296091123
 20
837.5791635771
 30
0.0
 11
144.0296091123
 21
839.7165673338
 31
0.0
  0
LINE
  5
433
330
305
100
AcDbEntity
  8
$DDT_AUDIT_GENERATED_(2F8)
  6
Continuous
 62
     7
100
AcDbLine
 10
144.0296091123
 20
837.5791635771
 30
0.0
 11
144.0296091123
 21
832.5325469983
 31
0.0
  0
LINE
  5
434
330
305
100
AcDbEntity
  8
$DDT_AUDIT_GENERATED_(2F8)
  6
Continuous
 62
     7
100
AcDbLine
 10
138.0296091123
 20
832.5325469983
 30
0.0
 11
138.0296091123
 21
837.5791635771
 31
0.0
  0
LINE
  5
435
330
305
100
AcDbEntity
  8
$DDT_AUDIT_GENERATED_(2F8)
  6
Continuous
 62
     7
100
AcDbLine
 10
144.0296091123
 20
802.3196363732
 30
0.0
 11
144.5296091123
 21
802.3196363732
 31
0.0
  0
LINE
  5
436
330
305
100
AcDbEntity
  8
$DDT_AUDIT_GENERATED_(2F8)
  6
Continuous
 62
     7
100
AcDbLine
 10
144.5296091123
 20
835.6976851826
 30
0.0
 11
144.5296091123
 21
844.0558552877
 31
0.0
  0
LINE
  5
437
330
305
100
AcDbEntity
  8
$DDT_AUDIT_GENERATED_(2F8)
  6
Continuous
 62
     7
100
AcDbLine
 10
144.5296091123
 20
831.2569272112
 30
0.0
 11
144.0296091123
 21
831.2569272112
 31
0.0
  0
LINE
  5
438
330
305
100
AcDbEntity
  8
$DDT_AUDIT_GENERATED_(2F8)
  6
Continuous
 62
     7
100
AcDbLine
 10
144.0296091123
 20
835.6976851826
 30
0.0
 11
144.5296091123
 21
835.6976851826
 31
0.0
  0
LINE
  5
439
330
305
100
AcDbEntity
  8
$DDT_AUDIT_GENERATED_(2F8)
  6
Continuous
 62
     7
100
AcDbLine
 10
144.5296091123
 20
844.0558552877
 30
0.0
 11
144.0296091123
 21
844.0558552877
 31
0.0
  0
LINE
  5
43A
330
305
100
AcDbEntity
  8
$DDT_AUDIT_GENERATED_(2F8)
  6
Continuous
 62
     7
100
AcDbLine
 10
144.0296091123
 20
845.0558552877
 30
0.0
 11
138.0296091123
 21
845.0558552877
 31
0.0
  0
LINE
  5
43C
330
305
100
AcDbEntity
  8
$DDT_AUDIT_GENERATED_(43B)
  6
Continuous
 62
     7
100
AcDbLine
 10
138.0296091123
 20
802.2830113467
 30
0.0
 11
138.0296091123
 21
827.1679871825
 31
0.0
  0
LINE
  5
43D
330
305
100
AcDbEntity
  8
$DDT_AUDIT_GENERATED_(43B)
  6
Continuous
 62
     7
100
AcDbLine
 10
138.0296091123
 20
837.5791635771
 30
0.0
 11
138.0296091123
 21
845.0558552877
 31
0.0
  0
LINE
  5
43E
330
305
100
AcDbEntity
  8
$DDT_AUDIT_GENERATED_(43B)
  6
Continuous
 62
     7
100
AcDbLine
 10
132.0296091123
 20
804.0558552877
 30
0.0
 11
132.0296091123
 21
842.0558552877
 31
0.0
  0
LINE
  5
43F
330
305
100
AcDbEntity
  8
$DDT_AUDIT_GENERATED_(43B)
  6
Continuous
 62
     7
100
AcDbLine
 10
138.0296091123
 20
845.0558552877
 30
0.0
 11
135.0296091123
 21
845.0558552877
 31
0.0
  0
LINE
  5
440
330
305
100
AcDbEntity
  8
$DDT_AUDIT_GENERATED_(43B)
  6
Continuous
 62
     7
100
AcDbLine
 10
135.0296091123
 20
801.0558552877
 30
0.0
 11
138.0296091123
 21
801.0558552877
 31
0.0
  0
ARC
  5
441
330
305
100
AcDbEntity
  8
$DDT_AUDIT_GENERATED_(43B)
  6
Continuous
 62
     7
100
AcDbCircle
 10
135.0296091123
 20
804.0558552877
 30
0.0
 40
2.999999999999999
100
AcDbArc
 50
180.0
 51
270.0
  0
ARC
  5
442
330
305
100
AcDbEntity
  8
$DDT_AUDIT_GENERATED_(43B)
  6
Continuous
 62
     7
100
AcDbCircle
 10
135.0296091123
 20
842.0558552877
 30
0.0
 40
3.000000000000003
100
AcDbArc
 50
90.0
 51
180.0
  0
ENDBLK
  5
444
330
305
100
AcDbEntity
  8
0
100
AcDbBlockEnd
  0
BLOCK
  5
52B
330
445
100
AcDbEntity
  8
0
100
AcDbBlockBegin
  2
SE2
 70
     0
 10
0.0
 20
0.0
 30
0.0
  3
SE2
  1

  0
LINE
  5
447
330
445
100
AcDbEntity
  8
4240246_KONSOLE_
  6
Continuous
 62
     7
100
AcDbLine
 10
52.4833370435
 20
165.3
 30
0.0
 11
32.4833370435
 21
165.3
 31
0.0
  0
LINE
  5
448
330
445
100
AcDbEntity
  8
4240246_KONSOLE_
  6
Continuous
 62
     7
100
AcDbLine
 10
28.4833370435
 20
165.3
 30
0.0
 11
8.4833370435
 21
165.3
 31
0.0
  0
LINE
  5
449
330
445
100
AcDbEntity
  8
4240246_KONSOLE_
  6
Continuous
 62
     7
100
AcDbLine
 10
53.0333370435
 20
227.3
 30
0.0
 11
7.9333370435
 21
227.3
 31
0.0
  0
LINE
  5
44A
330
445
100
AcDbEntity
  8
4240246_KONSOLE_
  6
Continuous
 62
     7
100
AcDbLine
 10
28.4833370435
 20
166.3
 30
0.0
 11
28.4833370435
 21
165.3
 31
0.0
  0
LINE
  5
44B
330
445
100
AcDbEntity
  8
4240246_KONSOLE_
  6
Continuous
 62
     7
100
AcDbLine
 10
32.4833370435
 20
166.3
 30
0.0
 11
28.4833370435
 21
166.3
 31
0.0
  0
LINE
  5
44C
330
445
100
AcDbEntity
  8
4240246_KONSOLE_
  6
Continuous
 62
     7
100
AcDbLine
 10
32.4833370435
 20
165.3
 30
0.0
 11
32.4833370435
 21
166.3
 31
0.0
  0
LINE
  5
44D
330
445
100
AcDbEntity
  8
4240246_KONSOLE_
  6
Continuous
 62
     7
100
AcDbLine
 10
12.0179200448
 20
227.8
 30
0.0
 11
12.3392171986
 21
227.8
 31
0.0
  0
ARC
  5
44E
330
445
100
AcDbEntity
  8
4240246_KONSOLE_
  6
Continuous
 62
     7
100
AcDbCircle
 10
12.0198905542
 20
227.60192962
 30
0.0
 40
0.1980801816311189
100
AcDbArc
 50
90.5699900648
 51
180.5581619919
  0
ARC
  5
44F
330
445
100
AcDbEntity
  8
4240246_KONSOLE_
  6
Continuous
 62
     7
100
AcDbCircle
 10
48.9467815424
 20
227.6019276683
 30
0.0
 40
0.1980821529637773
100
AcDbArc
 50
359.4424081007
 51
89.4294398427
  0
LINE
  5
450
330
445
100
AcDbEntity
  8
4240246_KONSOLE_
  6
Continuous
 62
     7
100
AcDbLine
 10
49.147658913
 20
227.6
 30
0.0
 11
49.1448543154
 21
227.6
 31
0.0
  0
LINE
  5
451
330
445
100
AcDbEntity
  8
4240246_KONSOLE_
  6
Continuous
 62
     7
100
AcDbLine
 10
11.8190151741
 20
227.6
 30
0.0
 11
11.8218197716
 21
227.6
 31
0.0
  0
LINE
  5
452
330
445
100
AcDbEntity
  8
4240246_KONSOLE_
  6
Continuous
 62
     7
100
AcDbLine
 10
13.779827588
 20
227.7
 30
0.0
 11
13.779827588
 21
227.3
 31
0.0
  0
ARC
  5
453
330
445
100
AcDbEntity
  8
4240246_KONSOLE_
  6
Continuous
 62
     7
100
AcDbCircle
 10
12.3417131461
 20
227.6024246966
 30
0.0
 40
0.1975910683100356
100
AcDbArc
 50
90.7237729237
 51
180.7031105641
  0
LINE
  5
454
330
445
100
AcDbEntity
  8
4240246_KONSOLE_
  6
Continuous
 62
     7
100
AcDbLine
 10
13.7658420481
 20
227.8
 30
0.0
 11
20.8141022645
 21
227.8
 31
0.0
  0
LINE
  5
455
330
445
100
AcDbEntity
  8
4240246_KONSOLE_
  6
Continuous
 62
     7
100
AcDbLine
 10
12.3392171986
 20
227.8
 30
0.0
 11
13.7658420481
 21
227.8
 31
0.0
  0
ELLIPSE
  5
456
330
445
100
AcDbEntity
  8
4240246_KONSOLE_
  6
Continuous
 62
     7
100
AcDbEllipse
 10
13.7658420481
 20
227.7
 30
0.0
 11
0.0
 21
0.01398553982625117
 31
0.0
210
0.0
220
0.0
230
1.0
 40
1.0
 41
-1.570796326794897
 42
0.0
  0
LINE
  5
457
330
445
100
AcDbEntity
  8
4240246_KONSOLE_
  6
Continuous
 62
     7
100
AcDbLine
 10
47.1868464991
 20
227.7
 30
0.0
 11
47.1868464991
 21
227.3
 31
0.0
  0
LINE
  5
458
330
445
100
AcDbEntity
  8
4240246_KONSOLE_
  6
Continuous
 62
     7
100
AcDbLine
 10
48.6274568885
 20
227.8
 30
0.0
 11
48.9487540423
 21
227.8
 31
0.0
  0
LINE
  5
459
330
445
100
AcDbEntity
  8
4240246_KONSOLE_
  6
Continuous
 62
     7
100
AcDbLine
 10
47.2008320389
 20
227.8
 30
0.0
 11
48.6274568885
 21
227.8
 31
0.0
  0
LINE
  5
45A
330
445
100
AcDbEntity
  8
4240246_KONSOLE_
  6
Continuous
 62
     7
100
AcDbLine
 10
40.1525718226
 20
227.8
 30
0.0
 11
47.2008320389
 21
227.8
 31
0.0
  0
ARC
  5
45B
330
445
100
AcDbEntity
  8
4240246_KONSOLE_
  6
Continuous
 62
     7
100
AcDbCircle
 10
48.6249634579
 20
227.6024271516
 30
0.0
 40
0.1975885817405315
100
AcDbArc
 50
359.2961686479
 51
89.2769478642
  0
ELLIPSE
  5
45C
330
445
100
AcDbEntity
  8
4240246_KONSOLE_
  6
Continuous
 62
     7
100
AcDbEllipse
 10
47.2008320389
 20
227.7
 30
0.0
 11
0.0
 21
-0.1000000000000002
 31
0.0
210
0.0
220
0.0
230
1.0
 40
0.1398553983
 41
3.141592653589793
 42
4.71238898038469
  0
LINE
  5
45D
330
445
100
AcDbEntity
  8
4240246_KONSOLE_
  6
Continuous
 62
     7
100
AcDbLine
 10
29.5429717306
 20
227.6
 30
0.0
 11
29.5429717306
 21
227.3
 31
0.0
  0
ARC
  5
45E
330
445
100
AcDbEntity
  8
4240246_KONSOLE_
  6
Continuous
 62
     7
100
AcDbCircle
 10
30.8238048485
 20
227.6258406067
 30
0.0
 40
1.281093756520712
100
AcDbArc
 50
180.1936697313
 51
181.1557765489
  0
LINE
  5
45F
330
445
100
AcDbEntity
  8
4240246_KONSOLE_
  6
Continuous
 62
     7
100
AcDbLine
 10
29.8011824254
 20
227.8
 30
0.0
 11
31.1654916617
 21
227.8
 31
0.0
  0
LINE
  5
460
330
445
100
AcDbEntity
  8
4240246_KONSOLE_
  6
Continuous
 62
     7
100
AcDbLine
 10
31.1654916617
 20
227.8
 30
0.0
 11
31.3218323882
 21
227.8
 31
0.0
  0
LINE
  5
461
330
445
100
AcDbEntity
  8
4240246_KONSOLE_
  6
Continuous
 62
     7
100
AcDbLine
 10
29.6448416988
 20
227.8
 30
0.0
 11
29.8011824254
 21
227.8
 31
0.0
  0
LINE
  5
462
330
445
100
AcDbEntity
  8
4240246_KONSOLE_
  6
Continuous
 62
     7
100
AcDbLine
 10
31.4237023565
 20
227.3
 30
0.0
 11
31.4237023565
 21
227.6
 31
0.0
  0
ELLIPSE
  5
463
330
445
100
AcDbEntity
  8
4240246_KONSOLE_
  6
Continuous
 62
     7
100
AcDbEllipse
 10
31.1654916617
 20
227.7
 30
0.0
 11
0.0
 21
0.09999721519663181
 31
0.0
210
0.0
220
0.0
230
1.0
 40
1.0
 41
-0.4084613173493845
 42
0.0
  0
ELLIPSE
  5
464
330
445
100
AcDbEntity
  8
4240246_KONSOLE_
  6
Continuous
 62
     7
100
AcDbEllipse
 10
31.3218323882
 20
227.7
 30
0.0
 11
0.0
 21
0.09998235245664944
 31
0.0
210
0.0
220
0.0
230
1.0
 40
1.0
 41
-1.570796326794897
 42
0.0
  0
ELLIPSE
  5
465
330
445
100
AcDbEntity
  8
4240246_KONSOLE_
  6
Continuous
 62
     7
100
AcDbEllipse
 10
29.6448416988
 20
227.7
 30
0.0
 11
0.0
 21
0.1000000000000227
 31
0.0
210
0.0
220
0.0
230
1.0
 40
1.0
 41
0.0
 42
1.570796326794897
  0
ELLIPSE
  5
466
330
445
100
AcDbEntity
  8
4240246_KONSOLE_
  6
Continuous
 62
     7
100
AcDbEllipse
 10
29.8011824254
 20
227.7
 30
0.0
 11
0.0
 21
0.09999999999996589
 31
0.0
210
0.0
220
0.0
230
1.0
 40
1.0
 41
0.0
 42
0.8033051875079145
  0
LINE
  5
467
330
445
100
AcDbEntity
  8
4240246_KONSOLE_
  6
Continuous
 62
     7
100
AcDbLine
 10
7.9333370435
 20
227.3
 30
0.0
 11
8.4833370435
 21
165.3
 31
0.0
  0
LINE
  5
468
330
445
100
AcDbEntity
  8
4240246_KONSOLE_
  6
Continuous
 62
     7
100
AcDbLine
 10
52.4833370435
 20
165.3
 30
0.0
 11
53.0333370435
 21
227.3
 31
0.0
  0
LINE
  5
469
330
445
100
AcDbEntity
  8
4240246_KONSOLE_
  6
Continuous
 62
     7
100
AcDbLine
 10
49.147658913
 20
227.3
 30
0.0
 11
49.147658913
 21
227.6
 31
0.0
  0
LINE
  5
46A
330
445
100
AcDbEntity
  8
4240246_KONSOLE_
  6
Continuous
 62
     7
100
AcDbLine
 10
11.8190151741
 20
227.6
 30
0.0
 11
11.8190151741
 21
227.3
 31
0.0
  0
ARC
  5
46B
330
445
100
AcDbEntity
  8
4240246_KONSOLE_
  6
Continuous
 62
     7
100
AcDbCircle
 10
20.8219487481
 20
227.6016263267
 30
0.0
 40
0.1958009764464987
100
AcDbArc
 50
359.503380163
 51
92.277735311
  0
LINE
  5
46C
330
445
100
AcDbEntity
  8
4240246_KONSOLE_
  6
Continuous
 62
     7
100
AcDbLine
 10
21.0190451332
 20
227.3
 30
0.0
 11
21.0190451332
 21
227.6
 31
0.0
  0
SPLINE
  5
46D
330
445
100
AcDbEntity
  8
4240246_KONSOLE_
  6
Continuous
 62
     7
100
AcDbSpline
210
0.0
220
0.0
230
1.0
 70
     8
 71
     3
 72
    12
 73
     8
 74
     0
 42
0.0000000309065852
 43
0.0000000001
 40
0.0
 40
0.0
 40
0.0
 40
0.0
 40
0.2109159975086255
 40
0.46383182014881
 40
0.6907756661563369
 40
0.9346455118160666
 40
1.0
 40
1.0
 40
1.0
 40
1.0
 10
40.15279379861005
 20
227.7981170853313
 30
0.0
 10
40.1283805991385
 20
227.7970346623316
 30
0.0
 10
40.08228820508218
 20
227.7938456590201
 30
0.0
 10
40.01548876380691
 20
227.7549397916995
 30
0.0
 10
39.96787758908624
 20
227.695680865818
 30
0.0
 10
39.94665233029158
 20
227.6383315847283
 30
0.0
 10
39.94912145151266
 20
227.6075712506615
 30
0.0
 10
39.94978940127753
 20
227.6000147504164
 30
0.0
  0
LINE
  5
46E
330
445
100
AcDbEntity
  8
4240246_KONSOLE_
  6
Continuous
 62
     7
100
AcDbLine
 10
39.9476289539
 20
227.6
 30
0.0
 11
39.9476289539
 21
227.3
 31
0.0
  0
SPLINE
  5
46F
330
445
100
AcDbEntity
  8
4240246_KONSOLE_
  6
Continuous
 62
     7
100
AcDbSpline
210
0.0
220
0.0
230
1.0
 70
     8
 71
     3
 72
    17
 73
    13
 74
     0
 42
0.0000000457436191
 43
0.0000000001
 40
0.0
 40
0.0
 40
0.0
 40
0.0
 40
0.1344998624284819
 40
0.2865506384833837
 40
0.4446803429634147
 40
0.5387609477962301
 40
0.5915978100189148
 40
0.6400654702083773
 40
0.7215342639226919
 40
0.8442112404240595
 40
0.996458539164601
 40
1.0
 40
1.0
 40
1.0
 40
1.0
 10
31.42370572019432
 20
227.6000000970851
 30
0.0
 10
31.42369181803065
 20
227.612592788381
 30
0.0
 10
31.42365362314444
 20
227.6356695127328
 30
0.0
 10
31.42326647435263
 20
227.6699214985787
 30
0.0
 10
31.42271231649708
 20
227.691970577285
 30
0.0
 10
31.42218782373397
 20
227.7029036572109
 30
0.0
 10
31.42131366911508
 20
227.7127205879004
 30
0.0
 10
31.41858219442336
 20
227.7272578816495
 30
0.0
 10
31.41114444491609
 20
227.7476823090115
 30
0.0
 10
31.39343668905612
 20
227.7719416152681
 30
0.0
 10
31.37341866844823
 20
227.7890342788901
 30
0.0
 10
31.36112612104655
 20
227.7918507546706
 30
0.0
 10
31.36080239157888
 20
227.7919247696306
 30
0.0
  0
SPLINE
  5
470
330
445
100
AcDbEntity
  8
4240246_KONSOLE_
  6
Continuous
 62
     7
100
AcDbSpline
210
0.0
220
0.0
230
1.0
 70
     8
 71
     3
 72
    17
 73
    13
 74
     0
 42
0.0000000641969912
 43
0.0000000001
 40
0.0
 40
0.0
 40
0.0
 40
0.0
 40
0.0405252683694784
 40
0.1498576015322075
 40
0.2401213313366727
 40
0.3087849925689011
 40
0.3520997804814902
 40
0.3911168375678609
 40
0.4567863850636301
 40
0.7095350688602597
 40
0.9083163750870885
 40
1.0
 40
1.0
 40
1.0
 40
1.0
 10
29.57344808844786
 20
227.7690691404287
 30
0.0
 10
29.57128753113462
 20
227.7671609256308
 30
0.0
 10
29.56448103445556
 20
227.7610853529693
 30
0.0
 10
29.55609647254863
 20
227.7471813761829
 30
0.0
 10
29.54941255700761
 20
227.7314219620095
 30
0.0
 10
29.54639501599152
 20
227.7188754371157
 30
0.0
 10
29.54525282553434
 20
227.7109874118417
 30
0.0
 10
29.54469585209802
 20
227.7053046210557
 30
0.0
 10
29.54402292625108
 20
227.6947973906959
 30
0.0
 10
29.54353544800672
 20
227.6764097756116
 30
0.0
 10
29.54309951397578
 20
227.6455826750604
 30
0.0
 10
29.54305170551402
 20
227.6279784378002
 30
0.0
 10
29.54303531155572
 20
227.621510731587
 30
0.0
  0
LINE
  5
471
330
445
100
AcDbEntity
  8
03634L31_KAPPE__
  6
Continuous
 62
     7
100
AcDbLine
 10
52.4833370435
 20
165.3
 30
0.0
 11
8.4833370435
 21
165.3
 31
0.0
  0
LINE
  5
472
330
445
100
AcDbEntity
  8
03634L31_KAPPE__
  6
Continuous
 62
     7
100
AcDbLine
 10
11.4833370435
 20
159.3
 30
0.0
 11
49.4833370435
 21
159.3
 31
0.0
  0
LINE
  5
473
330
445
100
AcDbEntity
  8
03634L31_KAPPE__
  6
Continuous
 62
     7
100
AcDbLine
 10
8.4833370435
 20
165.3
 30
0.0
 11
8.4833370435
 21
162.3
 31
0.0
  0
LINE
  5
474
330
445
100
AcDbEntity
  8
03634L31_KAPPE__
  6
Continuous
 62
     7
100
AcDbLine
 10
52.4833370435
 20
162.3
 30
0.0
 11
52.4833370435
 21
165.3
 31
0.0
  0
ARC
  5
475
330
445
100
AcDbEntity
  8
03634L31_KAPPE__
  6
Continuous
 62
     7
100
AcDbCircle
 10
49.4833370435
 20
162.3
 30
0.0
 40
2.999999999999989
100
AcDbArc
 50
270.0
 51
0.0
  0
ARC
  5
476
330
445
100
AcDbEntity
  8
03634L31_KAPPE__
  6
Continuous
 62
     7
100
AcDbCircle
 10
11.4833370435
 20
162.3
 30
0.0
 40
2.999999999999999
100
AcDbArc
 50
180.0
 51
270.0
  0
LINE
  5
477
330
445
100
AcDbEntity
  8
03705L38_HÜLSE_R
  6
Continuous
 62
     7
100
AcDbLine
 10
8.9833370435
 20
159.3
 30
0.0
 11
11.4833370435
 21
159.3
 31
0.0
  0
LINE
  5
478
330
445
100
AcDbEntity
  8
03705L38_HÜLSE_R
  6
Continuous
 62
     7
100
AcDbLine
 10
49.4833370435
 20
159.3
 30
0.0
 11
51.9833370435
 21
159.3
 31
0.0
  0
LINE
  5
479
330
445
100
AcDbEntity
  8
03705L38_HÜLSE_R
  6
Continuous
 62
     7
100
AcDbLine
 10
52.4833370435
 20
159.8
 30
0.0
 11
52.4833370435
 21
162.3
 31
0.0
  0
LINE
  5
47A
330
445
100
AcDbEntity
  8
03705L38_HÜLSE_R
  6
Continuous
 62
     7
100
AcDbLine
 10
8.4833370435
 20
162.3
 30
0.0
 11
8.4833370435
 21
159.8
 31
0.0
  0
ARC
  5
47B
330
445
100
AcDbEntity
  8
03705L38_HÜLSE_R
  6
Continuous
 62
     7
100
AcDbCircle
 10
51.9833370435
 20
159.8
 30
0.0
 40
0.5000000000000004
100
AcDbArc
 50
270.0
 51
0.0
  0
ARC
  5
47C
330
445
100
AcDbEntity
  8
03705L38_HÜLSE_R
  6
Continuous
 62
     7
100
AcDbCircle
 10
8.9833370435
 20
159.8
 30
0.0
 40
0.5000000000000004
100
AcDbArc
 50
180.0
 51
270.0
  0
LINE
  5
47E
330
445
100
AcDbEntity
  8
03703031_FEDERTE
  6
Continuous
 62
     7
100
AcDbLine
 10
22.4833370435
 20
152.55
 30
0.0
 11
22.4833370435
 21
147.5739086075
 31
0.0
  0
LINE
  5
47F
330
445
100
AcDbEntity
  8
09712038_KAPPE
  6
Continuous
 62
     7
100
AcDbLine
 10
8.4833370435
 20
159.05
 30
0.0
 11
52.4833370435
 21
159.05
 31
0.0
  0
LINE
  5
480
330
445
100
AcDbEntity
  8
09712038_KAPPE
  6
Continuous
 62
     7
100
AcDbLine
 10
21.5223576846
 20
122.0786774126
 30
0.0
 11
21.550018057
 21
118.9091126833
 31
0.0
  0
LINE
  5
481
330
445
100
AcDbEntity
  8
09712038_KAPPE
  6
Continuous
 62
     7
100
AcDbLine
 10
21.5223576846
 20
122.0786774126
 30
0.0
 11
21.5203912337
 21
122.1271404473
 31
0.0
  0
ARC
  5
482
330
445
100
AcDbEntity
  8
09712038_KAPPE
  6
Continuous
 62
     7
100
AcDbCircle
 10
39.7803355541
 20
122.1202257737
 30
0.0
 40
0.3369793662055972
100
AcDbArc
 50
148.5510030523
 51
153.0603089375
  0
ARC
  5
483
330
445
100
AcDbEntity
  8
09712038_KAPPE
  6
Continuous
 62
     7
100
AcDbCircle
 10
21.1863385331
 20
122.1202257738
 30
0.0
 40
0.3369793661571721
100
AcDbArc
 50
26.9396910621
 51
31.448996948
  0
ARC
  5
484
330
445
100
AcDbEntity
  8
09712038_KAPPE
  6
Continuous
 62
     7
100
AcDbCircle
 10
21.0942538206
 20
122.1055398108
 30
0.0
 40
0.4266863045740408
100
AcDbArc
 50
2.9008849391
 51
23.092758399
  0
LINE
  5
485
330
445
100
AcDbEntity
  8
09712038_KAPPE
  6
Continuous
 62
     7
100
AcDbLine
 10
39.4462828536
 20
122.1271404492
 30
0.0
 11
39.4443164025
 21
122.0786774126
 31
0.0
  0
ARC
  5
486
330
445
100
AcDbEntity
  8
09712038_KAPPE
  6
Continuous
 62
     7
100
AcDbCircle
 10
39.8732735528
 20
122.1053428641
 30
0.0
 40
0.4275484922175802
100
AcDbArc
 50
156.9278136314
 51
177.0785429336
  0
LINE
  5
487
330
445
100
AcDbEntity
  8
09712038_KAPPE
  6
Continuous
 62
     7
100
AcDbLine
 10
44.0948041425
 20
106.55
 30
0.0
 11
41.8307120532
 21
106.55
 31
0.0
  0
LINE
  5
488
330
445
100
AcDbEntity
  8
09712038_KAPPE
  6
Continuous
 62
     7
100
AcDbLine
 10
44.0948041425
 20
106.55
 30
0.0
 11
49.546898458
 21
106.55
 31
0.0
  0
LINE
  5
489
330
445
100
AcDbEntity
  8
09712038_KAPPE
  6
Continuous
 62
     7
100
AcDbLine
 10
11.419775629
 20
106.55
 30
0.0
 11
16.8718699446
 21
106.55
 31
0.0
  0
LINE
  5
48A
330
445
100
AcDbEntity
  8
09712038_KAPPE
  6
Continuous
 62
     7
100
AcDbLine
 10
19.1359620339
 20
106.55
 30
0.0
 11
16.8718699446
 21
106.55
 31
0.0
  0
ARC
  5
48B
330
445
100
AcDbEntity
  8
09712038_KAPPE
  6
Continuous
 62
     7
100
AcDbCircle
 10
19.1359620339
 20
109.05
 30
0.0
 40
2.500000000001683
100
AcDbArc
 50
359.5
 51
0.5
  0
ARC
  5
48C
330
445
100
AcDbEntity
  8
09712038_KAPPE
  6
Continuous
 62
     7
100
AcDbCircle
 10
19.1359620339
 20
109.05
 30
0.0
 40
2.5
100
AcDbArc
 50
270.0
 51
359.5
  0
ARC
  5
48D
330
445
100
AcDbEntity
  8
09712038_KAPPE
  6
Continuous
 62
     7
100
AcDbCircle
 10
41.8307120532
 20
109.05
 30
0.0
 40
2.500000000001683
100
AcDbArc
 50
179.5
 51
180.5
  0
ARC
  5
48E
330
445
100
AcDbEntity
  8
09712038_KAPPE
  6
Continuous
 62
     7
100
AcDbCircle
 10
41.8307120532
 20
109.05
 30
0.0
 40
2.500000000000002
100
AcDbArc
 50
180.5
 51
270.0
  0
LINE
  5
48F
330
445
100
AcDbEntity
  8
09712038_KAPPE
  6
Continuous
 62
     7
100
AcDbLine
 10
21.550018057
 20
118.9091126833
 30
0.0
 11
21.6358668416
 21
109.0718163387
 31
0.0
  0
LINE
  5
490
330
445
100
AcDbEntity
  8
09712038_KAPPE
  6
Continuous
 62
     7
100
AcDbLine
 10
39.4166560301
 20
118.9091126833
 30
0.0
 11
39.4443164025
 21
122.0786774126
 31
0.0
  0
LINE
  5
491
330
445
100
AcDbEntity
  8
09712038_KAPPE
  6
Continuous
 62
     7
100
AcDbLine
 10
39.3308072455
 20
109.0718163387
 30
0.0
 11
39.4166560301
 21
118.9091126833
 31
0.0
  0
ARC
  5
492
330
445
100
AcDbEntity
  8
09712038_KAPPE
  6
Continuous
 62
     7
100
AcDbCircle
 10
33.7422512129
 20
138.0784363604
 30
0.0
 40
11.04113171592541
100
AcDbArc
 50
80.8739732652
 51
81.6040101183
  0
ARC
  5
493
330
445
100
AcDbEntity
  8
09712038_KAPPE
  6
Continuous
 62
     7
100
AcDbCircle
 10
27.2243157831
 20
138.0785561151
 30
0.0
 40
11.04099760822674
100
AcDbArc
 50
98.395530843
 51
99.0440799776
  0
ARC
  5
494
330
445
100
AcDbEntity
  8
09712038_KAPPE
  6
Continuous
 62
     7
100
AcDbCircle
 10
30.4833370435
 20
126.243535975
 30
0.0
 40
23.27316523341797
100
AcDbArc
 50
77.9186709978
 51
102.0813290022
  0
LINE
  5
495
330
445
100
AcDbEntity
  8
09712038_KAPPE
  6
Continuous
 62
     7
100
AcDbLine
 10
42.5118470733
 20
106.35
 30
0.0
 11
42.6310154138
 21
106.35
 31
0.0
  0
LINE
  5
496
330
445
100
AcDbEntity
  8
09712038_KAPPE
  6
Continuous
 62
     7
100
AcDbLine
 10
45.0801282971
 20
106.35
 30
0.0
 11
45.1876275224
 21
106.35
 31
0.0
  0
LINE
  5
497
330
445
100
AcDbEntity
  8
09712038_KAPPE
  6
Continuous
 62
     7
100
AcDbLine
 10
42.626554138
 20
106.35
 30
0.0
 11
42.626554138
 21
106.55
 31
0.0
  0
LINE
  5
498
330
445
100
AcDbEntity
  8
09712038_KAPPE
  6
Continuous
 62
     7
100
AcDbLine
 10
42.6265829174
 20
106.35
 30
0.0
 11
42.6265829174
 21
106.55
 31
0.0
  0
LINE
  5
499
330
445
100
AcDbEntity
  8
09712038_KAPPE
  6
Continuous
 62
     7
100
AcDbLine
 10
42.6265644774
 20
106.35
 30
0.0
 11
42.626554138
 21
106.35
 31
0.0
  0
LINE
  5
49A
330
445
100
AcDbEntity
  8
09712038_KAPPE
  6
Continuous
 62
     7
100
AcDbLine
 10
42.6266046234
 20
106.35
 30
0.0
 11
42.626593322
 21
106.35
 31
0.0
  0
LINE
  5
49B
330
445
100
AcDbEntity
  8
09712038_KAPPE
  6
Continuous
 62
     7
100
AcDbLine
 10
42.626593322
 20
106.35
 30
0.0
 11
42.6265829174
 21
106.35
 31
0.0
  0
LINE
  5
49C
330
445
100
AcDbEntity
  8
09712038_KAPPE
  6
Continuous
 62
     7
100
AcDbLine
 10
42.6266046234
 20
106.35
 30
0.0
 11
42.6266046234
 21
106.55
 31
0.0
  0
LINE
  5
49D
330
445
100
AcDbEntity
  8
09712038_KAPPE
  6
Continuous
 62
     7
100
AcDbLine
 10
42.6266046234
 20
106.35
 30
0.0
 11
42.6266319328
 21
106.35
 31
0.0
  0
LINE
  5
49E
330
445
100
AcDbEntity
  8
09712038_KAPPE
  6
Continuous
 62
     7
100
AcDbLine
 10
42.6266319328
 20
106.35
 30
0.0
 11
42.6266319328
 21
106.55
 31
0.0
  0
LINE
  5
49F
330
445
100
AcDbEntity
  8
09712038_KAPPE
  6
Continuous
 62
     7
100
AcDbLine
 10
42.6266319328
 20
106.35
 30
0.0
 11
43.0957183491
 21
106.35
 31
0.0
  0
LINE
  5
4A0
330
445
100
AcDbEntity
  8
09712038_KAPPE
  6
Continuous
 62
     7
100
AcDbLine
 10
43.0957183491
 20
106.35
 30
0.0
 11
43.0957183491
 21
106.55
 31
0.0
  0
LINE
  5
4A1
330
445
100
AcDbEntity
  8
09712038_KAPPE
  6
Continuous
 62
     7
100
AcDbLine
 10
43.0957183491
 20
106.35
 30
0.0
 11
43.5538833618
 21
106.35
 31
0.0
  0
LINE
  5
4A2
330
445
100
AcDbEntity
  8
09712038_KAPPE
  6
Continuous
 62
     7
100
AcDbLine
 10
43.5538833618
 20
106.35
 30
0.0
 11
43.5538833618
 21
106.55
 31
0.0
  0
LINE
  5
4A3
330
445
100
AcDbEntity
  8
09712038_KAPPE
  6
Continuous
 62
     7
100
AcDbLine
 10
43.5538833618
 20
106.35
 30
0.0
 11
43.5538976008
 21
106.35
 31
0.0
  0
LINE
  5
4A4
330
445
100
AcDbEntity
  8
09712038_KAPPE
  6
Continuous
 62
     7
100
AcDbLine
 10
43.5538976008
 20
106.35
 30
0.0
 11
43.5538976008
 21
106.55
 31
0.0
  0
LINE
  5
4A5
330
445
100
AcDbEntity
  8
09712038_KAPPE
  6
Continuous
 62
     7
100
AcDbLine
 10
43.5538976008
 20
106.35
 30
0.0
 11
44.0080923848
 21
106.35
 31
0.0
  0
LINE
  5
4A6
330
445
100
AcDbEntity
  8
09712038_KAPPE
  6
Continuous
 62
     7
100
AcDbLine
 10
44.0080923848
 20
106.35
 30
0.0
 11
44.0080923848
 21
106.55
 31
0.0
  0
LINE
  5
4A7
330
445
100
AcDbEntity
  8
09712038_KAPPE
  6
Continuous
 62
     7
100
AcDbLine
 10
44.0080923848
 20
106.35
 30
0.0
 11
44.6111892525
 21
106.35
 31
0.0
  0
LINE
  5
4A8
330
445
100
AcDbEntity
  8
09712038_KAPPE
  6
Continuous
 62
     7
100
AcDbLine
 10
44.6111892525
 20
106.35
 30
0.0
 11
44.6111892525
 21
106.55
 31
0.0
  0
LINE
  5
4A9
330
445
100
AcDbEntity
  8
09712038_KAPPE
  6
Continuous
 62
     7
100
AcDbLine
 10
44.6111892525
 20
106.35
 30
0.0
 11
44.6112088927
 21
106.35
 31
0.0
  0
LINE
  5
4AA
330
445
100
AcDbEntity
  8
09712038_KAPPE
  6
Continuous
 62
     7
100
AcDbLine
 10
44.6112088927
 20
106.35
 30
0.0
 11
44.6112088927
 21
106.55
 31
0.0
  0
LINE
  5
4AB
330
445
100
AcDbEntity
  8
09712038_KAPPE
  6
Continuous
 62
     7
100
AcDbLine
 10
44.6112088927
 20
106.35
 30
0.0
 11
45.080295309
 21
106.35
 31
0.0
  0
LINE
  5
4AC
330
445
100
AcDbEntity
  8
09712038_KAPPE
  6
Continuous
 62
     7
100
AcDbLine
 10
45.080295309
 20
106.35
 30
0.0
 11
45.080295309
 21
106.55
 31
0.0
  0
LINE
  5
4AD
330
445
100
AcDbEntity
  8
09712038_KAPPE
  6
Continuous
 62
     7
100
AcDbLine
 10
45.5963500915
 20
106.35
 30
0.0
 11
45.5963500915
 21
106.55
 31
0.0
  0
LINE
  5
4AE
330
445
100
AcDbEntity
  8
09712038_KAPPE
  6
Continuous
 62
     7
100
AcDbLine
 10
45.5963500915
 20
106.35
 30
0.0
 11
45.6050102876
 21
106.35
 31
0.0
  0
LINE
  5
4AF
330
445
100
AcDbEntity
  8
09712038_KAPPE
  6
Continuous
 62
     7
100
AcDbLine
 10
45.6050102876
 20
106.35
 30
0.0
 11
45.6050102876
 21
106.55
 31
0.0
  0
LINE
  5
4B0
330
445
100
AcDbEntity
  8
09712038_KAPPE
  6
Continuous
 62
     7
100
AcDbLine
 10
45.6050102876
 20
106.35
 30
0.0
 11
45.629550919
 21
106.35
 31
0.0
  0
LINE
  5
4B1
330
445
100
AcDbEntity
  8
09712038_KAPPE
  6
Continuous
 62
     7
100
AcDbLine
 10
45.629550919
 20
106.35
 30
0.0
 11
45.629550919
 21
106.55
 31
0.0
  0
LINE
  5
4B2
330
445
100
AcDbEntity
  8
09712038_KAPPE
  6
Continuous
 62
     7
100
AcDbLine
 10
45.629550919
 20
106.35
 30
0.0
 11
45.6675337677
 21
106.35
 31
0.0
  0
LINE
  5
4B3
330
445
100
AcDbEntity
  8
09712038_KAPPE
  6
Continuous
 62
     7
100
AcDbLine
 10
45.6675337677
 20
106.35
 30
0.0
 11
45.6675337677
 21
106.55
 31
0.0
  0
LINE
  5
4B4
330
445
100
AcDbEntity
  8
09712038_KAPPE
  6
Continuous
 62
     7
100
AcDbLine
 10
45.6675337677
 20
106.35
 30
0.0
 11
45.7165206161
 21
106.35
 31
0.0
  0
LINE
  5
4B5
330
445
100
AcDbEntity
  8
09712038_KAPPE
  6
Continuous
 62
     7
100
AcDbLine
 10
45.7165206161
 20
106.35
 30
0.0
 11
45.7165206161
 21
106.55
 31
0.0
  0
LINE
  5
4B6
330
445
100
AcDbEntity
  8
09712038_KAPPE
  6
Continuous
 62
     7
100
AcDbLine
 10
45.7165206161
 20
106.35
 30
0.0
 11
45.7740732462
 21
106.35
 31
0.0
  0
LINE
  5
4B7
330
445
100
AcDbEntity
  8
09712038_KAPPE
  6
Continuous
 62
     7
100
AcDbLine
 10
45.7740732462
 20
106.35
 30
0.0
 11
45.7740732462
 21
106.55
 31
0.0
  0
LINE
  5
4B8
330
445
100
AcDbEntity
  8
09712038_KAPPE
  6
Continuous
 62
     7
100
AcDbLine
 10
45.7740732462
 20
106.35
 30
0.0
 11
45.8824070469
 21
106.35
 31
0.0
  0
LINE
  5
4B9
330
445
100
AcDbEntity
  8
09712038_KAPPE
  6
Continuous
 62
     7
100
AcDbLine
 10
45.8824070469
 20
106.35
 30
0.0
 11
45.8824070469
 21
106.55
 31
0.0
  0
LINE
  5
4BA
330
445
100
AcDbEntity
  8
09712038_KAPPE
  6
Continuous
 62
     7
100
AcDbLine
 10
45.8824070469
 20
106.35
 30
0.0
 11
45.9964738131
 21
106.35
 31
0.0
  0
LINE
  5
4BB
330
445
100
AcDbEntity
  8
09712038_KAPPE
  6
Continuous
 62
     7
100
AcDbLine
 10
45.9964738131
 20
106.35
 30
0.0
 11
45.9964738131
 21
106.55
 31
0.0
  0
LINE
  5
4BC
330
445
100
AcDbEntity
  8
09712038_KAPPE
  6
Continuous
 62
     7
100
AcDbLine
 10
45.9964738131
 20
106.35
 30
0.0
 11
46.1049854992
 21
106.35
 31
0.0
  0
LINE
  5
4BD
330
445
100
AcDbEntity
  8
09712038_KAPPE
  6
Continuous
 62
     7
100
AcDbLine
 10
46.1049854992
 20
106.35
 30
0.0
 11
46.1049854992
 21
106.55
 31
0.0
  0
LINE
  5
4BE
330
445
100
AcDbEntity
  8
09712038_KAPPE
  6
Continuous
 62
     7
100
AcDbLine
 10
46.1049854992
 20
106.35
 30
0.0
 11
46.1627302455
 21
106.35
 31
0.0
  0
LINE
  5
4BF
330
445
100
AcDbEntity
  8
09712038_KAPPE
  6
Continuous
 62
     7
100
AcDbLine
 10
46.1627302455
 20
106.35
 30
0.0
 11
46.1627302455
 21
106.55
 31
0.0
  0
LINE
  5
4C0
330
445
100
AcDbEntity
  8
09712038_KAPPE
  6
Continuous
 62
     7
100
AcDbLine
 10
46.1627302455
 20
106.35
 30
0.0
 11
46.2119732488
 21
106.35
 31
0.0
  0
LINE
  5
4C1
330
445
100
AcDbEntity
  8
09712038_KAPPE
  6
Continuous
 62
     7
100
AcDbLine
 10
46.2119732488
 20
106.35
 30
0.0
 11
46.2119732488
 21
106.55
 31
0.0
  0
LINE
  5
4C2
330
445
100
AcDbEntity
  8
09712038_KAPPE
  6
Continuous
 62
     7
100
AcDbLine
 10
46.2119732488
 20
106.35
 30
0.0
 11
46.2436540115
 21
106.35
 31
0.0
  0
LINE
  5
4C3
330
445
100
AcDbEntity
  8
09712038_KAPPE
  6
Continuous
 62
     7
100
AcDbLine
 10
46.2436540115
 20
106.35
 30
0.0
 11
46.2436540115
 21
106.55
 31
0.0
  0
LINE
  5
4C4
330
445
100
AcDbEntity
  8
09712038_KAPPE
  6
Continuous
 62
     7
100
AcDbLine
 10
46.2436540115
 20
106.35
 30
0.0
 11
46.3138352894
 21
106.35
 31
0.0
  0
LINE
  5
4C5
330
445
100
AcDbEntity
  8
09712038_KAPPE
  6
Continuous
 62
     7
100
AcDbLine
 10
46.3138352894
 20
106.35
 30
0.0
 11
46.3138352894
 21
106.55
 31
0.0
  0
LINE
  5
4C6
330
445
100
AcDbEntity
  8
09712038_KAPPE
  6
Continuous
 62
     7
100
AcDbLine
 10
46.3138352894
 20
106.35
 30
0.0
 11
46.3821395322
 21
106.35
 31
0.0
  0
LINE
  5
4C7
330
445
100
AcDbEntity
  8
09712038_KAPPE
  6
Continuous
 62
     7
100
AcDbLine
 10
46.3821395322
 20
106.35
 30
0.0
 11
46.3821395322
 21
106.55
 31
0.0
  0
LINE
  5
4C8
330
445
100
AcDbEntity
  8
09712038_KAPPE
  6
Continuous
 62
     7
100
AcDbLine
 10
46.3821395322
 20
106.35
 30
0.0
 11
46.4483509008
 21
106.35
 31
0.0
  0
LINE
  5
4C9
330
445
100
AcDbEntity
  8
09712038_KAPPE
  6
Continuous
 62
     7
100
AcDbLine
 10
46.4483509008
 20
106.35
 30
0.0
 11
46.4483509008
 21
106.55
 31
0.0
  0
LINE
  5
4CA
330
445
100
AcDbEntity
  8
09712038_KAPPE
  6
Continuous
 62
     7
100
AcDbLine
 10
46.4483509008
 20
106.35
 30
0.0
 11
46.496513252
 21
106.35
 31
0.0
  0
LINE
  5
4CB
330
445
100
AcDbEntity
  8
09712038_KAPPE
  6
Continuous
 62
     7
100
AcDbLine
 10
46.496513252
 20
106.35
 30
0.0
 11
46.496513252
 21
106.55
 31
0.0
  0
LINE
  5
4CC
330
445
100
AcDbEntity
  8
09712038_KAPPE
  6
Continuous
 62
     7
100
AcDbLine
 10
46.496513252
 20
106.35
 30
0.0
 11
46.5433034857
 21
106.35
 31
0.0
  0
LINE
  5
4CD
330
445
100
AcDbEntity
  8
09712038_KAPPE
  6
Continuous
 62
     7
100
AcDbLine
 10
46.5433034857
 20
106.35
 30
0.0
 11
46.5433034857
 21
106.55
 31
0.0
  0
LINE
  5
4CE
330
445
100
AcDbEntity
  8
09712038_KAPPE
  6
Continuous
 62
     7
100
AcDbLine
 10
46.5433034857
 20
106.35
 30
0.0
 11
46.5510687521
 21
106.35
 31
0.0
  0
LINE
  5
4CF
330
445
100
AcDbEntity
  8
09712038_KAPPE
  6
Continuous
 62
     7
100
AcDbLine
 10
46.5510687521
 20
106.35
 30
0.0
 11
46.5510687521
 21
106.55
 31
0.0
  0
LINE
  5
4D0
330
445
100
AcDbEntity
  8
09712038_KAPPE
  6
Continuous
 62
     7
100
AcDbLine
 10
46.5510687521
 20
106.35
 30
0.0
 11
46.5558046737
 21
106.35
 31
0.0
  0
LINE
  5
4D1
330
445
100
AcDbEntity
  8
09712038_KAPPE
  6
Continuous
 62
     7
100
AcDbLine
 10
46.5558046737
 20
106.35
 30
0.0
 11
46.5558046737
 21
106.55
 31
0.0
  0
LINE
  5
4D2
330
445
100
AcDbEntity
  8
09712038_KAPPE
  6
Continuous
 62
     7
100
AcDbLine
 10
46.5558046737
 20
106.35
 30
0.0
 11
46.5573150532
 21
106.35
 31
0.0
  0
LINE
  5
4D3
330
445
100
AcDbEntity
  8
09712038_KAPPE
  6
Continuous
 62
     7
100
AcDbLine
 10
46.5573150532
 20
106.35
 30
0.0
 11
46.5573150532
 21
106.55
 31
0.0
  0
LINE
  5
4D4
330
445
100
AcDbEntity
  8
09712038_KAPPE
  6
Continuous
 62
     7
100
AcDbLine
 10
45.596251171
 20
106.35
 30
0.0
 11
45.596251171
 21
106.55
 31
0.0
  0
LINE
  5
4D5
330
445
100
AcDbEntity
  8
09712038_KAPPE
  6
Continuous
 62
     7
100
AcDbLine
 10
45.596251171
 20
106.35
 30
0.0
 11
45.5963500915
 21
106.35
 31
0.0
  0
LINE
  5
4D6
330
445
100
AcDbEntity
  8
09712038_KAPPE
  6
Continuous
 62
     7
100
AcDbLine
 10
47.5073243332
 20
106.35
 30
0.0
 11
47.5073243332
 21
106.55
 31
0.0
  0
LINE
  5
4D7
330
445
100
AcDbEntity
  8
09712038_KAPPE
  6
Continuous
 62
     7
100
AcDbLine
 10
47.4815523737
 20
106.35
 30
0.0
 11
47.4815523737
 21
106.55
 31
0.0
  0
LINE
  5
4D8
330
445
100
AcDbEntity
  8
09712038_KAPPE
  6
Continuous
 62
     7
100
AcDbLine
 10
47.4427173059
 20
106.35
 30
0.0
 11
47.4427173059
 21
106.55
 31
0.0
  0
LINE
  5
4D9
330
445
100
AcDbEntity
  8
09712038_KAPPE
  6
Continuous
 62
     7
100
AcDbLine
 10
47.3932147634
 20
106.35
 30
0.0
 11
47.3932147634
 21
106.55
 31
0.0
  0
LINE
  5
4DA
330
445
100
AcDbEntity
  8
09712038_KAPPE
  6
Continuous
 62
     7
100
AcDbLine
 10
47.3837028565
 20
106.35
 30
0.0
 11
47.3837028565
 21
106.55
 31
0.0
  0
LINE
  5
4DB
330
445
100
AcDbEntity
  8
09712038_KAPPE
  6
Continuous
 62
     7
100
AcDbLine
 10
47.3179577868
 20
106.35
 30
0.0
 11
47.3179577868
 21
106.55
 31
0.0
  0
LINE
  5
4DC
330
445
100
AcDbEntity
  8
09712038_KAPPE
  6
Continuous
 62
     7
100
AcDbLine
 10
47.247277231
 20
106.35
 30
0.0
 11
47.247277231
 21
106.55
 31
0.0
  0
LINE
  5
4DD
330
445
100
AcDbEntity
  8
09712038_KAPPE
  6
Continuous
 62
     7
100
AcDbLine
 10
47.2102008335
 20
106.35
 30
0.0
 11
47.2102008335
 21
106.55
 31
0.0
  0
LINE
  5
4DE
330
445
100
AcDbEntity
  8
09712038_KAPPE
  6
Continuous
 62
     7
100
AcDbLine
 10
47.1720342993
 20
106.35
 30
0.0
 11
47.1720342993
 21
106.55
 31
0.0
  0
LINE
  5
4DF
330
445
100
AcDbEntity
  8
09712038_KAPPE
  6
Continuous
 62
     7
100
AcDbLine
 10
46.7251857769
 20
106.35
 30
0.0
 11
46.7251857769
 21
106.55
 31
0.0
  0
LINE
  5
4E0
330
445
100
AcDbEntity
  8
09712038_KAPPE
  6
Continuous
 62
     7
100
AcDbLine
 10
46.6790390065
 20
106.35
 30
0.0
 11
46.6790390065
 21
106.55
 31
0.0
  0
LINE
  5
4E1
330
445
100
AcDbEntity
  8
09712038_KAPPE
  6
Continuous
 62
     7
100
AcDbLine
 10
46.6384177596
 20
106.35
 30
0.0
 11
46.6384177596
 21
106.55
 31
0.0
  0
LINE
  5
4E2
330
445
100
AcDbEntity
  8
09712038_KAPPE
  6
Continuous
 62
     7
100
AcDbLine
 10
46.6150405493
 20
106.35
 30
0.0
 11
46.6150405493
 21
106.55
 31
0.0
  0
LINE
  5
4E3
330
445
100
AcDbEntity
  8
09712038_KAPPE
  6
Continuous
 62
     7
100
AcDbLine
 10
46.5950699555
 20
106.35
 30
0.0
 11
46.5950699555
 21
106.55
 31
0.0
  0
LINE
  5
4E4
330
445
100
AcDbEntity
  8
09712038_KAPPE
  6
Continuous
 62
     7
100
AcDbLine
 10
46.5788863096
 20
106.35
 30
0.0
 11
46.5788863096
 21
106.55
 31
0.0
  0
LINE
  5
4E5
330
445
100
AcDbEntity
  8
09712038_KAPPE
  6
Continuous
 62
     7
100
AcDbLine
 10
46.5668699429
 20
106.35
 30
0.0
 11
46.5668699429
 21
106.55
 31
0.0
  0
LINE
  5
4E6
330
445
100
AcDbEntity
  8
09712038_KAPPE
  6
Continuous
 62
     7
100
AcDbLine
 10
46.5594011868
 20
106.35
 30
0.0
 11
46.5594011868
 21
106.55
 31
0.0
  0
LINE
  5
4E7
330
445
100
AcDbEntity
  8
09712038_KAPPE
  6
Continuous
 62
     7
100
AcDbLine
 10
47.5173706535
 20
106.35
 30
0.0
 11
47.5073243332
 21
106.35
 31
0.0
  0
LINE
  5
4E8
330
445
100
AcDbEntity
  8
09712038_KAPPE
  6
Continuous
 62
     7
100
AcDbLine
 10
47.5073243332
 20
106.35
 30
0.0
 11
47.4815523737
 21
106.35
 31
0.0
  0
LINE
  5
4E9
330
445
100
AcDbEntity
  8
09712038_KAPPE
  6
Continuous
 62
     7
100
AcDbLine
 10
47.4815523737
 20
106.35
 30
0.0
 11
47.4427173059
 21
106.35
 31
0.0
  0
LINE
  5
4EA
330
445
100
AcDbEntity
  8
09712038_KAPPE
  6
Continuous
 62
     7
100
AcDbLine
 10
47.4427173059
 20
106.35
 30
0.0
 11
47.3932147634
 21
106.35
 31
0.0
  0
LINE
  5
4EB
330
445
100
AcDbEntity
  8
09712038_KAPPE
  6
Continuous
 62
     7
100
AcDbLine
 10
47.3932147634
 20
106.35
 30
0.0
 11
47.3837028565
 21
106.35
 31
0.0
  0
LINE
  5
4EC
330
445
100
AcDbEntity
  8
09712038_KAPPE
  6
Continuous
 62
     7
100
AcDbLine
 10
47.3837028565
 20
106.35
 30
0.0
 11
47.3179577868
 21
106.35
 31
0.0
  0
LINE
  5
4ED
330
445
100
AcDbEntity
  8
09712038_KAPPE
  6
Continuous
 62
     7
100
AcDbLine
 10
47.3179577868
 20
106.35
 30
0.0
 11
47.247277231
 21
106.35
 31
0.0
  0
LINE
  5
4EE
330
445
100
AcDbEntity
  8
09712038_KAPPE
  6
Continuous
 62
     7
100
AcDbLine
 10
47.247277231
 20
106.35
 30
0.0
 11
47.2102008335
 21
106.35
 31
0.0
  0
LINE
  5
4EF
330
445
100
AcDbEntity
  8
09712038_KAPPE
  6
Continuous
 62
     7
100
AcDbLine
 10
47.2102008335
 20
106.35
 30
0.0
 11
47.1720342993
 21
106.35
 31
0.0
  0
LINE
  5
4F0
330
445
100
AcDbEntity
  8
09712038_KAPPE
  6
Continuous
 62
     7
100
AcDbLine
 10
47.1720342993
 20
106.35
 30
0.0
 11
46.7251857769
 21
106.35
 31
0.0
  0
LINE
  5
4F1
330
445
100
AcDbEntity
  8
09712038_KAPPE
  6
Continuous
 62
     7
100
AcDbLine
 10
46.7251857769
 20
106.35
 30
0.0
 11
46.6790390065
 21
106.35
 31
0.0
  0
LINE
  5
4F2
330
445
100
AcDbEntity
  8
09712038_KAPPE
  6
Continuous
 62
     7
100
AcDbLine
 10
46.6790390065
 20
106.35
 30
0.0
 11
46.6384177596
 21
106.35
 31
0.0
  0
LINE
  5
4F3
330
445
100
AcDbEntity
  8
09712038_KAPPE
  6
Continuous
 62
     7
100
AcDbLine
 10
46.6384177596
 20
106.35
 30
0.0
 11
46.6150405493
 21
106.35
 31
0.0
  0
LINE
  5
4F4
330
445
100
AcDbEntity
  8
09712038_KAPPE
  6
Continuous
 62
     7
100
AcDbLine
 10
46.6150405493
 20
106.35
 30
0.0
 11
46.5950699555
 21
106.35
 31
0.0
  0
LINE
  5
4F5
330
445
100
AcDbEntity
  8
09712038_KAPPE
  6
Continuous
 62
     7
100
AcDbLine
 10
46.5950699555
 20
106.35
 30
0.0
 11
46.5788863096
 21
106.35
 31
0.0
  0
LINE
  5
4F6
330
445
100
AcDbEntity
  8
09712038_KAPPE
  6
Continuous
 62
     7
100
AcDbLine
 10
46.5788863096
 20
106.35
 30
0.0
 11
46.5668699429
 21
106.35
 31
0.0
  0
LINE
  5
4F7
330
445
100
AcDbEntity
  8
09712038_KAPPE
  6
Continuous
 62
     7
100
AcDbLine
 10
46.5668699429
 20
106.35
 30
0.0
 11
46.5594011868
 21
106.35
 31
0.0
  0
LINE
  5
4F8
330
445
100
AcDbEntity
  8
09712038_KAPPE
  6
Continuous
 62
     7
100
AcDbLine
 10
46.5594011868
 20
106.35
 30
0.0
 11
46.5573150532
 21
106.35
 31
0.0
  0
LINE
  5
4F9
330
445
100
AcDbEntity
  8
09712038_KAPPE
  6
Continuous
 62
     7
100
AcDbLine
 10
48.4781478319
 20
106.35
 30
0.0
 11
48.4781478319
 21
106.55
 31
0.0
  0
LINE
  5
4FA
330
445
100
AcDbEntity
  8
09712038_KAPPE
  6
Continuous
 62
     7
100
AcDbLine
 10
48.4678346142
 20
106.35
 30
0.0
 11
48.4678346142
 21
106.55
 31
0.0
  0
LINE
  5
4FB
330
445
100
AcDbEntity
  8
09712038_KAPPE
  6
Continuous
 62
     7
100
AcDbLine
 10
48.4420626547
 20
106.35
 30
0.0
 11
48.4420626547
 21
106.55
 31
0.0
  0
LINE
  5
4FC
330
445
100
AcDbEntity
  8
09712038_KAPPE
  6
Continuous
 62
     7
100
AcDbLine
 10
48.4032275869
 20
106.35
 30
0.0
 11
48.4032275869
 21
106.55
 31
0.0
  0
LINE
  5
4FD
330
445
100
AcDbEntity
  8
09712038_KAPPE
  6
Continuous
 62
     7
100
AcDbLine
 10
48.3537250444
 20
106.35
 30
0.0
 11
48.3537250444
 21
106.55
 31
0.0
  0
LINE
  5
4FE
330
445
100
AcDbEntity
  8
09712038_KAPPE
  6
Continuous
 62
     7
100
AcDbLine
 10
48.2959506607
 20
106.35
 30
0.0
 11
48.2959506607
 21
106.55
 31
0.0
  0
LINE
  5
4FF
330
445
100
AcDbEntity
  8
09712038_KAPPE
  6
Continuous
 62
     7
100
AcDbLine
 10
48.1877848107
 20
106.35
 30
0.0
 11
48.1877848107
 21
106.55
 31
0.0
  0
LINE
  5
500
330
445
100
AcDbEntity
  8
09712038_KAPPE
  6
Continuous
 62
     7
100
AcDbLine
 10
48.0743870575
 20
106.35
 30
0.0
 11
48.0743870575
 21
106.55
 31
0.0
  0
LINE
  5
501
330
445
100
AcDbEntity
  8
09712038_KAPPE
  6
Continuous
 62
     7
100
AcDbLine
 10
47.9876495259
 20
106.35
 30
0.0
 11
47.9876495259
 21
106.55
 31
0.0
  0
LINE
  5
502
330
445
100
AcDbEntity
  8
09712038_KAPPE
  6
Continuous
 62
     7
100
AcDbLine
 10
47.8192028815
 20
106.35
 30
0.0
 11
47.8192028815
 21
106.55
 31
0.0
  0
LINE
  5
503
330
445
100
AcDbEntity
  8
09712038_KAPPE
  6
Continuous
 62
     7
100
AcDbLine
 10
47.7423278832
 20
106.35
 30
0.0
 11
47.7423278832
 21
106.55
 31
0.0
  0
LINE
  5
504
330
445
100
AcDbEntity
  8
09712038_KAPPE
  6
Continuous
 62
     7
100
AcDbLine
 10
47.6711398105
 20
106.35
 30
0.0
 11
47.6711398105
 21
106.55
 31
0.0
  0
LINE
  5
505
330
445
100
AcDbEntity
  8
09712038_KAPPE
  6
Continuous
 62
     7
100
AcDbLine
 10
47.6286704707
 20
106.35
 30
0.0
 11
47.6286704707
 21
106.55
 31
0.0
  0
LINE
  5
506
330
445
100
AcDbEntity
  8
09712038_KAPPE
  6
Continuous
 62
     7
100
AcDbLine
 10
47.5914736119
 20
106.35
 30
0.0
 11
47.5914736119
 21
106.55
 31
0.0
  0
LINE
  5
507
330
445
100
AcDbEntity
  8
09712038_KAPPE
  6
Continuous
 62
     7
100
AcDbLine
 10
47.5606472174
 20
106.35
 30
0.0
 11
47.5606472174
 21
106.55
 31
0.0
  0
LINE
  5
508
330
445
100
AcDbEntity
  8
09712038_KAPPE
  6
Continuous
 62
     7
100
AcDbLine
 10
47.5372892705
 20
106.35
 30
0.0
 11
47.5372892705
 21
106.55
 31
0.0
  0
LINE
  5
509
330
445
100
AcDbEntity
  8
09712038_KAPPE
  6
Continuous
 62
     7
100
AcDbLine
 10
47.5224977548
 20
106.35
 30
0.0
 11
47.5224977548
 21
106.55
 31
0.0
  0
LINE
  5
50A
330
445
100
AcDbEntity
  8
09712038_KAPPE
  6
Continuous
 62
     7
100
AcDbLine
 10
47.5173706535
 20
106.35
 30
0.0
 11
47.5173706535
 21
106.55
 31
0.0
  0
LINE
  5
50B
330
445
100
AcDbEntity
  8
09712038_KAPPE
  6
Continuous
 62
     7
100
AcDbLine
 10
48.4781478319
 20
106.35
 30
0.0
 11
48.4678346142
 21
106.35
 31
0.0
  0
LINE
  5
50C
330
445
100
AcDbEntity
  8
09712038_KAPPE
  6
Continuous
 62
     7
100
AcDbLine
 10
48.4678346142
 20
106.35
 30
0.0
 11
48.4420626547
 21
106.35
 31
0.0
  0
LINE
  5
50D
330
445
100
AcDbEntity
  8
09712038_KAPPE
  6
Continuous
 62
     7
100
AcDbLine
 10
48.4420626547
 20
106.35
 30
0.0
 11
48.4032275869
 21
106.35
 31
0.0
  0
LINE
  5
50E
330
445
100
AcDbEntity
  8
09712038_KAPPE
  6
Continuous
 62
     7
100
AcDbLine
 10
48.4032275869
 20
106.35
 30
0.0
 11
48.3537250444
 21
106.35
 31
0.0
  0
LINE
  5
50F
330
445
100
AcDbEntity
  8
09712038_KAPPE
  6
Continuous
 62
     7
100
AcDbLine
 10
48.3537250444
 20
106.35
 30
0.0
 11
48.2959506607
 21
106.35
 31
0.0
  0
LINE
  5
510
330
445
100
AcDbEntity
  8
09712038_KAPPE
  6
Continuous
 62
     7
100
AcDbLine
 10
48.2959506607
 20
106.35
 30
0.0
 11
48.1877848107
 21
106.35
 31
0.0
  0
LINE
  5
511
330
445
100
AcDbEntity
  8
09712038_KAPPE
  6
Continuous
 62
     7
100
AcDbLine
 10
48.1877848107
 20
106.35
 30
0.0
 11
48.0743870575
 21
106.35
 31
0.0
  0
LINE
  5
512
330
445
100
AcDbEntity
  8
09712038_KAPPE
  6
Continuous
 62
     7
100
AcDbLine
 10
48.0743870575
 20
106.35
 30
0.0
 11
47.9876495259
 21
106.35
 31
0.0
  0
LINE
  5
513
330
445
100
AcDbEntity
  8
09712038_KAPPE
  6
Continuous
 62
     7
100
AcDbLine
 10
47.9876495259
 20
106.35
 30
0.0
 11
47.8192028815
 21
106.35
 31
0.0
  0
LINE
  5
514
330
445
100
AcDbEntity
  8
09712038_KAPPE
  6
Continuous
 62
     7
100
AcDbLine
 10
47.8192028815
 20
106.35
 30
0.0
 11
47.7423278832
 21
106.35
 31
0.0
  0
LINE
  5
515
330
445
100
AcDbEntity
  8
09712038_KAPPE
  6
Continuous
 62
     7
100
AcDbLine
 10
47.7423278832
 20
106.35
 30
0.0
 11
47.6711398105
 21
106.35
 31
0.0
  0
LINE
  5
516
330
445
100
AcDbEntity
  8
09712038_KAPPE
  6
Continuous
 62
     7
100
AcDbLine
 10
47.6711398105
 20
106.35
 30
0.0
 11
47.6286704707
 21
106.35
 31
0.0
  0
LINE
  5
517
330
445
100
AcDbEntity
  8
09712038_KAPPE
  6
Continuous
 62
     7
100
AcDbLine
 10
47.6286704707
 20
106.35
 30
0.0
 11
47.5914736119
 21
106.35
 31
0.0
  0
LINE
  5
518
330
445
100
AcDbEntity
  8
09712038_KAPPE
  6
Continuous
 62
     7
100
AcDbLine
 10
47.5914736119
 20
106.35
 30
0.0
 11
47.5606472174
 21
106.35
 31
0.0
  0
LINE
  5
519
330
445
100
AcDbEntity
  8
09712038_KAPPE
  6
Continuous
 62
     7
100
AcDbLine
 10
47.5606472174
 20
106.35
 30
0.0
 11
47.5372892705
 21
106.35
 31
0.0
  0
LINE
  5
51A
330
445
100
AcDbEntity
  8
09712038_KAPPE
  6
Continuous
 62
     7
100
AcDbLine
 10
47.5372892705
 20
106.35
 30
0.0
 11
47.5224977548
 21
106.35
 31
0.0
  0
LINE
  5
51B
330
445
100
AcDbEntity
  8
09712038_KAPPE
  6
Continuous
 62
     7
100
AcDbLine
 10
47.5224977548
 20
106.35
 30
0.0
 11
47.5173706535
 21
106.35
 31
0.0
  0
LINE
  5
51C
330
445
100
AcDbEntity
  8
09712038_KAPPE
  6
Continuous
 62
     7
100
AcDbLine
 10
8.4833370435
 20
159.05
 30
0.0
 11
8.9198708214
 21
109.0281836613
 31
0.0
  0
LINE
  5
51D
330
445
100
AcDbEntity
  8
09712038_KAPPE
  6
Continuous
 62
     7
100
AcDbLine
 10
52.0468032657
 20
109.0281836613
 30
0.0
 11
52.4833370435
 21
159.05
 31
0.0
  0
SPLINE
  5
51E
330
445
100
AcDbEntity
  8
09712038_KAPPE
  6
Continuous
 62
     7
100
AcDbSpline
210
0.0
220
0.0
230
1.0
 70
     8
 71
     3
 72
    80
 73
    76
 74
     0
 42
0.0000000002501066
 43
0.0000000001
 40
0.0
 40
0.0
 40
0.0
 40
0.0
 40
0.0040567273156879
 40
0.0184496389668598
 40
0.0324637245433619
 40
0.0462769314134118
 40
0.0598641521859039
 40
0.0732116101647104
 40
0.0863117663859766
 40
0.0991535835582174
 40
0.1120081277339724
 40
0.1249990881225381
 40
0.1380828402698614
 40
0.1512106019128635
 40
0.1643234274199184
 40
0.1774505616409729
 40
0.1908851862022126
 40
0.204618060492904
 40
0.2186548105423237
 40
0.2329870929616757
 40
0.2475919249035267
 40
0.2624313009985242
 40
0.2774527794507408
 40
0.2925913076937586
 40
0.3077724243482756
 40
0.3228931508326641
 40
0.3378650484224282
 40
0.3525281580464934
 40
0.3671780917282119
 40
0.381878932849738
 40
0.3965628315131632
 40
0.4111608651919094
 40
0.4256205615863918
 40
0.4398971237105098
 40
0.4539554908495144
 40
0.4677717825635054
 40
0.4813340789625373
 40
0.4946425871957006
 40
0.5077315948690603
 40
0.520846547140353
 40
0.5341978155885878
 40
0.5477845663051797
 40
0.561598110435005
 40
0.5756198409402509
 40
0.5898216169244792
 40
0.604166598141102
 40
0.6186106015036503
 40
0.6331039791755159
 40
0.6475876448620838
 40
0.6620127970331763
 40
0.6765308704098459
 40
0.6915211190067343
 40
0.7066648089709029
 40
0.7218914618542814
 40
0.7371146215694303
 40
0.7522423415426521
 40
0.7672073101885531
 40
0.7819546899734273
 40
0.796445042790307
 40
0.8106557394261116
 40
0.8245809781351975
 40
0.8382159284127241
 40
0.8515702872644357
 40
0.8648447320336816
 40
0.8780222283664046
 40
0.8910908742324315
 40
0.9040454241310076
 40
0.9168835627805685
 40
0.9297308325680584
 40
0.942772030355867
 40
0.9560036884705282
 40
0.9694487464087759
 40
0.9831229525512186
 40
0.9970386504928692
 40
1.0
 40
1.0
 40
1.0
 40
1.0
 10
21.48892254284688
 20
122.276319426215
 30
0.0
 10
21.46194311967133
 20
122.3285876165989
 30
0.0
 10
21.35730373386014
 20
122.531974004457
 30
0.0
 10
21.18431913000685
 20
122.941072794533
 30
0.0
 10
20.99004205197354
 20
123.4650247616028
 30
0.0
 10
20.82812807985927
 20
123.9980476795916
 30
0.0
 10
20.6981858211369
 20
124.5318456502911
 30
0.0
 10
20.59984438898082
 20
125.0654475715146
 30
0.0
 10
20.53260569547197
 20
125.5954382808964
 30
0.0
 10
20.49576987200417
 20
126.1228643071953
 30
0.0
 10
20.48770821806456
 20
126.6503285365335
 30
0.0
 10
20.508264350226
 20
127.1803699287208
 30
0.0
 10
20.55776443633666
 20
127.7111377489607
 30
0.0
 10
20.63618007888252
 20
128.2383244947379
 30
0.0
 10
20.74346305933803
 20
128.758503293141
 30
0.0
 10
20.88004038351508
 20
129.2730346566011
 30
0.0
 10
21.04650690407952
 20
129.7842020715244
 30
0.0
 10
21.24459321692217
 20
130.2935485644836
 30
0.0
 10
21.47474712129653
 20
130.798848954525
 30
0.0
 10
21.73729040340853
 20
131.2977758669467
 30
0.0
 10
22.03215921806361
 20
131.7875939293322
 30
0.0
 10
22.35881897377223
 20
132.2652114996924
 30
0.0
 10
22.7161804046739
 20
132.7272709590939
 30
0.0
 10
23.1025563262977
 20
133.1702842759134
 30
0.0
 10
23.51543920993295
 20
133.5905517924605
 30
0.0
 10
23.95165761121149
 20
133.9846259855549
 30
0.0
 10
24.40655530262929
 20
134.3485505905312
 30
0.0
 10
24.88013625492076
 20
134.6818980497903
 30
0.0
 10
25.37169662801474
 20
134.9866315505713
 30
0.0
 10
25.88274503773806
 20
135.2641480571819
 30
0.0
 10
26.4107606551602
 20
135.5132174168608
 30
0.0
 10
26.95168756030579
 20
135.7321433791653
 30
0.0
 10
27.50151629777824
 20
135.9197199523579
 30
0.0
 10
28.05648398516784
 20
136.0752164394202
 30
0.0
 10
28.61305106617933
 20
136.1983025625685
 30
0.0
 10
29.1679988954544
 20
136.2890099534215
 30
0.0
 10
29.71849476023343
 20
136.3476771396022
 30
0.0
 10
30.26245334854832
 20
136.3748880560672
 30
0.0
 10
30.80122219696556
 20
136.3713050664098
 30
0.0
 10
31.33913563082375
 20
136.3382065633163
 30
0.0
 10
31.88024520350378
 20
136.2754097251407
 30
0.0
 10
32.42509769447915
 20
136.1821938769459
 30
0.0
 10
32.97115139142755
 20
136.0581721571559
 30
0.0
 10
33.51552882756282
 20
135.903177292597
 30
0.0
 10
34.05503134350801
 20
135.7173212551888
 30
0.0
 10
34.58619765182281
 20
135.5010392521197
 30
0.0
 10
35.10540106388719
 20
135.2551287240901
 30
0.0
 10
35.60883076695167
 20
134.9807702333484
 30
0.0
 10
36.0929238802082
 20
134.6795761448417
 30
0.0
 10
36.55591011586402
 20
134.3516217881446
 30
0.0
 10
37.00260447790875
 20
133.9944042853626
 30
0.0
 10
37.433686681826
 20
133.6067625422664
 30
0.0
 10
37.84705413159747
 20
133.1884408110123
 30
0.0
 10
38.2368924362443
 20
132.7441766284726
 30
0.0
 10
38.5999753531872
 20
132.2771269469301
 30
0.0
 10
38.93356357438201
 20
131.7908851611478
 30
0.0
 10
39.23560150017201
 20
131.2891320303601
 30
0.0
 10
39.50478105442421
 20
130.775326993166
 30
0.0
 10
39.74039952831632
 20
130.252714626481
 30
0.0
 10
39.94227996138051
 20
129.7241783985299
 30
0.0
 10
40.1106671378277
 20
129.1924087510987
 30
0.0
 10
40.24597245697237
 20
128.6596518059028
 30
0.0
 10
40.34979126257716
 20
128.1258408841853
 30
0.0
 10
40.42323620658994
 20
127.5909584326332
 30
0.0
 10
40.46678134473488
 20
127.0550383809049
 30
0.0
 10
40.48057305756136
 20
126.5209099090482
 30
0.0
 10
40.46492694468476
 20
125.9912268574035
 30
0.0
 10
40.42028952710726
 20
125.4668110994774
 30
0.0
 10
40.3473145545784
 20
124.9457303735904
 30
0.0
 10
40.24531952173648
 20
124.425897010051
 30
0.0
 10
40.11349312325996
 20
123.9073763033251
 30
0.0
 10
39.95123282065484
 20
123.3898322233997
 30
0.0
 10
39.75857105337165
 20
122.8827837141608
 30
0.0
 10
39.59360465555844
 20
122.4983079742364
 30
0.0
 10
39.49753114071103
 20
122.3119358179484
 30
0.0
 10
39.47781809305165
 20
122.2737859564432
 30
0.0
  0
ARC
  5
51F
330
445
100
AcDbEntity
  8
09712038_KAPPE
  6
Continuous
 62
     7
100
AcDbCircle
 10
49.546898458
 20
109.05
 30
0.0
 40
2.500000000000002
100
AcDbArc
 50
270.0
 51
359.5
  0
ARC
  5
520
330
445
100
AcDbEntity
  8
09712038_KAPPE
  6
Continuous
 62
     7
100
AcDbCircle
 10
11.419775629
 20
109.05
 30
0.0
 40
2.500000000000002
100
AcDbArc
 50
180.5
 51
270.0
  0
LINE
  5
521
330
445
100
AcDbEntity
  8
09712038_KAPPE
  6
Continuous
 62
     7
100
AcDbLine
 10
42.5118470733
 20
106.55
 30
0.0
 11
42.5118470733
 21
106.35
 31
0.0
  0
LINE
  5
522
330
445
100
AcDbEntity
  8
09712038_KAPPE
  6
Continuous
 62
     7
100
AcDbLine
 10
45.1876275224
 20
106.35
 30
0.0
 11
45.1876275224
 21
106.55
 31
0.0
  0
LINE
  5
523
330
445
100
AcDbEntity
  8
$DDT_AUDIT_GENERATED_(422)
  6
Continuous
 62
     7
100
AcDbLine
 10
28.9833370435
 20
159.3
 30
0.0
 11
28.9833370435
 21
159.05
 31
0.0
  0
LINE
  5
524
330
445
100
AcDbEntity
  8
$DDT_AUDIT_GENERATED_(422)
  6
Continuous
 62
     7
100
AcDbLine
 10
31.9833370435
 20
159.05
 30
0.0
 11
31.9833370435
 21
159.3
 31
0.0
  0
LINE
  5
525
330
445
100
AcDbEntity
  8
$DDT_AUDIT_GENERATED_(422)
  6
Continuous
 62
     7
100
AcDbLine
 10
51.2873341864
 20
159.05
 30
0.0
 11
51.2916979527
 21
159.3
 31
0.0
  0
LINE
  5
526
330
445
100
AcDbEntity
  8
$DDT_AUDIT_GENERATED_(422)
  6
Continuous
 62
     7
100
AcDbLine
 10
9.6749761344
 20
159.3
 30
0.0
 11
9.6793399006
 21
159.05
 31
0.0
  0
SPLINE
  5
527
330
445
100
AcDbEntity
  8
$DDT_AUDIT_GENERATED_(2F8)
  6
Continuous
 62
     7
100
AcDbSpline
210
0.0
220
0.0
230
1.0
 70
     8
 71
     3
 72
    10
 73
     6
 74
     0
 42
0.0000000009901839
 43
0.0000000001
 40
0.3677306086692276
 40
0.3677306086692276
 40
0.3677306086692276
 40
0.3677306086692276
 40
0.4999999999999999
 40
0.4999999999999999
 40
0.6275893835458777
 40
0.6275893835458777
 40
0.6275893835458777
 40
0.6275893835458777
 10
52.82275825521513
 20
202.8090627758503
 30
0.0
 10
53.01270920675987
 20
203.2042009316655
 30
0.0
 10
53.11556059388019
 20
203.6429648058146
 30
0.0
 10
53.11651385823121
 20
204.5195255725225
 30
0.0
 10
53.02060242141078
 20
204.9440905277235
 30
0.0
 10
52.84381042627324
 20
205.3288605159471
 30
0.0
  0
SPLINE
  5
528
330
445
100
AcDbEntity
  8
$DDT_AUDIT_GENERATED_(2F8)
  6
Continuous
 62
     7
100
AcDbSpline
210
0.0
220
0.0
230
1.0
 70
     8
 71
     3
 72
    14
 73
    10
 74
     0
 42
0.0000000012488421
 43
0.0000000001
 40
0.0293074000885455
 40
0.0293074000885455
 40
0.0293074000885455
 40
0.0293074000885455
 40
0.25
 40
0.25
 40
0.5
 40
0.5
 40
0.75
 40
0.75
 40
0.9826920786851381
 40
0.9826920786851381
 40
0.9826920786851381
 40
0.9826920786851381
 10
52.85034600817885
 20
207.0822245783466
 30
0.0
 10
53.17642519692251
 20
207.030851380529
 30
0.0
 10
53.57897434616498
 20
206.7834947856796
 30
0.0
 10
54.33181920942088
 20
205.7558259911353
 30
0.0
 10
54.61531988578323
 20
204.9389920859103
 30
0.0
 10
54.61667408707959
 20
203.2523821818883
 30
0.0
 10
54.33177086639192
 20
202.4314298870818
 30
0.0
 10
53.56720456412594
 20
201.3829643114765
 30
0.0
 10
53.13377749380674
 20
201.1288283862856
 30
0.0
 10
52.79801487361194
 20
201.0960624343561
 30
0.0
  0
SPLINE
  5
529
330
445
100
AcDbEntity
  8
$DDT_AUDIT_GENERATED_(2F8)
  6
Continuous
 62
     7
100
AcDbSpline
210
0.0
220
0.0
230
1.0
 70
     8
 71
     3
 72
    14
 73
    10
 74
     0
 42
0.000000001248884
 43
0.0000000001
 40
0.0172630347274814
 40
0.0172630347274814
 40
0.0172630347274814
 40
0.0172630347274814
 40
0.2500000000000001
 40
0.2500000000000001
 40
0.5
 40
0.5
 40
0.75
 40
0.75
 40
0.9706329724744062
 40
0.9706329724744062
 40
0.9706329724744062
 40
0.9706329724744062
 10
8.169011913874952
 20
201.0959348987247
 30
0.0
 10
7.834334999081896
 20
201.1276735707982
 30
0.0
 10
7.406963988100506
 20
201.375034277627
 30
0.0
 10
6.634854877658722
 20
202.4289996794135
 30
0.0
 10
6.351354201296386
 20
203.2458335846384
 30
0.0
 10
6.350000000000001
 20
204.9324434886605
 30
0.0
 10
6.634903220687685
 20
205.753395783467
 30
0.0
 10
7.380368347170356
 20
206.7756675218563
 30
0.0
 10
7.788146651767337
 20
207.0289815171179
 30
0.0
 10
8.115692926698996
 20
207.0818812127203
 30
0.0
  0
SPLINE
  5
52A
330
445
100
AcDbEntity
  8
$DDT_AUDIT_GENERATED_(2F8)
  6
Continuous
 62
     7
100
AcDbSpline
210
0.0
220
0.0
230
1.0
 70
     8
 71
     3
 72
    10
 73
     6
 74
     0
 42
0.0000000009901494
 43
0.0000000001
 40
0.3729970696954369
 40
0.3729970696954369
 40
0.3729970696954369
 40
0.3729970696954369
 40
0.5
 40
0.5
 40
0.6332074968702891
 40
0.6332074968702891
 40
0.6332074968702891
 40
0.6332074968702891
 10
8.121641679470114
 20
205.328359029494
 30
0.0
 10
7.945936866906141
 20
204.9456731948066
 30
0.0
 10
7.851094173745792
 20
204.5240959340823
 30
0.0
 10
7.850139619395621
 20
203.6463489668765
 30
0.0
 10
7.954705025836808
 20
203.2033568934855
 30
0.0
 10
8.146686712801491
 20
202.8053720692868
 30
0.0
  0
ENDBLK
  5
52C
330
445
100
AcDbEntity
  8
0
100
AcDbBlockEnd
  0
ENDSEC
  0
SECTION
  2
ENTITIES
  0
INSERT
  5
5F
330
1F
100
AcDbEntity
  8
Default
100
AcDbBlockReference
  2
SEANNOT_GROUP
 10
0.0
 20
0.0
 30
0.0
  0
INSERT
  5
6A
330
1F
100
AcDbEntity
  8
Default
100
AcDbBlockReference
  2
SEANNOT_GROUP1
 10
0.0
 20
0.0
 30
0.0
  0
INSERT
  5
74
330
1F
100
AcDbEntity
  8
Default
100
AcDbBlockReference
  2
SEANNOT_GROUP2
 10
0.0
 20
0.0
 30
0.0
  0
INSERT
  5
7A
330
1F
100
AcDbEntity
  8
Default
100
AcDbBlockReference
  2
SEANNOT_GROUP3
 10
0.0
 20
0.0
 30
0.0
  0
INSERT
  5
80
330
1F
100
AcDbEntity
  8
Default
100
AcDbBlockReference
  2
SEANNOT_GROUP4
 10
0.0
 20
0.0
 30
0.0
  0
INSERT
  5
8A
330
1F
100
AcDbEntity
  8
Default
100
AcDbBlockReference
  2
SEANNOT_GROUP5
 10
0.0
 20
0.0
 30
0.0
  0
INSERT
  5
90
330
1F
100
AcDbEntity
  8
Default
100
AcDbBlockReference
  2
SE
 10
0.0
 20
0.0
 30
0.0
  0
INSERT
  5
306
330
1F
100
AcDbEntity
  8
Default
100
AcDbBlockReference
  2
SE1
 10
0.0
 20
0.0
 30
0.0
  0
INSERT
  5
446
330
1F
100
AcDbEntity
  8
Default
100
AcDbBlockReference
  2
SE2
 10
0.0
 20
0.0
 30
0.0
  0
TEXT
  5
52E
330
1F
100
AcDbEntity
  8
Default
  6
Continuous
 62
     7
100
AcDbText
 10
5.9362635081
 20
53.4225120485
 30
0.0
 40
10.0
  1
Grohe AG^J
  7
SEACAD_seiso_ttf
 11
5.9362635081
 21
63.4225120485
 31
0.0
100
AcDbText
 73
     3
  0
TEXT
  5
52F
330
1F
100
AcDbEntity
  8
Default
  6
Continuous
 62
     7
100
AcDbText
 10
5.9362635081
 20
37.0588756849
 30
0.0
 40
10.0
  1
 
  7
SEACAD_seiso_ttf
 11
5.9362635081
 21
47.0588756849
 31
0.0
100
AcDbText
 73
     3
  0
TEXT
  5
530
330
1F
100
AcDbEntity
  8
Default
  6
Continuous
 62
     7
100
AcDbText
 10
5.9362635081
 20
20.6952393213
 30
0.0
 40
10.0
  1
ecn: 
  7
SEACAD_seiso_ttf
 11
5.9362635081
 21
30.6952393213
 31
0.0
100
AcDbText
 73
     3
  0
TEXT
  5
531
330
1F
100
AcDbEntity
  8
Default
  6
Continuous
 62
     7
100
AcDbText
 10
5.9362635081
 20
4.3316029576
 30
0.0
 40
10.0
  1
unit: mm
  7
SEACAD_seiso_ttf
 11
5.9362635081
 21
14.3316029576
 31
0.0
100
AcDbText
 73
     3
  0
LINE
  5
532
330
1F
100
AcDbEntity
  8
Default
  6
Continuous
 62
     7
100
AcDbLine
 10
0.0
 20
0.0
 30
0.0
 11
100.0
 21
0.0
 31
0.0
  0
LINE
  5
533
330
1F
100
AcDbEntity
  8
Default
  6
Continuous
 62
     7
100
AcDbLine
 10
0.0
 20
0.0
 30
0.0
 11
0.0
 21
100.0
 31
0.0
  0
TEXT
  5
534
330
1F
100
AcDbEntity
  8
Default
  6
Continuous
 62
     7
100
AcDbText
 10
24.3923665681
 20
-18.2375342018
 30
0.0
 40
10.0
  1
100 mm
  7
SEACAD_seiso_ttf
 11
24.3923665681
 21
-8.2375342018
 31
0.0
100
AcDbText
 73
     3
  0
TEXT
  5
535
330
1F
100
AcDbEntity
  8
Default
  6
Continuous
 62
     7
100
AcDbText
 10
-7.6150308803
 20
24.6231930421
 30
0.0
 40
10.0
  1
100 mm
 50
90.0
  7
SEACAD_seiso_ttf
 11
-17.6150308803
 21
24.6231930421
 31
0.0
100
AcDbText
 73
     3
  0
TEXT
  5
536
330
1F
100
AcDbEntity
  8
Default
  6
Continuous
 62
     7
100
AcDbText
 10
28.4878128572
 20
20.0907663715
 30
0.0
 40
10.0
  1
201032
  7
SEACAD_seiso_ttf
 11
28.4878128572
 21
30.0907663715
 31
0.0
100
AcDbText
 73
     3
  0
TEXT
  5
537
330
1F
100
AcDbEntity
  8
Default
  6
Continuous
 62
     7
100
AcDbText
 10
5.9012241913
 20
36.7242780188
 30
0.0
 40
10.0
  1
28621000
  7
SEACAD_seiso_ttf
 11
5.9012241913
 21
46.7242780188
 31
0.0
100
AcDbText
 73
     3
  0
ENDSEC
  0
SECTION
  2
OBJECTS
  0
DICTIONARY
  5
C
330
0
100
AcDbDictionary
281
     1
  3
ACAD_GROUP
350
D
  3
ACAD_LAYOUT
350
1A
  3
ACAD_MLEADERSTYLE
350
53B
  3
ACAD_MLINESTYLE
350
17
  3
ACAD_PLOTSETTINGS
350
19
  3
ACAD_PLOTSTYLENAME
350
E
  3
ACAD_SCALELIST
350
3B
  3
ACAD_TABLESTYLE
350
53A
  3
ACAD_VISUALSTYLE
350
2A
  3
AcDbVariableDictionary
350
538
  0
DICTIONARY
  5
D
102
{ACAD_REACTORS
330
C
102
}
330
C
100
AcDbDictionary
281
     1
  0
DICTIONARY
  5
1A
102
{ACAD_REACTORS
330
C
102
}
330
C
100
AcDbDictionary
281
     1
  3
Layout1
350
1E
  3
Model
350
22
  0
DICTIONARY
  5
53B
102
{ACAD_REACTORS
330
C
102
}
330
C
100
AcDbDictionary
281
     1
  0
DICTIONARY
  5
17
102
{ACAD_REACTORS
330
C
102
}
330
C
100
AcDbDictionary
281
     1
  3
Standard
350
18
  0
DICTIONARY
  5
19
102
{ACAD_REACTORS
330
C
102
}
330
C
100
AcDbDictionary
281
     1
  0
ACDBDICTIONARYWDFLT
  5
E
102
{ACAD_REACTORS
330
C
102
}
330
C
100
AcDbDictionary
281
     1
  3
Normal
350
F
100
AcDbDictionaryWithDefault
340
F
  0
DICTIONARY
  5
3B
102
{ACAD_REACTORS
330
C
102
}
330
C
100
AcDbDictionary
281
     1
  3
A0
350
3C
  3
A1
350
3D
  3
A2
350
3E
  3
A3
350
3F
  3
A4
350
40
  3
A5
350
41
  3
A6
350
42
  3
A7
350
43
  3
A8
350
44
  3
A9
350
45
  3
B0
350
46
  3
B1
350
47
  3
B2
350
48
  3
B3
350
49
  3
B4
350
4A
  3
B5
350
4B
  3
B6
350
4C
  3
B7
350
4D
  3
B8
350
4E
  3
B9
350
4F
  3
C0
350
50
  3
C1
350
51
  3
C2
350
52
  3
C3
350
53
  3
C4
350
54
  3
C5
350
55
  3
C6
350
56
  3
C7
350
57
  3
C8
350
58
  3
C9
350
59
  3
D0
350
5A
  3
D1
350
5B
  3
D2
350
5C
  0
DICTIONARY
  5
53A
102
{ACAD_REACTORS
330
C
102
}
330
C
100
AcDbDictionary
281
     1
  0
DICTIONARY
  5
2A
102
{ACAD_REACTORS
330
C
102
}
330
C
100
AcDbDictionary
281
     1
  3
2dWireframe
350
2F
  3
3D Hidden
350
31
  3
3dWireframe
350
30
  3
Basic
350
32
  3
Brighten
350
36
  3
ColorChange
350
3A
  3
Conceptual
350
34
  3
Dim
350
35
  3
Facepattern
350
39
  3
Flat
350
2B
  3
FlatWithEdges
350
2C
  3
Gouraud
350
2D
  3
GouraudWithEdges
350
2E
  3
Linepattern
350
38
  3
Realistic
350
33
  3
Thicken
350
37
  0
DICTIONARY
  5
538
102
{ACAD_REACTORS
330
C
102
}
330
C
100
AcDbDictionary
281
     1
  3
CANNOSCALE
350
539
  3
PSOLHEIGHT
350
53D
  3
PSOLWIDTH
350
53C
  0
LAYOUT
  5
1E
102
{ACAD_REACTORS
330
1A
102
}
330
1A
100
AcDbPlotSettings
  1

  2
none_device
  4

  6

 40
0.0
 41
0.0
 42
0.0
 43
0.0
 44
0.0
 45
0.0
 46
0.0
 47
0.0
 48
0.0
 49
0.0
140
0.0
141
0.0
142
1.0
143
1.0
 70
   688
 72
     0
 73
     0
 74
     5
  7

 75
    16
147
1.0
148
0.0
149
0.0
100
AcDbLayout
  1
Layout1
 70
     1
 71
     1
 10
0.0
 20
0.0
 11
1682.0
 21
2378.0
 12
0.0
 22
0.0
 32
0.0
 14
0.0
 24
0.0
 34
0.0
 15
1682.0
 25
2378.0
 35
0.0
146
0.0
 13
0.0
 23
0.0
 33
0.0
 16
1.0
 26
0.0
 36
0.0
 17
0.0
 27
1.0
 37
0.0
 76
     0
330
1B
  0
LAYOUT
  5
22
102
{ACAD_REACTORS
330
1A
102
}
330
1A
100
AcDbPlotSettings
  1

  2
none_device
  4

  6

 40
0.0
 41
0.0
 42
0.0
 43
0.0
 44
0.0
 45
0.0
 46
0.0
 47
0.0
 48
0.0
 49
0.0
140
0.0
141
0.0
142
1.0
143
1.0
 70
  1712
 72
     0
 73
     0
 74
     0
  7

 75
     0
147
1.0
148
0.0
149
0.0
100
AcDbLayout
  1
Model
 70
     1
 71
     0
 10
0.0
 20
0.0
 11
1682.0
 21
2378.0
 12
0.0
 22
0.0
 32
0.0
 14
0.0
 24
0.0
 34
0.0
 15
1682.0
 25
2378.0
 35
0.0
146
0.0
 13
0.0
 23
0.0
 33
0.0
 16
1.0
 26
0.0
 36
0.0
 17
0.0
 27
1.0
 37
0.0
 76
     0
330
1F
331
29
  0
MLINESTYLE
  5
18
102
{ACAD_REACTORS
330
17
102
}
330
17
100
AcDbMlineStyle
  2
Standard
 70
     0
  3

 62
   256
 51
90.0
 52
90.0
 71
     2
 49
0.5
 62
   256
  6
BYLAYER
 49
-0.5
 62
   256
  6
BYLAYER
  0
ACDBPLACEHOLDER
  5
F
102
{ACAD_REACTORS
330
E
102
}
330
E
  0
SCALE
  5
3C
102
{ACAD_REACTORS
330
3B
102
}
330
3B
100
AcDbScale
 70
     0
300
1:1
140
1.0
141
1.0
290
     1
  0
SCALE
  5
3D
102
{ACAD_REACTORS
330
3B
102
}
330
3B
100
AcDbScale
 70
     0
300
1:2
140
1.0
141
2.0
290
     0
  0
SCALE
  5
3E
102
{ACAD_REACTORS
330
3B
102
}
330
3B
100
AcDbScale
 70
     0
300
1:4
140
1.0
141
4.0
290
     0
  0
SCALE
  5
3F
102
{ACAD_REACTORS
330
3B
102
}
330
3B
100
AcDbScale
 70
     0
300
1:5
140
1.0
141
5.0
290
     0
  0
SCALE
  5
40
102
{ACAD_REACTORS
330
3B
102
}
330
3B
100
AcDbScale
 70
     0
300
1:8
140
1.0
141
8.0
290
     0
  0
SCALE
  5
41
102
{ACAD_REACTORS
330
3B
102
}
330
3B
100
AcDbScale
 70
     0
300
1:10
140
1.0
141
10.0
290
     0
  0
SCALE
  5
42
102
{ACAD_REACTORS
330
3B
102
}
330
3B
100
AcDbScale
 70
     0
300
1:16
140
1.0
141
16.0
290
     0
  0
SCALE
  5
43
102
{ACAD_REACTORS
330
3B
102
}
330
3B
100
AcDbScale
 70
     0
300
1:20
140
1.0
141
20.0
290
     0
  0
SCALE
  5
44
102
{ACAD_REACTORS
330
3B
102
}
330
3B
100
AcDbScale
 70
     0
300
1:30
140
1.0
141
30.0
290
     0
  0
SCALE
  5
45
102
{ACAD_REACTORS
330
3B
102
}
330
3B
100
AcDbScale
 70
     0
300
1:40
140
1.0
141
40.0
290
     0
  0
SCALE
  5
46
102
{ACAD_REACTORS
330
3B
102
}
330
3B
100
AcDbScale
 70
     0
300
1:50
140
1.0
141
50.0
290
     0
  0
SCALE
  5
47
102
{ACAD_REACTORS
330
3B
102
}
330
3B
100
AcDbScale
 70
     0
300
1:100
140
1.0
141
100.0
290
     0
  0
SCALE
  5
48
102
{ACAD_REACTORS
330
3B
102
}
330
3B
100
AcDbScale
 70
     0
300
2:1
140
2.0
141
1.0
290
     0
  0
SCALE
  5
49
102
{ACAD_REACTORS
330
3B
102
}
330
3B
100
AcDbScale
 70
     0
300
4:1
140
4.0
141
1.0
290
     0
  0
SCALE
  5
4A
102
{ACAD_REACTORS
330
3B
102
}
330
3B
100
AcDbScale
 70
     0
300
8:1
140
8.0
141
1.0
290
     0
  0
SCALE
  5
4B
102
{ACAD_REACTORS
330
3B
102
}
330
3B
100
AcDbScale
 70
     0
300
10:1
140
10.0
141
1.0
290
     0
  0
SCALE
  5
4C
102
{ACAD_REACTORS
330
3B
102
}
330
3B
100
AcDbScale
 70
     0
300
100:1
140
100.0
141
1.0
290
     0
  0
SCALE
  5
4D
102
{ACAD_REACTORS
330
3B
102
}
330
3B
100
AcDbScale
 70
     0
300
1/128" = 1'-0"
140
0.0078125
141
12.0
290
     0
  0
SCALE
  5
4E
102
{ACAD_REACTORS
330
3B
102
}
330
3B
100
AcDbScale
 70
     0
300
1/64" = 1'-0"
140
0.015625
141
12.0
290
     0
  0
SCALE
  5
4F
102
{ACAD_REACTORS
330
3B
102
}
330
3B
100
AcDbScale
 70
     0
300
1/32" = 1'-0"
140
0.03125
141
12.0
290
     0
  0
SCALE
  5
50
102
{ACAD_REACTORS
330
3B
102
}
330
3B
100
AcDbScale
 70
     0
300
1/16" = 1'-0"
140
0.0625
141
12.0
290
     0
  0
SCALE
  5
51
102
{ACAD_REACTORS
330
3B
102
}
330
3B
100
AcDbScale
 70
     0
300
3/32" = 1'-0"
140
0.09375
141
12.0
290
     0
  0
SCALE
  5
52
102
{ACAD_REACTORS
330
3B
102
}
330
3B
100
AcDbScale
 70
     0
300
1/8" = 1'-0"
140
0.125
141
12.0
290
     0
  0
SCALE
  5
53
102
{ACAD_REACTORS
330
3B
102
}
330
3B
100
AcDbScale
 70
     0
300
3/16" = 1'-0"
140
0.1875
141
12.0
290
     0
  0
SCALE
  5
54
102
{ACAD_REACTORS
330
3B
102
}
330
3B
100
AcDbScale
 70
     0
300
1/4" = 1'-0"
140
0.25
141
12.0
290
     0
  0
SCALE
  5
55
102
{ACAD_REACTORS
330
3B
102
}
330
3B
100
AcDbScale
 70
     0
300
3/8" = 1'-0"
140
0.375
141
12.0
290
     0
  0
SCALE
  5
56
102
{ACAD_REACTORS
330
3B
102
}
330
3B
100
AcDbScale
 70
     0
300
1/2" = 1'-0"
140
0.5
141
12.0
290
     0
  0
SCALE
  5
57
102
{ACAD_REACTORS
330
3B
102
}
330
3B
100
AcDbScale
 70
     0
300
3/4" = 1'-0"
140
0.75
141
12.0
290
     0
  0
SCALE
  5
58
102
{ACAD_REACTORS
330
3B
102
}
330
3B
100
AcDbScale
 70
     0
300
1" = 1'-0"
140
1.0
141
12.0
290
     0
  0
SCALE
  5
59
102
{ACAD_REACTORS
330
3B
102
}
330
3B
100
AcDbScale
 70
     0
300
1-1/2" = 1'-0"
140
1.5
141
12.0
290
     0
  0
SCALE
  5
5A
102
{ACAD_REACTORS
330
3B
102
}
330
3B
100
AcDbScale
 70
     0
300
3" = 1'-0"
140
3.0
141
12.0
290
     0
  0
SCALE
  5
5B
102
{ACAD_REACTORS
330
3B
102
}
330
3B
100
AcDbScale
 70
     0
300
6" = 1'-0"
140
6.0
141
12.0
290
     0
  0
SCALE
  5
5C
102
{ACAD_REACTORS
330
3B
102
}
330
3B
100
AcDbScale
 70
     0
300
1'-0" = 1'-0"
140
12.0
141
12.0
290
     0
  0
VISUALSTYLE
  5
2F
102
{ACAD_REACTORS
330
2A
102
}
330
2A
100
AcDbVisualStyle
  2
2dWireframe
 70
     4
 71
     0
 72
     2
 73
     0
 90
        0
 40
-0.6
 41
-30.0
 62
     5
 63
     7
 74
     1
 91
        4
 64
     7
 65
   257
 75
     1
175
     1
 42
1.0
 92
        0
 66
   257
 43
1.0
 76
     1
 77
     6
 78
     2
 67
     7
 79
     5
170
     0
171
     0
290
     0
174
     0
 93
        1
 44
0.0
173
     0
291
     0
 45
0.0
1001
ACAD
1000
AcDbSavedByObjectVersion
1070
     0
  0
VISUALSTYLE
  5
31
102
{ACAD_REACTORS
330
2A
102
}
330
2A
100
AcDbVisualStyle
  2
3D Hidden
 70
     6
 71
     1
 72
     2
 73
     2
 90
        0
 40
-0.6
 41
-30.0
 62
     5
 63
     7
 74
     2
 91
        2
 64
     7
 65
   257
 75
     2
175
     1
 42
40.0
 92
        0
 66
   257
 43
1.0
 76
     1
 77
     6
 78
     2
 67
     7
 79
     3
170
     0
171
     0
290
     0
174
     0
 93
        1
 44
0.0
173
     0
291
     0
 45
0.0
1001
ACAD
1000
AcDbSavedByObjectVersion
1070
     0
  0
VISUALSTYLE
  5
30
102
{ACAD_REACTORS
330
2A
102
}
330
2A
100
AcDbVisualStyle
  2
3dWireframe
 70
     5
 71
     0
 72
     2
 73
     0
 90
        0
 40
-0.6
 41
-30.0
 62
     5
 63
     7
 74
     1
 91
        4
 64
     7
 65
   257
 75
     1
175
     1
 42
1.0
 92
        0
 66
   257
 43
1.0
 76
     1
 77
     6
 78
     2
 67
     7
 79
     5
170
     0
171
     0
290
     0
174
     0
 93
        1
 44
0.0
173
     0
291
     0
 45
0.0
1001
ACAD
1000
AcDbSavedByObjectVersion
1070
     0
  0
VISUALSTYLE
  5
32
102
{ACAD_REACTORS
330
2A
102
}
330
2A
100
AcDbVisualStyle
  2
Basic
 70
     7
 71
     1
 72
     0
 73
     1
 90
        0
 40
-0.6
 41
-30.0
 62
     5
 63
     7
 74
     0
 91
        4
 64
     7
 65
   257
 75
     1
175
     1
 42
1.0
 92
        8
 66
     7
 43
1.0
 76
     1
 77
     6
 78
     2
 67
     7
 79
     5
170
     0
171
     0
290
     0
174
     0
 93
        1
 44
0.0
173
     0
291
     1
 45
0.0
1001
ACAD
1000
AcDbSavedByObjectVersion
1070
     0
  0
VISUALSTYLE
  5
36
102
{ACAD_REACTORS
330
2A
102
}
330
2A
100
AcDbVisualStyle
  2
Brighten
 70
    12
 71
     2
 72
     2
 73
     0
 90
        0
 40
-0.6
 41
-30.0
 62
     5
 63
     7
 74
     1
 91
        4
 64
     7
 65
   257
 75
     1
175
     1
 42
1.0
 92
        8
 66
     7
 43
1.0
 76
     1
 77
     6
 78
     2
 67
     7
 79
     5
170
     0
171
     0
290
     0
174
     0
 93
        1
 44
50.0
173
     0
291
     1
 45
0.0
1001
ACAD
1000
AcDbSavedByObjectVersion
1070
     0
  0
VISUALSTYLE
  5
3A
102
{ACAD_REACTORS
330
2A
102
}
330
2A
100
AcDbVisualStyle
  2
ColorChange
 70
    16
 71
     2
 72
     2
 73
     3
 90
        0
 40
-0.6
 41
-30.0
 62
     5
 63
     8
 74
     1
 91
        4
 64
     7
 65
   257
 75
     1
175
     1
 42
1.0
 92
        8
 66
     8
 43
1.0
 76
     1
 77
     6
 78
     2
 67
     7
 79
     5
170
     0
171
     0
290
     0
174
     0
 93
        1
 44
0.0
173
     0
291
     1
 45
0.0
1001
ACAD
1000
AcDbSavedByObjectVersion
1070
     0
  0
VISUALSTYLE
  5
34
102
{ACAD_REACTORS
330
2A
102
}
330
2A
100
AcDbVisualStyle
  2
Conceptual
 70
     9
 71
     3
 72
     2
 73
     0
 90
        0
 40
-0.6
 41
-30.0
 62
     5
 63
     7
 74
     2
 91
        2
 64
     7
 65
   257
 75
     1
175
     1
 42
40.0
 92
        8
 66
     7
 43
1.0
 76
     1
 77
     6
 78
     2
 67
     7
 79
     3
170
     0
171
     0
290
     0
174
     0
 93
        1
 44
0.0
173
     0
291
     0
 45
0.0
1001
ACAD
1000
AcDbSavedByObjectVersion
1070
     0
  0
VISUALSTYLE
  5
35
102
{ACAD_REACTORS
330
2A
102
}
330
2A
100
AcDbVisualStyle
  2
Dim
 70
    11
 71
     2
 72
     2
 73
     0
 90
        0
 40
-0.6
 41
-30.0
 62
     5
 63
     7
 74
     1
 91
        4
 64
     7
 65
   257
 75
     1
175
     1
 42
1.0
 92
        8
 66
     7
 43
1.0
 76
     1
 77
     6
 78
     2
 67
     7
 79
     5
170
     0
171
     0
290
     0
174
     0
 93
        1
 44
-50.0
173
     0
291
     1
 45
0.0
1001
ACAD
1000
AcDbSavedByObjectVersion
1070
     0
  0
VISUALSTYLE
  5
39
102
{ACAD_REACTORS
330
2A
102
}
330
2A
100
AcDbVisualStyle
  2
Facepattern
 70
    15
 71
     2
 72
     2
 73
     0
 90
        0
 40
-0.6
 41
-30.0
 62
     5
 63
     7
 74
     1
 91
        4
 64
     7
 65
   257
 75
     1
175
     1
 42
1.0
 92
        8
 66
     7
 43
1.0
 76
     1
 77
     6
 78
     2
 67
     7
 79
     5
170
     0
171
     0
290
     0
174
     0
 93
        1
 44
0.0
173
     0
291
     1
 45
0.0
1001
ACAD
1000
AcDbSavedByObjectVersion
1070
     0
  0
VISUALSTYLE
  5
2B
102
{ACAD_REACTORS
330
2A
102
}
330
2A
100
AcDbVisualStyle
  2
Flat
 70
     0
 71
     2
 72
     1
 73
     1
 90
        2
 40
-0.6
 41
30.0
 62
     5
 63
     7
 74
     0
 91
        4
 64
     7
 65
   257
 75
     1
175
     1
 42
1.0
 92
        8
 66
     7
 43
1.0
 76
     1
 77
     6
 78
     2
 67
     7
 79
     5
170
     0
171
     0
290
     0
174
     0
 93
       13
 44
0.0
173
     0
291
     1
 45
0.0
1001
ACAD
1000
AcDbSavedByObjectVersion
1070
     0
  0
VISUALSTYLE
  5
2C
102
{ACAD_REACTORS
330
2A
102
}
330
2A
100
AcDbVisualStyle
  2
FlatWithEdges
 70
     1
 71
     2
 72
     1
 73
     1
 90
        2
 40
-0.6
 41
30.0
 62
     5
 63
     7
 74
     1
 91
        4
 64
     7
 65
   257
 75
     1
175
     1
 42
1.0
 92
        0
 66
   257
 43
1.0
 76
     1
 77
     6
 78
     2
 67
     7
 79
     5
170
     0
171
     0
290
     0
174
     0
 93
       13
 44
0.0
173
     0
291
     1
 45
0.0
1001
ACAD
1000
AcDbSavedByObjectVersion
1070
     0
  0
VISUALSTYLE
  5
2D
102
{ACAD_REACTORS
330
2A
102
}
330
2A
100
AcDbVisualStyle
  2
Gouraud
 70
     2
 71
     2
 72
     2
 73
     1
 90
        2
 40
-0.6
 41
30.0
 62
     5
 63
     7
 74
     0
 91
        4
 64
     7
 65
   257
 75
     1
175
     1
 42
1.0
 92
        0
 66
     7
 43
1.0
 76
     1
 77
     6
 78
     2
 67
     7
 79
     5
170
     0
171
     0
290
     0
174
     0
 93
       13
 44
0.0
173
     0
291
     1
 45
0.0
1001
ACAD
1000
AcDbSavedByObjectVersion
1070
     0
  0
VISUALSTYLE
  5
2E
102
{ACAD_REACTORS
330
2A
102
}
330
2A
100
AcDbVisualStyle
  2
GouraudWithEdges
 70
     3
 71
     2
 72
     2
 73
     1
 90
        2
 40
-0.6
 41
30.0
 62
     5
 63
     7
 74
     1
 91
        4
 64
     7
 65
   257
 75
     1
175
     1
 42
1.0
 92
        0
 66
   257
 43
1.0
 76
     1
 77
     6
 78
     2
 67
     7
 79
     5
170
     0
171
     0
290
     0
174
     0
 93
       13
 44
0.0
173
     0
291
     1
 45
0.0
1001
ACAD
1000
AcDbSavedByObjectVersion
1070
     0
  0
VISUALSTYLE
  5
38
102
{ACAD_REACTORS
330
2A
102
}
330
2A
100
AcDbVisualStyle
  2
Linepattern
 70
    14
 71
     2
 72
     2
 73
     0
 90
        0
 40
-0.6
 41
-30.0
 62
     5
 63
     7
 74
     1
 91
        4
 64
     7
 65
   257
 75
     7
175
     7
 42
1.0
 92
        8
 66
     7
 43
1.0
 76
     1
 77
     6
 78
     2
 67
     7
 79
     5
170
     0
171
     0
290
     0
174
     0
 93
        1
 44
0.0
173
     0
291
     1
 45
0.0
1001
ACAD
1000
AcDbSavedByObjectVersion
1070
     0
  0
VISUALSTYLE
  5
33
102
{ACAD_REACTORS
330
2A
102
}
330
2A
100
AcDbVisualStyle
  2
Realistic
 70
     8
 71
     2
 72
     2
 73
     0
 90
        0
 40
-0.6
 41
-30.0
 62
     5
 63
     7
 74
     1
 91
        0
 64
     7
 65
   257
 75
     1
175
     1
 42
1.0
 92
        8
 66
     8
 43
1.0
 76
     1
 77
     6
 78
     2
 67
     7
 79
     5
170
     0
171
     0
290
     0
174
     0
 93
       13
 44
0.0
173
     0
291
     0
 45
0.0
1001
ACAD
1000
AcDbSavedByObjectVersion
1070
     0
  0
VISUALSTYLE
  5
37
102
{ACAD_REACTORS
330
2A
102
}
330
2A
100
AcDbVisualStyle
  2
Thicken
 70
    13
 71
     2
 72
     2
 73
     0
 90
        0
 40
-0.6
 41
-30.0
 62
     5
 63
     7
 74
     1
 91
        4
 64
     7
 65
   257
 75
     1
175
     1
 42
1.0
 92
       12
 66
     7
 43
1.0
 76
     1
 77
     6
 78
     2
 67
     7
 79
     5
170
     0
171
     0
290
     0
174
     0
 93
        1
 44
0.0
173
     0
291
     1
 45
0.0
1001
ACAD
1000
AcDbSavedByObjectVersion
1070
     0
  0
DICTIONARYVAR
  5
539
102
{ACAD_REACTORS
330
538
102
}
330
538
100
DictionaryVariables
280
     0
  1
1:1
  0
DICTIONARYVAR
  5
53D
102
{ACAD_REACTORS
330
538
102
}
330
538
100
DictionaryVariables
280
     0
  1
80.000000
  0
DICTIONARYVAR
  5
53C
102
{ACAD_REACTORS
330
538
102
}
330
538
100
DictionaryVariables
280
     0
  1
5.000000
  0
ENDSEC
  0
EOF
