  0
SECTION
  2
HEADER
  9
$ACADVER
  1
AC1015
  9
$ACADMAINTVER
 70
     6
  9
$DWGCODEPAGE
  3
ANSI_1252
  9
$INSBASE
 10
0.0
 20
0.0
 30
0.0
  9
$EXTMIN
 10
0.0
 20
0.0
 30
0.0
  9
$EXTMAX
 10
1682.0
 20
2378.0
 30
0.0
  9
$LIMMIN
 10
0.0
 20
0.0
  9
$LIMMAX
 10
1682.0
 20
2378.0
  9
$ORTHOMODE
 70
     0
  9
$REGENMODE
 70
     1
  9
$FILLMODE
 70
     1
  9
$QTEXTMODE
 70
     0
  9
$MIRRTEXT
 70
     1
  9
$LTSCALE
 40
1.0
  9
$ATTMODE
 70
     1
  9
$TEXTSIZE
 40
2.5
  9
$TRACEWID
 40
1.0
  9
$TEXTSTYLE
  7
Standard
  9
$CLAYER
  8
0
  9
$CELTYPE
  6
ByLayer
  9
$CECOLOR
 62
   256
  9
$CELTSCALE
 40
1.0
  9
$DISPSILH
 70
     0
  9
$DIMSCALE
 40
1.0
  9
$DIMASZ
 40
2.5
  9
$DIMEXO
 40
0.625
  9
$DIMDLI
 40
3.75
  9
$DIMRND
 40
0.0
  9
$DIMDLE
 40
0.0
  9
$DIMEXE
 40
1.25
  9
$DIMTP
 40
0.0
  9
$DIMTM
 40
0.0
  9
$DIMTXT
 40
2.5
  9
$DIMCEN
 40
2.5
  9
$DIMTSZ
 40
0.0
  9
$DIMTOL
 70
     0
  9
$DIMLIM
 70
     0
  9
$DIMTIH
 70
     0
  9
$DIMTOH
 70
     0
  9
$DIMSE1
 70
     0
  9
$DIMSE2
 70
     0
  9
$DIMTAD
 70
     1
  9
$DIMZIN
 70
     8
  9
$DIMBLK
  1

  9
$DIMASO
 70
     1
  9
$DIMSHO
 70
     1
  9
$DIMPOST
  1

  9
$DIMAPOST
  1

  9
$DIMALT
 70
     0
  9
$DIMALTD
 70
     3
  9
$DIMALTF
 40
0.0393700787
  9
$DIMLFAC
 40
1.0
  9
$DIMTOFL
 70
     1
  9
$DIMTVP
 40
0.0
  9
$DIMTIX
 70
     0
  9
$DIMSOXD
 70
     0
  9
$DIMSAH
 70
     0
  9
$DIMBLK1
  1

  9
$DIMBLK2
  1

  9
$DIMSTYLE
  2
ISO-25
  9
$DIMCLRD
 70
     0
  9
$DIMCLRE
 70
     0
  9
$DIMCLRT
 70
     0
  9
$DIMTFAC
 40
1.0
  9
$DIMGAP
 40
0.625
  9
$DIMJUST
 70
     0
  9
$DIMSD1
 70
     0
  9
$DIMSD2
 70
     0
  9
$DIMTOLJ
 70
     0
  9
$DIMTZIN
 70
     8
  9
$DIMALTZ
 70
     0
  9
$DIMALTTZ
 70
     0
  9
$DIMUPT
 70
     0
  9
$DIMDEC
 70
     2
  9
$DIMTDEC
 70
     2
  9
$DIMALTU
 70
     2
  9
$DIMALTTD
 70
     3
  9
$DIMTXSTY
  7
Standard
  9
$DIMAUNIT
 70
     0
  9
$DIMADEC
 70
     0
  9
$DIMALTRND
 40
0.0
  9
$DIMAZIN
 70
     0
  9
$DIMDSEP
 70
    44
  9
$DIMATFIT
 70
     3
  9
$DIMFRAC
 70
     0
  9
$DIMLDRBLK
  1

  9
$DIMLUNIT
 70
     2
  9
$DIMLWD
 70
    -2
  9
$DIMLWE
 70
    -2
  9
$DIMTMOVE
 70
     0
  9
$LUNITS
 70
     2
  9
$LUPREC
 70
     4
  9
$SKETCHINC
 40
1.0
  9
$FILLETRAD
 40
10.0
  9
$AUNITS
 70
     0
  9
$AUPREC
 70
     0
  9
$MENU
  1
.
  9
$ELEVATION
 40
0.0
  9
$PELEVATION
 40
0.0
  9
$THICKNESS
 40
0.0
  9
$LIMCHECK
 70
     0
  9
$CHAMFERA
 40
10.0
  9
$CHAMFERB
 40
10.0
  9
$CHAMFERC
 40
20.0
  9
$CHAMFERD
 40
0.0
  9
$SKPOLY
 70
     0
  9
$TDCREATE
 40
2455544.63876816
  9
$TDUCREATE
 40
2455544.597101493
  9
$TDUPDATE
 40
2455544.638768171
  9
$TDUUPDATE
 40
2455544.597101504
  9
$TDINDWG
 40
0.0000000116
  9
$TDUSRTIMER
 40
0.0000000116
  9
$USRTIMER
 70
     1
  9
$ANGBASE
 50
0.0
  9
$ANGDIR
 70
     0
  9
$PDMODE
 70
     0
  9
$PDSIZE
 40
0.0
  9
$PLINEWID
 40
0.0
  9
$SPLFRAME
 70
     0
  9
$SPLINETYPE
 70
     6
  9
$SPLINESEGS
 70
     8
  9
$HANDSEED
  5
1D9
  9
$SURFTAB1
 70
     6
  9
$SURFTAB2
 70
     6
  9
$SURFTYPE
 70
     6
  9
$SURFU
 70
     6
  9
$SURFV
 70
     6
  9
$UCSBASE
  2

  9
$UCSNAME
  2

  9
$UCSORG
 10
0.0
 20
0.0
 30
0.0
  9
$UCSXDIR
 10
1.0
 20
0.0
 30
0.0
  9
$UCSYDIR
 10
0.0
 20
1.0
 30
0.0
  9
$UCSORTHOREF
  2

  9
$UCSORTHOVIEW
 70
     0
  9
$UCSORGTOP
 10
0.0
 20
0.0
 30
0.0
  9
$UCSORGBOTTOM
 10
0.0
 20
0.0
 30
0.0
  9
$UCSORGLEFT
 10
0.0
 20
0.0
 30
0.0
  9
$UCSORGRIGHT
 10
0.0
 20
0.0
 30
0.0
  9
$UCSORGFRONT
 10
0.0
 20
0.0
 30
0.0
  9
$UCSORGBACK
 10
0.0
 20
0.0
 30
0.0
  9
$PUCSBASE
  2

  9
$PUCSNAME
  2

  9
$PUCSORG
 10
0.0
 20
0.0
 30
0.0
  9
$PUCSXDIR
 10
1.0
 20
0.0
 30
0.0
  9
$PUCSYDIR
 10
0.0
 20
1.0
 30
0.0
  9
$PUCSORTHOREF
  2

  9
$PUCSORTHOVIEW
 70
     0
  9
$PUCSORGTOP
 10
0.0
 20
0.0
 30
0.0
  9
$PUCSORGBOTTOM
 10
0.0
 20
0.0
 30
0.0
  9
$PUCSORGLEFT
 10
0.0
 20
0.0
 30
0.0
  9
$PUCSORGRIGHT
 10
0.0
 20
0.0
 30
0.0
  9
$PUCSORGFRONT
 10
0.0
 20
0.0
 30
0.0
  9
$PUCSORGBACK
 10
0.0
 20
0.0
 30
0.0
  9
$USERI1
 70
     0
  9
$USERI2
 70
     0
  9
$USERI3
 70
     0
  9
$USERI4
 70
     0
  9
$USERI5
 70
     0
  9
$USERR1
 40
0.0
  9
$USERR2
 40
0.0
  9
$USERR3
 40
0.0
  9
$USERR4
 40
0.0
  9
$USERR5
 40
0.0
  9
$WORLDVIEW
 70
     1
  9
$SHADEDGE
 70
     3
  9
$SHADEDIF
 70
    70
  9
$TILEMODE
 70
     1
  9
$MAXACTVP
 70
    64
  9
$PINSBASE
 10
0.0
 20
0.0
 30
0.0
  9
$PLIMCHECK
 70
     0
  9
$PEXTMIN
 10
0.0
 20
0.0
 30
0.0
  9
$PEXTMAX
 10
1682.0
 20
2378.0
 30
0.0
  9
$PLIMMIN
 10
0.0
 20
0.0
  9
$PLIMMAX
 10
1682.0
 20
2378.0
  9
$UNITMODE
 70
     0
  9
$VISRETAIN
 70
     1
  9
$PLINEGEN
 70
     0
  9
$PSLTSCALE
 70
     1
  9
$TREEDEPTH
 70
  3020
  9
$CMLSTYLE
  2
Standard
  9
$CMLJUST
 70
     0
  9
$CMLSCALE
 40
20.0
  9
$PROXYGRAPHICS
 70
     1
  9
$MEASUREMENT
 70
     1
  9
$CELWEIGHT
370
    -1
  9
$ENDCAPS
280
     0
  9
$JOINSTYLE
280
     0
  9
$LWDISPLAY
290
     0
  9
$INSUNITS
 70
     4
  9
$HYPERLINKBASE
  1

  9
$STYLESHEET
  1

  9
$XEDIT
290
     1
  9
$CEPSNTYPE
380
     0
  9
$PSTYLEMODE
290
     1
  9
$FINGERPRINTGUID
  2
{CA5E02F6-A47D-4F7E-B706-796DB333329F}
  9
$VERSIONGUID
  2
{FAEB1C32-E019-11D5-929B-00C0DF256EC4}
  9
$EXTNAMES
290
     1
  9
$PSVPSCALE
 40
0.0
  9
$OLESTARTUP
290
     0
  0
ENDSEC
  0
SECTION
  2
CLASSES
  0
CLASS
  1
ACDBDICTIONARYWDFLT
  2
AcDbDictionaryWithDefault
  3
ObjectDBX Classes
 90
        0
280
     0
281
     0
  0
CLASS
  1
VISUALSTYLE
  2
AcDbVisualStyle
  3
ObjectDBX Classes
 90
     4095
280
     0
281
     0
  0
CLASS
  1
SCALE
  2
AcDbScale
  3
ObjectDBX Classes
 90
     1153
280
     0
281
     0
  0
CLASS
  1
DICTIONARYVAR
  2
AcDbDictionaryVar
  3
ObjectDBX Classes
 90
        0
280
     0
281
     0
  0
CLASS
  1
ACDBPLACEHOLDER
  2
AcDbPlaceHolder
  3
ObjectDBX Classes
 90
        0
280
     0
281
     0
  0
CLASS
  1
LAYOUT
  2
AcDbLayout
  3
ObjectDBX Classes
 90
        0
280
     0
281
     0
  0
ENDSEC
  0
SECTION
  2
TABLES
  0
TABLE
  2
VPORT
  5
8
330
0
100
AcDbSymbolTable
 70
     1
  0
VPORT
  5
29
330
8
100
AcDbSymbolTableRecord
100
AcDbViewportTableRecord
  2
*Active
 70
     0
 10
0.0
 20
0.0
 11
1.0
 21
1.0
 12
344.1869158879
 22
148.5
 13
0.0
 23
0.0
 14
10.0
 24
10.0
 15
10.0
 25
10.0
 16
0.0
 26
0.0
 36
1.0
 17
0.0
 27
0.0
 37
0.0
 40
297.0
 41
1.9729729729
 42
50.0
 43
0.0
 44
0.0
 50
0.0
 51
0.0
 71
     0
 72
   100
 73
     1
 74
     3
 75
     0
 76
     0
 77
     0
 78
     0
281
     0
 65
     1
110
0.0
120
0.0
130
0.0
111
1.0
121
0.0
131
0.0
112
0.0
122
1.0
132
0.0
 79
     0
146
0.0
  0
ENDTAB
  0
TABLE
  2
LTYPE
  5
5
330
0
100
AcDbSymbolTable
 70
     2
  0
LTYPE
  5
14
330
5
100
AcDbSymbolTableRecord
100
AcDbLinetypeTableRecord
  2
ByBlock
 70
     0
  3

 72
    65
 73
     0
 40
0.0
  0
LTYPE
  5
15
330
5
100
AcDbSymbolTableRecord
100
AcDbLinetypeTableRecord
  2
ByLayer
 70
     0
  3

 72
    65
 73
     0
 40
0.0
  0
LTYPE
  5
16
330
5
100
AcDbSymbolTableRecord
100
AcDbLinetypeTableRecord
  2
Continuous
 70
     0
  3
Solid line
 72
    65
 73
     0
 40
0.0
  0
LTYPE
  5
60
330
5
100
AcDbSymbolTableRecord
100
AcDbLinetypeTableRecord
  2
CENTER2
 70
     0
  3
Center (.5x) ___ _ ___ _ ___ _ ___ _ ___ _ ___
 72
    65
 73
     4
 40
28.575
 49
19.05
 74
     4
 75
     0
340
0
 46
0.0
 50
0.0
 44
0.0
 45
0.0
 49
-3.175
 74
     4
 75
     0
340
0
 46
0.0
 50
0.0
 44
0.0
 45
0.0
 49
3.175
 74
     4
 75
     0
340
0
 46
0.0
 50
0.0
 44
0.0
 45
0.0
 49
-3.175
 74
     4
 75
     0
340
0
 46
0.0
 50
0.0
 44
0.0
 45
0.0
  0
ENDTAB
  0
TABLE
  2
LAYER
  5
2
330
0
100
AcDbSymbolTable
 70
     5
  0
LAYER
  5
10
330
2
100
AcDbSymbolTableRecord
100
AcDbLayerTableRecord
  2
0
 70
     0
 62
     7
  6
Continuous
370
    -3
390
F
  0
LAYER
  5
5D
330
2
100
AcDbSymbolTableRecord
100
AcDbLayerTableRecord
  2
Default
 70
     0
 62
     7
  6
Continuous
370
    -3
390
F
  0
LAYER
  5
77
330
2
100
AcDbSymbolTableRecord
100
AcDbLayerTableRecord
  2
05069038_GEH._BO
 70
     0
 62
     7
  6
Continuous
370
    -3
390
F
  0
LAYER
  5
125
330
2
100
AcDbSymbolTableRecord
100
AcDbLayerTableRecord
  2
05049037_BOGEN__
 70
     0
 62
     7
  6
Continuous
370
    -3
390
F
  0
LAYER
  5
12C
330
2
100
AcDbSymbolTableRecord
100
AcDbLayerTableRecord
  2
05206038_KAPPE._
 70
     0
 62
     7
  6
Continuous
370
    -3
390
F
  0
ENDTAB
  0
TABLE
  2
STYLE
  5
3
330
0
100
AcDbSymbolTable
 70
     2
  0
STYLE
  5
11
330
3
100
AcDbSymbolTableRecord
100
AcDbTextStyleTableRecord
  2
Standard
 70
     0
 40
0.0
 41
1.0
 50
0.0
 71
     0
 42
2.5
  3
txt
  4

  0
STYLE
  5
1C8
330
3
100
AcDbSymbolTableRecord
100
AcDbTextStyleTableRecord
  2
SEACAD_seiso_ttf
 70
     0
 40
0.0
 41
1.0
 50
0.0
 71
     0
 42
0.2
  3
seiso.ttf
  4

  0
ENDTAB
  0
TABLE
  2
VIEW
  5
6
330
0
100
AcDbSymbolTable
 70
     0
  0
ENDTAB
  0
TABLE
  2
UCS
  5
7
330
0
100
AcDbSymbolTable
 70
     0
  0
ENDTAB
  0
TABLE
  2
APPID
  5
9
330
0
100
AcDbSymbolTable
 70
     1
  0
APPID
  5
12
330
9
100
AcDbSymbolTableRecord
100
AcDbRegAppTableRecord
  2
ACAD
 70
     0
  0
ENDTAB
  0
TABLE
  2
DIMSTYLE
  5
A
330
0
100
AcDbSymbolTable
 70
     1
100
AcDbDimStyleTable
  0
DIMSTYLE
105
27
330
A
100
AcDbSymbolTableRecord
100
AcDbDimStyleTableRecord
  2
ISO-25
 70
     0
 41
2.5
 42
0.625
 43
3.75
 44
1.25
 73
     0
 74
     0
 77
     1
 78
     8
140
2.5
141
2.5
143
0.0393700787
147
0.625
171
     3
172
     1
271
     2
272
     2
274
     3
278
    44
283
     0
284
     8
340
11
  0
ENDTAB
  0
TABLE
  2
BLOCK_RECORD
  5
1
330
0
100
AcDbSymbolTable
 70
     7
  0
BLOCK_RECORD
  5
1F
330
1
100
AcDbSymbolTableRecord
100
AcDbBlockTableRecord
  2
*Model_Space
340
22
  0
BLOCK_RECORD
  5
1B
330
1
100
AcDbSymbolTableRecord
100
AcDbBlockTableRecord
  2
*Paper_Space
340
1E
  0
BLOCK_RECORD
  5
5E
330
1
100
AcDbSymbolTableRecord
100
AcDbBlockTableRecord
  2
SEANNOT_GROUP
340
0
102
{BLKREFS
331
5F
102
}
  0
BLOCK_RECORD
  5
69
330
1
100
AcDbSymbolTableRecord
100
AcDbBlockTableRecord
  2
SEANNOT_GROUP1
340
0
102
{BLKREFS
331
6A
102
}
  0
BLOCK_RECORD
  5
6F
330
1
100
AcDbSymbolTableRecord
100
AcDbBlockTableRecord
  2
SEANNOT_GROUP2
340
0
102
{BLKREFS
331
70
102
}
  0
BLOCK_RECORD
  5
75
330
1
100
AcDbSymbolTableRecord
100
AcDbBlockTableRecord
  2
SE
340
0
102
{BLKREFS
331
76
102
}
  0
BLOCK_RECORD
  5
130
330
1
100
AcDbSymbolTableRecord
100
AcDbBlockTableRecord
  2
SE1
340
0
102
{BLKREFS
331
131
102
}
  0
BLOCK_RECORD
  5
17B
330
1
100
AcDbSymbolTableRecord
100
AcDbBlockTableRecord
  2
SE2
340
0
102
{BLKREFS
331
17C
102
}
  0
ENDTAB
  0
ENDSEC
  0
SECTION
  2
BLOCKS
  0
BLOCK
  5
20
330
1F
100
AcDbEntity
  8
0
100
AcDbBlockBegin
  2
*Model_Space
 70
     0
 10
0.0
 20
0.0
 30
0.0
  3
*Model_Space
  1

  0
ENDBLK
  5
21
330
1F
100
AcDbEntity
  8
0
100
AcDbBlockEnd
  0
BLOCK
  5
1C
330
1B
100
AcDbEntity
 67
     1
  8
0
100
AcDbBlockBegin
  2
*Paper_Space
 70
     0
 10
0.0
 20
0.0
 30
0.0
  3
*Paper_Space
  1

  0
ENDBLK
  5
1D
330
1B
100
AcDbEntity
 67
     1
  8
0
100
AcDbBlockEnd
  0
BLOCK
  5
67
330
5E
100
AcDbEntity
  8
0
100
AcDbBlockBegin
  2
SEANNOT_GROUP
 70
     0
 10
0.0
 20
0.0
 30
0.0
  3
SEANNOT_GROUP
  1

  0
LINE
  5
61
330
5E
100
AcDbEntity
  8
Default
  6
CENTER2
 62
     7
100
AcDbLine
 10
118.8004854002
 20
175.7546526135
 30
0.0
 11
78.8004862943
 21
175.7546526135
 31
0.0
  0
LINE
  5
62
330
5E
100
AcDbEntity
  8
Default
  6
CENTER2
 62
     7
100
AcDbLine
 10
98.8004858472
 20
195.7546521665
 30
0.0
 11
98.8004858472
 21
155.7546530605
 31
0.0
  0
LINE
  5
63
330
5E
100
AcDbEntity
  8
Default
  6
CENTER2
 62
     7
100
AcDbLine
 10
123.8004852884
 20
175.7546526135
 30
0.0
 11
135.9004858472
 21
175.7546526135
 31
0.0
  0
LINE
  5
64
330
5E
100
AcDbEntity
  8
Default
  6
CENTER2
 62
     7
100
AcDbLine
 10
98.8004858472
 20
200.7546520547
 30
0.0
 11
98.8004858472
 21
212.8546526135
 31
0.0
  0
LINE
  5
65
330
5E
100
AcDbEntity
  8
Default
  6
CENTER2
 62
     7
100
AcDbLine
 10
73.800486406
 20
175.7546526135
 30
0.0
 11
61.7004858472
 21
175.7546526135
 31
0.0
  0
LINE
  5
66
330
5E
100
AcDbEntity
  8
Default
  6
CENTER2
 62
     7
100
AcDbLine
 10
98.8004858472
 20
150.7546531723
 30
0.0
 11
98.8004858472
 21
138.6546526135
 31
0.0
  0
ENDBLK
  5
68
330
5E
100
AcDbEntity
  8
0
100
AcDbBlockEnd
  0
BLOCK
  5
6D
330
69
100
AcDbEntity
  8
0
100
AcDbBlockBegin
  2
SEANNOT_GROUP1
 70
     0
 10
0.0
 20
0.0
 30
0.0
  3
SEANNOT_GROUP1
  1

  0
LINE
  5
6B
330
69
100
AcDbEntity
  8
Default
  6
CENTER2
 62
     7
100
AcDbLine
 10
199.2892557716
 20
175.7546526135
 30
0.0
 11
159.2892566657
 21
175.7546526135
 31
0.0
  0
LINE
  5
6C
330
69
100
AcDbEntity
  8
Default
  6
CENTER2
 62
     7
100
AcDbLine
 10
179.2892562186
 20
195.7546521665
 30
0.0
 11
179.2892562186
 21
155.7546530605
 31
0.0
  0
ENDBLK
  5
6E
330
69
100
AcDbEntity
  8
0
100
AcDbBlockEnd
  0
BLOCK
  5
73
330
6F
100
AcDbEntity
  8
0
100
AcDbBlockBegin
  2
SEANNOT_GROUP2
 70
     0
 10
0.0
 20
0.0
 30
0.0
  3
SEANNOT_GROUP2
  1

  0
LINE
  5
71
330
6F
100
AcDbEntity
  8
Default
  6
CENTER2
 62
     7
100
AcDbLine
 10
118.8004854002
 20
98.3906868004
 30
0.0
 11
78.8004862943
 21
98.3906868004
 31
0.0
  0
LINE
  5
72
330
6F
100
AcDbEntity
  8
Default
  6
CENTER2
 62
     7
100
AcDbLine
 10
98.8004858472
 20
118.3906863533
 30
0.0
 11
98.8004858472
 21
78.3906872474
 31
0.0
  0
ENDBLK
  5
74
330
6F
100
AcDbEntity
  8
0
100
AcDbBlockEnd
  0
BLOCK
  5
12E
330
75
100
AcDbEntity
  8
0
100
AcDbBlockBegin
  2
SE
 70
     0
 10
0.0
 20
0.0
 30
0.0
  3
SE
  1

  0
CIRCLE
  5
78
330
75
100
AcDbEntity
  8
05069038_GEH._BO
  6
Continuous
 62
     7
100
AcDbCircle
 10
98.8004858472
 20
175.7546526135
 30
0.0
 40
33.59999999999994
  0
CIRCLE
  5
79
330
75
100
AcDbEntity
  8
05069038_GEH._BO
  6
Continuous
 62
     7
100
AcDbCircle
 10
98.8004858472
 20
175.7546526135
 30
0.0
 40
31.59999999999999
  0
ARC
  5
7A
330
75
100
AcDbEntity
  8
05069038_GEH._BO
  6
Continuous
 62
     7
100
AcDbCircle
 10
98.8004858472
 20
175.7546526135
 30
0.0
 40
23.94320472776719
100
AcDbArc
 50
297.6599785834
 51
242.3400214166
  0
ARC
  5
7B
330
75
100
AcDbEntity
  8
05069038_GEH._BO
  6
Continuous
 62
     7
100
AcDbCircle
 10
98.8004858472
 20
175.7546526135
 30
0.0
 40
22.44326184317081
100
AcDbArc
 50
299.629527355
 51
240.370472645
  0
ARC
  5
7C
330
75
100
AcDbEntity
  8
05069038_GEH._BO
  6
Continuous
 62
     7
100
AcDbCircle
 10
98.8004858472
 20
176.4858423258
 30
0.0
 40
22.78640098317827
100
AcDbArc
 50
242.1379229761
 51
297.8620770239
  0
ARC
  5
7D
330
75
100
AcDbEntity
  8
05069038_GEH._BO
  6
Continuous
 62
     7
100
AcDbCircle
 10
127.1353162881
 20
154.9492535277
 30
0.0
 40
39.45187165421697
100
AcDbArc
 50
178.1163058903
 51
180.5831515105
  0
ELLIPSE
  5
7E
330
75
100
AcDbEntity
  8
05069038_GEH._BO
  6
Continuous
 62
     7
100
AcDbEllipse
 10
80.367131171
 20
175.754655679
 30
0.0
 11
27.38276433004692
 21
-1.864323013021154E-6
 31
0.0
210
0.0
220
0.0
230
1.0
 40
0.7394845014
 41
-1.299515722032289
 42
-1.282545592833628
  0
ELLIPSE
  5
7F
330
75
100
AcDbEntity
  8
05069038_GEH._BO
  6
Continuous
 62
     7
100
AcDbEllipse
 10
117.2338382785
 20
175.7546498937
 30
0.0
 11
-27.38275995105135
 21
1.656460590076773E-6
 31
0.0
210
0.0
220
0.0
230
1.0
 40
0.7394844082
 41
1.282545726008874
 42
1.299515857729532
  0
ARC
  5
80
330
75
100
AcDbEntity
  8
05069038_GEH._BO
  6
Continuous
 62
     7
100
AcDbCircle
 10
67.1901954849
 20
154.9120775079
 30
0.0
 40
42.72684173802697
100
AcDbArc
 50
359.5114020957
 51
1.7891405035
  0
ARC
  5
81
330
75
100
AcDbEntity
  8
05069038_GEH._BO
  6
Continuous
 62
     7
100
AcDbCircle
 10
98.8004858472
 20
208.4199509297
 30
0.0
 40
9.106501264393707
100
AcDbArc
 50
240.8603641786
 51
243.0693749864
  0
LINE
  5
82
330
75
100
AcDbEntity
  8
05069038_GEH._BO
  6
Continuous
 62
     7
100
AcDbLine
 10
94.3682833988
 20
200.4843561814
 30
0.0
 11
95.0346652114
 21
200.6753114386
 31
0.0
  0
LINE
  5
83
330
75
100
AcDbEntity
  8
05069038_GEH._BO
  6
Continuous
 62
     7
100
AcDbLine
 10
95.1073116894
 20
200.4217950263
 30
0.0
 11
94.683332165
 21
200.3003014357
 31
0.0
  0
ARC
  5
84
330
75
100
AcDbEntity
  8
05069038_GEH._BO
  6
Continuous
 62
     7
100
AcDbCircle
 10
95.7530581609
 20
198.1683158058
 30
0.0
 40
2.607894847001735
100
AcDbArc
 50
74.0100628081
 51
105.9899371919
  0
ARC
  5
85
330
75
100
AcDbEntity
  8
05069038_GEH._BO
  6
Continuous
 62
     7
100
AcDbCircle
 10
95.7530581609
 20
198.1683158058
 30
0.0
 40
2.344175143368343
100
AcDbArc
 50
74.0100628081
 51
105.9899371919
  0
LINE
  5
86
330
75
100
AcDbEntity
  8
05069038_GEH._BO
  6
Continuous
 62
     7
100
AcDbLine
 10
96.4714511103
 20
200.6753114386
 30
0.0
 11
98.1547393758
 21
200.1929562219
 31
0.0
  0
LINE
  5
87
330
75
100
AcDbEntity
  8
05069038_GEH._BO
  6
Continuous
 62
     7
100
AcDbLine
 10
98.0820928977
 20
199.9394398096
 30
0.0
 11
96.3988046323
 21
200.4217950263
 31
0.0
  0
ARC
  5
88
330
75
100
AcDbEntity
  8
05069038_GEH._BO
  6
Continuous
 62
     7
100
AcDbCircle
 10
98.8004858472
 20
202.4464354424
 30
0.0
 40
2.344175143373
100
AcDbArc
 50
254.0100628081
 51
285.9899371919
  0
ARC
  5
89
330
75
100
AcDbEntity
  8
05069038_GEH._BO
  6
Continuous
 62
     7
100
AcDbCircle
 10
98.8004858472
 20
202.4464354424
 30
0.0
 40
2.607894847002437
100
AcDbArc
 50
254.0100628081
 51
285.9899371919
  0
LINE
  5
8A
330
75
100
AcDbEntity
  8
05069038_GEH._BO
  6
Continuous
 62
     7
100
AcDbLine
 10
99.4462323187
 20
200.1929562219
 30
0.0
 11
101.1295205841
 21
200.6753114386
 31
0.0
  0
LINE
  5
8B
330
75
100
AcDbEntity
  8
05069038_GEH._BO
  6
Continuous
 62
     7
100
AcDbLine
 10
101.2021670622
 20
200.4217950263
 30
0.0
 11
99.5188787967
 21
199.9394398096
 31
0.0
  0
ARC
  5
8C
330
75
100
AcDbEntity
  8
05069038_GEH._BO
  6
Continuous
 62
     7
100
AcDbCircle
 10
101.8479135336
 20
198.1683158058
 30
0.0
 40
2.607894847000163
100
AcDbArc
 50
74.0100628081
 51
105.9899371919
  0
ARC
  5
8D
330
75
100
AcDbEntity
  8
05069038_GEH._BO
  6
Continuous
 62
     7
100
AcDbCircle
 10
101.8479135336
 20
198.1683158058
 30
0.0
 40
2.344175143370721
100
AcDbArc
 50
74.0100628081
 51
105.9899371919
  0
LINE
  5
8E
330
75
100
AcDbEntity
  8
05069038_GEH._BO
  6
Continuous
 62
     7
100
AcDbLine
 10
102.5663064831
 20
200.6753114386
 30
0.0
 11
103.2326882957
 21
200.4843561814
 31
0.0
  0
LINE
  5
8F
330
75
100
AcDbEntity
  8
05069038_GEH._BO
  6
Continuous
 62
     7
100
AcDbLine
 10
102.9176395294
 20
200.3003014357
 30
0.0
 11
102.4936600051
 21
200.4217950263
 31
0.0
  0
ARC
  5
90
330
75
100
AcDbEntity
  8
05069038_GEH._BO
  6
Continuous
 62
     7
100
AcDbCircle
 10
98.8004858472
 20
208.4199509297
 30
0.0
 40
9.106501264385559
100
AcDbArc
 50
296.9306250136
 51
299.1396358214
  0
ARC
  5
91
330
75
100
AcDbEntity
  8
05069038_GEH._BO
  6
Continuous
 62
     7
100
AcDbCircle
 10
103.2299336104
 20
200.4747430805
 30
0.0
 40
0.0100000000000016
100
AcDbArc
 50
299.1396358213
 51
74.0100628081
  0
ARC
  5
92
330
75
100
AcDbEntity
  8
05069038_GEH._BO
  6
Continuous
 62
     7
100
AcDbCircle
 10
102.9203942147
 20
200.3099145366
 30
0.0
 40
0.0099999999999989
100
AcDbArc
 50
254.0100628081
 51
296.9306250136
  0
ARC
  5
93
330
75
100
AcDbEntity
  8
05069038_GEH._BO
  6
Continuous
 62
     7
100
AcDbCircle
 10
94.3710380841
 20
200.4747430805
 30
0.0
 40
0.0099999999999993
100
AcDbArc
 50
105.9899371919
 51
240.8603641786
  0
ARC
  5
94
330
75
100
AcDbEntity
  8
05069038_GEH._BO
  6
Continuous
 62
     7
100
AcDbCircle
 10
94.6805774798
 20
200.3099145366
 30
0.0
 40
0.0100000000000009
100
AcDbArc
 50
243.0693749863
 51
285.9899371918
  0
SPLINE
  5
95
330
75
100
AcDbEntity
  8
05069038_GEH._BO
  6
Continuous
 62
     7
100
AcDbSpline
210
0.0
220
0.0
230
1.0
 70
     8
 71
     3
 72
    18
 73
    14
 74
     0
 42
0.0000000014629368
 43
0.0000000001
 40
0.0
 40
0.0
 40
0.0
 40
0.0
 40
0.2500000000000002
 40
0.2500000000000002
 40
0.3750000000000002
 40
0.3750000000000002
 40
0.5000000000000002
 40
0.5000000000000002
 40
0.6250000000000002
 40
0.6250000000000002
 40
0.7500000000000002
 40
0.7500000000000002
 40
1.0
 40
1.0
 40
1.0
 40
1.0
 10
94.24940433317215
 20
203.5057477386207
 30
0.0
 10
93.8313477698112
 20
203.1366711777897
 30
0.0
 10
93.21707246486972
 20
203.0294651889137
 30
0.0
 10
92.42708402131599
 20
203.2725658234482
 30
0.0
 10
92.18301220015036
 20
203.4214911911554
 30
0.0
 10
91.81909409661795
 20
203.8335483708667
 30
0.0
 10
91.70108474171009
 20
204.1032446197804
 30
0.0
 10
91.67362768943526
 20
204.6532683061955
 30
0.0
 10
91.76490186763081
 20
204.9344743411974
 30
0.0
 10
92.09415435295496
 20
205.3782106292257
 30
0.0
 10
92.33065193561838
 20
205.5470525710185
 30
0.0
 10
93.10401472680707
 20
205.8423153736225
 30
0.0
 10
93.72189264235298
 20
205.7716997311928
 30
0.0
 10
94.16678594620085
 20
205.434005927099
 30
0.0
  0
SPLINE
  5
96
330
75
100
AcDbEntity
  8
05069038_GEH._BO
  6
Continuous
 62
     7
100
AcDbSpline
210
0.0
220
0.0
230
1.0
 70
     8
 71
     3
 72
    38
 73
    34
 74
     0
 42
0.0000000031511915
 43
0.0000000001
 40
0.0
 40
0.0
 40
0.0
 40
0.0
 40
0.0880936498978099
 40
0.0880936498978099
 40
0.0880936498978099
 40
0.1762571845116579
 40
0.1762571845116579
 40
0.1762571845116579
 40
0.2635478176306426
 40
0.2635478176306426
 40
0.2635478176306426
 40
0.3514357598854603
 40
0.3514357598854603
 40
0.3514357598854603
 40
0.4415616848768434
 40
0.4415616848768434
 40
0.4415616848768434
 40
0.5346935308839956
 40
0.5346935308839956
 40
0.5346935308839956
 40
0.6303883132596328
 40
0.6303883132596328
 40
0.6303883132596328
 40
0.7270246619240327
 40
0.7270246619240327
 40
0.7270246619240327
 40
0.8224259401366708
 40
0.8224259401366708
 40
0.8224259401366708
 40
0.9149513354603128
 40
0.9149513354603128
 40
0.9149513354603128
 40
1.0
 40
1.0
 40
1.0
 40
1.0
 10
93.62039308068188
 20
203.6858762542838
 30
0.0
 10
93.54189616420224
 20
203.6372368839339
 30
0.0
 10
93.45403908099398
 20
203.601251112824
 30
0.0
 10
93.36389954225214
 20
203.5811907588825
 30
0.0
 10
93.27371433325115
 20
203.5611202411264
 30
0.0
 10
93.17876382907248
 20
203.5564682232288
 30
0.0
 10
93.08705458906448
 20
203.5676759394419
 30
0.0
 10
92.99621431579551
 20
203.578777459893
 30
0.0
 10
92.90608059353858
 20
203.6057174917144
 30
0.0
 10
92.82392903562015
 20
203.6460451563564
 30
0.0
 10
92.74119188153851
 20
203.6866602863404
 30
0.0
 10
92.66433037202684
 20
203.7418982819009
 30
0.0
 10
92.599129502819
 20
203.8070432901801
 30
0.0
 10
92.53227408960363
 20
203.873841424934
 30
0.0
 10
92.47588899559776
 20
203.9527905215294
 30
0.0
 10
92.43396796917017
 20
204.0374915523736
 30
0.0
 10
92.39066607437643
 20
204.1249826144751
 30
0.0
 10
92.3616264623253
 20
204.2209296301772
 30
0.0
 10
92.3488496510491
 20
204.3177102745954
 30
0.0
 10
92.33572880119343
 20
204.4170969115969
 30
0.0
 10
92.33940709914583
 20
204.5200751698029
 30
0.0
 10
92.35962560172645
 20
204.6182641328731
 30
0.0
 10
92.38003205990319
 20
204.7173658818933
 30
0.0
 10
92.41789771354408
 20
204.8143728800104
 30
0.0
 10
92.4703724981236
 20
204.9008828631194
 30
0.0
 10
92.52216457831061
 20
204.9862673390742
 30
0.0
 10
92.58972641886052
 20
205.0638606641331
 30
0.0
 10
92.6675471098218
 20
205.1264455533835
 30
0.0
 10
92.74304009289865
 20
205.1871584553981
 30
0.0
 10
92.83039588215539
 20
205.2354687283389
 30
0.0
 10
92.92210699479436
 20
205.2666828082293
 30
0.0
 10
93.0065767974926
 20
205.2954322922763
 30
0.0
 10
93.09695812996502
 20
205.3104686794574
 30
0.0
 10
93.18618637885989
 20
205.3104686794572
 30
0.0
  0
SPLINE
  5
97
330
75
100
AcDbEntity
  8
05069038_GEH._BO
  6
Continuous
 62
     7
100
AcDbSpline
210
0.0
220
0.0
230
1.0
 70
     8
 71
     3
 72
    10
 73
     6
 74
     0
 42
0.0000000095627508
 43
0.0000000001
 40
0.0
 40
0.0
 40
0.0
 40
0.0
 40
0.5
 40
0.5
 40
1.0
 40
1.0
 40
1.0
 40
1.0
 10
93.18618637885989
 20
205.3104686794572
 30
0.0
 10
93.36113808718979
 20
205.3104686794573
 30
0.0
 10
93.53181050700458
 20
205.2845234518113
 30
0.0
 10
93.86433389258745
 20
205.1791487239333
 30
0.0
 10
94.02013396559033
 20
205.1013431813861
 30
0.0
 10
94.1607399390747
 20
204.9968684114818
 30
0.0
  0
SPLINE
  5
98
330
75
100
AcDbEntity
  8
05069038_GEH._BO
  6
Continuous
 62
     7
100
AcDbSpline
210
0.0
220
0.0
230
1.0
 70
     8
 71
     3
 72
    18
 73
    14
 74
     0
 42
0.0000000014727619
 43
0.0000000001
 40
0.0
 40
0.0
 40
0.0
 40
0.0
 40
0.2499999999999998
 40
0.2499999999999998
 40
0.3749999999999999
 40
0.3749999999999999
 40
0.5
 40
0.5
 40
0.625
 40
0.625
 40
0.7500000000000001
 40
0.7500000000000001
 40
1.0
 40
1.0
 40
1.0
 40
1.0
 10
94.1607399390747
 20
205.4260406400464
 30
0.0
 10
93.71914150656332
 20
205.761233490258
 30
0.0
 10
93.11319489127541
 20
205.833430161441
 30
0.0
 10
92.33780283020967
 20
205.5399113309476
 30
0.0
 10
92.10672233656926
 20
205.3751674906835
 30
0.0
 10
91.77916860010814
 20
204.940015041206
 30
0.0
 10
91.68544880384283
 20
204.6620527019063
 30
0.0
 10
91.7083905677299
 20
204.1139414838978
 30
0.0
 10
91.82397614738726
 20
203.8448582002491
 30
0.0
 10
92.18577671379315
 20
203.4317709717965
 30
0.0
 10
92.43117512426244
 20
203.2817007896489
 30
0.0
 10
93.21883706270363
 20
203.0395228190225
 30
0.0
 10
93.82649136970117
 20
203.1457231909423
 30
0.0
 10
94.2427860690927
 20
203.5132443098752
 30
0.0
  0
LINE
  5
99
330
75
100
AcDbEntity
  8
05069038_GEH._BO
  6
Continuous
 62
     7
100
AcDbLine
 10
94.1707399391
 20
205.42604064
 30
0.0
 11
94.1707399391
 21
204.9968684115
 31
0.0
  0
LINE
  5
9A
330
75
100
AcDbEntity
  8
05069038_GEH._BO
  6
Continuous
 62
     7
100
AcDbLine
 10
94.2527860691
 20
204.4260540953
 30
0.0
 11
94.2527860691
 21
203.5132443099
 31
0.0
  0
SPLINE
  5
9B
330
75
100
AcDbEntity
  8
05069038_GEH._BO
  6
Continuous
 62
     7
100
AcDbSpline
210
0.0
220
0.0
230
1.0
 70
     8
 71
     3
 72
     8
 73
     4
 74
     0
 42
0.0000000032263752
 43
0.0000000001
 40
0.0
 40
0.0
 40
0.0
 40
0.0
 40
0.0849520659271468
 40
0.0849520659271468
 40
0.0849520659271468
 40
0.0849520659271468
 10
93.18618637885989
 20
205.2904686794572
 30
0.0
 10
93.09923391883135
 20
205.2904686794573
 30
0.0
 10
93.01112507154679
 20
205.2758033904367
 30
0.0
 10
92.92871999394012
 20
205.2478053555143
 30
0.0
  0
SPLINE
  5
9C
330
75
100
AcDbEntity
  8
05069038_GEH._BO
  6
Continuous
 62
     7
100
AcDbSpline
210
0.0
220
0.0
230
1.0
 70
     8
 71
     3
 72
     8
 73
     4
 74
     0
 42
0.0000000032243898
 43
0.0000000001
 40
0.9200265421472105
 40
0.9200265421472105
 40
0.9200265421472105
 40
0.9200265421472105
 40
1.0
 40
1.0
 40
1.0
 40
1.0
 10
93.38342603028833
 20
203.606412327565
 30
0.0
 10
93.46295293701306
 20
203.6267103790562
 30
0.0
 10
93.54015309128057
 20
203.6596850673838
 30
0.0
 10
93.60985878038245
 20
203.7028770930044
 30
0.0
  0
SPLINE
  5
9D
330
75
100
AcDbEntity
  8
05069038_GEH._BO
  6
Continuous
 62
     7
100
AcDbSpline
210
0.0
220
0.0
230
1.0
 70
     8
 71
     3
 72
    10
 73
     6
 74
     0
 42
0.0000000096815224
 43
0.0000000001
 40
0.0
 40
0.0
 40
0.0
 40
0.0
 40
0.5
 40
0.5
 40
1.0
 40
1.0
 40
1.0
 40
1.0
 10
94.14881164788135
 20
204.9808148801193
 30
0.0
 10
94.00990231152451
 20
205.0840289939567
 30
0.0
 10
93.85747683521984
 20
205.1602209781893
 30
0.0
 10
93.52864713582191
 20
205.2646654605313
 30
0.0
 10
93.35899985499884
 20
205.2904686794573
 30
0.0
 10
93.18618637885989
 20
205.2904686794572
 30
0.0
  0
SPLINE
  5
9E
330
75
100
AcDbEntity
  8
05069038_GEH._BO
  6
Continuous
 62
     7
100
AcDbSpline
210
0.0
220
0.0
230
1.0
 70
     8
 71
     3
 72
     8
 73
     4
 74
     0
 42
0.0000000014855162
 43
0.0000000001
 40
0.0
 40
0.0
 40
0.0
 40
0.0
 40
0.0102487408827417
 40
0.0102487408827417
 40
0.0102487408827417
 40
0.0102487408827417
 10
94.25602259725186
 20
203.4982511673663
 30
0.0
 10
94.23874795768889
 20
203.483000445052
 30
0.0
 10
94.2211518630869
 20
203.4681926427869
 30
0.0
 10
94.2032529281325
 20
203.4538283724842
 30
0.0
  0
SPLINE
  5
9F
330
75
100
AcDbEntity
  8
05069038_GEH._BO
  6
Continuous
 62
     7
100
AcDbSpline
210
0.0
220
0.0
230
1.0
 70
     8
 71
     3
 72
     8
 73
     4
 74
     0
 42
0.0000000014772308
 43
0.0000000001
 40
0.8752294544372005
 40
0.8752294544372005
 40
0.8752294544372005
 40
0.8752294544372005
 40
1.0
 40
1.0
 40
1.0
 40
1.0
 10
93.40675649378576
 20
205.7501636771271
 30
0.0
 10
93.68246523349943
 20
205.7145275952498
 30
0.0
 10
93.94916337816005
 20
205.6117456102847
 30
0.0
 10
94.17283195332708
 20
205.4419712141515
 30
0.0
  0
SPLINE
  5
A0
330
75
100
AcDbEntity
  8
05069038_GEH._BO
  6
Continuous
 62
     7
100
AcDbSpline
210
0.0
220
0.0
230
1.0
 70
     8
 71
     3
 72
    10
 73
     6
 74
     0
 42
0.0000000096220954
 43
0.0000000001
 40
0.0
 40
0.0
 40
0.0
 40
0.0
 40
0.5
 40
0.5
 40
1.0
 40
1.0
 40
1.0
 40
1.0
 10
94.15477579347801
 20
204.9888416458005
 30
0.0
 10
94.01520076108065
 20
205.0925503932509
 30
0.0
 10
93.85742600537259
 20
205.1710622355514
 30
0.0
 10
93.52894021532609
 20
205.2747259338801
 30
0.0
 10
93.35992016438124
 20
205.3004686794569
 30
0.0
 10
93.18618637885989
 20
205.3004686794572
 30
0.0
  0
LINE
  5
A1
330
75
100
AcDbEntity
  8
05069038_GEH._BO
  6
Continuous
 62
     7
100
AcDbLine
 10
93.6298587804
 20
204.4360540953
 30
0.0
 11
94.2427860691
 21
204.4360540953
 31
0.0
  0
LINE
  5
A2
330
75
100
AcDbEntity
  8
05069038_GEH._BO
  6
Continuous
 62
     7
100
AcDbLine
 10
93.6198587804
 20
203.702877093
 30
0.0
 11
93.6198587804
 21
204.4260540953
 31
0.0
  0
SPLINE
  5
A3
330
75
100
AcDbEntity
  8
05069038_GEH._BO
  6
Continuous
 62
     7
100
AcDbSpline
210
0.0
220
0.0
230
1.0
 70
     8
 71
     3
 72
    44
 73
    40
 74
     0
 42
0.00000000318934
 43
0.0000000001
 40
0.0
 40
0.0
 40
0.0
 40
0.0
 40
0.0063481730479955
 40
0.0063481730479955
 40
0.0063481730479955
 40
0.0317996295016273
 40
0.0317996295016273
 40
0.0317996295016273
 40
0.119460946228063
 40
0.119460946228063
 40
0.119460946228063
 40
0.2070175158803325
 40
0.2070175158803325
 40
0.2070175158803325
 40
0.2972061965168274
 40
0.2972061965168274
 40
0.2972061965168274
 40
0.3904326548532433
 40
0.3904326548532433
 40
0.3904326548532433
 40
0.4862456438594813
 40
0.4862456438594813
 40
0.4862456438594813
 40
0.5829982239316485
 40
0.5829982239316485
 40
0.5829982239316485
 40
0.6784868648221115
 40
0.6784868648221115
 40
0.6784868648221115
 40
0.7710565308068517
 40
0.7710565308068517
 40
0.7710565308068517
 40
0.8604826370492901
 40
0.8604826370492901
 40
0.8604826370492901
 40
0.947978994911575
 40
0.947978994911575
 40
0.947978994911575
 40
1.0
 40
1.0
 40
1.0
 40
1.0
 10
93.18618637885989
 20
205.3004686794572
 30
0.0
 10
93.17951919997967
 20
205.3004686794572
 30
0.0
 10
93.17285150900652
 20
205.300386022604
 30
0.0
 10
93.16618637885995
 20
205.3002207520677
 30
0.0
 10
93.13949502699553
 20
205.2995589054211
 30
0.0
 10
93.11280387890795
 20
205.2975679074495
 30
0.0
 10
93.08630948467211
 20
205.294264367014
 30
0.0
 10
92.99623805108713
 20
205.2830335149218
 30
0.0
 10
92.90690560422445
 20
205.2560276285067
 30
0.0
 10
92.8255749898512
 20
205.2157246962009
 30
0.0
 10
92.744300116392
 20
205.1754493859942
 30
0.0
 10
92.66884012662722
 20
205.12087087712
 30
0.0
 10
92.60482064925675
 20
205.0566119307757
 30
0.0
 10
92.53888968917131
 20
204.9904343516925
 30
0.0
 10
92.48333424224208
 20
204.9122729499707
 30
0.0
 10
92.44208115680306
 20
204.8284603828172
 30
0.0
 10
92.3994557897248
 20
204.7418597951842
 30
0.0
 10
92.37094819239277
 20
204.6469311263642
 30
0.0
 10
92.35851789748236
 20
204.5512124162529
 30
0.0
 10
92.34575018211073
 20
204.4528954209405
 30
0.0
 10
92.34960300015618
 20
204.351061382317
 30
0.0
 10
92.36980556714596
 20
204.2539990188073
 30
0.0
 10
92.39019518151812
 20
204.1560379942001
 30
0.0
 10
92.42784862403813
 20
204.0601844209888
 30
0.0
 10
92.47993366810488
 20
203.9747487908284
 30
0.0
 10
92.5313263228783
 20
203.890448893903
 30
0.0
 10
92.59829713830409
 20
203.8138871602444
 30
0.0
 10
92.67538190396941
 20
203.7521974812971
 30
0.0
 10
92.75012873999907
 20
203.6923788092521
 30
0.0
 10
92.83657324321932
 20
203.644847332112
 30
0.0
 10
92.92728136790393
 20
203.6142303574433
 30
0.0
 10
93.01496316663552
 20
203.5846348672927
 30
0.0
 10
93.10911855985171
 20
203.5700146617558
 30
0.0
 10
93.20164340836874
 20
203.571787589549
 30
0.0
 10
93.2922306962925
 20
203.5735233905047
 30
0.0
 10
93.38374788123697
 20
203.59099849672
 30
0.0
 10
93.46866501507147
 20
203.6225920106062
 30
0.0
 10
93.5196214744303
 20
203.6415504178632
 30
0.0
 10
93.56891004901819
 20
203.6657397350506
 30
0.0
 10
93.6151259305321
 20
203.6943766736441
 30
0.0
  0
ARC
  5
A4
330
75
100
AcDbEntity
  8
05069038_GEH._BO
  6
Continuous
 62
     7
100
AcDbCircle
 10
93.6098587804
 20
203.702877093
 30
0.0
 40
0.0100000000001184
100
AcDbArc
 50
301.7837691317
 51
0.0
  0
ARC
  5
A5
330
75
100
AcDbEntity
  8
05069038_GEH._BO
  6
Continuous
 62
     7
100
AcDbCircle
 10
93.6298587804
 20
204.4260540953
 30
0.0
 40
0.0099999999999996
100
AcDbArc
 50
90.0
 51
180.0
  0
ARC
  5
A6
330
75
100
AcDbEntity
  8
05069038_GEH._BO
  6
Continuous
 62
     7
100
AcDbCircle
 10
94.2427860691
 20
204.4260540953
 30
0.0
 40
0.0099999999999996
100
AcDbArc
 50
0.0
 51
90.0
  0
ARC
  5
A7
330
75
100
AcDbEntity
  8
05069038_GEH._BO
  6
Continuous
 62
     7
100
AcDbCircle
 10
94.1607399391
 20
204.9968684115
 30
0.0
 40
0.0100000000000015
100
AcDbArc
 50
233.3864613228
 51
0.0
  0
ARC
  5
A8
330
75
100
AcDbEntity
  8
05069038_GEH._BO
  6
Continuous
 62
     7
100
AcDbCircle
 10
94.2427860691
 20
203.5132443099
 30
0.0
 40
0.0100000000000013
100
AcDbArc
 50
311.4393142367
 51
0.0
  0
ARC
  5
A9
330
75
100
AcDbEntity
  8
05069038_GEH._BO
  6
Continuous
 62
     7
100
AcDbCircle
 10
94.1607399391
 20
205.42604064
 30
0.0
 40
0.0099999999999996
100
AcDbArc
 50
0.0
 51
52.7998850706
  0
LINE
  5
AA
330
75
100
AcDbEntity
  8
05069038_GEH._BO
  6
Continuous
 62
     7
100
AcDbLine
 10
94.2494043332
 20
203.5057477386
 30
0.0
 11
94.2427860691
 21
203.5132443099
 31
0.0
  0
LINE
  5
AB
330
75
100
AcDbEntity
  8
05069038_GEH._BO
  6
Continuous
 62
     7
100
AcDbLine
 10
97.2136362809
 20
203.2200132397
 30
0.0
 11
96.4495212834
 21
203.2200132397
 31
0.0
  0
LINE
  5
AC
330
75
100
AcDbEntity
  8
05069038_GEH._BO
  6
Continuous
 62
     7
100
AcDbLine
 10
96.441587749
 20
203.2239256267
 30
0.0
 11
95.5485664201
 21
204.3877340682
 31
0.0
  0
ARC
  5
AD
330
75
100
AcDbEntity
  8
05069038_GEH._BO
  6
Continuous
 62
     7
100
AcDbCircle
 10
95.8380345039
 20
204.7994012396
 30
0.0
 40
0.3855795583912573
100
AcDbArc
 50
270.0
 51
90.0
  0
LINE
  5
AE
330
75
100
AcDbEntity
  8
05069038_GEH._BO
  6
Continuous
 62
     7
100
AcDbLine
 10
96.3652099804
 20
204.2098041105
 30
0.0
 11
97.2211452105
 21
203.236617479
 31
0.0
  0
LINE
  5
AF
330
75
100
AcDbEntity
  8
05069038_GEH._BO
  6
Continuous
 62
     7
100
AcDbLine
 10
95.5564999545
 20
204.4038216812
 30
0.0
 11
95.8380345039
 21
204.4038216812
 31
0.0
  0
ARC
  5
B0
330
75
100
AcDbEntity
  8
05069038_GEH._BO
  6
Continuous
 62
     7
100
AcDbCircle
 10
96.1339866216
 20
204.9195402187
 30
0.0
 40
0.732554732304276
100
AcDbArc
 50
288.7537395542
 51
90.0
  0
ARC
  5
B1
330
75
100
AcDbEntity
  8
05069038_GEH._BO
  6
Continuous
 62
     7
100
AcDbCircle
 10
95.8380345039
 20
204.7994012396
 30
0.0
 40
0.3955795583912569
100
AcDbArc
 50
270.0
 51
90.0
  0
LINE
  5
B2
330
75
100
AcDbEntity
  8
05069038_GEH._BO
  6
Continuous
 62
     7
100
AcDbLine
 10
94.8136672278
 20
205.652094951
 30
0.0
 11
96.1339866216
 21
205.652094951
 31
0.0
  0
LINE
  5
B3
330
75
100
AcDbEntity
  8
05069038_GEH._BO
  6
Continuous
 62
     7
100
AcDbLine
 10
95.8380345039
 20
205.194980798
 30
0.0
 11
95.4465945165
 21
205.194980798
 31
0.0
  0
LINE
  5
B4
330
75
100
AcDbEntity
  8
05069038_GEH._BO
  6
Continuous
 62
     7
100
AcDbLine
 10
94.8036672278
 20
203.2300132397
 30
0.0
 11
94.8036672278
 21
205.642094951
 31
0.0
  0
LINE
  5
B5
330
75
100
AcDbEntity
  8
05069038_GEH._BO
  6
Continuous
 62
     7
100
AcDbLine
 10
95.4365945165
 20
205.184980798
 30
0.0
 11
95.4365945165
 21
203.2300132397
 31
0.0
  0
LINE
  5
B6
330
75
100
AcDbEntity
  8
05069038_GEH._BO
  6
Continuous
 62
     7
100
AcDbLine
 10
95.4265945165
 20
203.2200132397
 30
0.0
 11
94.8136672278
 21
203.2200132397
 31
0.0
  0
ARC
  5
B7
330
75
100
AcDbEntity
  8
05069038_GEH._BO
  6
Continuous
 62
     7
100
AcDbCircle
 10
95.4265945165
 20
203.2300132397
 30
0.0
 40
0.0099999999999996
100
AcDbArc
 50
270.0
 51
0.0
  0
ARC
  5
B8
330
75
100
AcDbEntity
  8
05069038_GEH._BO
  6
Continuous
 62
     7
100
AcDbCircle
 10
94.8136672278
 20
203.2300132397
 30
0.0
 40
0.0099999999999996
100
AcDbArc
 50
180.0
 51
270.0
  0
ARC
  5
B9
330
75
100
AcDbEntity
  8
05069038_GEH._BO
  6
Continuous
 62
     7
100
AcDbCircle
 10
95.4465945165
 20
205.184980798
 30
0.0
 40
0.01
100
AcDbArc
 50
90.0
 51
180.0
  0
ARC
  5
BA
330
75
100
AcDbEntity
  8
05069038_GEH._BO
  6
Continuous
 62
     7
100
AcDbCircle
 10
94.8136672278
 20
205.642094951
 30
0.0
 40
0.0099999999999996
100
AcDbArc
 50
90.0
 51
180.0
  0
ARC
  5
BB
330
75
100
AcDbEntity
  8
05069038_GEH._BO
  6
Continuous
 62
     7
100
AcDbCircle
 10
96.37271891
 20
204.2164083498
 30
0.0
 40
0.0100000000000001
100
AcDbArc
 50
108.7537395541
 51
221.3322119446
  0
ARC
  5
BC
330
75
100
AcDbEntity
  8
05069038_GEH._BO
  6
Continuous
 62
     7
100
AcDbCircle
 10
95.5564999545
 20
204.3938216812
 30
0.0
 40
0.0099999999999996
100
AcDbArc
 50
90.0
 51
217.4999907931
  0
ARC
  5
BD
330
75
100
AcDbEntity
  8
05069038_GEH._BO
  6
Continuous
 62
     7
100
AcDbCircle
 10
97.2136362809
 20
203.2300132397
 30
0.0
 40
0.0099999999999996
100
AcDbArc
 50
270.0
 51
41.3322119443
  0
ARC
  5
BE
330
75
100
AcDbEntity
  8
05069038_GEH._BO
  6
Continuous
 62
     7
100
AcDbCircle
 10
96.4495212834
 20
203.2300132397
 30
0.0
 40
0.0099999999999995
100
AcDbArc
 50
217.4999907931
 51
270.0
  0
SPLINE
  5
BF
330
75
100
AcDbEntity
  8
05069038_GEH._BO
  6
Continuous
 62
     7
100
AcDbSpline
210
0.0
220
0.0
230
1.0
 70
     8
 71
     3
 72
     8
 73
     4
 74
     0
 42
0.0000000018861604
 43
0.0000000001
 40
0.0
 40
0.0
 40
0.0
 40
0.0
 40
0.0504544440937621
 40
0.0504544440937621
 40
0.0504544440937621
 40
0.0504544440937621
 10
98.80048584723372
 20
205.2904686794571
 30
0.0
 10
98.71215561625473
 20
205.2904686794571
 30
0.0
 10
98.62263206153119
 20
205.2753349623411
 30
0.0
 10
98.53910663411544
 20
205.2464644230645
 30
0.0
  0
SPLINE
  5
C0
330
75
100
AcDbEntity
  8
05069038_GEH._BO
  6
Continuous
 62
     7
100
AcDbSpline
210
0.0
220
0.0
230
1.0
 70
     8
 71
     3
 72
     8
 73
     4
 74
     0
 42
0.0000000018799163
 43
0.0000000001
 40
0.9699322481697066
 40
0.9699322481697066
 40
0.9699322481697066
 40
0.9699322481697066
 40
1.0
 40
1.0
 40
1.0
 40
1.0
 10
98.95909818722228
 20
205.2745329748487
 30
0.0
 10
98.90700900668278
 20
205.2850939048944
 30
0.0
 10
98.8536106714312
 20
205.2904686794571
 30
0.0
 10
98.80048584723372
 20
205.2904686794571
 30
0.0
  0
SPLINE
  5
C1
330
75
100
AcDbEntity
  8
05069038_GEH._BO
  6
Continuous
 62
     7
100
AcDbSpline
210
0.0
220
0.0
230
1.0
 70
     8
 71
     3
 72
     8
 73
     4
 74
     0
 42
0.0000000018688596
 43
0.0000000001
 40
0.9540341122607067
 40
0.9540341122607067
 40
0.9540341122607067
 40
0.9540341122607067
 40
0.9860973858399696
 40
0.9860973858399696
 40
0.9860973858399696
 40
0.9860973858399696
 10
98.55818035679438
 20
205.2631946020827
 30
0.0
 10
98.61273468959527
 20
205.280278669267
 30
0.0
 10
98.66918892874163
 20
205.2917280685567
 30
0.0
 10
98.72573947987458
 20
205.2969988069925
 30
0.0
  0
SPLINE
  5
C2
330
75
100
AcDbEntity
  8
05069038_GEH._BO
  6
Continuous
 62
     7
100
AcDbSpline
210
0.0
220
0.0
230
1.0
 70
     8
 71
     3
 72
     8
 73
     4
 74
     0
 42
0.0000000011126099
 43
0.0000000001
 40
0.0
 40
0.0
 40
0.0
 40
0.0
 40
0.0111691280594097
 40
0.0111691280594097
 40
0.0111691280594097
 40
0.0111691280594097
 10
100.310757938991
 20
204.4360540953389
 30
0.0
 10
100.310757938991
 20
204.4024721848627
 30
0.0
 10
100.3092371226541
 20
204.3690416770946
 30
0.0
 10
100.3062626637085
 20
204.3358348816175
 30
0.0
  0
SPLINE
  5
C3
330
75
100
AcDbEntity
  8
05069038_GEH._BO
  6
Continuous
 62
     7
100
AcDbSpline
210
0.0
220
0.0
230
1.0
 70
     8
 71
     3
 72
    14
 73
    10
 74
     0
 42
0.0000000010997098
 43
0.0000000001
 40
0.0178064391230307
 40
0.0178064391230307
 40
0.0178064391230307
 40
0.0178064391230307
 40
0.125
 40
0.125
 40
0.25
 40
0.25
 40
0.375
 40
0.375
 40
0.4650569773076399
 40
0.4650569773076399
 40
0.4650569773076399
 40
0.4650569773076399
 10
100.2994339843183
 20
204.2768871403061
 30
0.0
 10
100.254533878814
 20
203.9609881442923
 30
0.0
 10
100.0794180066922
 20
203.6696528367669
 30
0.0
 10
99.54666075082228
 20
203.2302552889968
 30
0.0
 10
99.17432123276086
 20
203.1073572685016
 30
0.0
 10
98.42574796892622
 20
203.1075540044777
 30
0.0
 10
98.05786507992917
 20
203.2281169390427
 30
0.0
 10
97.56146088045051
 20
203.6361719510022
 30
0.0
 10
97.40506378389114
 20
203.8694993991949
 30
0.0
 10
97.33340969560452
 20
204.1257969393299
 30
0.0
  0
SPLINE
  5
C4
330
75
100
AcDbEntity
  8
05069038_GEH._BO
  6
Continuous
 62
     7
100
AcDbSpline
210
0.0
220
0.0
230
1.0
 70
     8
 71
     3
 72
     8
 73
     4
 74
     0
 42
0.0000000011137498
 43
0.0000000001
 40
0.9555608607230235
 40
0.9555608607230235
 40
0.9555608607230235
 40
0.9555608607230235
 40
1.0
 40
1.0
 40
1.0
 40
1.0
 10
100.242622415245
 20
204.8253042336364
 30
0.0
 10
100.2866180146252
 20
204.7009576515535
 30
0.0
 10
100.310757938991
 20
204.5696680344845
 30
0.0
 10
100.310757938991
 20
204.4360540953389
 30
0.0
  0
SPLINE
  5
C5
330
75
100
AcDbEntity
  8
05069038_GEH._BO
  6
Continuous
 62
     7
100
AcDbSpline
210
0.0
220
0.0
230
1.0
 70
    11
 71
     3
 72
    22
 73
    18
 74
     0
 42
0.000000001107398
 43
0.0000000001
 40
0.0
 40
0.0
 40
0.0
 40
0.0
 40
0.125
 40
0.125
 40
0.25
 40
0.25
 40
0.375
 40
0.375
 40
0.5
 40
0.5
 40
0.625
 40
0.625
 40
0.75
 40
0.75
 40
0.875
 40
0.875
 40
1.0
 40
1.0
 40
1.0
 40
1.0
 10
100.290757938991
 20
204.4360540953389
 30
0.0
 10
100.290757938991
 20
204.8065987438
 30
0.0
 10
100.1023879029349
 20
205.1582168771186
 30
0.0
 10
99.53615302220065
 20
205.6239602833566
 30
0.0
 10
99.16912425408205
 20
205.7447497421123
 30
0.0
 10
98.43095374550091
 20
205.7445553671947
 30
0.0
 10
98.06833586546131
 20
205.6260509612476
 30
0.0
 10
97.4987811758899
 20
205.1591763193797
 30
0.0
 10
97.31146460803042
 20
204.8069777866948
 30
0.0
 10
97.30897610687633
 20
204.0729202214814
 30
0.0
 10
97.49434249974036
 20
203.7181170537123
 30
0.0
 10
98.06567215148361
 20
203.2467130891138
 30
0.0
 10
98.43438807742497
 20
203.1274261121049
 30
0.0
 10
99.16685672567169
 20
203.1274850532687
 30
0.0
 10
99.53598000158131
 20
203.2481571407781
 30
0.0
 10
100.1018542235792
 20
203.7133009895544
 30
0.0
 10
100.290757938991
 20
204.0655094468779
 30
0.0
 10
100.290757938991
 20
204.4360540953389
 30
0.0
  0
SPLINE
  5
C6
330
75
100
AcDbEntity
  8
05069038_GEH._BO
  6
Continuous
 62
     7
100
AcDbSpline
210
0.0
220
0.0
230
1.0
 70
    11
 71
     3
 72
    22
 73
    18
 74
     0
 42
0.0000000010995711
 43
0.0000000001
 40
0.0
 40
0.0
 40
0.0
 40
0.0
 40
0.125
 40
0.125
 40
0.25
 40
0.25
 40
0.375
 40
0.375
 40
0.5
 40
0.5
 40
0.625
 40
0.625
 40
0.75
 40
0.75
 40
0.875
 40
0.875
 40
1.0
 40
1.0
 40
1.0
 40
1.0
 10
100.300757938991
 20
204.4360540953389
 30
0.0
 10
100.300757938991
 20
204.0629576854311
 30
0.0
 10
100.1098284718201
 20
203.7068399871772
 30
0.0
 10
99.54037390878997
 20
203.2388951683977
 30
0.0
 10
99.16894309781154
 20
203.1171346503103
 30
0.0
 10
98.42906101505132
 20
203.1177777938619
 30
0.0
 10
98.06060676776227
 20
203.2388365472075
 30
0.0
 10
97.49089487513673
 20
203.7070953265585
 30
0.0
 10
97.30117086356854
 20
204.0619749796627
 30
0.0
 10
97.29926429474499
 20
204.8041791521983
 30
0.0
 10
97.48698420473993
 20
205.1607515835531
 30
0.0
 10
98.05968908763954
 20
205.6335556151228
 30
0.0
 10
98.43121020515034
 20
205.7548110544244
 30
0.0
 10
99.17122482557427
 20
205.7544938589285
 30
0.0
 10
99.53989982459703
 20
205.6340695104787
 30
0.0
 10
100.1124737830583
 20
205.1626257534193
 30
0.0
 10
100.300757938991
 20
204.8091505052468
 30
0.0
 10
100.300757938991
 20
204.4360540953389
 30
0.0
  0
SPLINE
  5
C7
330
75
100
AcDbEntity
  8
05069038_GEH._BO
  6
Continuous
 62
     7
100
AcDbSpline
210
0.0
220
0.0
230
1.0
 70
    11
 71
     3
 72
    68
 73
    64
 74
     0
 42
0.0000000018643113
 43
0.0000000001
 40
0.0
 40
0.0
 40
0.0
 40
0.0
 40
0.0037100999831256
 40
0.0037100999831256
 40
0.0037100999831256
 40
0.0185848438575002
 40
0.0185848438575002
 40
0.0185848438575002
 40
0.0698172610031184
 40
0.0698172610031184
 40
0.0698172610031184
 40
0.1209884602022254
 40
0.1209884602022254
 40
0.1209884602022254
 40
0.1736979594514923
 40
0.1736979594514923
 40
0.1736979594514923
 40
0.2281828449273164
 40
0.2281828449273164
 40
0.2281828449273164
 40
0.2841793916829938
 40
0.2841793916829938
 40
0.2841793916829938
 40
0.3407250691525767
 40
0.3407250691525767
 40
0.3407250691525767
 40
0.3965320552378422
 40
0.3965320552378422
 40
0.3965320552378422
 40
0.4506330877099063
 40
0.4506330877099063
 40
0.4506330877099063
 40
0.5028969111363608
 40
0.5028969111363608
 40
0.5028969111363608
 40
0.5540329204061264
 40
0.5540329204061264
 40
0.5540329204061264
 40
0.6051729143325317
 40
0.6051729143325317
 40
0.6051729143325317
 40
0.6573855891630954
 40
0.6573855891630954
 40
0.6573855891630954
 40
0.711308341769512
 40
0.711308341769512
 40
0.711308341769512
 40
0.7669061983840092
 40
0.7669061983840092
 40
0.7669061983840092
 40
0.8234099782472692
 40
0.8234099782472692
 40
0.8234099782472692
 40
0.8795710458264167
 40
0.8795710458264167
 40
0.8795710458264167
 40
0.9342518644374707
 40
0.9342518644374707
 40
0.9342518644374707
 40
0.9870354346727084
 40
0.9870354346727084
 40
0.9870354346727084
 40
1.0
 40
1.0
 40
1.0
 40
1.0
 10
98.80048584723372
 20
205.3004686794571
 30
0.0
 10
98.79381866835351
 20
205.3004686794571
 30
0.0
 10
98.78715097738035
 20
205.3003860226039
 30
0.0
 10
98.78048584723379
 20
205.3002207520676
 30
0.0
 10
98.75379449536936
 20
205.299558905421
 30
0.0
 10
98.7271033472818
 20
205.2975679074494
 30
0.0
 10
98.70060895304596
 20
205.2942643670138
 30
0.0
 10
98.61053751946099
 20
205.2830335149216
 30
0.0
 10
98.52120507259835
 20
205.2560276285064
 30
0.0
 10
98.43987445822515
 20
205.2157246962005
 30
0.0
 10
98.35859958476597
 20
205.1754493859937
 30
0.0
 10
98.28313959500124
 20
205.1208708771195
 30
0.0
 10
98.21912011763082
 20
205.0566119307752
 30
0.0
 10
98.15318915754547
 20
204.9904343516919
 30
0.0
 10
98.0976337106163
 20
204.9122729499701
 30
0.0
 10
98.05638062517734
 20
204.8284603828165
 30
0.0
 10
98.01375525809917
 20
204.7418597951836
 30
0.0
 10
97.98524766076723
 20
204.6469311263635
 30
0.0
 10
97.97281736585688
 20
204.5512124162522
 30
0.0
 10
97.96004965048535
 20
204.4528954209398
 30
0.0
 10
97.96390246853088
 20
204.3510613823163
 30
0.0
 10
97.98410503552071
 20
204.2539990188066
 30
0.0
 10
98.00449464989296
 20
204.1560379941995
 30
0.0
 10
98.04214809241304
 20
204.0601844209883
 30
0.0
 10
98.09423313647986
 20
203.9747487908279
 30
0.0
 10
98.14562579125332
 20
203.8904488939025
 30
0.0
 10
98.21259660667917
 20
203.813887160244
 30
0.0
 10
98.28968137234453
 20
203.7521974812968
 30
0.0
 10
98.36442820837424
 20
203.6923788092519
 30
0.0
 10
98.45087271159451
 20
203.6448473321119
 30
0.0
 10
98.54158083627914
 20
203.6142303574432
 30
0.0
 10
98.62926263501076
 20
203.5846348672927
 30
0.0
 10
98.72341802822693
 20
203.5700146617558
 30
0.0
 10
98.81594287674396
 20
203.5717875895492
 30
0.0
 10
98.90653016466769
 20
203.5735233905049
 30
0.0
 10
98.99804734961214
 20
203.5909984967203
 30
0.0
 10
99.0829644834466
 20
203.6225920106065
 30
0.0
 10
99.16792179291193
 20
203.6542004718807
 30
0.0
 10
99.24856104673079
 20
203.7007495381947
 30
0.0
 10
99.31868803578882
 20
203.7581868489027
 30
0.0
 10
99.3902876854987
 20
203.8168303381244
 30
0.0
 10
99.45284349663727
 20
203.8883400519582
 30
0.0
 10
99.5018612004606
 20
203.9668437676573
 30
0.0
 10
99.55246817935921
 20
204.0478927677933
 30
0.0
 10
99.59000729085732
 20
204.1385279899178
 30
0.0
 10
99.61188850111229
 20
204.2315399212711
 30
0.0
 10
99.63443708716736
 20
204.327388711801
 30
0.0
 10
99.64096974444291
 20
204.4283523012497
 30
0.0
 10
99.63103305205371
 20
204.5263150060076
 30
0.0
 10
99.62094033858035
 20
204.6258158732452
 30
0.0
 10
99.59354788261477
 20
204.7249945075206
 30
0.0
 10
99.55086648339442
 20
204.8154410862668
 30
0.0
 10
99.50845904655472
 20
204.9053071085998
 30
0.0
 10
99.44969624166652
 20
204.9891101258112
 30
0.0
 10
99.37925943677638
 20
205.0592025589702
 30
0.0
 10
99.31067260164346
 20
205.1274540670367
 30
0.0
 10
99.22899555944106
 20
205.1846484009293
 30
0.0
 10
99.1411741319455
 20
205.2252663671457
 30
0.0
 10
99.05635470769786
 20
205.264495887854
 30
0.0
 10
98.96337068674178
 20
205.2893646027271
 30
0.0
 10
98.8702686535134
 20
205.2974455329615
 30
0.0
 10
98.84707310947992
 20
205.2994588249014
 30
0.0
 10
98.82376860066722
 20
205.3004686794571
 30
0.0
 10
98.80048584723372
 20
205.3004686794571
 30
0.0
  0
SPLINE
  5
C8
330
75
100
AcDbEntity
  8
05069038_GEH._BO
  6
Continuous
 62
     7
100
AcDbSpline
210
0.0
220
0.0
230
1.0
 70
    11
 71
     3
 72
    62
 73
    58
 74
     0
 42
0.0000000018425383
 43
0.0000000001
 40
0.0
 40
0.0
 40
0.0
 40
0.0
 40
0.0514325376408955
 40
0.0514325376408955
 40
0.0514325376408955
 40
0.102817580923932
 40
0.102817580923932
 40
0.102817580923932
 40
0.1549761022898852
 40
0.1549761022898852
 40
0.1549761022898852
 40
0.2088126552361694
 40
0.2088126552361694
 40
0.2088126552361694
 40
0.2643235619907818
 40
0.2643235619907818
 40
0.2643235619907818
 40
0.3207790166450001
 40
0.3207790166450001
 40
0.3207790166450001
 40
0.3769553635369851
 40
0.3769553635369851
 40
0.3769553635369851
 40
0.4317086184392482
 40
0.4317086184392482
 40
0.4317086184392482
 40
0.4845860049759309
 40
0.4845860049759309
 40
0.4845860049759309
 40
0.536025964918383
 40
0.536025964918383
 40
0.536025964918383
 40
0.5870559221710647
 40
0.5870559221710647
 40
0.5870559221710647
 40
0.6388027043148885
 40
0.6388027043148885
 40
0.6388027043148885
 40
0.692082218001572
 40
0.692082218001572
 40
0.692082218001572
 40
0.7471152842565241
 40
0.7471152842565241
 40
0.7471152842565241
 40
0.8033894905000608
 40
0.8033894905000608
 40
0.8033894905000608
 40
0.8597859067927303
 40
0.8597859067927303
 40
0.8597859067927303
 40
0.915063028130689
 40
0.915063028130689
 40
0.915063028130689
 40
0.968507171433907
 40
0.968507171433907
 40
0.968507171433907
 40
1.0
 40
1.0
 40
1.0
 40
1.0
 10
98.80048584723373
 20
205.3104686794571
 30
0.0
 10
98.89267233621756
 20
205.3104686794571
 30
0.0
 10
98.98612714381993
 20
205.2943890878957
 30
0.0
 10
99.07306845739711
 20
205.2637368980125
 30
0.0
 10
99.15996497231531
 20
205.2331005024271
 30
0.0
 10
99.24271844746274
 20
205.1871156645174
 30
0.0
 10
99.31488632069465
 20
205.1298322366121
 30
0.0
 10
99.3881530326762
 20
205.0716766027311
 30
0.0
 10
99.45247633571131
 20
205.0003718710687
 30
0.0
 10
99.50321533862139
 20
204.9217866153245
 30
0.0
 10
99.55557081692776
 20
204.8406977405666
 30
0.0
 10
99.59487164765585
 20
204.749725818315
 30
0.0
 10
99.61839785249035
 20
204.6561148178702
 30
0.0
 10
99.64264275408208
 20
204.5596441159591
 30
0.0
 10
99.65079265205873
 20
204.4577660194656
 30
0.0
 10
99.64228150651498
 20
204.3586601569653
 30
0.0
 10
99.63363056634391
 20
204.2579264915985
 30
0.0
 10
99.60749950280089
 20
204.1572528491475
 30
0.0
 10
99.56580280667154
 20
204.0651469555469
 30
0.0
 10
99.52432750394794
 20
203.9735301087861
 30
0.0
 10
99.46621803422187
 20
203.8877855118435
 30
0.0
 10
99.39608891281101
 20
203.8157039353031
 30
0.0
 10
99.32773141740832
 20
203.7454433083645
 30
0.0
 10
99.24593917870371
 20
203.6861641398417
 30
0.0
 10
99.157651116433
 20
203.6435669458495
 30
0.0
 10
99.07234432237591
 20
203.6024081531221
 30
0.0
 10
98.97852347036726
 20
203.575667452853
 30
0.0
 10
98.88430624671265
 20
203.5659509669711
 30
0.0
 10
98.79258866709557
 20
203.5564922657601
 30
0.0
 10
98.69794529650072
 20
203.5628915347066
 30
0.0
 10
98.6083198152409
 20
203.5845445841076
 30
0.0
 10
98.519363964412
 20
203.6060358542846
 30
0.0
 10
98.4329401300232
 20
203.6430997534858
 30
0.0
 10
98.3558629346814
 20
203.6924365961975
 30
0.0
 10
98.27769073932475
 20
203.7424743445825
 30
0.0
 10
98.20703983171622
 20
203.8064259020178
 30
0.0
 10
98.14910643477369
 20
203.8789406585094
 30
0.0
 10
98.0894692159984
 20
203.9535880747762
 30
0.0
 10
98.04170851149405
 20
204.0392594582502
 30
0.0
 10
98.00915914191803
 20
204.1290891479901
 30
0.0
 10
97.9755546127402
 20
204.2218308652407
 30
0.0
 10
97.95725195756201
 20
204.3214859416414
 30
0.0
 10
97.95551390304377
 20
204.4201128632518
 30
0.0
 10
97.95373770263318
 20
204.5209043958665
 30
0.0
 10
97.96922934442797
 20
204.6234023402162
 30
0.0
 10
98.000877459587
 20
204.7191127614961
 30
0.0
 10
98.03257962975758
 20
204.8149866562689
 30
0.0
 10
98.08143697973063
 20
204.9067628356435
 30
0.0
 10
98.1436669477693
 20
204.9862880666733
 30
0.0
 10
98.20465709198749
 20
205.0642288958647
 30
0.0
 10
98.28029831699061
 20
205.1326247887529
 30
0.0
 10
98.36427830093136
 20
205.1849882573557
 30
0.0
 10
98.44550552957313
 20
205.2356353191564
 30
0.0
 10
98.53688828486086
 20
205.2727127206466
 30
0.0
 10
98.63052251691441
 20
205.29260287222
 30
0.0
 10
98.68624574264793
 20
205.3044398188333
 30
0.0
 10
98.74351926763417
 20
205.3104686794572
 30
0.0
 10
98.80048584723373
 20
205.3104686794571
 30
0.0
  0
LINE
  5
C9
330
75
100
AcDbEntity
  8
05069038_GEH._BO
  6
Continuous
 62
     7
100
AcDbLine
 10
102.5377243252
 20
205.652094951
 30
0.0
 11
103.1506516139
 21
205.652094951
 31
0.0
  0
LINE
  5
CA
330
75
100
AcDbEntity
  8
05069038_GEH._BO
  6
Continuous
 62
     7
100
AcDbLine
 10
102.5277243252
 20
204.7713083965
 30
0.0
 11
102.5277243252
 21
205.642094951
 31
0.0
  0
LINE
  5
CB
330
75
100
AcDbEntity
  8
05069038_GEH._BO
  6
Continuous
 62
     7
100
AcDbLine
 10
103.1606516139
 20
205.642094951
 30
0.0
 11
103.1606516139
 21
203.2300132397
 31
0.0
  0
LINE
  5
CC
330
75
100
AcDbEntity
  8
05069038_GEH._BO
  6
Continuous
 62
     7
100
AcDbLine
 10
101.4125202564
 20
204.7613083965
 30
0.0
 11
102.5177243252
 21
204.7613083965
 31
0.0
  0
LINE
  5
CD
330
75
100
AcDbEntity
  8
05069038_GEH._BO
  6
Continuous
 62
     7
100
AcDbLine
 10
103.1506516139
 20
203.2200132397
 30
0.0
 11
102.5377243252
 21
203.2200132397
 31
0.0
  0
LINE
  5
CE
330
75
100
AcDbEntity
  8
05069038_GEH._BO
  6
Continuous
 62
     7
100
AcDbLine
 10
101.4025202564
 20
205.642094951
 30
0.0
 11
101.4025202564
 21
204.7713083965
 31
0.0
  0
LINE
  5
CF
330
75
100
AcDbEntity
  8
05069038_GEH._BO
  6
Continuous
 62
     7
100
AcDbLine
 10
102.5277243252
 20
203.2300132397
 30
0.0
 11
102.5277243252
 21
204.2707524921
 31
0.0
  0
LINE
  5
D0
330
75
100
AcDbEntity
  8
05069038_GEH._BO
  6
Continuous
 62
     7
100
AcDbLine
 10
100.7795929677
 20
205.652094951
 30
0.0
 11
101.3925202564
 21
205.652094951
 31
0.0
  0
LINE
  5
D1
330
75
100
AcDbEntity
  8
05069038_GEH._BO
  6
Continuous
 62
     7
100
AcDbLine
 10
102.5177243252
 20
204.2807524921
 30
0.0
 11
101.4125202564
 21
204.2807524921
 31
0.0
  0
LINE
  5
D2
330
75
100
AcDbEntity
  8
05069038_GEH._BO
  6
Continuous
 62
     7
100
AcDbLine
 10
100.7695929677
 20
203.2300132397
 30
0.0
 11
100.7695929677
 21
205.642094951
 31
0.0
  0
LINE
  5
D3
330
75
100
AcDbEntity
  8
05069038_GEH._BO
  6
Continuous
 62
     7
100
AcDbLine
 10
101.4025202564
 20
204.2707524921
 30
0.0
 11
101.4025202564
 21
203.2300132397
 31
0.0
  0
LINE
  5
D4
330
75
100
AcDbEntity
  8
05069038_GEH._BO
  6
Continuous
 62
     7
100
AcDbLine
 10
101.3925202564
 20
203.2200132397
 30
0.0
 11
100.7795929677
 21
203.2200132397
 31
0.0
  0
ARC
  5
D5
330
75
100
AcDbEntity
  8
05069038_GEH._BO
  6
Continuous
 62
     7
100
AcDbCircle
 10
100.7795929677
 20
203.2300132397
 30
0.0
 40
0.01
100
AcDbArc
 50
180.0
 51
270.0
  0
ARC
  5
D6
330
75
100
AcDbEntity
  8
05069038_GEH._BO
  6
Continuous
 62
     7
100
AcDbCircle
 10
101.3925202564
 20
203.2300132397
 30
0.0
 40
0.0099999999999996
100
AcDbArc
 50
270.0
 51
0.0
  0
ARC
  5
D7
330
75
100
AcDbEntity
  8
05069038_GEH._BO
  6
Continuous
 62
     7
100
AcDbCircle
 10
100.7795929677
 20
205.642094951
 30
0.0
 40
0.0099999999999996
100
AcDbArc
 50
90.0
 51
180.0
  0
ARC
  5
D8
330
75
100
AcDbEntity
  8
05069038_GEH._BO
  6
Continuous
 62
     7
100
AcDbCircle
 10
101.4125202564
 20
204.2707524921
 30
0.0
 40
0.01
100
AcDbArc
 50
90.0
 51
180.0
  0
ARC
  5
D9
330
75
100
AcDbEntity
  8
05069038_GEH._BO
  6
Continuous
 62
     7
100
AcDbCircle
 10
101.3925202564
 20
205.642094951
 30
0.0
 40
0.01
100
AcDbArc
 50
0.0
 51
90.0
  0
ARC
  5
DA
330
75
100
AcDbEntity
  8
05069038_GEH._BO
  6
Continuous
 62
     7
100
AcDbCircle
 10
102.5177243252
 20
204.2707524921
 30
0.0
 40
0.0099999999999996
100
AcDbArc
 50
0.0
 51
90.0
  0
ARC
  5
DB
330
75
100
AcDbEntity
  8
05069038_GEH._BO
  6
Continuous
 62
     7
100
AcDbCircle
 10
101.4125202564
 20
204.7713083965
 30
0.0
 40
0.0099999999999996
100
AcDbArc
 50
180.0
 51
270.0
  0
ARC
  5
DC
330
75
100
AcDbEntity
  8
05069038_GEH._BO
  6
Continuous
 62
     7
100
AcDbCircle
 10
102.5377243252
 20
203.2300132397
 30
0.0
 40
0.01
100
AcDbArc
 50
180.0
 51
270.0
  0
ARC
  5
DD
330
75
100
AcDbEntity
  8
05069038_GEH._BO
  6
Continuous
 62
     7
100
AcDbCircle
 10
102.5177243252
 20
204.7713083965
 30
0.0
 40
0.01
100
AcDbArc
 50
270.0
 51
0.0
  0
ARC
  5
DE
330
75
100
AcDbEntity
  8
05069038_GEH._BO
  6
Continuous
 62
     7
100
AcDbCircle
 10
103.1506516139
 20
203.2300132397
 30
0.0
 40
0.0099999999999996
100
AcDbArc
 50
270.0
 51
0.0
  0
ARC
  5
DF
330
75
100
AcDbEntity
  8
05069038_GEH._BO
  6
Continuous
 62
     7
100
AcDbCircle
 10
102.5377243252
 20
205.642094951
 30
0.0
 40
0.0099999999999996
100
AcDbArc
 50
90.0
 51
180.0
  0
ARC
  5
E0
330
75
100
AcDbEntity
  8
05069038_GEH._BO
  6
Continuous
 62
     7
100
AcDbCircle
 10
103.1506516139
 20
205.642094951
 30
0.0
 40
0.0099999999999996
100
AcDbArc
 50
0.0
 51
90.0
  0
LINE
  5
E1
330
75
100
AcDbEntity
  8
05069038_GEH._BO
  6
Continuous
 62
     7
100
AcDbLine
 10
105.5299893844
 20
205.1832599223
 30
0.0
 11
104.4951105699
 21
205.1832599223
 31
0.0
  0
LINE
  5
E2
330
75
100
AcDbEntity
  8
05069038_GEH._BO
  6
Continuous
 62
     7
100
AcDbLine
 10
104.4851105699
 20
205.1732599223
 30
0.0
 11
104.4851105699
 21
204.7361457693
 31
0.0
  0
LINE
  5
E3
330
75
100
AcDbEntity
  8
05069038_GEH._BO
  6
Continuous
 62
     7
100
AcDbLine
 10
105.5399893844
 20
205.642094951
 30
0.0
 11
105.5399893844
 21
205.1932599223
 31
0.0
  0
LINE
  5
E4
330
75
100
AcDbEntity
  8
05069038_GEH._BO
  6
Continuous
 62
     7
100
AcDbLine
 10
104.4951105699
 20
204.7261457693
 30
0.0
 11
105.3541762487
 21
204.7261457693
 31
0.0
  0
LINE
  5
E5
330
75
100
AcDbEntity
  8
05069038_GEH._BO
  6
Continuous
 62
     7
100
AcDbLine
 10
103.8621832812
 20
205.652094951
 30
0.0
 11
105.5299893844
 21
205.652094951
 31
0.0
  0
LINE
  5
E6
330
75
100
AcDbEntity
  8
05069038_GEH._BO
  6
Continuous
 62
     7
100
AcDbLine
 10
105.3641762487
 20
204.7161457693
 30
0.0
 11
105.3641762487
 21
204.2848920542
 31
0.0
  0
LINE
  5
E7
330
75
100
AcDbEntity
  8
05069038_GEH._BO
  6
Continuous
 62
     7
100
AcDbLine
 10
103.8521832812
 20
203.2300132397
 30
0.0
 11
103.8521832812
 21
205.642094951
 31
0.0
  0
LINE
  5
E8
330
75
100
AcDbEntity
  8
05069038_GEH._BO
  6
Continuous
 62
     7
100
AcDbLine
 10
105.3541762487
 20
204.2748920542
 30
0.0
 11
104.4951105699
 21
204.2748920542
 31
0.0
  0
LINE
  5
E9
330
75
100
AcDbEntity
  8
05069038_GEH._BO
  6
Continuous
 62
     7
100
AcDbLine
 10
105.6759142871
 20
203.2200132397
 30
0.0
 11
103.8621832812
 21
203.2200132397
 31
0.0
  0
LINE
  5
EA
330
75
100
AcDbEntity
  8
05069038_GEH._BO
  6
Continuous
 62
     7
100
AcDbLine
 10
104.4851105699
 20
204.2648920542
 30
0.0
 11
104.4851105699
 21
203.6988482684
 31
0.0
  0
LINE
  5
EB
330
75
100
AcDbEntity
  8
05069038_GEH._BO
  6
Continuous
 62
     7
100
AcDbLine
 10
104.4951105699
 20
203.6888482684
 30
0.0
 11
105.6759142871
 21
203.6888482684
 31
0.0
  0
LINE
  5
EC
330
75
100
AcDbEntity
  8
05069038_GEH._BO
  6
Continuous
 62
     7
100
AcDbLine
 10
105.6859142871
 20
203.6788482684
 30
0.0
 11
105.6859142871
 21
203.2300132397
 31
0.0
  0
ARC
  5
ED
330
75
100
AcDbEntity
  8
05069038_GEH._BO
  6
Continuous
 62
     7
100
AcDbCircle
 10
104.4951105699
 20
203.6988482684
 30
0.0
 40
0.0099999999999996
100
AcDbArc
 50
180.0
 51
270.0
  0
ARC
  5
EE
330
75
100
AcDbEntity
  8
05069038_GEH._BO
  6
Continuous
 62
     7
100
AcDbCircle
 10
105.6759142871
 20
203.6788482684
 30
0.0
 40
0.0099999999999996
100
AcDbArc
 50
0.0
 51
90.0
  0
ARC
  5
EF
330
75
100
AcDbEntity
  8
05069038_GEH._BO
  6
Continuous
 62
     7
100
AcDbCircle
 10
104.4951105699
 20
204.2648920542
 30
0.0
 40
0.0099999999999996
100
AcDbArc
 50
90.0
 51
180.0
  0
ARC
  5
F0
330
75
100
AcDbEntity
  8
05069038_GEH._BO
  6
Continuous
 62
     7
100
AcDbCircle
 10
105.6759142871
 20
203.2300132397
 30
0.0
 40
0.0099999999999996
100
AcDbArc
 50
270.0
 51
0.0
  0
ARC
  5
F1
330
75
100
AcDbEntity
  8
05069038_GEH._BO
  6
Continuous
 62
     7
100
AcDbCircle
 10
105.3541762487
 20
204.2848920542
 30
0.0
 40
0.0099999999999996
100
AcDbArc
 50
270.0
 51
0.0
  0
ARC
  5
F2
330
75
100
AcDbEntity
  8
05069038_GEH._BO
  6
Continuous
 62
     7
100
AcDbCircle
 10
103.8621832812
 20
203.2300132397
 30
0.0
 40
0.0099999999999996
100
AcDbArc
 50
180.0
 51
270.0
  0
ARC
  5
F3
330
75
100
AcDbEntity
  8
05069038_GEH._BO
  6
Continuous
 62
     7
100
AcDbCircle
 10
105.3541762487
 20
204.7161457693
 30
0.0
 40
0.0099999999999996
100
AcDbArc
 50
0.0
 51
90.0
  0
ARC
  5
F4
330
75
100
AcDbEntity
  8
05069038_GEH._BO
  6
Continuous
 62
     7
100
AcDbCircle
 10
103.8621832812
 20
205.642094951
 30
0.0
 40
0.0099999999999996
100
AcDbArc
 50
90.0
 51
180.0
  0
ARC
  5
F5
330
75
100
AcDbEntity
  8
05069038_GEH._BO
  6
Continuous
 62
     7
100
AcDbCircle
 10
104.4951105699
 20
204.7361457693
 30
0.0
 40
0.0099999999999996
100
AcDbArc
 50
180.0
 51
270.0
  0
ARC
  5
F6
330
75
100
AcDbEntity
  8
05069038_GEH._BO
  6
Continuous
 62
     7
100
AcDbCircle
 10
105.5299893844
 20
205.642094951
 30
0.0
 40
0.0099999999999996
100
AcDbArc
 50
0.0
 51
90.0
  0
ARC
  5
F7
330
75
100
AcDbEntity
  8
05069038_GEH._BO
  6
Continuous
 62
     7
100
AcDbCircle
 10
104.4951105699
 20
205.1732599223
 30
0.0
 40
0.0099999999999996
100
AcDbArc
 50
90.0
 51
180.0
  0
ARC
  5
F8
330
75
100
AcDbEntity
  8
05069038_GEH._BO
  6
Continuous
 62
     7
100
AcDbCircle
 10
105.5299893844
 20
205.1932599223
 30
0.0
 40
0.0099999999999996
100
AcDbArc
 50
270.0
 51
0.0
  0
ARC
  5
F9
330
75
100
AcDbEntity
  8
05069038_GEH._BO
  6
Continuous
 62
     7
100
AcDbCircle
 10
92.7056304745
 20
204.3803799357
 30
0.0
 40
2.607894846996358
100
AcDbArc
 50
267.1602559497
 51
285.9899371919
  0
ARC
  5
FA
330
75
100
AcDbEntity
  8
05069038_GEH._BO
  6
Continuous
 62
     7
100
AcDbCircle
 10
98.8004858472
 20
208.4199509297
 30
0.0
 40
9.106501264570026
100
AcDbArc
 50
224.3390545512
 51
226.8295588656
  0
LINE
  5
FB
330
75
100
AcDbEntity
  8
05069038_GEH._BO
  6
Continuous
 62
     7
100
AcDbLine
 10
95.1073116894
 20
202.3557395196
 30
0.0
 11
93.424023424
 21
201.8733843028
 31
0.0
  0
ARC
  5
FC
330
75
100
AcDbEntity
  8
05069038_GEH._BO
  6
Continuous
 62
     7
100
AcDbCircle
 10
92.7056304745
 20
204.3803799357
 30
0.0
 40
2.344175143370104
100
AcDbArc
 50
259.94280179
 51
285.9899372053
  0
LINE
  5
FD
330
75
100
AcDbEntity
  8
05069038_GEH._BO
  6
Continuous
 62
     7
100
AcDbLine
 10
93.3513769466
 20
202.1269007147
 30
0.0
 11
95.0346652104
 21
202.6092559316
 31
0.0
  0
ARC
  5
FE
330
75
100
AcDbEntity
  8
05069038_GEH._BO
  6
Continuous
 62
     7
100
AcDbCircle
 10
95.7530581609
 20
200.102260299
 30
0.0
 40
2.344175143370613
100
AcDbArc
 50
74.0100628081
 51
105.9899371919
  0
ARC
  5
FF
330
75
100
AcDbEntity
  8
05069038_GEH._BO
  6
Continuous
 62
     7
100
AcDbCircle
 10
95.7530581609
 20
200.102260299
 30
0.0
 40
2.607894847001428
100
AcDbArc
 50
74.0100628081
 51
105.9899372135
  0
LINE
  5
100
330
75
100
AcDbEntity
  8
05069038_GEH._BO
  6
Continuous
 62
     7
100
AcDbLine
 10
98.0820928977
 20
201.8733843028
 30
0.0
 11
96.3988046323
 21
202.3557395196
 31
0.0
  0
LINE
  5
101
330
75
100
AcDbEntity
  8
05069038_GEH._BO
  6
Continuous
 62
     7
100
AcDbLine
 10
96.4714511103
 20
202.6092559319
 30
0.0
 11
98.1547393758
 21
202.1269007151
 31
0.0
  0
ARC
  5
102
330
75
100
AcDbEntity
  8
05069038_GEH._BO
  6
Continuous
 62
     7
100
AcDbCircle
 10
98.8004858472
 20
204.3803799357
 30
0.0
 40
2.607894846999817
100
AcDbArc
 50
254.0100628081
 51
285.9899371919
  0
ARC
  5
103
330
75
100
AcDbEntity
  8
05069038_GEH._BO
  6
Continuous
 62
     7
100
AcDbCircle
 10
98.8004858472
 20
204.3803799357
 30
0.0
 40
2.344175143371674
100
AcDbArc
 50
254.0100628081
 51
285.9899371919
  0
LINE
  5
104
330
75
100
AcDbEntity
  8
05069038_GEH._BO
  6
Continuous
 62
     7
100
AcDbLine
 10
101.2021670622
 20
202.3557395196
 30
0.0
 11
99.5188787967
 21
201.8733843028
 31
0.0
  0
LINE
  5
105
330
75
100
AcDbEntity
  8
05069038_GEH._BO
  6
Continuous
 62
     7
100
AcDbLine
 10
99.4462323187
 20
202.1269007151
 30
0.0
 11
101.1295205841
 21
202.6092559319
 31
0.0
  0
ARC
  5
106
330
75
100
AcDbEntity
  8
05069038_GEH._BO
  6
Continuous
 62
     7
100
AcDbCircle
 10
101.8479135336
 20
200.102260299
 30
0.0
 40
2.344175143370609
100
AcDbArc
 50
74.0100628081
 51
105.9899371919
  0
ARC
  5
107
330
75
100
AcDbEntity
  8
05069038_GEH._BO
  6
Continuous
 62
     7
100
AcDbCircle
 10
101.8479135336
 20
200.102260299
 30
0.0
 40
2.607894847001792
100
AcDbArc
 50
74.0100628081
 51
105.9899371919
  0
LINE
  5
108
330
75
100
AcDbEntity
  8
05069038_GEH._BO
  6
Continuous
 62
     7
100
AcDbLine
 10
104.1769482705
 20
201.8733843028
 30
0.0
 11
102.4936600051
 21
202.3557395196
 31
0.0
  0
LINE
  5
109
330
75
100
AcDbEntity
  8
05069038_GEH._BO
  6
Continuous
 62
     7
100
AcDbLine
 10
102.5663064831
 20
202.6092559319
 30
0.0
 11
104.2495947489
 21
202.1269007151
 31
0.0
  0
ARC
  5
10A
330
75
100
AcDbEntity
  8
05069038_GEH._BO
  6
Continuous
 62
     7
100
AcDbCircle
 10
104.8953412201
 20
204.380379935
 30
0.0
 40
2.607894846999509
100
AcDbArc
 50
254.0100628008
 51
272.8397440253
  0
ARC
  5
10B
330
75
100
AcDbEntity
  8
05069038_GEH._BO
  6
Continuous
 62
     7
100
AcDbCircle
 10
104.8953412201
 20
204.380379935
 30
0.0
 40
2.344175142712293
100
AcDbArc
 50
254.0100628081
 51
280.05719818
  0
ARC
  5
10C
330
75
100
AcDbEntity
  8
05069038_GEH._BO
  6
Continuous
 62
     7
100
AcDbCircle
 10
98.8004858472
 20
208.4199509297
 30
0.0
 40
9.106501264466797
100
AcDbArc
 50
313.1704411265
 51
315.6609454399
  0
ARC
  5
10D
330
75
100
AcDbEntity
  8
05069038_GEH._BO
  6
Continuous
 62
     7
100
AcDbCircle
 10
105.3064537003
 20
202.0623792589
 30
0.0
 40
0.0099999999999995
100
AcDbArc
 50
315.6609454398
 51
100.05719818
  0
ARC
  5
10E
330
75
100
AcDbEntity
  8
05069038_GEH._BO
  6
Continuous
 62
     7
100
AcDbCircle
 10
105.0240476697
 20
201.7856752724
 30
0.0
 40
0.0100000000000009
100
AcDbArc
 50
272.8397440253
 51
313.1704411265
  0
ARC
  5
10F
330
75
100
AcDbEntity
  8
05069038_GEH._BO
  6
Continuous
 62
     7
100
AcDbCircle
 10
92.2945179931
 20
202.0623792598
 30
0.0
 40
0.0100000000000012
100
AcDbArc
 50
79.9428017899
 51
224.3390545514
  0
ARC
  5
110
330
75
100
AcDbEntity
  8
05069038_GEH._BO
  6
Continuous
 62
     7
100
AcDbCircle
 10
92.5769240238
 20
201.7856752732
 30
0.0
 40
0.0099999999999993
100
AcDbArc
 50
226.8295588655
 51
267.1602559497
  0
LINE
  5
111
330
75
100
AcDbEntity
  8
05069038_GEH._BO
  6
Continuous
 62
     7
100
AcDbLine
 10
95.1073116894
 20
201.3887672729
 30
0.0
 11
93.5919669904
 21
200.9545371795
 31
0.0
  0
ARC
  5
112
330
75
100
AcDbEntity
  8
05069038_GEH._BO
  6
Continuous
 62
     7
100
AcDbCircle
 10
98.8004858472
 20
208.4199509297
 30
0.0
 40
9.106501264284935
100
AcDbArc
 50
233.0977765958
 51
235.0481607735
  0
LINE
  5
113
330
75
100
AcDbEntity
  8
05069038_GEH._BO
  6
Continuous
 62
     7
100
AcDbLine
 10
93.3357255416
 20
201.1554434752
 30
0.0
 11
95.0346652114
 21
201.6422836852
 31
0.0
  0
ARC
  5
114
330
75
100
AcDbEntity
  8
05069038_GEH._BO
  6
Continuous
 62
     7
100
AcDbCircle
 10
95.7530581609
 20
199.1352880524
 30
0.0
 40
2.344175143371245
100
AcDbArc
 50
74.0100628081
 51
105.9899371919
  0
ARC
  5
115
330
75
100
AcDbEntity
  8
05069038_GEH._BO
  6
Continuous
 62
     7
100
AcDbCircle
 10
95.7530581609
 20
199.1352880524
 30
0.0
 40
2.607894846999817
100
AcDbArc
 50
74.0100628081
 51
105.9899371919
  0
LINE
  5
116
330
75
100
AcDbEntity
  8
05069038_GEH._BO
  6
Continuous
 62
     7
100
AcDbLine
 10
98.0820928977
 20
200.9064120562
 30
0.0
 11
96.3988046323
 21
201.3887672729
 31
0.0
  0
LINE
  5
117
330
75
100
AcDbEntity
  8
05069038_GEH._BO
  6
Continuous
 62
     7
100
AcDbLine
 10
96.4714511103
 20
201.6422836852
 30
0.0
 11
98.1547393758
 21
201.1599284685
 31
0.0
  0
ARC
  5
118
330
75
100
AcDbEntity
  8
05069038_GEH._BO
  6
Continuous
 62
     7
100
AcDbCircle
 10
98.8004858472
 20
203.413407689
 30
0.0
 40
2.607894847001103
100
AcDbArc
 50
254.0100628081
 51
285.9899371919
  0
ARC
  5
119
330
75
100
AcDbEntity
  8
05069038_GEH._BO
  6
Continuous
 62
     7
100
AcDbCircle
 10
98.8004858472
 20
203.413407689
 30
0.0
 40
2.344175143371666
100
AcDbArc
 50
254.0100628081
 51
285.9899371919
  0
LINE
  5
11A
330
75
100
AcDbEntity
  8
05069038_GEH._BO
  6
Continuous
 62
     7
100
AcDbLine
 10
101.2021670622
 20
201.3887672729
 30
0.0
 11
99.5188787967
 21
200.9064120562
 31
0.0
  0
LINE
  5
11B
330
75
100
AcDbEntity
  8
05069038_GEH._BO
  6
Continuous
 62
     7
100
AcDbLine
 10
99.4462323187
 20
201.1599284685
 30
0.0
 11
101.1295205841
 21
201.6422836852
 31
0.0
  0
ARC
  5
11C
330
75
100
AcDbEntity
  8
05069038_GEH._BO
  6
Continuous
 62
     7
100
AcDbCircle
 10
101.8479135336
 20
199.1352880524
 30
0.0
 40
2.344175143370725
100
AcDbArc
 50
74.0100628081
 51
105.9899371919
  0
ARC
  5
11D
330
75
100
AcDbEntity
  8
05069038_GEH._BO
  6
Continuous
 62
     7
100
AcDbCircle
 10
101.8479135336
 20
199.1352880524
 30
0.0
 40
2.607894846999872
100
AcDbArc
 50
74.0100628081
 51
105.9899371919
  0
LINE
  5
11E
330
75
100
AcDbEntity
  8
05069038_GEH._BO
  6
Continuous
 62
     7
100
AcDbLine
 10
104.0090047037
 20
200.9545371796
 30
0.0
 11
102.4936600051
 21
201.3887672729
 31
0.0
  0
ARC
  5
11F
330
75
100
AcDbEntity
  8
05069038_GEH._BO
  6
Continuous
 62
     7
100
AcDbCircle
 10
98.8004858472
 20
208.4199509297
 30
0.0
 40
9.106501264026448
100
AcDbArc
 50
304.9518392252
 51
306.902223403
  0
LINE
  5
120
330
75
100
AcDbEntity
  8
05069038_GEH._BO
  6
Continuous
 62
     7
100
AcDbLine
 10
102.5663064831
 20
201.6422836852
 30
0.0
 11
104.2652461526
 21
201.1554434753
 31
0.0
  0
ARC
  5
121
330
75
100
AcDbEntity
  8
05069038_GEH._BO
  6
Continuous
 62
     7
100
AcDbCircle
 10
104.2624914673
 20
201.1458303744
 30
0.0
 40
0.0099999999999995
100
AcDbArc
 50
306.902223403
 51
74.010062808
  0
ARC
  5
122
330
75
100
AcDbEntity
  8
05069038_GEH._BO
  6
Continuous
 62
     7
100
AcDbCircle
 10
104.011759389
 20
200.9641502805
 30
0.0
 40
0.0099999999999997
100
AcDbArc
 50
254.0100628082
 51
304.9518392253
  0
ARC
  5
123
330
75
100
AcDbEntity
  8
05069038_GEH._BO
  6
Continuous
 62
     7
100
AcDbCircle
 10
93.3384802268
 20
201.1458303743
 30
0.0
 40
0.0100000000000002
100
AcDbArc
 50
105.9899371919
 51
233.0977765958
  0
ARC
  5
124
330
75
100
AcDbEntity
  8
05069038_GEH._BO
  6
Continuous
 62
     7
100
AcDbCircle
 10
93.5892123052
 20
200.9641502805
 30
0.0
 40
0.0100000000000012
100
AcDbArc
 50
235.0481607736
 51
285.989937192
  0
LINE
  5
126
330
75
100
AcDbEntity
  8
05049037_BOGEN__
  6
Continuous
 62
     7
100
AcDbLine
 10
89.8867063817
 20
145.7684320791
 30
0.0
 11
107.7142653128
 21
145.7684320791
 31
0.0
  0
LINE
  5
127
330
75
100
AcDbEntity
  8
05049037_BOGEN__
  6
Continuous
 62
     7
100
AcDbLine
 10
109.2004858472
 20
147.2546526135
 30
0.0
 11
88.4004858472
 21
147.2546526135
 31
0.0
  0
LINE
  5
128
330
75
100
AcDbEntity
  8
05049037_BOGEN__
  6
Continuous
 62
     7
100
AcDbLine
 10
88.4004858472
 20
156.2271843956
 30
0.0
 11
88.4004858472
 21
147.2546526135
 31
0.0
  0
LINE
  5
129
330
75
100
AcDbEntity
  8
05049037_BOGEN__
  6
Continuous
 62
     7
100
AcDbLine
 10
109.2004858472
 20
147.2546526135
 30
0.0
 11
109.2004858472
 21
156.2276409887
 31
0.0
  0
LINE
  5
12A
330
75
100
AcDbEntity
  8
05049037_BOGEN__
  6
Continuous
 62
     7
100
AcDbLine
 10
88.4004858472
 20
147.2546526135
 30
0.0
 11
89.8867063817
 21
145.7684320791
 31
0.0
  0
LINE
  5
12B
330
75
100
AcDbEntity
  8
05049037_BOGEN__
  6
Continuous
 62
     7
100
AcDbLine
 10
107.7142653128
 20
145.7684320791
 30
0.0
 11
109.2004858472
 21
147.2546526135
 31
0.0
  0
CIRCLE
  5
12D
330
75
100
AcDbEntity
  8
05206038_KAPPE._
  6
Continuous
 62
     7
100
AcDbCircle
 10
98.8004858472
 20
175.7546526135
 30
0.0
 40
22.00000023549761
  0
ENDBLK
  5
12F
330
75
100
AcDbEntity
  8
0
100
AcDbBlockEnd
  0
BLOCK
  5
179
330
130
100
AcDbEntity
  8
0
100
AcDbBlockBegin
  2
SE1
 70
     0
 10
0.0
 20
0.0
 30
0.0
  3
SE1
  1

  0
LINE
  5
132
330
130
100
AcDbEntity
  8
05069038_GEH._BO
  6
Continuous
 62
     7
100
AcDbLine
 10
185.4892562186
 20
144.1546526135
 30
0.0
 11
185.4892562186
 21
207.3546526135
 31
0.0
  0
LINE
  5
133
330
130
100
AcDbEntity
  8
05069038_GEH._BO
  6
Continuous
 62
     7
100
AcDbLine
 10
179.2892562186
 20
142.1546526135
 30
0.0
 11
179.2892562186
 21
209.3546526135
 31
0.0
  0
ARC
  5
134
330
130
100
AcDbEntity
  8
05069038_GEH._BO
  6
Continuous
 62
     7
100
AcDbCircle
 10
220.9937510545
 20
132.3435180837
 30
0.0
 40
24.00134955806961
100
AcDbArc
 50
62.8683193246
 51
88.9649591183
  0
SPLINE
  5
135
330
130
100
AcDbEntity
  8
05069038_GEH._BO
  6
Continuous
 62
     7
100
AcDbSpline
210
0.0
220
0.0
230
1.0
 70
     8
 71
     3
 72
    10
 73
     6
 74
     0
 42
0.0000000038947899
 43
0.0000000001
 40
0.0
 40
0.0
 40
0.0
 40
0.0
 40
0.5
 40
0.5
 40
1.0
 40
1.0
 40
1.0
 40
1.0
 10
185.4892562186214
 20
154.5477227074768
 30
0.0
 10
185.4892562186214
 20
154.9663898369763
 30
0.0
 10
185.6266578262807
 20
155.3826966197233
 30
0.0
 10
186.1558751971046
 20
156.0289407305111
 30
0.0
 10
186.5534049742032
 20
156.2449385878542
 30
0.0
 10
186.9761664153741
 20
156.2460658238692
 30
0.0
  0
ELLIPSE
  5
136
330
130
100
AcDbEntity
  8
05069038_GEH._BO
  6
Continuous
 62
     7
100
AcDbEllipse
 10
-379.0345817156
 20
175.754655679
 30
0.0
 11
2112.253272446223
 21
-8.450515661047183E-7
 31
0.0
210
0.0
220
0.0
230
1.0
 40
0.0095865065
 41
-1.299515772428013
 42
-1.282545643232252
  0
LINE
  5
137
330
130
100
AcDbEntity
  8
05069038_GEH._BO
  6
Continuous
 62
     7
100
AcDbLine
 10
185.6892562186
 20
199.9490529105
 30
0.0
 11
185.6892562186
 21
199.8485405954
 31
0.0
  0
LINE
  5
138
330
130
100
AcDbEntity
  8
05069038_GEH._BO
  6
Continuous
 62
     7
100
AcDbLine
 10
185.6892562186
 20
200.3099145366
 30
0.0
 11
185.6892562186
 21
199.9490529105
 31
0.0
  0
LINE
  5
139
330
130
100
AcDbEntity
  8
05069038_GEH._BO
  6
Continuous
 62
     7
100
AcDbLine
 10
185.6892562186
 20
200.6656983377
 30
0.0
 11
185.6892562186
 21
200.7662106528
 31
0.0
  0
LINE
  5
13A
330
130
100
AcDbEntity
  8
05069038_GEH._BO
  6
Continuous
 62
     7
100
AcDbLine
 10
185.6892562186
 20
200.6656983377
 30
0.0
 11
185.6892562186
 21
200.4747430805
 31
0.0
  0
LINE
  5
13B
330
130
100
AcDbEntity
  8
05069038_GEH._BO
  6
Continuous
 62
     7
100
AcDbLine
 10
185.6892562186
 20
200.4747430805
 30
0.0
 11
185.6892562186
 21
200.3099145366
 31
0.0
  0
LINE
  5
13C
330
130
100
AcDbEntity
  8
05069038_GEH._BO
  6
Continuous
 62
     7
100
AcDbLine
 10
185.6792562186
 20
203.1181719204
 30
0.0
 11
185.6792562186
 21
205.7541453409
 31
0.0
  0
LINE
  5
13D
330
130
100
AcDbEntity
  8
05069038_GEH._BO
  6
Continuous
 62
     7
100
AcDbLine
 10
185.6892562186
 20
202.700155146
 30
0.0
 11
185.6892562186
 21
202.5996428307
 31
0.0
  0
LINE
  5
13E
330
130
100
AcDbEntity
  8
05069038_GEH._BO
  6
Continuous
 62
     7
100
AcDbLine
 10
185.6892562186
 20
202.5996428307
 30
0.0
 11
185.6892562186
 21
202.1172876137
 31
0.0
  0
LINE
  5
13F
330
130
100
AcDbEntity
  8
05069038_GEH._BO
  6
Continuous
 62
     7
100
AcDbLine
 10
185.6892562186
 20
202.1172876138
 30
0.0
 11
185.6892562186
 21
202.0623792582
 31
0.0
  0
LINE
  5
140
330
130
100
AcDbEntity
  8
05069038_GEH._BO
  6
Continuous
 62
     7
100
AcDbLine
 10
185.6892562186
 20
202.0623792598
 30
0.0
 11
185.6892562186
 21
201.7856752732
 31
0.0
  0
LINE
  5
141
330
130
100
AcDbEntity
  8
05069038_GEH._BO
  6
Continuous
 62
     7
100
AcDbLine
 10
185.6892562186
 20
201.7824850887
 30
0.0
 11
185.6892562186
 21
201.7856752732
 31
0.0
  0
LINE
  5
142
330
130
100
AcDbEntity
  8
05069038_GEH._BO
  6
Continuous
 62
     7
100
AcDbLine
 10
185.6892562186
 20
200.815512842
 30
0.0
 11
185.6892562186
 21
200.9160251571
 31
0.0
  0
LINE
  5
143
330
130
100
AcDbEntity
  8
05069038_GEH._BO
  6
Continuous
 62
     7
100
AcDbLine
 10
185.6892562186
 20
200.9641502805
 30
0.0
 11
185.6892562186
 21
200.9160251571
 31
0.0
  0
LINE
  5
144
330
130
100
AcDbEntity
  8
05069038_GEH._BO
  6
Continuous
 62
     7
100
AcDbLine
 10
185.6892562186
 20
201.6326705843
 30
0.0
 11
185.6892562186
 21
201.7331828994
 31
0.0
  0
LINE
  5
145
330
130
100
AcDbEntity
  8
05069038_GEH._BO
  6
Continuous
 62
     7
100
AcDbLine
 10
185.6892562186
 20
201.6326705843
 30
0.0
 11
185.6892562186
 21
201.1458303743
 31
0.0
  0
LINE
  5
146
330
130
100
AcDbEntity
  8
05069038_GEH._BO
  6
Continuous
 62
     7
100
AcDbLine
 10
185.6892562186
 20
201.1458303743
 30
0.0
 11
185.6892562186
 21
200.9641502805
 31
0.0
  0
ARC
  5
147
330
130
100
AcDbEntity
  8
05069038_GEH._BO
  6
Continuous
 62
     7
100
AcDbCircle
 10
183.4892562186
 20
144.1546526135
 30
0.0
 40
1.999999999999696
100
AcDbArc
 50
270.0
 51
0.0
  0
ARC
  5
148
330
130
100
AcDbEntity
  8
05069038_GEH._BO
  6
Continuous
 62
     7
100
AcDbCircle
 10
183.4892562186
 20
207.3546526135
 30
0.0
 40
1.999999999999695
100
AcDbArc
 50
0.0
 51
90.0
  0
ARC
  5
149
330
130
100
AcDbEntity
  8
05069038_GEH._BO
  6
Continuous
 62
     7
100
AcDbCircle
 10
186.9892562186
 20
199.6978573413
 30
0.0
 40
1.500000000000135
100
AcDbArc
 50
180.0
 51
269.5
  0
LINE
  5
14A
330
130
100
AcDbEntity
  8
05069038_GEH._BO
  6
Continuous
 62
     7
100
AcDbLine
 10
231.9354435396
 20
153.7037444377
 30
0.0
 11
237.7892562186
 21
153.7548298871
 31
0.0
  0
LINE
  5
14B
330
130
100
AcDbEntity
  8
05069038_GEH._BO
  6
Continuous
 62
     7
100
AcDbLine
 10
237.7892562186
 20
197.7544753399
 30
0.0
 11
186.9761664154
 21
198.1979144567
 31
0.0
  0
LINE
  5
14C
330
130
100
AcDbEntity
  8
05069038_GEH._BO
  6
Continuous
 62
     7
100
AcDbLine
 10
179.2892562186
 20
142.1546526135
 30
0.0
 11
183.4892562186
 21
142.1546526135
 31
0.0
  0
LINE
  5
14D
330
130
100
AcDbEntity
  8
05069038_GEH._BO
  6
Continuous
 62
     7
100
AcDbLine
 10
183.4892562186
 20
209.3546526135
 30
0.0
 11
179.2892562186
 21
209.3546526135
 31
0.0
  0
LINE
  5
14E
330
130
100
AcDbEntity
  8
05069038_GEH._BO
  6
Continuous
 62
     7
100
AcDbLine
 10
185.6792562186
 20
205.7546526135
 30
0.0
 11
185.4992562186
 21
205.7546526135
 31
0.0
  0
LINE
  5
14F
330
130
100
AcDbEntity
  8
05069038_GEH._BO
  6
Continuous
 62
     7
100
AcDbLine
 10
185.4992562186
 20
203.1174555772
 30
0.0
 11
185.6792562186
 21
203.1174555772
 31
0.0
  0
LINE
  5
150
330
130
100
AcDbEntity
  8
05069038_GEH._BO
  6
Continuous
 62
     7
100
AcDbLine
 10
185.6792562186
 20
202.710155146
 30
0.0
 11
185.4992562186
 21
202.710155146
 31
0.0
  0
LINE
  5
151
330
130
100
AcDbEntity
  8
05069038_GEH._BO
  6
Continuous
 62
     7
100
AcDbLine
 10
185.4992562186
 20
201.7724850887
 30
0.0
 11
185.6792562186
 21
201.7724850887
 31
0.0
  0
LINE
  5
152
330
130
100
AcDbEntity
  8
05069038_GEH._BO
  6
Continuous
 62
     7
100
AcDbLine
 10
185.6792562186
 20
201.7431828994
 30
0.0
 11
185.4992562186
 21
201.7431828994
 31
0.0
  0
LINE
  5
153
330
130
100
AcDbEntity
  8
05069038_GEH._BO
  6
Continuous
 62
     7
100
AcDbLine
 10
185.4992562186
 20
200.805512842
 30
0.0
 11
185.6792562186
 21
200.805512842
 31
0.0
  0
LINE
  5
154
330
130
100
AcDbEntity
  8
05069038_GEH._BO
  6
Continuous
 62
     7
100
AcDbLine
 10
185.6792562186
 20
200.7762106528
 30
0.0
 11
185.4992562186
 21
200.7762106528
 31
0.0
  0
LINE
  5
155
330
130
100
AcDbEntity
  8
05069038_GEH._BO
  6
Continuous
 62
     7
100
AcDbLine
 10
185.4992562186
 20
199.8385405954
 30
0.0
 11
185.6792562186
 21
199.8385405954
 31
0.0
  0
ARC
  5
156
330
130
100
AcDbEntity
  8
05069038_GEH._BO
  6
Continuous
 62
     7
100
AcDbCircle
 10
185.6792562186
 20
199.8485405954
 30
0.0
 40
0.0099999999999996
100
AcDbArc
 50
270.0
 51
0.0
  0
ARC
  5
157
330
130
100
AcDbEntity
  8
05069038_GEH._BO
  6
Continuous
 62
     7
100
AcDbCircle
 10
185.6792562186
 20
200.7662106528
 30
0.0
 40
0.0099999999999996
100
AcDbArc
 50
0.0
 51
90.0
  0
ARC
  5
158
330
130
100
AcDbEntity
  8
05069038_GEH._BO
  6
Continuous
 62
     7
100
AcDbCircle
 10
185.4992562186
 20
199.8285405954
 30
0.0
 40
0.0099999999999996
100
AcDbArc
 50
90.0
 51
180.0
  0
ARC
  5
159
330
130
100
AcDbEntity
  8
05069038_GEH._BO
  6
Continuous
 62
     7
100
AcDbCircle
 10
185.4992562186
 20
200.7862106528
 30
0.0
 40
0.0099999999999996
100
AcDbArc
 50
180.0
 51
270.0
  0
ARC
  5
15A
330
130
100
AcDbEntity
  8
05069038_GEH._BO
  6
Continuous
 62
     7
100
AcDbCircle
 10
185.6792562186
 20
200.3099145366
 30
0.0
 40
0.0099999999999996
100
AcDbArc
 50
270.0
 51
0.0
  0
LINE
  5
15B
330
130
100
AcDbEntity
  8
05069038_GEH._BO
  6
Continuous
 62
     7
100
AcDbLine
 10
185.4992562186
 20
200.2999145366
 30
0.0
 11
185.6792562186
 21
200.2999145366
 31
0.0
  0
ARC
  5
15C
330
130
100
AcDbEntity
  8
05069038_GEH._BO
  6
Continuous
 62
     7
100
AcDbCircle
 10
185.4992562186
 20
200.2899145366
 30
0.0
 40
0.0099999999999996
100
AcDbArc
 50
90.0
 51
180.0
  0
ARC
  5
15D
330
130
100
AcDbEntity
  8
05069038_GEH._BO
  6
Continuous
 62
     7
100
AcDbCircle
 10
185.4992562186
 20
202.720155146
 30
0.0
 40
0.0099999999999996
100
AcDbArc
 50
180.0
 51
270.0
  0
ARC
  5
15E
330
130
100
AcDbEntity
  8
05069038_GEH._BO
  6
Continuous
 62
     7
100
AcDbCircle
 10
185.6792562186
 20
202.700155146
 30
0.0
 40
0.0099999999999996
100
AcDbArc
 50
0.0
 51
90.0
  0
ARC
  5
15F
330
130
100
AcDbEntity
  8
05069038_GEH._BO
  6
Continuous
 62
     7
100
AcDbCircle
 10
185.4992562186
 20
202.0823792598
 30
0.0
 40
0.0099999999999996
100
AcDbArc
 50
180.0
 51
270.0
  0
ARC
  5
160
330
130
100
AcDbEntity
  8
05069038_GEH._BO
  6
Continuous
 62
     7
100
AcDbCircle
 10
185.4992562186
 20
201.7624850887
 30
0.0
 40
0.0099999999999996
100
AcDbArc
 50
90.0
 51
180.0
  0
LINE
  5
161
330
130
100
AcDbEntity
  8
05069038_GEH._BO
  6
Continuous
 62
     7
100
AcDbLine
 10
185.6792562186
 20
202.0723792598
 30
0.0
 11
185.4992562186
 21
202.0723792598
 31
0.0
  0
ARC
  5
162
330
130
100
AcDbEntity
  8
05069038_GEH._BO
  6
Continuous
 62
     7
100
AcDbCircle
 10
185.6792562186
 20
202.0623792598
 30
0.0
 40
0.0099999999999996
100
AcDbArc
 50
0.0
 51
90.0
  0
ARC
  5
163
330
130
100
AcDbEntity
  8
05069038_GEH._BO
  6
Continuous
 62
     7
100
AcDbCircle
 10
185.6792562186
 20
201.7824850887
 30
0.0
 40
0.0100000000000031
100
AcDbArc
 50
270.0
 51
0.0
  0
ARC
  5
164
330
130
100
AcDbEntity
  8
05069038_GEH._BO
  6
Continuous
 62
     7
100
AcDbCircle
 10
185.4992562186
 20
200.795512842
 30
0.0
 40
0.0099999999999996
100
AcDbArc
 50
90.0
 51
180.0
  0
ARC
  5
165
330
130
100
AcDbEntity
  8
05069038_GEH._BO
  6
Continuous
 62
     7
100
AcDbCircle
 10
185.4992562186
 20
201.7531828994
 30
0.0
 40
0.0099999999999996
100
AcDbArc
 50
180.0
 51
270.0
  0
ARC
  5
166
330
130
100
AcDbEntity
  8
05069038_GEH._BO
  6
Continuous
 62
     7
100
AcDbCircle
 10
185.6792562186
 20
201.7331828994
 30
0.0
 40
0.0099999999999996
100
AcDbArc
 50
0.0
 51
90.0
  0
ARC
  5
167
330
130
100
AcDbEntity
  8
05069038_GEH._BO
  6
Continuous
 62
     7
100
AcDbCircle
 10
185.4992562186
 20
200.9441502805
 30
0.0
 40
0.0099999999999996
100
AcDbArc
 50
90.0
 51
180.0
  0
ARC
  5
168
330
130
100
AcDbEntity
  8
05069038_GEH._BO
  6
Continuous
 62
     7
100
AcDbCircle
 10
185.6792562186
 20
200.815512842
 30
0.0
 40
0.0099999999999996
100
AcDbArc
 50
270.0
 51
0.0
  0
LINE
  5
169
330
130
100
AcDbEntity
  8
05069038_GEH._BO
  6
Continuous
 62
     7
100
AcDbLine
 10
185.4992562186
 20
200.9541502805
 30
0.0
 11
185.6792562186
 21
200.9541502805
 31
0.0
  0
ARC
  5
16A
330
130
100
AcDbEntity
  8
05069038_GEH._BO
  6
Continuous
 62
     7
100
AcDbCircle
 10
185.6792562186
 20
200.9641502805
 30
0.0
 40
0.0099999999999996
100
AcDbArc
 50
270.0
 51
0.0
  0
LINE
  5
16B
330
130
100
AcDbEntity
  8
05049037_BOGEN__
  6
Continuous
 62
     7
100
AcDbLine
 10
205.375476753
 20
145.7684320791
 30
0.0
 11
223.2030356842
 21
145.7684320791
 31
0.0
  0
LINE
  5
16C
330
130
100
AcDbEntity
  8
05049037_BOGEN__
  6
Continuous
 62
     7
100
AcDbLine
 10
206.2297861599
 20
156.298346192
 30
0.0
 11
222.7167392618
 21
156.298346192
 31
0.0
  0
LINE
  5
16D
330
130
100
AcDbEntity
  8
05049037_BOGEN__
  6
Continuous
 62
     7
100
AcDbLine
 10
203.8892562186
 20
147.2546526135
 30
0.0
 11
224.6892562186
 21
147.2546526135
 31
0.0
  0
LINE
  5
16E
330
130
100
AcDbEntity
  8
05049037_BOGEN__
  6
Continuous
 62
     7
100
AcDbLine
 10
203.8892562186
 20
156.2918898698
 30
0.0
 11
203.8892562186
 21
147.2546526135
 31
0.0
  0
LINE
  5
16F
330
130
100
AcDbEntity
  8
05049037_BOGEN__
  6
Continuous
 62
     7
100
AcDbLine
 10
224.6892562186
 20
147.2546526135
 30
0.0
 11
224.6892562186
 21
156.0775781818
 31
0.0
  0
LINE
  5
170
330
130
100
AcDbEntity
  8
05049037_BOGEN__
  6
Continuous
 62
     7
100
AcDbLine
 10
203.8892562186
 20
147.2546526135
 30
0.0
 11
205.375476753
 21
145.7684320791
 31
0.0
  0
LINE
  5
171
330
130
100
AcDbEntity
  8
05049037_BOGEN__
  6
Continuous
 62
     7
100
AcDbLine
 10
223.2030356842
 20
145.7684320791
 30
0.0
 11
224.6892562186
 21
147.2546526135
 31
0.0
  0
LINE
  5
172
330
130
100
AcDbEntity
  8
05206038_KAPPE._
  6
Continuous
 62
     7
100
AcDbLine
 10
237.7892562186
 20
153.7546526135
 30
0.0
 11
237.7892562186
 21
197.7546526135
 31
0.0
  0
LINE
  5
173
330
130
100
AcDbEntity
  8
05206038_KAPPE._
  6
Continuous
 62
     7
100
AcDbLine
 10
245.1223491698
 20
157.7330263085
 30
0.0
 11
245.1223491698
 21
193.7762789185
 31
0.0
  0
LINE
  5
174
330
130
100
AcDbEntity
  8
05206038_KAPPE._
  6
Continuous
 62
     7
100
AcDbLine
 10
237.7892562186
 20
153.7546526135
 30
0.0
 11
239.011269518
 21
153.7546526135
 31
0.0
  0
LINE
  5
175
330
130
100
AcDbEntity
  8
05206038_KAPPE._
  6
Continuous
 62
     7
100
AcDbLine
 10
239.011269518
 20
197.7546526135
 30
0.0
 11
237.7892562186
 21
197.7546526135
 31
0.0
  0
ARC
  5
176
330
130
100
AcDbEntity
  8
05206038_KAPPE._
  6
Continuous
 62
     7
100
AcDbCircle
 10
239.0130432848
 20
160.4346526063
 30
0.0
 40
6.680000228356818
100
AcDbArc
 50
269.9847860263
 51
336.1442700161
  0
ARC
  5
177
330
130
100
AcDbEntity
  8
05206038_KAPPE._
  6
Continuous
 62
     7
100
AcDbCircle
 10
239.0130432848
 20
191.0746526206
 30
0.0
 40
6.680000228356787
100
AcDbArc
 50
23.8557299839
 51
90.0152139737
  0
ARC
  5
178
330
130
100
AcDbEntity
  8
05206038_KAPPE._
  6
Continuous
 62
     7
100
AcDbCircle
 10
204.3692562158
 20
175.7546526135
 30
0.0
 40
44.56000000000053
100
AcDbArc
 50
336.144270016
 51
23.855729984
  0
ENDBLK
  5
17A
330
130
100
AcDbEntity
  8
0
100
AcDbBlockEnd
  0
BLOCK
  5
1C6
330
17B
100
AcDbEntity
  8
0
100
AcDbBlockBegin
  2
SE2
 70
     0
 10
0.0
 20
0.0
 30
0.0
  3
SE2
  1

  0
LINE
  5
17D
330
17B
100
AcDbEntity
  8
05069038_GEH._BO
  6
Continuous
 62
     7
100
AcDbLine
 10
67.2004858472
 20
92.1906868004
 30
0.0
 11
130.4004858472
 21
92.1906868004
 31
0.0
  0
LINE
  5
17E
330
17B
100
AcDbEntity
  8
05069038_GEH._BO
  6
Continuous
 62
     7
100
AcDbLine
 10
65.2004858472
 20
98.3906868004
 30
0.0
 11
132.4004858472
 21
98.3906868004
 31
0.0
  0
LINE
  5
17F
330
17B
100
AcDbEntity
  8
05069038_GEH._BO
  6
Continuous
 62
     7
100
AcDbLine
 10
94.1667859462
 20
92.0006868004
 30
0.0
 11
91.686001043
 21
92.0006868004
 31
0.0
  0
LINE
  5
180
330
17B
100
AcDbEntity
  8
05069038_GEH._BO
  6
Continuous
 62
     7
100
AcDbLine
 10
94.2427860691
 20
91.9906868004
 30
0.0
 11
94.191747367
 21
91.9906868004
 31
0.0
  0
LINE
  5
181
330
17B
100
AcDbEntity
  8
05069038_GEH._BO
  6
Continuous
 62
     7
100
AcDbLine
 10
94.1707399391
 20
92.1806868004
 30
0.0
 11
94.1707399391
 21
92.0006868004
 31
0.0
  0
LINE
  5
182
330
17B
100
AcDbEntity
  8
05069038_GEH._BO
  6
Continuous
 62
     7
100
AcDbLine
 10
94.2527860691
 20
92.1806868004
 30
0.0
 11
94.2527860691
 21
92.0006868004
 31
0.0
  0
ARC
  5
183
330
17B
100
AcDbEntity
  8
05069038_GEH._BO
  6
Continuous
 62
     7
100
AcDbCircle
 10
94.2627860691
 20
92.1806868004
 30
0.0
 40
0.0099999999999996
100
AcDbArc
 50
90.0
 51
180.0
  0
ARC
  5
184
330
17B
100
AcDbEntity
  8
05069038_GEH._BO
  6
Continuous
 62
     7
100
AcDbCircle
 10
94.1807399391
 20
92.1806868004
 30
0.0
 40
0.0099999999999996
100
AcDbArc
 50
90.0
 51
180.0
  0
ARC
  5
185
330
17B
100
AcDbEntity
  8
05069038_GEH._BO
  6
Continuous
 62
     7
100
AcDbCircle
 10
94.2427860691
 20
92.0006868004
 30
0.0
 40
0.0099999999999996
100
AcDbArc
 50
270.0
 51
0.0
  0
ARC
  5
186
330
17B
100
AcDbEntity
  8
05069038_GEH._BO
  6
Continuous
 62
     7
100
AcDbCircle
 10
94.1607399391
 20
92.0006868004
 30
0.0
 40
0.0099999999999996
100
AcDbArc
 50
270.0
 51
0.0
  0
LINE
  5
187
330
17B
100
AcDbEntity
  8
05069038_GEH._BO
  6
Continuous
 62
     7
100
AcDbLine
 10
96.1339866216
 20
91.9906868004
 30
0.0
 11
94.8136672278
 21
91.9906868004
 31
0.0
  0
LINE
  5
188
330
17B
100
AcDbEntity
  8
05069038_GEH._BO
  6
Continuous
 62
     7
100
AcDbLine
 10
96.8565413539
 20
91.9906868004
 30
0.0
 11
96.1339866216
 21
91.9906868004
 31
0.0
  0
LINE
  5
189
330
17B
100
AcDbEntity
  8
05069038_GEH._BO
  6
Continuous
 62
     7
100
AcDbLine
 10
97.2136362809
 20
91.9906868004
 30
0.0
 11
96.856541354
 21
91.9906868004
 31
0.0
  0
LINE
  5
18A
330
17B
100
AcDbEntity
  8
05069038_GEH._BO
  6
Continuous
 62
     7
100
AcDbLine
 10
94.8036672278
 20
92.0006868004
 30
0.0
 11
94.8036672278
 21
92.1806868004
 31
0.0
  0
ARC
  5
18B
330
17B
100
AcDbEntity
  8
05069038_GEH._BO
  6
Continuous
 62
     7
100
AcDbCircle
 10
94.7936672278
 20
92.1806868004
 30
0.0
 40
0.0099999999999996
100
AcDbArc
 50
0.0
 51
90.0
  0
ARC
  5
18C
330
17B
100
AcDbEntity
  8
05069038_GEH._BO
  6
Continuous
 62
     7
100
AcDbCircle
 10
94.8136672278
 20
92.0006868004
 30
0.0
 40
0.0099999999999996
100
AcDbArc
 50
180.0
 51
270.0
  0
LINE
  5
18D
330
17B
100
AcDbEntity
  8
05069038_GEH._BO
  6
Continuous
 62
     7
100
AcDbLine
 10
97.3102141328
 20
91.9906868004
 30
0.0
 11
100.290757939
 21
91.9906868004
 31
0.0
  0
LINE
  5
18E
330
17B
100
AcDbEntity
  8
05069038_GEH._BO
  6
Continuous
 62
     7
100
AcDbLine
 10
101.3925202564
 20
91.9906868004
 30
0.0
 11
100.7795929677
 21
91.9906868004
 31
0.0
  0
LINE
  5
18F
330
17B
100
AcDbEntity
  8
05069038_GEH._BO
  6
Continuous
 62
     7
100
AcDbLine
 10
101.3925202564
 20
91.9906868004
 30
0.0
 11
101.4125202564
 21
91.9906868004
 31
0.0
  0
LINE
  5
190
330
17B
100
AcDbEntity
  8
05069038_GEH._BO
  6
Continuous
 62
     7
100
AcDbLine
 10
102.5177243252
 20
91.9906868004
 30
0.0
 11
101.4125202564
 21
91.9906868004
 31
0.0
  0
LINE
  5
191
330
17B
100
AcDbEntity
  8
05069038_GEH._BO
  6
Continuous
 62
     7
100
AcDbLine
 10
102.5177243252
 20
91.9906868004
 30
0.0
 11
102.5377243252
 21
91.9906868004
 31
0.0
  0
LINE
  5
192
330
17B
100
AcDbEntity
  8
05069038_GEH._BO
  6
Continuous
 62
     7
100
AcDbLine
 10
103.1506516139
 20
91.9906868004
 30
0.0
 11
102.5377243252
 21
91.9906868004
 31
0.0
  0
LINE
  5
193
330
17B
100
AcDbEntity
  8
05069038_GEH._BO
  6
Continuous
 62
     7
100
AcDbLine
 10
102.5277243252
 20
92.0006868004
 30
0.0
 11
102.5277243252
 21
92.1806868004
 31
0.0
  0
LINE
  5
194
330
17B
100
AcDbEntity
  8
05069038_GEH._BO
  6
Continuous
 62
     7
100
AcDbLine
 10
103.1606516139
 20
92.1806868004
 30
0.0
 11
103.1606516139
 21
92.0006868004
 31
0.0
  0
LINE
  5
195
330
17B
100
AcDbEntity
  8
05069038_GEH._BO
  6
Continuous
 62
     7
100
AcDbLine
 10
101.4025202564
 20
92.1806868004
 30
0.0
 11
101.4025202564
 21
92.0006868004
 31
0.0
  0
LINE
  5
196
330
17B
100
AcDbEntity
  8
05069038_GEH._BO
  6
Continuous
 62
     7
100
AcDbLine
 10
100.7695929677
 20
92.0006868004
 30
0.0
 11
100.7695929677
 21
92.1806868004
 31
0.0
  0
ARC
  5
197
330
17B
100
AcDbEntity
  8
05069038_GEH._BO
  6
Continuous
 62
     7
100
AcDbCircle
 10
100.7595929677
 20
92.1806868004
 30
0.0
 40
0.0099999999999996
100
AcDbArc
 50
0.0
 51
90.0
  0
ARC
  5
198
330
17B
100
AcDbEntity
  8
05069038_GEH._BO
  6
Continuous
 62
     7
100
AcDbCircle
 10
100.7795929677
 20
92.0006868004
 30
0.0
 40
0.01
100
AcDbArc
 50
180.0
 51
270.0
  0
ARC
  5
199
330
17B
100
AcDbEntity
  8
05069038_GEH._BO
  6
Continuous
 62
     7
100
AcDbCircle
 10
101.4125202564
 20
92.1806868004
 30
0.0
 40
0.0099999999999996
100
AcDbArc
 50
90.0
 51
180.0
  0
ARC
  5
19A
330
17B
100
AcDbEntity
  8
05069038_GEH._BO
  6
Continuous
 62
     7
100
AcDbCircle
 10
101.3925202564
 20
92.0006868004
 30
0.0
 40
0.01
100
AcDbArc
 50
270.0
 51
0.0
  0
ARC
  5
19B
330
17B
100
AcDbEntity
  8
05069038_GEH._BO
  6
Continuous
 62
     7
100
AcDbCircle
 10
102.5177243252
 20
92.1806868004
 30
0.0
 40
0.0099999999999996
100
AcDbArc
 50
0.0
 51
90.0
  0
ARC
  5
19C
330
17B
100
AcDbEntity
  8
05069038_GEH._BO
  6
Continuous
 62
     7
100
AcDbCircle
 10
103.1706516139
 20
92.1806868004
 30
0.0
 40
0.0099999999999996
100
AcDbArc
 50
90.0
 51
180.0
  0
ARC
  5
19D
330
17B
100
AcDbEntity
  8
05069038_GEH._BO
  6
Continuous
 62
     7
100
AcDbCircle
 10
102.5377243252
 20
92.0006868004
 30
0.0
 40
0.01
100
AcDbArc
 50
180.0
 51
270.0
  0
ARC
  5
19E
330
17B
100
AcDbEntity
  8
05069038_GEH._BO
  6
Continuous
 62
     7
100
AcDbCircle
 10
103.1506516139
 20
92.0006868004
 30
0.0
 40
0.0099999999999996
100
AcDbArc
 50
270.0
 51
0.0
  0
LINE
  5
19F
330
17B
100
AcDbEntity
  8
05069038_GEH._BO
  6
Continuous
 62
     7
100
AcDbLine
 10
105.6759142871
 20
91.9906868004
 30
0.0
 11
105.5299893844
 21
91.9906868004
 31
0.0
  0
LINE
  5
1A0
330
17B
100
AcDbEntity
  8
05069038_GEH._BO
  6
Continuous
 62
     7
100
AcDbLine
 10
105.5299893844
 20
91.9906868004
 30
0.0
 11
103.8621832812
 21
91.9906868004
 31
0.0
  0
LINE
  5
1A1
330
17B
100
AcDbEntity
  8
05069038_GEH._BO
  6
Continuous
 62
     7
100
AcDbLine
 10
105.5399893844
 20
92.1806868004
 30
0.0
 11
105.5399893844
 21
92.0006868004
 31
0.0
  0
LINE
  5
1A2
330
17B
100
AcDbEntity
  8
05069038_GEH._BO
  6
Continuous
 62
     7
100
AcDbLine
 10
103.8521832812
 20
92.0006868004
 30
0.0
 11
103.8521832812
 21
92.1806868004
 31
0.0
  0
LINE
  5
1A3
330
17B
100
AcDbEntity
  8
05069038_GEH._BO
  6
Continuous
 62
     7
100
AcDbLine
 10
105.6859142871
 20
92.1806868004
 30
0.0
 11
105.6859142871
 21
92.0006868004
 31
0.0
  0
ARC
  5
1A4
330
17B
100
AcDbEntity
  8
05069038_GEH._BO
  6
Continuous
 62
     7
100
AcDbCircle
 10
105.6959142871
 20
92.1806868004
 30
0.0
 40
0.0099999999999996
100
AcDbArc
 50
90.0
 51
180.0
  0
ARC
  5
1A5
330
17B
100
AcDbEntity
  8
05069038_GEH._BO
  6
Continuous
 62
     7
100
AcDbCircle
 10
105.6759142871
 20
92.0006868004
 30
0.0
 40
0.0099999999999996
100
AcDbArc
 50
270.0
 51
0.0
  0
ARC
  5
1A6
330
17B
100
AcDbEntity
  8
05069038_GEH._BO
  6
Continuous
 62
     7
100
AcDbCircle
 10
103.8421832812
 20
92.1806868004
 30
0.0
 40
0.0099999999999996
100
AcDbArc
 50
0.0
 51
90.0
  0
ARC
  5
1A7
330
17B
100
AcDbEntity
  8
05069038_GEH._BO
  6
Continuous
 62
     7
100
AcDbCircle
 10
103.8621832812
 20
92.0006868004
 30
0.0
 40
0.0099999999999996
100
AcDbArc
 50
180.0
 51
270.0
  0
ARC
  5
1A8
330
17B
100
AcDbEntity
  8
05069038_GEH._BO
  6
Continuous
 62
     7
100
AcDbCircle
 10
105.5499893844
 20
92.1806868004
 30
0.0
 40
0.0099999999999996
100
AcDbArc
 50
90.0
 51
180.0
  0
ARC
  5
1A9
330
17B
100
AcDbEntity
  8
05069038_GEH._BO
  6
Continuous
 62
     7
100
AcDbCircle
 10
105.5299893844
 20
92.0006868004
 30
0.0
 40
0.0099999999999996
100
AcDbArc
 50
270.0
 51
0.0
  0
LINE
  5
1AA
330
17B
100
AcDbEntity
  8
05069038_GEH._BO
  6
Continuous
 62
     7
100
AcDbLine
 10
103.8621832812
 20
91.9906868004
 30
0.0
 11
103.1506516139
 21
91.9906868004
 31
0.0
  0
LINE
  5
1AB
330
17B
100
AcDbEntity
  8
05069038_GEH._BO
  6
Continuous
 62
     7
100
AcDbLine
 10
100.7795929677
 20
91.9906868004
 30
0.0
 11
100.3257193598
 21
91.9906868004
 31
0.0
  0
LINE
  5
1AC
330
17B
100
AcDbEntity
  8
05069038_GEH._BO
  6
Continuous
 62
     7
100
AcDbLine
 10
97.2766179435
 20
91.9906868004
 30
0.0
 11
97.2136362809
 21
91.9906868004
 31
0.0
  0
LINE
  5
1AD
330
17B
100
AcDbEntity
  8
05069038_GEH._BO
  6
Continuous
 62
     7
100
AcDbLine
 10
94.8136672278
 20
91.9906868004
 30
0.0
 11
94.274365754
 21
91.9906868004
 31
0.0
  0
ARC
  5
1AE
330
17B
100
AcDbEntity
  8
05069038_GEH._BO
  6
Continuous
 62
     7
100
AcDbCircle
 10
67.2004858472
 20
94.1906868004
 30
0.0
 40
1.999999999999696
100
AcDbArc
 50
180.0
 51
270.0
  0
ARC
  5
1AF
330
17B
100
AcDbEntity
  8
05069038_GEH._BO
  6
Continuous
 62
     7
100
AcDbCircle
 10
130.4004858472
 20
94.1906868004
 30
0.0
 40
1.999999999999695
100
AcDbArc
 50
270.0
 51
360.0
  0
ARC
  5
1B0
330
17B
100
AcDbEntity
  8
05069038_GEH._BO
  6
Continuous
 62
     7
100
AcDbCircle
 10
74.8572811195
 20
90.6906868004
 30
0.0
 40
1.500000000000137
100
AcDbArc
 50
0.5
 51
90.0
  0
ARC
  5
1B1
330
17B
100
AcDbEntity
  8
05069038_GEH._BO
  6
Continuous
 62
     7
100
AcDbCircle
 10
122.743690575
 20
90.6906868004
 30
0.0
 40
1.500000000000135
100
AcDbArc
 50
90.0
 51
179.5
  0
LINE
  5
1B2
330
17B
100
AcDbEntity
  8
05069038_GEH._BO
  6
Continuous
 62
     7
100
AcDbLine
 10
76.3572240041
 20
90.7037766036
 30
0.0
 11
76.8006631208
 21
39.8906868004
 31
0.0
  0
LINE
  5
1B3
330
17B
100
AcDbEntity
  8
05069038_GEH._BO
  6
Continuous
 62
     7
100
AcDbLine
 10
120.8003085737
 20
39.8906868004
 30
0.0
 11
121.2437476904
 21
90.7037766036
 31
0.0
  0
LINE
  5
1B4
330
17B
100
AcDbEntity
  8
05069038_GEH._BO
  6
Continuous
 62
     7
100
AcDbLine
 10
65.2004858472
 20
98.3906868004
 30
0.0
 11
65.2004858472
 21
94.1906868004
 31
0.0
  0
LINE
  5
1B5
330
17B
100
AcDbEntity
  8
05069038_GEH._BO
  6
Continuous
 62
     7
100
AcDbLine
 10
132.4004858472
 20
94.1906868004
 30
0.0
 11
132.4004858472
 21
98.3906868004
 31
0.0
  0
LINE
  5
1B6
330
17B
100
AcDbEntity
  8
05069038_GEH._BO
  6
Continuous
 62
     7
100
AcDbLine
 10
91.6859142871
 20
92.1806868004
 30
0.0
 11
91.6859142871
 21
92.0006868004
 31
0.0
  0
LINE
  5
1B7
330
17B
100
AcDbEntity
  8
05069038_GEH._BO
  6
Continuous
 62
     7
100
AcDbLine
 10
96.866541354
 20
92.0006868004
 30
0.0
 11
96.866541354
 21
92.1806868004
 31
0.0
  0
LINE
  5
1B8
330
17B
100
AcDbEntity
  8
05069038_GEH._BO
  6
Continuous
 62
     7
100
AcDbLine
 10
100.300757939
 20
92.0006868004
 30
0.0
 11
100.300757939
 21
92.1806868004
 31
0.0
  0
LINE
  5
1B9
330
17B
100
AcDbEntity
  8
05069038_GEH._BO
  6
Continuous
 62
     7
100
AcDbLine
 10
97.3002137555
 20
92.1806868004
 30
0.0
 11
97.3002137555
 21
92.0006868004
 31
0.0
  0
ARC
  5
1BA
330
17B
100
AcDbEntity
  8
05069038_GEH._BO
  6
Continuous
 62
     7
100
AcDbCircle
 10
96.876541354
 20
92.1806868004
 30
0.0
 40
0.01
100
AcDbArc
 50
90.0
 51
180.0
  0
ARC
  5
1BB
330
17B
100
AcDbEntity
  8
05069038_GEH._BO
  6
Continuous
 62
     7
100
AcDbCircle
 10
96.856541354
 20
92.0006868004
 30
0.0
 40
0.0099999999999996
100
AcDbArc
 50
270.0
 51
0.0
  0
ARC
  5
1BC
330
17B
100
AcDbEntity
  8
05069038_GEH._BO
  6
Continuous
 62
     7
100
AcDbCircle
 10
97.2336362809
 20
92.1806868004
 30
0.0
 40
0.01
100
AcDbArc
 50
90.0
 51
180.0
  0
LINE
  5
1BD
330
17B
100
AcDbEntity
  8
05069038_GEH._BO
  6
Continuous
 62
     7
100
AcDbLine
 10
97.2236362809
 20
92.0006868004
 30
0.0
 11
97.2236362809
 21
92.1806868004
 31
0.0
  0
ARC
  5
1BE
330
17B
100
AcDbEntity
  8
05069038_GEH._BO
  6
Continuous
 62
     7
100
AcDbCircle
 10
97.2136362809
 20
92.0006868004
 30
0.0
 40
0.0099999999999996
100
AcDbArc
 50
270.0
 51
0.0
  0
LINE
  5
1BF
330
17B
100
AcDbEntity
  8
05206038_KAPPE._
  6
Continuous
 62
     7
100
AcDbLine
 10
120.8004858472
 20
39.8906868004
 30
0.0
 11
76.8004858472
 21
39.8906868004
 31
0.0
  0
LINE
  5
1C0
330
17B
100
AcDbEntity
  8
05206038_KAPPE._
  6
Continuous
 62
     7
100
AcDbLine
 10
116.8221121522
 20
32.5575938491
 30
0.0
 11
80.7788595422
 21
32.5575938491
 31
0.0
  0
LINE
  5
1C1
330
17B
100
AcDbEntity
  8
05206038_KAPPE._
  6
Continuous
 62
     7
100
AcDbLine
 10
76.8004858472
 20
39.8906868004
 30
0.0
 11
76.8004858472
 21
38.6686735009
 31
0.0
  0
LINE
  5
1C2
330
17B
100
AcDbEntity
  8
05206038_KAPPE._
  6
Continuous
 62
     7
100
AcDbLine
 10
120.8004858472
 20
38.6686735009
 30
0.0
 11
120.8004858472
 21
39.8906868004
 31
0.0
  0
ARC
  5
1C3
330
17B
100
AcDbEntity
  8
05206038_KAPPE._
  6
Continuous
 62
     7
100
AcDbCircle
 10
83.4804858401
 20
38.6668997342
 30
0.0
 40
6.680000228356818
100
AcDbArc
 50
179.9847860263
 51
246.1442700161
  0
ARC
  5
1C4
330
17B
100
AcDbEntity
  8
05206038_KAPPE._
  6
Continuous
 62
     7
100
AcDbCircle
 10
114.1204858544
 20
38.6668997342
 30
0.0
 40
6.680000228356787
100
AcDbArc
 50
293.8557299839
 51
0.0152139737
  0
ARC
  5
1C5
330
17B
100
AcDbEntity
  8
05206038_KAPPE._
  6
Continuous
 62
     7
100
AcDbCircle
 10
98.8004858472
 20
73.3106868032
 30
0.0
 40
44.56000000000056
100
AcDbArc
 50
246.144270016
 51
293.855729984
  0
ENDBLK
  5
1C7
330
17B
100
AcDbEntity
  8
0
100
AcDbBlockEnd
  0
ENDSEC
  0
SECTION
  2
ENTITIES
  0
INSERT
  5
5F
330
1F
100
AcDbEntity
  8
Default
100
AcDbBlockReference
  2
SEANNOT_GROUP
 10
0.0
 20
0.0
 30
0.0
  0
INSERT
  5
6A
330
1F
100
AcDbEntity
  8
Default
100
AcDbBlockReference
  2
SEANNOT_GROUP1
 10
0.0
 20
0.0
 30
0.0
  0
INSERT
  5
70
330
1F
100
AcDbEntity
  8
Default
100
AcDbBlockReference
  2
SEANNOT_GROUP2
 10
0.0
 20
0.0
 30
0.0
  0
INSERT
  5
76
330
1F
100
AcDbEntity
  8
Default
100
AcDbBlockReference
  2
SE
 10
0.0
 20
0.0
 30
0.0
  0
INSERT
  5
131
330
1F
100
AcDbEntity
  8
Default
100
AcDbBlockReference
  2
SE1
 10
0.0
 20
0.0
 30
0.0
  0
INSERT
  5
17C
330
1F
100
AcDbEntity
  8
Default
100
AcDbBlockReference
  2
SE2
 10
0.0
 20
0.0
 30
0.0
  0
TEXT
  5
1C9
330
1F
100
AcDbEntity
  8
Default
  6
Continuous
 62
     7
100
AcDbText
 10
5.9362635081
 20
53.4225120485
 30
0.0
 40
10.0
  1
Grohe AG^J
  7
SEACAD_seiso_ttf
 11
5.9362635081
 21
63.4225120485
 31
0.0
100
AcDbText
 73
     3
  0
TEXT
  5
1CA
330
1F
100
AcDbEntity
  8
Default
  6
Continuous
 62
     7
100
AcDbText
 10
5.9362635081
 20
37.0588756849
 30
0.0
 40
10.0
  1
 
  7
SEACAD_seiso_ttf
 11
5.9362635081
 21
47.0588756849
 31
0.0
100
AcDbText
 73
     3
  0
TEXT
  5
1CB
330
1F
100
AcDbEntity
  8
Default
  6
Continuous
 62
     7
100
AcDbText
 10
5.9362635081
 20
20.6952393213
 30
0.0
 40
10.0
  1
ecn: 
  7
SEACAD_seiso_ttf
 11
5.9362635081
 21
30.6952393213
 31
0.0
100
AcDbText
 73
     3
  0
TEXT
  5
1CC
330
1F
100
AcDbEntity
  8
Default
  6
Continuous
 62
     7
100
AcDbText
 10
5.9362635081
 20
4.3316029576
 30
0.0
 40
10.0
  1
unit: mm
  7
SEACAD_seiso_ttf
 11
5.9362635081
 21
14.3316029576
 31
0.0
100
AcDbText
 73
     3
  0
LINE
  5
1CD
330
1F
100
AcDbEntity
  8
Default
  6
Continuous
 62
     7
100
AcDbLine
 10
0.0
 20
0.0
 30
0.0
 11
100.0
 21
0.0
 31
0.0
  0
LINE
  5
1CE
330
1F
100
AcDbEntity
  8
Default
  6
Continuous
 62
     7
100
AcDbLine
 10
0.0
 20
0.0
 30
0.0
 11
0.0
 21
100.0
 31
0.0
  0
TEXT
  5
1CF
330
1F
100
AcDbEntity
  8
Default
  6
Continuous
 62
     7
100
AcDbText
 10
24.3923665681
 20
-18.2375342018
 30
0.0
 40
10.0
  1
100 mm
  7
SEACAD_seiso_ttf
 11
24.3923665681
 21
-8.2375342018
 31
0.0
100
AcDbText
 73
     3
  0
TEXT
  5
1D0
330
1F
100
AcDbEntity
  8
Default
  6
Continuous
 62
     7
100
AcDbText
 10
-7.6150308803
 20
24.6231930421
 30
0.0
 40
10.0
  1
100 mm
 50
90.0
  7
SEACAD_seiso_ttf
 11
-17.6150308803
 21
24.6231930421
 31
0.0
100
AcDbText
 73
     3
  0
TEXT
  5
1D1
330
1F
100
AcDbEntity
  8
Default
  6
Continuous
 62
     7
100
AcDbText
 10
28.4878128572
 20
20.0907663715
 30
0.0
 40
10.0
  1
206679
  7
SEACAD_seiso_ttf
 11
28.4878128572
 21
30.0907663715
 31
0.0
100
AcDbText
 73
     3
  0
TEXT
  5
1D2
330
1F
100
AcDbEntity
  8
Default
  6
Continuous
 62
     7
100
AcDbText
 10
5.9012241913
 20
36.7242780188
 30
0.0
 40
10.0
  1
28672000
  7
SEACAD_seiso_ttf
 11
5.9012241913
 21
46.7242780188
 31
0.0
100
AcDbText
 73
     3
  0
ENDSEC
  0
SECTION
  2
OBJECTS
  0
DICTIONARY
  5
C
330
0
100
AcDbDictionary
281
     1
  3
ACAD_GROUP
350
D
  3
ACAD_LAYOUT
350
1A
  3
ACAD_MLEADERSTYLE
350
1D6
  3
ACAD_MLINESTYLE
350
17
  3
ACAD_PLOTSETTINGS
350
19
  3
ACAD_PLOTSTYLENAME
350
E
  3
ACAD_SCALELIST
350
3B
  3
ACAD_TABLESTYLE
350
1D5
  3
ACAD_VISUALSTYLE
350
2A
  3
AcDbVariableDictionary
350
1D3
  0
DICTIONARY
  5
D
102
{ACAD_REACTORS
330
C
102
}
330
C
100
AcDbDictionary
281
     1
  0
DICTIONARY
  5
1A
102
{ACAD_REACTORS
330
C
102
}
330
C
100
AcDbDictionary
281
     1
  3
Layout1
350
1E
  3
Model
350
22
  0
DICTIONARY
  5
1D6
102
{ACAD_REACTORS
330
C
102
}
330
C
100
AcDbDictionary
281
     1
  0
DICTIONARY
  5
17
102
{ACAD_REACTORS
330
C
102
}
330
C
100
AcDbDictionary
281
     1
  3
Standard
350
18
  0
DICTIONARY
  5
19
102
{ACAD_REACTORS
330
C
102
}
330
C
100
AcDbDictionary
281
     1
  0
ACDBDICTIONARYWDFLT
  5
E
102
{ACAD_REACTORS
330
C
102
}
330
C
100
AcDbDictionary
281
     1
  3
Normal
350
F
100
AcDbDictionaryWithDefault
340
F
  0
DICTIONARY
  5
3B
102
{ACAD_REACTORS
330
C
102
}
330
C
100
AcDbDictionary
281
     1
  3
A0
350
3C
  3
A1
350
3D
  3
A2
350
3E
  3
A3
350
3F
  3
A4
350
40
  3
A5
350
41
  3
A6
350
42
  3
A7
350
43
  3
A8
350
44
  3
A9
350
45
  3
B0
350
46
  3
B1
350
47
  3
B2
350
48
  3
B3
350
49
  3
B4
350
4A
  3
B5
350
4B
  3
B6
350
4C
  3
B7
350
4D
  3
B8
350
4E
  3
B9
350
4F
  3
C0
350
50
  3
C1
350
51
  3
C2
350
52
  3
C3
350
53
  3
C4
350
54
  3
C5
350
55
  3
C6
350
56
  3
C7
350
57
  3
C8
350
58
  3
C9
350
59
  3
D0
350
5A
  3
D1
350
5B
  3
D2
350
5C
  0
DICTIONARY
  5
1D5
102
{ACAD_REACTORS
330
C
102
}
330
C
100
AcDbDictionary
281
     1
  0
DICTIONARY
  5
2A
102
{ACAD_REACTORS
330
C
102
}
330
C
100
AcDbDictionary
281
     1
  3
2dWireframe
350
2F
  3
3D Hidden
350
31
  3
3dWireframe
350
30
  3
Basic
350
32
  3
Brighten
350
36
  3
ColorChange
350
3A
  3
Conceptual
350
34
  3
Dim
350
35
  3
Facepattern
350
39
  3
Flat
350
2B
  3
FlatWithEdges
350
2C
  3
Gouraud
350
2D
  3
GouraudWithEdges
350
2E
  3
Linepattern
350
38
  3
Realistic
350
33
  3
Thicken
350
37
  0
DICTIONARY
  5
1D3
102
{ACAD_REACTORS
330
C
102
}
330
C
100
AcDbDictionary
281
     1
  3
CANNOSCALE
350
1D4
  3
PSOLHEIGHT
350
1D8
  3
PSOLWIDTH
350
1D7
  0
LAYOUT
  5
1E
102
{ACAD_REACTORS
330
1A
102
}
330
1A
100
AcDbPlotSettings
  1

  2
none_device
  4

  6

 40
0.0
 41
0.0
 42
0.0
 43
0.0
 44
0.0
 45
0.0
 46
0.0
 47
0.0
 48
0.0
 49
0.0
140
0.0
141
0.0
142
1.0
143
1.0
 70
   688
 72
     0
 73
     0
 74
     5
  7

 75
    16
147
1.0
148
0.0
149
0.0
100
AcDbLayout
  1
Layout1
 70
     1
 71
     1
 10
0.0
 20
0.0
 11
1682.0
 21
2378.0
 12
0.0
 22
0.0
 32
0.0
 14
0.0
 24
0.0
 34
0.0
 15
1682.0
 25
2378.0
 35
0.0
146
0.0
 13
0.0
 23
0.0
 33
0.0
 16
1.0
 26
0.0
 36
0.0
 17
0.0
 27
1.0
 37
0.0
 76
     0
330
1B
  0
LAYOUT
  5
22
102
{ACAD_REACTORS
330
1A
102
}
330
1A
100
AcDbPlotSettings
  1

  2
none_device
  4

  6

 40
0.0
 41
0.0
 42
0.0
 43
0.0
 44
0.0
 45
0.0
 46
0.0
 47
0.0
 48
0.0
 49
0.0
140
0.0
141
0.0
142
1.0
143
1.0
 70
  1712
 72
     0
 73
     0
 74
     0
  7

 75
     0
147
1.0
148
0.0
149
0.0
100
AcDbLayout
  1
Model
 70
     1
 71
     0
 10
0.0
 20
0.0
 11
1682.0
 21
2378.0
 12
0.0
 22
0.0
 32
0.0
 14
0.0
 24
0.0
 34
0.0
 15
1682.0
 25
2378.0
 35
0.0
146
0.0
 13
0.0
 23
0.0
 33
0.0
 16
1.0
 26
0.0
 36
0.0
 17
0.0
 27
1.0
 37
0.0
 76
     0
330
1F
331
29
  0
MLINESTYLE
  5
18
102
{ACAD_REACTORS
330
17
102
}
330
17
100
AcDbMlineStyle
  2
Standard
 70
     0
  3

 62
   256
 51
90.0
 52
90.0
 71
     2
 49
0.5
 62
   256
  6
BYLAYER
 49
-0.5
 62
   256
  6
BYLAYER
  0
ACDBPLACEHOLDER
  5
F
102
{ACAD_REACTORS
330
E
102
}
330
E
  0
SCALE
  5
3C
102
{ACAD_REACTORS
330
3B
102
}
330
3B
100
AcDbScale
 70
     0
300
1:1
140
1.0
141
1.0
290
     1
  0
SCALE
  5
3D
102
{ACAD_REACTORS
330
3B
102
}
330
3B
100
AcDbScale
 70
     0
300
1:2
140
1.0
141
2.0
290
     0
  0
SCALE
  5
3E
102
{ACAD_REACTORS
330
3B
102
}
330
3B
100
AcDbScale
 70
     0
300
1:4
140
1.0
141
4.0
290
     0
  0
SCALE
  5
3F
102
{ACAD_REACTORS
330
3B
102
}
330
3B
100
AcDbScale
 70
     0
300
1:5
140
1.0
141
5.0
290
     0
  0
SCALE
  5
40
102
{ACAD_REACTORS
330
3B
102
}
330
3B
100
AcDbScale
 70
     0
300
1:8
140
1.0
141
8.0
290
     0
  0
SCALE
  5
41
102
{ACAD_REACTORS
330
3B
102
}
330
3B
100
AcDbScale
 70
     0
300
1:10
140
1.0
141
10.0
290
     0
  0
SCALE
  5
42
102
{ACAD_REACTORS
330
3B
102
}
330
3B
100
AcDbScale
 70
     0
300
1:16
140
1.0
141
16.0
290
     0
  0
SCALE
  5
43
102
{ACAD_REACTORS
330
3B
102
}
330
3B
100
AcDbScale
 70
     0
300
1:20
140
1.0
141
20.0
290
     0
  0
SCALE
  5
44
102
{ACAD_REACTORS
330
3B
102
}
330
3B
100
AcDbScale
 70
     0
300
1:30
140
1.0
141
30.0
290
     0
  0
SCALE
  5
45
102
{ACAD_REACTORS
330
3B
102
}
330
3B
100
AcDbScale
 70
     0
300
1:40
140
1.0
141
40.0
290
     0
  0
SCALE
  5
46
102
{ACAD_REACTORS
330
3B
102
}
330
3B
100
AcDbScale
 70
     0
300
1:50
140
1.0
141
50.0
290
     0
  0
SCALE
  5
47
102
{ACAD_REACTORS
330
3B
102
}
330
3B
100
AcDbScale
 70
     0
300
1:100
140
1.0
141
100.0
290
     0
  0
SCALE
  5
48
102
{ACAD_REACTORS
330
3B
102
}
330
3B
100
AcDbScale
 70
     0
300
2:1
140
2.0
141
1.0
290
     0
  0
SCALE
  5
49
102
{ACAD_REACTORS
330
3B
102
}
330
3B
100
AcDbScale
 70
     0
300
4:1
140
4.0
141
1.0
290
     0
  0
SCALE
  5
4A
102
{ACAD_REACTORS
330
3B
102
}
330
3B
100
AcDbScale
 70
     0
300
8:1
140
8.0
141
1.0
290
     0
  0
SCALE
  5
4B
102
{ACAD_REACTORS
330
3B
102
}
330
3B
100
AcDbScale
 70
     0
300
10:1
140
10.0
141
1.0
290
     0
  0
SCALE
  5
4C
102
{ACAD_REACTORS
330
3B
102
}
330
3B
100
AcDbScale
 70
     0
300
100:1
140
100.0
141
1.0
290
     0
  0
SCALE
  5
4D
102
{ACAD_REACTORS
330
3B
102
}
330
3B
100
AcDbScale
 70
     0
300
1/128" = 1'-0"
140
0.0078125
141
12.0
290
     0
  0
SCALE
  5
4E
102
{ACAD_REACTORS
330
3B
102
}
330
3B
100
AcDbScale
 70
     0
300
1/64" = 1'-0"
140
0.015625
141
12.0
290
     0
  0
SCALE
  5
4F
102
{ACAD_REACTORS
330
3B
102
}
330
3B
100
AcDbScale
 70
     0
300
1/32" = 1'-0"
140
0.03125
141
12.0
290
     0
  0
SCALE
  5
50
102
{ACAD_REACTORS
330
3B
102
}
330
3B
100
AcDbScale
 70
     0
300
1/16" = 1'-0"
140
0.0625
141
12.0
290
     0
  0
SCALE
  5
51
102
{ACAD_REACTORS
330
3B
102
}
330
3B
100
AcDbScale
 70
     0
300
3/32" = 1'-0"
140
0.09375
141
12.0
290
     0
  0
SCALE
  5
52
102
{ACAD_REACTORS
330
3B
102
}
330
3B
100
AcDbScale
 70
     0
300
1/8" = 1'-0"
140
0.125
141
12.0
290
     0
  0
SCALE
  5
53
102
{ACAD_REACTORS
330
3B
102
}
330
3B
100
AcDbScale
 70
     0
300
3/16" = 1'-0"
140
0.1875
141
12.0
290
     0
  0
SCALE
  5
54
102
{ACAD_REACTORS
330
3B
102
}
330
3B
100
AcDbScale
 70
     0
300
1/4" = 1'-0"
140
0.25
141
12.0
290
     0
  0
SCALE
  5
55
102
{ACAD_REACTORS
330
3B
102
}
330
3B
100
AcDbScale
 70
     0
300
3/8" = 1'-0"
140
0.375
141
12.0
290
     0
  0
SCALE
  5
56
102
{ACAD_REACTORS
330
3B
102
}
330
3B
100
AcDbScale
 70
     0
300
1/2" = 1'-0"
140
0.5
141
12.0
290
     0
  0
SCALE
  5
57
102
{ACAD_REACTORS
330
3B
102
}
330
3B
100
AcDbScale
 70
     0
300
3/4" = 1'-0"
140
0.75
141
12.0
290
     0
  0
SCALE
  5
58
102
{ACAD_REACTORS
330
3B
102
}
330
3B
100
AcDbScale
 70
     0
300
1" = 1'-0"
140
1.0
141
12.0
290
     0
  0
SCALE
  5
59
102
{ACAD_REACTORS
330
3B
102
}
330
3B
100
AcDbScale
 70
     0
300
1-1/2" = 1'-0"
140
1.5
141
12.0
290
     0
  0
SCALE
  5
5A
102
{ACAD_REACTORS
330
3B
102
}
330
3B
100
AcDbScale
 70
     0
300
3" = 1'-0"
140
3.0
141
12.0
290
     0
  0
SCALE
  5
5B
102
{ACAD_REACTORS
330
3B
102
}
330
3B
100
AcDbScale
 70
     0
300
6" = 1'-0"
140
6.0
141
12.0
290
     0
  0
SCALE
  5
5C
102
{ACAD_REACTORS
330
3B
102
}
330
3B
100
AcDbScale
 70
     0
300
1'-0" = 1'-0"
140
12.0
141
12.0
290
     0
  0
VISUALSTYLE
  5
2F
102
{ACAD_REACTORS
330
2A
102
}
330
2A
100
AcDbVisualStyle
  2
2dWireframe
 70
     4
 71
     0
 72
     2
 73
     0
 90
        0
 40
-0.6
 41
-30.0
 62
     5
 63
     7
 74
     1
 91
        4
 64
     7
 65
   257
 75
     1
175
     1
 42
1.0
 92
        0
 66
   257
 43
1.0
 76
     1
 77
     6
 78
     2
 67
     7
 79
     5
170
     0
171
     0
290
     0
174
     0
 93
        1
 44
0.0
173
     0
291
     0
 45
0.0
1001
ACAD
1000
AcDbSavedByObjectVersion
1070
     0
  0
VISUALSTYLE
  5
31
102
{ACAD_REACTORS
330
2A
102
}
330
2A
100
AcDbVisualStyle
  2
3D Hidden
 70
     6
 71
     1
 72
     2
 73
     2
 90
        0
 40
-0.6
 41
-30.0
 62
     5
 63
     7
 74
     2
 91
        2
 64
     7
 65
   257
 75
     2
175
     1
 42
40.0
 92
        0
 66
   257
 43
1.0
 76
     1
 77
     6
 78
     2
 67
     7
 79
     3
170
     0
171
     0
290
     0
174
     0
 93
        1
 44
0.0
173
     0
291
     0
 45
0.0
1001
ACAD
1000
AcDbSavedByObjectVersion
1070
     0
  0
VISUALSTYLE
  5
30
102
{ACAD_REACTORS
330
2A
102
}
330
2A
100
AcDbVisualStyle
  2
3dWireframe
 70
     5
 71
     0
 72
     2
 73
     0
 90
        0
 40
-0.6
 41
-30.0
 62
     5
 63
     7
 74
     1
 91
        4
 64
     7
 65
   257
 75
     1
175
     1
 42
1.0
 92
        0
 66
   257
 43
1.0
 76
     1
 77
     6
 78
     2
 67
     7
 79
     5
170
     0
171
     0
290
     0
174
     0
 93
        1
 44
0.0
173
     0
291
     0
 45
0.0
1001
ACAD
1000
AcDbSavedByObjectVersion
1070
     0
  0
VISUALSTYLE
  5
32
102
{ACAD_REACTORS
330
2A
102
}
330
2A
100
AcDbVisualStyle
  2
Basic
 70
     7
 71
     1
 72
     0
 73
     1
 90
        0
 40
-0.6
 41
-30.0
 62
     5
 63
     7
 74
     0
 91
        4
 64
     7
 65
   257
 75
     1
175
     1
 42
1.0
 92
        8
 66
     7
 43
1.0
 76
     1
 77
     6
 78
     2
 67
     7
 79
     5
170
     0
171
     0
290
     0
174
     0
 93
        1
 44
0.0
173
     0
291
     1
 45
0.0
1001
ACAD
1000
AcDbSavedByObjectVersion
1070
     0
  0
VISUALSTYLE
  5
36
102
{ACAD_REACTORS
330
2A
102
}
330
2A
100
AcDbVisualStyle
  2
Brighten
 70
    12
 71
     2
 72
     2
 73
     0
 90
        0
 40
-0.6
 41
-30.0
 62
     5
 63
     7
 74
     1
 91
        4
 64
     7
 65
   257
 75
     1
175
     1
 42
1.0
 92
        8
 66
     7
 43
1.0
 76
     1
 77
     6
 78
     2
 67
     7
 79
     5
170
     0
171
     0
290
     0
174
     0
 93
        1
 44
50.0
173
     0
291
     1
 45
0.0
1001
ACAD
1000
AcDbSavedByObjectVersion
1070
     0
  0
VISUALSTYLE
  5
3A
102
{ACAD_REACTORS
330
2A
102
}
330
2A
100
AcDbVisualStyle
  2
ColorChange
 70
    16
 71
     2
 72
     2
 73
     3
 90
        0
 40
-0.6
 41
-30.0
 62
     5
 63
     8
 74
     1
 91
        4
 64
     7
 65
   257
 75
     1
175
     1
 42
1.0
 92
        8
 66
     8
 43
1.0
 76
     1
 77
     6
 78
     2
 67
     7
 79
     5
170
     0
171
     0
290
     0
174
     0
 93
        1
 44
0.0
173
     0
291
     1
 45
0.0
1001
ACAD
1000
AcDbSavedByObjectVersion
1070
     0
  0
VISUALSTYLE
  5
34
102
{ACAD_REACTORS
330
2A
102
}
330
2A
100
AcDbVisualStyle
  2
Conceptual
 70
     9
 71
     3
 72
     2
 73
     0
 90
        0
 40
-0.6
 41
-30.0
 62
     5
 63
     7
 74
     2
 91
        2
 64
     7
 65
   257
 75
     1
175
     1
 42
40.0
 92
        8
 66
     7
 43
1.0
 76
     1
 77
     6
 78
     2
 67
     7
 79
     3
170
     0
171
     0
290
     0
174
     0
 93
        1
 44
0.0
173
     0
291
     0
 45
0.0
1001
ACAD
1000
AcDbSavedByObjectVersion
1070
     0
  0
VISUALSTYLE
  5
35
102
{ACAD_REACTORS
330
2A
102
}
330
2A
100
AcDbVisualStyle
  2
Dim
 70
    11
 71
     2
 72
     2
 73
     0
 90
        0
 40
-0.6
 41
-30.0
 62
     5
 63
     7
 74
     1
 91
        4
 64
     7
 65
   257
 75
     1
175
     1
 42
1.0
 92
        8
 66
     7
 43
1.0
 76
     1
 77
     6
 78
     2
 67
     7
 79
     5
170
     0
171
     0
290
     0
174
     0
 93
        1
 44
-50.0
173
     0
291
     1
 45
0.0
1001
ACAD
1000
AcDbSavedByObjectVersion
1070
     0
  0
VISUALSTYLE
  5
39
102
{ACAD_REACTORS
330
2A
102
}
330
2A
100
AcDbVisualStyle
  2
Facepattern
 70
    15
 71
     2
 72
     2
 73
     0
 90
        0
 40
-0.6
 41
-30.0
 62
     5
 63
     7
 74
     1
 91
        4
 64
     7
 65
   257
 75
     1
175
     1
 42
1.0
 92
        8
 66
     7
 43
1.0
 76
     1
 77
     6
 78
     2
 67
     7
 79
     5
170
     0
171
     0
290
     0
174
     0
 93
        1
 44
0.0
173
     0
291
     1
 45
0.0
1001
ACAD
1000
AcDbSavedByObjectVersion
1070
     0
  0
VISUALSTYLE
  5
2B
102
{ACAD_REACTORS
330
2A
102
}
330
2A
100
AcDbVisualStyle
  2
Flat
 70
     0
 71
     2
 72
     1
 73
     1
 90
        2
 40
-0.6
 41
30.0
 62
     5
 63
     7
 74
     0
 91
        4
 64
     7
 65
   257
 75
     1
175
     1
 42
1.0
 92
        8
 66
     7
 43
1.0
 76
     1
 77
     6
 78
     2
 67
     7
 79
     5
170
     0
171
     0
290
     0
174
     0
 93
       13
 44
0.0
173
     0
291
     1
 45
0.0
1001
ACAD
1000
AcDbSavedByObjectVersion
1070
     0
  0
VISUALSTYLE
  5
2C
102
{ACAD_REACTORS
330
2A
102
}
330
2A
100
AcDbVisualStyle
  2
FlatWithEdges
 70
     1
 71
     2
 72
     1
 73
     1
 90
        2
 40
-0.6
 41
30.0
 62
     5
 63
     7
 74
     1
 91
        4
 64
     7
 65
   257
 75
     1
175
     1
 42
1.0
 92
        0
 66
   257
 43
1.0
 76
     1
 77
     6
 78
     2
 67
     7
 79
     5
170
     0
171
     0
290
     0
174
     0
 93
       13
 44
0.0
173
     0
291
     1
 45
0.0
1001
ACAD
1000
AcDbSavedByObjectVersion
1070
     0
  0
VISUALSTYLE
  5
2D
102
{ACAD_REACTORS
330
2A
102
}
330
2A
100
AcDbVisualStyle
  2
Gouraud
 70
     2
 71
     2
 72
     2
 73
     1
 90
        2
 40
-0.6
 41
30.0
 62
     5
 63
     7
 74
     0
 91
        4
 64
     7
 65
   257
 75
     1
175
     1
 42
1.0
 92
        0
 66
     7
 43
1.0
 76
     1
 77
     6
 78
     2
 67
     7
 79
     5
170
     0
171
     0
290
     0
174
     0
 93
       13
 44
0.0
173
     0
291
     1
 45
0.0
1001
ACAD
1000
AcDbSavedByObjectVersion
1070
     0
  0
VISUALSTYLE
  5
2E
102
{ACAD_REACTORS
330
2A
102
}
330
2A
100
AcDbVisualStyle
  2
GouraudWithEdges
 70
     3
 71
     2
 72
     2
 73
     1
 90
        2
 40
-0.6
 41
30.0
 62
     5
 63
     7
 74
     1
 91
        4
 64
     7
 65
   257
 75
     1
175
     1
 42
1.0
 92
        0
 66
   257
 43
1.0
 76
     1
 77
     6
 78
     2
 67
     7
 79
     5
170
     0
171
     0
290
     0
174
     0
 93
       13
 44
0.0
173
     0
291
     1
 45
0.0
1001
ACAD
1000
AcDbSavedByObjectVersion
1070
     0
  0
VISUALSTYLE
  5
38
102
{ACAD_REACTORS
330
2A
102
}
330
2A
100
AcDbVisualStyle
  2
Linepattern
 70
    14
 71
     2
 72
     2
 73
     0
 90
        0
 40
-0.6
 41
-30.0
 62
     5
 63
     7
 74
     1
 91
        4
 64
     7
 65
   257
 75
     7
175
     7
 42
1.0
 92
        8
 66
     7
 43
1.0
 76
     1
 77
     6
 78
     2
 67
     7
 79
     5
170
     0
171
     0
290
     0
174
     0
 93
        1
 44
0.0
173
     0
291
     1
 45
0.0
1001
ACAD
1000
AcDbSavedByObjectVersion
1070
     0
  0
VISUALSTYLE
  5
33
102
{ACAD_REACTORS
330
2A
102
}
330
2A
100
AcDbVisualStyle
  2
Realistic
 70
     8
 71
     2
 72
     2
 73
     0
 90
        0
 40
-0.6
 41
-30.0
 62
     5
 63
     7
 74
     1
 91
        0
 64
     7
 65
   257
 75
     1
175
     1
 42
1.0
 92
        8
 66
     8
 43
1.0
 76
     1
 77
     6
 78
     2
 67
     7
 79
     5
170
     0
171
     0
290
     0
174
     0
 93
       13
 44
0.0
173
     0
291
     0
 45
0.0
1001
ACAD
1000
AcDbSavedByObjectVersion
1070
     0
  0
VISUALSTYLE
  5
37
102
{ACAD_REACTORS
330
2A
102
}
330
2A
100
AcDbVisualStyle
  2
Thicken
 70
    13
 71
     2
 72
     2
 73
     0
 90
        0
 40
-0.6
 41
-30.0
 62
     5
 63
     7
 74
     1
 91
        4
 64
     7
 65
   257
 75
     1
175
     1
 42
1.0
 92
       12
 66
     7
 43
1.0
 76
     1
 77
     6
 78
     2
 67
     7
 79
     5
170
     0
171
     0
290
     0
174
     0
 93
        1
 44
0.0
173
     0
291
     1
 45
0.0
1001
ACAD
1000
AcDbSavedByObjectVersion
1070
     0
  0
DICTIONARYVAR
  5
1D4
102
{ACAD_REACTORS
330
1D3
102
}
330
1D3
100
DictionaryVariables
280
     0
  1
1:1
  0
DICTIONARYVAR
  5
1D8
102
{ACAD_REACTORS
330
1D3
102
}
330
1D3
100
DictionaryVariables
280
     0
  1
80.000000
  0
DICTIONARYVAR
  5
1D7
102
{ACAD_REACTORS
330
1D3
102
}
330
1D3
100
DictionaryVariables
280
     0
  1
5.000000
  0
ENDSEC
  0
EOF
