  0
SECTION
  2
HEADER
  9
$ACADVER
  1
AC1015
  9
$ACADMAINTVER
 70
     6
  9
$DWGCODEPAGE
  3
ANSI_1252
  9
$INSBASE
 10
0.0
 20
0.0
 30
0.0
  9
$EXTMIN
 10
0.0
 20
0.0
 30
0.0
  9
$EXTMAX
 10
1682.0
 20
2378.0
 30
0.0
  9
$LIMMIN
 10
0.0
 20
0.0
  9
$LIMMAX
 10
1682.0
 20
2378.0
  9
$ORTHOMODE
 70
     0
  9
$REGENMODE
 70
     1
  9
$FILLMODE
 70
     1
  9
$QTEXTMODE
 70
     0
  9
$MIRRTEXT
 70
     1
  9
$LTSCALE
 40
1.0
  9
$ATTMODE
 70
     1
  9
$TEXTSIZE
 40
2.5
  9
$TRACEWID
 40
1.0
  9
$TEXTSTYLE
  7
Standard
  9
$CLAYER
  8
0
  9
$CELTYPE
  6
ByLayer
  9
$CECOLOR
 62
   256
  9
$CELTSCALE
 40
1.0
  9
$DISPSILH
 70
     0
  9
$DIMSCALE
 40
1.0
  9
$DIMASZ
 40
2.5
  9
$DIMEXO
 40
0.625
  9
$DIMDLI
 40
3.75
  9
$DIMRND
 40
0.0
  9
$DIMDLE
 40
0.0
  9
$DIMEXE
 40
1.25
  9
$DIMTP
 40
0.0
  9
$DIMTM
 40
0.0
  9
$DIMTXT
 40
2.5
  9
$DIMCEN
 40
2.5
  9
$DIMTSZ
 40
0.0
  9
$DIMTOL
 70
     0
  9
$DIMLIM
 70
     0
  9
$DIMTIH
 70
     0
  9
$DIMTOH
 70
     0
  9
$DIMSE1
 70
     0
  9
$DIMSE2
 70
     0
  9
$DIMTAD
 70
     1
  9
$DIMZIN
 70
     8
  9
$DIMBLK
  1

  9
$DIMASO
 70
     1
  9
$DIMSHO
 70
     1
  9
$DIMPOST
  1

  9
$DIMAPOST
  1

  9
$DIMALT
 70
     0
  9
$DIMALTD
 70
     3
  9
$DIMALTF
 40
0.0393700787
  9
$DIMLFAC
 40
1.0
  9
$DIMTOFL
 70
     1
  9
$DIMTVP
 40
0.0
  9
$DIMTIX
 70
     0
  9
$DIMSOXD
 70
     0
  9
$DIMSAH
 70
     0
  9
$DIMBLK1
  1

  9
$DIMBLK2
  1

  9
$DIMSTYLE
  2
ISO-25
  9
$DIMCLRD
 70
     0
  9
$DIMCLRE
 70
     0
  9
$DIMCLRT
 70
     0
  9
$DIMTFAC
 40
1.0
  9
$DIMGAP
 40
0.625
  9
$DIMJUST
 70
     0
  9
$DIMSD1
 70
     0
  9
$DIMSD2
 70
     0
  9
$DIMTOLJ
 70
     0
  9
$DIMTZIN
 70
     8
  9
$DIMALTZ
 70
     0
  9
$DIMALTTZ
 70
     0
  9
$DIMUPT
 70
     0
  9
$DIMDEC
 70
     2
  9
$DIMTDEC
 70
     2
  9
$DIMALTU
 70
     2
  9
$DIMALTTD
 70
     3
  9
$DIMTXSTY
  7
Standard
  9
$DIMAUNIT
 70
     0
  9
$DIMADEC
 70
     0
  9
$DIMALTRND
 40
0.0
  9
$DIMAZIN
 70
     0
  9
$DIMDSEP
 70
    44
  9
$DIMATFIT
 70
     3
  9
$DIMFRAC
 70
     0
  9
$DIMLDRBLK
  1

  9
$DIMLUNIT
 70
     2
  9
$DIMLWD
 70
    -2
  9
$DIMLWE
 70
    -2
  9
$DIMTMOVE
 70
     0
  9
$LUNITS
 70
     2
  9
$LUPREC
 70
     4
  9
$SKETCHINC
 40
1.0
  9
$FILLETRAD
 40
10.0
  9
$AUNITS
 70
     0
  9
$AUPREC
 70
     0
  9
$MENU
  1
.
  9
$ELEVATION
 40
0.0
  9
$PELEVATION
 40
0.0
  9
$THICKNESS
 40
0.0
  9
$LIMCHECK
 70
     0
  9
$CHAMFERA
 40
10.0
  9
$CHAMFERB
 40
10.0
  9
$CHAMFERC
 40
20.0
  9
$CHAMFERD
 40
0.0
  9
$SKPOLY
 70
     0
  9
$TDCREATE
 40
2455154.654818785
  9
$TDUCREATE
 40
2455154.613152118
  9
$TDUPDATE
 40
2455154.654818796
  9
$TDUUPDATE
 40
2455154.61315213
  9
$TDINDWG
 40
0.0000000116
  9
$TDUSRTIMER
 40
0.0000000116
  9
$USRTIMER
 70
     1
  9
$ANGBASE
 50
0.0
  9
$ANGDIR
 70
     0
  9
$PDMODE
 70
     0
  9
$PDSIZE
 40
0.0
  9
$PLINEWID
 40
0.0
  9
$SPLFRAME
 70
     0
  9
$SPLINETYPE
 70
     6
  9
$SPLINESEGS
 70
     8
  9
$HANDSEED
  5
137
  9
$SURFTAB1
 70
     6
  9
$SURFTAB2
 70
     6
  9
$SURFTYPE
 70
     6
  9
$SURFU
 70
     6
  9
$SURFV
 70
     6
  9
$UCSBASE
  2

  9
$UCSNAME
  2

  9
$UCSORG
 10
0.0
 20
0.0
 30
0.0
  9
$UCSXDIR
 10
1.0
 20
0.0
 30
0.0
  9
$UCSYDIR
 10
0.0
 20
1.0
 30
0.0
  9
$UCSORTHOREF
  2

  9
$UCSORTHOVIEW
 70
     0
  9
$UCSORGTOP
 10
0.0
 20
0.0
 30
0.0
  9
$UCSORGBOTTOM
 10
0.0
 20
0.0
 30
0.0
  9
$UCSORGLEFT
 10
0.0
 20
0.0
 30
0.0
  9
$UCSORGRIGHT
 10
0.0
 20
0.0
 30
0.0
  9
$UCSORGFRONT
 10
0.0
 20
0.0
 30
0.0
  9
$UCSORGBACK
 10
0.0
 20
0.0
 30
0.0
  9
$PUCSBASE
  2

  9
$PUCSNAME
  2

  9
$PUCSORG
 10
0.0
 20
0.0
 30
0.0
  9
$PUCSXDIR
 10
1.0
 20
0.0
 30
0.0
  9
$PUCSYDIR
 10
0.0
 20
1.0
 30
0.0
  9
$PUCSORTHOREF
  2

  9
$PUCSORTHOVIEW
 70
     0
  9
$PUCSORGTOP
 10
0.0
 20
0.0
 30
0.0
  9
$PUCSORGBOTTOM
 10
0.0
 20
0.0
 30
0.0
  9
$PUCSORGLEFT
 10
0.0
 20
0.0
 30
0.0
  9
$PUCSORGRIGHT
 10
0.0
 20
0.0
 30
0.0
  9
$PUCSORGFRONT
 10
0.0
 20
0.0
 30
0.0
  9
$PUCSORGBACK
 10
0.0
 20
0.0
 30
0.0
  9
$USERI1
 70
     0
  9
$USERI2
 70
     0
  9
$USERI3
 70
     0
  9
$USERI4
 70
     0
  9
$USERI5
 70
     0
  9
$USERR1
 40
0.0
  9
$USERR2
 40
0.0
  9
$USERR3
 40
0.0
  9
$USERR4
 40
0.0
  9
$USERR5
 40
0.0
  9
$WORLDVIEW
 70
     1
  9
$SHADEDGE
 70
     3
  9
$SHADEDIF
 70
    70
  9
$TILEMODE
 70
     1
  9
$MAXACTVP
 70
    64
  9
$PINSBASE
 10
0.0
 20
0.0
 30
0.0
  9
$PLIMCHECK
 70
     0
  9
$PEXTMIN
 10
0.0
 20
0.0
 30
0.0
  9
$PEXTMAX
 10
1682.0
 20
2378.0
 30
0.0
  9
$PLIMMIN
 10
0.0
 20
0.0
  9
$PLIMMAX
 10
1682.0
 20
2378.0
  9
$UNITMODE
 70
     0
  9
$VISRETAIN
 70
     1
  9
$PLINEGEN
 70
     0
  9
$PSLTSCALE
 70
     1
  9
$TREEDEPTH
 70
  3020
  9
$CMLSTYLE
  2
Standard
  9
$CMLJUST
 70
     0
  9
$CMLSCALE
 40
20.0
  9
$PROXYGRAPHICS
 70
     1
  9
$MEASUREMENT
 70
     1
  9
$CELWEIGHT
370
    -1
  9
$ENDCAPS
280
     0
  9
$JOINSTYLE
280
     0
  9
$LWDISPLAY
290
     0
  9
$INSUNITS
 70
     4
  9
$HYPERLINKBASE
  1

  9
$STYLESHEET
  1

  9
$XEDIT
290
     1
  9
$CEPSNTYPE
380
     0
  9
$PSTYLEMODE
290
     1
  9
$FINGERPRINTGUID
  2
{1C2ACE4A-0D23-455A-82DC-380395053F69}
  9
$VERSIONGUID
  2
{FAEB1C32-E019-11D5-929B-00C0DF256EC4}
  9
$EXTNAMES
290
     1
  9
$PSVPSCALE
 40
0.0
  9
$OLESTARTUP
290
     0
  0
ENDSEC
  0
SECTION
  2
CLASSES
  0
CLASS
  1
ACDBDICTIONARYWDFLT
  2
AcDbDictionaryWithDefault
  3
ObjectDBX Classes
 90
        0
280
     0
281
     0
  0
CLASS
  1
VISUALSTYLE
  2
AcDbVisualStyle
  3
ObjectDBX Classes
 90
     4095
280
     0
281
     0
  0
CLASS
  1
SCALE
  2
AcDbScale
  3
ObjectDBX Classes
 90
     1153
280
     0
281
     0
  0
CLASS
  1
DICTIONARYVAR
  2
AcDbDictionaryVar
  3
ObjectDBX Classes
 90
        0
280
     0
281
     0
  0
CLASS
  1
ACDBPLACEHOLDER
  2
AcDbPlaceHolder
  3
ObjectDBX Classes
 90
        0
280
     0
281
     0
  0
CLASS
  1
LAYOUT
  2
AcDbLayout
  3
ObjectDBX Classes
 90
        0
280
     0
281
     0
  0
ENDSEC
  0
SECTION
  2
TABLES
  0
TABLE
  2
VPORT
  5
8
330
0
100
AcDbSymbolTable
 70
     1
  0
VPORT
  5
29
330
8
100
AcDbSymbolTableRecord
100
AcDbViewportTableRecord
  2
*Active
 70
     0
 10
0.0
 20
0.0
 11
1.0
 21
1.0
 12
344.1869158879
 22
148.5
 13
0.0
 23
0.0
 14
10.0
 24
10.0
 15
10.0
 25
10.0
 16
0.0
 26
0.0
 36
1.0
 17
0.0
 27
0.0
 37
0.0
 40
297.0
 41
1.9729729729
 42
50.0
 43
0.0
 44
0.0
 50
0.0
 51
0.0
 71
     0
 72
   100
 73
     1
 74
     3
 75
     0
 76
     0
 77
     0
 78
     0
281
     0
 65
     1
110
0.0
120
0.0
130
0.0
111
1.0
121
0.0
131
0.0
112
0.0
122
1.0
132
0.0
 79
     0
146
0.0
  0
ENDTAB
  0
TABLE
  2
LTYPE
  5
5
330
0
100
AcDbSymbolTable
 70
     1
  0
LTYPE
  5
14
330
5
100
AcDbSymbolTableRecord
100
AcDbLinetypeTableRecord
  2
ByBlock
 70
     0
  3

 72
    65
 73
     0
 40
0.0
  0
LTYPE
  5
15
330
5
100
AcDbSymbolTableRecord
100
AcDbLinetypeTableRecord
  2
ByLayer
 70
     0
  3

 72
    65
 73
     0
 40
0.0
  0
LTYPE
  5
16
330
5
100
AcDbSymbolTableRecord
100
AcDbLinetypeTableRecord
  2
Continuous
 70
     0
  3
Solid line
 72
    65
 73
     0
 40
0.0
  0
ENDTAB
  0
TABLE
  2
LAYER
  5
2
330
0
100
AcDbSymbolTable
 70
    12
  0
LAYER
  5
10
330
2
100
AcDbSymbolTableRecord
100
AcDbLayerTableRecord
  2
0
 70
     0
 62
     7
  6
Continuous
370
    -3
390
F
  0
LAYER
  5
5D
330
2
100
AcDbSymbolTableRecord
100
AcDbLayerTableRecord
  2
Default
 70
     0
 62
     7
  6
Continuous
370
    -3
390
F
  0
LAYER
  5
60
330
2
100
AcDbSymbolTableRecord
100
AcDbLayerTableRecord
  2
$DDT_AUDIT_GENERATED_(60)
 70
     0
 62
     7
  6
Continuous
370
    -3
390
F
  0
LAYER
  5
6B
330
2
100
AcDbSymbolTableRecord
100
AcDbLayerTableRecord
  2
$DDT_AUDIT_GENERATED_(6B)
 70
     0
 62
     7
  6
Continuous
370
    -3
390
F
  0
LAYER
  5
6E
330
2
100
AcDbSymbolTableRecord
100
AcDbLayerTableRecord
  2
$DDT_AUDIT_GENERATED_(6E)
 70
     0
 62
     7
  6
Continuous
370
    -3
390
F
  0
LAYER
  5
78
330
2
100
AcDbSymbolTableRecord
100
AcDbLayerTableRecord
  2
$DDT_AUDIT_GENERATED_(78)
 70
     0
 62
     7
  6
Continuous
370
    -3
390
F
  0
LAYER
  5
7E
330
2
100
AcDbSymbolTableRecord
100
AcDbLayerTableRecord
  2
$DDT_AUDIT_GENERATED_(7E)
 70
     0
 62
     7
  6
Continuous
370
    -3
390
F
  0
LAYER
  5
87
330
2
100
AcDbSymbolTableRecord
100
AcDbLayerTableRecord
  2
4221035_0__HUELS
 70
     0
 62
     7
  6
Continuous
370
    -3
390
F
  0
LAYER
  5
8C
330
2
100
AcDbSymbolTableRecord
100
AcDbLayerTableRecord
  2
4221039_0__SIEB_
 70
     0
 62
     7
  6
Continuous
370
    -3
390
F
  0
LAYER
  5
A3
330
2
100
AcDbSymbolTableRecord
100
AcDbLayerTableRecord
  2
$DDT_AUDIT_GENERATED_(A3)
 70
     0
 62
     7
  6
Continuous
370
    -3
390
F
  0
LAYER
  5
B6
330
2
100
AcDbSymbolTableRecord
100
AcDbLayerTableRecord
  2
DV1_Standard
 70
     0
 62
     7
  6
Continuous
370
    -3
390
F
  0
LAYER
  5
CE
330
2
100
AcDbSymbolTableRecord
100
AcDbLayerTableRecord
  2
$DDT_AUDIT_GENERATED_(CE)
 70
     0
 62
     7
  6
Continuous
370
    -3
390
F
  0
ENDTAB
  0
TABLE
  2
STYLE
  5
3
330
0
100
AcDbSymbolTable
 70
     2
  0
STYLE
  5
11
330
3
100
AcDbSymbolTableRecord
100
AcDbTextStyleTableRecord
  2
Standard
 70
     0
 40
0.0
 41
1.0
 50
0.0
 71
     0
 42
2.5
  3
txt
  4

  0
STYLE
  5
126
330
3
100
AcDbSymbolTableRecord
100
AcDbTextStyleTableRecord
  2
SEACAD_seiso_ttf
 70
     0
 40
0.0
 41
1.0
 50
0.0
 71
     0
 42
0.2
  3
seiso.ttf
  4

  0
ENDTAB
  0
TABLE
  2
VIEW
  5
6
330
0
100
AcDbSymbolTable
 70
     0
  0
ENDTAB
  0
TABLE
  2
UCS
  5
7
330
0
100
AcDbSymbolTable
 70
     0
  0
ENDTAB
  0
TABLE
  2
APPID
  5
9
330
0
100
AcDbSymbolTable
 70
     1
  0
APPID
  5
12
330
9
100
AcDbSymbolTableRecord
100
AcDbRegAppTableRecord
  2
ACAD
 70
     0
  0
ENDTAB
  0
TABLE
  2
DIMSTYLE
  5
A
330
0
100
AcDbSymbolTable
 70
     1
100
AcDbDimStyleTable
  0
DIMSTYLE
105
27
330
A
100
AcDbSymbolTableRecord
100
AcDbDimStyleTableRecord
  2
ISO-25
 70
     0
 41
2.5
 42
0.625
 43
3.75
 44
1.25
 73
     0
 74
     0
 77
     1
 78
     8
140
2.5
141
2.5
143
0.0393700787
147
0.625
171
     3
172
     1
271
     2
272
     2
274
     3
278
    44
283
     0
284
     8
340
11
  0
ENDTAB
  0
TABLE
  2
BLOCK_RECORD
  5
1
330
0
100
AcDbSymbolTable
 70
     4
  0
BLOCK_RECORD
  5
1F
330
1
100
AcDbSymbolTableRecord
100
AcDbBlockTableRecord
  2
*Model_Space
340
22
  0
BLOCK_RECORD
  5
1B
330
1
100
AcDbSymbolTableRecord
100
AcDbBlockTableRecord
  2
*Paper_Space
340
1E
  0
BLOCK_RECORD
  5
5E
330
1
100
AcDbSymbolTableRecord
100
AcDbBlockTableRecord
  2
SE
340
0
102
{BLKREFS
331
5F
102
}
  0
BLOCK_RECORD
  5
BA
330
1
100
AcDbSymbolTableRecord
100
AcDbBlockTableRecord
  2
SE1
340
0
102
{BLKREFS
331
BB
102
}
  0
BLOCK_RECORD
  5
DE
330
1
100
AcDbSymbolTableRecord
100
AcDbBlockTableRecord
  2
SE2
340
0
102
{BLKREFS
331
DF
102
}
  0
ENDTAB
  0
ENDSEC
  0
SECTION
  2
BLOCKS
  0
BLOCK
  5
20
330
1F
100
AcDbEntity
  8
0
100
AcDbBlockBegin
  2
*Model_Space
 70
     0
 10
0.0
 20
0.0
 30
0.0
  3
*Model_Space
  1

  0
ENDBLK
  5
21
330
1F
100
AcDbEntity
  8
0
100
AcDbBlockEnd
  0
BLOCK
  5
1C
330
1B
100
AcDbEntity
 67
     1
  8
0
100
AcDbBlockBegin
  2
*Paper_Space
 70
     0
 10
0.0
 20
0.0
 30
0.0
  3
*Paper_Space
  1

  0
ENDBLK
  5
1D
330
1B
100
AcDbEntity
 67
     1
  8
0
100
AcDbBlockEnd
  0
BLOCK
  5
B8
330
5E
100
AcDbEntity
  8
0
100
AcDbBlockBegin
  2
SE
 70
     0
 10
0.0
 20
0.0
 30
0.0
  3
SE
  1

  0
LINE
  5
61
330
5E
100
AcDbEntity
  8
$DDT_AUDIT_GENERATED_(60)
  6
Continuous
 62
     7
100
AcDbLine
 10
6.35
 20
299.8770419222
 30
0.0
 11
54.35
 21
299.8770419222
 31
0.0
  0
LINE
  5
62
330
5E
100
AcDbEntity
  8
$DDT_AUDIT_GENERATED_(60)
  6
Continuous
 62
     7
100
AcDbLine
 10
18.85
 20
473.8770419222
 30
0.0
 11
41.85
 21
473.8770419222
 31
0.0
  0
SPLINE
  5
63
330
5E
100
AcDbEntity
  8
$DDT_AUDIT_GENERATED_(60)
  6
Continuous
 62
     7
100
AcDbSpline
210
0.0
220
0.0
230
1.0
 70
     8
 71
     3
 72
    34
 73
    30
 74
     0
 42
0.000000000143485
 43
0.0000000001
 40
0.4415076874060097
 40
0.4415076874060097
 40
0.4415076874060097
 40
0.4415076874060097
 40
0.4687500000000001
 40
0.4687500000000001
 40
0.5000000000000001
 40
0.5000000000000001
 40
0.5625000000000001
 40
0.5625000000000001
 40
0.6250000000000001
 40
0.6250000000000001
 40
0.6875
 40
0.6875
 40
0.71875
 40
0.71875
 40
0.75
 40
0.75
 40
0.78125
 40
0.78125
 40
0.8125
 40
0.8125
 40
0.84375
 40
0.84375
 40
0.875
 40
0.875
 40
0.90625
 40
0.90625
 40
0.9375
 40
0.9375
 40
0.9408335159389225
 40
0.9408335159389225
 40
0.9408335159389225
 40
0.9408335159389225
 10
50.93729648240758
 20
336.627170668621
 30
0.0
 10
50.93684481578429
 20
336.6276668872825
 30
0.0
 10
50.86610658686993
 20
336.7128180348192
 30
0.0
 10
50.5756679308811
 20
337.0646627719734
 30
0.0
 10
50.33203222688197
 20
337.3606060147707
 30
0.0
 10
49.40834067037754
 20
338.5000138651624
 30
0.0
 10
48.52730906365435
 20
339.6020051763516
 30
0.0
 10
46.60277261320417
 20
342.2006240917252
 30
0.0
 10
45.53281823730515
 20
343.723617891881
 30
0.0
 10
43.58919064248325
 20
347.0980668993311
 30
0.0
 10
42.67393808202134
 20
349.0130673627178
 30
0.0
 10
42.03478706105474
 20
352.1464801088202
 30
0.0
 10
41.95684469234111
 20
353.1940299760736
 30
0.0
 10
42.09232581749071
 20
355.2960703281586
 30
0.0
 10
42.30271624743323
 20
356.3083363970048
 30
0.0
 10
42.89826787048194
 20
358.2242194012597
 30
0.0
 10
43.28015953904978
 20
359.1250145785997
 30
0.0
 10
44.09612662738015
 20
360.7916274859048
 30
0.0
 10
44.52933214641092
 20
361.5574706894501
 30
0.0
 10
45.39108316204902
 20
362.9776816464079
 30
0.0
 10
45.82026384970013
 20
363.6309097533156
 30
0.0
 10
46.60549127546388
 20
364.781572058594
 30
0.0
 10
46.96620834924036
 20
365.2859766170898
 30
0.0
 10
47.58955836283634
 20
366.1404996336817
 30
0.0
 10
47.84987601200416
 20
366.4871008302763
 30
0.0
 10
48.20982743412865
 20
366.9630422832084
 30
0.0
 10
48.31465199221434
 20
367.0993915594883
 30
0.0
 10
48.33486244087301
 20
367.1257784691429
 30
0.0
 10
48.33583699800951
 20
367.1270569249635
 30
0.0
 10
48.33584442605743
 20
367.1270755604081
 30
0.0
  0
ARC
  5
64
330
5E
100
AcDbEntity
  8
$DDT_AUDIT_GENERATED_(60)
  6
Continuous
 62
     7
100
AcDbCircle
 10
-4472.629115593
 20
734.3262128065
 30
0.0
 40
4500.0
100
AcDbArc
 50
354.459791993
 51
356.2595220678
  0
ARC
  5
65
330
5E
100
AcDbEntity
  8
$DDT_AUDIT_GENERATED_(60)
  6
Continuous
 62
     7
100
AcDbCircle
 10
4533.329115593
 20
734.3262128065
 30
0.0
 40
4500.0
100
AcDbArc
 50
183.7404779322
 51
184.6806220909
  0
ARC
  5
66
330
5E
100
AcDbEntity
  8
$DDT_AUDIT_GENERATED_(60)
  6
Continuous
 62
     7
100
AcDbCircle
 10
4533.329115593
 20
734.3262128065
 30
0.0
 40
4500.0
100
AcDbArc
 50
185.0701250201
 51
185.540208007
  0
ARC
  5
67
330
5E
100
AcDbEntity
  8
$DDT_AUDIT_GENERATED_(60)
  6
Continuous
 62
     7
100
AcDbCircle
 10
-481.15
 20
473.3770419222
 30
0.0
 40
500.0
100
AcDbArc
 50
356.2595220678
 51
0.0
  0
ARC
  5
68
330
5E
100
AcDbEntity
  8
$DDT_AUDIT_GENERATED_(60)
  6
Continuous
 62
     7
100
AcDbCircle
 10
541.85
 20
473.3770419222
 30
0.0
 40
500.0
100
AcDbArc
 50
180.0
 51
183.7404779322
  0
LINE
  5
69
330
5E
100
AcDbEntity
  8
$DDT_AUDIT_GENERATED_(60)
  6
Continuous
 62
     7
100
AcDbLine
 10
18.85
 20
473.8770419222
 30
0.0
 11
18.85
 21
473.3770419222
 31
0.0
  0
LINE
  5
6A
330
5E
100
AcDbEntity
  8
$DDT_AUDIT_GENERATED_(60)
  6
Continuous
 62
     7
100
AcDbLine
 10
41.85
 20
473.3770419222
 30
0.0
 11
41.85
 21
473.8770419222
 31
0.0
  0
LINE
  5
6C
330
5E
100
AcDbEntity
  8
$DDT_AUDIT_GENERATED_(6B)
  6
Continuous
 62
     7
100
AcDbLine
 10
19.95
 20
474.3770419222
 30
0.0
 11
19.95
 21
473.8770419222
 31
0.0
  0
LINE
  5
6D
330
5E
100
AcDbEntity
  8
$DDT_AUDIT_GENERATED_(6B)
  6
Continuous
 62
     7
100
AcDbLine
 10
40.75
 20
473.8770419222
 30
0.0
 11
40.75
 21
474.3770419222
 31
0.0
  0
ELLIPSE
  5
6F
330
5E
100
AcDbEntity
  8
$DDT_AUDIT_GENERATED_(6E)
  6
Continuous
 62
     7
100
AcDbEllipse
 10
30.3499852016
 20
497.1805239308
 30
0.0
 11
11.50001479836696
 21
0.0
 31
0.0
210
0.0
220
0.0
230
1.0
 40
0.1721146018
 41
0.2122786867242597
 42
2.986591538335222
  0
LINE
  5
70
330
5E
100
AcDbEntity
  8
$DDT_AUDIT_GENERATED_(6E)
  6
Continuous
 62
     7
100
AcDbLine
 10
18.851183539
 20
474.3770419222
 30
0.0
 11
41.848816461
 21
474.3770419222
 31
0.0
  0
SPLINE
  5
71
330
5E
100
AcDbEntity
  8
$DDT_AUDIT_GENERATED_(6E)
  6
Continuous
 62
     7
100
AcDbSpline
210
0.0
220
0.0
230
1.0
 70
     8
 71
     3
 72
     9
 73
     5
 74
     0
 42
0.0000000000816009
 43
0.0000000001
 40
0.0
 40
0.0
 40
0.0
 40
0.0
 40
0.0301886739139739
 40
0.0539243821773974
 40
0.0539243821773974
 40
0.0539243821773974
 40
0.0539243821773974
 10
41.84881646099858
 20
474.3770419222045
 30
0.0
 10
41.84881666076948
 20
475.7346127124803
 30
0.0
 10
41.84881702835444
 20
477.7762087359062
 30
0.0
 10
41.84881875680021
 20
480.0061264506355
 30
0.0
 10
41.84881969932861
 20
480.9853527392196
 30
0.0
  0
SPLINE
  5
72
330
5E
100
AcDbEntity
  8
$DDT_AUDIT_GENERATED_(6E)
  6
Continuous
 62
     7
100
AcDbSpline
210
0.0
220
0.0
230
1.0
 70
     8
 71
     3
 72
     9
 73
     5
 74
     0
 42
0.0000000027749535
 43
0.0000000001
 40
0.934605388261031
 40
0.934605388261031
 40
0.934605388261031
 40
0.934605388261031
 40
0.9351142436299715
 40
0.9667531281921213
 40
0.9667531281921213
 40
0.9667531281921213
 40
0.9667531281921213
 10
41.84945148459042
 20
554.234045989148
 30
0.0
 10
41.84945165471036
 20
554.2352115539899
 30
0.0
 10
41.84946240385874
 20
554.3082969409339
 30
0.0
 10
41.84947325365756
 20
554.3466049959831
 30
0.0
 10
41.84948339299722
 20
554.3433143684364
 30
0.0
  0
SPLINE
  5
73
330
5E
100
AcDbEntity
  8
$DDT_AUDIT_GENERATED_(6E)
  6
Continuous
 62
     7
100
AcDbSpline
210
0.0
220
0.0
230
1.0
 70
     8
 71
     3
 72
    39
 73
    35
 74
     0
 42
0.0000000001754436
 43
0.0000000001
 40
0.0011292611166703
 40
0.0011292611166703
 40
0.0011292611166703
 40
0.0011292611166703
 40
0.0351808615513157
 40
0.0686743357922659
 40
0.1008392172883887
 40
0.1319681285768479
 40
0.162274517820434
 40
0.1990180688648993
 40
0.2343790589846784
 40
0.2682432293028136
 40
0.3005158331262689
 40
0.3353908186307161
 40
0.3681042896593508
 40
0.3986408033183543
 40
0.4269886779166777
 40
0.4531345222069921
 40
0.477054739386731
 40
0.4987380845669668
 40
0.520616673650302
 40
0.5446495695589196
 40
0.570805696871682
 40
0.5990502042791709
 40
0.629373752067019
 40
0.6617811084596298
 40
0.6962872295565691
 40
0.7248260867200653
 40
0.7546912019732385
 40
0.785908557559048
 40
0.8185114296320618
 40
0.8525412851346224
 40
0.8873894200230548
 40
0.9236240344412294
 40
0.9611852874162863
 40
1.0
 40
1.0
 40
1.0
 40
1.0
 10
41.8499999782461
 20
497.2952835134045
 30
0.0
 10
41.84999975911055
 20
498.4430305317712
 30
0.0
 10
41.84999928636304
 20
500.3813045239053
 30
0.0
 10
41.84999601035792
 20
503.4774589043214
 30
0.0
 10
41.84999135342306
 20
506.3644964582861
 30
0.0
 10
41.84998557490525
 20
509.1236625848693
 30
0.0
 10
41.84997862278558
 20
511.9574192562266
 30
0.0
 10
41.84997040639447
 20
514.8493161310573
 30
0.0
 10
41.84996077407146
 20
517.7649306473917
 30
0.0
 10
41.8499504710956
 20
520.4849607795699
 30
0.0
 10
41.84993913551327
 20
523.1206358795754
 30
0.0
 10
41.84992683044511
 20
525.6510474677445
 30
0.0
 10
41.84991367635093
 20
528.0575670976992
 30
0.0
 10
41.84990048129549
 20
530.2299221100109
 30
0.0
 10
41.84988745255556
 20
532.1788326298393
 30
0.0
 10
41.84987478297695
 20
533.9154407548411
 30
0.0
 10
41.84986267264562
 20
535.4524690251693
 30
0.0
 10
41.84985086227646
 20
536.8526406378702
 30
0.0
 10
41.84983864907755
 20
538.2108187740585
 30
0.0
 10
41.84982521769655
 20
539.6079690742207
 30
0.0
 10
41.84981013779735
 20
541.0663789628688
 30
0.0
 10
41.84979333843621
 20
542.566636105218
 30
0.0
 10
41.84977474044303
 20
544.0877405003638
 30
0.0
 10
41.84975426321712
 20
545.6072421177046
 30
0.0
 10
41.84973358264164
 20
546.9840338024761
 30
0.0
 10
41.84971297404878
 20
548.2156742764772
 30
0.0
 10
41.84969270483541
 20
549.3048835256074
 30
0.0
 10
41.84967113757867
 20
550.3334225303394
 30
0.0
 10
41.84964824916885
 20
551.2858619072915
 30
0.0
 10
41.84962419448319
 20
552.1398230104558
 30
0.0
 10
41.84959896048854
 20
552.8813971291318
 30
0.0
 10
41.84957274640993
 20
553.489913529117
 30
0.0
 10
41.84954457220152
 20
553.9715364561589
 30
0.0
 10
41.8495269148555
 20
554.1352867375815
 30
0.0
 10
41.84951625735594
 20
554.2293069781057
 30
0.0
  0
SPLINE
  5
74
330
5E
100
AcDbEntity
  8
$DDT_AUDIT_GENERATED_(6E)
  6
Continuous
 62
     7
100
AcDbSpline
210
0.0
220
0.0
230
1.0
 70
     8
 71
     3
 72
    39
 73
    35
 74
     0
 42
0.0000000001754386
 43
0.0000000001
 40
0.0
 40
0.0
 40
0.0
 40
0.0
 40
0.0384863522788082
 40
0.0753048770139607
 40
0.1103863114549054
 40
0.1436784201691471
 40
0.1751570531369409
 40
0.2048535947497058
 40
0.2328042777792905
 40
0.259036703324284
 40
0.2835710760378717
 40
0.3064213459452881
 40
0.3275966711906044
 40
0.3491298674236389
 40
0.3729494774566058
 40
0.3990793164305498
 40
0.4238633950835809
 40
0.4504652716437273
 40
0.4788868494919486
 40
0.5091106886800678
 40
0.5411086192260404
 40
0.5748409375051565
 40
0.6102654382304274
 40
0.6473658786048854
 40
0.6861289402176446
 40
0.726535182987811
 40
0.7685211820549941
 40
0.811927056918433
 40
0.8415621862989634
 40
0.8716867758233411
 40
0.902349246308194
 40
0.9337668115471907
 40
0.9662112251936618
 40
0.9989067824713844
 40
0.9989067824713844
 40
0.9989067824713844
 40
0.9989067824713844
 10
18.85046624290502
 20
554.2293124249877
 30
0.0
 10
18.85045541099682
 20
554.136237624351
 30
0.0
 10
18.85043756842603
 20
553.9751676532491
 30
0.0
 10
18.85040925542462
 20
553.506325551768
 30
0.0
 10
18.85038322404302
 20
552.9240203385065
 30
0.0
 10
18.85035863163023
 20
552.2315185799282
 30
0.0
 10
18.85033563968524
 20
551.4555758836112
 30
0.0
 10
18.85031419828336
 20
550.6154031614583
 30
0.0
 10
18.85029429395674
 20
549.7300201138512
 30
0.0
 10
18.85027588884288
 20
548.8165722793576
 30
0.0
 10
18.85025894488864
 20
547.8910167608434
 30
0.0
 10
18.85024342015575
 20
546.9680365875648
 30
0.0
 10
18.85022881945549
 20
546.0321670219574
 30
0.0
 10
18.85021425896094
 20
545.030896261755
 30
0.0
 10
18.85019892367346
 20
543.8973517472675
 30
0.0
 10
18.85018326849285
 20
542.6473468068756
 30
0.0
 10
18.85016745350867
 20
541.2841273858353
 30
0.0
 10
18.85015163091359
 20
539.8132933712293
 30
0.0
 10
18.85013528758465
 20
538.1677059307627
 30
0.0
 10
18.85011858392378
 20
536.3361175614966
 30
0.0
 10
18.85010171164253
 20
534.307980969144
 30
0.0
 10
18.85008489436941
 20
532.0732414898168
 30
0.0
 10
18.85006838558287
 20
529.6217056402875
 30
0.0
 10
18.8500523894978
 20
526.9467632567719
 30
0.0
 10
18.85003711575833
 20
524.0423939292932
 30
0.0
 10
18.85002279841839
 20
520.9053188914431
 30
0.0
 10
18.85000966704955
 20
517.5368603462404
 30
0.0
 10
18.84999919571606
 20
514.3554195517257
 30
0.0
 10
18.84999093713186
 20
511.4277835829112
 30
0.0
 10
18.84998446628407
 20
508.8115869690483
 30
0.0
 10
18.84997875197967
 20
506.0879063151651
 30
0.0
 10
18.84997421955678
 20
503.2642719701665
 30
0.0
 10
18.84997108060868
 20
500.2633914980152
 30
0.0
 10
18.84997063078799
 20
498.393701947132
 30
0.0
 10
18.84997042396382
 20
497.2916280237082
 30
0.0
  0
SPLINE
  5
75
330
5E
100
AcDbEntity
  8
$DDT_AUDIT_GENERATED_(6E)
  6
Continuous
 62
     7
100
AcDbSpline
210
0.0
220
0.0
230
1.0
 70
     8
 71
     3
 72
     9
 73
     5
 74
     0
 42
0.0000000027691066
 43
0.0000000001
 40
0.0332477421475994
 40
0.0332477421475994
 40
0.0332477421475994
 40
0.0332477421475994
 40
0.0648856722155648
 40
0.0654704262339012
 40
0.0654704262339012
 40
0.0654704262339012
 40
0.0654704262339012
 10
18.85049993499074
 20
554.3432615462498
 30
0.0
 10
18.85051032724027
 20
554.3465516795261
 30
0.0
 10
18.85052147392765
 20
554.3081553791072
 30
0.0
 10
18.85053251699532
 20
554.2348192893324
 30
0.0
 10
18.85053271736381
 20
554.2334769196469
 30
0.0
  0
SPLINE
  5
76
330
5E
100
AcDbEntity
  8
$DDT_AUDIT_GENERATED_(6E)
  6
Continuous
 62
     7
100
AcDbSpline
210
0.0
220
0.0
230
1.0
 70
     8
 71
     3
 72
     9
 73
     5
 74
     0
 42
0.0000000000816367
 43
0.0000000001
 40
0.9459861189617603
 40
0.9459861189617603
 40
0.9459861189617603
 40
0.9459861189617603
 40
0.9684164086937987
 40
1.0
 40
1.0
 40
1.0
 40
1.0
 10
18.85118021435194
 20
480.9934104968079
 30
0.0
 10
18.8511811295099
 20
480.0679951244203
 30
0.0
 10
18.85118291995492
 20
477.8422719594246
 30
0.0
 10
18.85118331438735
 20
475.7973429745805
 30
0.0
 10
18.8511835390014
 20
474.3770419222045
 30
0.0
  0
ARC
  5
77
330
5E
100
AcDbEntity
  8
$DDT_AUDIT_GENERATED_(6E)
  6
Continuous
 62
     7
100
AcDbCircle
 10
30.3499911457
 20
554.3298491558
 30
0.0
 40
11.49997471779465
100
AcDbArc
 50
359.4934244514
 51
180.5066895486
  0
LINE
  5
79
330
5E
100
AcDbEntity
  8
$DDT_AUDIT_GENERATED_(78)
  6
Continuous
 62
     7
100
AcDbLine
 10
54.6399999814
 20
366.8770442319
 30
0.0
 11
54.6399999814
 21
336.8770396125
 31
0.0
  0
LINE
  5
7A
330
5E
100
AcDbEntity
  8
$DDT_AUDIT_GENERATED_(78)
  6
Continuous
 62
     7
100
AcDbLine
 10
54.6399999814
 20
338.7270419222
 30
0.0
 11
55.16
 21
338.7270419222
 31
0.0
  0
LINE
  5
7B
330
5E
100
AcDbEntity
  8
$DDT_AUDIT_GENERATED_(78)
  6
Continuous
 62
     7
100
AcDbLine
 10
55.16
 20
365.0270419222
 30
0.0
 11
54.6399999814
 21
365.0270419222
 31
0.0
  0
LINE
  5
7C
330
5E
100
AcDbEntity
  8
$DDT_AUDIT_GENERATED_(78)
  6
Continuous
 62
     7
100
AcDbLine
 10
50.7305861773
 20
336.8770396125
 30
0.0
 11
54.6399999814
 21
336.8770396125
 31
0.0
  0
LINE
  5
7D
330
5E
100
AcDbEntity
  8
$DDT_AUDIT_GENERATED_(78)
  6
Continuous
 62
     7
100
AcDbLine
 10
54.6399999814
 20
366.8770442319
 30
0.0
 11
48.1450975475
 21
366.8770442319
 31
0.0
  0
ELLIPSE
  5
7F
330
5E
100
AcDbEntity
  8
$DDT_AUDIT_GENERATED_(7E)
  6
Continuous
 62
     7
100
AcDbEllipse
 10
30.35
 20
480.4342160706
 30
0.0
 11
10.075
 21
0.0
 31
0.0
210
0.0
220
0.0
230
1.0
 40
0.1721146018
 41
0.0
 42
6.283185307179586
  0
ELLIPSE
  5
80
330
5E
100
AcDbEntity
  8
$DDT_AUDIT_GENERATED_(7E)
  6
Continuous
 62
     7
100
AcDbEllipse
 10
30.35
 20
481.4192930036
 30
0.0
 11
11.575
 21
0.0
 31
0.0
210
0.0
220
0.0
230
1.0
 40
0.1721146018
 41
0.0
 42
3.140970986280377
  0
ELLIPSE
  5
81
330
5E
100
AcDbEntity
  8
$DDT_AUDIT_GENERATED_(7E)
  6
Continuous
 62
     7
100
AcDbEllipse
 10
30.35
 20
497.1805239308
 30
0.0
 11
11.425
 21
0.0
 31
0.0
210
0.0
220
0.0
230
1.0
 40
0.1721146018
 41
0.3579933847057759
 42
2.781914983859674
  0
LINE
  5
82
330
5E
100
AcDbEntity
  8
$DDT_AUDIT_GENERATED_(7E)
  6
Continuous
 62
     7
100
AcDbLine
 10
41.925
 20
481.4192930036
 30
0.0
 11
41.925
 21
497.0327623909
 31
0.0
  0
LINE
  5
83
330
5E
100
AcDbEntity
  8
$DDT_AUDIT_GENERATED_(7E)
  6
Continuous
 62
     7
100
AcDbLine
 10
18.775
 20
497.0327623909
 30
0.0
 11
18.775
 21
481.4192930036
 31
0.0
  0
SPLINE
  5
84
330
5E
100
AcDbEntity
  8
$DDT_AUDIT_GENERATED_(7E)
  6
Continuous
 62
     7
100
AcDbSpline
210
0.0
220
0.0
230
1.0
 70
     8
 71
     3
 72
    52
 73
    48
 74
     0
 42
0.0000000003976308
 43
0.0000000001
 40
0.0
 40
0.0
 40
0.0
 40
0.0
 40
0.0037372747656917
 40
0.0180534570781364
 40
0.0321844309799809
 40
0.0467301786381827
 40
0.0624545143613065
 40
0.0803750756175757
 40
0.1018640558235558
 40
0.1280857996602922
 40
0.1570104683957589
 40
0.1846174226112962
 40
0.2110651824873333
 40
0.2368136970711484
 40
0.262132797755154
 40
0.2871740990499733
 40
0.3120276760126025
 40
0.3367501647295162
 40
0.3613789747107669
 40
0.3859399164992964
 40
0.4104515365787659
 40
0.4349277116892961
 40
0.4593792790967213
 40
0.4838151144209974
 40
0.5082428880162797
 40
0.532669638206678
 40
0.557100344807477
 40
0.581541691262896
 40
0.6060013679193453
 40
0.6304882471393838
 40
0.65501310316481
 40
0.6795896191020575
 40
0.7042358793995184
 40
0.7289766894291818
 40
0.7538473402480708
 40
0.7788999896093839
 40
0.804214975803393
 40
0.8299217872572829
 40
0.8562390181768542
 40
0.8835449386905306
 40
0.9124013592600415
 40
0.9329892196319038
 40
0.9501644778887508
 40
0.9654460913843189
 40
0.9796685701246339
 40
0.9933973575990549
 40
1.0
 40
1.0
 40
1.0
 40
1.0
 10
18.78163076725165
 20
481.4234511180408
 30
0.0
 10
18.77927665768908
 20
481.3955197090261
 30
0.0
 10
18.76994913840591
 20
481.2802906052649
 30
0.0
 10
18.81806455521602
 20
481.0560467008925
 30
0.0
 10
18.91823190566699
 20
480.7987040008374
 30
0.0
 10
19.06445250379044
 20
480.5711616846378
 30
0.0
 10
19.245496632279
 20
480.3703228463861
 30
0.0
 10
19.47018694980206
 20
480.1839235733671
 30
0.0
 10
19.75712789179891
 20
480.0018008526792
 30
0.0
 10
20.12546088941224
 20
479.8217578509881
 30
0.0
 10
20.5747016524335
 20
479.6505974305898
 30
0.0
 10
21.08470281675284
 20
479.4947765690143
 30
0.0
 10
21.63192668297095
 20
479.3567210805436
 30
0.0
 10
22.21630945862623
 20
479.2328176154935
 30
0.0
 10
22.83911544477911
 20
479.1208328030953
 30
0.0
 10
23.49976545606183
 20
479.0197839623668
 30
0.0
 10
24.19634086015284
 20
478.9293225058603
 30
0.0
 10
24.92604795901504
 20
478.8494092913951
 30
0.0
 10
25.68548747008995
 20
478.7801539531102
 30
0.0
 10
26.47081880332932
 20
478.7217297095617
 30
0.0
 10
27.27786989695079
 20
478.6743253152653
 30
0.0
 10
28.10221784875819
 20
478.6381165051127
 30
0.0
 10
28.93925316351642
 20
478.6132484374111
 30
0.0
 10
29.78423452683343
 20
478.5998247718974
 30
0.0
 10
30.6323380195793
 20
478.5979010677538
 30
0.0
 10
31.47868116376675
 20
478.6074810143325
 30
0.0
 10
32.31838428897416
 20
478.6285141355507
 30
0.0
 10
33.14661930493104
 20
478.6608967025659
 30
0.0
 10
33.95867465269693
 20
478.7044766384022
 30
0.0
 10
34.74998351823533
 20
478.7590597718232
 30
0.0
 10
35.51616917396959
 20
478.8244197046989
 30
0.0
 10
36.25310059982691
 20
478.9003134932109
 30
0.0
 10
36.95695814777574
 20
478.9865064086951
 30
0.0
 10
37.62431623394875
 20
479.0828122104145
 30
0.0
 10
38.25225564845528
 20
479.1891610471507
 30
0.0
 10
38.83852811612358
 20
479.3057215195943
 30
0.0
 10
39.38181888126184
 20
479.4331286488119
 30
0.0
 10
39.88218473022422
 20
479.5729632078265
 30
0.0
 10
40.34181713515157
 20
479.728744289213
 30
0.0
 10
40.76579389781769
 20
479.9083442855276
 30
0.0
 10
41.11549072150519
 20
480.1026125941626
 30
0.0
 10
41.39301181520718
 20
480.3126437853537
 30
0.0
 10
41.59747380706313
 20
480.522016458083
 30
0.0
 10
41.75615368494067
 20
480.7519645975207
 30
0.0
 10
41.86819817382271
 20
481.0044183625432
 30
0.0
 10
41.91916793209536
 20
481.2398395123868
 30
0.0
 10
41.92366607057966
 20
481.36956337327
 30
0.0
 10
41.92499999999999
 20
481.4192930035618
 30
0.0
  0
SPLINE
  5
85
330
5E
100
AcDbEntity
  8
$DDT_AUDIT_GENERATED_(7E)
  6
Continuous
 62
     7
100
AcDbSpline
210
0.0
220
0.0
230
1.0
 70
     8
 71
     3
 72
    13
 73
     9
 74
     0
 42
0.00000000790017
 43
0.0000000001
 40
0.0
 40
0.0
 40
0.0
 40
0.0
 40
0.1459683174345
 40
0.3557083371022032
 40
0.5678219284896153
 40
0.7494738243459187
 40
0.916047822263787
 40
1.0
 40
1.0
 40
1.0
 40
1.0
 10
19.59842406130805
 20
497.8598350335224
 30
0.0
 10
19.51559097672448
 20
497.8219655872527
 30
0.0
 10
19.34621418036429
 20
497.7433793387802
 30
0.0
 10
19.1189202044719
 20
497.5974113194581
 30
0.0
 10
18.93669463131478
 20
497.4353413271082
 30
0.0
 10
18.8239736928403
 20
497.2684074103196
 30
0.0
 10
18.77113359360607
 20
497.1184798791579
 30
0.0
 10
18.78037292686644
 20
497.0376442631116
 30
0.0
 10
18.78435124741825
 20
497.0056484572628
 30
0.0
  0
SPLINE
  5
86
330
5E
100
AcDbEntity
  8
$DDT_AUDIT_GENERATED_(7E)
  6
Continuous
 62
     7
100
AcDbSpline
210
0.0
220
0.0
230
1.0
 70
     8
 71
     3
 72
    13
 73
     9
 74
     0
 42
0.000000008130914
 43
0.0000000001
 40
0.0
 40
0.0
 40
0.0
 40
0.0
 40
0.1121325016190419
 40
0.2901757498698174
 40
0.4767525578211672
 40
0.6825528847078443
 40
0.9000908738092945
 40
1.0
 40
1.0
 40
1.0
 40
1.0
 10
41.92499999999999
 20
497.0327623908656
 30
0.0
 10
41.922431609275
 20
497.0743845712354
 30
0.0
 10
41.91547398093914
 20
497.1652407152044
 30
0.0
 10
41.84878717694769
 20
497.3196926900384
 30
0.0
 10
41.72009346116887
 20
497.4788964353913
 30
0.0
 10
41.5280158775326
 20
497.6343007730696
 30
0.0
 10
41.31638664146088
 20
497.7639212869885
 30
0.0
 10
41.16385350576972
 20
497.8315778052058
 30
0.0
 10
41.10709203335335
 20
497.8565121066147
 30
0.0
  0
ELLIPSE
  5
88
330
5E
100
AcDbEntity
  8
4221035_0__HUELS
  6
Continuous
 62
     7
100
AcDbEllipse
 10
30.35
 20
480.5327237639
 30
0.0
 11
8.500000000000002
 21
0.0
 31
0.0
210
0.0
220
0.0
230
1.0
 40
0.1721146018
 41
0.0
 42
6.283185307179586
  0
ELLIPSE
  5
89
330
5E
100
AcDbEntity
  8
4221035_0__HUELS
  6
Continuous
 62
     7
100
AcDbEllipse
 10
30.35
 20
480.5327237639
 30
0.0
 11
-9.399999999999991
 21
0.0
 31
0.0
210
0.0
220
0.0
230
1.0
 40
0.1721146018
 41
0.0
 42
6.283185307179586
  0
LINE
  5
8A
330
5E
100
AcDbEntity
  8
4221035_0__HUELS
  6
Continuous
 62
     7
100
AcDbLine
 10
39.75
 20
480.5327237639
 30
0.0
 11
39.75
 21
481.0582501907
 31
0.0
  0
LINE
  5
8B
330
5E
100
AcDbEntity
  8
4221035_0__HUELS
  6
Continuous
 62
     7
100
AcDbLine
 10
20.95
 20
481.0582501907
 30
0.0
 11
20.95
 21
480.5327237639
 31
0.0
  0
ELLIPSE
  5
8D
330
5E
100
AcDbEntity
  8
4221039_0__SIEB_
  6
Continuous
 62
     7
100
AcDbEllipse
 10
38.0285714286
 20
480.3364908386
 30
0.0
 11
-0.07655437942508027
 21
-0.07655437942519215
 31
0.0
210
0.0
220
0.0
230
1.0
 40
0.8404271489
 41
0.8718861156934359
 42
2.442682442487687
  0
ELLIPSE
  5
8E
330
5E
100
AcDbEntity
  8
4221039_0__SIEB_
  6
Continuous
 62
     7
100
AcDbEllipse
 10
38.0285714286
 20
480.3364908386
 30
0.0
 11
0.07655437942509502
 21
-0.07655437942513665
 31
0.0
210
0.0
220
0.0
230
1.0
 40
0.8404271489
 41
3.840502864691342
 42
5.411299191486776
  0
ELLIPSE
  5
8F
330
5E
100
AcDbEntity
  8
4221039_0__SIEB_
  6
Continuous
 62
     7
100
AcDbEllipse
 10
38.0285714286
 20
480.6008096914
 30
0.0
 11
-0.07655437942505253
 21
-0.07655437942521991
 31
0.0
210
0.0
220
0.0
230
1.0
 40
0.8404271489
 41
0.8718861156929493
 42
2.442682442487238
  0
ELLIPSE
  5
90
330
5E
100
AcDbEntity
  8
4221039_0__SIEB_
  6
Continuous
 62
     7
100
AcDbEllipse
 10
38.0285714286
 20
480.6008096914
 30
0.0
 11
0.07655437942510369
 21
-0.07655437942513665
 31
0.0
210
0.0
220
0.0
230
1.0
 40
0.8404271489
 41
3.840502864691867
 42
5.411299191485711
  0
ELLIPSE
  5
91
330
5E
100
AcDbEntity
  8
4221039_0__SIEB_
  6
Continuous
 62
     7
100
AcDbEllipse
 10
38.0285714286
 20
480.8651285442
 30
0.0
 11
-0.07655437942508374
 21
-0.0765543794251644
 31
0.0
210
0.0
220
0.0
230
1.0
 40
0.8404271489
 41
0.8718861156929285
 42
2.442682442488479
  0
ELLIPSE
  5
92
330
5E
100
AcDbEntity
  8
4221039_0__SIEB_
  6
Continuous
 62
     7
100
AcDbEllipse
 10
38.0285714286
 20
480.8651285442
 30
0.0
 11
0.07655437942507767
 21
-0.07655437942519216
 31
0.0
210
0.0
220
0.0
230
1.0
 40
0.8404271489
 41
3.840502864691389
 42
5.411299191486179
  0
ELLIPSE
  5
93
330
5E
100
AcDbEntity
  8
4221039_0__SIEB_
  6
Continuous
 62
     7
100
AcDbEllipse
 10
38.0285714286
 20
481.129447397
 30
0.0
 11
-0.07655437942508374
 21
-0.0765543794251644
 31
0.0
210
0.0
220
0.0
230
1.0
 40
0.8404271489
 41
0.8718861156937773
 42
2.442682442487902
  0
ELLIPSE
  5
94
330
5E
100
AcDbEntity
  8
4221039_0__SIEB_
  6
Continuous
 62
     7
100
AcDbEllipse
 10
38.0285714286
 20
481.129447397
 30
0.0
 11
0.07655437942512971
 21
-0.07655437942508114
 31
0.0
210
0.0
220
0.0
230
1.0
 40
0.8404271489
 41
3.840502864691262
 42
5.41129919148591
  0
LINE
  5
95
330
5E
100
AcDbEntity
  8
4221039_0__SIEB_
  6
Continuous
 62
     7
100
AcDbLine
 10
37.9285714286
 20
480.2364908386
 30
0.0
 11
37.9285714286
 21
480.1657675884
 31
0.0
  0
LINE
  5
96
330
5E
100
AcDbEntity
  8
4221039_0__SIEB_
  6
Continuous
 62
     7
100
AcDbLine
 10
38.1285714286
 20
480.3537022987
 30
0.0
 11
38.1285714286
 21
480.5008096914
 31
0.0
  0
LINE
  5
97
330
5E
100
AcDbEntity
  8
4221039_0__SIEB_
  6
Continuous
 62
     7
100
AcDbLine
 10
37.9285714286
 20
480.5008096914
 30
0.0
 11
37.9285714286
 21
480.3537022987
 31
0.0
  0
LINE
  5
98
330
5E
100
AcDbEntity
  8
4221039_0__SIEB_
  6
Continuous
 62
     7
100
AcDbLine
 10
38.1285714286
 20
480.6180211516
 30
0.0
 11
38.1285714286
 21
480.7651285442
 31
0.0
  0
LINE
  5
99
330
5E
100
AcDbEntity
  8
4221039_0__SIEB_
  6
Continuous
 62
     7
100
AcDbLine
 10
37.9285714286
 20
480.7651285442
 30
0.0
 11
37.9285714286
 21
480.6180211516
 31
0.0
  0
LINE
  5
9A
330
5E
100
AcDbEntity
  8
4221039_0__SIEB_
  6
Continuous
 62
     7
100
AcDbLine
 10
38.1285714286
 20
480.8823400044
 30
0.0
 11
38.1285714286
 21
481.029447397
 31
0.0
  0
LINE
  5
9B
330
5E
100
AcDbEntity
  8
4221039_0__SIEB_
  6
Continuous
 62
     7
100
AcDbLine
 10
37.9285714286
 20
481.029447397
 30
0.0
 11
37.9285714286
 21
480.8823400044
 31
0.0
  0
LINE
  5
9C
330
5E
100
AcDbEntity
  8
4221039_0__SIEB_
  6
Continuous
 62
     7
100
AcDbLine
 10
37.9285714286
 20
481.1952030193
 30
0.0
 11
37.9285714286
 21
481.1466588572
 31
0.0
  0
LINE
  5
9D
330
5E
100
AcDbEntity
  8
4221039_0__SIEB_
  6
Continuous
 62
     7
100
AcDbLine
 10
38.5395794248
 20
480.4364908386
 30
0.0
 11
38.1285714286
 21
480.4364908386
 31
0.0
  0
LINE
  5
9E
330
5E
100
AcDbEntity
  8
4221039_0__SIEB_
  6
Continuous
 62
     7
100
AcDbLine
 10
38.0457828888
 20
480.5008096914
 30
0.0
 11
39.2499108725
 21
480.5008096914
 31
0.0
  0
LINE
  5
9F
330
5E
100
AcDbEntity
  8
4221039_0__SIEB_
  6
Continuous
 62
     7
100
AcDbLine
 10
38.7937116231
 20
480.7008096914
 30
0.0
 11
38.1285714286
 21
480.7008096914
 31
0.0
  0
LINE
  5
A0
330
5E
100
AcDbEntity
  8
4221039_0__SIEB_
  6
Continuous
 62
     7
100
AcDbLine
 10
38.0457828888
 20
480.7651285442
 30
0.0
 11
38.7420625886
 21
480.7651285442
 31
0.0
  0
LINE
  5
A1
330
5E
100
AcDbEntity
  8
4221039_0__SIEB_
  6
Continuous
 62
     7
100
AcDbLine
 10
38.4702408676
 20
480.9651285442
 30
0.0
 11
38.1285714286
 21
480.9651285442
 31
0.0
  0
LINE
  5
A2
330
5E
100
AcDbEntity
  8
4221039_0__SIEB_
  6
Continuous
 62
     7
100
AcDbLine
 10
38.0457828888
 20
481.029447397
 30
0.0
 11
38.3450593543
 21
481.029447397
 31
0.0
  0
SPLINE
  5
A4
330
5E
100
AcDbEntity
  8
$DDT_AUDIT_GENERATED_(A3)
  6
Continuous
 62
     7
100
AcDbSpline
210
0.0
220
0.0
230
1.0
 70
     8
 71
     3
 72
    11
 73
     7
 74
     0
 42
0.0000000007687668
 43
0.0000000001
 40
0.0
 40
0.0
 40
0.0
 40
0.0
 40
0.2696008439457388
 40
0.5392016878914796
 40
0.8088025318372184
 40
1.0
 40
1.0
 40
1.0
 40
1.0
 10
67.50380048279139
 20
409.1530310707216
 30
0.0
 10
66.540228170273
 20
408.5643898685286
 30
0.0
 10
64.92758755998263
 20
406.7653162182391
 30
0.0
 10
64.39057172705044
 20
403.266837042236
 30
0.0
 10
65.07230529365701
 20
400.196670073334
 30
0.0
 10
65.96547041159882
 20
398.4468207540386
 30
0.0
 10
66.37144057286328
 20
397.7417005899565
 30
0.0
  0
SPLINE
  5
A5
330
5E
100
AcDbEntity
  8
$DDT_AUDIT_GENERATED_(A3)
  6
Continuous
 62
     7
100
AcDbSpline
210
0.0
220
0.0
230
1.0
 70
     8
 71
     3
 72
    11
 73
     7
 74
     0
 42
0.0000000007693043
 43
0.0000000001
 40
0.0
 40
0.0
 40
0.0
 40
0.0
 40
0.1911453881064249
 40
0.4607635920709492
 40
0.7303817960354756
 40
1.0
 40
1.0
 40
1.0
 40
1.0
 10
78.38685411474974
 20
405.5356562330945
 30
0.0
 10
77.90430696601658
 20
406.1887987866712
 30
0.0
 10
76.66086543635915
 20
407.7045031365991
 30
0.0
 10
74.2246823495414
 20
409.7267176799366
 30
0.0
 10
70.7504023339404
 20
410.4330411029036
 30
0.0
 10
68.4718659667267
 20
409.7444171274427
 30
0.0
 10
67.50380048279139
 20
409.1530310707216
 30
0.0
  0
ARC
  5
A6
330
5E
100
AcDbEntity
  8
$DDT_AUDIT_GENERATED_(A3)
  6
Continuous
 62
     7
100
AcDbCircle
 10
95.2769386859
 20
414.4772771723
 30
0.0
 40
33.40070874560831
100
AcDbArc
 50
210.069792019
 51
212.1573995456
  0
ARC
  5
A7
330
5E
100
AcDbEntity
  8
$DDT_AUDIT_GENERATED_(A3)
  6
Continuous
 62
     7
100
AcDbCircle
 10
55.087958259
 20
388.3833244392
 30
0.0
 40
28.93166144666803
100
AcDbArc
 50
33.8315803707
 51
36.359997508
  0
SPLINE
  5
A8
330
5E
100
AcDbEntity
  8
$DDT_AUDIT_GENERATED_(A3)
  6
Continuous
 62
     7
100
AcDbSpline
210
0.0
220
0.0
230
1.0
 70
     8
 71
     3
 72
    11
 73
     7
 74
     0
 42
0.0000000002771475
 43
0.0000000001
 40
0.0
 40
0.0
 40
0.0
 40
0.0
 40
0.301400900002221
 40
0.6104866841020019
 40
0.9195724682017811
 40
1.0
 40
1.0
 40
1.0
 40
1.0
 10
79.1208449190783
 20
404.4911297784997
 30
0.0
 10
81.13992486174091
 20
401.4907866410612
 30
0.0
 10
84.32835599367449
 20
394.8536535791819
 30
0.0
 10
88.73058791359409
 20
384.6949614561391
 30
0.0
 10
91.8092362366025
 20
376.8981214925853
 30
0.0
 10
93.2889270881982
 20
372.457145202369
 30
0.0
 10
93.58342017882879
 20
371.5360993849981
 30
0.0
  0
SPLINE
  5
A9
330
5E
100
AcDbEntity
  8
$DDT_AUDIT_GENERATED_(A3)
  6
Continuous
 62
     7
100
AcDbSpline
210
0.0
220
0.0
230
1.0
 70
     8
 71
     3
 72
    10
 73
     6
 74
     0
 42
0.0000000004482528
 43
0.0000000001
 40
0.0
 40
0.0
 40
0.0
 40
0.0
 40
0.2268755238471588
 40
0.6183038565878396
 40
1.0
 40
1.0
 40
1.0
 40
1.0
 10
79.35736651290644
 20
378.1351550014095
 30
0.0
 10
78.4753731300151
 20
379.5729051617014
 30
0.0
 10
76.00149530746266
 20
383.4539972730043
 30
0.0
 10
71.87225388021169
 20
389.6348838466778
 30
0.0
 10
68.5027833883544
 20
394.2944497942398
 30
0.0
 10
67.0002615472165
 20
396.699851185928
 30
0.0
  0
SPLINE
  5
AA
330
5E
100
AcDbEntity
  8
$DDT_AUDIT_GENERATED_(A3)
  6
Continuous
 62
     7
100
AcDbSpline
210
0.0
220
0.0
230
1.0
 70
     8
 71
     5
 72
    18
 73
    12
 74
     0
 42
0.0000000004038805
 43
0.0000000001
 40
0.0
 40
0.0
 40
0.0
 40
0.0
 40
0.0
 40
0.0
 40
0.125
 40
0.25
 40
0.375
 40
0.5
 40
0.625
 40
0.75
 40
1.0
 40
1.0
 40
1.0
 40
1.0
 40
1.0
 40
1.0
 10
93.58342017882879
 20
371.5360993849981
 30
0.0
 10
93.77468480772188
 20
370.9379071283451
 30
0.0
 10
94.1493460116678
 20
369.7390069161911
 30
0.0
 10
94.6888554303201
 20
367.9372629014566
 30
0.0
 10
95.3639990872281
 20
365.537054130309
 30
0.0
 10
96.11740263601598
 20
362.5371086597156
 30
0.0
 10
96.7445233546127
 20
359.5218705057495
 30
0.0
 10
97.2797722048524
 20
355.8673197042608
 30
0.0
 10
97.40699196657509
 20
352.7826195131603
 30
0.0
 10
97.20520715892158
 20
350.3171156666663
 30
0.0
 10
96.82799860445549
 20
348.5077419574224
 30
0.0
 10
96.45717644192945
 20
347.3393725729049
 30
0.0
  0
SPLINE
  5
AB
330
5E
100
AcDbEntity
  8
$DDT_AUDIT_GENERATED_(A3)
  6
Continuous
 62
     7
100
AcDbSpline
210
0.0
220
0.0
230
1.0
 70
     8
 71
     5
 72
    18
 73
    12
 74
     0
 42
0.0000000005963639
 43
0.0000000001
 40
0.0
 40
0.0
 40
0.0
 40
0.0
 40
0.0
 40
0.0
 40
0.25
 40
0.375
 40
0.5
 40
0.625
 40
0.75
 40
0.875
 40
1.0
 40
1.0
 40
1.0
 40
1.0
 40
1.0
 40
1.0
 10
76.88011008112404
 20
366.8770300697529
 30
0.0
 10
77.3265435586286
 20
366.8770390824885
 30
0.0
 10
77.9961933998422
 20
366.8770398009939
 30
0.0
 10
79.05661716827609
 20
366.8796731923534
 30
0.0
 10
80.623709938267
 20
367.0558137195975
 30
0.0
 10
82.2064324167556
 20
367.9769991396579
 30
0.0
 10
82.93270382020859
 20
369.4190068512635
 30
0.0
 10
82.7389420932842
 20
371.6503765600374
 30
0.0
 10
81.7440983452475
 20
374.040459684438
 30
0.0
 10
80.61496912375239
 20
376.0638569040812
 30
0.0
 10
79.77972632513338
 20
377.4466601674239
 30
0.0
 10
79.35736651290644
 20
378.1351550014095
 30
0.0
  0
ARC
  5
AC
330
5E
100
AcDbEntity
  8
$DDT_AUDIT_GENERATED_(A3)
  6
Continuous
 62
     7
100
AcDbCircle
 10
4659.1167846972
 20
-6669.4240841098
 30
0.0
 40
8428.412782037152
100
AcDbArc
 50
122.9217212303
 51
122.9217967028
  0
ARC
  5
AD
330
5E
100
AcDbEntity
  8
$DDT_AUDIT_GENERATED_(A3)
  6
Continuous
 62
     7
100
AcDbCircle
 10
577.0470682591
 20
-383.4363601424
 30
0.0
 40
932.0730943776438
100
AcDbArc
 50
122.2906026899
 51
122.2940471777
  0
LINE
  5
AE
330
5E
100
AcDbEntity
  8
$DDT_AUDIT_GENERATED_(A3)
  6
Continuous
 62
     7
100
AcDbLine
 10
55.16
 20
336.8770845247
 30
0.0
 11
55.16
 21
366.8770469189
 31
0.0
  0
LINE
  5
AF
330
5E
100
AcDbEntity
  8
$DDT_AUDIT_GENERATED_(A3)
  6
Continuous
 62
     7
100
AcDbLine
 10
80.6849477213
 20
336.8770805224
 30
0.0
 11
55.16
 21
336.877050825
 31
0.0
  0
SPLINE
  5
B0
330
5E
100
AcDbEntity
  8
$DDT_AUDIT_GENERATED_(A3)
  6
Continuous
 62
     7
100
AcDbSpline
210
0.0
220
0.0
230
1.0
 70
    12
 71
     5
 72
    12
 73
     6
 74
     0
 42
0.0000000018150166
 43
0.0000000001
 40
0.0
 40
0.0
 40
0.0
 40
0.0
 40
0.0
 40
0.0
 40
1.0
 40
1.0
 40
1.0
 40
1.0
 40
1.0
 40
1.0
 10
86.13682118087473
 20
337.4138311890531
 30
0.0
 41
1.0
 10
85.0786839398921
 20
337.1228845748132
 30
0.0
 41
1.0
 10
83.9939396051164
 20
336.9287042906873
 30
0.0
 41
1.0
 10
82.88686260385369
 20
336.8770520198125
 30
0.0
 41
1.0
 10
81.78590528689759
 20
336.8770534462224
 30
0.0
 41
1.0
 10
80.68494772130259
 20
336.8770676610204
 30
0.0
 41
1.0
  0
LINE
  5
B1
330
5E
100
AcDbEntity
  8
$DDT_AUDIT_GENERATED_(A3)
  6
Continuous
 62
     7
100
AcDbLine
 10
76.8801100811
 20
366.8770216483
 30
0.0
 11
55.1600000001
 21
366.8770469189
 31
0.0
  0
SPLINE
  5
B2
330
5E
100
AcDbEntity
  8
$DDT_AUDIT_GENERATED_(A3)
  6
Continuous
 62
     7
100
AcDbSpline
210
0.0
220
0.0
230
1.0
 70
     8
 71
     3
 72
     9
 73
     5
 74
     0
 42
0.0000000008512643
 43
0.0000000001
 40
0.9605972821856514
 40
0.9605972821856514
 40
0.9605972821856514
 40
0.9605972821856514
 40
0.9684031220554591
 40
1.0
 40
1.0
 40
1.0
 40
1.0
 10
68.63351673168786
 20
409.7008376359063
 30
0.0
 10
68.60528556622239
 20
409.6906302295293
 30
0.0
 10
68.46387128308513
 20
409.6379320386164
 30
0.0
 10
68.33130847486865
 20
409.5805369085239
 30
0.0
 10
68.20543956983398
 20
409.525228927222
 30
0.0
  0
SPLINE
  5
B3
330
5E
100
AcDbEntity
  8
$DDT_AUDIT_GENERATED_(A3)
  6
Continuous
 62
     7
100
AcDbSpline
210
0.0
220
0.0
230
1.0
 70
     8
 71
     3
 72
    23
 73
    19
 74
     0
 42
0.0000000008402034
 43
0.0000000001
 40
0.0
 40
0.0
 40
0.0
 40
0.0
 40
0.1309964122077769
 40
0.2513213779885891
 40
0.3538790802695744
 40
0.4381274775316146
 40
0.506621689095284
 40
0.5761377585801278
 40
0.6315027304153034
 40
0.6896900600333452
 40
0.7503811245389018
 40
0.8035903900777167
 40
0.8447005737574416
 40
0.8747896428137751
 40
0.8928785229337831
 40
0.9197319065797352
 40
0.9554360483795559
 40
1.0
 40
1.0
 40
1.0
 40
1.0
 10
78.33774733785059
 20
405.5040930446521
 30
0.0
 10
77.99072145640957
 20
405.9632954695244
 30
0.0
 10
77.4237012136557
 20
406.7006561712209
 30
0.0
 10
76.43607511862771
 20
407.752636640158
 30
0.0
 10
75.51477347645553
 20
408.5573113342432
 30
0.0
 10
74.67056660092271
 20
409.1350209282627
 30
0.0
 10
73.88180696994996
 20
409.5466047630084
 30
0.0
 10
73.15145776254585
 20
409.8059225362464
 30
0.0
 10
72.44025600226982
 20
409.9680354758676
 30
0.0
 10
71.75138206106108
 20
410.0527608092016
 30
0.0
 10
71.06622137907199
 20
410.0628343078585
 30
0.0
 10
70.44600265554007
 20
410.0297144816331
 30
0.0
 10
69.95416365534577
 20
409.9825521563589
 30
0.0
 10
69.61537036533777
 20
409.9424989708052
 30
0.0
 10
69.34558724952976
 20
409.9027879987651
 30
0.0
 10
69.0531953206525
 20
409.838706054052
 30
0.0
 10
68.6539092643205
 20
409.7170804969311
 30
0.0
 10
68.38322860130927
 20
409.6021945325595
 30
0.0
 10
68.20543947708357
 20
409.5252288849017
 30
0.0
  0
ARC
  5
B4
330
5E
100
AcDbEntity
  8
$DDT_AUDIT_GENERATED_(A3)
  6
Continuous
 62
     7
100
AcDbCircle
 10
56.1300596526
 20
388.7761344223
 30
0.0
 40
27.79245295923934
100
AcDbArc
 50
34.3570512449
 51
36.9897526932
  0
ARC
  5
B5
330
5E
100
AcDbEntity
  8
$DDT_AUDIT_GENERATED_(A3)
  6
Continuous
 62
     7
100
AcDbCircle
 10
82.1599909069
 20
351.877051203
 30
0.0
 40
14.99999986334606
100
AcDbArc
 50
285.3730415205
 51
342.390635602
  0
LINE
  5
B7
330
5E
100
AcDbEntity
  8
DV1_Standard
  6
Continuous
 62
     7
100
AcDbLine
 10
84.4137415008
 20
368.4945507494
 30
0.0
 11
92.7155731137
 21
364.9366229153
 31
0.0
  0
ENDBLK
  5
B9
330
5E
100
AcDbEntity
  8
0
100
AcDbBlockEnd
  0
BLOCK
  5
DC
330
BA
100
AcDbEntity
  8
0
100
AcDbBlockBegin
  2
SE1
 70
     0
 10
0.0
 20
0.0
 30
0.0
  3
SE1
  1

  0
LINE
  5
BC
330
BA
100
AcDbEntity
  8
$DDT_AUDIT_GENERATED_(60)
  6
Continuous
 62
     7
100
AcDbLine
 10
208.0284211992
 20
299.8770419222
 30
0.0
 11
160.0284211992
 21
299.8770419222
 31
0.0
  0
LINE
  5
BD
330
BA
100
AcDbEntity
  8
$DDT_AUDIT_GENERATED_(60)
  6
Continuous
 62
     7
100
AcDbLine
 10
195.5284211992
 20
473.8770419222
 30
0.0
 11
172.5284211992
 21
473.8770419222
 31
0.0
  0
LINE
  5
BE
330
BA
100
AcDbEntity
  8
$DDT_AUDIT_GENERATED_(60)
  6
Continuous
 62
     7
100
AcDbLine
 10
181.5284211992
 20
470.6270419222
 30
0.0
 11
181.5284211992
 21
469.0270419222
 31
0.0
  0
LINE
  5
BF
330
BA
100
AcDbEntity
  8
$DDT_AUDIT_GENERATED_(60)
  6
Continuous
 62
     7
100
AcDbLine
 10
181.5284211992
 20
469.0270419222
 30
0.0
 11
172.5094983411
 21
469.0270419222
 31
0.0
  0
LINE
  5
C0
330
BA
100
AcDbEntity
  8
$DDT_AUDIT_GENERATED_(60)
  6
Continuous
 62
     7
100
AcDbLine
 10
181.5284211992
 20
470.6270419222
 30
0.0
 11
172.520858642
 21
470.6270419222
 31
0.0
  0
ARC
  5
C1
330
BA
100
AcDbEntity
  8
$DDT_AUDIT_GENERATED_(60)
  6
Continuous
 62
     7
100
AcDbCircle
 10
-4318.9506943938
 20
734.3262128065
 30
0.0
 40
4500.0
100
AcDbArc
 50
354.459791993
 51
356.2595220678
  0
ARC
  5
C2
330
BA
100
AcDbEntity
  8
$DDT_AUDIT_GENERATED_(60)
  6
Continuous
 62
     7
100
AcDbCircle
 10
4687.0075367921
 20
734.3262128065
 30
0.0
 40
4500.0
100
AcDbArc
 50
183.7404779322
 51
185.540208007
  0
ARC
  5
C3
330
BA
100
AcDbEntity
  8
$DDT_AUDIT_GENERATED_(60)
  6
Continuous
 62
     7
100
AcDbCircle
 10
-327.4715788008
 20
473.3770419222
 30
0.0
 40
500.0
100
AcDbArc
 50
356.2595220678
 51
359.5015204298
  0
ARC
  5
C4
330
BA
100
AcDbEntity
  8
$DDT_AUDIT_GENERATED_(60)
  6
Continuous
 62
     7
100
AcDbCircle
 10
-327.4715788008
 20
473.3770419222
 30
0.0
 40
500.0
100
AcDbArc
 50
359.6848716239
 51
0.0
  0
ARC
  5
C5
330
BA
100
AcDbEntity
  8
$DDT_AUDIT_GENERATED_(60)
  6
Continuous
 62
     7
100
AcDbCircle
 10
695.5284211992
 20
473.3770419222
 30
0.0
 40
500.0
100
AcDbArc
 50
180.0
 51
183.7404779322
  0
LINE
  5
C6
330
BA
100
AcDbEntity
  8
$DDT_AUDIT_GENERATED_(60)
  6
Continuous
 62
     7
100
AcDbLine
 10
172.5284211992
 20
473.8770419222
 30
0.0
 11
172.5284211992
 21
473.3770419222
 31
0.0
  0
LINE
  5
C7
330
BA
100
AcDbEntity
  8
$DDT_AUDIT_GENERATED_(60)
  6
Continuous
 62
     7
100
AcDbLine
 10
195.5284211992
 20
473.3770419222
 30
0.0
 11
195.5284211992
 21
473.8770419222
 31
0.0
  0
LINE
  5
C8
330
BA
100
AcDbEntity
  8
$DDT_AUDIT_GENERATED_(6B)
  6
Continuous
 62
     7
100
AcDbLine
 10
173.6284211992
 20
474.3770419222
 30
0.0
 11
173.6284211992
 21
473.8770419222
 31
0.0
  0
LINE
  5
C9
330
BA
100
AcDbEntity
  8
$DDT_AUDIT_GENERATED_(6B)
  6
Continuous
 62
     7
100
AcDbLine
 10
194.4284211992
 20
473.8770419222
 30
0.0
 11
194.4284211992
 21
474.3770419222
 31
0.0
  0
LINE
  5
CA
330
BA
100
AcDbEntity
  8
$DDT_AUDIT_GENERATED_(6E)
  6
Continuous
 62
     7
100
AcDbLine
 10
333.8100998934
 20
499.1598443989
 30
0.0
 11
311.1533012804
 21
495.2012034627
 31
0.0
  0
LINE
  5
CB
330
BA
100
AcDbEntity
  8
$DDT_AUDIT_GENERATED_(6E)
  6
Continuous
 62
     7
100
AcDbLine
 10
195.5287004603
 20
474.3770419222
 30
0.0
 11
172.5310675383
 21
474.3770419222
 31
0.0
  0
SPLINE
  5
CC
330
BA
100
AcDbEntity
  8
$DDT_AUDIT_GENERATED_(6E)
  6
Continuous
 62
     7
100
AcDbSpline
210
0.0
220
0.0
230
1.0
 70
     8
 71
     3
 72
    59
 73
    55
 74
     0
 42
0.0000000000545943
 43
0.0000000001
 40
0.0
 40
0.0
 40
0.0
 40
0.0
 40
0.0215660493486581
 40
0.0412731185735071
 40
0.0596079422446583
 40
0.0769862907429959
 40
0.0936276085177519
 40
0.10934926523433
 40
0.1239964881844448
 40
0.1425872804514445
 40
0.1597472343069862
 40
0.1758139814168452
 40
0.1909314816348962
 40
0.2088095612422117
 40
0.2245374883115832
 40
0.2383866852288106
 40
0.2510309749876313
 40
0.2638078913271352
 40
0.276889660438512
 40
0.2902565033868811
 40
0.3141416960900609
 40
0.338406862627977
 40
0.3630147526298032
 40
0.3878038985103799
 40
0.4128380049450893
 40
0.4380371163077953
 40
0.4632916739037477
 40
0.4885574679952049
 40
0.5138286286093431
 40
0.5391234421568518
 40
0.5645216535918053
 40
0.5900713141140389
 40
0.615441897206075
 40
0.6398601848816837
 40
0.6632124126266671
 40
0.6856499136292938
 40
0.6981180947266403
 40
0.710357018926865
 40
0.7229578973535672
 40
0.7376445057793917
 40
0.7546072638557971
 40
0.7739348755871016
 40
0.795599233974089
 40
0.8163753961012661
 40
0.8387223416074286
 40
0.8625746245913283
 40
0.887874342592479
 40
0.902918769515924
 40
0.9182808530669436
 40
0.9338481184953652
 40
0.9495053624176084
 40
0.9654075640906848
 40
0.9820394337099736
 40
1.0
 40
1.0
 40
1.0
 40
1.0
 10
195.528700460265
 20
474.3770419222045
 30
0.0
 10
195.5220990372632
 20
475.8244857636248
 30
0.0
 10
195.5158064670763
 20
478.1555340706438
 30
0.0
 10
195.5797828493565
 20
481.8613374235858
 30
0.0
 10
195.7144507121778
 20
485.2239592589464
 30
0.0
 10
195.9254606523696
 20
488.4159039679624
 30
0.0
 10
196.2091138527609
 20
491.4370061423473
 30
0.0
 10
196.559216119942
 20
494.2846330976952
 30
0.0
 10
197.0182015302144
 20
497.2369222888842
 30
0.0
 10
197.6152285752333
 20
500.2548717029831
 30
0.0
 10
198.3879061928142
 20
503.3221196110222
 30
0.0
 10
199.2529487195257
 20
506.1434540575232
 30
0.0
 10
200.2634928656726
 20
508.9622691976021
 30
0.0
 10
201.3967755601134
 20
511.7121832937722
 30
0.0
 10
202.6359866528692
 20
514.3305264639063
 30
0.0
 10
203.8567480869107
 20
516.600330452114
 30
0.0
 10
205.0938813512191
 20
518.6534119687025
 30
0.0
 10
206.4017412993264
 20
520.6060642871264
 30
0.0
 10
207.8272603038105
 20
522.5297627373114
 30
0.0
 10
209.7733923815297
 20
524.9070560952322
 30
0.0
 10
212.3539411493174
 20
527.6401089241746
 30
0.0
 10
215.6747293621459
 20
530.594667205871
 30
0.0
 10
219.2874353192539
 20
533.2785231326521
 30
0.0
 10
223.1612318885556
 20
535.6595283549183
 30
0.0
 10
227.251490418734
 20
537.7260249476737
 30
0.0
 10
231.5219180154716
 20
539.4652285292769
 30
0.0
 10
235.9326801327441
 20
540.8569346417452
 30
0.0
 10
240.4444829231307
 20
541.893276538592
 30
0.0
 10
245.0258971084262
 20
542.5735791934325
 30
0.0
 10
249.6544731862345
 20
542.8949791189876
 30
0.0
 10
254.3110458969846
 20
542.8545763144817
 30
0.0
 10
258.9548695365453
 20
542.4534903259248
 30
0.0
 10
263.4970885063173
 20
541.7211251454086
 30
0.0
 10
267.8444339050657
 20
540.6958145322502
 30
0.0
 10
271.9359381236532
 20
539.4146548186262
 30
0.0
 10
275.2471690122553
 20
538.1132766294553
 30
0.0
 10
277.8635817854104
 20
536.9163449545116
 30
0.0
 10
279.8961859909726
 20
535.8901822990207
 30
0.0
 10
282.0063657541928
 20
534.7212293349097
 30
0.0
 10
284.3125856060117
 20
533.3155367583073
 30
0.0
 10
286.8905135934419
 20
531.5728863616432
 30
0.0
 10
289.7148096122413
 20
529.4421464661808
 30
0.0
 10
292.5904287784742
 20
527.0023482940938
 30
0.0
 10
295.4486131458264
 20
524.2681863265763
 30
0.0
 10
298.2196981954117
 20
521.2606609381859
 30
0.0
 10
300.9573347771399
 20
517.8597593830215
 30
0.0
 10
303.19620487399
 20
514.6411674137241
 30
0.0
 10
304.9739896281749
 20
511.743199891763
 30
0.0
 10
306.3327808005328
 20
509.2876395037074
 30
0.0
 10
307.5874455508572
 20
506.7368095657582
 30
0.0
 10
308.7203769312632
 20
504.0880880866718
 30
0.0
 10
309.7034181376305
 20
501.330208734139
 30
0.0
 10
310.5538239777693
 20
498.3048155511706
 30
0.0
 10
310.9286693418777
 20
496.3855570780576
 30
0.0
 10
311.1533012803915
 20
495.2012034627139
 30
0.0
  0
SPLINE
  5
CD
330
BA
100
AcDbEntity
  8
$DDT_AUDIT_GENERATED_(6E)
  6
Continuous
 62
     7
100
AcDbSpline
210
0.0
220
0.0
230
1.0
 70
     8
 71
     3
 72
    56
 73
    52
 74
     0
 42
0.0000000000397824
 43
0.0000000001
 40
0.0
 40
0.0
 40
0.0
 40
0.0
 40
0.0220881802583383
 40
0.043240938435467
 40
0.0634564524665221
 40
0.0827275997977593
 40
0.1010627652134541
 40
0.1226665788812361
 40
0.1428018898211967
 40
0.1614645358309761
 40
0.1786558536017807
 40
0.1961663218071962
 40
0.2118369363816966
 40
0.225727975576084
 40
0.2391698701073177
 40
0.2604817014337897
 40
0.2820261967292194
 40
0.3067882858826687
 40
0.3318469549297171
 40
0.3571598770140896
 40
0.3825079511818156
 40
0.4078618620818119
 40
0.4332193899949345
 40
0.4585794909234369
 40
0.4839433095777688
 40
0.5093133566866704
 40
0.534688832989558
 40
0.5600679640259214
 40
0.5854533645996375
 40
0.6106612185642625
 40
0.6351065288289897
 40
0.6587440853294668
 40
0.6815708595444225
 40
0.6940035244966698
 40
0.7061834059447795
 40
0.7187879460379272
 40
0.7333481009371162
 40
0.7462009686636492
 40
0.7602945507314348
 40
0.7756310791318471
 40
0.7922143883916013
 40
0.8083723274123646
 40
0.8255561655977707
 40
0.8437650324165464
 40
0.8630008474066957
 40
0.8832600380474717
 40
0.9045476403381145
 40
0.926871162580166
 40
0.9502208200928606
 40
0.9745949233237684
 40
1.0
 40
1.0
 40
1.0
 40
1.0
 10
333.8100998933677
 20
499.1598443989031
 30
0.0
 10
333.4164108732018
 20
501.1558173320811
 30
0.0
 10
332.7488769249948
 20
504.4459132500139
 30
0.0
 10
331.1593786044223
 20
509.6305809100583
 30
0.0
 10
329.3437216715587
 20
514.3484578211171
 30
0.0
 10
327.305020065461
 20
518.7505764535716
 30
0.0
 10
324.9559534748811
 20
523.1174944450981
 30
0.0
 10
322.3081999547028
 20
527.3990362781498
 30
0.0
 10
319.3963369326341
 20
531.5373499425806
 30
0.0
 10
316.4884846964304
 20
535.217601586496
 30
0.0
 10
313.5381248382309
 20
538.5758102245397
 30
0.0
 10
310.5938736043003
 20
541.5986320655253
 30
0.0
 10
307.7067125571504
 20
544.2838181189577
 30
0.0
 10
304.9647679941314
 20
546.6193198132347
 30
0.0
 10
301.7594898284898
 20
549.1341001430142
 30
0.0
 10
297.9041022560002
 20
551.8522816739328
 30
0.0
 10
293.0777782619563
 20
554.8193219615083
 30
0.0
 10
287.7826469098832
 20
557.6000533798364
 30
0.0
 10
282.0095573555876
 20
560.1139645053834
 30
0.0
 10
276.019498468472
 20
562.2096860638669
 30
0.0
 10
269.8642164180677
 20
563.8535721037066
 30
0.0
 10
263.5976067197906
 20
565.0230138331103
 30
0.0
 10
257.2589647040421
 20
565.7108694245941
 30
0.0
 10
250.8852672068334
 20
565.9082335472267
 30
0.0
 10
244.5142581748356
 20
565.6148463855842
 30
0.0
 10
238.1834076290613
 20
564.8316556233646
 30
0.0
 10
231.9309508219888
 20
563.5598632401302
 30
0.0
 10
225.7958718184112
 20
561.8018451181391
 30
0.0
 10
219.8335051050758
 20
559.5651000029275
 30
0.0
 10
214.1398310015482
 20
556.8922699452287
 30
0.0
 10
208.8034195772142
 20
553.8491245362841
 30
0.0
 10
203.8860957421626
 20
550.5112029116527
 30
0.0
 10
200.0273759373857
 20
547.4318910000634
 30
0.0
 10
197.076266052646
 20
544.771546811304
 30
0.0
 10
194.8522077744261
 20
542.5873563775287
 30
0.0
 10
192.604848925928
 20
540.177046990927
 30
0.0
 10
190.4426247401412
 20
537.6151912389156
 30
0.0
 10
188.3327464813883
 20
534.8520618360861
 30
0.0
 10
186.3190694282685
 20
531.938317940604
 30
0.0
 10
184.2899386049164
 20
528.6611871821458
 30
0.0
 10
182.3525847304838
 20
525.1301478929282
 30
0.0
 10
180.5342137035718
 20
521.3641181589119
 30
0.0
 10
178.857202251315
 20
517.3846645506287
 30
0.0
 10
177.3086932401347
 20
513.0781248050567
 30
0.0
 10
175.9328164873739
 20
508.443807422328
 30
0.0
 10
174.774184340449
 20
503.4844479609283
 30
0.0
 10
173.8622125660541
 20
498.2139356901491
 30
0.0
 10
173.189872510775
 20
492.6379881414603
 30
0.0
 10
172.7535846803159
 20
486.817184626336
 30
0.0
 10
172.5290937688226
 20
480.5780959682397
 30
0.0
 10
172.5258910860715
 20
476.7169668466263
 30
0.0
 10
172.5310675382678
 20
474.3770419222045
 30
0.0
  0
LINE
  5
CF
330
BA
100
AcDbEntity
  8
$DDT_AUDIT_GENERATED_(CE)
  6
Continuous
 62
     7
100
AcDbLine
 10
181.5216258371
 20
470.5270419222
 30
0.0
 11
181.4284211992
 21
470.5270419222
 31
0.0
  0
LINE
  5
D0
330
BA
100
AcDbEntity
  8
$DDT_AUDIT_GENERATED_(CE)
  6
Continuous
 62
     7
100
AcDbLine
 10
181.4284211992
 20
470.5270419222
 30
0.0
 11
180.9284211992
 21
470.5270419222
 31
0.0
  0
LINE
  5
D1
330
BA
100
AcDbEntity
  8
$DDT_AUDIT_GENERATED_(CE)
  6
Continuous
 62
     7
100
AcDbLine
 10
172.5284211992
 20
470.5270419222
 30
0.0
 11
180.9284211992
 21
470.5270419222
 31
0.0
  0
LINE
  5
D2
330
BA
100
AcDbEntity
  8
$DDT_AUDIT_GENERATED_(CE)
  6
Continuous
 62
     7
100
AcDbLine
 10
180.9284211992
 20
470.5270419222
 30
0.0
 11
180.9284211992
 21
469.0270419222
 31
0.0
  0
LINE
  5
D3
330
BA
100
AcDbEntity
  8
$DDT_AUDIT_GENERATED_(CE)
  6
Continuous
 62
     7
100
AcDbLine
 10
181.4284211992
 20
470.5270419222
 30
0.0
 11
181.4284211992
 21
469.0270419222
 31
0.0
  0
LINE
  5
D4
330
BA
100
AcDbEntity
  8
$DDT_AUDIT_GENERATED_(CE)
  6
Continuous
 62
     7
100
AcDbLine
 10
172.5284211992
 20
470.5270419222
 30
0.0
 11
172.5284211992
 21
469.0270419222
 31
0.0
  0
LINE
  5
D5
330
BA
100
AcDbEntity
  8
$DDT_AUDIT_GENERATED_(7E)
  6
Continuous
 62
     7
100
AcDbLine
 10
314.9904602521
 20
478.6141041562
 30
0.0
 11
335.824837384
 21
482.254327985
 31
0.0
  0
LINE
  5
D6
330
BA
100
AcDbEntity
  8
$DDT_AUDIT_GENERATED_(7E)
  6
Continuous
 62
     7
100
AcDbLine
 10
336.6377997151
 20
483.4115195198
 30
0.0
 11
333.9097832761
 21
499.0249889071
 31
0.0
  0
LINE
  5
D7
330
BA
100
AcDbEntity
  8
$DDT_AUDIT_GENERATED_(7E)
  6
Continuous
 62
     7
100
AcDbLine
 10
311.1052522782
 20
495.0405358747
 30
0.0
 11
313.8332687173
 21
479.4270664873
 31
0.0
  0
ARC
  5
D8
330
BA
100
AcDbEntity
  8
$DDT_AUDIT_GENERATED_(7E)
  6
Continuous
 62
     7
100
AcDbCircle
 10
335.6527227822
 20
483.2394049179
 30
0.0
 40
1.000000000000017
100
AcDbArc
 50
279.9107892906
 51
9.9107892906
  0
ARC
  5
D9
330
BA
100
AcDbEntity
  8
$DDT_AUDIT_GENERATED_(7E)
  6
Continuous
 62
     7
100
AcDbCircle
 10
314.8183456502
 20
479.5991810892
 30
0.0
 40
0.9999999999999893
100
AcDbArc
 50
189.9107892906
 51
279.9107892906
  0
ARC
  5
DA
330
BA
100
AcDbEntity
  8
$DDT_AUDIT_GENERATED_(7E)
  6
Continuous
 62
     7
100
AcDbCircle
 10
333.7620217361
 20
498.9991717168
 30
0.0
 40
0.1500000000000089
100
AcDbArc
 50
9.9107892906
 51
99.9107892906
  0
ARC
  5
DB
330
BA
100
AcDbEntity
  8
$DDT_AUDIT_GENERATED_(7E)
  6
Continuous
 62
     7
100
AcDbCircle
 10
311.2530138182
 20
495.0663530649
 30
0.0
 40
0.1499999999999816
100
AcDbArc
 50
99.9107892906
 51
189.9107892906
  0
ENDBLK
  5
DD
330
BA
100
AcDbEntity
  8
0
100
AcDbBlockEnd
  0
BLOCK
  5
124
330
DE
100
AcDbEntity
  8
0
100
AcDbBlockBegin
  2
SE2
 70
     0
 10
0.0
 20
0.0
 30
0.0
  3
SE2
  1

  0
ARC
  5
E0
330
DE
100
AcDbEntity
  8
$DDT_AUDIT_GENERATED_(60)
  6
Continuous
 62
     7
100
AcDbCircle
 10
30.35
 20
258.9717192746
 30
0.0
 40
23.99999999999913
100
AcDbArc
 50
38.682194517
 51
241.3242290372
  0
ARC
  5
E1
330
DE
100
AcDbEntity
  8
$DDT_AUDIT_GENERATED_(60)
  6
Continuous
 62
     7
100
AcDbCircle
 10
30.35
 20
258.9717192746
 30
0.0
 40
23.99999999999913
100
AcDbArc
 50
298.675443772
 51
321.317805483
  0
ARC
  5
E2
330
DE
100
AcDbEntity
  8
$DDT_AUDIT_GENERATED_(60)
  6
Continuous
 62
     7
100
AcDbCircle
 10
30.35
 20
258.9717192746
 30
0.0
 40
12.56511055087944
100
AcDbArc
 50
0.0
 51
203.4130035008
  0
ARC
  5
E3
330
DE
100
AcDbEntity
  8
$DDT_AUDIT_GENERATED_(60)
  6
Continuous
 62
     7
100
AcDbCircle
 10
30.35
 20
258.9717192746
 30
0.0
 40
12.56511055087944
100
AcDbArc
 50
336.5797340593
 51
0.0
  0
ARC
  5
E4
330
DE
100
AcDbEntity
  8
$DDT_AUDIT_GENERATED_(60)
  6
Continuous
 62
     7
100
AcDbCircle
 10
30.35
 20
258.9717192746
 30
0.0
 40
11.5
100
AcDbArc
 50
0.0
 51
0.5937187743
  0
ARC
  5
E5
330
DE
100
AcDbEntity
  8
$DDT_AUDIT_GENERATED_(60)
  6
Continuous
 62
     7
100
AcDbCircle
 10
30.35
 20
258.9717192746
 30
0.0
 40
11.5
100
AcDbArc
 50
17.2214147181
 51
162.1403582691
  0
ARC
  5
E6
330
DE
100
AcDbEntity
  8
$DDT_AUDIT_GENERATED_(60)
  6
Continuous
 62
     7
100
AcDbCircle
 10
30.35
 20
258.9717192746
 30
0.0
 40
11.5
100
AcDbArc
 50
175.9810989397
 51
182.7428378852
  0
ARC
  5
E7
330
DE
100
AcDbEntity
  8
$DDT_AUDIT_GENERATED_(60)
  6
Continuous
 62
     7
100
AcDbCircle
 10
30.35
 20
258.9717192746
 30
0.0
 40
11.5
100
AcDbArc
 50
357.0495443795
 51
0.0
  0
LINE
  5
E8
330
DE
100
AcDbEntity
  8
$DDT_AUDIT_GENERATED_(60)
  6
Continuous
 62
     7
100
AcDbLine
 10
19.1172801153
 20
261.4717192746
 30
0.0
 11
19.1056421344
 21
261.4717192746
 31
0.0
  0
LINE
  5
E9
330
DE
100
AcDbEntity
  8
$DDT_AUDIT_GENERATED_(60)
  6
Continuous
 62
     7
100
AcDbLine
 10
41.5943578656
 20
261.4717192746
 30
0.0
 11
41.5827198847
 21
261.4717192746
 31
0.0
  0
ARC
  5
EA
330
DE
100
AcDbEntity
  8
$DDT_AUDIT_GENERATED_(60)
  6
Continuous
 62
     7
100
AcDbCircle
 10
30.35
 20
258.9717192746
 30
0.0
 40
11.51892285807449
100
AcDbArc
 50
12.5348957102
 51
167.4651042898
  0
ARC
  5
EB
330
DE
100
AcDbEntity
  8
$DDT_AUDIT_GENERATED_(60)
  6
Continuous
 62
     7
100
AcDbCircle
 10
30.35
 20
258.9717192746
 30
0.0
 40
11.50756255719221
100
AcDbArc
 50
12.5474717839
 51
16.502520495
  0
ARC
  5
EC
330
DE
100
AcDbEntity
  8
$DDT_AUDIT_GENERATED_(60)
  6
Continuous
 62
     7
100
AcDbCircle
 10
30.35
 20
258.9717192746
 30
0.0
 40
11.50756255719221
100
AcDbArc
 50
17.5870445754
 51
162.7044259609
  0
ARC
  5
ED
330
DE
100
AcDbEntity
  8
$DDT_AUDIT_GENERATED_(60)
  6
Continuous
 62
     7
100
AcDbCircle
 10
30.35
 20
258.9717192746
 30
0.0
 40
11.50756255719221
100
AcDbArc
 50
164.2847411825
 51
167.4525282161
  0
SPLINE
  5
EE
330
DE
100
AcDbEntity
  8
$DDT_AUDIT_GENERATED_(60)
  6
Continuous
 62
     7
100
AcDbSpline
210
0.0
220
0.0
230
1.0
 70
     8
 71
     3
 72
    18
 73
    14
 74
     0
 42
0.0000000001803926
 43
0.0000000001
 40
0.0
 40
0.0
 40
0.0
 40
0.0
 40
0.0625000000000002
 40
0.0625000000000002
 40
0.0937500000000003
 40
0.0937500000000003
 40
0.1250000000000004
 40
0.1250000000000004
 40
0.1562500000000005
 40
0.1562500000000005
 40
0.1875000000000006
 40
0.1875000000000006
 40
0.2151386809175287
 40
0.2151386809175287
 40
0.2151386809175287
 40
0.2151386809175287
 10
47.47100485742339
 20
264.7823602407055
 30
0.0
 10
46.8945581992628
 20
266.6807949339664
 30
0.0
 10
46.0975830678999
 20
268.3073751803484
 30
0.0
 10
44.81848988650328
 20
270.3752606335451
 30
0.0
 10
44.38501432355893
 20
270.9911091842526
 30
0.0
 10
43.55284526350795
 20
272.089242632476
 30
0.0
 10
43.15194976818215
 20
272.5728670106943
 30
0.0
 10
42.49157452279609
 20
273.368071428846
 30
0.0
 10
42.22718627778619
 20
273.6879007490691
 30
0.0
 10
41.96555728660473
 20
274.1134824899502
 30
0.0
 10
41.96887972967124
 20
274.2231614760022
 30
0.0
 10
42.24896021168825
 20
274.2204161236115
 30
0.0
 10
42.48878647093101
 20
274.1334244414968
 30
0.0
 10
42.79727892933818
 20
273.9744729392821
 30
0.0
  0
SPLINE
  5
EF
330
DE
100
AcDbEntity
  8
$DDT_AUDIT_GENERATED_(60)
  6
Continuous
 62
     7
100
AcDbSpline
210
0.0
220
0.0
230
1.0
 70
     8
 71
     3
 72
    28
 73
    24
 74
     0
 42
0.0000000001401287
 43
0.0000000001
 40
0.6678206536557864
 40
0.6678206536557864
 40
0.6678206536557864
 40
0.6678206536557864
 40
0.6875
 40
0.6875
 40
0.71875
 40
0.71875
 40
0.75
 40
0.75
 40
0.78125
 40
0.78125
 40
0.8125
 40
0.8125
 40
0.84375
 40
0.84375
 40
0.875
 40
0.875
 40
0.90625
 40
0.90625
 40
0.9375
 40
0.9375
 40
0.96875
 40
0.96875
 40
1.0
 40
1.0
 40
1.0
 40
1.0
 10
42.78231927484553
 20
243.9610565915748
 30
0.0
 10
42.56466555404728
 20
243.8496618147905
 30
0.0
 10
42.38200352732744
 20
243.7748973015309
 30
0.0
 10
42.03478706105474
 20
243.6882756985353
 30
0.0
 10
41.95684469234111
 20
243.7414868825921
 30
0.0
 10
42.09232581749071
 20
244.0718977653378
 30
0.0
 10
42.30271624743323
 20
244.3438438976942
 30
0.0
 10
42.89826787048194
 20
245.0676030921868
 30
0.0
 10
43.28015953904978
 20
245.518283674243
 30
0.0
 10
44.09612662738015
 20
246.5597008525925
 30
0.0
 10
44.52933214641092
 20
247.148311446951
 30
0.0
 10
45.39108316204902
 20
248.4703159640877
 30
0.0
 10
45.82026384970013
 20
249.2062328262559
 30
0.0
 10
46.60549127546388
 20
250.7869018347906
 30
0.0
 10
46.96620834924036
 20
251.6371860342784
 30
0.0
 10
47.58955836283634
 20
253.4809377621059
 30
0.0
 10
47.84987601200416
 20
254.4775848269875
 30
0.0
 10
48.20982743412865
 20
256.5092695109913
 30
0.0
 10
48.31465199221434
 20
257.5640938190559
 30
0.0
 10
48.35117670657242
 20
259.6978879908094
 30
0.0
 10
48.28388389584217
 20
260.7485902453924
 30
0.0
 10
47.98874173825035
 20
262.8191250098893
 30
0.0
 10
47.75922818650368
 20
263.8331428940752
 30
0.0
 10
47.47100485742339
 20
264.7823602407055
 30
0.0
  0
ELLIPSE
  5
F0
330
DE
100
AcDbEntity
  8
$DDT_AUDIT_GENERATED_(6E)
  6
Continuous
 62
     7
100
AcDbEllipse
 10
30.3499852016
 20
120.5184398869
 30
0.0
 11
11.5000147983669
 21
2.609024107869118E-12
 31
0.0
210
0.0
220
0.0
230
1.0
 40
0.985076933
 41
0.0000000000000005
 42
0.0000157115345008
  0
ELLIPSE
  5
F1
330
DE
100
AcDbEntity
  8
$DDT_AUDIT_GENERATED_(6E)
  6
Continuous
 62
     7
100
AcDbEllipse
 10
30.3499852016
 20
120.5184398869
 30
0.0
 11
11.5000147983669
 21
2.609024107869118E-12
 31
0.0
210
0.0
220
0.0
230
1.0
 40
0.985076933
 41
3.141544275875864
 42
6.283185307179586
  0
ARC
  5
F2
330
DE
100
AcDbEntity
  8
$DDT_AUDIT_GENERATED_(6E)
  6
Continuous
 62
     7
100
AcDbCircle
 10
30.35
 20
258.9702564745
 30
0.0
 40
11.4988164609986
100
AcDbArc
 50
0.0
 51
0.0016437021
  0
ARC
  5
F3
330
DE
100
AcDbEntity
  8
$DDT_AUDIT_GENERATED_(6E)
  6
Continuous
 62
     7
100
AcDbCircle
 10
30.35
 20
258.9702564745
 30
0.0
 40
11.4988164609986
100
AcDbArc
 50
180.0008848371
 51
182.7461523125
  0
ARC
  5
F4
330
DE
100
AcDbEntity
  8
$DDT_AUDIT_GENERATED_(6E)
  6
Continuous
 62
     7
100
AcDbCircle
 10
30.35
 20
258.9702564745
 30
0.0
 40
11.4988164609986
100
AcDbArc
 50
357.0556775271
 51
0.0
  0
LINE
  5
F5
330
DE
100
AcDbEntity
  8
$DDT_AUDIT_GENERATED_(6E)
  6
Continuous
 62
     7
100
AcDbLine
 10
41.8488168658
 20
258.9754977178
 30
0.0
 11
41.8488170322
 21
258.9702564745
 31
0.0
  0
SPLINE
  5
F6
330
DE
100
AcDbEntity
  8
$DDT_AUDIT_GENERATED_(6E)
  6
Continuous
 62
     7
100
AcDbSpline
210
0.0
220
0.0
230
1.0
 70
     8
 71
     3
 72
    69
 73
    65
 74
     0
 42
0.0000000000724543
 43
0.0000000001
 40
0.0
 40
0.0
 40
0.0
 40
0.0
 40
0.0168224064664081
 40
0.032822964184866
 40
0.0481807180719699
 40
0.0630407619831943
 40
0.0775038815303718
 40
0.091570043047664
 40
0.1052062232492763
 40
0.123516862429979
 40
0.1408568541427573
 40
0.1571909231209024
 40
0.172508706330215
 40
0.186802981392755
 40
0.1992161276523989
 40
0.2107277908577319
 40
0.221328723717914
 40
0.2310116436231159
 40
0.2401331329601701
 40
0.2493449461789195
 40
0.264017824339873
 40
0.2789163915086519
 40
0.2940420287188542
 40
0.3115192252214304
 40
0.3293220799594253
 40
0.3474721713056661
 40
0.3659943557919118
 40
0.3848995845235523
 40
0.4039692443413129
 40
0.4231293824610254
 40
0.4423404460243609
 40
0.4615573106277149
 40
0.480739774248923
 40
0.4998828305975201
 40
0.5190000517125807
 40
0.5381049790400404
 40
0.5572040496355751
 40
0.5761432764840358
 40
0.5948219154668438
 40
0.6132385513757784
 40
0.6313839919344073
 40
0.6492446248981982
 40
0.666808414040001
 40
0.6840726089207684
 40
0.7010633278400236
 40
0.718008012014301
 40
0.7352583349093055
 40
0.7503060590725892
 40
0.7655727577012839
 40
0.7810311190367865
 40
0.796645739631334
 40
0.8123905041857505
 40
0.8283201739075091
 40
0.844733309102527
 40
0.8585307939675985
 40
0.8732562270013658
 40
0.8888840262919372
 40
0.9053100362937755
 40
0.9225209206125281
 40
0.9366685311183958
 40
0.95144059951955
 40
0.9669140077539741
 40
0.9831287549367306
 40
1.0
 40
1.0
 40
1.0
 40
1.0
 10
41.84999999999999
 20
120.518439886893
 30
0.0
 10
41.84999976310015
 20
120.7508110918653
 30
0.0
 10
41.84999929056155
 20
121.1413714466452
 30
0.0
 10
41.8499958242773
 20
121.9986770836535
 30
0.0
 10
41.84999096830082
 20
122.9644564017974
 30
0.0
 10
41.84998496664831
 20
124.0537268340563
 30
0.0
 10
41.84997830156846
 20
125.2391892080936
 30
0.0
 10
41.84997104246644
 20
126.5041424108893
 30
0.0
 10
41.84996225949337
 20
127.9955808687901
 30
0.0
 10
41.84995175596328
 20
129.7224183016467
 30
0.0
 10
41.84993930784567
 20
131.6843618381124
 30
0.0
 10
41.84992633563358
 20
133.653553490822
 30
0.0
 10
41.84991310162174
 20
135.6041314790433
 30
0.0
 10
41.84990009484084
 20
137.4749491395899
 30
0.0
 10
41.84988753758172
 20
139.2458135025016
 30
0.0
 10
41.84987561298349
 20
140.9005354998014
 30
0.0
 10
41.84986416471584
 20
142.4691390911049
 30
0.0
 10
41.8498532008253
 20
143.9563388752921
 30
0.0
 10
41.84984243763797
 20
145.4044632225742
 30
0.0
 10
41.84982940879534
 20
147.1452230863601
 30
0.0
 10
41.84981358757408
 20
149.2423893445756
 30
0.0
 10
41.84979467588447
 20
151.7296350849399
 30
0.0
 10
41.84977388932605
 20
154.4452520111736
 30
0.0
 10
41.84975109105194
 20
157.40571394619
 30
0.0
 10
41.84972615304802
 20
160.6273378056131
 30
0.0
 10
41.84970001185552
 20
163.991064933084
 30
0.0
 10
41.84967269485288
 20
167.496403297718
 30
0.0
 10
41.84964436003743
 20
171.1262808103787
 30
0.0
 10
41.84961524596611
 20
174.8548523479218
 30
0.0
 10
41.84958560363939
 20
178.6506530527053
 30
0.0
 10
41.84955547623763
 20
182.4926704396963
 30
0.0
 10
41.84952491067763
 20
186.3621271215708
 30
0.0
 10
41.84949391399376
 20
190.2422056624381
 30
0.0
 10
41.84946259275232
 20
194.1193320344825
 30
0.0
 10
41.84943106934513
 20
197.9835200779244
 30
0.0
 10
41.84939945241185
 20
201.8255737622091
 30
0.0
 10
41.84936793336211
 20
205.6251352124283
 30
0.0
 10
41.84933671774697
 20
209.3546374492028
 30
0.0
 10
41.8493060178157
 20
212.9870924955016
 30
0.0
 10
41.84927596643267
 20
216.5058608297504
 30
0.0
 10
41.84924661090508
 20
219.9016021723719
 30
0.0
 10
41.84921798715278
 20
223.1654520772002
 30
0.0
 10
41.84919012962438
 20
226.2894457045615
 30
0.0
 10
41.84916305185037
 20
229.2683250370009
 30
0.0
 10
41.84913673041009
 20
232.1100675619929
 30
0.0
 10
41.84911096523026
 20
234.8403068955805
 30
0.0
 10
41.84908682520836
 20
237.3502928932126
 30
0.0
 10
41.84906420628396
 20
239.660031772706
 30
0.0
 10
41.84904317352282
 20
241.7711977928853
 30
0.0
 10
41.84902274389209
 20
243.7844411160075
 30
0.0
 10
41.84900284583865
 20
245.6892794679623
 30
0.0
 10
41.84898335050606
 20
247.4778103683288
 30
0.0
 10
41.84896428178604
 20
249.153645251303
 30
0.0
 10
41.84894686421538
 20
250.6214595464049
 30
0.0
 10
41.84893080148074
 20
251.9260244534775
 30
0.0
 10
41.84891591636254
 20
253.0966886326183
 30
0.0
 10
41.84890117743896
 20
254.2146054380309
 30
0.0
 10
41.84888684330289
 20
255.2522542020288
 30
0.0
 10
41.84887422267385
 20
256.1123349336767
 30
0.0
 10
41.84886321665842
 20
256.8111105675034
 30
0.0
 10
41.84885370612626
 20
257.373087236432
 30
0.0
 10
41.84884514548427
 20
257.8488959533547
 30
0.0
 10
41.84883751508396
 20
258.2528364534828
 30
0.0
 10
41.84883359280735
 20
258.4314682956552
 30
0.0
 10
41.84883126348982
 20
258.5365223789478
 30
0.0
  0
SPLINE
  5
F7
330
DE
100
AcDbEntity
  8
$DDT_AUDIT_GENERATED_(6E)
  6
Continuous
 62
     7
100
AcDbSpline
210
0.0
220
0.0
230
1.0
 70
     8
 71
     3
 72
    68
 73
    64
 74
     0
 42
0.0000000000724543
 43
0.0000000001
 40
0.0
 40
0.0
 40
0.0
 40
0.0
 40
0.0205991110972012
 40
0.0401753517389132
 40
0.0586511540779609
 40
0.0761516269319928
 40
0.0928077846348784
 40
0.1084491409132303
 40
0.123390017778407
 40
0.1375409559518141
 40
0.1508539615465237
 40
0.1669663553581806
 40
0.1824381072285258
 40
0.1978079922897892
 40
0.2131445314274829
 40
0.2284473501723487
 40
0.2436808261643745
 40
0.2588161892894232
 40
0.2763152846302869
 40
0.2936426095476121
 40
0.3108543312357602
 40
0.3280683604324164
 40
0.3453224702118706
 40
0.3626196714691444
 40
0.383414372160894
 40
0.4042299000060877
 40
0.4250498728047293
 40
0.445871403539138
 40
0.4666934687294181
 40
0.4875149228106281
 40
0.5083496418001588
 40
0.5292151990721304
 40
0.5501230152146055
 40
0.5710272140120317
 40
0.5915554930739498
 40
0.6115102696372198
 40
0.6308916637932623
 40
0.6497343866326444
 40
0.6680692155897662
 40
0.6781254774552421
 40
0.6880346177810036
 40
0.6982422632856562
 40
0.7097136953254539
 40
0.7224953440825038
 40
0.7334694803391132
 40
0.7452732811162872
 40
0.7579060211717573
 40
0.7713607948597602
 40
0.7856262806408524
 40
0.7998681700710394
 40
0.8148071054289409
 40
0.830436418659559
 40
0.8467516251801573
 40
0.8637463917829172
 40
0.8814091414482025
 40
0.8967317842408606
 40
0.9124570033873081
 40
0.9285427392440084
 40
0.9449523909419929
 40
0.9581165847544452
 40
0.9716096417360808
 40
0.9855321385855043
 40
1.0
 40
1.0
 40
1.0
 40
1.0
 10
18.85116836634704
 20
258.5365235495768
 30
0.0
 10
18.851165437674
 20
258.4062726474215
 30
0.0
 10
18.85116050924176
 20
258.184279624297
 30
0.0
 10
18.85115047893204
 20
257.654932136325
 30
0.0
 10
18.85113900995473
 20
257.0148939294742
 30
0.0
 10
18.85112638438046
 20
256.2454544301593
 30
0.0
 10
18.85111304108438
 20
255.3638597825593
 30
0.0
 10
18.8510991247085
 20
254.3883671032945
 30
0.0
 10
18.85108488174286
 20
253.3428502405954
 30
0.0
 10
18.85107045798235
 20
252.2450668242268
 30
0.0
 10
18.85105475237922
 20
251.0125909280704
 30
0.0
 10
18.85103764864724
 20
249.6224229870222
 30
0.0
 10
18.85101883326266
 20
248.0298328604956
 30
0.0
 10
18.8509995503491
 20
246.3295456503225
 30
0.0
 10
18.85097973054187
 20
244.5048830589469
 30
0.0
 10
18.85095930693495
 20
242.5598367670747
 30
0.0
 10
18.85093813650494
 20
240.5003392406842
 30
0.0
 10
18.85091509638859
 20
238.2206208581804
 30
0.0
 10
18.85089024677095
 20
235.7161200458107
 30
0.0
 10
18.85086360836966
 20
232.9788955590505
 30
0.0
 10
18.85083649755079
 20
230.1395227073913
 30
0.0
 10
18.8508089357679
 20
227.1980325466679
 30
0.0
 10
18.85078097387073
 20
224.1560186229034
 30
0.0
 10
18.85075076236369
 20
220.8121529524463
 30
0.0
 10
18.85071826586463
 20
217.1573231891045
 30
0.0
 10
18.85068348451462
 20
213.1890260055036
 30
0.0
 10
18.85064840503805
 20
209.1392981623113
 30
0.0
 10
18.85061315142587
 20
205.0257078922361
 30
0.0
 10
18.85057782591253
 20
200.8639930178472
 30
0.0
 10
18.85054252138583
 20
196.6684163014997
 30
0.0
 10
18.85050739134279
 20
192.4517921289365
 30
0.0
 10
18.85047257455667
 20
188.2260382318398
 30
0.0
 10
18.85043826331984
 20
184.0071897715755
 30
0.0
 10
18.85040467313056
 20
179.8367251649556
 30
0.0
 10
18.85037208550003
 20
175.7682972879869
 30
0.0
 10
18.85034073140394
 20
171.8500838907205
 30
0.0
 10
18.85031072715205
 20
168.100928399006
 30
0.0
 10
18.85028213407165
 20
164.5225261501935
 30
0.0
 10
18.85025881170698
 20
161.5961628587544
 30
0.0
 10
18.85024030244336
 20
159.2668230330001
 30
0.0
 10
18.8502259574164
 20
157.4570403856845
 30
0.0
 10
18.85021120556044
 20
155.5904731574446
 30
0.0
 10
18.85019544319411
 20
153.5887597397688
 30
0.0
 10
18.85017973135837
 20
151.5840033353775
 30
0.0
 10
18.85016429229044
 20
149.6034296295775
 30
0.0
 10
18.85014933712304
 20
147.6737077441735
 30
0.0
 10
18.85013384415522
 20
145.6594885893066
 30
0.0
 10
18.85011796060687
 20
143.5744182448956
 30
0.0
 10
18.85010216973388
 20
141.4755904486923
 30
0.0
 10
18.85008664790225
 20
139.3802669819115
 30
0.0
 10
18.85007157824118
 20
137.3059560548535
 30
0.0
 10
18.85005686246911
 20
135.2335681978786
 30
0.0
 10
18.8500426663151
 20
133.1797057773789
 30
0.0
 10
18.85002916397016
 20
131.1624525240212
 30
0.0
 10
18.85001726536897
 20
129.3114244901238
 30
0.0
 10
18.85000686648885
 20
127.6318744688419
 30
0.0
 10
18.84999784081206
 20
126.1276947109495
 30
0.0
 10
18.84998966797404
 20
124.7251452031973
 30
0.0
 10
18.84998287868917
 20
123.5408138262792
 30
0.0
 10
18.84997750814768
 20
122.5582330811167
 30
0.0
 10
18.8499736320555
 20
121.7601863858369
 30
0.0
 10
18.84997094345407
 20
121.0494862535355
 30
0.0
 10
18.84997058161548
 20
120.7161659358094
 30
0.0
 10
18.8499704032661
 20
120.5184398868929
 30
0.0
  0
LINE
  5
F8
330
DE
100
AcDbEntity
  8
$DDT_AUDIT_GENERATED_(6E)
  6
Continuous
 62
     7
100
AcDbLine
 10
18.8511829545
 20
258.9702564745
 30
0.0
 11
18.8511831247
 21
258.9754880234
 31
0.0
  0
ARC
  5
F9
330
DE
100
AcDbEntity
  8
$DDT_AUDIT_GENERATED_(6E)
  6
Continuous
 62
     7
100
AcDbCircle
 10
30.3499996998
 20
258.8846818123
 30
0.0
 40
11.50411171531351
100
AcDbArc
 50
358.2639964855
 51
181.7360413009
  0
LINE
  5
FA
330
DE
100
AcDbEntity
  8
$DDT_AUDIT_GENERATED_(78)
  6
Continuous
 62
     7
100
AcDbLine
 10
54.6399999814
 20
243.9717169649
 30
0.0
 11
43.64
 21
243.9717169649
 31
0.0
  0
LINE
  5
FB
330
DE
100
AcDbEntity
  8
$DDT_AUDIT_GENERATED_(78)
  6
Continuous
 62
     7
100
AcDbLine
 10
54.6399999814
 20
273.9717215843
 30
0.0
 11
54.6399999814
 21
243.9717169649
 31
0.0
  0
LINE
  5
FC
330
DE
100
AcDbEntity
  8
$DDT_AUDIT_GENERATED_(78)
  6
Continuous
 62
     7
100
AcDbLine
 10
54.6399999814
 20
245.8217192746
 30
0.0
 11
55.16
 21
245.8217192746
 31
0.0
  0
LINE
  5
FD
330
DE
100
AcDbEntity
  8
$DDT_AUDIT_GENERATED_(78)
  6
Continuous
 62
     7
100
AcDbLine
 10
55.16
 20
272.1217192746
 30
0.0
 11
54.6399999814
 21
272.1217192746
 31
0.0
  0
LINE
  5
FE
330
DE
100
AcDbEntity
  8
$DDT_AUDIT_GENERATED_(78)
  6
Continuous
 62
     7
100
AcDbLine
 10
42.0582319119
 20
243.9717169649
 30
0.0
 11
43.64
 21
243.9717169649
 31
0.0
  0
LINE
  5
FF
330
DE
100
AcDbEntity
  8
$DDT_AUDIT_GENERATED_(78)
  6
Continuous
 62
     7
100
AcDbLine
 10
54.6399999814
 20
273.9717215843
 30
0.0
 11
42.0656905906
 21
273.9717215843
 31
0.0
  0
ELLIPSE
  5
100
330
DE
100
AcDbEntity
  8
$DDT_AUDIT_GENERATED_(7E)
  6
Continuous
 62
     7
100
AcDbEllipse
 10
30.35
 20
117.7646062576
 30
0.0
 11
11.57499999999999
 21
9.436895709313831E-13
 31
0.0
210
0.0
220
0.0
230
1.0
 40
0.985076933
 41
3.141592653589715
 42
6.283185307179586
  0
ELLIPSE
  5
101
330
DE
100
AcDbEntity
  8
$DDT_AUDIT_GENERATED_(7E)
  6
Continuous
 62
     7
100
AcDbEllipse
 10
30.35
 20
120.4926226966
 30
0.0
 11
11.57499999999999
 21
-9.436895709313831E-13
 31
0.0
210
0.0
220
0.0
230
1.0
 40
0.985076933
 41
3.05574605706913
 42
6.283185307179585
  0
ELLIPSE
  5
102
330
DE
100
AcDbEntity
  8
$DDT_AUDIT_GENERATED_(7E)
  6
Continuous
 62
     7
100
AcDbEllipse
 10
30.35
 20
120.4926226966
 30
0.0
 11
11.57499999999999
 21
-9.436895709313831E-13
 31
0.0
210
0.0
220
0.0
230
1.0
 40
0.985076933
 41
0.0
 42
0.1058944600883573
  0
LINE
  5
103
330
DE
100
AcDbEntity
  8
$DDT_AUDIT_GENERATED_(7E)
  6
Continuous
 62
     7
100
AcDbLine
 10
41.925
 20
117.7646062576
 30
0.0
 11
41.925
 21
120.4926226966
 31
0.0
  0
LINE
  5
104
330
DE
100
AcDbEntity
  8
$DDT_AUDIT_GENERATED_(7E)
  6
Continuous
 62
     7
100
AcDbLine
 10
18.775
 20
120.4926226966
 30
0.0
 11
18.775
 21
117.7646062576
 31
0.0
  0
ARC
  5
105
330
DE
100
AcDbEntity
  8
$DDT_AUDIT_GENERATED_(7E)
  6
Continuous
 62
     7
100
AcDbCircle
 10
30.3300251788
 20
117.9463998734
 30
0.0
 40
11.59639987340517
100
AcDbArc
 50
203.9705793158
 51
359.1017528086
  0
SPLINE
  5
106
330
DE
100
AcDbEntity
  8
$DDT_AUDIT_GENERATED_(A3)
  6
Continuous
 62
     7
100
AcDbSpline
210
0.0
220
0.0
230
1.0
 70
     8
 71
     3
 72
    18
 73
    14
 74
     0
 42
0.0000000005922203
 43
0.0000000001
 40
0.0
 40
0.0
 40
0.0
 40
0.0
 40
0.03125
 40
0.0625
 40
0.125
 40
0.1875
 40
0.25
 40
0.28125
 40
0.3125
 40
0.375
 40
0.4375
 40
0.5
 40
0.5370819305192664
 40
0.5370819305192664
 40
0.5370819305192664
 40
0.5370819305192664
 10
79.1208449190783
 20
258.9717192743266
 30
0.0
 10
79.1208455317789
 20
259.1473317991679
 30
0.0
 10
79.0882757153497
 20
259.4983890192746
 30
0.0
 10
78.9069471867022
 20
260.1908459459563
 30
0.0
 10
78.4888087095919
 20
261.0215479566219
 30
0.0
 10
77.76516832038169
 20
261.9088193606696
 30
0.0
 10
77.04759792928749
 20
262.5121694494396
 30
0.0
 10
76.44710317324649
 20
262.8862742389304
 30
0.0
 10
75.83126905235738
 20
263.1932130656211
 30
0.0
 10
75.03671455159281
 20
263.460876078873
 30
0.0
 10
74.05670373142499
 20
263.6285292084977
 30
0.0
 10
73.19786176414554
 20
263.6680110840921
 30
0.0
 10
72.66999617759865
 20
263.6544046977975
 30
0.0
 10
72.47387150589648
 20
263.6429646266879
 30
0.0
  0
ARC
  5
107
330
DE
100
AcDbEntity
  8
$DDT_AUDIT_GENERATED_(A3)
  6
Continuous
 62
     7
100
AcDbCircle
 10
86.7820805341
 20
256.4841207917
 30
0.0
 40
7.835526727728012
100
AcDbArc
 50
88.3417441932
 51
91.8132646261
  0
SPLINE
  5
108
330
DE
100
AcDbEntity
  8
$DDT_AUDIT_GENERATED_(A3)
  6
Continuous
 62
     7
100
AcDbSpline
210
0.0
220
0.0
230
1.0
 70
     8
 71
     3
 72
    57
 73
    53
 74
     0
 42
0.000000001085607
 43
0.0000000001
 40
0.0
 40
0.0
 40
0.0
 40
0.0
 40
0.0310630153656419
 40
0.0624195823784943
 40
0.0702285980344424
 40
0.0780408187720844
 40
0.0936723043842012
 40
0.1249319331323761
 40
0.1405449144362671
 40
0.1561528172341691
 40
0.1873711130926964
 40
0.2186082903339965
 40
0.2264215115820197
 40
0.2342350700666163
 40
0.2498600620096493
 40
0.2654769749910524
 40
0.2810864715178392
 40
0.312297511898165
 40
0.3747311895201693
 40
0.3903514492764094
 40
0.3981624033867433
 40
0.405973848250775
 40
0.4215975579476741
 40
0.437221464671511
 40
0.4528438854490787
 40
0.4684636988210243
 40
0.4840829615681757
 40
0.4918925614688524
 40
0.4997021006956945
 40
0.5309382674457341
 40
0.546556515744417
 40
0.5543655257867575
 40
0.5621743808889196
 40
0.577791416573131
 40
0.5934077384914909
 40
0.6090237831323729
 40
0.6246395322101156
 40
0.749442189963211
 40
0.7806659591722694
 40
0.7962803591719376
 40
0.8118994579354282
 40
0.8197095245656423
 40
0.8275190956184607
 40
0.8431342653887548
 40
0.8743684882811503
 40
0.9056373974081157
 40
0.9134523499367375
 40
0.921259180967185
 40
0.9368082891821297
 40
0.9523509228740574
 40
0.9679928327248619
 40
1.0
 40
1.0
 40
1.0
 40
1.0
 10
93.58342017882879
 20
258.9717192743266
 30
0.0
 10
93.58028399853782
 20
259.0725851232466
 30
0.0
 10
93.57398200043102
 20
259.2752700233353
 30
0.0
 10
93.5374924560187
 20
259.5003981169444
 30
0.0
 10
93.50590062363648
 20
259.6488178944585
 30
0.0
 10
93.48264807741418
 20
259.746976394758
 30
0.0
 10
93.43651930691149
 20
259.917142785251
 30
0.0
 10
93.37211751348423
 20
260.1075018638914
 30
0.0
 10
93.29770969651749
 20
260.2930227188945
 30
0.0
 10
93.21712376620289
 20
260.4752491198795
 30
0.0
 10
93.10550994525046
 20
260.6970010182681
 30
0.0
 10
92.99381299269022
 20
260.8891528663355
 30
0.0
 10
92.91528646710596
 20
261.0142425904477
 30
0.0
 10
92.86187263648188
 20
261.0968558937258
 30
0.0
 10
92.79322467229198
 20
261.1986010176296
 30
0.0
 10
92.70804271918378
 20
261.3182987678464
 30
0.0
 10
92.59097869080287
 20
261.4747059392026
 30
0.0
 10
92.37737911138468
 20
261.7402712701846
 30
0.0
 10
92.14811388193905
 20
261.9900577867853
 30
0.0
 10
91.95981904535425
 20
262.1762401788332
 30
0.0
 10
91.89043741664898
 20
262.2429068513933
 30
0.0
 10
91.82048531128814
 20
262.3088630975441
 30
0.0
 10
91.73200557356404
 20
262.3899726961154
 30
0.0
 10
91.62424416339357
 20
262.4851696059309
 30
0.0
 10
91.51496299928685
 20
262.578236077348
 30
0.0
 10
91.40421773225282
 20
262.6691777047541
 30
0.0
 10
91.31074920677382
 20
262.7431817907014
 30
0.0
 10
91.23528724980795
 20
262.8013120422863
 30
0.0
 10
91.12142148774113
 20
262.8874268388226
 30
0.0
 10
90.98659832140798
 20
262.9847391869248
 30
0.0
 10
90.84951257692911
 20
263.0781150236826
 30
0.0
 10
90.77054084301056
 20
263.1303319059203
 30
0.0
 10
90.69115234425793
 20
263.1817799942784
 30
0.0
 10
90.5911395077249
 20
263.2446400426802
 30
0.0
 10
90.46991286347983
 20
263.3177153718482
 30
0.0
 10
90.34749983962595
 20
263.3883995698934
 30
0.0
 10
89.93601104923759
 20
263.6157406980617
 30
0.0
 10
89.46376786635518
 20
263.8256699217357
 30
0.0
 10
88.97782608753069
 20
263.9865701729153
 30
0.0
 10
88.79954401556938
 20
264.0398147379871
 30
0.0
 10
88.68752846136066
 20
264.0708781398039
 30
0.0
 10
88.59758806800366
 20
264.0943953295456
 30
0.0
 10
88.50745432293866
 20
264.1170179518795
 30
0.0
 10
88.34920973081445
 20
264.1542634765322
 30
0.0
 10
88.12166405263233
 20
264.2008022044396
 30
0.0
 10
87.91543920050215
 20
264.2346702165518
 30
0.0
 10
87.77747777196998
 20
264.2539179917964
 30
0.0
 10
87.68565278117607
 20
264.2658274340737
 30
0.0
 10
87.5708471514281
 20
264.2790642111038
 30
0.0
 10
87.43262930834747
 20
264.2922844422523
 30
0.0
 10
87.24542895198589
 20
264.3069565594768
 30
0.0
 10
87.10389622026565
 20
264.3125851766512
 30
0.0
 10
87.0088248759224
 20
264.3163660702655
 30
0.0
  0
SPLINE
  5
109
330
DE
100
AcDbEntity
  8
$DDT_AUDIT_GENERATED_(A3)
  6
Continuous
 62
     7
100
AcDbSpline
210
0.0
220
0.0
230
1.0
 70
     8
 71
     5
 72
    18
 73
    12
 74
     0
 42
0.0000000009674586
 43
0.0000000001
 40
0.0
 40
0.0
 40
0.0
 40
0.0
 40
0.0
 40
0.0
 40
0.25
 40
0.375
 40
0.5
 40
0.625
 40
0.75
 40
0.875
 40
1.0
 40
1.0
 40
1.0
 40
1.0
 40
1.0
 40
1.0
 10
85.4518042253175
 20
272.1086635524004
 30
0.0
 10
86.07452866999091
 20
271.6685610165557
 30
0.0
 10
86.9343996427272
 20
270.8946669949896
 30
0.0
 10
87.85349914834178
 20
269.6939917333746
 30
0.0
 10
88.52434895666059
 20
268.1033793897006
 30
0.0
 10
88.7288070037403
 20
266.4366174268378
 30
0.0
 10
88.50334630197571
 20
265.3387118287052
 30
0.0
 10
87.9790522165276
 20
264.636111215249
 30
0.0
 10
87.44885807125699
 20
264.3932077675372
 30
0.0
 10
87.00457169914542
 20
264.3376127988046
 30
0.0
 10
86.6939701921732
 20
264.3231205950928
 30
0.0
 10
86.53414757972233
 20
264.3157239705092
 30
0.0
  0
ARC
  5
10A
330
DE
100
AcDbEntity
  8
$DDT_AUDIT_GENERATED_(A3)
  6
Continuous
 62
     7
100
AcDbCircle
 10
91.8627947564
 20
258.9697114696
 30
0.0
 40
14.98268480977029
100
AcDbArc
 50
140.0830066377
 51
160.6382442805
  0
SPLINE
  5
10B
330
DE
100
AcDbEntity
  8
$DDT_AUDIT_GENERATED_(A3)
  6
Continuous
 62
     7
100
AcDbSpline
210
0.0
220
0.0
230
1.0
 70
     8
 71
     3
 72
    18
 73
    14
 74
     0
 42
0.0000000005922203
 43
0.0000000001
 40
0.4629180694807331
 40
0.4629180694807331
 40
0.4629180694807331
 40
0.4629180694807331
 40
0.5
 40
0.5625
 40
0.625
 40
0.6875
 40
0.71875
 40
0.75
 40
0.8125
 40
0.875
 40
0.9375
 40
0.96875
 40
1.0
 40
1.0
 40
1.0
 40
1.0
 10
72.47387150589647
 20
254.3004739219652
 30
0.0
 10
72.66999617759865
 20
254.2890338508557
 30
0.0
 10
73.19786176414554
 20
254.275427464561
 30
0.0
 10
74.05670373142499
 20
254.3149093401554
 30
0.0
 10
75.03671455159281
 20
254.4825624697802
 30
0.0
 10
75.83126905235738
 20
254.7502254830321
 30
0.0
 10
76.44710317324649
 20
255.0571643097228
 30
0.0
 10
77.04759792928749
 20
255.4312690992136
 30
0.0
 10
77.76516832038169
 20
256.0346191879835
 30
0.0
 10
78.4888087095919
 20
256.9218905920312
 30
0.0
 10
78.9069471867022
 20
257.7525926026969
 30
0.0
 10
79.0882757153497
 20
258.4450495293785
 30
0.0
 10
79.1208455317789
 20
258.7961067494852
 30
0.0
 10
79.1208449190783
 20
258.9717192743266
 30
0.0
  0
ARC
  5
10C
330
DE
100
AcDbEntity
  8
$DDT_AUDIT_GENERATED_(A3)
  6
Continuous
 62
     7
100
AcDbCircle
 10
86.7826574364
 20
261.8857973313
 30
0.0
 40
8.261821101068136
100
AcDbArc
 50
268.2763226478
 51
271.5686685329
  0
SPLINE
  5
10D
330
DE
100
AcDbEntity
  8
$DDT_AUDIT_GENERATED_(A3)
  6
Continuous
 62
     7
100
AcDbSpline
210
0.0
220
0.0
230
1.0
 70
     8
 71
     3
 72
    29
 73
    25
 74
     0
 42
0.0000000010844901
 43
0.0000000001
 40
0.0
 40
0.0
 40
0.0
 40
0.0
 40
0.1310503745159732
 40
0.1310503745159732
 40
0.1965755617739597
 40
0.1965755617739597
 40
0.2621007490319463
 40
0.2621007490319463
 40
0.3931511235479195
 40
0.3931511235479195
 40
0.458676310805906
 40
0.458676310805906
 40
0.5242014980638926
 40
0.5897266853218792
 40
0.5897266853218792
 40
0.6552518725798657
 40
0.6552518725798657
 40
0.786302247095839
 40
0.786302247095839
 40
0.8518274343538255
 40
0.8518274343538255
 40
0.9173526216118121
 40
0.9173526216118121
 40
1.0
 40
1.0
 40
1.0
 40
1.0
 10
93.58342017882879
 20
258.9717192743266
 30
0.0
 10
93.5833099287843
 20
258.5456313885857
 30
0.0
 10
93.4856183771455
 20
258.1253677074274
 30
0.0
 10
93.2543993356218
 20
257.540991250493
 30
0.0
 10
93.16322601816799
 20
257.3532263038387
 30
0.0
 10
92.959234278881
 20
256.9923285978876
 30
0.0
 10
92.8466044723906
 20
256.8189624531183
 30
0.0
 10
92.48677527089261
 20
256.3196298169707
 30
0.0
 10
92.2164948447328
 20
256.0142372296592
 30
0.0
 10
91.78047733395381
 20
255.5942300730401
 30
0.0
 10
91.6300415209782
 20
255.4605314382295
 30
0.0
 10
91.3210055383841
 20
255.2054856462793
 30
0.0
 10
91.0035160513292
 20
254.9628433120849
 30
0.0
 10
90.67077897685108
 20
254.7462002232493
 30
0.0
 10
90.3311163752476
 20
254.543470697053
 30
0.0
 10
90.1577960899822
 20
254.449074181419
 30
0.0
 10
89.62869730482758
 20
254.1878709433088
 30
0.0
 10
89.2636235275874
 20
254.0432268186554
 30
0.0
 10
88.7033018481225
 20
253.8742714686688
 30
0.0
 10
88.5142791939448
 20
253.8255973434637
 30
0.0
 10
88.1337216936084
 20
253.7443074657404
 30
0.0
 10
87.94134663079828
 20
253.7110137230562
 30
0.0
 10
87.5048657500764
 20
253.6545218045004
 30
0.0
 10
87.26586191448257
 20
253.634409686859
 30
0.0
 10
87.0088248759226
 20
253.6270724783877
 30
0.0
  0
LINE
  5
10E
330
DE
100
AcDbEntity
  8
$DDT_AUDIT_GENERATED_(A3)
  6
Continuous
 62
     7
100
AcDbLine
 10
55.16
 20
243.9717491418
 30
0.0
 11
55.16
 21
258.9717192766
 31
0.0
  0
LINE
  5
10F
330
DE
100
AcDbEntity
  8
$DDT_AUDIT_GENERATED_(A3)
  6
Continuous
 62
     7
100
AcDbLine
 10
55.16
 20
273.9716894068
 30
0.0
 11
55.16
 21
258.9717192708
 31
0.0
  0
ARC
  5
110
330
DE
100
AcDbEntity
  8
$DDT_AUDIT_GENERATED_(A3)
  6
Continuous
 62
     7
100
AcDbCircle
 10
88.1535590686
 20
262.8617694386
 30
0.0
 40
9.633510781894177
100
AcDbArc
 50
106.287291619
 51
140.8298990183
  0
SPLINE
  5
111
330
DE
100
AcDbEntity
  8
$DDT_AUDIT_GENERATED_(A3)
  6
Continuous
 62
     7
100
AcDbSpline
210
0.0
220
0.0
230
1.0
 70
     8
 71
     3
 72
    14
 73
    10
 74
     0
 42
0.0000000006116931
 43
0.0000000001
 40
0.0
 40
0.0
 40
0.0
 40
0.0
 40
0.0457551113076618
 40
0.0872727850840153
 40
0.1244364471153531
 40
0.1891591488015049
 40
0.2498605939639102
 40
0.3797002797558207
 40
0.3837352605411199
 40
0.3837352605411199
 40
0.3837352605411199
 40
0.3837352605411199
 10
86.1368189220521
 20
272.2376828481405
 30
0.0
 10
86.37569669845361
 20
272.2620730683928
 30
0.0
 10
86.8313463350322
 20
272.3086071420676
 30
0.0
 10
87.48264315174752
 20
272.2898627038453
 30
0.0
 10
88.22978395031822
 20
272.2047499058498
 30
0.0
 10
89.07040220946303
 20
272.0045177343875
 30
0.0
 10
90.35781130389148
 20
271.499975211898
 30
0.0
 10
91.29164774045879
 20
270.8956621144469
 30
0.0
 10
91.89293570387083
 20
270.3853355950429
 30
0.0
 10
91.911020730376
 20
270.3698688467441
 30
0.0
  0
SPLINE
  5
112
330
DE
100
AcDbEntity
  8
$DDT_AUDIT_GENERATED_(A3)
  6
Continuous
 62
     7
100
AcDbSpline
210
0.0
220
0.0
230
1.0
 70
     8
 71
     5
 72
    18
 73
    12
 74
     0
 42
0.0000000009674586
 43
0.0000000001
 40
0.0
 40
0.0
 40
0.0
 40
0.0
 40
0.0
 40
0.0
 40
0.25
 40
0.375
 40
0.5
 40
0.625
 40
0.75
 40
0.875
 40
1.0
 40
1.0
 40
1.0
 40
1.0
 40
1.0
 40
1.0
 10
85.45180422531753
 20
245.8347749962528
 30
0.0
 10
86.07452866999091
 20
246.2748775320975
 30
0.0
 10
86.9343996427272
 20
247.0487715536636
 30
0.0
 10
87.85349914834178
 20
248.2494468152786
 30
0.0
 10
88.52434895666059
 20
249.8400591589526
 30
0.0
 10
88.7288070037403
 20
251.5068211218154
 30
0.0
 10
88.50334630197571
 20
252.6047267199479
 30
0.0
 10
87.9790522165276
 20
253.3073273334042
 30
0.0
 10
87.44885807125699
 20
253.5502307811159
 30
0.0
 10
87.00457169914542
 20
253.6058257498485
 30
0.0
 10
86.6939701921732
 20
253.6203179535604
 30
0.0
 10
86.53414757972233
 20
253.627714578144
 30
0.0
  0
ARC
  5
113
330
DE
100
AcDbEntity
  8
$DDT_AUDIT_GENERATED_(A3)
  6
Continuous
 62
     7
100
AcDbCircle
 10
91.8618398697
 20
258.9733802394
 30
0.0
 40
14.9817298806063
100
AcDbArc
 50
199.3616595766
 51
219.9183193184
  0
ARC
  5
114
330
DE
100
AcDbEntity
  8
$DDT_AUDIT_GENERATED_(A3)
  6
Continuous
 62
     7
100
AcDbCircle
 10
88.1531151333
 20
255.0809998876
 30
0.0
 40
9.632743916632643
100
AcDbArc
 50
219.1686828535
 51
253.7141265864
  0
SPLINE
  5
115
330
DE
100
AcDbEntity
  8
$DDT_AUDIT_GENERATED_(A3)
  6
Continuous
 62
     7
100
AcDbSpline
210
0.0
220
0.0
230
1.0
 70
     8
 71
     3
 72
    13
 73
     9
 74
     0
 42
0.0000000006113411
 43
0.0000000001
 40
0.6162930364000414
 40
0.6162930364000414
 40
0.6162930364000414
 40
0.6162930364000414
 40
0.620364881268161
 40
0.7501951400798094
 40
0.810887258569504
 40
0.8756069629497729
 40
0.9329719646806252
 40
1.0
 40
1.0
 40
1.0
 40
1.0
 10
91.9115583325561
 20
247.5740358284719
 30
0.0
 10
91.89330759052483
 20
247.5584260547649
 30
0.0
 10
91.29186846218087
 20
247.0479689074325
 30
0.0
 10
90.35787406255741
 20
246.4438255920033
 30
0.0
 10
89.07035042107145
 20
245.9383758740967
 30
0.0
 10
88.12556759483297
 20
245.715991223151
 30
0.0
 10
87.13758355927432
 20
245.6178833609911
 30
0.0
 10
86.48723779323444
 20
245.6749958250262
 30
0.0
 10
86.13681492322844
 20
245.7057792605162
 30
0.0
  0
SPLINE
  5
116
330
DE
100
AcDbEntity
  8
$DDT_AUDIT_GENERATED_(A3)
  6
Continuous
 62
     7
100
AcDbSpline
210
0.0
220
0.0
230
1.0
 70
     8
 71
     3
 72
    23
 73
    19
 74
     0
 42
0.0000000011328801
 43
0.0000000001
 40
0.0
 40
0.0
 40
0.0
 40
0.0
 40
0.0574414651632824
 40
0.1261275881235865
 40
0.1798704719884747
 40
0.218499141952389
 40
0.2466392399730353
 40
0.308885244708778
 40
0.3924731060190948
 40
0.4748856686066187
 40
0.579026735106609
 40
0.6693545207567417
 40
0.7230429402594949
 40
0.7989713499339748
 40
0.8439689120341932
 40
0.8926900943892105
 40
0.9446162823894267
 40
1.0
 40
1.0
 40
1.0
 40
1.0
 10
71.3907614439482
 20
263.5562136771241
 30
0.0
 10
71.21335712391927
 20
263.5377018334791
 30
0.0
 10
70.8844967064013
 20
263.5024614432579
 30
0.0
 10
70.37308608702048
 20
263.4197891230722
 30
0.0
 10
69.93058990990389
 20
263.3310499550952
 30
0.0
 10
69.59948166956312
 20
263.2528248193688
 30
0.0
 10
69.23989551922278
 20
263.1580110657989
 30
0.0
 10
68.75399431406416
 20
263.010491592953
 30
0.0
 10
68.13488601067023
 20
262.7790956205935
 30
0.0
 10
67.42755299251603
 20
262.4509658098511
 30
0.0
 10
66.73290996550183
 20
262.044355559193
 30
0.0
 10
66.14018587937281
 20
261.5972222973521
 30
0.0
 10
65.64548667776363
 20
261.1370715210276
 30
0.0
 10
65.29211088147366
 20
260.7310739665504
 30
0.0
 10
65.00040077518588
 20
260.2986244302173
 30
0.0
 10
64.79619827199103
 20
259.9052004767192
 30
0.0
 10
64.63647394471464
 20
259.4471651934907
 30
0.0
 10
64.61325580307538
 20
259.15142221999
 30
0.0
 10
64.60136079953473
 20
258.9716662022167
 30
0.0
  0
ARC
  5
117
330
DE
100
AcDbEntity
  8
$DDT_AUDIT_GENERATED_(A3)
  6
Continuous
 62
     7
100
AcDbCircle
 10
73.7610522178
 20
239.6477556148
 30
0.0
 40
24.02970959299669
100
AcDbArc
 50
93.0700199811
 51
95.6231812371
  0
ARC
  5
118
330
DE
100
AcDbEntity
  8
$DDT_AUDIT_GENERATED_(A3)
  6
Continuous
 62
     7
100
AcDbCircle
 10
105.7469124062
 20
-284.2540526071
 30
0.0
 40
548.9063870891356
100
AcDbArc
 50
92.0232207568
 51
93.4751996382
  0
ARC
  5
119
330
DE
100
AcDbEntity
  8
$DDT_AUDIT_GENERATED_(A3)
  6
Continuous
 62
     7
100
AcDbCircle
 10
81.8667938489
 20
258.6554706355
 30
0.0
 40
15.43084084831452
100
AcDbArc
 50
1.1743348055
 51
49.397615095
  0
SPLINE
  5
11A
330
DE
100
AcDbEntity
  8
$DDT_AUDIT_GENERATED_(A3)
  6
Continuous
 62
     7
100
AcDbSpline
210
0.0
220
0.0
230
1.0
 70
     8
 71
     3
 72
    25
 73
    21
 74
     0
 42
0.0000000011341169
 43
0.0000000001
 40
0.0
 40
0.0
 40
0.0
 40
0.0
 40
0.0569912817619471
 40
0.1090364510428983
 40
0.156176984897535
 40
0.1976594023354542
 40
0.242673065377203
 40
0.2744959301779508
 40
0.2944552378700119
 40
0.3426765783449144
 40
0.4094469338382399
 40
0.4821874115027521
 40
0.5801889640005793
 40
0.6639234423544761
 40
0.6893121116706664
 40
0.7263196792375469
 40
0.7787138724021584
 40
0.8463970683734227
 40
0.9291086606470029
 40
1.0
 40
1.0
 40
1.0
 40
1.0
 10
64.60135741540135
 20
258.9717725980911
 30
0.0
 10
64.61406541429346
 20
258.7860872529538
 30
0.0
 10
64.63849100594351
 20
258.4843004438259
 30
0.0
 10
64.80217333872034
 20
258.0247791732688
 30
0.0
 10
65.0013673544083
 20
257.6440619923729
 30
0.0
 10
65.23093513795686
 20
257.3017758105236
 30
0.0
 10
65.46016518605232
 20
257.0185042002144
 30
0.0
 10
65.66360305872448
 20
256.7998489061463
 30
0.0
 10
65.88093407446186
 20
256.5854343572711
 30
0.0
 10
66.18311323302204
 20
256.3169654823973
 30
0.0
 10
66.63228299919503
 20
255.976261516126
 30
0.0
 10
67.23623846631088
 20
255.597224569482
 30
0.0
 10
67.88998897222623
 20
255.2688758173999
 30
0.0
 10
68.43618672187092
 20
255.0498598398764
 30
0.0
 10
68.83106202180213
 20
254.9128895326308
 30
0.0
 10
69.1383100707302
 20
254.8153302731236
 30
0.0
 10
69.56507063142386
 20
254.6966141536738
 30
0.0
 10
70.12153220721433
 20
254.5695042230352
 30
0.0
 10
70.75566122895513
 20
254.4572662184685
 30
0.0
 10
71.16141770188915
 20
254.4126706951021
 30
0.0
 10
71.38338845822916
 20
254.3890774056565
 30
0.0
  0
ARC
  5
11B
330
DE
100
AcDbEntity
  8
$DDT_AUDIT_GENERATED_(A3)
  6
Continuous
 62
     7
100
AcDbCircle
 10
73.7610522178
 20
278.2956829339
 30
0.0
 40
24.02970959300376
100
AcDbArc
 50
264.3768187629
 51
266.9299800189
  0
ARC
  5
11C
330
DE
100
AcDbEntity
  8
$DDT_AUDIT_GENERATED_(A3)
  6
Continuous
 62
     7
100
AcDbCircle
 10
106.0141371152
 20
808.62507608
 30
0.0
 40
555.3383643386028
100
AcDbArc
 50
266.5374786758
 51
267.9731422531
  0
LINE
  5
11D
330
DE
100
AcDbEntity
  8
$DDT_AUDIT_GENERATED_(A3)
  6
Continuous
 62
     7
100
AcDbLine
 10
80.7057697879
 20
273.9717005925
 30
0.0
 11
55.16
 21
273.9716894068
 31
0.0
  0
SPLINE
  5
11E
330
DE
100
AcDbEntity
  8
$DDT_AUDIT_GENERATED_(A3)
  6
Continuous
 62
     7
100
AcDbSpline
210
0.0
220
0.0
230
1.0
 70
     8
 71
     3
 72
    11
 73
     7
 74
     0
 42
0.0000000018176401
 43
0.0000000001
 40
0.0
 40
0.0
 40
0.0
 40
0.0
 40
0.2793820660343532
 40
0.5592242218070628
 40
0.7796015072881557
 40
1.0
 40
1.0
 40
1.0
 40
1.0
 10
86.13682095354349
 20
273.4349360411053
 30
0.0
 10
85.58996854313914
 20
273.5689188220277
 30
0.0
 10
84.66265651684989
 20
273.7901501708869
 30
0.0
 10
83.21759514990126
 20
273.9325629215795
 30
0.0
 10
81.87903566116688
 20
273.9714054761445
 30
0.0
 10
81.1291058561744
 20
273.9729286796933
 30
0.0
 10
80.6849479699414
 20
273.9717133466285
 30
0.0
  0
ARC
  5
11F
330
DE
100
AcDbEntity
  8
$DDT_AUDIT_GENERATED_(A3)
  6
Continuous
 62
     7
100
AcDbCircle
 10
82.1599909069
 20
258.9717242324
 30
0.0
 40
14.99999986334606
100
AcDbArc
 50
285.3998045035
 51
310.5711863561
  0
ARC
  5
120
330
DE
100
AcDbEntity
  8
$DDT_AUDIT_GENERATED_(A3)
  6
Continuous
 62
     7
100
AcDbCircle
 10
82.1599909069
 20
258.9717242324
 30
0.0
 40
14.99999986334607
100
AcDbArc
 50
49.4339046743
 51
74.6152215888
  0
ARC
  5
121
330
DE
100
AcDbEntity
  8
$DDT_AUDIT_GENERATED_(A3)
  6
Continuous
 62
     7
100
AcDbCircle
 10
81.8724762098
 20
259.285283575
 30
0.0
 40
15.4251048802325
100
AcDbArc
 50
310.5928487355
 51
358.835201364
  0
LINE
  5
122
330
DE
100
AcDbEntity
  8
$DDT_AUDIT_GENERATED_(A3)
  6
Continuous
 62
     7
100
AcDbLine
 10
55.16
 20
243.9717491418
 30
0.0
 11
80.7008280265
 21
243.9717379584
 31
0.0
  0
SPLINE
  5
123
330
DE
100
AcDbEntity
  8
$DDT_AUDIT_GENERATED_(A3)
  6
Continuous
 62
     7
100
AcDbSpline
210
0.0
220
0.0
230
1.0
 70
     8
 71
     3
 72
    11
 73
     7
 74
     0
 42
0.0000000018179069
 43
0.0000000001
 40
0.0
 40
0.0
 40
0.0
 40
0.0
 40
0.2804979046298893
 40
0.560757424031381
 40
0.7804660282409479
 40
1.0
 40
1.0
 40
1.0
 40
1.0
 10
80.68494796993798
 20
243.9717252020265
 30
0.0
 10
81.25025851565266
 20
243.9692479198982
 30
0.0
 10
82.20433688210557
 20
243.9723708859858
 30
0.0
 10
83.65420273228125
 20
244.0412022295758
 30
0.0
 10
84.98130622980327
 20
244.2214066397565
 30
0.0
 10
85.70783277061625
 20
244.4001955641035
 30
0.0
 10
86.13682095354022
 20
244.5085025075483
 30
0.0
  0
ENDBLK
  5
125
330
DE
100
AcDbEntity
  8
0
100
AcDbBlockEnd
  0
ENDSEC
  0
SECTION
  2
ENTITIES
  0
INSERT
  5
5F
330
1F
100
AcDbEntity
  8
Default
100
AcDbBlockReference
  2
SE
 10
0.0
 20
0.0
 30
0.0
  0
INSERT
  5
BB
330
1F
100
AcDbEntity
  8
Default
100
AcDbBlockReference
  2
SE1
 10
0.0
 20
0.0
 30
0.0
  0
INSERT
  5
DF
330
1F
100
AcDbEntity
  8
Default
100
AcDbBlockReference
  2
SE2
 10
0.0
 20
0.0
 30
0.0
  0
TEXT
  5
127
330
1F
100
AcDbEntity
  8
Default
  6
Continuous
 62
     7
100
AcDbText
 10
5.9362635081
 20
53.4225120485
 30
0.0
 40
10.0
  1
Grohe AG^J
  7
SEACAD_seiso_ttf
 11
5.9362635081
 21
63.4225120485
 31
0.0
100
AcDbText
 73
     3
  0
TEXT
  5
128
330
1F
100
AcDbEntity
  8
Default
  6
Continuous
 62
     7
100
AcDbText
 10
5.9362635081
 20
37.0588756849
 30
0.0
 40
10.0
  1
 
  7
SEACAD_seiso_ttf
 11
5.9362635081
 21
47.0588756849
 31
0.0
100
AcDbText
 73
     3
  0
TEXT
  5
129
330
1F
100
AcDbEntity
  8
Default
  6
Continuous
 62
     7
100
AcDbText
 10
5.9362635081
 20
20.6952393213
 30
0.0
 40
10.0
  1
ecn: 
  7
SEACAD_seiso_ttf
 11
5.9362635081
 21
30.6952393213
 31
0.0
100
AcDbText
 73
     3
  0
TEXT
  5
12A
330
1F
100
AcDbEntity
  8
Default
  6
Continuous
 62
     7
100
AcDbText
 10
5.9362635081
 20
4.3316029576
 30
0.0
 40
10.0
  1
unit: mm
  7
SEACAD_seiso_ttf
 11
5.9362635081
 21
14.3316029576
 31
0.0
100
AcDbText
 73
     3
  0
LINE
  5
12B
330
1F
100
AcDbEntity
  8
Default
  6
Continuous
 62
     7
100
AcDbLine
 10
0.0
 20
0.0
 30
0.0
 11
100.0
 21
0.0
 31
0.0
  0
LINE
  5
12C
330
1F
100
AcDbEntity
  8
Default
  6
Continuous
 62
     7
100
AcDbLine
 10
0.0
 20
0.0
 30
0.0
 11
0.0
 21
100.0
 31
0.0
  0
TEXT
  5
12D
330
1F
100
AcDbEntity
  8
Default
  6
Continuous
 62
     7
100
AcDbText
 10
24.3923665681
 20
-18.2375342018
 30
0.0
 40
10.0
  1
100 mm
  7
SEACAD_seiso_ttf
 11
24.3923665681
 21
-8.2375342018
 31
0.0
100
AcDbText
 73
     3
  0
TEXT
  5
12E
330
1F
100
AcDbEntity
  8
Default
  6
Continuous
 62
     7
100
AcDbText
 10
-7.6150308803
 20
24.6231930421
 30
0.0
 40
10.0
  1
100 mm
 50
90.0
  7
SEACAD_seiso_ttf
 11
-17.6150308803
 21
24.6231930421
 31
0.0
100
AcDbText
 73
     3
  0
TEXT
  5
12F
330
1F
100
AcDbEntity
  8
Default
  6
Continuous
 62
     7
100
AcDbText
 10
28.4878128572
 20
20.0907663715
 30
0.0
 40
10.0
  1
216144
  7
SEACAD_seiso_ttf
 11
28.4878128572
 21
30.0907663715
 31
0.0
100
AcDbText
 73
     3
  0
TEXT
  5
130
330
1F
100
AcDbEntity
  8
Default
  6
Continuous
 62
     7
100
AcDbText
 10
5.9012241913
 20
36.7242780188
 30
0.0
 40
10.0
  1
30026000
  7
SEACAD_seiso_ttf
 11
5.9012241913
 21
46.7242780188
 31
0.0
100
AcDbText
 73
     3
  0
ENDSEC
  0
SECTION
  2
OBJECTS
  0
DICTIONARY
  5
C
330
0
100
AcDbDictionary
281
     1
  3
ACAD_GROUP
350
D
  3
ACAD_LAYOUT
350
1A
  3
ACAD_MLEADERSTYLE
350
134
  3
ACAD_MLINESTYLE
350
17
  3
ACAD_PLOTSETTINGS
350
19
  3
ACAD_PLOTSTYLENAME
350
E
  3
ACAD_SCALELIST
350
3B
  3
ACAD_TABLESTYLE
350
133
  3
ACAD_VISUALSTYLE
350
2A
  3
AcDbVariableDictionary
350
131
  0
DICTIONARY
  5
D
102
{ACAD_REACTORS
330
C
102
}
330
C
100
AcDbDictionary
281
     1
  0
DICTIONARY
  5
1A
102
{ACAD_REACTORS
330
C
102
}
330
C
100
AcDbDictionary
281
     1
  3
Layout1
350
1E
  3
Model
350
22
  0
DICTIONARY
  5
134
102
{ACAD_REACTORS
330
C
102
}
330
C
100
AcDbDictionary
281
     1
  0
DICTIONARY
  5
17
102
{ACAD_REACTORS
330
C
102
}
330
C
100
AcDbDictionary
281
     1
  3
Standard
350
18
  0
DICTIONARY
  5
19
102
{ACAD_REACTORS
330
C
102
}
330
C
100
AcDbDictionary
281
     1
  0
ACDBDICTIONARYWDFLT
  5
E
102
{ACAD_REACTORS
330
C
102
}
330
C
100
AcDbDictionary
281
     1
  3
Normal
350
F
100
AcDbDictionaryWithDefault
340
F
  0
DICTIONARY
  5
3B
102
{ACAD_REACTORS
330
C
102
}
330
C
100
AcDbDictionary
281
     1
  3
A0
350
3C
  3
A1
350
3D
  3
A2
350
3E
  3
A3
350
3F
  3
A4
350
40
  3
A5
350
41
  3
A6
350
42
  3
A7
350
43
  3
A8
350
44
  3
A9
350
45
  3
B0
350
46
  3
B1
350
47
  3
B2
350
48
  3
B3
350
49
  3
B4
350
4A
  3
B5
350
4B
  3
B6
350
4C
  3
B7
350
4D
  3
B8
350
4E
  3
B9
350
4F
  3
C0
350
50
  3
C1
350
51
  3
C2
350
52
  3
C3
350
53
  3
C4
350
54
  3
C5
350
55
  3
C6
350
56
  3
C7
350
57
  3
C8
350
58
  3
C9
350
59
  3
D0
350
5A
  3
D1
350
5B
  3
D2
350
5C
  0
DICTIONARY
  5
133
102
{ACAD_REACTORS
330
C
102
}
330
C
100
AcDbDictionary
281
     1
  0
DICTIONARY
  5
2A
102
{ACAD_REACTORS
330
C
102
}
330
C
100
AcDbDictionary
281
     1
  3
2dWireframe
350
2F
  3
3D Hidden
350
31
  3
3dWireframe
350
30
  3
Basic
350
32
  3
Brighten
350
36
  3
ColorChange
350
3A
  3
Conceptual
350
34
  3
Dim
350
35
  3
Facepattern
350
39
  3
Flat
350
2B
  3
FlatWithEdges
350
2C
  3
Gouraud
350
2D
  3
GouraudWithEdges
350
2E
  3
Linepattern
350
38
  3
Realistic
350
33
  3
Thicken
350
37
  0
DICTIONARY
  5
131
102
{ACAD_REACTORS
330
C
102
}
330
C
100
AcDbDictionary
281
     1
  3
CANNOSCALE
350
132
  3
PSOLHEIGHT
350
136
  3
PSOLWIDTH
350
135
  0
LAYOUT
  5
1E
102
{ACAD_REACTORS
330
1A
102
}
330
1A
100
AcDbPlotSettings
  1

  2
none_device
  4

  6

 40
0.0
 41
0.0
 42
0.0
 43
0.0
 44
0.0
 45
0.0
 46
0.0
 47
0.0
 48
0.0
 49
0.0
140
0.0
141
0.0
142
1.0
143
1.0
 70
   688
 72
     0
 73
     0
 74
     5
  7

 75
    16
147
1.0
148
0.0
149
0.0
100
AcDbLayout
  1
Layout1
 70
     1
 71
     1
 10
0.0
 20
0.0
 11
1682.0
 21
2378.0
 12
0.0
 22
0.0
 32
0.0
 14
0.0
 24
0.0
 34
0.0
 15
1682.0
 25
2378.0
 35
0.0
146
0.0
 13
0.0
 23
0.0
 33
0.0
 16
1.0
 26
0.0
 36
0.0
 17
0.0
 27
1.0
 37
0.0
 76
     0
330
1B
  0
LAYOUT
  5
22
102
{ACAD_REACTORS
330
1A
102
}
330
1A
100
AcDbPlotSettings
  1

  2
none_device
  4

  6

 40
0.0
 41
0.0
 42
0.0
 43
0.0
 44
0.0
 45
0.0
 46
0.0
 47
0.0
 48
0.0
 49
0.0
140
0.0
141
0.0
142
1.0
143
1.0
 70
  1712
 72
     0
 73
     0
 74
     0
  7

 75
     0
147
1.0
148
0.0
149
0.0
100
AcDbLayout
  1
Model
 70
     1
 71
     0
 10
0.0
 20
0.0
 11
1682.0
 21
2378.0
 12
0.0
 22
0.0
 32
0.0
 14
0.0
 24
0.0
 34
0.0
 15
1682.0
 25
2378.0
 35
0.0
146
0.0
 13
0.0
 23
0.0
 33
0.0
 16
1.0
 26
0.0
 36
0.0
 17
0.0
 27
1.0
 37
0.0
 76
     0
330
1F
331
29
  0
MLINESTYLE
  5
18
102
{ACAD_REACTORS
330
17
102
}
330
17
100
AcDbMlineStyle
  2
Standard
 70
     0
  3

 62
   256
 51
90.0
 52
90.0
 71
     2
 49
0.5
 62
   256
  6
BYLAYER
 49
-0.5
 62
   256
  6
BYLAYER
  0
ACDBPLACEHOLDER
  5
F
102
{ACAD_REACTORS
330
E
102
}
330
E
  0
SCALE
  5
3C
102
{ACAD_REACTORS
330
3B
102
}
330
3B
100
AcDbScale
 70
     0
300
1:1
140
1.0
141
1.0
290
     1
  0
SCALE
  5
3D
102
{ACAD_REACTORS
330
3B
102
}
330
3B
100
AcDbScale
 70
     0
300
1:2
140
1.0
141
2.0
290
     0
  0
SCALE
  5
3E
102
{ACAD_REACTORS
330
3B
102
}
330
3B
100
AcDbScale
 70
     0
300
1:4
140
1.0
141
4.0
290
     0
  0
SCALE
  5
3F
102
{ACAD_REACTORS
330
3B
102
}
330
3B
100
AcDbScale
 70
     0
300
1:5
140
1.0
141
5.0
290
     0
  0
SCALE
  5
40
102
{ACAD_REACTORS
330
3B
102
}
330
3B
100
AcDbScale
 70
     0
300
1:8
140
1.0
141
8.0
290
     0
  0
SCALE
  5
41
102
{ACAD_REACTORS
330
3B
102
}
330
3B
100
AcDbScale
 70
     0
300
1:10
140
1.0
141
10.0
290
     0
  0
SCALE
  5
42
102
{ACAD_REACTORS
330
3B
102
}
330
3B
100
AcDbScale
 70
     0
300
1:16
140
1.0
141
16.0
290
     0
  0
SCALE
  5
43
102
{ACAD_REACTORS
330
3B
102
}
330
3B
100
AcDbScale
 70
     0
300
1:20
140
1.0
141
20.0
290
     0
  0
SCALE
  5
44
102
{ACAD_REACTORS
330
3B
102
}
330
3B
100
AcDbScale
 70
     0
300
1:30
140
1.0
141
30.0
290
     0
  0
SCALE
  5
45
102
{ACAD_REACTORS
330
3B
102
}
330
3B
100
AcDbScale
 70
     0
300
1:40
140
1.0
141
40.0
290
     0
  0
SCALE
  5
46
102
{ACAD_REACTORS
330
3B
102
}
330
3B
100
AcDbScale
 70
     0
300
1:50
140
1.0
141
50.0
290
     0
  0
SCALE
  5
47
102
{ACAD_REACTORS
330
3B
102
}
330
3B
100
AcDbScale
 70
     0
300
1:100
140
1.0
141
100.0
290
     0
  0
SCALE
  5
48
102
{ACAD_REACTORS
330
3B
102
}
330
3B
100
AcDbScale
 70
     0
300
2:1
140
2.0
141
1.0
290
     0
  0
SCALE
  5
49
102
{ACAD_REACTORS
330
3B
102
}
330
3B
100
AcDbScale
 70
     0
300
4:1
140
4.0
141
1.0
290
     0
  0
SCALE
  5
4A
102
{ACAD_REACTORS
330
3B
102
}
330
3B
100
AcDbScale
 70
     0
300
8:1
140
8.0
141
1.0
290
     0
  0
SCALE
  5
4B
102
{ACAD_REACTORS
330
3B
102
}
330
3B
100
AcDbScale
 70
     0
300
10:1
140
10.0
141
1.0
290
     0
  0
SCALE
  5
4C
102
{ACAD_REACTORS
330
3B
102
}
330
3B
100
AcDbScale
 70
     0
300
100:1
140
100.0
141
1.0
290
     0
  0
SCALE
  5
4D
102
{ACAD_REACTORS
330
3B
102
}
330
3B
100
AcDbScale
 70
     0
300
1/128" = 1'-0"
140
0.0078125
141
12.0
290
     0
  0
SCALE
  5
4E
102
{ACAD_REACTORS
330
3B
102
}
330
3B
100
AcDbScale
 70
     0
300
1/64" = 1'-0"
140
0.015625
141
12.0
290
     0
  0
SCALE
  5
4F
102
{ACAD_REACTORS
330
3B
102
}
330
3B
100
AcDbScale
 70
     0
300
1/32" = 1'-0"
140
0.03125
141
12.0
290
     0
  0
SCALE
  5
50
102
{ACAD_REACTORS
330
3B
102
}
330
3B
100
AcDbScale
 70
     0
300
1/16" = 1'-0"
140
0.0625
141
12.0
290
     0
  0
SCALE
  5
51
102
{ACAD_REACTORS
330
3B
102
}
330
3B
100
AcDbScale
 70
     0
300
3/32" = 1'-0"
140
0.09375
141
12.0
290
     0
  0
SCALE
  5
52
102
{ACAD_REACTORS
330
3B
102
}
330
3B
100
AcDbScale
 70
     0
300
1/8" = 1'-0"
140
0.125
141
12.0
290
     0
  0
SCALE
  5
53
102
{ACAD_REACTORS
330
3B
102
}
330
3B
100
AcDbScale
 70
     0
300
3/16" = 1'-0"
140
0.1875
141
12.0
290
     0
  0
SCALE
  5
54
102
{ACAD_REACTORS
330
3B
102
}
330
3B
100
AcDbScale
 70
     0
300
1/4" = 1'-0"
140
0.25
141
12.0
290
     0
  0
SCALE
  5
55
102
{ACAD_REACTORS
330
3B
102
}
330
3B
100
AcDbScale
 70
     0
300
3/8" = 1'-0"
140
0.375
141
12.0
290
     0
  0
SCALE
  5
56
102
{ACAD_REACTORS
330
3B
102
}
330
3B
100
AcDbScale
 70
     0
300
1/2" = 1'-0"
140
0.5
141
12.0
290
     0
  0
SCALE
  5
57
102
{ACAD_REACTORS
330
3B
102
}
330
3B
100
AcDbScale
 70
     0
300
3/4" = 1'-0"
140
0.75
141
12.0
290
     0
  0
SCALE
  5
58
102
{ACAD_REACTORS
330
3B
102
}
330
3B
100
AcDbScale
 70
     0
300
1" = 1'-0"
140
1.0
141
12.0
290
     0
  0
SCALE
  5
59
102
{ACAD_REACTORS
330
3B
102
}
330
3B
100
AcDbScale
 70
     0
300
1-1/2" = 1'-0"
140
1.5
141
12.0
290
     0
  0
SCALE
  5
5A
102
{ACAD_REACTORS
330
3B
102
}
330
3B
100
AcDbScale
 70
     0
300
3" = 1'-0"
140
3.0
141
12.0
290
     0
  0
SCALE
  5
5B
102
{ACAD_REACTORS
330
3B
102
}
330
3B
100
AcDbScale
 70
     0
300
6" = 1'-0"
140
6.0
141
12.0
290
     0
  0
SCALE
  5
5C
102
{ACAD_REACTORS
330
3B
102
}
330
3B
100
AcDbScale
 70
     0
300
1'-0" = 1'-0"
140
12.0
141
12.0
290
     0
  0
VISUALSTYLE
  5
2F
102
{ACAD_REACTORS
330
2A
102
}
330
2A
100
AcDbVisualStyle
  2
2dWireframe
 70
     4
 71
     0
 72
     2
 73
     0
 90
        0
 40
-0.6
 41
-30.0
 62
     5
 63
     7
 74
     1
 91
        4
 64
     7
 65
   257
 75
     1
175
     1
 42
1.0
 92
        0
 66
   257
 43
1.0
 76
     1
 77
     6
 78
     2
 67
     7
 79
     5
170
     0
171
     0
290
     0
174
     0
 93
        1
 44
0.0
173
     0
291
     0
 45
0.0
1001
ACAD
1000
AcDbSavedByObjectVersion
1070
     0
  0
VISUALSTYLE
  5
31
102
{ACAD_REACTORS
330
2A
102
}
330
2A
100
AcDbVisualStyle
  2
3D Hidden
 70
     6
 71
     1
 72
     2
 73
     2
 90
        0
 40
-0.6
 41
-30.0
 62
     5
 63
     7
 74
     2
 91
        2
 64
     7
 65
   257
 75
     2
175
     1
 42
40.0
 92
        0
 66
   257
 43
1.0
 76
     1
 77
     6
 78
     2
 67
     7
 79
     3
170
     0
171
     0
290
     0
174
     0
 93
        1
 44
0.0
173
     0
291
     0
 45
0.0
1001
ACAD
1000
AcDbSavedByObjectVersion
1070
     0
  0
VISUALSTYLE
  5
30
102
{ACAD_REACTORS
330
2A
102
}
330
2A
100
AcDbVisualStyle
  2
3dWireframe
 70
     5
 71
     0
 72
     2
 73
     0
 90
        0
 40
-0.6
 41
-30.0
 62
     5
 63
     7
 74
     1
 91
        4
 64
     7
 65
   257
 75
     1
175
     1
 42
1.0
 92
        0
 66
   257
 43
1.0
 76
     1
 77
     6
 78
     2
 67
     7
 79
     5
170
     0
171
     0
290
     0
174
     0
 93
        1
 44
0.0
173
     0
291
     0
 45
0.0
1001
ACAD
1000
AcDbSavedByObjectVersion
1070
     0
  0
VISUALSTYLE
  5
32
102
{ACAD_REACTORS
330
2A
102
}
330
2A
100
AcDbVisualStyle
  2
Basic
 70
     7
 71
     1
 72
     0
 73
     1
 90
        0
 40
-0.6
 41
-30.0
 62
     5
 63
     7
 74
     0
 91
        4
 64
     7
 65
   257
 75
     1
175
     1
 42
1.0
 92
        8
 66
     7
 43
1.0
 76
     1
 77
     6
 78
     2
 67
     7
 79
     5
170
     0
171
     0
290
     0
174
     0
 93
        1
 44
0.0
173
     0
291
     1
 45
0.0
1001
ACAD
1000
AcDbSavedByObjectVersion
1070
     0
  0
VISUALSTYLE
  5
36
102
{ACAD_REACTORS
330
2A
102
}
330
2A
100
AcDbVisualStyle
  2
Brighten
 70
    12
 71
     2
 72
     2
 73
     0
 90
        0
 40
-0.6
 41
-30.0
 62
     5
 63
     7
 74
     1
 91
        4
 64
     7
 65
   257
 75
     1
175
     1
 42
1.0
 92
        8
 66
     7
 43
1.0
 76
     1
 77
     6
 78
     2
 67
     7
 79
     5
170
     0
171
     0
290
     0
174
     0
 93
        1
 44
50.0
173
     0
291
     1
 45
0.0
1001
ACAD
1000
AcDbSavedByObjectVersion
1070
     0
  0
VISUALSTYLE
  5
3A
102
{ACAD_REACTORS
330
2A
102
}
330
2A
100
AcDbVisualStyle
  2
ColorChange
 70
    16
 71
     2
 72
     2
 73
     3
 90
        0
 40
-0.6
 41
-30.0
 62
     5
 63
     8
 74
     1
 91
        4
 64
     7
 65
   257
 75
     1
175
     1
 42
1.0
 92
        8
 66
     8
 43
1.0
 76
     1
 77
     6
 78
     2
 67
     7
 79
     5
170
     0
171
     0
290
     0
174
     0
 93
        1
 44
0.0
173
     0
291
     1
 45
0.0
1001
ACAD
1000
AcDbSavedByObjectVersion
1070
     0
  0
VISUALSTYLE
  5
34
102
{ACAD_REACTORS
330
2A
102
}
330
2A
100
AcDbVisualStyle
  2
Conceptual
 70
     9
 71
     3
 72
     2
 73
     0
 90
        0
 40
-0.6
 41
-30.0
 62
     5
 63
     7
 74
     2
 91
        2
 64
     7
 65
   257
 75
     1
175
     1
 42
40.0
 92
        8
 66
     7
 43
1.0
 76
     1
 77
     6
 78
     2
 67
     7
 79
     3
170
     0
171
     0
290
     0
174
     0
 93
        1
 44
0.0
173
     0
291
     0
 45
0.0
1001
ACAD
1000
AcDbSavedByObjectVersion
1070
     0
  0
VISUALSTYLE
  5
35
102
{ACAD_REACTORS
330
2A
102
}
330
2A
100
AcDbVisualStyle
  2
Dim
 70
    11
 71
     2
 72
     2
 73
     0
 90
        0
 40
-0.6
 41
-30.0
 62
     5
 63
     7
 74
     1
 91
        4
 64
     7
 65
   257
 75
     1
175
     1
 42
1.0
 92
        8
 66
     7
 43
1.0
 76
     1
 77
     6
 78
     2
 67
     7
 79
     5
170
     0
171
     0
290
     0
174
     0
 93
        1
 44
-50.0
173
     0
291
     1
 45
0.0
1001
ACAD
1000
AcDbSavedByObjectVersion
1070
     0
  0
VISUALSTYLE
  5
39
102
{ACAD_REACTORS
330
2A
102
}
330
2A
100
AcDbVisualStyle
  2
Facepattern
 70
    15
 71
     2
 72
     2
 73
     0
 90
        0
 40
-0.6
 41
-30.0
 62
     5
 63
     7
 74
     1
 91
        4
 64
     7
 65
   257
 75
     1
175
     1
 42
1.0
 92
        8
 66
     7
 43
1.0
 76
     1
 77
     6
 78
     2
 67
     7
 79
     5
170
     0
171
     0
290
     0
174
     0
 93
        1
 44
0.0
173
     0
291
     1
 45
0.0
1001
ACAD
1000
AcDbSavedByObjectVersion
1070
     0
  0
VISUALSTYLE
  5
2B
102
{ACAD_REACTORS
330
2A
102
}
330
2A
100
AcDbVisualStyle
  2
Flat
 70
     0
 71
     2
 72
     1
 73
     1
 90
        2
 40
-0.6
 41
30.0
 62
     5
 63
     7
 74
     0
 91
        4
 64
     7
 65
   257
 75
     1
175
     1
 42
1.0
 92
        8
 66
     7
 43
1.0
 76
     1
 77
     6
 78
     2
 67
     7
 79
     5
170
     0
171
     0
290
     0
174
     0
 93
       13
 44
0.0
173
     0
291
     1
 45
0.0
1001
ACAD
1000
AcDbSavedByObjectVersion
1070
     0
  0
VISUALSTYLE
  5
2C
102
{ACAD_REACTORS
330
2A
102
}
330
2A
100
AcDbVisualStyle
  2
FlatWithEdges
 70
     1
 71
     2
 72
     1
 73
     1
 90
        2
 40
-0.6
 41
30.0
 62
     5
 63
     7
 74
     1
 91
        4
 64
     7
 65
   257
 75
     1
175
     1
 42
1.0
 92
        0
 66
   257
 43
1.0
 76
     1
 77
     6
 78
     2
 67
     7
 79
     5
170
     0
171
     0
290
     0
174
     0
 93
       13
 44
0.0
173
     0
291
     1
 45
0.0
1001
ACAD
1000
AcDbSavedByObjectVersion
1070
     0
  0
VISUALSTYLE
  5
2D
102
{ACAD_REACTORS
330
2A
102
}
330
2A
100
AcDbVisualStyle
  2
Gouraud
 70
     2
 71
     2
 72
     2
 73
     1
 90
        2
 40
-0.6
 41
30.0
 62
     5
 63
     7
 74
     0
 91
        4
 64
     7
 65
   257
 75
     1
175
     1
 42
1.0
 92
        0
 66
     7
 43
1.0
 76
     1
 77
     6
 78
     2
 67
     7
 79
     5
170
     0
171
     0
290
     0
174
     0
 93
       13
 44
0.0
173
     0
291
     1
 45
0.0
1001
ACAD
1000
AcDbSavedByObjectVersion
1070
     0
  0
VISUALSTYLE
  5
2E
102
{ACAD_REACTORS
330
2A
102
}
330
2A
100
AcDbVisualStyle
  2
GouraudWithEdges
 70
     3
 71
     2
 72
     2
 73
     1
 90
        2
 40
-0.6
 41
30.0
 62
     5
 63
     7
 74
     1
 91
        4
 64
     7
 65
   257
 75
     1
175
     1
 42
1.0
 92
        0
 66
   257
 43
1.0
 76
     1
 77
     6
 78
     2
 67
     7
 79
     5
170
     0
171
     0
290
     0
174
     0
 93
       13
 44
0.0
173
     0
291
     1
 45
0.0
1001
ACAD
1000
AcDbSavedByObjectVersion
1070
     0
  0
VISUALSTYLE
  5
38
102
{ACAD_REACTORS
330
2A
102
}
330
2A
100
AcDbVisualStyle
  2
Linepattern
 70
    14
 71
     2
 72
     2
 73
     0
 90
        0
 40
-0.6
 41
-30.0
 62
     5
 63
     7
 74
     1
 91
        4
 64
     7
 65
   257
 75
     7
175
     7
 42
1.0
 92
        8
 66
     7
 43
1.0
 76
     1
 77
     6
 78
     2
 67
     7
 79
     5
170
     0
171
     0
290
     0
174
     0
 93
        1
 44
0.0
173
     0
291
     1
 45
0.0
1001
ACAD
1000
AcDbSavedByObjectVersion
1070
     0
  0
VISUALSTYLE
  5
33
102
{ACAD_REACTORS
330
2A
102
}
330
2A
100
AcDbVisualStyle
  2
Realistic
 70
     8
 71
     2
 72
     2
 73
     0
 90
        0
 40
-0.6
 41
-30.0
 62
     5
 63
     7
 74
     1
 91
        0
 64
     7
 65
   257
 75
     1
175
     1
 42
1.0
 92
        8
 66
     8
 43
1.0
 76
     1
 77
     6
 78
     2
 67
     7
 79
     5
170
     0
171
     0
290
     0
174
     0
 93
       13
 44
0.0
173
     0
291
     0
 45
0.0
1001
ACAD
1000
AcDbSavedByObjectVersion
1070
     0
  0
VISUALSTYLE
  5
37
102
{ACAD_REACTORS
330
2A
102
}
330
2A
100
AcDbVisualStyle
  2
Thicken
 70
    13
 71
     2
 72
     2
 73
     0
 90
        0
 40
-0.6
 41
-30.0
 62
     5
 63
     7
 74
     1
 91
        4
 64
     7
 65
   257
 75
     1
175
     1
 42
1.0
 92
       12
 66
     7
 43
1.0
 76
     1
 77
     6
 78
     2
 67
     7
 79
     5
170
     0
171
     0
290
     0
174
     0
 93
        1
 44
0.0
173
     0
291
     1
 45
0.0
1001
ACAD
1000
AcDbSavedByObjectVersion
1070
     0
  0
DICTIONARYVAR
  5
132
102
{ACAD_REACTORS
330
131
102
}
330
131
100
DictionaryVariables
280
     0
  1
1:1
  0
DICTIONARYVAR
  5
136
102
{ACAD_REACTORS
330
131
102
}
330
131
100
DictionaryVariables
280
     0
  1
80.000000
  0
DICTIONARYVAR
  5
135
102
{ACAD_REACTORS
330
131
102
}
330
131
100
DictionaryVariables
280
     0
  1
5.000000
  0
ENDSEC
  0
EOF
